  0
SECTION
  2
HEADER
  9
$ACADVER
  1
AC1009
  9
$INSBASE
 10
0.0
 20
0.0
 30
0.0
  9
$EXTMIN
 10
110.3297083251191
 20
370.54518598272779
 30
-0.0000000000000053
  9
$EXTMAX
 10
1046.8190037188001
 20
1005.872936188956
 30
0.0000000000000099
  9
$LIMMIN
 10
0.0000005999945643
 20
-0.0000005963913736
  9
$LIMMAX
 10
1422.5000005999941
 20
924.99999940360874
  9
$ORTHOMODE
 70
     0
  9
$REGENMODE
 70
     1
  9
$FILLMODE
 70
     1
  9
$QTEXTMODE
 70
     0
  9
$MIRRTEXT
 70
     0
  9
$DRAGMODE
 70
     2
  9
$LTSCALE
 40
1.0
  9
$OSMODE
 70
   551
  9
$ATTMODE
 70
     1
  9
$TEXTSIZE
 40
2.5
  9
$TRACEWID
 40
1.0
  9
$TEXTSTYLE
  7
STANDARD
  9
$CLAYER
  8
0
  9
$CELTYPE
  6
BYLAYER
  9
$CECOLOR
 62
   256
  9
$DIMSCALE
 40
1.0
  9
$DIMASZ
 40
2.0
  9
$DIMEXO
 40
1.0
  9
$DIMDLI
 40
8.0
  9
$DIMRND
 40
0.0
  9
$DIMDLE
 40
0.0
  9
$DIMEXE
 40
1.0
  9
$DIMTP
 40
-0.025
  9
$DIMTM
 40
0.043
  9
$DIMTXT
 40
2.5
  9
$DIMCEN
 40
0.0
  9
$DIMTSZ
 40
0.0
  9
$DIMTOL
 70
     0
  9
$DIMLIM
 70
     0
  9
$DIMTIH
 70
     0
  9
$DIMTOH
 70
     0
  9
$DIMSE1
 70
     0
  9
$DIMSE2
 70
     0
  9
$DIMTAD
 70
     3
  9
$DIMZIN
 70
     8
  9
$DIMBLK
  1

  9
$DIMASO
 70
     1
  9
$DIMSHO
 70
     1
  9
$DIMPOST
  1

  9
$DIMAPOST
  1
"
  9
$DIMALT
 70
     0
  9
$DIMALTD
 70
     2
  9
$DIMALTF
 40
0.0393701
  9
$DIMLFAC
 40
1.0
  9
$DIMTOFL
 70
     1
  9
$DIMTVP
 40
0.0
  9
$DIMTIX
 70
     0
  9
$DIMSOXD
 70
     0
  9
$DIMSAH
 70
     0
  9
$DIMBLK1
  1

  9
$DIMBLK2
  1

  9
$DIMSTYLE
  2
AM_JIS
  9
$DIMCLRD
 70
     2
  9
$DIMCLRE
 70
     2
  9
$DIMCLRT
 70
     4
  9
$DIMTFAC
 40
0.71
  9
$DIMGAP
 40
1.5
  9
$LUNITS
 70
     2
  9
$LUPREC
 70
     2
  9
$SKETCHINC
 40
1.0
  9
$FILLETRAD
 40
0.0
  9
$AUNITS
 70
     0
  9
$AUPREC
 70
     0
  9
$MENU
  1
.
  9
$ELEVATION
 40
0.0
  9
$PELEVATION
 40
0.0
  9
$THICKNESS
 40
0.0
  9
$LIMCHECK
 70
     0
  9
$BLIPMODE
 70
     0
  9
$CHAMFERA
 40
2.5
  9
$CHAMFERB
 40
2.5
  9
$SKPOLY
 70
     0
  9
$TDCREATE
 40
2456829.3841110538
  9
$TDUPDATE
 40
2458540.685783681
  9
$TDINDWG
 40
0.5849108681
  9
$TDUSRTIMER
 40
0.5849102662
  9
$USRTIMER
 70
     1
  9
$ANGBASE
 50
0.0
  9
$ANGDIR
 70
     0
  9
$PDMODE
 70
     0
  9
$PDSIZE
 40
0.0
  9
$PLINEWID
 40
0.0
  9
$COORDS
 70
     1
  9
$SPLFRAME
 70
     0
  9
$SPLINETYPE
 70
     6
  9
$SPLINESEGS
 70
     8
  9
$ATTDIA
 70
     1
  9
$ATTREQ
 70
     1
  9
$HANDLING
 70
     1
  9
$HANDSEED
  5
A3DC
  9
$SURFTAB1
 70
     6
  9
$SURFTAB2
 70
     6
  9
$SURFTYPE
 70
     6
  9
$SURFU
 70
     6
  9
$SURFV
 70
     6
  9
$UCSNAME
  2

  9
$UCSORG
 10
0.0
 20
0.0
 30
0.0
  9
$UCSXDIR
 10
1.0
 20
0.0
 30
0.0
  9
$UCSYDIR
 10
0.0
 20
1.0
 30
0.0
  9
$PUCSNAME
  2

  9
$PUCSORG
 10
0.0
 20
0.0
 30
0.0
  9
$PUCSXDIR
 10
1.0
 20
0.0
 30
0.0
  9
$PUCSYDIR
 10
0.0
 20
1.0
 30
0.0
  9
$USERI1
 70
     0
  9
$USERI2
 70
     0
  9
$USERI3
 70
     0
  9
$USERI4
 70
     0
  9
$USERI5
 70
     0
  9
$USERR1
 40
0.0
  9
$USERR2
 40
0.0
  9
$USERR3
 40
0.0
  9
$USERR4
 40
0.0
  9
$USERR5
 40
0.0
  9
$WORLDVIEW
 70
     1
  9
$SHADEDGE
 70
     3
  9
$SHADEDIF
 70
    70
  9
$TILEMODE
 70
     1
  9
$MAXACTVP
 70
    64
  9
$PLIMCHECK
 70
     0
  9
$PEXTMIN
 10
1.0000000000000000E+020
 20
1.0000000000000000E+020
 30
1.0000000000000000E+020
  9
$PEXTMAX
 10
-1.0000000000000000E+020
 20
-1.0000000000000000E+020
 30
-1.0000000000000000E+020
  9
$PLIMMIN
 10
0.0
 20
0.0
  9
$PLIMMAX
 10
420.0
 20
297.0
  9
$UNITMODE
 70
     0
  9
$VISRETAIN
 70
     1
  9
$PLINEGEN
 70
     0
  9
$PSLTSCALE
 70
     1
  0
ENDSEC
  0
SECTION
  2
TABLES
  0
TABLE
  2
VPORT
 70
     1
  0
VPORT
  2
*ACTIVE
 70
     0
 10
0.0
 20
0.0
 11
1.0
 21
1.0
 12
578.57435602195983
 22
688.20906108584165
 13
0.0
 23
0.0
 14
12.5
 24
12.5
 15
50.0
 25
50.0
 16
0.0
 26
0.0
 36
1.0
 17
0.0
 27
0.0
 37
0.0
 40
639.68926794219738
 41
1.7571592210767459
 42
50.0
 43
0.0
 44
0.0
 50
0.0
 51
0.0
 71
     0
 72
  1000
 73
     1
 74
     3
 75
     0
 76
     0
 77
     0
 78
     0
  0
ENDTAB
  0
TABLE
  2
LTYPE
 70
    24
  0
LTYPE
  2
CONTINUOUS
 70
     0
  3
Solid line
 72
    65
 73
     0
 40
0.0
  0
LTYPE
  2
CENTER
 70
     0
  3
Center ____ _ ____ _ ____ _ ____ _ ____ _ ____
 72
    65
 73
     4
 40
50.799999999999997
 49
31.75
 49
-6.349999999999997
 49
6.349999999999997
 49
-6.349999999999997
  0
LTYPE
  2
AM_ISO02W050
 70
     0
  3
__ __ __ __ __ __ __ __ __ __ __ __ __ __ __
 72
    65
 73
     2
 40
7.5
 49
6.0
 49
-1.5
  0
LTYPE
  2
AM_ISO08W050
 70
     0
  3
____ . ____ . ____ . ____ . ____ . ____ . ____
 72
    65
 73
     4
 40
18.0
 49
12.0
 49
-1.5
 49
3.0
 49
-1.5
  0
LTYPE
  2
AM_ISO09W050
 70
     0
  3
_____ . . _____ . . _____ . . ____ .. ____
 72
    65
 73
     6
 40
22.5
 49
12.0
 49
-1.5
 49
3.0
 49
-1.5
 49
3.0
 49
-1.5
  0
LTYPE
  2
AMCONSTR
 70
     0
  3
_______________________
 72
    65
 73
     2
 40
9999.0
 49
9999.0
 49
0.0
  0
LTYPE
  2
AM_ISO08W050X2
 70
     0
  3
__ . __ . __ . __ . __ . __
 72
    65
 73
     4
 40
9.0
 49
6.0
 49
-0.75
 49
1.5
 49
-0.75
  0
LTYPE
  2
AM_ISO02W050X2
 70
     0
  3
 _ _ _ _ _ _ _ _ _ _ _ _
 72
    65
 73
     2
 40
3.75
 49
3.0
 49
-0.75
  0
LTYPE
  2
AMZIGZAG
 70
     0
  3
/\/-/\/-/\/-/\/-/\/-/\/
 72
    65
 73
     2
 40
11.0001
 49
0.0001
 49
-11.0
  0
LTYPE
  2
ACANSTGBM
 70
     0
  3
__ . . __ . .
 72
    65
 73
     6
 40
9.0
 49
4.0
 49
-1.0
 49
1.0
 49
-1.0
 49
1.0
 49
-1.0
  0
LTYPE
  2
ACANSTGLM
 70
     0
  3
_ _ _ _ _
 72
    65
 73
     2
 40
3.0
 49
2.0
 49
-1.0
  0
LTYPE
  2
ACISOWELD
 70
     0
  3
_ _ _ _ _
 72
    65
 73
     2
 40
2.0
 49
2.0
 49
-1.0
  0
LTYPE
  2
ACISOTGB
 70
     0
  3
__ . . __ . .
 72
    65
 73
     6
 40
9.0
 49
4.0
 49
-1.0
 49
1.0
 49
-1.0
 49
1.0
 49
-1.0
  0
LTYPE
  2
ACISOTGL
 70
     0
  3
_ _ _ _ _
 72
    65
 73
     2
 40
3.0
 49
2.0
 49
-1.0
  0
LTYPE
  2
ACJISTGB
 70
     0
  3
__ . . __ . .
 72
    65
 73
     6
 40
9.0
 49
4.0
 49
-1.0
 49
1.0
 49
-1.0
 49
1.0
 49
-1.0
  0
LTYPE
  2
ACJISTGL
 70
     0
  3
_ _ _ _ _
 72
    65
 73
     2
 40
3.0
 49
2.0
 49
-1.0
  0
LTYPE
  2
HIDDEN
 70
     0
  3
Hidden __ __ __ __ __ __ __ __ __ __ __ __ __ _
 72
    65
 73
     2
 40
9.5249999999999968
 49
6.349999999999997
 49
-3.174999999999998
  0
LTYPE
  2
PHANTOM2
 70
     0
  3
Phantom (.5x) ___ _ _ ___ _ _ ___ _ _ ___ _ _
 72
    65
 73
     6
 40
31.75
 49
15.875
 49
-3.174999999999998
 49
3.174999999999998
 49
-3.174999999999998
 49
3.174999999999998
 49
-3.174999999999998
  0
LTYPE
  2
CENTER2
 70
     0
  3
Center (.5x) ___ _ ___ _ ___ _ ___ _ ___ _ ___
 72
    65
 73
     4
 40
1.125
 49
0.75
 49
-0.125
 49
0.125
 49
-0.125
  0
LTYPE
  2
HIDDEN2
 70
     0
  3
Hidden (.5x) _ _ _ _ _ _ _ _ _ _ _ _ _ _ _ _ _
 72
    65
 73
     2
 40
0.1875
 49
0.125
 49
-0.0625
  0
LTYPE
  2
AMZIGZAG2
 70
     0
  3
/\/-/\/-/\/-/\/-/\/-/\/
 72
    65
 73
     2
 40
0.4401
 49
0.0001
 49
-0.4400000000000001
  0
LTYPE
  2
ACANSTGB
 70
     0
  3
__ . . __ . .
 72
    65
 73
     6
 40
0.35433070866
 49
0.15748031496
 49
-0.03937007874
 49
0.03937007874
 49
-0.03937007874
 49
0.03937007874
 49
-0.03937007874
  0
LTYPE
  2
ACANSTGL
 70
     0
  3
_ _ _ _ _
 72
    65
 73
     2
 40
0.11811023622
 49
0.07874015748
 49
-0.03937007874
  0
ENDTAB
  0
TABLE
  2
LAYER
 70
     4
  0
LAYER
  2
0
 70
     0
 62
     7
  6
CONTINUOUS
  0
LAYER
  2
DEFPOINTS
 70
     0
 62
     7
  6
CONTINUOUS
  0
LAYER
  2
AM_CL
 70
     0
 62
     1
  6
AMCONSTR
  0
LAYER
  2
AM_5
 70
     0
 62
     2
  6
CONTINUOUS
  0
ENDTAB
  0
TABLE
  2
STYLE
 70
    10
  0
STYLE
  2
STANDARD
 70
     0
 40
0.0
 41
0.7400000000000003
 50
0.0
 71
     0
 42
2.5
  3
txt.shx
  4
bigfont.shx
  0
STYLE
  2
ANNOTATIVE
 70
     0
 40
0.0
 41
1.0
 50
0.0
 71
     0
 42
0.2
  3
txt
  4

  0
STYLE
  2

 70
     1
 40
0.0
 41
1.0
 50
0.0
 71
     0
 42
2.5
  3
ltypeshp.shx
  4

  0
STYLE
  2
ACANSTS
 70
     0
 40
1.0
 41
1.0
 50
0.0
 71
     0
 42
2.5
  3
romans.shx
  4
bigfont.shx
  0
STYLE
  2
ACANSGDT
 70
     0
 40
0.0
 41
1.0
 50
0.0
 71
     0
 42
2.5
  3
amgdt.shx
  4

  0
STYLE
  2
ACISOTS
 70
     0
 40
1.0
 41
1.0
 50
0.0
 71
     0
 42
2.5
  3
isocp.shx
  4
extfont.shx
  0
STYLE
  2
ACISOGDT
 70
     0
 40
0.0
 41
1.0
 50
0.0
 71
     0
 42
2.5
  3
amgdt.shx
  4

  0
STYLE
  2
ACJISGDT
 70
     0
 40
0.0
 41
1.0
 50
0.0
 71
     0
 42
2.5
  3
amgdt.shx
  4

  0
STYLE
  2
ACJISTS
 70
     0
 40
1.0
 41
1.0
 50
0.0
 71
     0
 42
2.5
  3
isocp.shx
  4
extfont.shx
  0
STYLE
  2

 70
     1
 40
0.0
 41
1.0
 50
0.0
 71
     0
 42
2.5
  3
genltshp.shx
  4

  0
ENDTAB
  0
TABLE
  2
VIEW
 70
     6
  0
VIEW
  2
AM_VIEW1
 70
     0
 40
462.5
 10
488.83452017294832
 20
693.74999940360874
 41
977.66903914590728
 11
0.0
 21
0.0
 31
1.0
 12
0.0
 22
0.0
 32
0.0
 42
50.0
 43
0.0
 44
0.0
 50
0.0
 71
     0
  0
VIEW
  2
AM_VIEW2
 70
     0
 40
462.5
 10
933.66548102704076
 20
693.74999940360874
 41
977.66903914590728
 11
0.0
 21
0.0
 31
1.0
 12
0.0
 22
0.0
 32
0.0
 42
50.0
 43
0.0
 44
0.0
 50
0.0
 71
     0
  0
VIEW
  2
AM_VIEW3
 70
     0
 40
462.5
 10
488.83452017294832
 20
231.24999940360871
 41
977.66903914590728
 11
0.0
 21
0.0
 31
1.0
 12
0.0
 22
0.0
 32
0.0
 42
50.0
 43
0.0
 44
0.0
 50
0.0
 71
     0
  0
VIEW
  2
AM_VIEW4
 70
     0
 40
462.5
 10
933.66548102704076
 20
231.24999940360871
 41
977.66903914590728
 11
0.0
 21
0.0
 31
1.0
 12
0.0
 22
0.0
 32
0.0
 42
50.0
 43
0.0
 44
0.0
 50
0.0
 71
     0
  0
VIEW
  2
AM_VIEW5
 70
     0
 40
462.5
 10
711.25000059999468
 20
462.49999940360868
 41
977.66903914590728
 11
0.0
 21
0.0
 31
1.0
 12
0.0
 22
0.0
 32
0.0
 42
50.0
 43
0.0
 44
0.0
 50
0.0
 71
     0
  0
VIEW
  2
AM_VIEW6
 70
     0
 40
924.99075000000005
 10
711.25000059999468
 20
462.49999940360868
 41
1955.318524911032
 11
0.0
 21
0.0
 31
1.0
 12
0.0
 22
0.0
 32
0.0
 42
50.0
 43
0.0
 44
0.0
 50
0.0
 71
     0
  0
ENDTAB
  0
TABLE
  2
UCS
 70
     0
  0
ENDTAB
  0
TABLE
  2
APPID
 70
   158
  0
APPID
  2
ACAD
 70
     0
  0
APPID
  2
ACADANNOTATIVE
 70
     0
  0
APPID
  2
ACAD_MLEADERVER
 70
     0
  0
APPID
  2
MCAD_NO_VIS
 70
     0
  0
APPID
  2
ACAD_TEMP_GRAPHIC
 70
     0
  0
APPID
  2
AD_DRAW
 70
     0
  0
APPID
  2
ACATTRIBSERVICES
 70
     0
  0
APPID
  2
DESIGNERASSEMBLIES
 70
     0
  0
APPID
  2
ACADM_DIM_EDIT
 70
     0
  0
APPID
  2
AMDT_DM_ADJ
 70
     0
  0
APPID
  2
GENIUS_GENDIMSH_14
 70
     0
  0
APPID
  2
GEVID1057795304
 70
     0
  0
APPID
  2
GEVDC
 70
     0
  0
APPID
  2
GEVCON
 70
     0
  0
APPID
  2
GENIUS_GENBH_13
 70
     0
  0
APPID
  2
GENIUS_GENOENT_13
 70
     0
  0
APPID
  2
GENIUS_GENOBJ-NBEHI-BHF_13
 70
     0
  0
APPID
  2
GENIUS_GENOLIS_13
 70
     0
  0
APPID
  2
GENIUS_GENODEF_13
 70
     0
  0
APPID
  2
GENIUS_GENOREF_13
 70
     0
  0
APPID
  2
GENIUS_GENOBJ-NBEHI-BHB_13
 70
     0
  0
APPID
  2
GENIUS_GENOBJ-F-SCPASSM_13
 70
     0
  0
APPID
  2
GENIUS_GENDTOL_13
 70
     0
  0
APPID
  2
GENIUS_GENTRA_14
 70
     0
  0
APPID
  2
ASURF_PCURVE_APPNAME
 70
     0
  0
APPID
  2
GENIUS_GENCFG_13
 70
     0
  0
APPID
  2
GENIUS_GE3CFG0_13
 70
     0
  0
APPID
  2
GENIUS_GENCFG0_13
 70
     0
  0
APPID
  2
GENIUS_GENCFG1_13
 70
     0
  0
APPID
  2
GENIUS_GENCFG2_13
 70
     0
  0
APPID
  2
GENIUS_GENCFG3_13
 70
     0
  0
APPID
  2
GENIUS_GENCFG4_13
 70
     0
  0
APPID
  2
GENIUS_GEVCFG0_13
 70
     0
  0
APPID
  2
GENIUS_GENOBJ-N-TIT_13
 70
     0
  0
APPID
  2
GENIUS_GENTITLE_13
 70
     0
  0
APPID
  2
GENIUS_GENSCREG_15
 70
     0
  0
APPID
  2
GENIUS_GENOBJ-N-SDF_13
 70
     0
  0
APPID
  2
GENIUS_GENFIL_13
 70
     0
  0
APPID
  2
GENIUS_GENOBJ-N-CHA_13
 70
     0
  0
APPID
  2
GENIUS_GEFSH_13
 70
     0
  0
APPID
  2
GENIUS_GENOBJ-F-SHS_13
 70
     0
  0
APPID
  2
GENIUS_GENOBJ-N-CEN_13
 70
     0
  0
APPID
  2
GENIUS_GENREC_14
 70
     0
  0
APPID
  2
GENIUS_GENOBJ-N-REC_13
 70
     0
  0
APPID
  2
GENIUS_GENOBJ-N-HTC_13
 70
     0
  0
APPID
  2
GENIUS_GENHATCH_13
 70
     0
  0
APPID
  2
ACAD_PSEXT
 70
     0
  0
APPID
  2
ACAD_EXEMPT_FROM_CAD_STANDARDS
 70
     0
  0
APPID
  2
ACAECLAYERSTANDARD
 70
     0
  0
APPID
  2
GENIUS_GENCEN_19
 70
     0
  0
APPID
  2
ACAD_DSTYLE_DIMINSPECT
 70
     0
  0
APPID
  2
ACAD_DSTYLE_DIMANGULAR_EXT
 70
     0
  0
APPID
  2
ACADANNOPO
 70
     0
  0
APPID
  2
ACAD_NAV_VCDISPLAY
 70
     0
  0
APPID
  2
GENIUS_GENOBJ-N-FIL_13
 70
     0
  0
APPID
  2
ACAD_DSTYLE_DIMBREAK
 70
     0
  0
APPID
  2
ACAD_DSTYLE_DIMJAG
 70
     0
  0
APPID
  2
ACAD_DSTYLE_DIMRADIAL_EXTENSION
 70
     0
  0
APPID
  2
GENIUS_GENHINW_13
 70
     0
  0
APPID
  2
GENIUS_FIRSTVISTXT_14
 70
     0
  0
APPID
  2
GENIUS_GENOBJ-N-LEADER_13
 70
     0
  0
APPID
  2
DCO15
 70
     0
  0
APPID
  2
GENIUS_DUMCFG0_13
 70
     0
  0
APPID
  2
ACAD_DSTYLE_DIMTEXT_FILL
 70
     0
  0
APPID
  2
AMG_2DHIDE
 70
     0
  0
APPID
  2
GENIUS_GEFSHEP_13
 70
     0
  0
APPID
  2
GENIUS_GENOBJ-F-SHE_13
 70
     0
  0
APPID
  2
GENIUS_GEFSHE_13
 70
     0
  0
APPID
  2
ACAD_DIMASSOC_DIMLFAC
 70
     0
  0
APPID
  2
ACAD_DIMASSOC_CALC_DIMLFAC
 70
     0
  0
APPID
  2
ACAD_DIMASSOC_OVERRIDDEN_D
 70
     0
  0
APPID
  2
GENIUS_GENOBJ-F-SHSV_13
 70
     0
  0
APPID
  2
GENIUS_GEFWELD_13
 70
     0
  0
APPID
  2
GENIUS_GENOBJ-N-CRS_13
 70
     0
  0
APPID
  2
GENIUS_GENOBJ-N-RSBK_13
 70
     0
  0
APPID
  2
GENIUS_GENOBJ-N-LIB_13
 70
     0
  0
APPID
  2
GENIUS_GENSCALE_13
 70
     0
  0
APPID
  2
GENIUS_GENDREL_13
 70
     0
  0
APPID
  2
GEVPT
 70
     0
  0
APPID
  2
GEVIT
 70
     0
  0
APPID
  2
VCC
 70
     0
  0
APPID
  2
GENBH
 70
     0
  0
APPID
  2
GEVMK
 70
     0
  0
APPID
  2
GENIUS_GENOBJ-F-DESC_13
 70
     0
  0
APPID
  2
GENIUS_GEFDESC_14
 70
     0
  0
APPID
  2
GENIUS_GENOBJ-F-FEAT_13
 70
     0
  0
APPID
  2
GENIUS_GEFFEAT_14
 70
     0
  0
APPID
  2
GENIUS_GEFPARTINS_13
 70
     0
  0
APPID
  2
GENIUS_GENSCREG_13
 70
     0
  0
APPID
  2
GENIUS_GEFSHP_13
 70
     0
  0
APPID
  2
GEVID1025574798
 70
     0
  0
APPID
  2
GEVID1025574769
 70
     0
  0
APPID
  2
GEVID1025757451
 70
     0
  0
APPID
  2
GEVID1240528327
 70
     0
  0
APPID
  2
AMG_2DSTRUCT_BTR
 70
     0
  0
APPID
  2
ACADM_2DVIEW_IGN_NOTIFY
 70
     0
  0
APPID
  2
GEVID1240528328
 70
     0
  0
APPID
  2
GEVID1240528329
 70
     0
  0
APPID
  2
GEVRADREF
 70
     0
  0
APPID
  2
GEVID1240528330
 70
     0
  0
APPID
  2
GEVID1240528331
 70
     0
  0
APPID
  2
GEVID1240528332
 70
     0
  0
APPID
  2
GEVID1240791080
 70
     0
  0
APPID
  2
GEVID1240791081
 70
     0
  0
APPID
  2
GEVID1240791082
 70
     0
  0
APPID
  2
GEVID1240791083
 70
     0
  0
APPID
  2
GEVID1240791084
 70
     0
  0
APPID
  2
GEVID1240791085
 70
     0
  0
APPID
  2
GEVID1240791086
 70
     0
  0
APPID
  2
GEVID1240791087
 70
     0
  0
APPID
  2
GEVID1240791088
 70
     0
  0
APPID
  2
GEVID1240791089
 70
     0
  0
APPID
  2
GEVID1240791090
 70
     0
  0
APPID
  2
GEVID1240791091
 70
     0
  0
APPID
  2
GEVID1240791092
 70
     0
  0
APPID
  2
GEVID1240791093
 70
     0
  0
APPID
  2
GEVID1240791094
 70
     0
  0
APPID
  2
GEVID1240791095
 70
     0
  0
APPID
  2
GEVID1240791096
 70
     0
  0
APPID
  2
GEVID1240791097
 70
     0
  0
APPID
  2
GEVID1240791098
 70
     0
  0
APPID
  2
GEVID1240791099
 70
     0
  0
APPID
  2
GEVID1240791100
 70
     0
  0
APPID
  2
GEVID1240791101
 70
     0
  0
APPID
  2
GEVID1240791102
 70
     0
  0
APPID
  2
GEVID1240791103
 70
     0
  0
APPID
  2
GEVID1240791104
 70
     0
  0
APPID
  2
GEVID1240791105
 70
     0
  0
APPID
  2
GEVID1240875381
 70
     0
  0
APPID
  2
GEVID1240875382
 70
     0
  0
APPID
  2
GEVID1240875383
 70
     0
  0
APPID
  2
GEVID1240875384
 70
     0
  0
APPID
  2
GEVID1240875385
 70
     0
  0
APPID
  2
GEVID1240875386
 70
     0
  0
APPID
  2
GEVID1240875387
 70
     0
  0
APPID
  2
GEVID1240875388
 70
     0
  0
APPID
  2
GEVID1240875389
 70
     0
  0
APPID
  2
GEVID1240875390
 70
     0
  0
APPID
  2
GEVID1240875391
 70
     0
  0
APPID
  2
GEVID1240875392
 70
     0
  0
APPID
  2
GEVID1240875393
 70
     0
  0
APPID
  2
GEVID1240875394
 70
     0
  0
APPID
  2
GEVID1240875395
 70
     0
  0
APPID
  2
GEVID1240875396
 70
     0
  0
APPID
  2
GEVID1240875397
 70
     0
  0
APPID
  2
GEVID1240875398
 70
     0
  0
APPID
  2
GEVID1240875399
 70
     0
  0
APPID
  2
GEVID1240908996
 70
     0
  0
APPID
  2
GEVID1240908997
 70
     0
  0
APPID
  2
GEVID1240908998
 70
     0
  0
APPID
  2
GEVID1240908999
 70
     0
  0
APPID
  2
GEVID1240909000
 70
     0
  0
APPID
  2
GENIUS_GENOBJ-N-ZOO_13
 70
     0
  0
APPID
  2
GENIUS_GENZOO_17
 70
     0
  0
APPID
  2
GENIUS_GE3SECT_13
 70
     0
  0
APPID
  2
GEV_VCCNULL_SWITCH_OFF
 70
     0
  0
APPID
  2
ACAD_DSTYLE_DIMTALN
 70
     0
  0
APPID
  2
CONTENTBLOCKDESCRIPTION
 70
     0
  0
ENDTAB
  0
TABLE
  2
DIMSTYLE
 70
    23
  0
DIMSTYLE
  2
STANDARD
 70
     0
  3

  4

  5

  6

  7

 40
1.0
 41
0.18
 42
0.0625
 43
0.38
 44
0.18
 45
0.0
 46
0.0
 47
0.0
 48
0.0
140
0.18
141
0.09
142
0.0
143
25.399999999999999
144
1.0
145
0.0
146
1.0
147
0.09
 71
     0
 72
     0
 73
     1
 74
     1
 75
     0
 76
     0
 77
     0
 78
     0
170
     0
171
     2
172
     0
173
     0
174
     0
175
     0
176
     0
177
     0
178
     0
  0
DIMSTYLE
  2
ANNOTATIVE
 70
     0
  3

  4

  5

  6

  7

 40
1.0
 41
0.18
 42
0.0625
 43
0.38
 44
0.18
 45
0.0
 46
0.0
 47
0.0
 48
0.0
140
0.18
141
0.09
142
0.0
143
25.399999999999999
144
1.0
145
0.0
146
1.0
147
0.09
 71
     0
 72
     0
 73
     1
 74
     1
 75
     0
 76
     0
 77
     0
 78
     0
170
     0
171
     2
172
     0
173
     0
174
     0
175
     0
176
     0
177
     0
178
     0
  0
DIMSTYLE
  2
AM_ANSI
 70
     0
  3

  4
"
  5

  6

  7

 40
1.0
 41
2.5
 42
1.0
 43
10.0
 44
1.0
 45
0.0
 46
0.0
 47
0.1
 48
0.1
140
3.5
141
0.0
142
0.0
143
0.0393701
144
1.0
145
0.0
146
0.71
147
1.5
 71
     0
 72
     0
 73
     1
 74
     1
 75
     0
 76
     0
 77
     0
 78
     8
170
     0
171
     2
172
     0
173
     0
174
     0
175
     0
176
     2
177
     2
178
     4
  0
DIMSTYLE
  2
AM_ANSI$3
 70
     0
  3

  4
"
  5

  6

  7

 40
1.0
 41
2.5
 42
1.0
 43
10.0
 44
1.0
 45
0.0
 46
0.0
 47
0.1
 48
0.1
140
3.5
141
0.0
142
0.0
143
0.0393701
144
1.0
145
0.0
146
0.71
147
1.5
 71
     0
 72
     0
 73
     1
 74
     1
 75
     0
 76
     0
 77
     0
 78
     8
170
     0
171
     2
172
     0
173
     0
174
     0
175
     0
176
     2
177
     2
178
     4
  0
DIMSTYLE
  2
AM_ANSI$4
 70
     0
  3

  4
"
  5

  6

  7

 40
1.0
 41
2.5
 42
1.0
 43
10.0
 44
1.0
 45
0.0
 46
0.0
 47
0.1
 48
0.1
140
3.5
141
0.0
142
0.0
143
0.0393701
144
1.0
145
0.0
146
0.71
147
1.5
 71
     0
 72
     0
 73
     1
 74
     1
 75
     0
 76
     0
 77
     0
 78
     8
170
     0
171
     2
172
     0
173
     0
174
     0
175
     0
176
     2
177
     2
178
     4
  0
DIMSTYLE
  2
AM_ANSI$7
 70
     0
  3

  4
"
  5

  6

  7

 40
1.0
 41
2.5
 42
1.0
 43
10.0
 44
1.0
 45
0.0
 46
0.0
 47
0.1
 48
0.1
140
5.0
141
0.0
142
0.0
143
0.0393701
144
1.0
145
0.0
146
0.71
147
1.5
 71
     0
 72
     0
 73
     1
 74
     1
 75
     0
 76
     0
 77
     0
 78
     8
170
     0
171
     2
172
     0
173
     0
174
     0
175
     0
176
     2
177
     2
178
     4
  0
DIMSTYLE
  2
AM_ANSI$SF
 70
     0
  3

  4
"
  5

  6

  7

 40
1.0
 41
2.5
 42
1.0
 43
10.0
 44
1.0
 45
0.0
 46
0.0
 47
0.1
 48
0.1
140
3.5
141
0.0
142
0.0
143
0.0393701
144
1.0
145
0.0
146
0.71
147
1.5
 71
     0
 72
     0
 73
     1
 74
     1
 75
     1
 76
     1
 77
     0
 78
     8
170
     0
171
     2
172
     0
173
     0
174
     0
175
     0
176
     2
177
     2
178
     4
  0
DIMSTYLE
  2
AM_ANSI$SH
 70
     0
  3

  4
"
  5

  6

  7

 40
1.0
 41
2.5
 42
1.0
 43
10.0
 44
1.0
 45
0.0
 46
0.0
 47
0.1
 48
0.1
140
3.5
141
0.0
142
0.0
143
0.0393701
144
1.0
145
0.0
146
0.71
147
1.5
 71
     0
 72
     0
 73
     1
 74
     1
 75
     1
 76
     1
 77
     0
 78
     8
170
     0
171
     2
172
     0
173
     1
174
     0
175
     0
176
     2
177
     2
178
     4
  0
DIMSTYLE
  2
AM_ISO
 70
     0
  3

  4
"
  5

  6

  7

 40
1.0
 41
2.5
 42
1.0
 43
10.0
 44
1.0
 45
0.0
 46
0.0
 47
0.1
 48
0.1
140
3.5
141
0.0
142
0.0
143
0.0393701
144
1.0
145
0.0
146
0.71
147
1.5
 71
     0
 72
     0
 73
     0
 74
     0
 75
     0
 76
     0
 77
     1
 78
     8
170
     0
171
     2
172
     1
173
     0
174
     0
175
     0
176
   256
177
   256
178
     2
  0
DIMSTYLE
  2
AM_ISO$3
 70
     0
  3

  4
"
  5

  6

  7

 40
1.0
 41
2.5
 42
1.0
 43
10.0
 44
1.0
 45
0.0
 46
0.0
 47
0.1
 48
0.1
140
3.5
141
0.0
142
0.0
143
0.0393701
144
1.0
145
0.0
146
0.71
147
1.5
 71
     0
 72
     0
 73
     0
 74
     1
 75
     0
 76
     0
 77
     1
 78
     8
170
     0
171
     2
172
     0
173
     0
174
     0
175
     0
176
   256
177
   256
178
     2
  0
DIMSTYLE
  2
AM_ISO$4
 70
     0
  3

  4
"
  5

  6

  7

 40
1.0
 41
2.5
 42
1.0
 43
10.0
 44
1.0
 45
0.0
 46
0.0
 47
0.1
 48
0.1
140
3.5
141
0.0
142
0.0
143
0.0393701
144
1.0
145
0.0
146
0.71
147
1.5
 71
     0
 72
     0
 73
     0
 74
     1
 75
     0
 76
     0
 77
     1
 78
     8
170
     0
171
     2
172
     0
173
     0
174
     0
175
     0
176
   256
177
   256
178
     2
  0
DIMSTYLE
  2
AM_ISO$6
 70
     0
  3

  4
"
  5

  6

  7

 40
1.0
 41
2.5
 42
1.0
 43
10.0
 44
1.0
 45
0.0
 46
0.0
 47
0.1
 48
0.1
140
3.5
141
0.0
142
0.0
143
0.0393701
144
1.0
145
0.0
146
0.71
147
1.5
 71
     0
 72
     0
 73
     0
 74
     0
 75
     0
 76
     0
 77
     0
 78
     8
170
     0
171
     2
172
     1
173
     0
174
     0
175
     0
176
   256
177
   256
178
     2
  0
DIMSTYLE
  2
AM_ISO$7
 70
     0
  3

  4
"
  5

  6

  7

 40
1.0
 41
2.5
 42
1.0
 43
10.0
 44
1.0
 45
0.0
 46
0.0
 47
0.1
 48
0.1
140
5.0
141
0.0
142
0.0
143
0.0393701
144
1.0
145
0.0
146
0.71
147
1.5
 71
     0
 72
     0
 73
     0
 74
     0
 75
     0
 76
     0
 77
     1
 78
     8
170
     0
171
     2
172
     1
173
     0
174
     0
175
     0
176
   256
177
   256
178
     2
  0
DIMSTYLE
  2
AM_ISO$SF
 70
     0
  3

  4
"
  5

  6

  7

 40
1.0
 41
2.5
 42
1.0
 43
10.0
 44
1.0
 45
0.0
 46
0.0
 47
0.1
 48
0.1
140
3.5
141
0.0
142
0.0
143
0.0393701
144
1.0
145
0.0
146
0.71
147
1.5
 71
     0
 72
     0
 73
     0
 74
     0
 75
     1
 76
     1
 77
     1
 78
     8
170
     0
171
     2
172
     1
173
     0
174
     0
175
     0
176
   256
177
   256
178
     2
  0
DIMSTYLE
  2
AM_ISO$SH
 70
     0
  3

  4
"
  5

  6

  7

 40
1.0
 41
2.5
 42
1.0
 43
10.0
 44
1.0
 45
0.0
 46
0.0
 47
0.1
 48
0.1
140
3.5
141
0.0
142
0.0
143
0.0393701
144
2.0
145
0.0
146
0.71
147
1.5
 71
     0
 72
     0
 73
     0
 74
     0
 75
     1
 76
     1
 77
     1
 78
     8
170
     0
171
     2
172
     1
173
     1
174
     0
175
     0
176
   256
177
   256
178
     2
  0
DIMSTYLE
  2
AM_JIS
 70
     0
  3

  4
"
  5

  6

  7

 40
1.0
 41
2.0
 42
1.0
 43
8.0
 44
1.0
 45
0.0
 46
0.0
 47
0.1
 48
0.1
140
2.5
141
0.0
142
0.0
143
0.0393701
144
1.0
145
0.0
146
0.71
147
1.5
 71
     0
 72
     0
 73
     0
 74
     0
 75
     0
 76
     0
 77
     3
 78
     8
170
     0
171
     2
172
     1
173
     0
174
     0
175
     0
176
     2
177
     2
178
     4
  0
DIMSTYLE
  2
AM_JIS$3
 70
     0
  3

  4
"
  5

  6

  7

 40
1.0
 41
2.0
 42
1.0
 43
10.0
 44
1.0
 45
0.0
 46
0.0
 47
0.1
 48
0.1
140
2.5
141
0.0
142
0.0
143
0.0393701
144
1.0
145
0.0
146
0.71
147
1.5
 71
     0
 72
     0
 73
     0
 74
     1
 75
     0
 76
     0
 77
     3
 78
     8
170
     0
171
     2
172
     0
173
     0
174
     0
175
     0
176
     2
177
     2
178
     4
  0
DIMSTYLE
  2
AM_JIS$4
 70
     0
  3

  4
"
  5

  6

  7

 40
1.0
 41
2.0
 42
1.0
 43
10.0
 44
1.0
 45
0.0
 46
0.0
 47
0.1
 48
0.1
140
2.5
141
0.0
142
0.0
143
0.0393701
144
1.0
145
0.0
146
0.71
147
1.5
 71
     0
 72
     0
 73
     0
 74
     0
 75
     0
 76
     0
 77
     3
 78
     8
170
     0
171
     2
172
     0
173
     0
174
     0
175
     0
176
     2
177
     2
178
     4
  0
DIMSTYLE
  2
AM_JIS$6
 70
     0
  3

  4
"
  5

  6

  7

 40
1.0
 41
2.0
 42
1.0
 43
10.0
 44
1.0
 45
0.0
 46
0.0
 47
0.1
 48
0.1
140
2.5
141
0.0
142
0.0
143
0.0393701
144
1.0
145
0.0
146
0.71
147
1.5
 71
     0
 72
     0
 73
     0
 74
     0
 75
     0
 76
     0
 77
     0
 78
     8
170
     0
171
     2
172
     1
173
     0
174
     0
175
     0
176
     2
177
     2
178
     4
  0
DIMSTYLE
  2
AM_JIS$7
 70
     0
  3

  4
"
  5

  6

  7

 40
1.0
 41
2.0
 42
1.0
 43
10.0
 44
1.0
 45
0.0
 46
0.0
 47
0.1
 48
0.1
140
2.5
141
0.0
142
0.0
143
0.0393701
144
1.0
145
0.0
146
0.71
147
1.5
 71
     0
 72
     0
 73
     0
 74
     0
 75
     0
 76
     0
 77
     3
 78
     8
170
     0
171
     2
172
     1
173
     0
174
     0
175
     0
176
     2
177
     2
178
     4
  0
DIMSTYLE
  2
AM_JIS$SF
 70
     0
  3

  4
"
  5

  6

  7

 40
1.0
 41
2.0
 42
1.0
 43
10.0
 44
1.0
 45
0.0
 46
0.0
 47
0.1
 48
0.1
140
2.5
141
0.0
142
0.0
143
0.0393701
144
1.0
145
0.0
146
0.71
147
1.5
 71
     0
 72
     0
 73
     0
 74
     0
 75
     1
 76
     1
 77
     3
 78
     8
170
     0
171
     2
172
     1
173
     0
174
     0
175
     0
176
     2
177
     2
178
     4
  0
DIMSTYLE
  2
AM_JIS$SH
 70
     0
  3

  4
"
  5

  6

  7

 40
1.0
 41
2.0
 42
1.0
 43
10.0
 44
1.0
 45
0.0
 46
0.0
 47
0.1
 48
0.1
140
2.5
141
0.0
142
0.0
143
0.0393701
144
2.0
145
0.0
146
0.71
147
1.5
 71
     0
 72
     0
 73
     0
 74
     0
 75
     1
 76
     1
 77
     3
 78
     8
170
     0
171
     2
172
     1
173
     1
174
     0
175
     0
176
     2
177
     2
178
     4
  0
DIMSTYLE
  2
AM_JIS$0
 70
     0
  3

  4
"
  5

  6

  7

 40
1.0
 41
2.0
 42
1.0
 43
8.0
 44
1.0
 45
0.0
 46
0.0
 47
0.1
 48
0.1
140
2.5
141
0.0
142
0.0
143
0.0393701
144
1.0
145
0.0
146
0.71
147
1.5
 71
     0
 72
     0
 73
     0
 74
     0
 75
     0
 76
     0
 77
     3
 78
     8
170
     0
171
     2
172
     1
173
     0
174
     0
175
     0
176
     2
177
     2
178
     4
  0
ENDTAB
  0
ENDSEC
  0
SECTION
  2
BLOCKS
  0
BLOCK
  8
0
  2
$MODEL_SPACE
 70
     0
 10
0.0
 20
0.0
 30
0.0
  3
$MODEL_SPACE
  1

  0
ENDBLK
  5
A227
  8
0
  0
BLOCK
 67
     1
  8
0
  2
$PAPER_SPACE
 70
     0
 10
0.0
 20
0.0
 30
0.0
  3
$PAPER_SPACE
  1

  0
ENDBLK
  5
A223
 67
     1
  8
0
  0
BLOCK
  8
0
  2
GENAXEH
 70
     0
 10
0.0
 20
0.0
 30
0.0
  3
GENAXEH
  1

  0
LINE
  5
9DE0
  8
0
 10
-1.0
 20
0.0
 30
0.0
 11
1.0
 21
0.0
 31
0.0
  0
ENDBLK
  5
9DE1
  8
0
  0
BLOCK
  8
0
  2
_OPEN30
 70
     0
 10
0.0
 20
0.0
 30
0.0
  3
_OPEN30
  1

  0
LINE
  5
9E27
  8
0
  6
BYBLOCK
 62
     0
 10
-1.0
 20
0.26794919
 30
0.0
 11
0.0
 21
0.0
 31
0.0
  0
LINE
  5
9E28
  8
0
  6
BYBLOCK
 62
     0
 10
0.0
 20
0.0
 30
0.0
 11
-1.0
 21
-0.26794919
 31
0.0
  0
LINE
  5
9E29
  8
0
  6
BYBLOCK
 62
     0
 10
0.0
 20
0.0
 30
0.0
 11
-1.0
 21
0.0
 31
0.0
  0
ENDBLK
  5
9E2A
  8
0
  0
BLOCK
  8
0
  2
*U4
 70
     1
 10
0.0
 20
0.0
 30
0.0
  3
*U4
  1

  0
TEXT
  5
A1B0
  8
0
 62
     0
 10
5.1211371559201639
 20
5.9826223594979648
 30
0.0
 40
15.0
  1
ＶＸ０８－００３ＥＭ～ＶＸ０８－０３０ＥＭ
 41
0.7400000000000003
  0
ENDBLK
  5
A1B2
  8
0
  0
BLOCK
  8
0
  2
*U5
 70
     1
 10
0.0
 20
0.0
 30
0.0
  3
*U5
  1

  0
TEXT
  5
A1B4
  8
0
 62
     0
 10
727.30721434797249
 20
781.26425653838385
 30
0.0
 40
15.0
  1
ＶＸ２２－０２５ＥＭ～ＶＸ２２－０３０ＥＭ
 41
0.7400000000000003
  0
ENDBLK
  5
A1B6
  8
0
  0
BLOCK
  8
0
  2
_ACMFILLEDHALF
 70
     0
 10
0.0
 20
0.0
 30
0.0
  3
_ACMFILLEDHALF
  1

  0
TRACE
  5
A361
  8
0
 62
     0
 10
-0.8
 20
0.0
 30
0.0
 11
-1.0
 21
0.166666666
 31
0.0
 12
0.0
 22
0.0
 32
0.0
 13
0.0
 23
0.0
 33
0.0
  0
LINE
  5
A362
  8
0
 62
     0
 10
-1.0
 20
0.0
 30
0.0
 11
-0.8
 21
0.0
 31
0.0
  0
ENDBLK
  5
A360
  8
0
  0
ENDSEC
  0
SECTION
  2
ENTITIES
  0
LINE
  5
7DE2
  8
0
 62
     0
 10
581.63348164639979
 20
576.56617843870811
 30
0.0
 11
581.63348164639979
 21
573.56620843870974
 31
0.0
  0
LINE
  5
7DE3
  8
0
 62
     0
 10
581.63348164639979
 20
576.56617843870811
 30
0.0
 11
637.63348164640092
 21
576.56617843870811
 31
0.0
  0
LINE
  5
7DE4
  8
0
 62
     0
 10
637.63348164640092
 20
531.56617843870833
 30
0.0
 11
637.63348164640092
 21
576.56617843870811
 31
0.0
  0
LINE
  5
7DE5
  8
0
 62
     0
 10
567.63348164640001
 20
530.06617843870833
 30
0.0
 11
567.63348164640001
 21
575.06617843870811
 31
0.0
  0
LINE
  5
7DE6
  8
0
 62
     0
 10
563.63353164640125
 20
530.06617843870833
 30
0.0
 11
567.63348164640001
 21
530.06617843870833
 31
0.0
  0
LINE
  5
7DE7
  8
0
 62
     0
 10
563.63353164640125
 20
575.06617843870811
 30
0.0
 11
567.63348164640001
 21
575.06617843870811
 31
0.0
  0
LINE
  5
7DE8
  8
0
 62
     0
 10
567.63348164640001
 20
531.56617843870833
 30
0.0
 11
637.63348164640092
 21
531.56617843870833
 31
0.0
  0
LINE
  5
7DE9
  8
0
 62
     0
 10
567.63348164640001
 20
573.56620843870974
 30
0.0
 11
637.63348164640092
 21
573.56620843870974
 31
0.0
  0
LINE
  5
7DEA
  8
0
 62
     0
 10
445.63348164640092
 20
436.11457843870852
 30
0.0
 11
445.63348164640092
 21
644.56616343870974
 31
0.0
  0
LINE
  5
7DEB
  8
0
 62
     0
 10
872.22149762515073
 20
576.56617843870811
 30
0.0
 11
884.22152762515077
 21
576.56617843870811
 31
0.0
  0
LINE
  5
7DEC
  8
0
 62
     0
 10
884.22152762515077
 20
576.56617843870811
 30
0.0
 11
884.22152762515077
 21
568.56620843870974
 31
0.0
  0
LINE
  5
7DED
  8
0
 62
     0
 10
872.22149762515073
 20
576.56617843870811
 30
0.0
 11
872.22149762515073
 21
568.56620843870974
 31
0.0
  0
LINE
  5
7DEE
  8
0
 62
     0
 10
872.22149762515073
 20
568.56620843870974
 30
0.0
 11
884.22152762515077
 21
568.56620843870974
 31
0.0
  0
LINE
  5
7DEF
  8
0
 62
     0
 10
718.64409262515244
 20
470.1553484387083
 30
0.0
 11
719.42934262515234
 21
469.78919843870972
 31
0.0
  0
LINE
  5
7DF0
  8
0
 62
     0
 10
721.90884262515169
 20
460.9094084387097
 30
0.0
 11
718.28359262515096
 21
462.59986843870968
 31
0.0
  0
LINE
  5
7DF1
  8
0
 62
     0
 10
747.07806071207926
 20
468.96616843870879
 30
0.0
 11
725.66574262515212
 21
468.96616843870828
 31
0.0
  0
LINE
  5
7DF2
  8
0
 62
     0
 10
721.90884262515169
 20
460.9094084387097
 30
0.0
 11
742.84286798115875
 21
505.80272266592942
 31
0.0
  0
LINE
  5
7DF3
  8
0
 62
     0
 10
732.59074262515242
 20
467.96616843870851
 30
0.0
 11
732.59074262515242
 21
466.96619843870849
 31
0.0
  0
LINE
  5
7DF4
  8
0
 62
     0
 10
746.82889896883194
 20
466.96619843870872
 30
0.0
 11
732.59074262515242
 21
466.96619843870849
 31
0.0
  0
LINE
  5
7DF5
  8
0
 62
     0
 10
736.98774262515155
 20
562.71629343870973
 30
0.0
 11
757.46737065535297
 21
562.71629343870973
 31
0.0
  0
LINE
  5
7DF6
  8
0
 62
     0
 10
717.7998926251521
 20
463.92878843870852
 30
0.0
 11
739.3031521751501
 21
510.04268918313159
 31
0.0
  0
LINE
  5
7DF7
  8
0
 62
     0
 10
433.88948164640033
 20
635.80976343870839
 30
0.0
 11
460.63348164639979
 21
635.80976343870839
 31
0.0
  0
LINE
  5
7DF8
  8
0
 62
     0
 10
463.39113164640139
 20
496.65128843870832
 30
0.0
 11
476.62698164640142
 21
506.56126343870829
 31
0.0
  0
LINE
  5
7DF9
  8
0
 62
     0
 10
466.03018164640002
 20
535.0537284387085
 30
0.0
 11
478.16883164640001
 21
521.14033343870972
 31
0.0
  0
LINE
  5
7DFA
  8
0
 62
     0
 10
461.99988164639967
 20
608.95996343870831
 30
0.0
 11
473.80128164640001
 21
612.90136343870813
 31
0.0
  0
LINE
  5
7DFB
  8
0
 62
     0
 10
465.83253164640018
 20
636.74316343870839
 30
0.0
 11
475.6585816463998
 21
631.03211343870964
 31
0.0
  0
LINE
  5
7DFC
  8
0
 62
     0
 10
445.63348164640092
 20
618.89041343870849
 30
0.0
 11
457.63348164640001
 21
618.89041343870849
 31
0.0
  0
LINE
  5
7DFD
  8
0
 62
     0
 10
445.63348164640092
 20
637.14946343870974
 30
0.0
 11
464.32498164639981
 21
637.14946343870974
 31
0.0
  0
LINE
  5
7DFE
  8
0
 62
     0
 10
803.56231762514892
 20
629.73771343870806
 30
0.0
 11
798.67956762514973
 21
611.5150634387096
 31
0.0
  0
LINE
  5
7DFF
  8
0
 62
     0
 10
940.63333262515073
 20
636.80871343870967
 30
0.0
 11
922.41070762514971
 21
631.92596343870855
 31
0.0
  0
LINE
  5
7E00
  8
0
 62
     0
 10
1015.292607625148
 20
521.63725343870851
 30
0.0
 11
1001.952732625152
 21
534.97712843870829
 31
0.0
  0
LINE
  5
7E01
  8
0
 62
     0
 10
1015.292607625148
 20
507.49513343870967
 30
0.0
 11
1007.481632625149
 21
499.68412843870851
 31
0.0
  0
LINE
  5
7E02
  8
0
 62
     0
 10
741.1504626251492
 20
521.63725343870851
 30
0.0
 11
754.49036262515074
 21
534.97715843870969
 31
0.0
  0
LINE
  5
7E03
  8
0
 62
     0
 10
530.6917816463997
 20
596.73901343870955
 30
0.0
 11
525.63348164640001
 21
596.73901343870955
 31
0.0
  0
LINE
  5
7E04
  8
0
 62
     0
 10
966.92151262514881
 20
398.56620843870951
 30
0.0
 11
966.92151262514881
 21
377.56617343870857
 31
0.0
  0
LINE
  5
7E05
  8
0
 62
     0
 10
527.63348164639979
 20
448.16404843870822
 30
0.0
 11
519.11678164639966
 21
448.16404843870822
 31
0.0
  0
LINE
  5
7E06
  8
0
 62
     0
 10
952.8808026251487
 20
629.7376634387083
 30
0.0
 11
957.76352262515081
 21
611.5150634387096
 31
0.0
  0
LINE
  5
7E07
  8
0
 62
     0
 10
449.58553164639881
 20
441.21403343870958
 30
0.0
 11
422.0354816464008
 21
405.66563343870831
 31
0.0
  0
LINE
  5
7E08
  8
0
 62
     0
 10
445.63348164640092
 20
529.57795843870838
 30
0.0
 11
457.63348164640001
 21
529.57795843870838
 31
0.0
  0
LINE
  5
7E09
  8
0
 62
     0
 10
963.22152762515032
 20
377.56617343870857
 30
0.0
 11
1018.2215326251491
 21
377.56617343870857
 31
0.0
  0
LINE
  5
7E0A
  8
0
 62
     0
 10
815.8097526251504
 20
636.8087634387075
 30
0.0
 11
834.032377625148
 21
631.92601343870831
 31
0.0
  0
LINE
  5
7E0B
  8
0
 62
     0
 10
450.63348164640001
 20
488.37809843870849
 30
0.0
 11
460.63348164639979
 21
488.37809843870849
 31
0.0
  0
LINE
  5
7E0C
  8
0
 62
     0
 10
465.13348164639979
 20
614.04186343870811
 30
0.0
 11
465.13348164639979
 21
635.21506343870851
 31
0.0
  0
LINE
  5
7E0D
  8
0
 62
     0
 10
793.22152762515077
 20
378.56620343870969
 30
0.0
 11
793.22152762515077
 21
377.56617343870857
 31
0.0
  0
LINE
  5
7E0E
  8
0
 62
     0
 10
460.63348164639979
 20
532.57795843870849
 30
0.0
 11
460.63348164639979
 21
615.89041343870963
 31
0.0
  0
LINE
  5
7E0F
  8
0
 62
     0
 10
465.13348164639979
 20
527.05399843870964
 30
0.0
 11
465.13348164639979
 21
499.94184843870971
 31
0.0
  0
LINE
  5
7E10
  8
0
 62
     0
 10
460.63348164639979
 20
494.9558534387096
 30
0.0
 11
460.63348164639979
 21
488.37809843870849
 31
0.0
  0
LINE
  5
7E11
  8
0
 62
     0
 10
738.22156262515102
 20
397.56617343870857
 30
0.0
 11
738.22156262515102
 21
377.56617343870857
 31
0.0
  0
LINE
  5
7E12
  8
0
 62
     0
 10
797.22149762515073
 20
382.56617343870948
 30
0.0
 11
959.5873126251488
 21
382.56617343870948
 31
0.0
  0
LINE
  5
7E13
  8
0
 62
     0
 10
974.22152762515077
 20
402.56617343870829
 30
0.0
 11
1013.2215326251491
 21
402.56617343870829
 31
0.0
  0
LINE
  5
7E14
  8
0
 62
     0
 10
789.52154762515045
 20
398.56620843870951
 30
0.0
 11
789.52154762515045
 21
377.56617343870857
 31
0.0
  0
LINE
  5
7E15
  8
0
 62
     0
 10
963.22152762515032
 20
378.56620343870969
 30
0.0
 11
963.22152762515032
 21
377.56617343870857
 31
0.0
  0
LINE
  5
7E16
  8
0
 62
     0
 10
1018.2215326251491
 20
397.56617343870857
 30
0.0
 11
1018.2215326251491
 21
377.56617343870857
 31
0.0
  0
LINE
  5
7E17
  8
0
 62
     0
 10
738.22156262515102
 20
377.56617343870857
 30
0.0
 11
793.22152762515077
 21
377.56617343870857
 31
0.0
  0
LINE
  5
7E18
  8
0
 62
     0
 10
741.1504626251492
 20
507.49513343870967
 30
0.0
 11
748.96141262515107
 21
499.68415843870832
 31
0.0
  0
LINE
  5
7E19
  8
0
 62
     0
 10
743.22156262515102
 20
402.56617343870829
 30
0.0
 11
785.52151262515019
 21
402.56617343870829
 31
0.0
  0
LINE
  5
7E1A
  8
0
 62
     0
 10
543.63353164640046
 20
612.56616343870974
 30
0.0
 11
554.63348164640001
 21
612.56616343870974
 31
0.0
  0
LINE
  5
7E1B
  8
0
 62
     0
 10
445.63348164640092
 20
497.95588843870968
 30
0.0
 11
457.63348164640001
 21
497.95588843870968
 31
0.0
  0
LINE
  5
7E1C
  8
0
 62
     0
 10
450.63348164640001
 20
488.37809843870849
 30
0.0
 11
450.63348164640001
 21
444.27686843870828
 31
0.0
  0
LINE
  5
7E1D
  8
0
 62
     0
 10
754.67656262514913
 20
529.9577784387086
 30
0.0
 11
738.25986262515005
 21
398.1843084387088
 31
0.0
  0
LINE
  5
7E1E
  8
0
 62
     0
 10
558.51208164640002
 20
598.68756343870962
 30
0.0
 11
562.75478164639981
 21
594.4448634387096
 31
0.0
  0
LINE
  5
7E1F
  8
0
 62
     0
 10
515.63348164640001
 20
586.73902843870826
 30
0.0
 11
515.63348164640001
 21
410.56620843870968
 31
0.0
  0
LINE
  5
7E20
  8
0
 62
     0
 10
460.63348164639979
 20
637.14946343870974
 30
0.0
 11
460.63348164639979
 21
642.11101343870848
 31
0.0
  0
LINE
  5
7E21
  8
0
 62
     0
 10
557.63348164640001
 20
552.56617843870833
 30
0.0
 11
557.63348164640001
 21
406.31217843870832
 31
0.0
  0
LINE
  5
7E22
  8
0
 62
     0
 10
462.56373164640019
 20
638.68876343870852
 30
0.0
 11
527.91268164639985
 21
636.40671343870963
 31
0.0
  0
LINE
  5
7E23
  8
0
 62
     0
 10
558.51213164640058
 20
512.44486843870834
 30
0.0
 11
562.75483164640025
 21
516.68751343870815
 31
0.0
  0
LINE
  5
7E24
  8
0
 62
     0
 10
563.63353164640125
 20
398.56620843870951
 30
0.0
 11
563.63353164640125
 21
377.56617343870857
 31
0.0
  0
LINE
  5
7E25
  8
0
 62
     0
 10
523.63353164640125
 20
402.56617343870829
 30
0.0
 11
559.63348164640001
 21
402.56617343870829
 31
0.0
  0
LINE
  5
7E26
  8
0
 62
     0
 10
445.63348164640092
 20
644.56616343870974
 30
0.0
 11
458.70333164639982
 21
644.10981343870969
 31
0.0
  0
LINE
  5
7E27
  8
0
 62
     0
 10
535.63348164639979
 20
456.16404843870828
 30
0.0
 11
535.63348164639979
 21
628.41161343870965
 31
0.0
  0
LINE
  5
7E28
  8
0
 62
     0
 10
557.63348164640001
 20
552.56617843870833
 30
0.0
 11
557.63348164640001
 21
609.56616343870974
 31
0.0
  0
LINE
  5
7E29
  8
0
 62
     0
 10
784.22152762515077
 20
596.20101343870829
 30
0.0
 11
784.22152762515077
 21
480.5563184387085
 31
0.0
  0
LINE
  5
7E2A
  8
0
 62
     0
 10
563.63353164640125
 20
552.56617843870833
 30
0.0
 11
563.63353164640125
 21
592.32356343870845
 31
0.0
  0
LINE
  5
7E2B
  8
0
 62
     0
 10
563.63353164640125
 20
552.56617843870833
 30
0.0
 11
563.63353164640125
 21
518.80882343870951
 31
0.0
  0
LINE
  5
7E2C
  8
0
 62
     0
 10
371.63348164640001
 20
377.56617343870857
 30
0.0
 11
563.63353164640125
 21
377.56617343870857
 31
0.0
  0
LINE
  5
7E2D
  8
0
 62
     0
 10
375.63348164640001
 20
402.56617343870829
 30
0.0
 11
415.7122316464006
 21
402.56617343870829
 31
0.0
  0
LINE
  5
7E2E
  8
0
 62
     0
 10
371.63348164640001
 20
398.56620843870951
 30
0.0
 11
371.63348164640001
 21
377.56617343870857
 31
0.0
  0
LINE
  5
7E2F
  8
0
 62
     0
 10
1001.766482625149
 20
529.9577784387086
 30
0.0
 11
1018.18316762515
 21
398.18433843870872
 31
0.0
  0
LINE
  5
7E30
  8
0
 62
     0
 10
790.22152762515043
 20
524.56617843870833
 30
0.0
 11
790.22152762515043
 21
410.56620843870968
 31
0.0
  0
LINE
  5
7E31
  8
0
 62
     0
 10
966.22152762515077
 20
524.56617843870833
 30
0.0
 11
966.22152762515077
 21
410.56620843870968
 31
0.0
  0
LINE
  5
7E32
  8
0
 62
     0
 10
972.22152762515032
 20
596.20101343870829
 30
0.0
 11
972.22152762515032
 21
476.95155343870829
 31
0.0
  0
LINE
  5
7E33
  8
0
 62
     0
 10
811.22152762515134
 20
397.56617343870857
 30
0.0
 11
945.22152762515043
 21
397.56617343870857
 31
0.0
  0
LINE
  5
7E34
  8
0
 62
     0
 10
807.8670676251503
 20
392.29685843870863
 30
0.0
 11
948.57599262515032
 21
392.29685843870863
 31
0.0
  0
LINE
  5
7E35
  8
0
 62
     0
 10
874.22152762515077
 20
681.56621343870961
 30
0.0
 11
874.22152762515077
 21
648.06621343870847
 31
0.0
  0
LINE
  5
7E36
  8
0
 62
     0
 10
882.22149762514982
 20
681.56621343870961
 30
0.0
 11
882.22149762514982
 21
648.06621343870847
 31
0.0
  0
LINE
  5
7E37
  8
0
 62
     0
 10
868.25299262515091
 20
644.18346343870962
 30
0.0
 11
869.93377762514865
 21
650.45626343870845
 31
0.0
  0
LINE
  5
7E38
  8
0
 62
     0
 10
888.19012762515092
 20
644.18341343870861
 30
0.0
 11
886.50933762514683
 21
650.45626343870845
 31
0.0
  0
LINE
  5
7E39
  8
0
 62
     0
 10
874.22152762515077
 20
651.8276134387097
 30
0.0
 11
870.71811262514893
 21
651.18081343870813
 31
0.0
  0
LINE
  5
7E3A
  8
0
 62
     0
 10
882.22149762514982
 20
651.82766343870799
 30
0.0
 11
885.72491762515074
 21
651.18081343870813
 31
0.0
  0
LINE
  5
7E3B
  8
0
 62
     0
 10
443.6335316464004
 20
644.56616343870974
 30
0.0
 11
445.63348164640092
 21
644.56616343870974
 31
0.0
  0
LINE
  5
7E3C
  8
0
 62
     0
 10
432.63348164640001
 20
499.5543984387096
 30
0.0
 11
445.63348164640092
 21
499.5543984387096
 31
0.0
  0
LINE
  5
7E3D
  8
0
 62
     0
 10
432.63348164640001
 20
529.57795843870838
 30
0.0
 11
445.63348164640092
 21
529.57795843870838
 31
0.0
  0
LINE
  5
7E3E
  8
0
 62
     0
 10
432.63348164640001
 20
618.89041343870849
 30
0.0
 11
445.63348164640092
 21
618.89041343870849
 31
0.0
  0
LINE
  5
7E3F
  8
0
 62
     0
 10
432.63348164640001
 20
637.14946343870974
 30
0.0
 11
445.63348164640092
 21
637.14946343870974
 31
0.0
  0
LINE
  5
7E40
  8
0
 62
     0
 10
434.5635816464013
 20
644.1796134387082
 30
0.0
 11
445.63338164639879
 21
644.56621343870847
 31
0.0
  0
LINE
  5
7E41
  8
0
 62
     0
 10
418.6335316464004
 20
599.63602479946724
 30
0.0
 11
418.6335316464004
 21
642.56616343870974
 31
0.0
  0
LINE
  5
7E42
  8
0
 62
     0
 10
416.63348164640092
 20
429.5661784387097
 30
0.0
 11
429.73818164639982
 21
429.10853343870832
 31
0.0
  0
LINE
  5
7E43
  8
0
 62
     0
 10
432.63348164640001
 20
419.34037843870851
 30
0.0
 11
432.63348164640001
 21
642.18081343870836
 31
0.0
  0
LINE
  5
7E44
  8
0
 62
     0
 10
416.63348164640092
 20
599.56617843870811
 30
0.0
 11
429.7380816464015
 21
600.02382130723663
 31
0.0
  0
LINE
  5
7E45
  8
0
 62
     0
 10
419.3106316464013
 20
644.06621343870847
 30
0.0
 11
433.96608164639969
 21
644.06621343870847
 31
0.0
  0
LINE
  5
7E46
  8
0
 62
     0
 10
421.8163316464001
 20
651.06621343870961
 30
0.0
 11
437.45058164640022
 21
651.06621343870961
 31
0.0
  0
LINE
  5
7E47
  8
0
 62
     0
 10
439.55633164639983
 20
644.35386343870948
 30
0.0
 11
437.92123164640122
 21
650.45621343870869
 31
0.0
  0
LINE
  5
7E48
  8
0
 62
     0
 10
419.63343164640008
 20
644.0661634387086
 30
0.0
 11
421.34563164640031
 21
650.45626343870845
 31
0.0
  0
LINE
  5
7E49
  8
0
 62
     0
 10
422.1301316464
 20
651.18081343870813
 30
0.0
 11
429.63353164639858
 21
652.56616343870974
 31
0.0
  0
LINE
  5
7E4A
  8
0
 62
     0
 10
429.63343164640122
 20
652.56621343870961
 30
0.0
 11
437.1368316463998
 21
651.18081343870813
 31
0.0
  0
ARC
  5
7E4B
  8
0
 62
     0
 10
878.22152762515066
 20
552.56617843870833
 30
0.0
 40
20.9999985
 50
106.6015500000172
 51
73.398452000021862
  0
ARC
  5
7E4C
  8
0
 62
     0
 10
718.70619262515243
 20
463.5061484387096
 30
0.0
 40
1.0
 50
154.99998000000309
 51
245.00030999997529
  0
ARC
  5
7E4D
  8
0
 62
     0
 10
731.59074262515162
 20
467.96616843870851
 30
0.0
 40
1.0
 50
0.0
 51
90.000002999984659
  0
ARC
  5
7E4E
  8
0
 62
     0
 10
736.98774262515155
 20
555.1162284387085
 30
0.0
 40
7.599999999999997
 50
90.000002999984659
 51
158.7140899999805
  0
ARC
  5
7E4F
  8
0
 62
     0
 10
720.16539262515209
 20
473.41810343870861
 30
0.0
 40
3.600000199999998
 50
183.3859700000059
 51
245.0006099999768
  0
ARC
  5
7E50
  8
0
 62
     0
 10
916.82153762515077
 20
485.05320843870959
 30
0.0
 40
200.60001
 50
158.71414000002861
 51
183.3859300000031
  0
ARC
  5
7E51
  8
0
 62
     0
 10
719.00674262515361
 20
468.88288843870851
 30
0.0
 40
1.0
 50
334.99984999997662
 51
65.000643000006349
  0
CIRCLE
  5
7E52
  8
0
 62
     0
 10
878.22152762515066
 20
552.56617843870833
 30
0.0
 40
3.5000000500000001
  0
CIRCLE
  5
7E53
  8
0
 62
     0
 10
878.22152762515066
 20
552.56617843870833
 30
0.0
 40
5.0
  0
ARC
  5
7E54
  8
0
 62
     0
 10
457.63348164640001
 20
494.9558534387096
 30
0.0
 40
3.0000000500000001
 50
0.0
 51
90.000002999984574
  0
ARC
  5
7E55
  8
0
 62
     0
 10
463.76953164639912
 20
533.08146843870963
 30
0.0
 40
3.0000000500000001
 50
41.10282199997377
 51
90.000002999984574
  0
ARC
  5
7E56
  8
0
 62
     0
 10
457.63348164640001
 20
615.89041343870963
 30
0.0
 40
3.0000000500000001
 50
0.0
 51
90.000002999984574
  0
ARC
  5
7E57
  8
0
 62
     0
 10
457.63348164640001
 20
532.57795843870849
 30
0.0
 40
3.0000000500000001
 50
270.0
 51
0.0
  0
ARC
  5
7E58
  8
0
 62
     0
 10
470.63348164640001
 20
514.56617843870833
 30
0.0
 40
10.0
 50
306.82304000001062
 51
41.10282199997377
  0
ARC
  5
7E59
  8
0
 62
     0
 10
470.63348164640001
 20
622.38636343870826
 30
0.0
 40
10.0
 50
288.46821000003149
 51
59.833878000015012
  0
ARC
  5
7E5A
  8
0
 62
     0
 10
748.22156262515102
 20
514.56617843870833
 30
0.0
 40
10.0
 50
135.00000000000921
 51
224.99999999999079
  0
ARC
  5
7E5B
  8
0
 62
     0
 10
943.22152762515077
 20
627.14946343870861
 30
0.0
 40
10.0
 50
14.99999999999442
 51
104.9999999999944
  0
ARC
  5
7E5C
  8
0
 62
     0
 10
1008.2215326251491
 20
514.56617843870833
 30
0.0
 40
10.0
 50
315.00000000000909
 51
45.000001000015267
  0
ARC
  5
7E5D
  8
0
 62
     0
 10
527.63348164639979
 20
456.16404843870828
 30
0.0
 40
8.0
 50
270.0
 51
0.0
  0
ARC
  5
7E5E
  8
0
 62
     0
 10
785.52151262515019
 20
398.56620843870951
 30
0.0
 40
4.000000049999997
 50
0.0
 51
90.000002999984659
  0
ARC
  5
7E5F
  8
0
 62
     0
 10
878.22152762515066
 20
514.56617843870833
 30
0.0
 40
130.0
 50
127.3755000000161
 51
172.6244900000064
  0
ARC
  5
7E60
  8
0
 62
     0
 10
464.64583164639981
 20
613.0065134387097
 30
0.0
 40
3.0000000500000001
 50
270.0
 51
288.46822000003601
  0
ARC
  5
7E61
  8
0
 62
     0
 10
464.32498164639981
 20
634.14951343870962
 30
0.0
 40
3.0000000500000001
 50
59.833878000015012
 51
90.000002999984574
  0
ARC
  5
7E62
  8
0
 62
     0
 10
813.22152762515066
 20
627.14946343870861
 30
0.0
 40
10.0
 50
74.999999000015251
 51
164.99998999998439
  0
ARC
  5
7E63
  8
0
 62
     0
 10
878.22152762515066
 20
514.56617843870833
 30
0.0
 40
124.5
 50
7.1014838999877181
 51
172.8985199999988
  0
ARC
  5
7E64
  8
0
 62
     0
 10
878.22152762515066
 20
514.56617843870833
 30
0.0
 40
130.0
 50
187.3755099999936
 51
189.6244600000114
  0
ARC
  5
7E65
  8
0
 62
     0
 10
878.22152762515066
 20
514.56617843870833
 30
0.0
 40
130.0
 50
67.375506000006595
 51
112.6244900000066
  0
ARC
  5
7E66
  8
0
 62
     0
 10
797.22149762515073
 20
378.56620343870969
 30
0.0
 40
4.000000049999997
 50
99.488295999983904
 51
180.00001000000091
  0
ARC
  5
7E67
  8
0
 62
     0
 10
959.22152762515077
 20
378.56620343870969
 30
0.0
 40
4.000000049999997
 50
0.0
 51
80.511701999970015
  0
ARC
  5
7E68
  8
0
 62
     0
 10
743.22156262515102
 20
397.56617343870857
 30
0.0
 40
5.0
 50
90.000002999984659
 51
180.00001000000091
  0
ARC
  5
7E69
  8
0
 62
     0
 10
1013.2215326251491
 20
397.56617343870857
 30
0.0
 40
5.0
 50
0.0
 51
90.000002999984659
  0
ARC
  5
7E6A
  8
0
 62
     0
 10
525.63348164640001
 20
586.73902843870826
 30
0.0
 40
10.0
 50
90.000002999984574
 51
180.00001000000091
  0
CIRCLE
  5
7E6B
  8
0
 62
     0
 10
878.22152762515066
 20
552.56617843870833
 30
0.0
 40
41.000000499999992
  0
ARC
  5
7E6C
  8
0
 62
     0
 10
970.9215126251496
 20
398.56620843870951
 30
0.0
 40
4.000000049999997
 50
90.000002999984659
 51
180.00001000000091
  0
ARC
  5
7E6D
  8
0
 62
     0
 10
974.22152762515077
 20
410.56620843870968
 30
0.0
 40
8.0
 50
180.00001000000091
 51
270.0
  0
ARC
  5
7E6E
  8
0
 62
     0
 10
878.22152762515066
 20
524.56617843870833
 30
0.0
 40
88.0
 50
0.0
 51
180.0
  0
ARC
  5
7E6F
  8
0
 62
     0
 10
878.22152762515066
 20
514.56617843870833
 30
0.0
 40
130.0
 50
7.3755072000040229
 51
52.62449400000456
  0
ARC
  5
7E70
  8
0
 62
     0
 10
782.22149762515073
 20
410.56620843870968
 30
0.0
 40
8.0
 50
270.0
 51
0.0
  0
ARC
  5
7E71
  8
0
 62
     0
 10
878.22152762515066
 20
480.5563184387085
 30
0.0
 40
93.999994999999984
 50
179.999989999999
 51
200.58195999998011
  0
ARC
  5
7E72
  8
0
 62
     0
 10
523.63353164640125
 20
410.56620843870968
 30
0.0
 40
8.0
 50
180.00001000000091
 51
270.0
  0
ARC
  5
7E73
  8
0
 62
     0
 10
554.63348164640001
 20
609.56616343870974
 30
0.0
 40
3.0000000500000001
 50
0.0
 51
90.000002999984574
  0
ARC
  5
7E74
  8
0
 62
     0
 10
458.63353164639852
 20
642.11101343870848
 30
0.0
 40
2.0000000500000001
 50
0.0
 51
87.999999999996703
  0
ARC
  5
7E75
  8
0
 62
     0
 10
462.63348164640001
 20
640.68756343870962
 30
0.0
 40
2.0000000500000001
 50
179.999989999999
 51
268.00000999999253
  0
ARC
  5
7E76
  8
0
 62
     0
 10
543.63353164640046
 20
620.56621343870825
 30
0.0
 40
8.0
 50
180.00001000000091
 51
270.0
  0
ARC
  5
7E77
  8
0
 62
     0
 10
561.63348164640001
 20
406.31217843870832
 30
0.0
 40
4.000000049999997
 50
179.999989999999
 51
255.52248999999159
  0
ARC
  5
7E78
  8
0
 62
     0
 10
878.22152762515066
 20
514.56617843870833
 30
0.0
 40
130.0
 50
350.37554999999219
 51
352.62449000000652
  0
ARC
  5
7E79
  8
0
 62
     0
 10
559.63348164640001
 20
398.56620843870951
 30
0.0
 40
4.000000049999997
 50
0.0
 51
90.000002999984574
  0
ARC
  5
7E7A
  8
0
 62
     0
 10
878.22152762515066
 20
480.5563184387085
 30
0.0
 40
93.999994999999984
 50
339.9500199999581
 51
20.049976000000431
  0
ARC
  5
7E7B
  8
0
 62
     0
 10
415.7122316464006
 20
410.56620843870968
 30
0.0
 40
8.0
 50
270.0
 51
322.22432000001248
  0
ARC
  5
7E7C
  8
0
 62
     0
 10
971.22152762515032
 20
446.6152184387085
 30
0.0
 40
5.0
 50
159.9500300000069
 51
180.00001000000091
  0
ARC
  5
7E7D
  8
0
 62
     0
 10
971.22152762515032
 20
514.49745343870859
 30
0.0
 40
5.0
 50
179.999989999999
 51
200.0499699999931
  0
ARC
  5
7E7E
  8
0
 62
     0
 10
445.63348164640092
 20
444.27686843870828
 30
0.0
 40
5.0
 50
322.22432000001248
 51
0.0
  0
ARC
  5
7E7F
  8
0
 62
     0
 10
375.63348164640001
 20
398.56620843870951
 30
0.0
 40
4.000000049999997
 50
90.000002999984574
 51
180.00001000000091
  0
ARC
  5
7E80
  8
0
 62
     0
 10
560.63348164639979
 20
510.32356343870828
 30
0.0
 40
3.0000000500000001
 50
135.0000000000087
 51
180.00001000000091
  0
ARC
  5
7E81
  8
0
 62
     0
 10
560.63348164639979
 20
592.32356343870845
 30
0.0
 40
3.0000000500000001
 50
0.0
 51
45.000001000015772
  0
ARC
  5
7E82
  8
0
 62
     0
 10
560.63348164639979
 20
518.80882343870951
 30
0.0
 40
3.0000000500000001
 50
315.0000000000087
 51
0.0
  0
ARC
  5
7E83
  8
0
 62
     0
 10
560.63348164639979
 20
600.80881343870851
 30
0.0
 40
3.0000000500000001
 50
179.999989999999
 51
224.99999999999119
  0
ARC
  5
7E84
  8
0
 62
     0
 10
795.24334762514911
 20
390.4020234387088
 30
0.0
 40
8.0
 50
279.48830000002317
 51
357.0055400000121
  0
ARC
  5
7E85
  8
0
 62
     0
 10
811.22152762515134
 20
389.56617343870857
 30
0.0
 40
8.0
 50
90.000002999984659
 51
177.00554000001199
  0
ARC
  5
7E86
  8
0
 62
     0
 10
945.22152762515043
 20
389.56617343870857
 30
0.0
 40
8.0
 50
2.9944644000066472
 51
90.000002999984659
  0
ARC
  5
7E87
  8
0
 62
     0
 10
527.63348164639979
 20
628.41161343870965
 30
0.0
 40
8.0
 50
0.0
 51
87.999999999996703
  0
ARC
  5
7E88
  8
0
 62
     0
 10
745.425912625151
 20
496.14860343870959
 30
0.0
 40
5.0
 50
352.89851999999883
 51
45.000001000015267
  0
ARC
  5
7E89
  8
0
 62
     0
 10
750.95481262514954
 20
538.51267843870835
 30
0.0
 40
5.0
 50
315.00000000000909
 51
349.3438199999963
  0
ARC
  5
7E8A
  8
0
 62
     0
 10
793.84988262515014
 20
612.80911343870969
 30
0.0
 40
5.0
 50
310.65617999998932
 51
345.00000000000551
  0
ARC
  5
7E8B
  8
0
 62
     0
 10
835.32644762514985
 20
636.7556134387097
 30
0.0
 40
5.0
 50
255.0000000000054
 51
289.34381999998988
  0
ARC
  5
7E8C
  8
0
 62
     0
 10
921.11660762514964
 20
636.7556134387097
 30
0.0
 40
5.0
 50
250.6561800000101
 51
284.99999999999449
  0
ARC
  5
7E8D
  8
0
 62
     0
 10
962.59317262514969
 20
612.80911343870969
 30
0.0
 40
5.0
 50
195.00001000001549
 51
229.34382000001071
  0
ARC
  5
7E8E
  8
0
 62
     0
 10
930.15466762515075
 20
639.17736343870831
 30
0.0
 40
5.0
 50
247.37550999999331
 51
284.99999999999449
  0
ARC
  5
7E8F
  8
0
 62
     0
 10
1005.48825262515
 20
538.51267843870835
 30
0.0
 40
5.0
 50
190.6561800000035
 51
224.99999999999079
  0
ARC
  5
7E90
  8
0
 62
     0
 10
1011.017152625151
 20
496.14860343870959
 30
0.0
 40
5.0
 50
135.00000000000921
 51
187.1014900000086
  0
ARC
  5
7E91
  8
0
 62
     0
 10
826.28839262515044
 20
639.17736343870831
 30
0.0
 40
5.0
 50
255.0000000000054
 51
292.62449000000669
  0
ARC
  5
7E92
  8
0
 62
     0
 10
960.17141762515075
 20
621.84721343870831
 30
0.0
 40
5.0
 50
195.00001000001549
 51
232.62449999998381
  0
ARC
  5
7E93
  8
0
 62
     0
 10
1012.104557625147
 20
531.89634843870965
 30
0.0
 40
5.0
 50
187.3755099999936
 51
224.99999999999079
  0
ARC
  5
7E94
  8
0
 62
     0
 10
796.27163762515181
 20
621.84721343870831
 30
0.0
 40
5.0
 50
307.37550999997842
 51
345.00000000000551
  0
ARC
  5
7E95
  8
0
 62
     0
 10
744.33851262514963
 20
531.89634843870965
 30
0.0
 40
5.0
 50
315.00000000000909
 51
352.62449000000652
  0
ARC
  5
7E96
  8
0
 62
     0
 10
744.33851262514963
 20
497.23600843870832
 30
0.0
 40
5.0
 50
7.3755080999940654
 51
45.000001000015267
  0
ARC
  5
7E97
  8
0
 62
     0
 10
1012.104557625147
 20
497.23600843870832
 30
0.0
 40
5.0
 50
135.00000000000921
 51
172.6244900000064
  0
ARC
  5
7E98
  8
0
 62
     0
 10
961.19967762514875
 20
390.4020234387088
 30
0.0
 40
8.0
 50
182.99445999998781
 51
260.51169999997683
  0
ARC
  5
7E99
  8
0
 62
     0
 10
807.8670676251503
 20
387.29685843870948
 30
0.0
 40
5.0
 50
90.000002999984659
 51
166.180780000006
  0
ARC
  5
7E9A
  8
0
 62
     0
 10
948.57599262515032
 20
387.29685843870948
 30
0.0
 40
5.0
 50
13.819216999987431
 51
90.000002999984659
  0
ARC
  5
7E9B
  8
0
 62
     0
 10
878.22152762515066
 20
681.56621343870961
 30
0.0
 40
4.000000049999997
 50
359.999989999999
 51
179.999989999999
  0
ARC
  5
7E9C
  8
0
 62
     0
 10
872.22149762515073
 20
648.06621343870847
 30
0.0
 40
2.0000000500000001
 50
270.0
 51
0.0
  0
ARC
  5
7E9D
  8
0
 62
     0
 10
884.22152762515077
 20
648.06621343870847
 30
0.0
 40
2.0000000500000001
 50
179.999989999999
 51
270.0
  0
ARC
  5
7E9E
  8
0
 62
     0
 10
870.89968762514968
 20
650.19741343870965
 30
0.0
 40
1.0
 50
100.46071999998451
 51
164.99998999998439
  0
ARC
  5
7E9F
  8
0
 62
     0
 10
885.54339762515065
 20
650.19741343870965
 30
0.0
 40
1.0
 50
14.99999999999442
 51
79.53928100001076
  0
ARC
  5
7EA0
  8
0
 62
     0
 10
420.63348164640001
 20
642.56616343870974
 30
0.0
 40
2.0000000500000001
 50
131.4096200000067
 51
180.00001000000091
  0
ARC
  5
7EA1
  8
0
 62
     0
 10
429.63348164640001
 20
426.1103634387083
 30
0.0
 40
3.0000000500000001
 50
0.0
 51
87.999999999996703
  0
ARC
  5
7EA2
  8
0
 62
     0
 10
429.63348164640001
 20
603.02202130723663
 30
0.0
 40
3.0000000500000001
 50
272.0000000000033
 51
0.0
  0
ARC
  5
7EA3
  8
0
 62
     0
 10
434.63348164640001
 20
642.18081343870836
 30
0.0
 40
2.0000000500000001
 50
91.999997999994434
 51
180.00001000000091
  0
CIRCLE
  5
7EA4
  8
0
 62
     0
 10
429.63348164640001
 20
665.06616343870974
 30
0.0
 40
12.5
  0
ARC
  5
7EA5
  8
0
 62
     0
 10
429.63348164640001
 20
665.06616343870974
 30
0.0
 40
20.500000500000009
 50
304.61363999999003
 51
235.3863499999934
  0
ARC
  5
7EA6
  8
0
 62
     0
 10
443.55043164639977
 20
644.9027134387087
 30
0.0
 40
4.000000049999997
 50
124.6136500000064
 51
187.8682200000151
  0
ARC
  5
7EA7
  8
0
 62
     0
 10
415.71648164639862
 20
644.9027134387087
 30
0.0
 40
4.000000049999997
 50
347.9293300000013
 51
55.38635900003068
  0
ARC
  5
7EA8
  8
0
 62
     0
 10
422.31163164640151
 20
650.19741343870965
 30
0.0
 40
1.0
 50
100.46071999998399
 51
164.99998999998439
  0
ARC
  5
7EA9
  8
0
 62
     0
 10
436.95538164639981
 20
650.19741343870965
 30
0.0
 40
1.0
 50
14.99999999999447
 51
79.539281000010405
  0
LINE
  5
7EAB
  8
0
 62
     0
 10
963.22152962515031
 20
377.56617343870857
 30
0.0
 11
1013.221533625149
 21
377.56617343870857
 31
0.0
  0
LINE
  5
7EAC
  8
0
  6
AM_ISO08W050
 62
     0
 10
127.1516938768186
 20
514.56617843870833
 30
0.0
 11
503.11298051881801
 21
514.56617843870833
 31
0.0
  0
LINE
  5
7EAD
  8
0
  6
AM_ISO08W050
 62
     0
 10
483.40859065292801
 20
552.56617843870833
 30
0.0
 11
645.57788164640124
 21
552.56617843870833
 31
0.0
  0
LINE
  5
7EAE
  8
0
  6
AM_ISO02W050
 62
     0
 10
533.13353164640148
 20
402.56617843870822
 30
0.0
 11
533.13353164640148
 21
377.56617343870857
 31
0.0
  0
LINE
  5
7EAF
  8
0
  6
AM_ISO02W050
 62
     0
 10
552.13353164640125
 20
402.56617843870822
 30
0.0
 11
552.13353164640125
 21
377.56617343870857
 31
0.0
  0
LINE
  5
7EB0
  8
0
  6
AM_ISO02W050
 62
     0
 10
402.13353164640108
 20
402.56617843870822
 30
0.0
 11
402.13353164640108
 21
377.56617343870857
 31
0.0
  0
LINE
  5
7EB1
  8
0
  6
AM_ISO02W050
 62
     0
 10
383.13353164639778
 20
402.56617843870822
 30
0.0
 11
383.13353164639778
 21
377.56617343870857
 31
0.0
  0
LINE
  5
7EB2
  8
0
  6
AM_ISO08W050
 62
     0
 10
542.63348164640092
 20
404.52659343870818
 30
0.0
 11
542.63348164640092
 21
374.80845343870868
 31
0.0
  0
LINE
  5
7EB3
  8
0
  6
AM_ISO08W050
 62
     0
 10
392.63348164640092
 20
404.52659343870818
 30
0.0
 11
392.63348164640092
 21
374.80845343870868
 31
0.0
  0
LINE
  5
7EC1
  8
0
  6
AM_ISO08W050
 62
     0
 10
878.22152762515066
 20
690.69613660782943
 30
0.0
 11
878.22152762515066
 21
376.59659843870872
 31
0.0
  0
LINE
  5
7EC2
  8
0
  6
AM_ISO08W050
 62
     0
 10
993.22152762515077
 20
406.41633343870831
 30
0.0
 11
993.22152762515077
 21
370.59064843870868
 31
0.0
  0
LINE
  5
7EC3
  8
0
  6
AM_ISO08W050
 62
     0
 10
763.2215126251524
 20
407.07407843870828
 30
0.0
 11
763.2215126251524
 21
372.67454343870958
 31
0.0
  0
LINE
  5
7EC4
  8
0
  6
AM_ISO02W050
 62
     0
 10
1002.721527625151
 20
402.56617343870829
 30
0.0
 11
1002.721527625151
 21
377.56617343870857
 31
0.0
  0
LINE
  5
7EC5
  8
0
  6
AM_ISO02W050
 62
     0
 10
753.72151262515195
 20
402.56617343870829
 30
0.0
 11
753.72151262515195
 21
377.56617343870857
 31
0.0
  0
LINE
  5
7EC6
  8
0
  6
AM_ISO02W050
 62
     0
 10
983.72152762515032
 20
402.56617343870829
 30
0.0
 11
983.72152762515032
 21
377.56617343870857
 31
0.0
  0
LINE
  5
7EC7
  8
0
  6
AM_ISO02W050
 62
     0
 10
772.72155262515184
 20
402.56617343870829
 30
0.0
 11
772.72155262515184
 21
377.56617343870857
 31
0.0
  0
LINE
  5
7EC8
  8
0
  6
AM_ISO08W050
 62
     0
 10
798.42114866059285
 20
552.56617843870833
 30
0.0
 11
958.02190658970983
 21
552.56617843870833
 31
0.0
  0
LINE
  5
8EC0
  8
0
 62
     0
 10
352.7818146464009
 20
563.75117843870839
 30
0.0
 11
411.63348164640092
 21
563.75117843870839
 31
0.0
  0
LINE
  5
8EC1
  8
0
 62
     0
 10
352.55105764640092
 20
564.24117843870829
 30
0.0
 11
409.87348164640088
 21
564.24117843870829
 31
0.0
  0
LINE
  5
8EC2
  8
0
 62
     0
 10
351.37965564640092
 20
565.84117843870831
 30
0.0
 11
409.87348164640088
 21
565.84117843870831
 31
0.0
  0
LINE
  5
8EC3
  8
0
 62
     0
 10
350.7718656464009
 20
566.38117843870839
 30
0.0
 11
411.63348164640092
 21
566.38117843870839
 31
0.0
  0
LINE
  5
8EC4
  8
0
 62
     0
 10
273.92831164640091
 20
562.71619143870839
 30
0.0
 11
345.33865164640088
 21
562.71619143870839
 31
0.0
  0
LINE
  5
8EC5
  8
0
 62
     0
 10
272.56651064640101
 20
567.7865954387081
 30
0.0
 11
346.68951664640088
 21
567.7865954387081
 31
0.0
  0
ARC
  5
8EC6
  8
0
 62
     0
 10
864.13345164640054
 20
514.34795043870849
 30
0.0
 40
595.5
 50
175.6560359999994
 51
183.93780499999761
  0
ARC
  5
8EC7
  8
0
 62
     0
 10
272.56651064640101
 20
561.1866044387084
 30
0.0
 40
6.599999999999997
 50
90.0
 51
171.4098509999948
  0
ARC
  5
8EC8
  8
0
 62
     0
 10
273.92831164640091
 20
559.1161854387085
 30
0.0
 40
3.6000000000000001
 50
90.0
 51
174.62414600000039
  0
ARC
  5
8EC9
  8
0
 62
     0
 10
-244.8665183535991
 20
514.34801243870834
 30
0.0
 40
595.5
 50
356.06220199999939
 51
4.3439640000005717
  0
ARC
  5
8ECA
  8
0
 62
     0
 10
346.70045264640089
 20
561.1866044387084
 30
0.0
 40
6.599999999999997
 50
8.5901410000037774
 51
90.0
  0
ARC
  5
8ECB
  8
0
 62
     0
 10
345.33865164640088
 20
559.1161854387085
 30
0.0
 40
3.6000000000000001
 50
5.3758619999981763
 51
90.0
  0
ARC
  5
8ECC
  8
0
 62
     0
 10
-245.46649435359899
 20
514.34801243870834
 30
0.0
 40
600.59997599999986
 50
355.4679790000045
 51
4.5671770000027472
  0
ARC
  5
8ECD
  8
0
 62
     0
 10
864.73342664640074
 20
514.34795043870849
 30
0.0
 40
600.59997599999986
 50
175.4328159999979
 51
184.5320279999992
  0
ARC
  5
8ECE
  8
0
 62
     0
 10
309.63348164640081
 20
460.38417643870832
 30
0.0
 40
16.337935000000002
 50
47.76794699999509
 51
132.2320530000049
  0
LINE
  5
8ECF
  8
0
 62
     0
 10
275.85641264640083
 20
471.96211743870822
 30
0.0
 11
297.307914646401
 21
471.9621094387083
 31
0.0
  0
LINE
  5
8ED0
  8
0
 62
     0
 10
272.5822886464008
 20
460.90936743870822
 30
0.0
 11
346.68467464640099
 21
460.90936743870822
 31
0.0
  0
LINE
  5
8ED1
  8
0
 62
     0
 10
272.38268864640099
 20
463.32724443870848
 30
0.0
 11
346.88427464640091
 21
463.32724443870848
 31
0.0
  0
LINE
  5
8ED2
  8
0
 62
     0
 10
274.61906164640089
 20
469.28400943870832
 30
0.0
 11
298.05506064640088
 21
469.28400143870817
 31
0.0
  0
ARC
  5
8ED3
  8
0
 62
     0
 10
309.69944564640087
 20
458.8981904387083
 30
0.0
 40
15.0
 50
46.767242000003563
 51
133.23275799999641
  0
ARC
  5
8ED4
  8
0
 62
     0
 10
272.5822886464008
 20
467.5093664387083
 30
0.0
 40
6.599999999999997
 50
185.37618999999609
 51
270.0
  0
ARC
  5
8ED5
  8
0
 62
     0
 10
272.38268864640099
 20
469.92724343870822
 30
0.0
 40
6.599999999999997
 50
188.04118300000351
 51
270.0
  0
ARC
  5
8ED6
  8
0
 62
     0
 10
274.61906164640089
 20
473.88401543870827
 30
0.0
 40
4.5999999999999961
 50
185.37625099999849
 51
270.0
  0
LINE
  5
8ED7
  8
0
 62
     0
 10
343.41055064640108
 20
471.96211743870822
 30
0.0
 11
321.95904864640079
 21
471.9621094387083
 31
0.0
  0
LINE
  5
8ED8
  8
0
 62
     0
 10
344.6479016464009
 20
469.28400943870832
 30
0.0
 11
321.34383064640087
 21
469.28400143870817
 31
0.0
  0
ARC
  5
8ED9
  8
0
 62
     0
 10
346.68467464640099
 20
467.5093664387083
 30
0.0
 40
6.599999999999997
 50
270.0
 51
354.62381000000369
  0
ARC
  5
8EDA
  8
0
 62
     0
 10
346.88427464640091
 20
469.92724343870822
 30
0.0
 40
6.599999999999997
 50
270.0
 51
351.9588320000023
  0
ARC
  5
8EDB
  8
0
 62
     0
 10
344.6479016464009
 20
473.88401543870827
 30
0.0
 40
4.5999999999999961
 50
270.0
 51
354.62374900000151
  0
ARC
  5
8EDC
  8
0
 62
     0
 10
298.05506164640087
 20
471.28400143870817
 30
0.0
 40
2.0
 50
270.0
 51
313.23275799999641
  0
ARC
  5
8EDD
  8
0
 62
     0
 10
297.30791564640089
 20
473.9621094387083
 30
0.0
 40
2.0
 50
270.0
 51
312.2320530000049
  0
ARC
  5
8EDE
  8
0
 62
     0
 10
321.95904764640079
 20
473.9621094387083
 30
0.0
 40
2.0
 50
227.7679469999951
 51
270.0
  0
ARC
  5
8EDF
  8
0
 62
     0
 10
321.34382964640088
 20
471.28400143870817
 30
0.0
 40
2.0
 50
226.76724200000359
 51
270.0
  0
ARC
  5
8EE0
  8
0
 62
     0
 10
138.1334816464009
 20
415.36602074180081
 30
0.0
 40
2.0
 50
180.0
 51
270.0
  0
LINE
  5
8EE2
  8
0
 62
     0
 10
209.1334816464009
 20
615.36617843870806
 30
0.0
 11
209.1334816464009
 21
413.36617843870852
 31
0.0
  0
ARC
  5
8EE3
  8
0
 62
     0
 10
138.5334816464009
 20
600.34299343870816
 30
0.0
 40
2.399999999999999
 50
159.99999999999631
 51
180.0
  0
ARC
  5
8EE4
  8
0
 62
     0
 10
143.1279456464008
 20
612.9661784387082
 30
0.0
 40
2.399999999999999
 50
90.0
 51
159.99999999999631
  0
LINE
  5
8EE5
  8
0
 62
     0
 10
140.8726826464009
 20
613.78702643870838
 30
0.0
 11
136.2782196464008
 21
601.16384243870846
 31
0.0
  0
LINE
  5
8EE6
  8
0
 62
     0
 10
141.447446646401
 20
614.6796324387085
 30
0.0
 11
141.447446646401
 21
413.36617843870852
 31
0.0
  0
LINE
  5
8EE7
  8
0
 62
     0
 10
136.1334816464009
 20
600.34299343870816
 30
0.0
 11
136.1334816464009
 21
415.36602074180081
 31
0.0
  0
LINE
  5
8EE8
  8
0
 62
     0
 10
209.1334816464009
 20
615.36617843870806
 30
0.0
 11
143.1279456464008
 21
615.36617843870806
 31
0.0
  0
LINE
  5
8EE9
  8
0
 62
     0
 10
361.59035764640089
 20
563.75117843870839
 30
0.0
 11
361.59035764640089
 21
543.38617843870816
 31
0.0
  0
LINE
  5
8EEA
  8
0
 62
     0
 10
377.63348064640093
 20
563.75117843870839
 30
0.0
 11
377.63348064640093
 21
543.38617843870816
 31
0.0
  0
LINE
  5
8EEB
  8
0
 62
     0
 10
392.18287664640093
 20
458.54538243870832
 30
0.0
 11
377.63348064640093
 21
458.54538243870832
 31
0.0
  0
LINE
  5
8EEC
  8
0
 62
     0
 10
397.13348164640092
 20
469.95773243870832
 30
0.0
 11
377.63348064640093
 21
469.95773243870832
 31
0.0
  0
LINE
  5
8EED
  8
0
 62
     0
 10
362.33887864640087
 20
463.26047243870852
 30
0.0
 11
377.63348164640092
 21
458.54538243870832
 31
0.0
  0
LINE
  5
8EEE
  8
0
 62
     0
 10
377.63348164640092
 20
469.95773243870832
 30
0.0
 11
362.59754064640089
 21
469.41698143870832
 31
0.0
  0
ARC
  5
8EEF
  8
0
 62
     0
 10
362.63348164640092
 20
468.41762743870822
 30
0.0
 40
1.0
 50
92.059690999997088
 51
180.0
  0
ARC
  5
8EF0
  8
0
 62
     0
 10
362.63348164640092
 20
464.2160924387083
 30
0.0
 40
1.0
 50
180.0
 51
252.8662750000021
  0
LINE
  5
8EF1
  8
0
 62
     0
 10
377.63348164640092
 20
590.41896543870826
 30
0.0
 11
362.33302264640088
 21
585.59909943870832
 31
0.0
  0
ARC
  5
8EF2
  8
0
 62
     0
 10
362.63348164640092
 20
584.64530443870808
 30
0.0
 40
1.0
 50
107.485179
 51
180.0
  0
ARC
  5
8EF3
  8
0
 62
     0
 10
362.63348164640092
 20
582.29423943870847
 30
0.0
 40
1.0
 50
180.0
 51
270.0
  0
LINE
  5
8EF4
  8
0
 62
     0
 10
362.68203664640089
 20
581.29541843870811
 30
0.0
 11
377.63348164640092
 21
582.02223843870831
 31
0.0
  0
LINE
  5
8EF5
  8
0
 62
     0
 10
397.13348164640092
 20
582.02223843870831
 30
0.0
 11
377.63348164640092
 21
582.02223843870831
 31
0.0
  0
LINE
  5
8EF6
  8
0
 62
     0
 10
320.63348164640092
 20
612.85267143870851
 30
0.0
 11
408.08066664640091
 21
612.85267143870851
 31
0.0
  0
ARC
  5
8EF7
  8
0
 62
     0
 10
231.897726646401
 20
610.8526714387084
 30
0.0
 40
2.0
 50
90.0
 51
156.10180000000051
  0
ARC
  5
8EF8
  8
0
 62
     0
 10
408.08066664640091
 20
610.8526714387084
 30
0.0
 40
2.0
 50
10.000001999998901
 51
90.0
  0
LINE
  5
8EF9
  8
0
 62
     0
 10
411.63348164640092
 20
602.22119543870849
 30
0.0
 11
410.05028164640078
 21
611.1999684387082
 31
0.0
  0
LINE
  5
8EFA
  8
0
 62
     0
 10
411.37267364640093
 20
602.22119543870849
 30
0.0
 11
411.63348164640092
 21
602.22119543870849
 31
0.0
  0
ARC
  5
8EFB
  8
0
 62
     0
 10
216.96469664640099
 20
609.66289743870811
 30
0.0
 40
2.0
 50
90.0
 51
169.99999800000111
  0
LINE
  5
8EFC
  8
0
 62
     0
 10
212.6334816464009
 20
596.61689443870807
 30
0.0
 11
214.99508164640091
 21
610.01019443870825
 31
0.0
  0
ARC
  5
8EFD
  8
0
 62
     0
 10
408.02964764640092
 20
609.66289743870811
 30
0.0
 40
2.0
 50
10.000001999998901
 51
90.0
  0
LINE
  5
8EFE
  8
0
 62
     0
 10
411.63348164640092
 20
600.74207743870852
 30
0.0
 11
409.99926264640078
 21
610.01019443870825
 31
0.0
  0
LINE
  5
8EFF
  8
0
 62
     0
 10
212.6334816464009
 20
596.61689443870807
 30
0.0
 11
213.20138764640089
 21
596.61689443870807
 31
0.0
  0
LINE
  5
8F00
  8
0
 62
     0
 10
411.09751064640079
 20
600.74207743870852
 30
0.0
 11
411.63348164640092
 21
600.74207743870852
 31
0.0
  0
ARC
  5
8F01
  8
0
 62
     0
 10
407.94379264640088
 20
607.11016343870813
 30
0.0
 40
2.0
 50
10.00000100000196
 51
90.0
  0
ARC
  5
8F02
  8
0
 62
     0
 10
217.08248764640089
 20
607.11016343870813
 30
0.0
 40
2.0
 50
90.0
 51
169.9999989999979
  0
LINE
  5
8F03
  8
0
 62
     0
 10
212.6334816464009
 20
593.39613843870825
 30
0.0
 11
215.112871646401
 21
607.45745943870816
 31
0.0
  0
ARC
  5
8F04
  8
0
 62
     0
 10
217.26362864640089
 20
603.14497843870799
 30
0.0
 40
2.0
 50
90.0
 51
170.00000000000139
  0
LINE
  5
8F05
  8
0
 62
     0
 10
212.6334816464009
 20
588.40365343870826
 30
0.0
 11
215.29401264640089
 21
603.49227443870848
 31
0.0
  0
ARC
  5
8F06
  8
0
 62
     0
 10
217.54485664640089
 20
597.56755043870828
 30
0.0
 40
2.0
 50
90.0
 51
170.00000000000139
  0
LINE
  5
8F07
  8
0
 62
     0
 10
212.6334816464009
 20
581.2313014387081
 30
0.0
 11
215.57524064640091
 21
597.91484743870808
 31
0.0
  0
ARC
  5
8F08
  8
0
 62
     0
 10
217.6401206464009
 20
591.56688343870837
 30
0.0
 40
2.0
 50
90.0
 51
169.9999989999979
  0
LINE
  5
8F09
  8
0
 62
     0
 10
212.6334816464009
 20
574.69036543870811
 30
0.0
 11
215.67050464640101
 21
591.91417943870795
 31
0.0
  0
LINE
  5
8F0A
  8
0
 62
     0
 10
411.5052226464008
 20
598.429827438708
 30
0.0
 11
409.9134076464008
 21
607.45745943870816
 31
0.0
  0
LINE
  5
8F0B
  8
0
 62
     0
 10
212.6334816464009
 20
593.39613843870825
 30
0.0
 11
213.5137916464009
 21
593.39613843870825
 31
0.0
  0
ARC
  5
8F0C
  8
0
 62
     0
 10
407.81441464640079
 20
603.14497843870799
 30
0.0
 40
2.0
 50
9.9999999999986073
 51
90.0
  0
LINE
  5
8F0D
  8
0
 62
     0
 10
410.67667664640089
 20
598.429827438708
 30
0.0
 11
409.78403064640082
 21
603.49227443870848
 31
0.0
  0
ARC
  5
8F0E
  8
0
 62
     0
 10
343.02249964640089
 20
597.56755043870828
 30
0.0
 40
2.0
 50
5.5986529999989587
 51
90.0
  0
ARC
  5
8F0F
  8
0
 62
     0
 10
343.02054464640088
 20
591.56688343870837
 30
0.0
 40
2.0
 50
5.4290190000020546
 51
90.0
  0
LINE
  5
8F10
  8
0
 62
     0
 10
413.63348164640092
 20
474.84347243870832
 30
0.0
 11
413.63348164640092
 21
576.63211143870831
 31
0.0
  0
LINE
  5
8F11
  8
0
 62
     0
 10
413.63348164640092
 20
598.429827438708
 30
0.0
 11
413.63348164640092
 21
602.56617843870799
 31
0.0
  0
LINE
  5
8F12
  8
0
 62
     0
 10
361.59035764640089
 20
588.40365343870826
 30
0.0
 11
377.63348064640093
 21
593.00351543870852
 31
0.0
  0
LINE
  5
8F13
  8
0
 62
     0
 10
345.93039664640088
 20
588.40365343870826
 30
0.0
 11
361.59035764640089
 21
588.40365343870826
 31
0.0
  0
LINE
  5
8F14
  8
0
 62
     0
 10
377.63348064640093
 20
593.00351543870852
 30
0.0
 11
392.32676464640099
 21
593.00351543870852
 31
0.0
  0
ARC
  5
8F15
  8
0
 62
     0
 10
394.33328064640091
 20
586.04944443870806
 30
0.0
 40
2.600398999999999
 50
179.9999819999943
 51
269.99997799999522
  0
ARC
  5
8F16
  8
0
 62
     0
 10
394.33328064640091
 20
591.3494324387085
 30
0.0
 40
2.600403
 50
90.0
 51
179.9999819999943
  0
LINE
  5
8F17
  8
0
 62
     0
 10
397.13348164640092
 20
588.76546343870825
 30
0.0
 11
395.63348164640092
 21
587.89943843870799
 31
0.0
  0
LINE
  5
8F18
  8
0
 62
     0
 10
397.13348164640092
 20
589.76546343870848
 30
0.0
 11
395.63348164640092
 21
588.8994384387081
 31
0.0
  0
LINE
  5
8F19
  8
0
 62
     0
 10
397.13348164640092
 20
594.79943843870853
 30
0.0
 11
397.13348164640092
 21
582.59943843870849
 31
0.0
  0
LINE
  5
8F1A
  8
0
 62
     0
 10
395.63348164640092
 20
594.79943843870853
 30
0.0
 11
397.13348164640092
 21
594.79943843870853
 31
0.0
  0
LINE
  5
8F1B
  8
0
 62
     0
 10
395.63348164640092
 20
582.59943843870849
 30
0.0
 11
397.13348164640092
 21
582.59943843870849
 31
0.0
  0
LINE
  5
8F1C
  8
0
 62
     0
 10
391.73348764640087
 20
591.3494324387085
 30
0.0
 11
391.73348764640087
 21
586.04944443870806
 31
0.0
  0
LINE
  5
8F1D
  8
0
 62
     0
 10
395.63348164640092
 20
594.79943843870853
 30
0.0
 11
395.63348164640092
 21
582.59943843870849
 31
0.0
  0
LINE
  5
8F1E
  8
0
 62
     0
 10
395.63348164640092
 20
583.44943843870851
 30
0.0
 11
394.33328064640091
 21
583.44943843870851
 31
0.0
  0
LINE
  5
8F1F
  8
0
 62
     0
 10
395.63348164640092
 20
593.94943843870851
 30
0.0
 11
394.33328064640091
 21
593.94943843870851
 31
0.0
  0
ARC
  5
8F20
  8
0
 62
     0
 10
394.33328064640091
 20
460.00751743870831
 30
0.0
 40
2.600398999999999
 50
179.9999819999943
 51
269.99997799999522
  0
ARC
  5
8F21
  8
0
 62
     0
 10
394.33328064640091
 20
465.30750543870852
 30
0.0
 40
2.600403
 50
90.0
 51
179.9999819999943
  0
LINE
  5
8F22
  8
0
 62
     0
 10
397.13348164640092
 20
462.72353643870821
 30
0.0
 11
395.63348164640092
 21
461.85751143870817
 31
0.0
  0
LINE
  5
8F23
  8
0
 62
     0
 10
397.13348164640092
 20
463.72353643870849
 30
0.0
 11
395.63348164640092
 21
462.85751143870817
 31
0.0
  0
LINE
  5
8F24
  8
0
 62
     0
 10
397.13348164640092
 20
468.75751143870849
 30
0.0
 11
397.13348164640092
 21
456.5575114387085
 31
0.0
  0
LINE
  5
8F25
  8
0
 62
     0
 10
395.63348164640092
 20
468.75751143870849
 30
0.0
 11
397.13348164640092
 21
468.75751143870849
 31
0.0
  0
LINE
  5
8F26
  8
0
 62
     0
 10
395.63348164640092
 20
456.5575114387085
 30
0.0
 11
397.13348164640092
 21
456.5575114387085
 31
0.0
  0
LINE
  5
8F27
  8
0
 62
     0
 10
391.73348764640087
 20
465.30750543870852
 30
0.0
 11
391.73348764640087
 21
460.00751743870831
 31
0.0
  0
LINE
  5
8F28
  8
0
 62
     0
 10
395.63348164640092
 20
468.75751143870849
 30
0.0
 11
395.63348164640092
 21
456.5575114387085
 31
0.0
  0
LINE
  5
8F29
  8
0
 62
     0
 10
395.63348164640092
 20
457.4075114387083
 30
0.0
 11
394.33328064640091
 21
457.4075114387083
 31
0.0
  0
LINE
  5
8F2A
  8
0
 62
     0
 10
395.63348164640092
 20
467.9075114387083
 30
0.0
 11
394.33328064640091
 21
467.9075114387083
 31
0.0
  0
LINE
  5
8F2B
  8
0
 62
     0
 10
411.5726516464008
 20
602.56617843870799
 30
0.0
 11
413.63348164640092
 21
602.56617843870799
 31
0.0
  0
LINE
  5
8F2C
  8
0
 62
     0
 10
217.26362864640089
 20
605.14497843870811
 30
0.0
 11
407.81441464640079
 21
605.14497843870811
 31
0.0
  0
LINE
  5
8F2D
  8
0
 62
     0
 10
217.08248764640089
 20
609.11016343870847
 30
0.0
 11
407.94379264640088
 21
609.11016343870847
 31
0.0
  0
LINE
  5
8F2E
  8
0
 62
     0
 10
216.96469664640099
 20
611.66289743870811
 30
0.0
 11
408.02964764640092
 21
611.66289743870811
 31
0.0
  0
LINE
  5
8F2F
  8
0
 62
     0
 10
209.1334816464009
 20
608.06617843870811
 30
0.0
 11
214.65229964640099
 21
608.06617843870811
 31
0.0
  0
LINE
  5
8F30
  8
0
 62
     0
 10
231.897726646401
 20
612.85267143870851
 30
0.0
 11
298.63348164640092
 21
612.85267143870851
 31
0.0
  0
LINE
  5
8F31
  8
0
 62
     0
 10
377.63348064640093
 20
571.72617843870808
 30
0.0
 11
377.63348064640093
 21
566.38117843870839
 31
0.0
  0
LINE
  5
8F32
  8
0
 62
     0
 10
361.59035764640089
 20
571.72617843870808
 30
0.0
 11
361.59035764640089
 21
566.38117843870839
 31
0.0
  0
LINE
  5
8F33
  8
0
 62
     0
 10
377.63348064640093
 20
582.02223843870831
 30
0.0
 11
377.63348064640093
 21
574.42617843870835
 31
0.0
  0
LINE
  5
8F34
  8
0
 62
     0
 10
377.63348064640093
 20
590.41896543870826
 30
0.0
 11
391.73348764640087
 21
590.41896543870826
 31
0.0
  0
LINE
  5
8F35
  8
0
 62
     0
 10
212.6334816464009
 20
574.69036543870811
 30
0.0
 11
346.63348164640092
 21
574.69036543870811
 31
0.0
  0
LINE
  5
8F36
  8
0
 62
     0
 10
345.95585464640101
 20
581.2313014387081
 30
0.0
 11
346.63348164640092
 21
581.2313014387081
 31
0.0
  0
LINE
  5
8F37
  8
0
 62
     0
 10
217.6401206464009
 20
593.56688343870815
 30
0.0
 11
343.02054464640088
 21
593.56688343870815
 31
0.0
  0
LINE
  5
8F38
  8
0
 62
     0
 10
212.6334816464009
 20
581.2313014387081
 30
0.0
 11
213.7868246464009
 21
581.2313014387081
 31
0.0
  0
LINE
  5
8F39
  8
0
 62
     0
 10
217.54485664640089
 20
599.56755043870851
 30
0.0
 11
343.02249964640089
 21
599.56755043870851
 31
0.0
  0
LINE
  5
8F3A
  8
0
 62
     0
 10
413.63348164640092
 20
576.63211143870831
 30
0.0
 11
416.63348164640092
 21
574.90006043870835
 31
0.0
  0
ARC
  5
8F3B
  8
0
 62
     0
 10
396.13348164640092
 20
577.63211143870831
 30
0.0
 40
1.0
 50
270.0
 51
0.0
  0
ARC
  5
8F3C
  8
0
 62
     0
 10
399.13348164640092
 20
596.42982743870812
 30
0.0
 40
2.0
 50
90.0
 51
180.0
  0
ARC
  5
8F3D
  8
0
 62
     0
 10
399.13348164640092
 20
592.30582243870811
 30
0.0
 40
2.0
 50
180.0
 51
270.0
  0
ARC
  5
8F3E
  8
0
 62
     0
 10
399.13348164640092
 20
588.30582243870811
 30
0.0
 40
2.0
 50
90.0
 51
180.0
  0
LINE
  5
8F3F
  8
0
 62
     0
 10
399.13348164640092
 20
598.429827438708
 30
0.0
 11
416.63348164640092
 21
598.429827438708
 31
0.0
  0
LINE
  5
8F40
  8
0
 62
     0
 10
397.13348164640092
 20
576.63211143870831
 30
0.0
 11
413.63348164640092
 21
576.63211143870831
 31
0.0
  0
LINE
  5
8F41
  8
0
 62
     0
 10
399.13348164640092
 20
590.30582243870811
 30
0.0
 11
416.63348164640092
 21
590.30582243870811
 31
0.0
  0
LINE
  5
8F42
  8
0
 62
     0
 10
397.13348164640092
 20
577.63211143870831
 30
0.0
 11
397.13348164640092
 21
596.42982743870812
 31
0.0
  0
LINE
  5
8F43
  8
0
 62
     0
 10
212.6334816464009
 20
430.56617843870828
 30
0.0
 11
209.1334816464009
 21
430.56617843870828
 31
0.0
  0
LINE
  5
8F44
  8
0
 62
     0
 10
212.6334816464009
 20
480.20738943870822
 30
0.0
 11
217.2408576464008
 21
473.77578343870829
 31
0.0
  0
LINE
  5
8F45
  8
0
 62
     0
 10
217.2408576464008
 20
473.77578343870829
 30
0.0
 11
218.0966576464009
 21
476.40270343870822
 31
0.0
  0
LINE
  5
8F46
  8
0
 62
     0
 10
212.6334816464009
 20
480.20738943870822
 30
0.0
 11
218.0966576464009
 21
476.40270343870822
 31
0.0
  0
LINE
  5
8F47
  8
0
 62
     0
 10
218.0966576464009
 20
476.40270343870822
 30
0.0
 11
219.30858764640081
 21
475.84674343870842
 31
0.0
  0
LINE
  5
8F48
  8
0
 62
     0
 10
209.1334816464009
 20
473.77578343870829
 30
0.0
 11
217.2408576464008
 21
473.77578343870829
 31
0.0
  0
LINE
  5
8F49
  8
0
 62
     0
 10
209.1334816464009
 20
480.20738943870822
 30
0.0
 11
212.6334816464009
 21
480.20738943870822
 31
0.0
  0
LINE
  5
8F4A
  8
0
 62
     0
 10
212.6334816464009
 20
457.63400343870831
 30
0.0
 11
212.6334816464009
 21
454.44110943870851
 31
0.0
  0
LINE
  5
8F4B
  8
0
 62
     0
 10
214.39348164640089
 20
457.06556943870828
 30
0.0
 11
214.39348164640089
 21
455.06678743870822
 31
0.0
  0
LINE
  5
8F4C
  8
0
 62
     0
 10
229.3934816464008
 20
466.06617843870822
 30
0.0
 11
229.3934816464008
 21
464.06678743870827
 31
0.0
  0
LINE
  5
8F4D
  8
0
 62
     0
 10
227.6334816464009
 20
466.52772043870817
 30
0.0
 11
227.6334816464009
 21
463.45998543870832
 31
0.0
  0
LINE
  5
8F4E
  8
0
 62
     0
 10
227.6334816464009
 20
466.52772043870817
 30
0.0
 11
266.05569864640103
 21
466.52772043870817
 31
0.0
  0
LINE
  5
8F4F
  8
0
 62
     0
 10
227.6334816464009
 20
463.45998543870832
 30
0.0
 11
267.3705226464009
 21
463.45998543870832
 31
0.0
  0
LINE
  5
8F50
  8
0
 62
     0
 10
212.6334816464009
 20
454.44110943870851
 30
0.0
 11
309.63348164640081
 21
454.44110943870851
 31
0.0
  0
LINE
  5
8F51
  8
0
 62
     0
 10
212.6334816464009
 20
457.63400343870831
 30
0.0
 11
309.63348164640081
 21
457.63400343870831
 31
0.0
  0
LINE
  5
8F52
  8
0
 62
     0
 10
214.39348164640089
 20
457.06556943870828
 30
0.0
 11
309.63348164640081
 21
457.06556943870828
 31
0.0
  0
LINE
  5
8F53
  8
0
 62
     0
 10
214.39348164640089
 20
455.06678743870822
 30
0.0
 11
309.63348164640081
 21
455.06678743870822
 31
0.0
  0
LINE
  5
8F54
  8
0
 62
     0
 10
214.39348164640089
 20
457.06556943870828
 30
0.0
 11
212.6334816464009
 21
457.63400343870831
 31
0.0
  0
LINE
  5
8F55
  8
0
 62
     0
 10
214.39348164640089
 20
455.06678743870822
 30
0.0
 11
212.6334816464009
 21
454.44110943870851
 31
0.0
  0
LINE
  5
8F56
  8
0
 62
     0
 10
217.57674764640089
 20
463.80809943870833
 30
0.0
 11
218.7578386464009
 21
463.57069043870843
 31
0.0
  0
LINE
  5
8F57
  8
0
 62
     0
 10
229.3934816464008
 20
466.06617843870822
 30
0.0
 11
266.14200864640088
 21
466.06617843870822
 31
0.0
  0
LINE
  5
8F58
  8
0
 62
     0
 10
229.3934816464008
 20
464.06678743870827
 30
0.0
 11
266.95124464640088
 21
464.06678743870827
 31
0.0
  0
LINE
  5
8F59
  8
0
 62
     0
 10
229.3934816464008
 20
466.06617843870822
 30
0.0
 11
227.6334816464009
 21
466.52772043870817
 31
0.0
  0
LINE
  5
8F5A
  8
0
 62
     0
 10
229.3934816464008
 20
464.06678743870827
 30
0.0
 11
227.6334816464009
 21
463.45998543870832
 31
0.0
  0
LINE
  5
8F5B
  8
0
 62
     0
 10
346.63348164640092
 20
457.63400343870831
 30
0.0
 11
309.63348164640081
 21
457.63400343870831
 31
0.0
  0
LINE
  5
8F5C
  8
0
 62
     0
 10
344.87348164640088
 20
457.06556943870828
 30
0.0
 11
309.63348164640081
 21
457.06556943870828
 31
0.0
  0
LINE
  5
8F5D
  8
0
 62
     0
 10
344.87348164640088
 20
455.06678743870822
 30
0.0
 11
309.63348164640081
 21
455.06678743870822
 31
0.0
  0
LINE
  5
8F5E
  8
0
 62
     0
 10
344.87348164640088
 20
455.06678743870822
 30
0.0
 11
346.63348164640092
 21
454.44110943870851
 31
0.0
  0
LINE
  5
8F5F
  8
0
 62
     0
 10
344.87348164640088
 20
457.06556943870828
 30
0.0
 11
346.63348164640092
 21
457.63400343870831
 31
0.0
  0
LINE
  5
8F60
  8
0
 62
     0
 10
344.87348164640088
 20
457.06556943870828
 30
0.0
 11
344.87348164640088
 21
455.06678743870822
 31
0.0
  0
LINE
  5
8F61
  8
0
 62
     0
 10
346.63348164640092
 20
457.63400343870831
 30
0.0
 11
346.63348164640092
 21
454.44110943870851
 31
0.0
  0
LINE
  5
8F62
  8
0
 62
     0
 10
212.6334816464009
 20
454.44110943870851
 30
0.0
 11
214.226223646401
 21
437.14192243870832
 31
0.0
  0
LINE
  5
8F63
  8
0
 62
     0
 10
212.6334816464009
 20
447.90105543870823
 30
0.0
 11
213.23562664640099
 21
447.90105543870823
 31
0.0
  0
LINE
  5
8F64
  8
0
 62
     0
 10
212.6334816464009
 20
440.72870343870818
 30
0.0
 11
213.31625864640091
 21
440.72870343870818
 31
0.0
  0
LINE
  5
8F65
  8
0
 62
     0
 10
212.6334816464009
 20
435.73621843870831
 30
0.0
 11
213.15799464640091
 21
435.73621843870831
 31
0.0
  0
LINE
  5
8F66
  8
0
 62
     0
 10
212.6334816464009
 20
432.51546243870831
 30
0.0
 11
212.993423646401
 21
432.51546243870831
 31
0.0
  0
LINE
  5
8F67
  8
0
 62
     0
 10
212.58670464640099
 20
430.94588143870828
 30
0.0
 11
212.81709564640079
 21
430.94588143870828
 31
0.0
  0
LINE
  5
8F68
  8
0
 62
     0
 10
212.6334816464009
 20
447.90105543870823
 30
0.0
 11
214.22113364640089
 21
431.22328143870823
 31
0.0
  0
LINE
  5
8F69
  8
0
 62
     0
 10
212.6334816464009
 20
440.72870343870818
 30
0.0
 11
214.20531464640089
 21
425.7674924387083
 31
0.0
  0
LINE
  5
8F6A
  8
0
 62
     0
 10
212.6334816464009
 20
435.73621843870831
 30
0.0
 11
214.19479264640091
 21
421.76562743870818
 31
0.0
  0
LINE
  5
8F6B
  8
0
 62
     0
 10
212.6334816464009
 20
432.51546243870831
 30
0.0
 11
214.18670064640091
 21
419.23813443870853
 31
0.0
  0
LINE
  5
8F6C
  8
0
 62
     0
 10
212.58670464640099
 20
430.94588143870828
 30
0.0
 11
214.17722064640091
 21
418.03514743870852
 31
0.0
  0
ARC
  5
8F6D
  8
0
 62
     0
 10
216.21779964640089
 20
437.3252874387083
 30
0.0
 40
2.0
 50
185.2604109999981
 51
270.0
  0
ARC
  5
8F6E
  8
0
 62
     0
 10
216.21213164640099
 20
431.41281643870832
 30
0.0
 40
2.0
 50
185.4379219999999
 51
270.0
  0
ARC
  5
8F6F
  8
0
 62
     0
 10
216.19436764640091
 20
425.97646343870821
 30
0.0
 40
2.0
 50
185.99752600000011
 51
270.0
  0
ARC
  5
8F70
  8
0
 62
     0
 10
216.18241864640089
 20
421.98775843870828
 30
0.0
 40
2.0
 50
186.376742000001
 51
270.0
  0
ARC
  5
8F71
  8
0
 62
     0
 10
216.17315464640089
 20
419.47051543870822
 30
0.0
 40
2.0
 50
186.67229399999829
 51
270.0
  0
ARC
  5
8F72
  8
0
 62
     0
 10
216.16221464640091
 20
418.27968543870833
 30
0.0
 40
2.0
 50
187.02306899999661
 51
270.0
  0
LINE
  5
8F73
  8
0
 62
     0
 10
219.30858764640081
 20
475.84674343870842
 30
0.0
 11
219.30858764640081
 21
463.45998543870832
 31
0.0
  0
LINE
  5
8F74
  8
0
 62
     0
 10
217.2408576464008
 20
473.77578343870829
 30
0.0
 11
217.2408576464008
 21
463.87561643870822
 31
0.0
  0
LINE
  5
8F75
  8
0
 62
     0
 10
209.1334816464009
 20
463.45998543870832
 30
0.0
 11
219.30858764640081
 21
463.45998543870832
 31
0.0
  0
LINE
  5
8F76
  8
0
 62
     0
 10
209.1334816464009
 20
463.87561643870822
 30
0.0
 11
217.2408576464008
 21
463.87561643870822
 31
0.0
  0
LINE
  5
8F77
  8
0
 62
     0
 10
411.63348164640092
 20
529.74617843870851
 30
0.0
 11
409.87348164640088
 21
530.29617843870835
 31
0.0
  0
LINE
  5
8F78
  8
0
 62
     0
 10
411.63348164640092
 20
532.38617843870838
 30
0.0
 11
411.63348164640092
 21
529.74617843870851
 31
0.0
  0
LINE
  5
8F79
  8
0
 62
     0
 10
409.87348164640088
 20
531.89617843870838
 30
0.0
 11
411.63348164640092
 21
532.38617843870838
 31
0.0
  0
LINE
  5
8F7A
  8
0
 62
     0
 10
409.87348164640088
 20
531.89617843870838
 30
0.0
 11
409.87348164640088
 21
530.29617843870835
 31
0.0
  0
LINE
  5
8F7B
  8
0
 62
     0
 10
411.63348164640092
 20
518.7461784387084
 30
0.0
 11
409.87348164640088
 21
519.29617843870835
 31
0.0
  0
LINE
  5
8F7C
  8
0
 62
     0
 10
411.63348164640092
 20
521.38617843870816
 30
0.0
 11
411.63348164640092
 21
518.7461784387084
 31
0.0
  0
LINE
  5
8F7D
  8
0
 62
     0
 10
409.87348164640088
 20
520.89617843870815
 30
0.0
 11
411.63348164640092
 21
521.38617843870816
 31
0.0
  0
LINE
  5
8F7E
  8
0
 62
     0
 10
409.87348164640088
 20
520.89617843870815
 30
0.0
 11
409.87348164640088
 21
519.29617843870835
 31
0.0
  0
LINE
  5
8F7F
  8
0
 62
     0
 10
411.63348164640092
 20
507.74617843870823
 30
0.0
 11
409.87348164640088
 21
508.29617843870852
 31
0.0
  0
LINE
  5
8F80
  8
0
 62
     0
 10
411.63348164640092
 20
510.38617843870833
 30
0.0
 11
411.63348164640092
 21
507.74617843870823
 31
0.0
  0
LINE
  5
8F81
  8
0
 62
     0
 10
409.87348164640088
 20
509.89617843870849
 30
0.0
 11
411.63348164640092
 21
510.38617843870833
 31
0.0
  0
LINE
  5
8F82
  8
0
 62
     0
 10
409.87348164640088
 20
509.89617843870849
 30
0.0
 11
409.87348164640088
 21
508.29617843870852
 31
0.0
  0
LINE
  5
8F83
  8
0
 62
     0
 10
411.63348164640092
 20
496.74617843870823
 30
0.0
 11
409.87348164640088
 21
497.2961784387083
 31
0.0
  0
LINE
  5
8F84
  8
0
 62
     0
 10
411.63348164640092
 20
499.38617843870833
 30
0.0
 11
411.63348164640092
 21
496.74617843870823
 31
0.0
  0
LINE
  5
8F85
  8
0
 62
     0
 10
409.87348164640088
 20
498.89617843870832
 30
0.0
 11
411.63348164640092
 21
499.38617843870833
 31
0.0
  0
LINE
  5
8F86
  8
0
 62
     0
 10
409.87348164640088
 20
498.89617843870832
 30
0.0
 11
409.87348164640088
 21
497.2961784387083
 31
0.0
  0
LINE
  5
8F87
  8
0
 62
     0
 10
411.04515064640071
 20
428.05689843870817
 30
0.0
 11
410.01352164640087
 21
419.23813743870852
 31
0.0
  0
LINE
  5
8F88
  8
0
 62
     0
 10
409.97826464640087
 20
421.7653314387083
 30
0.0
 11
411.03322164640088
 21
431.1923184387083
 31
0.0
  0
LINE
  5
8F89
  8
0
 62
     0
 10
410.00533464640091
 20
425.76618743870853
 30
0.0
 11
411.1042466464009
 21
436.16036143870832
 31
0.0
  0
LINE
  5
8F8A
  8
0
 62
     0
 10
411.15518764640092
 20
442.69698143870818
 30
0.0
 11
410.02990664640089
 21
431.21769743870829
 31
0.0
  0
LINE
  5
8F8B
  8
0
 62
     0
 10
411.19635464640089
 20
450.10672343870829
 30
0.0
 11
409.96363764640091
 21
437.13606243870822
 31
0.0
  0
LINE
  5
8F8C
  8
0
 62
     0
 10
411.1052736464008
 20
426.92057043870852
 30
0.0
 11
410.03324064640083
 21
418.03999243870823
 31
0.0
  0
LINE
  5
8F8D
  8
0
 62
     0
 10
409.87348164640088
 20
487.89617843870832
 30
0.0
 11
409.87348164640088
 21
486.2961784387083
 31
0.0
  0
LINE
  5
8F8E
  8
0
 62
     0
 10
409.87348164640088
 20
487.89617843870832
 30
0.0
 11
411.63348164640092
 21
488.38617843870833
 31
0.0
  0
LINE
  5
8F8F
  8
0
 62
     0
 10
411.63348164640092
 20
488.38617843870833
 30
0.0
 11
411.63348164640092
 21
485.74617843870828
 31
0.0
  0
LINE
  5
8F90
  8
0
 62
     0
 10
411.63348164640092
 20
485.74617843870828
 30
0.0
 11
409.87348164640088
 21
486.2961784387083
 31
0.0
  0
LINE
  5
8F91
  8
0
 62
     0
 10
409.87348164640088
 20
542.89617843870849
 30
0.0
 11
409.87348164640088
 21
541.29617843870847
 31
0.0
  0
LINE
  5
8F92
  8
0
 62
     0
 10
409.87348164640088
 20
542.89617843870849
 30
0.0
 11
411.63348164640092
 21
543.38617843870816
 31
0.0
  0
LINE
  5
8F93
  8
0
 62
     0
 10
411.63348164640092
 20
543.38617843870816
 30
0.0
 11
411.63348164640092
 21
540.74617843870851
 31
0.0
  0
LINE
  5
8F94
  8
0
 62
     0
 10
411.63348164640092
 20
540.74617843870851
 30
0.0
 11
409.87348164640088
 21
541.29617843870847
 31
0.0
  0
LINE
  5
8F95
  8
0
 62
     0
 10
361.59035764640089
 20
540.74617843870851
 30
0.0
 11
361.59035764640089
 21
532.38617843870838
 31
0.0
  0
LINE
  5
8F96
  8
0
 62
     0
 10
377.63348064640093
 20
540.74617843870851
 30
0.0
 11
377.63348064640093
 21
532.38617843870838
 31
0.0
  0
LINE
  5
8F97
  8
0
 62
     0
 10
377.63348064640093
 20
529.74617843870851
 30
0.0
 11
377.63348064640093
 21
521.38617843870816
 31
0.0
  0
LINE
  5
8F98
  8
0
 62
     0
 10
361.59035764640089
 20
529.74617843870851
 30
0.0
 11
361.59035764640089
 21
521.38617843870816
 31
0.0
  0
LINE
  5
8F99
  8
0
 62
     0
 10
361.59035764640089
 20
518.7461784387084
 30
0.0
 11
361.59035764640089
 21
510.38617843870833
 31
0.0
  0
LINE
  5
8F9A
  8
0
 62
     0
 10
377.63348064640093
 20
518.7461784387084
 30
0.0
 11
377.63348064640093
 21
510.38617843870833
 31
0.0
  0
LINE
  5
8F9B
  8
0
 62
     0
 10
377.63348064640093
 20
507.74617843870823
 30
0.0
 11
377.63348064640093
 21
499.38617843870833
 31
0.0
  0
LINE
  5
8F9C
  8
0
 62
     0
 10
361.59035764640089
 20
507.74617843870823
 30
0.0
 11
361.59035764640089
 21
499.38617843870833
 31
0.0
  0
LINE
  5
8F9D
  8
0
 62
     0
 10
361.59035764640089
 20
496.74617843870823
 30
0.0
 11
361.59035764640089
 21
488.38617843870833
 31
0.0
  0
LINE
  5
8F9E
  8
0
 62
     0
 10
377.63348064640093
 20
496.74617843870823
 30
0.0
 11
377.63348064640093
 21
488.38617843870833
 31
0.0
  0
LINE
  5
8F9F
  8
0
 62
     0
 10
377.63348064640093
 20
485.74617843870828
 30
0.0
 11
377.63348064640093
 21
469.95773243870832
 31
0.0
  0
LINE
  5
8FA0
  8
0
 62
     0
 10
361.59035764640089
 20
485.74617843870828
 30
0.0
 11
361.59035764640089
 21
454.44110943870851
 31
0.0
  0
LINE
  5
8FA1
  8
0
 62
     0
 10
411.19635464640089
 20
450.10672343870829
 30
0.0
 11
377.63348064640093
 21
450.10672343870829
 31
0.0
  0
LINE
  5
8FA2
  8
0
 62
     0
 10
411.15518764640092
 20
442.69698143870818
 30
0.0
 11
410.49214164640091
 21
442.69698143870818
 31
0.0
  0
ARC
  5
8FA3
  8
0
 62
     0
 10
407.972609646401
 20
437.3252874387083
 30
0.0
 40
2.0
 50
270.0
 51
354.57098099999791
  0
ARC
  5
8FA4
  8
0
 62
     0
 10
408.03944764640079
 20
431.41281643870832
 30
0.0
 40
2.0
 50
270.0
 51
354.40134700000101
  0
ARC
  5
8FA5
  8
0
 62
     0
 10
408.01641964640089
 20
425.97646343870821
 30
0.0
 40
2.0
 50
270.0
 51
353.96488600000038
  0
ARC
  5
8FA6
  8
0
 62
     0
 10
407.99067164640093
 20
421.98775843870828
 30
0.0
 40
2.0
 50
270.0
 51
353.61470099999991
  0
ARC
  5
8FA7
  8
0
 62
     0
 10
408.02706764640078
 20
419.47051543870822
 30
0.0
 40
2.0
 50
270.0
 51
353.32779999999809
  0
ARC
  5
8FA8
  8
0
 62
     0
 10
408.04765664640092
 20
418.27968543870833
 30
0.0
 40
2.0
 50
270.0
 51
353.11676000000148
  0
LINE
  5
8FA9
  8
0
 62
     0
 10
411.1042466464009
 20
436.16036143870832
 30
0.0
 11
410.51442164640088
 21
436.16036143870832
 31
0.0
  0
LINE
  5
8FAA
  8
0
 62
     0
 10
411.03322164640088
 20
431.1923184387083
 30
0.0
 11
410.5790066464009
 21
431.1923184387083
 31
0.0
  0
LINE
  5
8FAB
  8
0
 62
     0
 10
411.04515064640071
 20
428.05689843870817
 30
0.0
 11
410.68234264640091
 21
428.05689843870817
 31
0.0
  0
LINE
  5
8FAC
  8
0
 62
     0
 10
411.1052736464008
 20
426.92057043870852
 30
0.0
 11
410.91222164640078
 21
426.92057043870852
 31
0.0
  0
LINE
  5
8FAD
  8
0
 62
     0
 10
413.63348164640092
 20
474.84347243870832
 30
0.0
 11
397.13348164640092
 21
474.84347243870832
 31
0.0
  0
LINE
  5
8FAE
  8
0
 62
     0
 10
416.63348164640092
 20
464.66418043870817
 30
0.0
 11
399.13348164640092
 21
464.66418043870817
 31
0.0
  0
LINE
  5
8FAF
  8
0
 62
     0
 10
416.63348164640092
 20
452.37689943870822
 30
0.0
 11
399.13348164640092
 21
452.37689943870822
 31
0.0
  0
LINE
  5
8FB0
  8
0
 62
     0
 10
397.13348164640092
 20
473.84347243870832
 30
0.0
 11
397.13348164640092
 21
454.37689943870822
 31
0.0
  0
LINE
  5
8FB1
  8
0
 62
     0
 10
413.63348164640092
 20
474.84347243870832
 30
0.0
 11
416.63348164640092
 21
476.57552343870822
 31
0.0
  0
ARC
  5
8FB2
  8
0
 62
     0
 10
399.13348164640092
 20
466.66418043870817
 30
0.0
 40
2.0
 50
180.0
 51
270.0
  0
ARC
  5
8FB3
  8
0
 62
     0
 10
399.13348164640092
 20
454.37689943870822
 30
0.0
 40
2.0
 50
180.0
 51
270.0
  0
ARC
  5
8FB4
  8
0
 62
     0
 10
399.13348164640092
 20
462.66418043870829
 30
0.0
 40
2.0
 50
90.0
 51
180.0
  0
LINE
  5
8FB5
  8
0
 62
     0
 10
377.63348064640093
 20
458.54538243870832
 30
0.0
 11
377.63348064640093
 21
450.10672343870829
 31
0.0
  0
LINE
  5
8FB6
  8
0
 62
     0
 10
361.59035764640089
 20
454.44110943870851
 30
0.0
 11
377.63348064640093
 21
450.10672343870829
 31
0.0
  0
ARC
  5
8FB7
  8
0
 62
     0
 10
396.13348164640092
 20
473.84347243870832
 30
0.0
 40
1.0
 50
0.0
 51
90.0
  0
LINE
  5
8FB8
  8
0
 62
     0
 10
361.59035764640089
 20
454.44110943870851
 30
0.0
 11
309.63348164640081
 21
454.44110943870851
 31
0.0
  0
LINE
  5
8FB9
  8
0
 62
     0
 10
408.04765664640092
 20
416.27968543870833
 30
0.0
 11
216.16221464640091
 21
416.27968543870833
 31
0.0
  0
LINE
  5
8FBA
  8
0
 62
     0
 10
408.02706764640078
 20
417.47051543870828
 30
0.0
 11
216.17315464640089
 21
417.47051543870828
 31
0.0
  0
LINE
  5
8FBB
  8
0
 62
     0
 10
407.99067164640093
 20
419.98775843870823
 30
0.0
 11
216.18241864640089
 21
419.98775843870823
 31
0.0
  0
LINE
  5
8FBC
  8
0
 62
     0
 10
408.01641964640089
 20
423.97646343870832
 30
0.0
 11
216.19436764640091
 21
423.97646343870832
 31
0.0
  0
LINE
  5
8FBD
  8
0
 62
     0
 10
408.03944764640079
 20
429.41281643870832
 30
0.0
 11
216.21213164640099
 21
429.41281643870832
 31
0.0
  0
LINE
  5
8FBE
  8
0
 62
     0
 10
407.972609646401
 20
435.3252874387083
 30
0.0
 11
216.21779964640089
 21
435.3252874387083
 31
0.0
  0
LINE
  5
8FBF
  8
0
 62
     0
 10
361.59035764640089
 20
588.40365343870826
 30
0.0
 11
361.59035764640089
 21
574.42617843870835
 31
0.0
  0
LINE
  5
8FC0
  8
0
 62
     0
 10
377.63348064640093
 20
593.00351543870852
 30
0.0
 11
377.63348064640093
 21
590.41896543870826
 31
0.0
  0
LINE
  5
8FC1
  8
0
 62
     0
 10
354.43109364640088
 20
543.38617843870816
 30
0.0
 11
411.63348164640092
 21
543.38617843870816
 31
0.0
  0
LINE
  5
8FC2
  8
0
 62
     0
 10
354.45461164640091
 20
542.89617843870849
 30
0.0
 11
409.87348164640088
 21
542.89617843870849
 31
0.0
  0
LINE
  5
8FC3
  8
0
 62
     0
 10
354.52757764640091
 20
541.29617843870847
 30
0.0
 11
409.87348164640088
 21
541.29617843870847
 31
0.0
  0
LINE
  5
8FC4
  8
0
 62
     0
 10
354.52757764640091
 20
540.74617843870851
 30
0.0
 11
411.63348164640092
 21
540.74617843870851
 31
0.0
  0
LINE
  5
8FC5
  8
0
 62
     0
 10
354.57209964640089
 20
488.38617843870833
 30
0.0
 11
411.63348164640092
 21
488.38617843870833
 31
0.0
  0
LINE
  5
8FC6
  8
0
 62
     0
 10
354.55069864640092
 20
487.89617843870832
 30
0.0
 11
409.87348164640088
 21
487.89617843870832
 31
0.0
  0
LINE
  5
8FC7
  8
0
 62
     0
 10
354.47802464640091
 20
486.2961784387083
 30
0.0
 11
409.87348164640088
 21
486.2961784387083
 31
0.0
  0
LINE
  5
8FC8
  8
0
 62
     0
 10
354.45205564640088
 20
485.74617843870828
 30
0.0
 11
411.63348164640092
 21
485.74617843870828
 31
0.0
  0
LINE
  5
8FC9
  8
0
 62
     0
 10
355.11737764640088
 20
518.7461784387084
 30
0.0
 11
411.63348164640092
 21
518.7461784387084
 31
0.0
  0
LINE
  5
8FCA
  8
0
 62
     0
 10
355.11309764640089
 20
519.29617843870835
 30
0.0
 11
409.87348164640088
 21
519.29617843870835
 31
0.0
  0
LINE
  5
8FCB
  8
0
 62
     0
 10
354.94709164640091
 20
499.38617843870833
 30
0.0
 11
411.63348164640092
 21
499.38617843870833
 31
0.0
  0
LINE
  5
8FCC
  8
0
 62
     0
 10
354.93468164640092
 20
498.89617843870832
 30
0.0
 11
409.87348164640088
 21
498.89617843870832
 31
0.0
  0
LINE
  5
8FCD
  8
0
 62
     0
 10
354.8913706464009
 20
497.2961784387083
 30
0.0
 11
409.87348164640088
 21
497.2961784387083
 31
0.0
  0
LINE
  5
8FCE
  8
0
 62
     0
 10
354.87549664640107
 20
496.74617843870823
 30
0.0
 11
411.63348164640092
 21
496.74617843870823
 31
0.0
  0
LINE
  5
8FCF
  8
0
 62
     0
 10
355.120414646401
 20
510.38617843870833
 30
0.0
 11
411.63348164640092
 21
510.38617843870833
 31
0.0
  0
LINE
  5
8FD0
  8
0
 62
     0
 10
355.11698264640091
 20
509.89617843870849
 30
0.0
 11
409.87348164640088
 21
509.89617843870849
 31
0.0
  0
LINE
  5
8FD1
  8
0
 62
     0
 10
355.10299064640088
 20
508.29617843870852
 30
0.0
 11
409.87348164640088
 21
508.29617843870852
 31
0.0
  0
LINE
  5
8FD2
  8
0
 62
     0
 10
355.09719664640107
 20
507.74617843870823
 30
0.0
 11
411.63348164640092
 21
507.74617843870823
 31
0.0
  0
LINE
  5
8FD3
  8
0
 62
     0
 10
354.87706864640109
 20
532.38617843870838
 30
0.0
 11
411.63348164640092
 21
532.38617843870838
 31
0.0
  0
LINE
  5
8FD4
  8
0
 62
     0
 10
354.87706864640109
 20
531.89617843870838
 30
0.0
 11
409.87348164640088
 21
531.89617843870838
 31
0.0
  0
LINE
  5
8FD5
  8
0
 62
     0
 10
354.921702646401
 20
530.29617843870835
 30
0.0
 11
409.87348164640088
 21
530.29617843870835
 31
0.0
  0
LINE
  5
8FD6
  8
0
 62
     0
 10
354.93606064640107
 20
529.74617843870851
 30
0.0
 11
411.63348164640092
 21
529.74617843870851
 31
0.0
  0
LINE
  5
8FD7
  8
0
 62
     0
 10
355.09224164640091
 20
521.38617843870816
 30
0.0
 11
411.63348164640092
 21
521.38617843870816
 31
0.0
  0
LINE
  5
8FD8
  8
0
 62
     0
 10
355.0977846464009
 20
520.89617843870815
 30
0.0
 11
409.87348164640088
 21
520.89617843870815
 31
0.0
  0
LINE
  5
8FD9
  8
0
 62
     0
 10
413.63348164640092
 20
426.56617843870822
 30
0.0
 11
413.63348164640092
 21
452.37689943870822
 31
0.0
  0
LINE
  5
8FDA
  8
0
 62
     0
 10
411.06249264640093
 20
426.56617843870822
 30
0.0
 11
413.63348164640092
 21
426.56617843870822
 31
0.0
  0
LINE
  5
8FDB
  8
0
 62
     0
 10
411.63348164640092
 20
574.42617843870835
 30
0.0
 11
409.87348164640088
 21
573.86617843870806
 31
0.0
  0
LINE
  5
8FDC
  8
0
 62
     0
 10
409.87348164640088
 20
572.26617843870815
 30
0.0
 11
411.63348164640092
 21
571.72617843870808
 31
0.0
  0
LINE
  5
8FDD
  8
0
 62
     0
 10
411.63348164640092
 20
571.72617843870808
 30
0.0
 11
411.63348164640092
 21
574.42617843870835
 31
0.0
  0
LINE
  5
8FDE
  8
0
 62
     0
 10
409.87348164640088
 20
572.26617843870815
 30
0.0
 11
409.87348164640088
 21
573.86617843870806
 31
0.0
  0
LINE
  5
8FDF
  8
0
 62
     0
 10
411.63348164640092
 20
566.38117843870839
 30
0.0
 11
409.87348164640088
 21
565.84117843870831
 31
0.0
  0
LINE
  5
8FE0
  8
0
 62
     0
 10
409.87348164640088
 20
564.24117843870829
 30
0.0
 11
411.63348164640092
 21
563.75117843870839
 31
0.0
  0
LINE
  5
8FE1
  8
0
 62
     0
 10
409.87348164640088
 20
564.24117843870829
 30
0.0
 11
409.87348164640088
 21
565.84117843870831
 31
0.0
  0
LINE
  5
8FE2
  8
0
 62
     0
 10
411.63348164640092
 20
563.75117843870839
 30
0.0
 11
411.63348164640092
 21
566.38117843870839
 31
0.0
  0
LINE
  5
8FE3
  8
0
 62
     0
 10
346.63348164640092
 20
574.69036543870811
 30
0.0
 11
345.01157264640108
 21
591.75610843870811
 31
0.0
  0
LINE
  5
8FE4
  8
0
 62
     0
 10
346.63348164640092
 20
581.2313014387081
 30
0.0
 11
345.01295864640088
 21
597.76266943870814
 31
0.0
  0
LINE
  5
8FE5
  8
0
 62
     0
 10
213.8981606464009
 20
588.40365343870826
 30
0.0
 11
212.6334816464009
 21
588.40365343870826
 31
0.0
  0
LINE
  5
8FE6
  8
0
 62
     0
 10
212.6334816464009
 20
574.42617843870835
 30
0.0
 11
214.39348164640089
 21
573.86617843870806
 31
0.0
  0
LINE
  5
8FE7
  8
0
 62
     0
 10
214.39348164640089
 20
572.26617843870815
 30
0.0
 11
212.6334816464009
 21
571.72617843870808
 31
0.0
  0
LINE
  5
8FE8
  8
0
 62
     0
 10
212.6334816464009
 20
566.38117843870839
 30
0.0
 11
214.39348164640089
 21
565.84117843870831
 31
0.0
  0
LINE
  5
8FE9
  8
0
 62
     0
 10
214.39348164640089
 20
564.24117843870829
 30
0.0
 11
212.6334816464009
 21
563.75117843870839
 31
0.0
  0
LINE
  5
8FEA
  8
0
 62
     0
 10
212.6334816464009
 20
571.72617843870808
 30
0.0
 11
212.6334816464009
 21
574.42617843870835
 31
0.0
  0
LINE
  5
8FEB
  8
0
 62
     0
 10
214.39348164640089
 20
572.26617843870815
 30
0.0
 11
214.39348164640089
 21
573.86617843870806
 31
0.0
  0
LINE
  5
8FEC
  8
0
 62
     0
 10
214.39348164640089
 20
564.24117843870829
 30
0.0
 11
214.39348164640089
 21
565.84117843870831
 31
0.0
  0
LINE
  5
8FED
  8
0
 62
     0
 10
212.6334816464009
 20
563.75117843870839
 30
0.0
 11
212.6334816464009
 21
566.38117843870839
 31
0.0
  0
LINE
  5
8FEE
  8
0
 62
     0
 10
212.6334816464009
 20
553.28561343870831
 30
0.0
 11
265.39696864640098
 21
553.28561343870831
 31
0.0
  0
LINE
  5
8FEF
  8
0
 62
     0
 10
221.0034816464009
 20
552.43384043870833
 30
0.0
 11
265.34223864640092
 21
552.43384043870833
 31
0.0
  0
LINE
  5
8FF0
  8
0
 62
     0
 10
212.6334816464009
 20
553.28561343870831
 30
0.0
 11
221.0034816464009
 21
552.43384043870833
 31
0.0
  0
LINE
  5
8FF1
  8
0
 62
     0
 10
219.30858764640081
 20
475.84674343870842
 30
0.0
 11
265.36877264640088
 21
475.84674343870842
 31
0.0
  0
LINE
  5
8FF2
  8
0
 62
     0
 10
221.0034816464009
 20
476.69851643870822
 30
0.0
 11
265.3146656464009
 21
476.69851643870822
 31
0.0
  0
LINE
  5
8FF3
  8
0
 62
     0
 10
212.6334816464009
 20
480.20738943870822
 30
0.0
 11
212.6334816464009
 21
553.28561343870831
 31
0.0
  0
LINE
  5
8FF4
  8
0
 62
     0
 10
212.6334816464009
 20
480.20738943870822
 30
0.0
 11
218.0966576464009
 21
476.40270343870822
 31
0.0
  0
LINE
  5
8FF5
  8
0
 62
     0
 10
218.0966576464009
 20
476.40270343870822
 30
0.0
 11
219.30858764640081
 21
475.84674343870842
 31
0.0
  0
LINE
  5
8FF6
  8
0
 62
     0
 10
218.0966576464009
 20
476.40270343870822
 30
0.0
 11
221.0034816464009
 21
476.69851643870822
 31
0.0
  0
LINE
  5
8FF7
  8
0
 62
     0
 10
221.0034816464009
 20
476.69851643870822
 30
0.0
 11
221.0034816464009
 21
552.43384043870833
 31
0.0
  0
LINE
  5
8FF8
  8
0
 62
     0
 10
209.1334816464009
 20
598.1864754387085
 30
0.0
 11
212.91024064640089
 21
598.1864754387085
 31
0.0
  0
LINE
  5
8FF9
  8
0
 62
     0
 10
298.63348164640092
 20
615.56617843870799
 30
0.0
 11
320.63348164640092
 21
615.56617843870799
 31
0.0
  0
LINE
  5
8FFA
  8
0
 62
     0
 10
298.63348164640092
 20
615.56617843870799
 30
0.0
 11
298.63348164640092
 21
611.66289743870811
 31
0.0
  0
LINE
  5
8FFB
  8
0
 62
     0
 10
320.63348164640092
 20
615.56617843870799
 30
0.0
 11
320.63348164640092
 21
611.66289743870811
 31
0.0
  0
LINE
  5
8FFC
  8
0
 62
     0
 10
214.39348164640089
 20
572.26617843870815
 30
0.0
 11
409.87348164640088
 21
572.26617843870815
 31
0.0
  0
LINE
  5
8FFD
  8
0
 62
     0
 10
214.39348164640089
 20
573.86617843870806
 30
0.0
 11
409.87348164640088
 21
573.86617843870806
 31
0.0
  0
LINE
  5
8FFE
  8
0
 62
     0
 10
212.6334816464009
 20
571.72617843870808
 30
0.0
 11
411.63348164640092
 21
571.72617843870808
 31
0.0
  0
LINE
  5
8FFF
  8
0
 62
     0
 10
212.6334816464009
 20
574.42617843870835
 30
0.0
 11
411.63348164640092
 21
574.42617843870835
 31
0.0
  0
LINE
  5
9000
  8
0
 62
     0
 10
212.6334816464009
 20
563.75117843870839
 30
0.0
 11
266.485148646401
 21
563.75117843870839
 31
0.0
  0
LINE
  5
9001
  8
0
 62
     0
 10
212.6334816464009
 20
566.38117843870839
 30
0.0
 11
268.49509764640089
 21
566.38117843870839
 31
0.0
  0
LINE
  5
9002
  8
0
 62
     0
 10
214.39348164640089
 20
564.24117843870829
 30
0.0
 11
266.71590564640098
 21
564.24117843870829
 31
0.0
  0
LINE
  5
9003
  8
0
 62
     0
 10
214.39348164640089
 20
565.84117843870831
 30
0.0
 11
267.88730764640093
 21
565.84117843870831
 31
0.0
  0
LINE
  5
9004
  8
0
 62
     0
 10
416.63348164640092
 20
429.5661784387085
 30
0.0
 11
413.63348164640092
 21
426.56617843870822
 31
0.0
  0
LINE
  5
9005
  8
0
 62
     0
 10
416.63348164640092
 20
429.5661784387085
 30
0.0
 11
416.63348164640092
 21
599.56617843870811
 31
0.0
  0
LINE
  5
9006
  8
0
 62
     0
 10
416.63348164640092
 20
599.56617843870811
 30
0.0
 11
413.63348164640092
 21
602.56617843870799
 31
0.0
  0
LINE
  5
947D
  8
0
 62
     0
 10
138.1334816464009
 20
413.36617843870852
 30
0.0
 11
209.1334816464009
 21
413.36617843870852
 31
0.0
  0
LINE
  5
99EB
  8
0
  6
AM_ISO08W050
 62
     0
 10
110.4155571780625
 20
865.83639908233511
 30
0.0
 11
649.1474516464009
 21
865.83639908233511
 31
0.0
  0
LINE
  5
99EC
  8
0
  6
CONTINUOUS
 62
     0
 10
434.56371164640092
 20
994.58017908233523
 30
0.0
 11
445.63348164640092
 21
994.9667690823353
 31
0.0
  0
LINE
  5
99ED
  8
0
  6
CONTINUOUS
 62
     0
 10
432.63341164640087
 20
729.62661908233508
 30
0.0
 11
432.63341164640087
 21
856.29696908233541
 31
0.0
  0
LINE
  5
99EE
  8
0
  6
CONTINUOUS
 62
     0
 10
558.51226164640093
 20
825.71505908233542
 30
0.0
 11
562.75494164640122
 21
829.95773908233525
 31
0.0
  0
LINE
  5
99EF
  8
0
  6
CONTINUOUS
 62
     0
 10
558.51226164640093
 20
911.95773908233514
 30
0.0
 11
562.75494164640122
 21
907.71505908233519
 31
0.0
  0
LINE
  5
99F0
  8
0
  6
CONTINUOUS
 62
     0
 10
567.63348164640092
 20
886.83639908233499
 30
0.0
 11
637.63348164640092
 21
886.83639908233499
 31
0.0
  0
LINE
  5
99F1
  8
0
  6
CONTINUOUS
 62
     0
 10
567.63348164640092
 20
844.83639908233522
 30
0.0
 11
637.63348164640092
 21
844.83639908233522
 31
0.0
  0
LINE
  5
99F2
  8
0
  6
CONTINUOUS
 62
     0
 10
563.63354164640123
 20
888.33639908233533
 30
0.0
 11
567.63348164640092
 21
888.33639908233533
 31
0.0
  0
LINE
  5
99F3
  8
0
  6
CONTINUOUS
 62
     0
 10
563.63354164640123
 20
843.33639908233522
 30
0.0
 11
567.63348164640092
 21
843.33639908233522
 31
0.0
  0
LINE
  5
99F4
  8
0
  6
CONTINUOUS
 62
     0
 10
567.63348164640092
 20
843.33639908233522
 30
0.0
 11
567.63348164640092
 21
888.33639908233533
 31
0.0
  0
LINE
  5
99F5
  8
0
  6
CONTINUOUS
 62
     0
 10
637.63348164640092
 20
844.83639908233522
 30
0.0
 11
637.63348164640092
 21
886.83639908233499
 31
0.0
  0
LINE
  5
99F6
  8
0
  6
CONTINUOUS
 62
     0
 10
581.63348164640092
 20
871.83639908233545
 30
0.0
 11
581.63348164640092
 21
859.83639908233533
 31
0.0
  0
LINE
  5
99F7
  8
0
  6
CONTINUOUS
 62
     0
 10
371.63348164640092
 20
997.90030908233541
 30
0.0
 11
371.63348164640092
 21
964.33639908233533
 31
0.0
  0
LINE
  5
99F8
  8
0
  6
CONTINUOUS
 62
     0
 10
563.63348164640092
 20
998.02762908233524
 30
0.0
 11
563.63348164640092
 21
958.64517908233574
 31
0.0
  0
LINE
  5
99F9
  8
0
  6
CONTINUOUS
 62
     0
 10
450.63354164640123
 20
1005.836399082335
 30
0.0
 11
559.7731216464008
 21
1002.0251790823349
 31
0.0
  0
LINE
  5
99FA
  8
0
  6
CONTINUOUS
 62
     0
 10
375.42406164640119
 20
1001.894809082335
 30
0.0
 11
450.63341164640082
 21
1005.836399082335
 31
0.0
  0
LINE
  5
99FB
  8
0
  6
CENTER
 62
     0
 10
375.63348164640092
 20
980.83639908233522
 30
0.0
 11
409.13348164640092
 21
980.83639908233522
 31
0.0
  0
LINE
  5
99FC
  8
0
  6
CENTER
 62
     0
 10
392.63348164640092
 20
997.33639908233533
 30
0.0
 11
392.63348164640092
 21
964.33639908233533
 31
0.0
  0
LINE
  5
99FD
  8
0
  6
CENTER
 62
     0
 10
542.63348164640092
 20
997.33639908233533
 30
0.0
 11
542.63348164640092
 21
964.33639908233533
 31
0.0
  0
LINE
  5
99FE
  8
0
  6
CONTINUOUS
 62
     0
 10
557.63348164640092
 20
951.71701908233513
 30
0.0
 11
557.63348164640092
 21
779.95584908233525
 31
0.0
  0
LINE
  5
99FF
  8
0
  6
CONTINUOUS
 62
     0
 10
410.81274164640121
 20
954.32028908233497
 30
0.0
 11
429.82281164640091
 21
952.65707908233526
 31
0.0
  0
LINE
  5
9A00
  8
0
  6
CONTINUOUS
 62
     0
 10
398.11462164640119
 20
776.2415490823355
 30
0.0
 11
429.82293164640072
 21
779.01571908233541
 31
0.0
  0
LINE
  5
9A01
  8
0
  6
CONTINUOUS
 62
     0
 10
375.42412164640109
 20
729.77798908233524
 30
0.0
 11
450.63348164640092
 21
725.83639908233533
 31
0.0
  0
LINE
  5
9A02
  8
0
  6
CONTINUOUS
 62
     0
 10
450.63341164640082
 20
725.83639908233533
 30
0.0
 11
559.77300164640087
 21
729.647679082335
 31
0.0
  0
LINE
  5
9A03
  8
0
  6
CONTINUOUS
 62
     0
 10
563.63348164640092
 20
733.64517908233552
 30
0.0
 11
563.63348164640092
 21
773.02762908233524
 31
0.0
  0
LINE
  5
9A04
  8
0
  6
CONTINUOUS
 62
     0
 10
371.63348164640092
 20
733.77249908233523
 30
0.0
 11
371.63348164640092
 21
768.83639908233522
 31
0.0
  0
LINE
  5
9A05
  8
0
  6
CONTINUOUS
 62
     0
 10
445.63348164640092
 20
726.09842908233486
 30
0.0
 11
445.63348164640092
 21
861.83639908233522
 31
0.0
  0
LINE
  5
9A06
  8
0
  6
CONTINUOUS
 62
     0
 10
563.63348164640092
 20
905.59378908233521
 30
0.0
 11
563.63348164640092
 21
832.07901908233555
 31
0.0
  0
LINE
  5
9A07
  8
0
  6
CONTINUOUS
 62
     0
 10
489.72387164640122
 20
989.01053908233541
 30
0.0
 11
507.91271164640079
 21
988.37533908233524
 31
0.0
  0
LINE
  5
9A08
  8
0
  6
CONTINUOUS
 62
     0
 10
515.63348164640092
 20
974.83639908233476
 30
0.0
 11
515.63348164640092
 21
980.38022908233552
 31
0.0
  0
LINE
  5
9A09
  8
0
  6
CONTINUOUS
 62
     0
 10
542.95855164640068
 20
952.37808908233535
 30
0.0
 11
552.80804164640108
 21
952.03415908233535
 31
0.0
  0
LINE
  5
9A0A
  8
0
  6
CONTINUOUS
 62
     0
 10
473.44994164640121
 20
1001.999789082335
 30
0.0
 11
482.817011646401
 21
992.12307908233538
 31
0.0
  0
LINE
  5
9A0B
  8
0
  6
CONTINUOUS
 62
     0
 10
432.63341164640087
 20
995.58334908233496
 30
0.0
 11
425.25494164640111
 21
996.50760908233531
 31
0.0
  0
LINE
  5
9A0C
  8
0
  6
CONTINUOUS
 62
     0
 10
515.63348164640092
 20
998.38888908233469
 30
0.0
 11
515.63348164640092
 21
980.38022908233552
 31
0.0
  0
LINE
  5
9A0D
  8
0
  6
CONTINUOUS
 62
     0
 10
419.63348164640092
 20
1003.231599082335
 30
0.0
 11
419.63348164640092
 21
995.38284908233516
 31
0.0
  0
LINE
  5
9A0E
  8
0
  6
CONTINUOUS
 62
     0
 10
525.63348164640092
 20
964.83639908233522
 30
0.0
 11
527.63348164640092
 21
964.83639908233522
 31
0.0
  0
LINE
  5
9A0F
  8
0
  6
CENTER
 62
     0
 10
526.13348164640092
 20
980.83639908233522
 30
0.0
 11
559.63348164640081
 21
980.83639908233522
 31
0.0
  0
LINE
  5
9A10
  8
0
  6
CENTER
 62
     0
 10
375.63348164640092
 20
750.83639908233533
 30
0.0
 11
409.13348164640092
 21
750.83639908233533
 31
0.0
  0
LINE
  5
9A11
  8
0
  6
CENTER
 62
     0
 10
392.63348164640092
 20
734.33639908233533
 30
0.0
 11
392.63348164640092
 21
767.33639908233522
 31
0.0
  0
LINE
  5
9A12
  8
0
  6
CENTER
 62
     0
 10
542.63348164640092
 20
734.33639908233533
 30
0.0
 11
542.63348164640092
 21
767.33639908233522
 31
0.0
  0
LINE
  5
9A13
  8
0
  6
CENTER
 62
     0
 10
526.13348164640092
 20
750.83639908233533
 30
0.0
 11
559.63348164640081
 21
750.83639908233533
 31
0.0
  0
LINE
  5
9A14
  8
0
  6
CONTINUOUS
 62
     0
 10
489.7238116464008
 20
742.66226908233523
 30
0.0
 11
507.91265164640078
 21
743.29745908233485
 31
0.0
  0
LINE
  5
9A15
  8
0
  6
CONTINUOUS
 62
     0
 10
515.63348164640092
 20
756.83639908233511
 30
0.0
 11
515.63348164640092
 21
751.2925790823349
 31
0.0
  0
LINE
  5
9A16
  8
0
  6
CONTINUOUS
 62
     0
 10
542.9584916464014
 20
779.2947090823352
 30
0.0
 11
552.80791164640095
 21
779.63864908233541
 31
0.0
  0
LINE
  5
9A17
  8
0
  6
CONTINUOUS
 62
     0
 10
473.44988164640091
 20
729.67300908233551
 30
0.0
 11
482.8170716464009
 21
739.54977908233536
 31
0.0
  0
LINE
  5
9A18
  8
0
  6
CONTINUOUS
 62
     0
 10
515.63348164640092
 20
733.28390908233541
 30
0.0
 11
515.63348164640092
 21
751.2925790823349
 31
0.0
  0
LINE
  5
9A19
  8
0
  6
CONTINUOUS
 62
     0
 10
525.63348164640092
 20
766.83639908233522
 30
0.0
 11
527.63348164640092
 21
766.83639908233522
 31
0.0
  0
LINE
  5
9A1A
  8
0
  6
CONTINUOUS
 62
     0
 10
535.63348164640092
 20
774.83639908233522
 30
0.0
 11
535.63348164640092
 21
956.83639908233511
 31
0.0
  0
LINE
  5
9A1B
  8
0
  6
CONTINUOUS
 62
     0
 10
460.63348164640092
 20
739.16122908233535
 30
0.0
 11
460.63348164640092
 21
786.27060908233489
 31
0.0
  0
LINE
  5
9A1C
  8
0
  6
CONTINUOUS
 62
     0
 10
462.56371164640109
 20
743.27694908233525
 30
0.0
 11
487.16668164640117
 21
744.13614908233535
 31
0.0
  0
LINE
  5
9A1D
  8
0
  6
CONTINUOUS
 62
     0
 10
445.63341164640087
 20
736.70602908233525
 30
0.0
 11
458.70330164640109
 21
737.16244908233523
 31
0.0
  0
LINE
  5
9A1E
  8
0
  6
CONTINUOUS
 62
     0
 10
460.63348164640092
 20
816.27188908233506
 30
0.0
 11
460.63348164640092
 21
915.40091908233524
 31
0.0
  0
LINE
  5
9A1F
  8
0
  6
CONTINUOUS
 62
     0
 10
465.13348164640092
 20
788.27060908233523
 30
0.0
 11
465.13348164640092
 21
814.27188908233506
 31
0.0
  0
LINE
  5
9A20
  8
0
  6
CONTINUOUS
 62
     0
 10
432.63341164640087
 20
788.27060908233523
 30
0.0
 11
458.63348164640092
 21
788.27060908233523
 31
0.0
  0
LINE
  5
9A21
  8
0
  6
CONTINUOUS
 62
     0
 10
432.63341164640087
 20
814.27188908233506
 30
0.0
 11
458.63348164640092
 21
814.27188908233506
 31
0.0
  0
LINE
  5
9A22
  8
0
  6
CONTINUOUS
 62
     0
 10
465.13348164640092
 20
943.40219908233507
 30
0.0
 11
465.13348164640092
 21
917.40091908233535
 31
0.0
  0
LINE
  5
9A23
  8
0
  6
CONTINUOUS
 62
     0
 10
462.56371164640109
 20
988.39584908233508
 30
0.0
 11
487.16674164640108
 21
987.5366590823354
 31
0.0
  0
LINE
  5
9A24
  8
0
  6
CONTINUOUS
 62
     0
 10
445.63348164640092
 20
994.9667690823353
 30
0.0
 11
458.70336164640088
 21
994.51034908233532
 31
0.0
  0
LINE
  5
9A25
  8
0
  6
CONTINUOUS
 62
     0
 10
432.63341164640087
 20
917.40091908233535
 30
0.0
 11
458.63348164640092
 21
917.40091908233535
 31
0.0
  0
LINE
  5
9A26
  8
0
  6
CONTINUOUS
 62
     0
 10
460.63348164640092
 20
992.5115690823352
 30
0.0
 11
460.63348164640092
 21
945.40219908233507
 31
0.0
  0
LINE
  5
9A27
  8
0
  6
CONTINUOUS
 62
     0
 10
432.63341164640087
 20
943.40219908233507
 30
0.0
 11
458.63348164640092
 21
943.40219908233507
 31
0.0
  0
LINE
  5
9A28
  8
0
  6
CONTINUOUS
 62
     0
 10
581.63348164640092
 20
859.83639908233533
 30
0.0
 11
637.63348164640092
 21
859.83639908233533
 31
0.0
  0
LINE
  5
9A29
  8
0
  6
CONTINUOUS
 62
     0
 10
581.63348164640092
 20
871.83639908233545
 30
0.0
 11
637.63348164640092
 21
871.83639908233545
 31
0.0
  0
LINE
  5
9A2A
  8
0
  6
CONTINUOUS
 62
     0
 10
434.56371164640092
 20
737.09262908233541
 30
0.0
 11
445.63354164640123
 21
736.70602908233525
 31
0.0
  0
LINE
  5
9A2B
  8
0
  6
CONTINUOUS
 62
     0
 10
432.63348164640092
 20
736.08944908233525
 30
0.0
 11
425.25494164640111
 21
735.16519908233522
 31
0.0
  0
LINE
  5
9A2C
  8
0
  6
CONTINUOUS
 62
     0
 10
419.63348164640092
 20
728.44119908233552
 30
0.0
 11
419.63348164640092
 21
736.2899490823354
 31
0.0
  0
LINE
  5
9A2D
  8
0
  6
CENTER
 62
     0
 10
429.63354164640123
 20
849.12802908233539
 30
0.0
 11
429.63354164640123
 21
880.44131908233521
 31
0.0
  0
LINE
  5
9A2E
  8
0
  6
CONTINUOUS
 62
     0
 10
413.13354164640123
 20
861.83639908233522
 30
0.0
 11
446.13354164640123
 21
861.83639908233522
 31
0.0
  0
LINE
  5
9A2F
  8
0
  6
CONTINUOUS
 62
     0
 10
413.13354164640123
 20
869.83633908233514
 30
0.0
 11
446.13354164640123
 21
869.83633908233514
 31
0.0
  0
LINE
  5
9A30
  8
0
  6
CONTINUOUS
 62
     0
 10
445.63348164640092
 20
869.83633908233514
 30
0.0
 11
445.63348164640092
 21
1005.574379082335
 31
0.0
  0
LINE
  5
9A31
  8
0
  6
CONTINUOUS
 62
     0
 10
432.63341164640087
 20
875.37582908233537
 30
0.0
 11
432.63341164640087
 21
1002.046179082335
 31
0.0
  0
LINE
  5
9A32
  8
0
  6
CONTINUOUS
 62
     0
 10
465.13348164640092
 20
729.59927908233522
 30
0.0
 11
465.13348164640092
 21
741.63162908233505
 31
0.0
  0
LINE
  5
9A33
  8
0
  6
CONTINUOUS
 62
     0
 10
465.13348164640092
 20
990.11624908233523
 30
0.0
 11
465.13348164640092
 21
1002.069739082335
 31
0.0
  0
LINE
  5
9A34
  8
0
  6
CONTINUOUS
 62
     0
 10
416.63348164640092
 20
781.83639908233511
 30
0.0
 11
416.63348164640092
 21
861.83639908233522
 31
0.0
  0
LINE
  5
9A35
  8
0
  6
CONTINUOUS
 62
     0
 10
428.77300164640121
 20
781.41250908233519
 30
0.0
 11
416.63354164640123
 21
781.83645908233507
 31
0.0
  0
LINE
  5
9A36
  8
0
  6
CONTINUOUS
 62
     0
 10
428.77300164640121
 20
950.26034908233544
 30
0.0
 11
416.63348164640092
 21
949.83639908233476
 31
0.0
  0
LINE
  5
9A37
  8
0
  6
CONTINUOUS
 62
     0
 10
428.77306164640089
 20
952.62039908233521
 30
0.0
 11
418.63354164640123
 21
952.26632908233523
 31
0.0
  0
LINE
  5
9A38
  8
0
  6
CONTINUOUS
 62
     0
 10
418.63354164640123
 20
949.90622908233524
 30
0.0
 11
418.63354164640123
 21
952.26638908233519
 31
0.0
  0
LINE
  5
9A39
  8
0
  6
CONTINUOUS
 62
     0
 10
418.63354164640123
 20
781.76651908233555
 30
0.0
 11
418.63354164640123
 21
779.40640908233524
 31
0.0
  0
LINE
  5
9A3A
  8
0
  6
CONTINUOUS
 62
     0
 10
428.77306164640089
 20
779.05240908233509
 30
0.0
 11
418.6336016464009
 21
779.40646908233509
 31
0.0
  0
LINE
  5
9A3B
  8
0
  6
CONTINUOUS
 62
     0
 10
416.63348164640092
 20
869.83633908233514
 30
0.0
 11
416.63348164640092
 21
949.83639908233476
 31
0.0
  0
ARC
  5
9A3C
  8
0
  6
CONTINUOUS
 62
     0
 10
434.63348164640081
 20
992.58139908233522
 30
0.0
 40
2.0
 50
91.999997999994051
 51
180.00001000000091
  0
ARC
  5
9A3D
  8
0
  6
CONTINUOUS
 62
     0
 10
560.63348164640092
 20
914.07901908233521
 30
0.0
 40
3.0
 50
179.999989999999
 51
224.99999999999079
  0
ARC
  5
9A3E
  8
0
  6
CONTINUOUS
 62
     0
 10
560.63348164640092
 20
832.07901908233555
 30
0.0
 40
3.0
 50
315.00000000000921
 51
0.0
  0
ARC
  5
9A3F
  8
0
  6
CONTINUOUS
 62
     0
 10
560.63348164640092
 20
905.59378908233521
 30
0.0
 40
3.0
 50
0.0
 51
45.000000999994569
  0
ARC
  5
9A40
  8
0
  6
CONTINUOUS
 62
     0
 10
560.63348164640092
 20
823.59378908233521
 30
0.0
 40
3.0
 50
135.00000000000921
 51
180.00001000000091
  0
ARC
  5
9A41
  8
0
  6
CONTINUOUS
 62
     0
 10
375.63348164640092
 20
997.90030908233541
 30
0.0
 40
4.0
 50
92.999998999995185
 51
180.00001000000091
  0
ARC
  5
9A42
  8
0
  6
CONTINUOUS
 62
     0
 10
559.63348164640081
 20
958.64517908233574
 30
0.0
 40
4.0
 50
278.21321999998997
 51
0.0
  0
CIRCLE
  5
9A43
  8
0
  6
CONTINUOUS
 62
     0
 10
542.63348164640092
 20
980.83639908233522
 30
0.0
 40
9.5
  0
CIRCLE
  5
9A44
  8
0
  6
CONTINUOUS
 62
     0
 10
392.63348164640092
 20
980.83639908233522
 30
0.0
 40
9.5
  0
ARC
  5
9A45
  8
0
  6
CONTINUOUS
 62
     0
 10
559.63348164640081
 20
733.64517908233552
 30
0.0
 40
4.0
 50
272.00000000000369
 51
0.0
  0
CIRCLE
  5
9A46
  8
0
  6
CONTINUOUS
 62
     0
 10
392.63348164640092
 20
750.83639908233533
 30
0.0
 40
9.5
  0
CIRCLE
  5
9A47
  8
0
  6
CONTINUOUS
 62
     0
 10
542.63348164640092
 20
750.83639908233533
 30
0.0
 40
9.5
  0
ARC
  5
9A48
  8
0
  6
CONTINUOUS
 62
     0
 10
559.63348164640081
 20
773.02762908233524
 30
0.0
 40
4.0
 50
0.0
 51
81.786789000013059
  0
ARC
  5
9A49
  8
0
  6
CONTINUOUS
 62
     0
 10
375.63348164640092
 20
733.77249908233523
 30
0.0
 40
4.0
 50
180.00001000000091
 51
266.99998999999372
  0
ARC
  5
9A4A
  8
0
  6
CONTINUOUS
 62
     0
 10
559.63348164640081
 20
998.02762908233524
 30
0.0
 40
4.0
 50
0.0
 51
87.999999999996248
  0
ARC
  5
9A4B
  8
0
  6
CONTINUOUS
 62
     0
 10
560.63348164640092
 20
823.59378908233521
 30
0.0
 40
3.0
 50
135.00000000000921
 51
180.00001000000091
  0
ARC
  5
9A4C
  8
0
  6
CONTINUOUS
 62
     0
 10
560.63348164640092
 20
905.59378908233521
 30
0.0
 40
3.0
 50
0.0
 51
44.999998000015431
  0
ARC
  5
9A4D
  8
0
  6
CONTINUOUS
 62
     0
 10
560.63348164640092
 20
832.07901908233555
 30
0.0
 40
3.0
 50
315.00000000000921
 51
0.0
  0
ARC
  5
9A4E
  8
0
  6
CONTINUOUS
 62
     0
 10
560.63348164640092
 20
914.07901908233521
 30
0.0
 40
3.0
 50
180.00001000000091
 51
224.99999999999079
  0
ARC
  5
9A4F
  8
0
  6
CONTINUOUS
 62
     0
 10
490.07281164640091
 20
999.00442908233572
 30
0.0
 40
10.0
 50
223.48296000001051
 51
267.99999999999608
  0
ARC
  5
9A50
  8
0
  6
CONTINUOUS
 62
     0
 10
507.63348164640092
 20
980.38022908233552
 30
0.0
 40
8.0
 50
0.0
 51
87.999999999996248
  0
ARC
  5
9A51
  8
0
  6
CONTINUOUS
 62
     0
 10
466.19414164640091
 20
995.1183790823352
 30
0.0
 40
10.0
 50
43.482964999999631
 51
87.999999999996248
  0
ARC
  5
9A52
  8
0
  6
CONTINUOUS
 62
     0
 10
424.63348164640092
 20
991.54635908233513
 30
0.0
 40
5.0
 50
82.860167000000104
 51
180.00001000000091
  0
ARC
  5
9A53
  8
0
  6
CONTINUOUS
 62
     0
 10
520.63348164640092
 20
998.38888908233469
 30
0.0
 40
5.0
 50
87.999999999996248
 51
180.00001000000091
  0
ARC
  5
9A54
  8
0
  6
CONTINUOUS
 62
     0
 10
525.63348164640092
 20
974.83639908233476
 30
0.0
 40
10.0
 50
180.00001000000091
 51
270.0
  0
ARC
  5
9A55
  8
0
  6
CONTINUOUS
 62
     0
 10
552.63348164640092
 20
947.03714908233508
 30
0.0
 40
5.0
 50
0.0
 51
87.999999999996248
  0
ARC
  5
9A56
  8
0
  6
CONTINUOUS
 62
     0
 10
560.63348164640092
 20
951.71701908233513
 30
0.0
 40
3.0
 50
98.213209000015027
 51
180.00001000000091
  0
ARC
  5
9A57
  8
0
  6
CONTINUOUS
 62
     0
 10
490.07281164640091
 20
732.6683690823354
 30
0.0
 40
10.0
 50
91.999997999994051
 51
136.51703999998929
  0
ARC
  5
9A58
  8
0
  6
CONTINUOUS
 62
     0
 10
507.63348164640092
 20
751.2925790823349
 30
0.0
 40
8.0
 50
272.00000000000369
 51
0.0
  0
ARC
  5
9A59
  8
0
  6
CONTINUOUS
 62
     0
 10
466.19414164640091
 20
736.5543590823354
 30
0.0
 40
10.0
 50
272.00000000000369
 51
316.51703999998938
  0
ARC
  5
9A5A
  8
0
  6
CONTINUOUS
 62
     0
 10
520.63348164640092
 20
733.28390908233541
 30
0.0
 40
5.0
 50
180.00001000000091
 51
271.99999000000798
  0
ARC
  5
9A5B
  8
0
  6
CONTINUOUS
 62
     0
 10
525.63348164640092
 20
756.83639908233511
 30
0.0
 40
10.0
 50
90.000002999984659
 51
180.00001000000091
  0
ARC
  5
9A5C
  8
0
  6
CONTINUOUS
 62
     0
 10
552.63348164640092
 20
784.63565908233522
 30
0.0
 40
5.0
 50
272.00000000000369
 51
0.0
  0
ARC
  5
9A5D
  8
0
  6
CONTINUOUS
 62
     0
 10
560.63348164640092
 20
779.95584908233525
 30
0.0
 40
3.0
 50
180.00001000000091
 51
261.78678000000991
  0
ARC
  5
9A5E
  8
0
  6
CONTINUOUS
 62
     0
 10
527.63348164640092
 20
774.83639908233522
 30
0.0
 40
8.0
 50
270.0
 51
0.0
  0
ARC
  5
9A5F
  8
0
  6
CONTINUOUS
 62
     0
 10
543.23766164640108
 20
771.29959908233525
 30
0.0
 40
8.0
 50
91.999997999994051
 51
167.22924999999239
  0
ARC
  5
9A60
  8
0
  6
CONTINUOUS
 62
     0
 10
527.63348164640092
 20
956.83639908233511
 30
0.0
 40
8.0
 50
0.0
 51
90.000002999984659
  0
ARC
  5
9A61
  8
0
  6
CONTINUOUS
 62
     0
 10
543.23766164640108
 20
960.37320908233505
 30
0.0
 40
8.0
 50
192.7707500000075
 51
267.99999999999608
  0
ARC
  5
9A62
  8
0
  6
CONTINUOUS
 62
     0
 10
458.63348164640092
 20
739.16122908233535
 30
0.0
 40
2.0
 50
272.00000000000369
 51
0.0
  0
ARC
  5
9A63
  8
0
  6
CONTINUOUS
 62
     0
 10
462.63348164640092
 20
741.27816908233524
 30
0.0
 40
2.0
 50
91.999997999994051
 51
180.00001000000091
  0
ARC
  5
9A64
  8
0
  6
CONTINUOUS
 62
     0
 10
458.63348164640092
 20
786.27060908233489
 30
0.0
 40
2.0
 50
0.0
 51
90.000002999984659
  0
ARC
  5
9A65
  8
0
  6
CONTINUOUS
 62
     0
 10
458.63348164640092
 20
816.27188908233506
 30
0.0
 40
2.0
 50
270.0
 51
0.0
  0
ARC
  5
9A66
  8
0
  6
CONTINUOUS
 62
     0
 10
464.66155164640122
 20
787.89016908233555
 30
0.0
 40
2.0
 50
270.0
 51
296.80020000000292
  0
ARC
  5
9A67
  8
0
  6
CONTINUOUS
 62
     0
 10
464.18310164640047
 20
820.15579908233553
 30
0.0
 40
3.0
 50
54.34832400001379
 51
90.000002999984659
  0
ARC
  5
9A68
  8
0
  6
CONTINUOUS
 62
     0
 10
464.66155164640122
 20
943.78262908233523
 30
0.0
 40
2.0
 50
63.199808999993571
 51
90.000002999984659
  0
ARC
  5
9A69
  8
0
  6
CONTINUOUS
 62
     0
 10
458.63348164640092
 20
992.5115690823352
 30
0.0
 40
2.0
 50
0.0
 51
87.999999999996248
  0
ARC
  5
9A6A
  8
0
  6
CONTINUOUS
 62
     0
 10
462.63348164640092
 20
990.39462908233543
 30
0.0
 40
2.0
 50
180.00001000000091
 51
267.99999999999608
  0
ARC
  5
9A6B
  8
0
  6
CONTINUOUS
 62
     0
 10
464.18310164640047
 20
911.51700908233533
 30
0.0
 40
3.0
 50
270.0
 51
305.65167000001168
  0
ARC
  5
9A6C
  8
0
  6
CONTINUOUS
 62
     0
 10
458.63348164640092
 20
945.40219908233507
 30
0.0
 40
2.0
 50
270.0
 51
0.0
  0
ARC
  5
9A6D
  8
0
  6
CONTINUOUS
 62
     0
 10
458.63348164640092
 20
915.40091908233524
 30
0.0
 40
2.0
 50
0.0
 51
90.000002999984659
  0
ARC
  5
9A6E
  8
0
  6
CONTINUOUS
 62
     0
 10
581.63348164640092
 20
865.83639908233511
 30
0.0
 40
6.0000037999999991
 50
90.000002999984659
 51
270.0
  0
ARC
  5
9A6F
  8
0
  6
CONTINUOUS
 62
     0
 10
435.63341164640082
 20
1002.046179082335
 30
0.0
 40
3.0
 50
92.999998999995185
 51
180.00001000000091
  0
ARC
  5
9A70
  8
0
  6
CONTINUOUS
 62
     0
 10
434.63348164640081
 20
739.09146908233504
 30
0.0
 40
2.0
 50
179.999989999999
 51
268.00000999999207
  0
ARC
  5
9A71
  8
0
  6
CONTINUOUS
 62
     0
 10
435.63341164640082
 20
729.62661908233508
 30
0.0
 40
3.0
 50
180.00001000000091
 51
266.99998999999372
  0
ARC
  5
9A72
  8
0
  6
CONTINUOUS
 62
     0
 10
424.63348164640092
 20
740.12643908233485
 30
0.0
 40
5.0
 50
180.00001000000091
 51
277.13982999999359
  0
ARC
  5
9A73
  8
0
  6
CONTINUOUS
 62
     0
 10
429.63354164640123
 20
865.83639908233511
 30
0.0
 40
10.0
 50
23.578037000006329
 51
156.42195999999231
  0
ARC
  5
9A74
  8
0
  6
CONTINUOUS
 62
     0
 10
413.13354164640123
 20
865.83639908233511
 30
0.0
 40
3.9999962
 50
90.000002999984659
 51
270.0
  0
ARC
  5
9A75
  8
0
  6
CONTINUOUS
 62
     0
 10
446.13354164640123
 20
865.83639908233511
 30
0.0
 40
3.9999962
 50
270.0
 51
90.000002999984659
  0
ARC
  5
9A76
  8
0
  6
CONTINUOUS
 62
     0
 10
429.63354164640123
 20
865.83639908233511
 30
0.0
 40
10.0
 50
203.57826999999261
 51
336.42171999999522
  0
ARC
  5
9A77
  8
0
  6
CONTINUOUS
 62
     0
 10
429.63354164640123
 20
865.83639908233511
 30
0.0
 40
11.0
 50
97.181195000010575
 51
158.67647999999841
  0
ARC
  5
9A78
  8
0
  6
CONTINUOUS
 62
     0
 10
427.63341164640082
 20
849.96188908233501
 30
0.0
 40
5.0
 50
0.0
 51
82.818802999995938
  0
ARC
  5
9A79
  8
0
  6
CONTINUOUS
 62
     0
 10
427.63341164640082
 20
881.71090908233498
 30
0.0
 40
5.0
 50
277.181199999993
 51
0.0
  0
ARC
  5
9A7A
  8
0
  6
CONTINUOUS
 62
     0
 10
429.63354164640123
 20
865.83639908233511
 30
0.0
 40
11.0
 50
201.3237799999917
 51
262.81880000000689
  0
ARC
  5
9A7B
  8
0
  6
CONTINUOUS
 62
     0
 10
428.63341164640087
 20
775.05484908233507
 30
0.0
 40
4.0
 50
0.0
 51
87.999999999996248
  0
ARC
  5
9A7C
  8
0
  6
CONTINUOUS
 62
     0
 10
428.63341164640087
 20
777.41494908233562
 30
0.0
 40
4.0
 50
0.0
 51
87.999999999996248
  0
ARC
  5
9A7D
  8
0
  6
CONTINUOUS
 62
     0
 10
428.63341164640087
 20
956.61801908233519
 30
0.0
 40
4.0
 50
272.00000000000369
 51
0.0
  0
ARC
  5
9A7E
  8
0
  6
CONTINUOUS
 62
     0
 10
428.63341164640087
 20
954.25790908233523
 30
0.0
 40
4.0
 50
272.00000000000369
 51
0.0
  0
POLYLINE
  5
9A7F
  8
0
  6
CONTINUOUS
 62
     0
 66
     1
 10
0.0
 20
0.0
 30
0.0
  0
VERTEX
  5
9A80
  8
0
  6
CONTINUOUS
 62
     0
 10
465.5631716464012
 20
786.1049090823351
 30
0.0
 42
0.110757
  0
VERTEX
  5
9A81
  8
0
  6
CONTINUOUS
 62
     0
 10
478.4441216464009
 20
796.0126490823352
 30
0.0
 42
0.2037583
  0
VERTEX
  5
9A82
  8
0
  6
CONTINUOUS
 62
     0
 10
480.70184164640062
 20
803.67811908233534
 30
0.0
  0
VERTEX
  5
9A83
  8
0
  6
CONTINUOUS
 62
     0
 10
465.93204164640088
 20
822.59323908233534
 30
0.0
 42
-1.0
  0
SEQEND
  5
9A84
  8
0
 62
     0
  0
POLYLINE
  5
9A85
  8
0
  6
CONTINUOUS
 62
     0
 66
     1
 10
0.0
 20
0.0
 30
0.0
  0
VERTEX
  5
9A86
  8
0
  6
CONTINUOUS
 62
     0
 10
465.5631716464012
 20
945.56788908233511
 30
0.0
 42
-0.110757
  0
VERTEX
  5
9A87
  8
0
  6
CONTINUOUS
 62
     0
 10
478.4441216464009
 20
935.66014908233535
 30
0.0
 42
-0.2037583
  0
VERTEX
  5
9A88
  8
0
  6
CONTINUOUS
 62
     0
 10
480.70184164640062
 20
927.99467908233544
 30
0.0
  0
VERTEX
  5
9A89
  8
0
  6
CONTINUOUS
 62
     0
 10
465.93204164640088
 20
909.07955908233521
 30
0.0
 42
-1.0
  0
SEQEND
  5
9A8A
  8
0
 62
     0
  0
LINE
  5
9A8B
  8
0
 62
     0
 10
347.13342064640068
 20
760.83639908233522
 30
0.0
 11
347.13342064640068
 21
763.83639908233522
 31
0.0
  0
LINE
  5
9A8C
  8
0
 62
     0
 10
272.13342064640068
 20
760.83639908233522
 30
0.0
 11
272.13342064640068
 21
763.83639908233522
 31
0.0
  0
LINE
  5
9A8D
  8
0
 62
     0
 10
346.61742064640077
 20
705.37631908233504
 30
0.0
 11
272.65038064640112
 21
705.37631908233504
 31
0.0
  0
LINE
  5
9A8E
  8
0
 62
     0
 10
346.78332064640063
 20
752.64840908233521
 30
0.0
 11
272.24340064640091
 21
752.64840908233521
 31
0.0
  0
LINE
  5
9A8F
  8
0
 62
     0
 10
348.17834064640101
 20
755.61740908233503
 30
0.0
 11
271.18835064640098
 21
755.61740908233503
 31
0.0
  0
LINE
  5
9A90
  8
0
 62
     0
 10
347.96935064640093
 20
760.07834908233485
 30
0.0
 11
271.27136064640081
 21
760.07834908233485
 31
0.0
  0
LINE
  5
9A91
  8
0
 62
     0
 10
347.38342064640068
 20
760.83639908233522
 30
0.0
 11
271.86872364640072
 21
760.83639908233522
 31
0.0
  0
LINE
  5
9A92
  8
0
 62
     0
 10
272.26342064640079
 20
721.27841908233495
 30
0.0
 11
347.24340064640091
 21
721.27841908233495
 31
0.0
  0
ARC
  5
9A93
  8
0
 62
     0
 10
-245.4666093535991
 20
731.25131908233504
 30
0.0
 40
600.59997999999962
 50
357.906620000001
 51
2.521403000004645
  0
ARC
  5
9A94
  8
0
 62
     0
 10
346.61742064640077
 20
708.97641908233504
 30
0.0
 40
3.6000000000000001
 50
269.99995999999589
 51
355.68894999999969
  0
ARC
  5
9A95
  8
0
 62
     0
 10
-245.4666093535991
 20
731.25131908233504
 30
0.0
 40
596.09997999999962
 50
357.83251999999987
 51
1.945678999999225
  0
ARC
  5
9A96
  8
0
 62
     0
 10
347.38342064640068
 20
757.23642908233501
 30
0.0
 40
3.6000000000000001
 50
53.340590999992578
 51
89.999989000004106
  0
ARC
  5
9A97
  8
0
 62
     0
 10
348.98840064640081
 20
748.17441908233491
 30
0.0
 40
7.4984399999999978
 50
40.106594000003412
 51
96.966986999996834
  0
ARC
  5
9A98
  8
0
 62
     0
 10
348.98840064640081
 20
752.64535908233506
 30
0.0
 40
7.4984399999999978
 50
42.099393999988131
 51
96.966986999996834
  0
ARC
  5
9A99
  8
0
 62
     0
 10
347.5803106464009
 20
748.94638908233503
 30
0.0
 40
3.7436899999999982
 50
43.77279399999189
 51
98.860984000010404
  0
ARC
  5
9A9A
  8
0
 62
     0
 10
347.5803106464009
 20
717.57931908233502
 30
0.0
 40
3.7436899999999982
 50
43.77279399999189
 51
98.860984000010404
  0
ARC
  5
9A9B
  8
0
 62
     0
 10
350.07140064640089
 20
712.66733908233505
 30
0.0
 40
5.7431099999999971
 50
265.1789600000053
 51
324.25095000001107
  0
ARC
  5
9A9C
  8
0
 62
     0
 10
864.73336064640046
 20
731.25131908233504
 30
0.0
 40
600.59997999999962
 50
177.4789699999962
 51
182.09294999999941
  0
ARC
  5
9A9D
  8
0
 62
     0
 10
272.65038064640112
 20
708.97641908233504
 30
0.0
 40
3.6000000000000001
 50
184.31098
 51
269.99995999999589
  0
ARC
  5
9A9E
  8
0
 62
     0
 10
864.73336064640046
 20
731.25131908233504
 30
0.0
 40
596.09997999999962
 50
178.0539699999992
 51
182.16695000000161
  0
ARC
  5
9A9F
  8
0
 62
     0
 10
271.88342064640068
 20
757.23642908233501
 30
0.0
 40
3.6000000000000001
 50
89.999989000004106
 51
126.658990000006
  0
ARC
  5
9AA0
  8
0
 62
     0
 10
270.27844064640112
 20
748.17441908233491
 30
0.0
 40
7.4984399999999978
 50
83.032990999994595
 51
139.89297999998459
  0
ARC
  5
9AA1
  8
0
 62
     0
 10
270.27844064640112
 20
752.64535908233506
 30
0.0
 40
7.4984399999999978
 50
83.032990999994595
 51
137.9009900000091
  0
ARC
  5
9AA2
  8
0
 62
     0
 10
271.68639064640092
 20
748.94638908233503
 30
0.0
 40
3.7436899999999982
 50
81.138986000010405
 51
136.22697999999471
  0
ARC
  5
9AA3
  8
0
 62
     0
 10
271.68639064640092
 20
717.57931908233502
 30
0.0
 40
3.7436899999999982
 50
81.138986000010405
 51
136.22697999999471
  0
ARC
  5
9AA4
  8
0
 62
     0
 10
269.19543064640078
 20
712.66733908233505
 30
0.0
 40
5.7431099999999971
 50
215.74896999999439
 51
274.82095999999279
  0
LINE
  5
9AA5
  8
0
 62
     0
 10
272.13342064640068
 20
763.83639908233522
 30
0.0
 11
347.13342064640068
 21
763.83639908233522
 31
0.0
  0
ARC
  5
9AA6
  8
0
 62
     0
 10
138.53348164640099
 20
780.33902508233496
 30
0.0
 40
2.399999999999999
 50
180.0
 51
199.9999999999975
  0
ARC
  5
9AA7
  8
0
 62
     0
 10
143.1279456464008
 20
767.71584008233503
 30
0.0
 40
2.399999999999999
 50
199.9999999999975
 51
270.0
  0
LINE
  5
9AA8
  8
0
 62
     0
 10
140.87268264640079
 20
766.89499208233519
 30
0.0
 11
136.2782196464008
 21
779.518177082335
 31
0.0
  0
LINE
  5
9AA9
  8
0
 62
     0
 10
209.1334816464009
 20
765.31584008233494
 30
0.0
 11
143.1279456464008
 21
765.31584008233494
 31
0.0
  0
LINE
  5
9AAA
  8
0
 62
     0
 10
209.1334816464009
 20
966.35695808233515
 30
0.0
 11
209.1334816464009
 21
765.31584008233494
 31
0.0
  0
LINE
  5
9AAB
  8
0
 62
     0
 10
140.87268264640079
 20
964.77780608233525
 30
0.0
 11
136.2782196464008
 21
952.15462108233476
 31
0.0
  0
ARC
  5
9AAC
  8
0
 62
     0
 10
143.1279456464008
 20
963.95695808233495
 30
0.0
 40
2.399999999999999
 50
90.0
 51
160.00000000000239
  0
ARC
  5
9AAD
  8
0
 62
     0
 10
138.53348164640099
 20
951.33377308233514
 30
0.0
 40
2.399999999999999
 50
160.00000000000239
 51
180.0
  0
LINE
  5
9AAE
  8
0
 62
     0
 10
141.4474466464012
 20
965.67041208233502
 30
0.0
 11
141.4474466464012
 21
765.31584008233494
 31
0.0
  0
LINE
  5
9AAF
  8
0
 62
     0
 10
136.1334816464009
 20
951.33377308233514
 30
0.0
 11
136.1334816464009
 21
780.5569580823352
 31
0.0
  0
LINE
  5
9AB0
  8
0
 62
     0
 10
209.1334816464009
 20
966.35695808233515
 30
0.0
 11
143.1279456464008
 21
966.35695808233515
 31
0.0
  0
ARC
  5
9AB1
  8
0
 62
     0
 10
217.5771256464009
 20
783.43571908233525
 30
0.0
 40
2.0
 50
189.99999999999861
 51
270.0
  0
LINE
  5
9AB2
  8
0
 62
     0
 10
215.6075106464009
 20
783.08842308233477
 30
0.0
 11
212.6334816464009
 21
799.95497708233495
 31
0.0
  0
LINE
  5
9AB3
  8
0
 62
     0
 10
212.6334816464009
 20
799.95497708233495
 30
0.0
 11
213.69522064640071
 21
799.95497708233495
 31
0.0
  0
LINE
  5
9AB4
  8
0
 62
     0
 10
411.09762264640079
 20
952.00870608233515
 30
0.0
 11
411.63348164640092
 21
952.00870608233515
 31
0.0
  0
LINE
  5
9AB5
  8
0
 62
     0
 10
411.3580136464011
 20
953.57096308233508
 30
0.0
 11
411.63348164640092
 21
953.57096308233508
 31
0.0
  0
LINE
  5
9AB6
  8
0
 62
     0
 10
413.31168064640048
 20
777.83655008233495
 30
0.0
 11
413.63348164640092
 21
777.83655008233495
 31
0.0
  0
LINE
  5
9AB7
  8
0
 62
     0
 10
409.45408664640081
 20
782.68441308233503
 30
0.0
 11
411.63348164640092
 21
782.68441308233503
 31
0.0
  0
LINE
  5
9AB8
  8
0
 62
     0
 10
410.4601696464008
 20
794.78998308233508
 30
0.0
 11
411.63348164640092
 21
794.78998308233508
 31
0.0
  0
LINE
  5
9AB9
  8
0
  6
AM_ISO08W050
 62
     0
 10
309.63348164640081
 20
758.18043408233495
 30
0.0
 11
309.63348164640081
 21
767.36215008233501
 31
0.0
  0
ARC
  5
9ABA
  8
0
 62
     0
 10
407.8763616464006
 20
954.8446470823352
 30
0.0
 40
2.0
 50
9.9999999999986073
 51
90.0
  0
ARC
  5
9ABB
  8
0
 62
     0
 10
407.9423786464007
 20
958.38544608233508
 30
0.0
 40
2.0
 50
9.9999999999986073
 51
90.0
  0
ARC
  5
9ABC
  8
0
 62
     0
 10
408.02829664640092
 20
960.9371830823352
 30
0.0
 40
2.0
 50
9.9999999999986073
 51
90.0
  0
ARC
  5
9ABD
  8
0
 62
     0
 10
408.05704564640052
 20
962.33639908233511
 30
0.0
 40
2.0
 50
9.9999999999986073
 51
90.0
  0
LINE
  5
9ABE
  8
0
 62
     0
 10
416.63348464640092
 20
950.83639908233533
 30
0.0
 11
413.6334846464008
 21
953.83639908233522
 31
0.0
  0
LINE
  5
9ABF
  8
0
 62
     0
 10
411.5866776464008
 20
953.83639908233522
 30
0.0
 11
413.63348164640092
 21
953.83639908233522
 31
0.0
  0
LINE
  5
9AC0
  8
0
 62
     0
 10
416.63348164640092
 20
780.83639908233522
 30
0.0
 11
413.63348164640092
 21
777.83639908233511
 31
0.0
  0
LINE
  5
9AC1
  8
0
 62
     0
 10
413.63348164640092
 20
777.83639908233511
 30
0.0
 11
413.63348164640092
 21
803.45678508233505
 31
0.0
  0
LINE
  5
9AC2
  8
0
 62
     0
 10
416.63348164640092
 20
780.83639908233522
 30
0.0
 11
416.63348164640081
 21
861.83639908233499
 31
0.0
  0
CIRCLE
  5
9AC3
  8
0
 62
     0
 10
309.63348164640081
 20
865.83639908233511
 30
0.0
 40
11.0
  0
LINE
  5
9AC4
  8
0
 62
     0
 10
216.91960164640071
 20
964.33639908233533
 30
0.0
 11
268.63348164640092
 21
964.33639908233533
 31
0.0
  0
LINE
  5
9AC5
  8
0
 62
     0
 10
348.63348164640092
 20
956.84464708233509
 30
0.0
 11
348.63348164640092
 21
962.33639908233511
 31
0.0
  0
LINE
  5
9AC6
  8
0
 62
     0
 10
270.63348164640092
 20
956.84464708233509
 30
0.0
 11
270.63348164640092
 21
962.33639908233511
 31
0.0
  0
ARC
  5
9AC7
  8
0
 62
     0
 10
268.63348164640092
 20
962.33639908233511
 30
0.0
 40
2.0
 50
0.0
 51
90.0
  0
ARC
  5
9AC8
  8
0
 62
     0
 10
350.63348164640092
 20
962.33639908233511
 30
0.0
 40
2.0
 50
90.0
 51
180.0
  0
LINE
  5
9AC9
  8
0
 62
     0
 10
350.63348164640092
 20
964.33639908233533
 30
0.0
 11
408.05704564640052
 21
964.33639908233533
 31
0.0
  0
LINE
  5
9ACA
  8
0
 62
     0
 10
408.02829664640092
 20
962.9371830823352
 30
0.0
 11
350.63348164640092
 21
962.9371830823352
 31
0.0
  0
LINE
  5
9ACB
  8
0
 62
     0
 10
411.63348164640092
 20
952.00870608233515
 30
0.0
 11
409.99791264640089
 21
961.284479082335
 31
0.0
  0
LINE
  5
9ACC
  8
0
 62
     0
 10
411.63348164640092
 20
953.57096308233508
 30
0.0
 11
410.0266606464009
 21
962.68369508233525
 31
0.0
  0
LINE
  5
9ACD
  8
0
 62
     0
 10
212.6334816464009
 20
949.54614508233522
 30
0.0
 11
214.9499866464007
 21
962.68369508233525
 31
0.0
  0
ARC
  5
9ACE
  8
0
 62
     0
 10
216.91960164640071
 20
962.33639908233511
 30
0.0
 40
2.0
 50
90.0
 51
170.00000000000139
  0
LINE
  5
9ACF
  8
0
 62
     0
 10
212.6334816464009
 20
947.88708408233515
 30
0.0
 11
214.9958036464009
 21
961.284479082335
 31
0.0
  0
ARC
  5
9AD0
  8
0
 62
     0
 10
216.96541964640119
 20
960.9371830823352
 30
0.0
 40
2.0
 50
90.0
 51
170.00000000000139
  0
ARC
  5
9AD1
  8
0
 62
     0
 10
268.63348164640092
 20
960.9371830823352
 30
0.0
 40
2.0
 50
0.0
 51
90.0
  0
ARC
  5
9AD2
  8
0
 62
     0
 10
350.63348164640092
 20
960.9371830823352
 30
0.0
 40
2.0
 50
90.0
 51
180.0
  0
LINE
  5
9AD3
  8
0
 62
     0
 10
268.63348164640092
 20
962.9371830823352
 30
0.0
 11
216.96541964640119
 21
962.9371830823352
 31
0.0
  0
LINE
  5
9AD4
  8
0
 62
     0
 10
407.9423786464007
 20
960.38544608233519
 30
0.0
 11
350.63348164640092
 21
960.38544608233519
 31
0.0
  0
LINE
  5
9AD5
  8
0
 62
     0
 10
411.50470164640092
 20
949.700048082335
 30
0.0
 11
409.91199364640039
 21
958.73274308233522
 31
0.0
  0
LINE
  5
9AD6
  8
0
 62
     0
 10
212.6334816464009
 20
944.66629308233519
 30
0.0
 11
215.11377664640119
 21
958.73274308233522
 31
0.0
  0
ARC
  5
9AD7
  8
0
 62
     0
 10
217.08339164640071
 20
958.38544608233508
 30
0.0
 40
2.0
 50
90.0
 51
170.00000000000139
  0
ARC
  5
9AD8
  8
0
 62
     0
 10
268.63348164640092
 20
958.38544608233508
 30
0.0
 40
2.0
 50
0.0
 51
90.0
  0
ARC
  5
9AD9
  8
0
 62
     0
 10
350.63348164640092
 20
958.38544608233508
 30
0.0
 40
2.0
 50
90.0
 51
180.0
  0
LINE
  5
9ADA
  8
0
 62
     0
 10
268.63348164640092
 20
960.38544608233519
 30
0.0
 11
217.08339164640071
 21
960.38544608233519
 31
0.0
  0
LINE
  5
9ADB
  8
0
 62
     0
 10
407.8763616464006
 20
956.84464708233509
 30
0.0
 11
217.24490064640079
 21
956.84464708233509
 31
0.0
  0
LINE
  5
9ADC
  8
0
 62
     0
 10
410.81434664640119
 20
949.700048082335
 30
0.0
 11
409.84597764640091
 21
955.19194308233511
 31
0.0
  0
LINE
  5
9ADD
  8
0
 62
     0
 10
212.6334816464009
 20
940.20953308233516
 30
0.0
 11
215.27528464640091
 21
955.19194308233511
 31
0.0
  0
ARC
  5
9ADE
  8
0
 62
     0
 10
217.24490064640079
 20
954.8446470823352
 30
0.0
 40
2.0
 50
90.0
 51
170.00000000000139
  0
LINE
  5
9ADF
  8
0
 62
     0
 10
341.68983764640097
 20
950.23707908233541
 30
0.0
 11
217.5771256464009
 21
950.23707908233541
 31
0.0
  0
LINE
  5
9AE0
  8
0
 62
     0
 10
346.63348164640092
 20
931.71782108233515
 30
0.0
 11
343.65945264640101
 21
948.58437508233521
 31
0.0
  0
ARC
  5
9AE1
  8
0
 62
     0
 10
341.68983764640097
 20
948.23707908233507
 30
0.0
 40
2.0
 50
9.9999999999986073
 51
90.0
  0
LINE
  5
9AE2
  8
0
 62
     0
 10
212.6334816464009
 20
931.71782108233515
 30
0.0
 11
215.6075106464009
 21
948.58437508233521
 31
0.0
  0
ARC
  5
9AE3
  8
0
 62
     0
 10
217.5771256464009
 20
948.23707908233507
 30
0.0
 40
2.0
 50
90.0
 51
170.00000000000139
  0
LINE
  5
9AE4
  8
0
 62
     0
 10
341.3595736464008
 20
944.83503508233525
 30
0.0
 11
217.90738964640099
 21
944.83503508233525
 31
0.0
  0
LINE
  5
9AE5
  8
0
 62
     0
 10
346.41243064640088
 20
925.69639908233523
 30
0.0
 11
343.32918964640112
 21
943.18233208233505
 31
0.0
  0
ARC
  5
9AE6
  8
0
 62
     0
 10
341.3595736464008
 20
942.83503508233525
 30
0.0
 40
2.0
 50
9.9999999999986073
 51
90.0
  0
LINE
  5
9AE7
  8
0
 62
     0
 10
212.91047564640081
 20
926.01366708233525
 30
0.0
 11
215.9377736464007
 21
943.18233208233505
 31
0.0
  0
ARC
  5
9AE8
  8
0
 62
     0
 10
217.90738964640099
 20
942.83503508233525
 30
0.0
 40
2.0
 50
90.0
 51
170.00000000000139
  0
LINE
  5
9AE9
  8
0
 62
     0
 10
411.63348164640092
 20
870.86655108233492
 30
0.0
 11
411.63348164640092
 21
873.814243082335
 31
0.0
  0
LINE
  5
9AEA
  8
0
 62
     0
 10
411.63348164640092
 20
880.86602708233522
 30
0.0
 11
411.63348164640092
 21
883.82750608233505
 31
0.0
  0
LINE
  5
9AEB
  8
0
 62
     0
 10
411.63348164640092
 20
891.85820708233507
 30
0.0
 11
411.63348164640092
 21
894.85083408233504
 31
0.0
  0
LINE
  5
9AEC
  8
0
 62
     0
 10
411.63348164640092
 20
902.84100208233519
 30
0.0
 11
411.63348164640092
 21
905.88670808233519
 31
0.0
  0
LINE
  5
9AED
  8
0
 62
     0
 10
411.63348164640092
 20
913.81088108233541
 30
0.0
 11
411.63348164640092
 21
916.94179408233504
 31
0.0
  0
LINE
  5
9AEE
  8
0
 62
     0
 10
411.63348164640092
 20
922.76935708233509
 30
0.0
 11
411.63348164640092
 21
926.01366708233525
 31
0.0
  0
LINE
  5
9AEF
  8
0
 62
     0
 10
361.63348164640092
 20
940.20953308233516
 30
0.0
 11
345.1361636464012
 21
940.20953308233516
 31
0.0
  0
LINE
  5
9AF0
  8
0
 62
     0
 10
393.42025864640078
 20
945.05450108233515
 30
0.0
 11
377.63348164640092
 21
945.05450108233515
 31
0.0
  0
LINE
  5
9AF1
  8
0
 62
     0
 10
361.63348164640092
 20
940.20953308233516
 30
0.0
 11
377.63348164640092
 21
945.05450108233515
 31
0.0
  0
LINE
  5
9AF2
  8
0
 62
     0
 10
377.63348164640092
 20
945.05450108233515
 30
0.0
 11
377.63348164640092
 21
941.68918608233525
 31
0.0
  0
LINE
  5
9AF3
  8
0
 62
     0
 10
361.63348164640092
 20
940.20953308233516
 30
0.0
 11
361.63348164640092
 21
926.01366708233525
 31
0.0
  0
LINE
  5
9AF4
  8
0
 62
     0
 10
397.13348164640092
 20
928.90236108233535
 30
0.0
 11
397.13348164640092
 21
947.70004808233534
 31
0.0
  0
ARC
  5
9AF5
  8
0
 62
     0
 10
399.13348164640092
 20
947.70004808233534
 30
0.0
 40
2.0
 50
90.0
 51
180.0
  0
LINE
  5
9AF6
  8
0
 62
     0
 10
397.13348164640092
 20
933.29245908233509
 30
0.0
 11
377.63348164640092
 21
933.29245908233509
 31
0.0
  0
LINE
  5
9AF7
  8
0
 62
     0
 10
391.7334876464011
 20
941.68918608233525
 30
0.0
 11
377.63348164640092
 21
941.68918608233525
 31
0.0
  0
LINE
  5
9AF8
  8
0
 62
     0
 10
377.63348164640092
 20
933.29245908233509
 30
0.0
 11
377.63348164640092
 21
926.01366708233525
 31
0.0
  0
LINE
  5
9AFA
  8
0
 62
     0
 10
416.63348164640092
 20
949.700048082335
 30
0.0
 11
399.13348164640092
 21
949.700048082335
 31
0.0
  0
LINE
  5
9AFB
  8
0
 62
     0
 10
416.63348164640092
 20
927.90236108233535
 30
0.0
 11
396.13348164640092
 21
927.90236108233535
 31
0.0
  0
ARC
  5
9AFC
  8
0
 62
     0
 10
396.13348164640092
 20
928.90236108233535
 30
0.0
 40
1.0
 50
270.0
 51
0.0
  0
LINE
  5
9AFD
  8
0
 62
     0
 10
416.63348164640092
 20
941.57604308233522
 30
0.0
 11
399.13348164640092
 21
941.57604308233522
 31
0.0
  0
LINE
  5
9AFE
  8
0
 62
     0
 10
209.1334816464009
 20
949.83639908233511
 30
0.0
 11
212.6334816464009
 21
949.83639908233511
 31
0.0
  0
ARC
  5
9AFF
  8
0
 62
     0
 10
413.31168064640048
 20
775.83639908233522
 30
0.0
 40
2.0
 50
90.0
 51
170.00000000000139
  0
ARC
  5
9B00
  8
0
 62
     0
 10
349.3761236464012
 20
770.84274208233523
 30
0.0
 40
1.9936590000000001
 50
90.075931000003493
 51
178.17025399999861
  0
LINE
  5
9B01
  8
0
 62
     0
 10
349.37348164640082
 20
772.83639908233522
 30
0.0
 11
409.07364764640062
 21
772.83639908233522
 31
0.0
  0
LINE
  5
9B02
  8
0
 62
     0
 10
347.13348164640092
 20
763.83639908233522
 30
0.0
 11
347.74951064640078
 21
781.43571908233525
 31
0.0
  0
LINE
  5
9B03
  8
0
 62
     0
 10
411.3420656464009
 20
776.18369508233502
 30
0.0
 11
411.04326264640082
 21
774.48910308233485
 31
0.0
  0
ARC
  5
9B04
  8
0
 62
     0
 10
409.07364764640062
 20
774.83639908233522
 30
0.0
 40
2.0
 50
270.0
 51
350.00000000000148
  0
LINE
  5
9B05
  8
0
 62
     0
 10
213.21083164640081
 20
780.83639908233522
 30
0.0
 11
220.42771064640101
 21
768.33639908233522
 31
0.0
  0
LINE
  5
9B06
  8
0
 62
     0
 10
222.15976064640111
 20
767.33639908233522
 30
0.0
 11
270.07845264640082
 21
767.33639908233522
 31
0.0
  0
LINE
  5
9B07
  8
0
 62
     0
 10
272.13348164640081
 20
763.83639908233522
 30
0.0
 11
272.07716964640082
 21
765.40801408233494
 31
0.0
  0
ARC
  5
9B08
  8
0
 62
     0
 10
211.47878064640099
 20
779.83639908233522
 30
0.0
 40
2.0
 50
29.999999999991651
 51
90.0
  0
ARC
  5
9B09
  8
0
 62
     0
 10
222.15976064640111
 20
769.33639908233511
 30
0.0
 40
2.0
 50
209.9999999999917
 51
270.0
  0
ARC
  5
9B0A
  8
0
 62
     0
 10
270.07845264640082
 20
765.33639908233511
 30
0.0
 40
2.0
 50
2.052064999998533
 51
90.0
  0
LINE
  5
9B0B
  8
0
 62
     0
 10
272.13348164640081
 20
763.83639908233522
 30
0.0
 11
347.13348164640092
 21
763.83639908233522
 31
0.0
  0
LINE
  5
9B0C
  8
0
 62
     0
 10
221.15976064640111
 20
767.60434808233504
 30
0.0
 11
221.15976064640111
 21
781.43571908233525
 31
0.0
  0
LINE
  5
9B0D
  8
0
 62
     0
 10
407.6005656464007
 20
781.43571908233525
 30
0.0
 11
217.5771256464009
 21
781.43571908233525
 31
0.0
  0
LINE
  5
9B0E
  8
0
 62
     0
 10
407.37977964640089
 20
786.83776308233519
 30
0.0
 11
217.68633864640111
 21
786.83776308233519
 31
0.0
  0
LINE
  5
9B0F
  8
0
 62
     0
 10
411.63348164640092
 20
801.44416508233519
 30
0.0
 11
377.63348164640092
 21
801.44416508233519
 31
0.0
  0
LINE
  5
9B10
  8
0
 62
     0
 10
411.63348164640092
 20
801.44416508233519
 30
0.0
 11
409.34939464640081
 21
788.49046608233505
 31
0.0
  0
ARC
  5
9B11
  8
0
 62
     0
 10
407.37977964640089
 20
788.83776308233507
 30
0.0
 40
2.0
 50
270.0
 51
350.00000000000148
  0
LINE
  5
9B12
  8
0
 62
     0
 10
411.63348164640092
 20
794.78998308233508
 30
0.0
 11
409.57018064640039
 21
783.08842308233477
 31
0.0
  0
ARC
  5
9B13
  8
0
 62
     0
 10
407.6005656464007
 20
783.43571908233525
 30
0.0
 40
2.0
 50
270.0
 51
350.00000000000148
  0
LINE
  5
9B14
  8
0
 62
     0
 10
216.37621964640081
 20
781.83639908233511
 30
0.0
 11
209.1334816464009
 21
781.83639908233511
 31
0.0
  0
LINE
  5
9B15
  8
0
 62
     0
 10
411.63348164640092
 20
782.68441308233503
 30
0.0
 11
410.1884276464009
 21
774.48910308233485
 31
0.0
  0
ARC
  5
9B16
  8
0
 62
     0
 10
408.21881164640081
 20
774.83639908233522
 30
0.0
 40
2.0
 50
270.0
 51
350.00000000000148
  0
LINE
  5
9B17
  8
0
 62
     0
 10
346.63348164640092
 20
817.67639908233491
 30
0.0
 11
346.63348164640092
 21
814.97639908233498
 31
0.0
  0
LINE
  5
9B18
  8
0
 62
     0
 10
416.63348164640092
 20
803.62676208233495
 30
0.0
 11
399.13348164640092
 21
803.62676208233495
 31
0.0
  0
LINE
  5
9B19
  8
0
 62
     0
 10
416.63348164640092
 20
815.93440108233494
 30
0.0
 11
399.13348164640092
 21
815.93440108233494
 31
0.0
  0
LINE
  5
9B1A
  8
0
 62
     0
 10
416.63348164640092
 20
826.11369308233509
 30
0.0
 11
411.63348164640092
 21
826.11369308233509
 31
0.0
  0
LINE
  5
9B1B
  8
0
 62
     0
 10
397.13348164640092
 20
825.11369308233509
 30
0.0
 11
397.13348164640092
 21
805.62676208233495
 31
0.0
  0
ARC
  5
9B1C
  8
0
 62
     0
 10
396.13348164640092
 20
825.11369308233509
 30
0.0
 40
1.0
 50
0.0
 51
42.252324000004279
  0
ARC
  5
9B1D
  8
0
 62
     0
 10
399.13348164640092
 20
805.62676208233495
 30
0.0
 40
2.0
 50
180.0
 51
270.0
  0
LINE
  5
9B1E
  8
0
 62
     0
 10
361.63348164640092
 20
922.76935708233509
 30
0.0
 11
361.63348164640092
 21
916.94179408233504
 31
0.0
  0
LINE
  5
9B1F
  8
0
 62
     0
 10
377.63348164640092
 20
922.76935708233509
 30
0.0
 11
377.63348164640092
 21
916.94179408233504
 31
0.0
  0
LINE
  5
9B20
  8
0
 62
     0
 10
361.63348164640092
 20
913.81088108233541
 30
0.0
 11
361.63348164640092
 21
905.88670808233519
 31
0.0
  0
LINE
  5
9B21
  8
0
 62
     0
 10
361.63348164640092
 20
902.84100208233519
 30
0.0
 11
361.63348164640092
 21
894.85083408233504
 31
0.0
  0
LINE
  5
9B22
  8
0
 62
     0
 10
361.63348164640092
 20
891.85820708233507
 30
0.0
 11
361.63348164640092
 21
883.82750608233505
 31
0.0
  0
LINE
  5
9B23
  8
0
 62
     0
 10
361.63348164640092
 20
880.86602708233522
 30
0.0
 11
361.63348164640092
 21
873.814243082335
 31
0.0
  0
LINE
  5
9B24
  8
0
 62
     0
 10
361.63348164640092
 20
870.99639908233519
 30
0.0
 11
361.63348164640092
 21
860.80624708233495
 31
0.0
  0
LINE
  5
9B25
  8
0
 62
     0
 10
377.63348164640092
 20
870.99639908233519
 30
0.0
 11
377.63348164640092
 21
860.80624708233495
 31
0.0
  0
LINE
  5
9B26
  8
0
 62
     0
 10
377.63348164640092
 20
880.86602708233522
 30
0.0
 11
377.63348164640092
 21
873.814243082335
 31
0.0
  0
LINE
  5
9B27
  8
0
 62
     0
 10
377.63348164640092
 20
891.85820708233507
 30
0.0
 11
377.63348164640092
 21
883.82750608233505
 31
0.0
  0
LINE
  5
9B28
  8
0
 62
     0
 10
377.63348164640092
 20
902.84100208233519
 30
0.0
 11
377.63348164640092
 21
894.85083408233504
 31
0.0
  0
LINE
  5
9B29
  8
0
 62
     0
 10
377.63348164640092
 20
913.81088108233541
 30
0.0
 11
377.63348164640092
 21
905.88670808233519
 31
0.0
  0
LINE
  5
9B2A
  8
0
 62
     0
 10
361.63348164640092
 20
857.8585550823351
 30
0.0
 11
361.63348164640092
 21
850.80677108233522
 31
0.0
  0
LINE
  5
9B2B
  8
0
 62
     0
 10
377.63348164640092
 20
857.8585550823351
 30
0.0
 11
377.63348164640092
 21
850.80677108233522
 31
0.0
  0
LINE
  5
9B2C
  8
0
 62
     0
 10
377.63348164640092
 20
847.84529208233505
 30
0.0
 11
377.63348164640092
 21
839.81459108233526
 31
0.0
  0
LINE
  5
9B2D
  8
0
 62
     0
 10
361.63348164640092
 20
847.84529208233505
 30
0.0
 11
361.63348164640092
 21
839.81459108233526
 31
0.0
  0
LINE
  5
9B2E
  8
0
 62
     0
 10
361.63348164640092
 20
836.82196408233506
 30
0.0
 11
361.63348164640092
 21
828.83179608233502
 31
0.0
  0
LINE
  5
9B2F
  8
0
 62
     0
 10
377.63348164640092
 20
836.82196408233506
 30
0.0
 11
377.63348164640092
 21
828.83179608233502
 31
0.0
  0
LINE
  5
9B30
  8
0
 62
     0
 10
392.18287664640093
 20
809.8156030823352
 30
0.0
 11
377.63348064640093
 21
809.8156030823352
 31
0.0
  0
LINE
  5
9B31
  8
0
 62
     0
 10
397.13348164640092
 20
821.22795308233503
 30
0.0
 11
377.63348064640093
 21
821.22795308233503
 31
0.0
  0
LINE
  5
9B32
  8
0
 62
     0
 10
361.63348164640092
 20
825.78609008233525
 30
0.0
 11
361.63348164640092
 21
805.78609008233525
 31
0.0
  0
LINE
  5
9B33
  8
0
 62
     0
 10
413.63348164640092
 20
949.700048082335
 30
0.0
 11
413.63348164640092
 21
953.83639908233522
 31
0.0
  0
LINE
  5
9B34
  8
0
 62
     0
 10
411.63348164640092
 20
779.63465508233503
 30
0.0
 11
410.72618164640079
 21
774.48910308233485
 31
0.0
  0
ARC
  5
9B35
  8
0
 62
     0
 10
408.75656664640081
 20
774.83639908233522
 30
0.0
 40
2.0
 50
270.0
 51
350.00000000000148
  0
LINE
  5
9B36
  8
0
 62
     0
 10
377.63348164640092
 20
825.78609008233525
 30
0.0
 11
377.63348164640092
 21
821.22795308233503
 31
0.0
  0
LINE
  5
9B37
  8
0
 62
     0
 10
413.63348164640092
 20
826.11369308233509
 30
0.0
 11
413.63348164640092
 21
861.83639908233522
 31
0.0
  0
LINE
  5
9B38
  8
0
 62
     0
 10
212.6334816464009
 20
805.97639908233498
 30
0.0
 11
215.71672364640111
 21
788.49046608233505
 31
0.0
  0
ARC
  5
9B39
  8
0
 62
     0
 10
217.68633864640111
 20
788.83776308233507
 30
0.0
 40
2.0
 50
189.99999999999861
 51
270.0
  0
LINE
  5
9B3A
  8
0
 62
     0
 10
362.3388786464007
 20
814.53069308233501
 30
0.0
 11
377.63348164640092
 21
809.8156030823352
 31
0.0
  0
LINE
  5
9B3B
  8
0
 62
     0
 10
377.63348164640092
 20
821.22795308233503
 30
0.0
 11
362.59754064640077
 21
820.68720208233503
 31
0.0
  0
LINE
  5
9B3C
  8
0
 62
     0
 10
377.63348164640092
 20
809.8156030823352
 30
0.0
 11
377.63348164640092
 21
801.44416508233519
 31
0.0
  0
ARC
  5
9B3D
  8
0
 62
     0
 10
362.63348164640092
 20
819.68784808233522
 30
0.0
 40
1.0
 50
92.059690999990565
 51
180.0
  0
ARC
  5
9B3E
  8
0
 62
     0
 10
362.63348164640092
 20
815.48631308233519
 30
0.0
 40
1.0
 50
180.0
 51
252.8662750000021
  0
LINE
  5
9B3F
  8
0
 62
     0
 10
377.63348164640092
 20
941.68918608233525
 30
0.0
 11
362.33302264640088
 21
936.86932008233521
 31
0.0
  0
LINE
  5
9B40
  8
0
 62
     0
 10
362.68203664640077
 20
932.565639082335
 30
0.0
 11
377.63348164640092
 21
933.29245908233509
 31
0.0
  0
ARC
  5
9B41
  8
0
 62
     0
 10
362.63348164640092
 20
935.91552508233474
 30
0.0
 40
1.0
 50
107.4851790000144
 51
180.0
  0
ARC
  5
9B42
  8
0
 62
     0
 10
362.63348164640092
 20
933.56446008233524
 30
0.0
 40
1.0
 50
180.0
 51
270.0
  0
LINE
  5
9B44
  8
0
 62
     0
 10
411.63348164640092
 20
926.01366708233525
 30
0.0
 11
212.6334816464009
 21
926.01366708233525
 31
0.0
  0
LINE
  5
9B45
  8
0
 62
     0
 10
411.63348164640092
 20
922.76935708233509
 30
0.0
 11
212.6334816464009
 21
922.76935708233509
 31
0.0
  0
LINE
  5
9B46
  8
0
 62
     0
 10
411.63348164640092
 20
916.94179408233504
 30
0.0
 11
212.6334816464009
 21
916.94179408233504
 31
0.0
  0
LINE
  5
9B47
  8
0
 62
     0
 10
411.63348164640092
 20
913.81088108233541
 30
0.0
 11
212.6334816464009
 21
913.81088108233541
 31
0.0
  0
LINE
  5
9B48
  8
0
 62
     0
 10
411.63348164640092
 20
905.88670808233519
 30
0.0
 11
212.6334816464009
 21
905.88670808233519
 31
0.0
  0
LINE
  5
9B49
  8
0
 62
     0
 10
411.63348164640092
 20
902.84100208233519
 30
0.0
 11
212.6334816464009
 21
902.84100208233519
 31
0.0
  0
LINE
  5
9B4A
  8
0
 62
     0
 10
411.63348164640092
 20
894.85083408233504
 30
0.0
 11
212.6334816464009
 21
894.85083408233504
 31
0.0
  0
LINE
  5
9B4B
  8
0
 62
     0
 10
411.63348164640092
 20
891.85820708233507
 30
0.0
 11
212.6334816464009
 21
891.85820708233507
 31
0.0
  0
LINE
  5
9B4C
  8
0
 62
     0
 10
411.63348164640092
 20
883.82750608233505
 30
0.0
 11
212.6334816464009
 21
883.82750608233505
 31
0.0
  0
LINE
  5
9B4D
  8
0
 62
     0
 10
411.63348164640092
 20
880.86602708233522
 30
0.0
 11
212.6334816464009
 21
880.86602708233522
 31
0.0
  0
LINE
  5
9B4E
  8
0
 62
     0
 10
411.63348164640092
 20
873.814243082335
 30
0.0
 11
317.2067246464008
 21
873.814243082335
 31
0.0
  0
LINE
  5
9B4F
  8
0
 62
     0
 10
411.63348164640092
 20
870.86655108233492
 30
0.0
 11
324.01912864640087
 21
870.86655108233492
 31
0.0
  0
LINE
  5
9B50
  8
0
 62
     0
 10
409.55456064640111
 20
925.33639908233522
 30
0.0
 11
409.55456064640111
 21
923.33639908233522
 31
0.0
  0
LINE
  5
9B51
  8
0
 62
     0
 10
214.71240264640119
 20
923.33639908233522
 30
0.0
 11
409.55456064640111
 21
923.33639908233522
 31
0.0
  0
LINE
  5
9B52
  8
0
 62
     0
 10
214.71240264640119
 20
925.33639908233522
 30
0.0
 11
409.55456064640111
 21
925.33639908233522
 31
0.0
  0
LINE
  5
9B53
  8
0
 62
     0
 10
214.71240264640119
 20
914.33639908233533
 30
0.0
 11
409.55456064640111
 21
914.33639908233533
 31
0.0
  0
LINE
  5
9B54
  8
0
 62
     0
 10
214.71240264640119
 20
916.33639908233522
 30
0.0
 11
409.55456064640111
 21
916.33639908233522
 31
0.0
  0
LINE
  5
9B55
  8
0
 62
     0
 10
214.71240264640119
 20
903.33639908233511
 30
0.0
 11
409.55456064640111
 21
903.33639908233511
 31
0.0
  0
LINE
  5
9B56
  8
0
 62
     0
 10
214.71240264640119
 20
905.33639908233533
 30
0.0
 11
409.55456064640111
 21
905.33639908233533
 31
0.0
  0
LINE
  5
9B57
  8
0
 62
     0
 10
214.71240264640119
 20
892.33639908233522
 30
0.0
 11
409.55456064640111
 21
892.33639908233522
 31
0.0
  0
LINE
  5
9B58
  8
0
 62
     0
 10
214.71240264640119
 20
894.33639908233511
 30
0.0
 11
409.55456064640111
 21
894.33639908233511
 31
0.0
  0
LINE
  5
9B59
  8
0
 62
     0
 10
214.71240264640119
 20
881.33639908233522
 30
0.0
 11
409.55456064640111
 21
881.33639908233522
 31
0.0
  0
LINE
  5
9B5A
  8
0
 62
     0
 10
214.71240264640119
 20
883.33639908233522
 30
0.0
 11
409.55456064640111
 21
883.33639908233522
 31
0.0
  0
LINE
  5
9B5B
  8
0
 62
     0
 10
323.4084586464009
 20
871.33639908233511
 30
0.0
 11
409.55456064640111
 21
871.33639908233511
 31
0.0
  0
LINE
  5
9B5C
  8
0
 62
     0
 10
317.68021964640087
 20
873.33639908233522
 30
0.0
 11
409.55456064640111
 21
873.33639908233522
 31
0.0
  0
LINE
  5
9B5D
  8
0
 62
     0
 10
409.55456064640111
 20
925.33639908233522
 30
0.0
 11
411.63348164640092
 21
926.01366708233525
 31
0.0
  0
LINE
  5
9B5E
  8
0
 62
     0
 10
409.55456064640111
 20
923.33639908233522
 30
0.0
 11
411.63348164640092
 21
922.76935708233509
 31
0.0
  0
LINE
  5
9B5F
  8
0
 62
     0
 10
409.55456064640111
 20
916.33639908233522
 30
0.0
 11
411.63348164640092
 21
916.94179408233504
 31
0.0
  0
LINE
  5
9B60
  8
0
 62
     0
 10
409.55456064640111
 20
914.33639908233533
 30
0.0
 11
411.63348164640092
 21
913.81088108233541
 31
0.0
  0
LINE
  5
9B61
  8
0
 62
     0
 10
409.55456064640111
 20
905.33639908233533
 30
0.0
 11
411.63348164640092
 21
905.88670808233519
 31
0.0
  0
LINE
  5
9B62
  8
0
 62
     0
 10
409.55456064640111
 20
903.33639908233511
 30
0.0
 11
411.63348164640092
 21
902.84100208233519
 31
0.0
  0
LINE
  5
9B63
  8
0
 62
     0
 10
409.55456064640111
 20
894.33639908233511
 30
0.0
 11
411.63348164640092
 21
894.85083408233504
 31
0.0
  0
LINE
  5
9B64
  8
0
 62
     0
 10
409.55456064640111
 20
892.33639908233522
 30
0.0
 11
411.63348164640092
 21
891.85820708233507
 31
0.0
  0
LINE
  5
9B65
  8
0
 62
     0
 10
409.55456064640111
 20
883.33639908233522
 30
0.0
 11
411.63348164640092
 21
883.82750608233505
 31
0.0
  0
LINE
  5
9B66
  8
0
 62
     0
 10
409.55456064640111
 20
881.33639908233522
 30
0.0
 11
411.63348164640092
 21
880.86602708233522
 31
0.0
  0
LINE
  5
9B67
  8
0
 62
     0
 10
409.55456064640111
 20
873.33639908233522
 30
0.0
 11
411.63348164640092
 21
873.814243082335
 31
0.0
  0
LINE
  5
9B68
  8
0
 62
     0
 10
409.55456064640111
 20
871.33639908233511
 30
0.0
 11
411.63348164640092
 21
870.86655108233492
 31
0.0
  0
LINE
  5
9B69
  8
0
 62
     0
 10
409.55456064640111
 20
916.33639908233522
 30
0.0
 11
409.55456064640111
 21
914.33639908233533
 31
0.0
  0
LINE
  5
9B6A
  8
0
 62
     0
 10
409.55456064640111
 20
905.33639908233533
 30
0.0
 11
409.55456064640111
 21
903.33639908233511
 31
0.0
  0
LINE
  5
9B6B
  8
0
 62
     0
 10
409.55456064640111
 20
894.33639908233511
 30
0.0
 11
409.55456064640111
 21
892.33639908233522
 31
0.0
  0
LINE
  5
9B6C
  8
0
 62
     0
 10
409.55456064640111
 20
883.33639908233522
 30
0.0
 11
409.55456064640111
 21
881.33639908233522
 31
0.0
  0
LINE
  5
9B6D
  8
0
 62
     0
 10
409.55456064640111
 20
873.33639908233522
 30
0.0
 11
409.55456064640111
 21
871.33639908233511
 31
0.0
  0
ARC
  5
9B6E
  8
0
 62
     0
 10
323.4084586464009
 20
868.33639908233522
 30
0.0
 40
3.0
 50
90.0
 51
190.28656099999421
  0
ARC
  5
9B6F
  8
0
 62
     0
 10
324.01912864640087
 20
867.39655108233501
 30
0.0
 40
3.4700000000000002
 50
90.0
 51
186.1896490000004
  0
LINE
  5
9B70
  8
0
 62
     0
 10
229.71240264640119
 20
873.33639908233522
 30
0.0
 11
229.71240264640119
 21
871.33639908233511
 31
0.0
  0
LINE
  5
9B71
  8
0
 62
     0
 10
214.71240264640119
 20
883.33639908233522
 30
0.0
 11
214.71240264640119
 21
881.33639908233522
 31
0.0
  0
LINE
  5
9B72
  8
0
 62
     0
 10
214.71240264640119
 20
894.33639908233511
 30
0.0
 11
214.71240264640119
 21
892.33639908233522
 31
0.0
  0
LINE
  5
9B73
  8
0
 62
     0
 10
214.71240264640119
 20
905.33639908233533
 30
0.0
 11
214.71240264640119
 21
903.33639908233511
 31
0.0
  0
LINE
  5
9B74
  8
0
 62
     0
 10
214.71240264640119
 20
916.33639908233522
 30
0.0
 11
214.71240264640119
 21
914.33639908233533
 31
0.0
  0
LINE
  5
9B75
  8
0
 62
     0
 10
229.71240264640119
 20
871.33639908233511
 30
0.0
 11
227.6334816464009
 21
870.86655108233492
 31
0.0
  0
LINE
  5
9B76
  8
0
 62
     0
 10
229.71240264640119
 20
873.33639908233522
 30
0.0
 11
227.6334816464009
 21
873.814243082335
 31
0.0
  0
LINE
  5
9B77
  8
0
 62
     0
 10
214.71240264640119
 20
881.33639908233522
 30
0.0
 11
212.6334816464009
 21
880.86602708233522
 31
0.0
  0
LINE
  5
9B78
  8
0
 62
     0
 10
214.71240264640119
 20
883.33639908233522
 30
0.0
 11
212.6334816464009
 21
883.82750608233505
 31
0.0
  0
LINE
  5
9B79
  8
0
 62
     0
 10
214.71240264640119
 20
892.33639908233522
 30
0.0
 11
212.6334816464009
 21
891.85820708233507
 31
0.0
  0
LINE
  5
9B7A
  8
0
 62
     0
 10
214.71240264640119
 20
894.33639908233511
 30
0.0
 11
212.6334816464009
 21
894.85083408233504
 31
0.0
  0
LINE
  5
9B7B
  8
0
 62
     0
 10
214.71240264640119
 20
903.33639908233511
 30
0.0
 11
212.6334816464009
 21
902.84100208233519
 31
0.0
  0
LINE
  5
9B7C
  8
0
 62
     0
 10
214.71240264640119
 20
905.33639908233533
 30
0.0
 11
212.6334816464009
 21
905.88670808233519
 31
0.0
  0
LINE
  5
9B7D
  8
0
 62
     0
 10
214.71240264640119
 20
914.33639908233533
 30
0.0
 11
212.6334816464009
 21
913.81088108233541
 31
0.0
  0
LINE
  5
9B7E
  8
0
 62
     0
 10
214.71240264640119
 20
916.33639908233522
 30
0.0
 11
212.6334816464009
 21
916.94179408233504
 31
0.0
  0
LINE
  5
9B7F
  8
0
 62
     0
 10
214.71240264640119
 20
923.33639908233522
 30
0.0
 11
212.6334816464009
 21
922.76935708233509
 31
0.0
  0
LINE
  5
9B80
  8
0
 62
     0
 10
214.71240264640119
 20
925.33639908233522
 30
0.0
 11
212.6334816464009
 21
926.01366708233525
 31
0.0
  0
LINE
  5
9B81
  8
0
 62
     0
 10
214.71240264640119
 20
925.33639908233522
 30
0.0
 11
214.71240264640119
 21
923.33639908233522
 31
0.0
  0
LINE
  5
9B82
  8
0
 62
     0
 10
212.6334816464009
 20
922.76935708233509
 30
0.0
 11
212.6334816464009
 21
926.01366708233525
 31
0.0
  0
LINE
  5
9B83
  8
0
 62
     0
 10
212.6334816464009
 20
913.81088108233541
 30
0.0
 11
212.6334816464009
 21
916.94179408233504
 31
0.0
  0
LINE
  5
9B84
  8
0
 62
     0
 10
212.6334816464009
 20
902.84100208233519
 30
0.0
 11
212.6334816464009
 21
905.88670808233519
 31
0.0
  0
LINE
  5
9B85
  8
0
 62
     0
 10
212.6334816464009
 20
891.85820708233507
 30
0.0
 11
212.6334816464009
 21
894.85083408233504
 31
0.0
  0
LINE
  5
9B86
  8
0
 62
     0
 10
212.6334816464009
 20
880.86602708233522
 30
0.0
 11
212.6334816464009
 21
883.82750608233505
 31
0.0
  0
LINE
  5
9B87
  8
0
 62
     0
 10
227.6334816464009
 20
870.86655108233492
 30
0.0
 11
227.6334816464009
 21
873.814243082335
 31
0.0
  0
LINE
  5
9B88
  8
0
 62
     0
 10
227.6334816464009
 20
873.814243082335
 30
0.0
 11
302.06023864640122
 21
873.814243082335
 31
0.0
  0
LINE
  5
9B89
  8
0
 62
     0
 10
227.6334816464009
 20
870.86655108233492
 30
0.0
 11
295.24783464640092
 21
870.86655108233492
 31
0.0
  0
LINE
  5
9B8A
  8
0
 62
     0
 10
295.85850464640089
 20
871.33639908233511
 30
0.0
 11
229.71240264640119
 21
871.33639908233511
 31
0.0
  0
LINE
  5
9B8B
  8
0
 62
     0
 10
301.58674364640092
 20
873.33639908233522
 30
0.0
 11
229.71240264640119
 21
873.33639908233522
 31
0.0
  0
ARC
  5
9B8C
  8
0
 62
     0
 10
295.85850464640089
 20
868.33639908233522
 30
0.0
 40
3.0
 50
349.71343900000568
 51
90.0
  0
ARC
  5
9B8D
  8
0
 62
     0
 10
295.24783464640092
 20
867.39655108233501
 30
0.0
 40
3.4700000000000002
 50
353.81035099999951
 51
90.0
  0
LINE
  5
9B8E
  8
0
 62
     0
 10
411.63348164640092
 20
825.78609008233525
 30
0.0
 11
212.6334816464009
 21
825.78609008233525
 31
0.0
  0
LINE
  5
9B8F
  8
0
 62
     0
 10
411.63348164640092
 20
828.83179608233502
 30
0.0
 11
212.6334816464009
 21
828.83179608233502
 31
0.0
  0
LINE
  5
9B90
  8
0
 62
     0
 10
411.63348164640092
 20
836.82196408233506
 30
0.0
 11
212.6334816464009
 21
836.82196408233506
 31
0.0
  0
LINE
  5
9B91
  8
0
 62
     0
 10
411.63348164640092
 20
839.81459108233526
 30
0.0
 11
212.6334816464009
 21
839.81459108233526
 31
0.0
  0
LINE
  5
9B92
  8
0
 62
     0
 10
411.63348164640092
 20
847.84529208233505
 30
0.0
 11
212.6334816464009
 21
847.84529208233505
 31
0.0
  0
LINE
  5
9B93
  8
0
 62
     0
 10
411.63348164640092
 20
850.80677108233522
 30
0.0
 11
212.6334816464009
 21
850.80677108233522
 31
0.0
  0
LINE
  5
9B94
  8
0
 62
     0
 10
214.71240264640119
 20
828.33639908233511
 30
0.0
 11
409.55456064640111
 21
828.33639908233511
 31
0.0
  0
LINE
  5
9B95
  8
0
 62
     0
 10
214.71240264640119
 20
826.33639908233522
 30
0.0
 11
409.55456064640111
 21
826.33639908233522
 31
0.0
  0
LINE
  5
9B96
  8
0
 62
     0
 10
214.71240264640119
 20
839.33639908233533
 30
0.0
 11
409.55456064640111
 21
839.33639908233533
 31
0.0
  0
LINE
  5
9B97
  8
0
 62
     0
 10
214.71240264640119
 20
837.33639908233511
 30
0.0
 11
409.55456064640111
 21
837.33639908233511
 31
0.0
  0
LINE
  5
9B98
  8
0
 62
     0
 10
214.71240264640119
 20
850.33639908233522
 30
0.0
 11
409.55456064640111
 21
850.33639908233522
 31
0.0
  0
LINE
  5
9B99
  8
0
 62
     0
 10
214.71240264640119
 20
848.33639908233522
 30
0.0
 11
409.55456064640111
 21
848.33639908233522
 31
0.0
  0
LINE
  5
9B9A
  8
0
 62
     0
 10
227.6334816464009
 20
857.8585550823351
 30
0.0
 11
302.06023864640122
 21
857.8585550823351
 31
0.0
  0
LINE
  5
9B9B
  8
0
 62
     0
 10
227.6334816464009
 20
860.80624708233495
 30
0.0
 11
295.24783464640092
 21
860.80624708233495
 31
0.0
  0
LINE
  5
9B9C
  8
0
 62
     0
 10
295.85850464640089
 20
860.33639908233522
 30
0.0
 11
229.71240264640119
 21
860.33639908233522
 31
0.0
  0
LINE
  5
9B9D
  8
0
 62
     0
 10
301.58674364640092
 20
858.33639908233522
 30
0.0
 11
229.71240264640119
 21
858.33639908233522
 31
0.0
  0
LINE
  5
9B9E
  8
0
 62
     0
 10
227.6334816464009
 20
860.80624708233495
 30
0.0
 11
227.6334816464009
 21
857.8585550823351
 31
0.0
  0
LINE
  5
9B9F
  8
0
 62
     0
 10
212.6334816464009
 20
850.80677108233522
 30
0.0
 11
212.6334816464009
 21
847.84529208233505
 31
0.0
  0
LINE
  5
9BA0
  8
0
 62
     0
 10
212.6334816464009
 20
839.81459108233526
 30
0.0
 11
212.6334816464009
 21
836.82196408233506
 31
0.0
  0
LINE
  5
9BA1
  8
0
 62
     0
 10
212.6334816464009
 20
828.83179608233502
 30
0.0
 11
212.6334816464009
 21
825.78609008233525
 31
0.0
  0
LINE
  5
9BA2
  8
0
 62
     0
 10
214.71240264640119
 20
826.33639908233522
 30
0.0
 11
212.6334816464009
 21
825.78609008233525
 31
0.0
  0
LINE
  5
9BA3
  8
0
 62
     0
 10
214.71240264640119
 20
828.33639908233511
 30
0.0
 11
212.6334816464009
 21
828.83179608233502
 31
0.0
  0
LINE
  5
9BA4
  8
0
 62
     0
 10
214.71240264640119
 20
837.33639908233511
 30
0.0
 11
212.6334816464009
 21
836.82196408233506
 31
0.0
  0
LINE
  5
9BA5
  8
0
 62
     0
 10
214.71240264640119
 20
839.33639908233533
 30
0.0
 11
212.6334816464009
 21
839.81459108233526
 31
0.0
  0
LINE
  5
9BA6
  8
0
 62
     0
 10
214.71240264640119
 20
848.33639908233522
 30
0.0
 11
212.6334816464009
 21
847.84529208233505
 31
0.0
  0
LINE
  5
9BA7
  8
0
 62
     0
 10
214.71240264640119
 20
850.33639908233522
 30
0.0
 11
212.6334816464009
 21
850.80677108233522
 31
0.0
  0
LINE
  5
9BA8
  8
0
 62
     0
 10
229.71240264640119
 20
858.33639908233522
 30
0.0
 11
227.6334816464009
 21
857.8585550823351
 31
0.0
  0
LINE
  5
9BA9
  8
0
 62
     0
 10
229.71240264640119
 20
860.33639908233522
 30
0.0
 11
227.6334816464009
 21
860.80624708233495
 31
0.0
  0
LINE
  5
9BAA
  8
0
 62
     0
 10
214.71240264640119
 20
826.33639908233522
 30
0.0
 11
214.71240264640119
 21
828.33639908233511
 31
0.0
  0
LINE
  5
9BAB
  8
0
 62
     0
 10
214.71240264640119
 20
837.33639908233511
 30
0.0
 11
214.71240264640119
 21
839.33639908233533
 31
0.0
  0
LINE
  5
9BAC
  8
0
 62
     0
 10
214.71240264640119
 20
848.33639908233522
 30
0.0
 11
214.71240264640119
 21
850.33639908233522
 31
0.0
  0
LINE
  5
9BAD
  8
0
 62
     0
 10
229.71240264640119
 20
858.33639908233522
 30
0.0
 11
229.71240264640119
 21
860.33639908233522
 31
0.0
  0
ARC
  5
9BAE
  8
0
 62
     0
 10
295.85850464640089
 20
863.33639908233533
 30
0.0
 40
3.0
 50
270.0
 51
10.28656099999424
  0
ARC
  5
9BAF
  8
0
 62
     0
 10
295.24783464640092
 20
864.27624708233532
 30
0.0
 40
3.4700000000000002
 50
270.0
 51
6.1896490000005366
  0
LINE
  5
9BB0
  8
0
 62
     0
 10
411.63348164640092
 20
857.8585550823351
 30
0.0
 11
317.2067246464008
 21
857.8585550823351
 31
0.0
  0
LINE
  5
9BB1
  8
0
 62
     0
 10
411.63348164640092
 20
860.80624708233495
 30
0.0
 11
324.01912864640087
 21
860.80624708233495
 31
0.0
  0
LINE
  5
9BB2
  8
0
 62
     0
 10
323.4084586464009
 20
860.33639908233522
 30
0.0
 11
409.55456064640111
 21
860.33639908233522
 31
0.0
  0
LINE
  5
9BB3
  8
0
 62
     0
 10
317.68021964640087
 20
858.33639908233522
 30
0.0
 11
409.55456064640111
 21
858.33639908233522
 31
0.0
  0
ARC
  5
9BB4
  8
0
 62
     0
 10
323.4084586464009
 20
863.33639908233533
 30
0.0
 40
3.0
 50
169.71343900000571
 51
270.0
  0
ARC
  5
9BB5
  8
0
 62
     0
 10
324.01912864640087
 20
864.27624708233532
 30
0.0
 40
3.4700000000000002
 50
173.8103509999994
 51
270.0
  0
LINE
  5
9BB6
  8
0
 62
     0
 10
409.55456064640111
 20
858.33639908233522
 30
0.0
 11
409.55456064640111
 21
860.33639908233522
 31
0.0
  0
LINE
  5
9BB7
  8
0
 62
     0
 10
409.55456064640111
 20
848.33639908233522
 30
0.0
 11
409.55456064640111
 21
850.33639908233522
 31
0.0
  0
LINE
  5
9BB8
  8
0
 62
     0
 10
409.55456064640111
 20
837.33639908233511
 30
0.0
 11
409.55456064640111
 21
839.33639908233533
 31
0.0
  0
LINE
  5
9BB9
  8
0
 62
     0
 10
409.55456064640111
 20
826.33639908233522
 30
0.0
 11
409.55456064640111
 21
828.33639908233511
 31
0.0
  0
LINE
  5
9BBA
  8
0
 62
     0
 10
409.55456064640111
 20
860.33639908233522
 30
0.0
 11
411.63348164640092
 21
860.80624708233495
 31
0.0
  0
LINE
  5
9BBB
  8
0
 62
     0
 10
409.55456064640111
 20
858.33639908233522
 30
0.0
 11
411.63348164640092
 21
857.8585550823351
 31
0.0
  0
LINE
  5
9BBC
  8
0
 62
     0
 10
409.55456064640111
 20
850.33639908233522
 30
0.0
 11
411.63348164640092
 21
850.80677108233522
 31
0.0
  0
LINE
  5
9BBD
  8
0
 62
     0
 10
409.55456064640111
 20
848.33639908233522
 30
0.0
 11
411.63348164640092
 21
847.84529208233505
 31
0.0
  0
LINE
  5
9BBE
  8
0
 62
     0
 10
409.55456064640111
 20
839.33639908233533
 30
0.0
 11
411.63348164640092
 21
839.81459108233526
 31
0.0
  0
LINE
  5
9BBF
  8
0
 62
     0
 10
409.55456064640111
 20
837.33639908233511
 30
0.0
 11
411.63348164640092
 21
836.82196408233506
 31
0.0
  0
LINE
  5
9BC0
  8
0
 62
     0
 10
409.55456064640111
 20
828.33639908233511
 30
0.0
 11
411.63348164640092
 21
828.83179608233502
 31
0.0
  0
LINE
  5
9BC1
  8
0
 62
     0
 10
409.55456064640111
 20
826.33639908233522
 30
0.0
 11
411.63348164640092
 21
825.78609008233525
 31
0.0
  0
LINE
  5
9BC2
  8
0
 62
     0
 10
411.63348164640092
 20
828.83179608233502
 30
0.0
 11
411.63348164640092
 21
825.78609008233525
 31
0.0
  0
LINE
  5
9BC3
  8
0
 62
     0
 10
411.63348164640092
 20
839.81459108233526
 30
0.0
 11
411.63348164640092
 21
836.82196408233506
 31
0.0
  0
LINE
  5
9BC4
  8
0
 62
     0
 10
411.63348164640092
 20
850.80677108233522
 30
0.0
 11
411.63348164640092
 21
847.84529208233505
 31
0.0
  0
LINE
  5
9BC5
  8
0
 62
     0
 10
411.63348164640092
 20
860.80624708233495
 30
0.0
 11
411.63348164640092
 21
857.8585550823351
 31
0.0
  0
LINE
  5
9BC6
  8
0
 62
     0
 10
344.55456064640077
 20
817.33639908233522
 30
0.0
 11
346.63348164640092
 21
817.8317960823349
 31
0.0
  0
LINE
  5
9BC7
  8
0
 62
     0
 10
346.63348164640092
 20
817.8317960823349
 30
0.0
 11
212.6334816464009
 21
817.8317960823349
 31
0.0
  0
LINE
  5
9BC8
  8
0
 62
     0
 10
214.71240264640119
 20
817.33639908233522
 30
0.0
 11
344.55456064640077
 21
817.33639908233522
 31
0.0
  0
LINE
  5
9BC9
  8
0
 62
     0
 10
344.55456064640077
 20
815.33639908233522
 30
0.0
 11
344.55456064640077
 21
817.33639908233522
 31
0.0
  0
LINE
  5
9BCA
  8
0
 62
     0
 10
346.63348164640092
 20
814.78609008233525
 30
0.0
 11
212.6334816464009
 21
814.78609008233525
 31
0.0
  0
LINE
  5
9BCB
  8
0
 62
     0
 10
214.71240264640119
 20
815.33639908233522
 30
0.0
 11
344.55456064640077
 21
815.33639908233522
 31
0.0
  0
LINE
  5
9BCC
  8
0
 62
     0
 10
344.55456064640077
 20
815.33639908233522
 30
0.0
 11
346.63348164640092
 21
814.78609008233525
 31
0.0
  0
LINE
  5
9BCD
  8
0
 62
     0
 10
346.63348164640092
 20
808.8317960823349
 30
0.0
 11
212.6334816464009
 21
808.8317960823349
 31
0.0
  0
LINE
  5
9BCE
  8
0
 62
     0
 10
214.71240264640119
 20
808.33639908233522
 30
0.0
 11
344.55456064640077
 21
808.33639908233522
 31
0.0
  0
LINE
  5
9BCF
  8
0
 62
     0
 10
346.63348164640092
 20
805.78609008233525
 30
0.0
 11
212.6670386464007
 21
805.78609008233525
 31
0.0
  0
LINE
  5
9BD0
  8
0
 62
     0
 10
214.71240264640119
 20
806.33639908233522
 30
0.0
 11
344.55456064640077
 21
806.33639908233522
 31
0.0
  0
LINE
  5
9BD1
  8
0
 62
     0
 10
344.55456064640077
 20
806.33639908233522
 30
0.0
 11
346.63348164640092
 21
805.78609008233525
 31
0.0
  0
LINE
  5
9BD2
  8
0
 62
     0
 10
346.63348164640092
 20
808.8317960823349
 30
0.0
 11
346.63348164640092
 21
805.78609008233525
 31
0.0
  0
LINE
  5
9BD3
  8
0
 62
     0
 10
344.55456064640077
 20
806.33639908233522
 30
0.0
 11
344.55456064640077
 21
808.33639908233522
 31
0.0
  0
LINE
  5
9BD4
  8
0
 62
     0
 10
344.55456064640077
 20
808.33639908233522
 30
0.0
 11
346.63348164640092
 21
808.8317960823349
 31
0.0
  0
LINE
  5
9BD5
  8
0
 62
     0
 10
346.63348164640092
 20
805.78609008233525
 30
0.0
 11
361.63348164640092
 21
805.78609008233525
 31
0.0
  0
LINE
  5
9BD6
  8
0
 62
     0
 10
361.63348164640092
 20
805.78609008233525
 30
0.0
 11
377.63348164640092
 21
801.44416508233519
 31
0.0
  0
LINE
  5
9BD7
  8
0
 62
     0
 10
212.6334816464009
 20
817.8317960823349
 30
0.0
 11
212.6334816464009
 21
814.78609008233525
 31
0.0
  0
LINE
  5
9BD8
  8
0
 62
     0
 10
212.6334816464009
 20
808.8317960823349
 30
0.0
 11
212.6334816464009
 21
805.78609008233525
 31
0.0
  0
LINE
  5
9BD9
  8
0
 62
     0
 10
214.71240264640119
 20
815.33639908233522
 30
0.0
 11
214.71240264640119
 21
817.33639908233522
 31
0.0
  0
LINE
  5
9BDA
  8
0
 62
     0
 10
214.71240264640119
 20
817.33639908233522
 30
0.0
 11
212.6334816464009
 21
817.8317960823349
 31
0.0
  0
LINE
  5
9BDB
  8
0
 62
     0
 10
214.71240264640119
 20
815.33639908233522
 30
0.0
 11
212.6334816464009
 21
814.78609008233525
 31
0.0
  0
LINE
  5
9BDC
  8
0
 62
     0
 10
214.71240264640119
 20
808.33639908233522
 30
0.0
 11
212.6334816464009
 21
808.8317960823349
 31
0.0
  0
LINE
  5
9BDD
  8
0
 62
     0
 10
214.71240264640119
 20
806.33639908233522
 30
0.0
 11
214.71240264640119
 21
808.33639908233522
 31
0.0
  0
LINE
  5
9BDE
  8
0
 62
     0
 10
214.71240264640119
 20
806.33639908233522
 30
0.0
 11
212.6334816464009
 21
805.78609008233525
 31
0.0
  0
LINE
  5
9BDF
  8
0
 62
     0
 10
209.1334816464009
 20
873.48017008233523
 30
0.0
 11
215.6334816464009
 21
873.48017008233523
 31
0.0
  0
LINE
  5
9BE0
  8
0
 62
     0
 10
209.1334816464009
 20
873.81424808233521
 30
0.0
 11
216.31348164640079
 21
873.81424808233521
 31
0.0
  0
LINE
  5
9BE1
  8
0
 62
     0
 10
217.6334816464009
 20
871.48017008233523
 30
0.0
 11
217.6334816464009
 21
865.8364030823351
 31
0.0
  0
LINE
  5
9BE2
  8
0
 62
     0
 10
219.31348164640079
 20
876.8142480823351
 30
0.0
 11
219.31348164640079
 21
865.8364030823351
 31
0.0
  0
ARC
  5
9BE3
  8
0
 62
     0
 10
216.31348164640079
 20
876.8142480823351
 30
0.0
 40
3.0
 50
270.0
 51
0.0
  0
LINE
  5
9BE4
  8
0
 62
     0
 10
209.1334816464009
 20
858.19263508233485
 30
0.0
 11
215.6334816464009
 21
858.19263508233485
 31
0.0
  0
LINE
  5
9BE5
  8
0
 62
     0
 10
209.1334816464009
 20
857.8585570823351
 30
0.0
 11
216.31348164640079
 21
857.8585570823351
 31
0.0
  0
LINE
  5
9BE6
  8
0
 62
     0
 10
217.6334816464009
 20
860.19263508233507
 30
0.0
 11
217.6334816464009
 21
865.8364030823351
 31
0.0
  0
LINE
  5
9BE7
  8
0
 62
     0
 10
219.31348164640079
 20
854.85855708233521
 30
0.0
 11
219.31348164640079
 21
865.8364030823351
 31
0.0
  0
ARC
  5
9BE8
  8
0
 62
     0
 10
216.31348164640079
 20
854.85855708233521
 30
0.0
 40
3.0
 50
359.99999799999722
 51
89.999998000010223
  0
ARC
  5
9BE9
  8
0
  6
CONTINUOUS
 62
     0
 10
394.33328064640091
 20
811.27773808233519
 30
0.0
 40
2.600398999999999
 50
179.99998200000081
 51
269.99997799999852
  0
ARC
  5
9BEA
  8
0
  6
CONTINUOUS
 62
     0
 10
394.33328064640091
 20
816.57772608233495
 30
0.0
 40
2.600403
 50
90.0
 51
179.99998200000081
  0
LINE
  5
9BEB
  8
0
  6
CONTINUOUS
 62
     0
 10
397.13348164640092
 20
813.99375708233515
 30
0.0
 11
395.63348164640092
 21
813.12773208233523
 31
0.0
  0
LINE
  5
9BEC
  8
0
  6
CONTINUOUS
 62
     0
 10
397.13348164640092
 20
814.99375708233504
 30
0.0
 11
395.63348164640092
 21
814.12773208233523
 31
0.0
  0
LINE
  5
9BED
  8
0
  6
CONTINUOUS
 62
     0
 10
397.13348164640092
 20
820.02773208233509
 30
0.0
 11
397.13348164640092
 21
807.82773208233505
 31
0.0
  0
LINE
  5
9BEE
  8
0
  6
CONTINUOUS
 62
     0
 10
395.63348164640092
 20
820.02773208233509
 30
0.0
 11
397.13348164640092
 21
820.02773208233509
 31
0.0
  0
LINE
  5
9BEF
  8
0
  6
CONTINUOUS
 62
     0
 10
395.63348164640092
 20
807.82773208233505
 30
0.0
 11
397.13348164640092
 21
807.82773208233505
 31
0.0
  0
LINE
  5
9BF0
  8
0
  6
CONTINUOUS
 62
     0
 10
391.73348764640087
 20
816.57772608233495
 30
0.0
 11
391.73348764640087
 21
811.27773808233519
 31
0.0
  0
LINE
  5
9BF1
  8
0
  6
CONTINUOUS
 62
     0
 10
395.63348164640092
 20
820.02773208233509
 30
0.0
 11
395.63348164640092
 21
807.82773208233505
 31
0.0
  0
LINE
  5
9BF2
  8
0
  6
CONTINUOUS
 62
     0
 10
395.63348164640092
 20
808.67773208233507
 30
0.0
 11
394.33328064640091
 21
808.67773208233507
 31
0.0
  0
LINE
  5
9BF3
  8
0
  6
CONTINUOUS
 62
     0
 10
395.63348164640092
 20
819.17773208233496
 30
0.0
 11
394.33328064640091
 21
819.17773208233496
 31
0.0
  0
ARC
  5
9BF4
  8
0
  6
CONTINUOUS
 62
     0
 10
394.33328064640091
 20
937.31966508233472
 30
0.0
 40
2.600398999999999
 50
179.99998200000081
 51
269.99997799999852
  0
ARC
  5
9BF5
  8
0
  6
CONTINUOUS
 62
     0
 10
394.33328064640091
 20
942.61965308233505
 30
0.0
 40
2.600403
 50
90.0
 51
179.99998200000081
  0
LINE
  5
9BF6
  8
0
  6
CONTINUOUS
 62
     0
 10
397.13348164640092
 20
940.03568408233502
 30
0.0
 11
395.63348164640092
 21
939.16965908233476
 31
0.0
  0
LINE
  5
9BF7
  8
0
  6
CONTINUOUS
 62
     0
 10
397.13348164640092
 20
941.03568408233502
 30
0.0
 11
395.63348164640092
 21
940.16965908233476
 31
0.0
  0
LINE
  5
9BF8
  8
0
  6
CONTINUOUS
 62
     0
 10
397.13348164640092
 20
946.06965908233508
 30
0.0
 11
397.13348164640092
 21
933.86965908233435
 31
0.0
  0
LINE
  5
9BF9
  8
0
  6
CONTINUOUS
 62
     0
 10
395.63348164640092
 20
946.06965908233508
 30
0.0
 11
397.13348164640092
 21
946.06965908233508
 31
0.0
  0
LINE
  5
9BFA
  8
0
  6
CONTINUOUS
 62
     0
 10
395.63348164640092
 20
933.86965908233435
 30
0.0
 11
397.13348164640092
 21
933.86965908233435
 31
0.0
  0
LINE
  5
9BFB
  8
0
  6
CONTINUOUS
 62
     0
 10
391.73348764640087
 20
942.61965308233505
 30
0.0
 11
391.73348764640087
 21
937.31966508233472
 31
0.0
  0
LINE
  5
9BFC
  8
0
  6
CONTINUOUS
 62
     0
 10
395.63348164640092
 20
946.06965908233508
 30
0.0
 11
395.63348164640092
 21
933.86965908233435
 31
0.0
  0
LINE
  5
9BFD
  8
0
  6
CONTINUOUS
 62
     0
 10
395.63348164640092
 20
934.71965908233506
 30
0.0
 11
394.33328064640091
 21
934.71965908233506
 31
0.0
  0
LINE
  5
9BFE
  8
0
  6
CONTINUOUS
 62
     0
 10
395.63348164640092
 20
945.21965908233506
 30
0.0
 11
394.33328064640091
 21
945.21965908233506
 31
0.0
  0
LINE
  5
9D59
  8
0
 62
     0
 10
432.63348164639967
 20
598.429827438708
 30
0.0
 11
416.63348164640092
 21
598.429827438708
 31
0.0
  0
LINE
  5
9D5A
  8
0
 62
     0
 10
432.63348164639967
 20
590.30582243870811
 30
0.0
 11
416.63348164640092
 21
590.30582243870811
 31
0.0
  0
LINE
  5
9D5B
  8
0
 62
     0
 10
432.63348164639967
 20
576.63211143870831
 30
0.0
 11
416.63348164640092
 21
576.63211143870831
 31
0.0
  0
LINE
  5
9D5C
  8
0
 62
     0
 10
432.63348164639967
 20
464.66418043870817
 30
0.0
 11
416.63348164640092
 21
464.66418043870817
 31
0.0
  0
LINE
  5
9D5D
  8
0
 62
     0
 10
432.63348164639967
 20
474.8434724387082
 30
0.0
 11
416.63348164640092
 21
474.84347243870832
 31
0.0
  0
LINE
  5
9D5E
  8
0
 62
     0
 10
432.63348164639967
 20
452.37689943870799
 30
0.0
 11
416.63348164640092
 21
452.37689943870822
 31
0.0
  0
LINE
  5
9D5F
  8
0
  6
CONTINUOUS
 62
     0
 10
416.63348164640092
 20
941.57604308233522
 30
0.0
 11
432.63341164640087
 21
941.57604308233522
 31
0.0
  0
LINE
  5
9D60
  8
0
  6
CONTINUOUS
 62
     0
 10
416.63348164640092
 20
927.90236108233535
 30
0.0
 11
432.63341164640087
 21
927.90236108233535
 31
0.0
  0
LINE
  5
9D61
  8
0
  6
CONTINUOUS
 62
     0
 10
416.63348164640092
 20
815.93440108233494
 30
0.0
 11
432.63341164640087
 21
815.93440108233494
 31
0.0
  0
LINE
  5
9D62
  8
0
  6
CONTINUOUS
 62
     0
 10
416.63348164640092
 20
826.11369308233509
 30
0.0
 11
432.63341164640087
 21
826.11369308233509
 31
0.0
  0
LINE
  5
9D63
  8
0
  6
CONTINUOUS
 62
     0
 10
416.63348164640092
 20
803.62676208233495
 30
0.0
 11
432.63341164640087
 21
803.62676208233495
 31
0.0
  0
LINE
  5
9D64
  8
0
 62
     0
 10
416.63348164640081
 20
869.83633908233514
 30
0.0
 11
416.63348164640092
 21
950.83639908233533
 31
0.0
  0
LINE
  5
9D67
  8
0
 62
     0
 10
413.63348164640092
 20
869.83633908233514
 30
0.0
 11
413.63348164640092
 21
927.90236108233535
 31
0.0
  0
TEXT
  5
A386
  8
0
  6
CONTINUOUS
 62
     0
 10
734.24089598946853
 20
870.86867937438365
 30
0.0
 40
15.0
  1
VX22-025EM~VX22-030EM
  0
ENDSEC
  0
EOF
