  0
SECTION
  2
HEADER
  9
$ACADVER
  1
AC1009
  9
$INSBASE
 10
0.0
 20
0.0
 30
0.0
  9
$EXTMIN
 10
90.252002918444745
 20
378.9314245458109
 30
-0.000000000000013
  9
$EXTMAX
 10
1052.788051272136
 20
1044.6476084760541
 30
0.0000000000000023
  9
$LIMMIN
 10
0.0000005999945643
 20
-0.0000005963913736
  9
$LIMMAX
 10
1422.5000005999941
 20
924.99999940360874
  9
$ORTHOMODE
 70
     0
  9
$REGENMODE
 70
     1
  9
$FILLMODE
 70
     1
  9
$QTEXTMODE
 70
     0
  9
$MIRRTEXT
 70
     0
  9
$DRAGMODE
 70
     2
  9
$LTSCALE
 40
1.0
  9
$OSMODE
 70
   551
  9
$ATTMODE
 70
     1
  9
$TEXTSIZE
 40
2.5
  9
$TRACEWID
 40
1.0
  9
$TEXTSTYLE
  7
STANDARD
  9
$CLAYER
  8
0
  9
$CELTYPE
  6
BYLAYER
  9
$CECOLOR
 62
   256
  9
$DIMSCALE
 40
1.0
  9
$DIMASZ
 40
2.0
  9
$DIMEXO
 40
1.0
  9
$DIMDLI
 40
8.0
  9
$DIMRND
 40
0.0
  9
$DIMDLE
 40
0.0
  9
$DIMEXE
 40
1.0
  9
$DIMTP
 40
-0.025
  9
$DIMTM
 40
0.043
  9
$DIMTXT
 40
2.5
  9
$DIMCEN
 40
0.0
  9
$DIMTSZ
 40
0.0
  9
$DIMTOL
 70
     0
  9
$DIMLIM
 70
     0
  9
$DIMTIH
 70
     0
  9
$DIMTOH
 70
     0
  9
$DIMSE1
 70
     0
  9
$DIMSE2
 70
     0
  9
$DIMTAD
 70
     3
  9
$DIMZIN
 70
     8
  9
$DIMBLK
  1

  9
$DIMASO
 70
     1
  9
$DIMSHO
 70
     1
  9
$DIMPOST
  1

  9
$DIMAPOST
  1
"
  9
$DIMALT
 70
     0
  9
$DIMALTD
 70
     2
  9
$DIMALTF
 40
0.0393701
  9
$DIMLFAC
 40
1.0
  9
$DIMTOFL
 70
     1
  9
$DIMTVP
 40
0.0
  9
$DIMTIX
 70
     0
  9
$DIMSOXD
 70
     0
  9
$DIMSAH
 70
     0
  9
$DIMBLK1
  1

  9
$DIMBLK2
  1

  9
$DIMSTYLE
  2
AM_JIS
  9
$DIMCLRD
 70
     2
  9
$DIMCLRE
 70
     2
  9
$DIMCLRT
 70
     4
  9
$DIMTFAC
 40
0.71
  9
$DIMGAP
 40
1.5
  9
$LUNITS
 70
     2
  9
$LUPREC
 70
     2
  9
$SKETCHINC
 40
1.0
  9
$FILLETRAD
 40
0.0
  9
$AUNITS
 70
     0
  9
$AUPREC
 70
     0
  9
$MENU
  1
.
  9
$ELEVATION
 40
0.0
  9
$PELEVATION
 40
0.0
  9
$THICKNESS
 40
0.0
  9
$LIMCHECK
 70
     0
  9
$BLIPMODE
 70
     0
  9
$CHAMFERA
 40
2.5
  9
$CHAMFERB
 40
2.5
  9
$SKPOLY
 70
     0
  9
$TDCREATE
 40
2456829.3841110538
  9
$TDUPDATE
 40
2458540.6862140512
  9
$TDINDWG
 40
0.5616009722000001
  9
$TDUSRTIMER
 40
0.5616005671
  9
$USRTIMER
 70
     1
  9
$ANGBASE
 50
0.0
  9
$ANGDIR
 70
     0
  9
$PDMODE
 70
     0
  9
$PDSIZE
 40
0.0
  9
$PLINEWID
 40
0.0
  9
$COORDS
 70
     1
  9
$SPLFRAME
 70
     0
  9
$SPLINETYPE
 70
     6
  9
$SPLINESEGS
 70
     8
  9
$ATTDIA
 70
     1
  9
$ATTREQ
 70
     1
  9
$HANDLING
 70
     1
  9
$HANDSEED
  5
ABF6
  9
$SURFTAB1
 70
     6
  9
$SURFTAB2
 70
     6
  9
$SURFTYPE
 70
     6
  9
$SURFU
 70
     6
  9
$SURFV
 70
     6
  9
$UCSNAME
  2

  9
$UCSORG
 10
0.0
 20
0.0
 30
0.0
  9
$UCSXDIR
 10
1.0
 20
0.0
 30
0.0
  9
$UCSYDIR
 10
0.0
 20
1.0
 30
0.0
  9
$PUCSNAME
  2

  9
$PUCSORG
 10
0.0
 20
0.0
 30
0.0
  9
$PUCSXDIR
 10
1.0
 20
0.0
 30
0.0
  9
$PUCSYDIR
 10
0.0
 20
1.0
 30
0.0
  9
$USERI1
 70
     0
  9
$USERI2
 70
     0
  9
$USERI3
 70
     0
  9
$USERI4
 70
     0
  9
$USERI5
 70
     0
  9
$USERR1
 40
0.0
  9
$USERR2
 40
0.0
  9
$USERR3
 40
0.0
  9
$USERR4
 40
0.0
  9
$USERR5
 40
0.0
  9
$WORLDVIEW
 70
     1
  9
$SHADEDGE
 70
     3
  9
$SHADEDIF
 70
    70
  9
$TILEMODE
 70
     1
  9
$MAXACTVP
 70
    64
  9
$PLIMCHECK
 70
     0
  9
$PEXTMIN
 10
1.0000000000000000E+020
 20
1.0000000000000000E+020
 30
1.0000000000000000E+020
  9
$PEXTMAX
 10
-1.0000000000000000E+020
 20
-1.0000000000000000E+020
 30
-1.0000000000000000E+020
  9
$PLIMMIN
 10
0.0
 20
0.0
  9
$PLIMMAX
 10
420.0
 20
297.0
  9
$UNITMODE
 70
     0
  9
$VISRETAIN
 70
     1
  9
$PLINEGEN
 70
     0
  9
$PSLTSCALE
 70
     1
  0
ENDSEC
  0
SECTION
  2
TABLES
  0
TABLE
  2
VPORT
 70
     1
  0
VPORT
  2
*ACTIVE
 70
     0
 10
0.0
 20
0.0
 11
1.0
 21
1.0
 12
571.52002709529029
 22
711.78951651093257
 13
0.0
 23
0.0
 14
12.5
 24
12.5
 15
50.0
 25
50.0
 16
0.0
 26
0.0
 36
1.0
 17
0.0
 27
0.0
 37
0.0
 40
670.28631791603448
 41
1.7571592210767459
 42
50.0
 43
0.0
 44
0.0
 50
0.0
 51
0.0
 71
     0
 72
  1000
 73
     1
 74
     3
 75
     0
 76
     0
 77
     0
 78
     0
  0
ENDTAB
  0
TABLE
  2
LTYPE
 70
    25
  0
LTYPE
  2
CONTINUOUS
 70
     0
  3
Solid line
 72
    65
 73
     0
 40
0.0
  0
LTYPE
  2
CENTER
 70
     0
  3
Center ____ _ ____ _ ____ _ ____ _ ____ _ ____
 72
    65
 73
     4
 40
50.799999999999997
 49
31.75
 49
-6.349999999999997
 49
6.349999999999997
 49
-6.349999999999997
  0
LTYPE
  2
AM_ISO02W050
 70
     0
  3
__ __ __ __ __ __ __ __ __ __ __ __ __ __ __
 72
    65
 73
     2
 40
7.5
 49
6.0
 49
-1.5
  0
LTYPE
  2
AM_ISO08W050
 70
     0
  3
____ . ____ . ____ . ____ . ____ . ____ . ____
 72
    65
 73
     4
 40
18.0
 49
12.0
 49
-1.5
 49
3.0
 49
-1.5
  0
LTYPE
  2
AM_ISO09W050
 70
     0
  3
_____ . . _____ . . _____ . . ____ .. ____
 72
    65
 73
     6
 40
22.5
 49
12.0
 49
-1.5
 49
3.0
 49
-1.5
 49
3.0
 49
-1.5
  0
LTYPE
  2
AMCONSTR
 70
     0
  3
_______________________
 72
    65
 73
     2
 40
9999.0
 49
9999.0
 49
0.0
  0
LTYPE
  2
AM_ISO08W050X2
 70
     0
  3
__ . __ . __ . __ . __ . __
 72
    65
 73
     4
 40
9.0
 49
6.0
 49
-0.75
 49
1.5
 49
-0.75
  0
LTYPE
  2
AM_ISO02W050X2
 70
     0
  3
 _ _ _ _ _ _ _ _ _ _ _ _
 72
    65
 73
     2
 40
3.75
 49
3.0
 49
-0.75
  0
LTYPE
  2
AMZIGZAG
 70
     0
  3
/\/-/\/-/\/-/\/-/\/-/\/
 72
    65
 73
     2
 40
11.0001
 49
0.0001
 49
-11.0
  0
LTYPE
  2
ACANSTGBM
 70
     0
  3
__ . . __ . .
 72
    65
 73
     6
 40
9.0
 49
4.0
 49
-1.0
 49
1.0
 49
-1.0
 49
1.0
 49
-1.0
  0
LTYPE
  2
ACANSTGLM
 70
     0
  3
_ _ _ _ _
 72
    65
 73
     2
 40
3.0
 49
2.0
 49
-1.0
  0
LTYPE
  2
ACISOWELD
 70
     0
  3
_ _ _ _ _
 72
    65
 73
     2
 40
2.0
 49
2.0
 49
-1.0
  0
LTYPE
  2
ACISOTGB
 70
     0
  3
__ . . __ . .
 72
    65
 73
     6
 40
9.0
 49
4.0
 49
-1.0
 49
1.0
 49
-1.0
 49
1.0
 49
-1.0
  0
LTYPE
  2
ACISOTGL
 70
     0
  3
_ _ _ _ _
 72
    65
 73
     2
 40
3.0
 49
2.0
 49
-1.0
  0
LTYPE
  2
ACJISWELD
 70
     0
  3
_ _ _ _ _
 72
    65
 73
     2
 40
2.0
 49
2.0
 49
-1.0
  0
LTYPE
  2
ACJISTGB
 70
     0
  3
__ . . __ . .
 72
    65
 73
     6
 40
9.0
 49
4.0
 49
-1.0
 49
1.0
 49
-1.0
 49
1.0
 49
-1.0
  0
LTYPE
  2
ACJISTGL
 70
     0
  3
_ _ _ _ _
 72
    65
 73
     2
 40
3.0
 49
2.0
 49
-1.0
  0
LTYPE
  2
HIDDEN
 70
     0
  3
Hidden __ __ __ __ __ __ __ __ __ __ __ __ __ _
 72
    65
 73
     2
 40
9.5249999999999968
 49
6.349999999999997
 49
-3.174999999999998
  0
LTYPE
  2
PHANTOM2
 70
     0
  3
Phantom (.5x) ___ _ _ ___ _ _ ___ _ _ ___ _ _
 72
    65
 73
     6
 40
31.75
 49
15.875
 49
-3.174999999999998
 49
3.174999999999998
 49
-3.174999999999998
 49
3.174999999999998
 49
-3.174999999999998
  0
LTYPE
  2
CENTER2
 70
     0
  3
Center (.5x) ___ _ ___ _ ___ _ ___ _ ___ _ ___
 72
    65
 73
     4
 40
1.125
 49
0.75
 49
-0.125
 49
0.125
 49
-0.125
  0
LTYPE
  2
HIDDEN2
 70
     0
  3
Hidden (.5x) _ _ _ _ _ _ _ _ _ _ _ _ _ _ _ _ _
 72
    65
 73
     2
 40
0.1875
 49
0.125
 49
-0.0625
  0
LTYPE
  2
AMZIGZAG2
 70
     0
  3
/\/-/\/-/\/-/\/-/\/-/\/
 72
    65
 73
     2
 40
0.4401
 49
0.0001
 49
-0.4400000000000001
  0
LTYPE
  2
ACANSTGB
 70
     0
  3
__ . . __ . .
 72
    65
 73
     6
 40
0.35433070866
 49
0.15748031496
 49
-0.03937007874
 49
0.03937007874
 49
-0.03937007874
 49
0.03937007874
 49
-0.03937007874
  0
LTYPE
  2
ACANSTGL
 70
     0
  3
_ _ _ _ _
 72
    65
 73
     2
 40
0.11811023622
 49
0.07874015748
 49
-0.03937007874
  0
ENDTAB
  0
TABLE
  2
LAYER
 70
     4
  0
LAYER
  2
0
 70
     0
 62
     7
  6
CONTINUOUS
  0
LAYER
  2
DEFPOINTS
 70
     0
 62
     7
  6
CONTINUOUS
  0
LAYER
  2
AM_CL
 70
     0
 62
     1
  6
AMCONSTR
  0
LAYER
  2
AM_5
 70
     0
 62
     2
  6
CONTINUOUS
  0
ENDTAB
  0
TABLE
  2
STYLE
 70
    10
  0
STYLE
  2
STANDARD
 70
     0
 40
0.0
 41
0.7400000000000003
 50
0.0
 71
     0
 42
2.5
  3
txt.shx
  4
bigfont.shx
  0
STYLE
  2
ANNOTATIVE
 70
     0
 40
0.0
 41
1.0
 50
0.0
 71
     0
 42
0.2
  3
txt
  4

  0
STYLE
  2

 70
     1
 40
0.0
 41
1.0
 50
0.0
 71
     0
 42
2.5
  3
ltypeshp.shx
  4

  0
STYLE
  2
ACANSTS
 70
     0
 40
1.0
 41
1.0
 50
0.0
 71
     0
 42
2.5
  3
romans.shx
  4
bigfont.shx
  0
STYLE
  2
ACANSGDT
 70
     0
 40
0.0
 41
1.0
 50
0.0
 71
     0
 42
2.5
  3
amgdt.shx
  4

  0
STYLE
  2
ACISOTS
 70
     0
 40
1.0
 41
1.0
 50
0.0
 71
     0
 42
2.5
  3
isocp.shx
  4
extfont.shx
  0
STYLE
  2
ACISOGDT
 70
     0
 40
0.0
 41
1.0
 50
0.0
 71
     0
 42
2.5
  3
amgdt.shx
  4

  0
STYLE
  2
ACJISGDT
 70
     0
 40
0.0
 41
1.0
 50
0.0
 71
     0
 42
2.5
  3
amgdt.shx
  4

  0
STYLE
  2
ACJISTS
 70
     0
 40
1.0
 41
1.0
 50
0.0
 71
     0
 42
2.5
  3
isocp.shx
  4
extfont.shx
  0
STYLE
  2

 70
     1
 40
0.0
 41
1.0
 50
0.0
 71
     0
 42
2.5
  3
genltshp.shx
  4

  0
ENDTAB
  0
TABLE
  2
VIEW
 70
     6
  0
VIEW
  2
AM_VIEW1
 70
     0
 40
462.5
 10
488.83452017294832
 20
693.74999940360874
 41
977.66903914590728
 11
0.0
 21
0.0
 31
1.0
 12
0.0
 22
0.0
 32
0.0
 42
50.0
 43
0.0
 44
0.0
 50
0.0
 71
     0
  0
VIEW
  2
AM_VIEW2
 70
     0
 40
462.5
 10
933.66548102704076
 20
693.74999940360874
 41
977.66903914590728
 11
0.0
 21
0.0
 31
1.0
 12
0.0
 22
0.0
 32
0.0
 42
50.0
 43
0.0
 44
0.0
 50
0.0
 71
     0
  0
VIEW
  2
AM_VIEW3
 70
     0
 40
462.5
 10
488.83452017294832
 20
231.24999940360871
 41
977.66903914590728
 11
0.0
 21
0.0
 31
1.0
 12
0.0
 22
0.0
 32
0.0
 42
50.0
 43
0.0
 44
0.0
 50
0.0
 71
     0
  0
VIEW
  2
AM_VIEW4
 70
     0
 40
462.5
 10
933.66548102704076
 20
231.24999940360871
 41
977.66903914590728
 11
0.0
 21
0.0
 31
1.0
 12
0.0
 22
0.0
 32
0.0
 42
50.0
 43
0.0
 44
0.0
 50
0.0
 71
     0
  0
VIEW
  2
AM_VIEW5
 70
     0
 40
462.5
 10
711.25000059999468
 20
462.49999940360868
 41
977.66903914590728
 11
0.0
 21
0.0
 31
1.0
 12
0.0
 22
0.0
 32
0.0
 42
50.0
 43
0.0
 44
0.0
 50
0.0
 71
     0
  0
VIEW
  2
AM_VIEW6
 70
     0
 40
924.99075000000005
 10
711.25000059999468
 20
462.49999940360868
 41
1955.318524911032
 11
0.0
 21
0.0
 31
1.0
 12
0.0
 22
0.0
 32
0.0
 42
50.0
 43
0.0
 44
0.0
 50
0.0
 71
     0
  0
ENDTAB
  0
TABLE
  2
UCS
 70
     0
  0
ENDTAB
  0
TABLE
  2
APPID
 70
   158
  0
APPID
  2
ACAD
 70
     0
  0
APPID
  2
ACADANNOTATIVE
 70
     0
  0
APPID
  2
ACAD_MLEADERVER
 70
     0
  0
APPID
  2
MCAD_NO_VIS
 70
     0
  0
APPID
  2
ACAD_TEMP_GRAPHIC
 70
     0
  0
APPID
  2
AD_DRAW
 70
     0
  0
APPID
  2
ACATTRIBSERVICES
 70
     0
  0
APPID
  2
DESIGNERASSEMBLIES
 70
     0
  0
APPID
  2
ACADM_DIM_EDIT
 70
     0
  0
APPID
  2
AMDT_DM_ADJ
 70
     0
  0
APPID
  2
GENIUS_GENDIMSH_14
 70
     0
  0
APPID
  2
GEVID1057795304
 70
     0
  0
APPID
  2
GEVDC
 70
     0
  0
APPID
  2
GEVCON
 70
     0
  0
APPID
  2
GENIUS_GENBH_13
 70
     0
  0
APPID
  2
GENIUS_GENOENT_13
 70
     0
  0
APPID
  2
GENIUS_GENOBJ-NBEHI-BHF_13
 70
     0
  0
APPID
  2
GENIUS_GENOLIS_13
 70
     0
  0
APPID
  2
GENIUS_GENODEF_13
 70
     0
  0
APPID
  2
GENIUS_GENOREF_13
 70
     0
  0
APPID
  2
GENIUS_GENOBJ-NBEHI-BHB_13
 70
     0
  0
APPID
  2
GENIUS_GENOBJ-F-SCPASSM_13
 70
     0
  0
APPID
  2
GENIUS_GENDTOL_13
 70
     0
  0
APPID
  2
GENIUS_GENTRA_14
 70
     0
  0
APPID
  2
ASURF_PCURVE_APPNAME
 70
     0
  0
APPID
  2
GENIUS_GENCFG_13
 70
     0
  0
APPID
  2
GENIUS_GE3CFG0_13
 70
     0
  0
APPID
  2
GENIUS_GENCFG0_13
 70
     0
  0
APPID
  2
GENIUS_GENCFG1_13
 70
     0
  0
APPID
  2
GENIUS_GENCFG2_13
 70
     0
  0
APPID
  2
GENIUS_GENCFG3_13
 70
     0
  0
APPID
  2
GENIUS_GENCFG4_13
 70
     0
  0
APPID
  2
GENIUS_GEVCFG0_13
 70
     0
  0
APPID
  2
GENIUS_GENOBJ-N-TIT_13
 70
     0
  0
APPID
  2
GENIUS_GENTITLE_13
 70
     0
  0
APPID
  2
GENIUS_GENSCREG_15
 70
     0
  0
APPID
  2
GENIUS_GENOBJ-N-SDF_13
 70
     0
  0
APPID
  2
GENIUS_GENFIL_13
 70
     0
  0
APPID
  2
GENIUS_GENOBJ-N-CHA_13
 70
     0
  0
APPID
  2
GENIUS_GEFSH_13
 70
     0
  0
APPID
  2
GENIUS_GENOBJ-F-SHS_13
 70
     0
  0
APPID
  2
GENIUS_GENOBJ-N-CEN_13
 70
     0
  0
APPID
  2
GENIUS_GENREC_14
 70
     0
  0
APPID
  2
GENIUS_GENOBJ-N-REC_13
 70
     0
  0
APPID
  2
GENIUS_GENOBJ-N-HTC_13
 70
     0
  0
APPID
  2
GENIUS_GENHATCH_13
 70
     0
  0
APPID
  2
ACAD_PSEXT
 70
     0
  0
APPID
  2
ACAD_EXEMPT_FROM_CAD_STANDARDS
 70
     0
  0
APPID
  2
ACAECLAYERSTANDARD
 70
     0
  0
APPID
  2
GENIUS_GENCEN_19
 70
     0
  0
APPID
  2
ACAD_DSTYLE_DIMINSPECT
 70
     0
  0
APPID
  2
ACAD_DSTYLE_DIMANGULAR_EXT
 70
     0
  0
APPID
  2
ACADANNOPO
 70
     0
  0
APPID
  2
ACAD_NAV_VCDISPLAY
 70
     0
  0
APPID
  2
GENIUS_GENOBJ-N-FIL_13
 70
     0
  0
APPID
  2
ACAD_DSTYLE_DIMBREAK
 70
     0
  0
APPID
  2
ACAD_DSTYLE_DIMJAG
 70
     0
  0
APPID
  2
ACAD_DSTYLE_DIMRADIAL_EXTENSION
 70
     0
  0
APPID
  2
GENIUS_GENHINW_13
 70
     0
  0
APPID
  2
GENIUS_FIRSTVISTXT_14
 70
     0
  0
APPID
  2
GENIUS_GENOBJ-N-LEADER_13
 70
     0
  0
APPID
  2
DCO15
 70
     0
  0
APPID
  2
GENIUS_DUMCFG0_13
 70
     0
  0
APPID
  2
ACAD_DSTYLE_DIMTEXT_FILL
 70
     0
  0
APPID
  2
AMG_2DHIDE
 70
     0
  0
APPID
  2
GENIUS_GEFSHEP_13
 70
     0
  0
APPID
  2
GENIUS_GENOBJ-F-SHE_13
 70
     0
  0
APPID
  2
GENIUS_GEFSHE_13
 70
     0
  0
APPID
  2
ACAD_DIMASSOC_DIMLFAC
 70
     0
  0
APPID
  2
ACAD_DIMASSOC_CALC_DIMLFAC
 70
     0
  0
APPID
  2
ACAD_DIMASSOC_OVERRIDDEN_D
 70
     0
  0
APPID
  2
GENIUS_GENOBJ-F-SHSV_13
 70
     0
  0
APPID
  2
GENIUS_GEFWELD_13
 70
     0
  0
APPID
  2
GENIUS_GENOBJ-N-CRS_13
 70
     0
  0
APPID
  2
GENIUS_GENOBJ-N-RSBK_13
 70
     0
  0
APPID
  2
GENIUS_GENOBJ-N-LIB_13
 70
     0
  0
APPID
  2
GENIUS_GENSCALE_13
 70
     0
  0
APPID
  2
GENIUS_GENDREL_13
 70
     0
  0
APPID
  2
GEVPT
 70
     0
  0
APPID
  2
GEVIT
 70
     0
  0
APPID
  2
VCC
 70
     0
  0
APPID
  2
GENBH
 70
     0
  0
APPID
  2
GEVMK
 70
     0
  0
APPID
  2
GENIUS_GENOBJ-F-DESC_13
 70
     0
  0
APPID
  2
GENIUS_GEFDESC_14
 70
     0
  0
APPID
  2
GENIUS_GENOBJ-F-FEAT_13
 70
     0
  0
APPID
  2
GENIUS_GEFFEAT_14
 70
     0
  0
APPID
  2
GENIUS_GEFPARTINS_13
 70
     0
  0
APPID
  2
GENIUS_GENSCREG_13
 70
     0
  0
APPID
  2
GENIUS_GEFSHP_13
 70
     0
  0
APPID
  2
GEVID1025574798
 70
     0
  0
APPID
  2
GEVID1025574769
 70
     0
  0
APPID
  2
GEVID1025757451
 70
     0
  0
APPID
  2
GEVID1240528327
 70
     0
  0
APPID
  2
AMG_2DSTRUCT_BTR
 70
     0
  0
APPID
  2
ACADM_2DVIEW_IGN_NOTIFY
 70
     0
  0
APPID
  2
GEVID1240528328
 70
     0
  0
APPID
  2
GEVID1240528329
 70
     0
  0
APPID
  2
GEVRADREF
 70
     0
  0
APPID
  2
GEVID1240528330
 70
     0
  0
APPID
  2
GEVID1240528331
 70
     0
  0
APPID
  2
GEVID1240528332
 70
     0
  0
APPID
  2
GEVID1240791080
 70
     0
  0
APPID
  2
GEVID1240791081
 70
     0
  0
APPID
  2
GEVID1240791082
 70
     0
  0
APPID
  2
GEVID1240791083
 70
     0
  0
APPID
  2
GEVID1240791084
 70
     0
  0
APPID
  2
GEVID1240791085
 70
     0
  0
APPID
  2
GEVID1240791086
 70
     0
  0
APPID
  2
GEVID1240791087
 70
     0
  0
APPID
  2
GEVID1240791088
 70
     0
  0
APPID
  2
GEVID1240791089
 70
     0
  0
APPID
  2
GEVID1240791090
 70
     0
  0
APPID
  2
GEVID1240791091
 70
     0
  0
APPID
  2
GEVID1240791092
 70
     0
  0
APPID
  2
GEVID1240791093
 70
     0
  0
APPID
  2
GEVID1240791094
 70
     0
  0
APPID
  2
GEVID1240791095
 70
     0
  0
APPID
  2
GEVID1240791096
 70
     0
  0
APPID
  2
GEVID1240791097
 70
     0
  0
APPID
  2
GEVID1240791098
 70
     0
  0
APPID
  2
GEVID1240791099
 70
     0
  0
APPID
  2
GEVID1240791100
 70
     0
  0
APPID
  2
GEVID1240791101
 70
     0
  0
APPID
  2
GEVID1240791102
 70
     0
  0
APPID
  2
GEVID1240791103
 70
     0
  0
APPID
  2
GEVID1240791104
 70
     0
  0
APPID
  2
GEVID1240791105
 70
     0
  0
APPID
  2
GEVID1240875381
 70
     0
  0
APPID
  2
GEVID1240875382
 70
     0
  0
APPID
  2
GEVID1240875383
 70
     0
  0
APPID
  2
GEVID1240875384
 70
     0
  0
APPID
  2
GEVID1240875385
 70
     0
  0
APPID
  2
GEVID1240875386
 70
     0
  0
APPID
  2
GEVID1240875387
 70
     0
  0
APPID
  2
GEVID1240875388
 70
     0
  0
APPID
  2
GEVID1240875389
 70
     0
  0
APPID
  2
GEVID1240875390
 70
     0
  0
APPID
  2
GEVID1240875391
 70
     0
  0
APPID
  2
GEVID1240875392
 70
     0
  0
APPID
  2
GEVID1240875393
 70
     0
  0
APPID
  2
GEVID1240875394
 70
     0
  0
APPID
  2
GEVID1240875395
 70
     0
  0
APPID
  2
GEVID1240875396
 70
     0
  0
APPID
  2
GEVID1240875397
 70
     0
  0
APPID
  2
GEVID1240875398
 70
     0
  0
APPID
  2
GEVID1240875399
 70
     0
  0
APPID
  2
GEVID1240908996
 70
     0
  0
APPID
  2
GEVID1240908997
 70
     0
  0
APPID
  2
GEVID1240908998
 70
     0
  0
APPID
  2
GEVID1240908999
 70
     0
  0
APPID
  2
GEVID1240909000
 70
     0
  0
APPID
  2
GENIUS_GENOBJ-N-ZOO_13
 70
     0
  0
APPID
  2
GENIUS_GENZOO_17
 70
     0
  0
APPID
  2
GENIUS_GE3SECT_13
 70
     0
  0
APPID
  2
GEV_VCCNULL_SWITCH_OFF
 70
     0
  0
APPID
  2
ACAD_DSTYLE_DIMTALN
 70
     0
  0
APPID
  2
CONTENTBLOCKDESCRIPTION
 70
     0
  0
ENDTAB
  0
TABLE
  2
DIMSTYLE
 70
    24
  0
DIMSTYLE
  2
STANDARD
 70
     0
  3

  4

  5

  6

  7

 40
1.0
 41
0.18
 42
0.0625
 43
0.38
 44
0.18
 45
0.0
 46
0.0
 47
0.0
 48
0.0
140
0.18
141
0.09
142
0.0
143
25.399999999999999
144
1.0
145
0.0
146
1.0
147
0.09
 71
     0
 72
     0
 73
     1
 74
     1
 75
     0
 76
     0
 77
     0
 78
     0
170
     0
171
     2
172
     0
173
     0
174
     0
175
     0
176
     0
177
     0
178
     0
  0
DIMSTYLE
  2
ANNOTATIVE
 70
     0
  3

  4

  5

  6

  7

 40
1.0
 41
0.18
 42
0.0625
 43
0.38
 44
0.18
 45
0.0
 46
0.0
 47
0.0
 48
0.0
140
0.18
141
0.09
142
0.0
143
25.399999999999999
144
1.0
145
0.0
146
1.0
147
0.09
 71
     0
 72
     0
 73
     1
 74
     1
 75
     0
 76
     0
 77
     0
 78
     0
170
     0
171
     2
172
     0
173
     0
174
     0
175
     0
176
     0
177
     0
178
     0
  0
DIMSTYLE
  2
AM_ANSI
 70
     0
  3

  4
"
  5

  6

  7

 40
1.0
 41
2.5
 42
1.0
 43
10.0
 44
1.0
 45
0.0
 46
0.0
 47
0.1
 48
0.1
140
3.5
141
0.0
142
0.0
143
0.0393701
144
1.0
145
0.0
146
0.71
147
1.5
 71
     0
 72
     0
 73
     1
 74
     1
 75
     0
 76
     0
 77
     0
 78
     8
170
     0
171
     2
172
     0
173
     0
174
     0
175
     0
176
     2
177
     2
178
     4
  0
DIMSTYLE
  2
AM_ANSI$3
 70
     0
  3

  4
"
  5

  6

  7

 40
1.0
 41
2.5
 42
1.0
 43
10.0
 44
1.0
 45
0.0
 46
0.0
 47
0.1
 48
0.1
140
3.5
141
0.0
142
0.0
143
0.0393701
144
1.0
145
0.0
146
0.71
147
1.5
 71
     0
 72
     0
 73
     1
 74
     1
 75
     0
 76
     0
 77
     0
 78
     8
170
     0
171
     2
172
     0
173
     0
174
     0
175
     0
176
     2
177
     2
178
     4
  0
DIMSTYLE
  2
AM_ANSI$4
 70
     0
  3

  4
"
  5

  6

  7

 40
1.0
 41
2.5
 42
1.0
 43
10.0
 44
1.0
 45
0.0
 46
0.0
 47
0.1
 48
0.1
140
3.5
141
0.0
142
0.0
143
0.0393701
144
1.0
145
0.0
146
0.71
147
1.5
 71
     0
 72
     0
 73
     1
 74
     1
 75
     0
 76
     0
 77
     0
 78
     8
170
     0
171
     2
172
     0
173
     0
174
     0
175
     0
176
     2
177
     2
178
     4
  0
DIMSTYLE
  2
AM_ANSI$7
 70
     0
  3

  4
"
  5

  6

  7

 40
1.0
 41
2.5
 42
1.0
 43
10.0
 44
1.0
 45
0.0
 46
0.0
 47
0.1
 48
0.1
140
5.0
141
0.0
142
0.0
143
0.0393701
144
1.0
145
0.0
146
0.71
147
1.5
 71
     0
 72
     0
 73
     1
 74
     1
 75
     0
 76
     0
 77
     0
 78
     8
170
     0
171
     2
172
     0
173
     0
174
     0
175
     0
176
     2
177
     2
178
     4
  0
DIMSTYLE
  2
AM_ANSI$SF
 70
     0
  3

  4
"
  5

  6

  7

 40
1.0
 41
2.5
 42
1.0
 43
10.0
 44
1.0
 45
0.0
 46
0.0
 47
0.1
 48
0.1
140
3.5
141
0.0
142
0.0
143
0.0393701
144
1.0
145
0.0
146
0.71
147
1.5
 71
     0
 72
     0
 73
     1
 74
     1
 75
     1
 76
     1
 77
     0
 78
     8
170
     0
171
     2
172
     0
173
     0
174
     0
175
     0
176
     2
177
     2
178
     4
  0
DIMSTYLE
  2
AM_ANSI$SH
 70
     0
  3

  4
"
  5

  6

  7

 40
1.0
 41
2.5
 42
1.0
 43
10.0
 44
1.0
 45
0.0
 46
0.0
 47
0.1
 48
0.1
140
3.5
141
0.0
142
0.0
143
0.0393701
144
1.0
145
0.0
146
0.71
147
1.5
 71
     0
 72
     0
 73
     1
 74
     1
 75
     1
 76
     1
 77
     0
 78
     8
170
     0
171
     2
172
     0
173
     1
174
     0
175
     0
176
     2
177
     2
178
     4
  0
DIMSTYLE
  2
AM_ISO
 70
     0
  3

  4
"
  5

  6

  7

 40
1.0
 41
2.5
 42
1.0
 43
10.0
 44
1.0
 45
0.0
 46
0.0
 47
0.1
 48
0.1
140
3.5
141
0.0
142
0.0
143
0.0393701
144
1.0
145
0.0
146
0.71
147
1.5
 71
     0
 72
     0
 73
     0
 74
     0
 75
     0
 76
     0
 77
     1
 78
     8
170
     0
171
     2
172
     1
173
     0
174
     0
175
     0
176
   256
177
   256
178
     2
  0
DIMSTYLE
  2
AM_ISO$3
 70
     0
  3

  4
"
  5

  6

  7

 40
1.0
 41
2.5
 42
1.0
 43
10.0
 44
1.0
 45
0.0
 46
0.0
 47
0.1
 48
0.1
140
3.5
141
0.0
142
0.0
143
0.0393701
144
1.0
145
0.0
146
0.71
147
1.5
 71
     0
 72
     0
 73
     0
 74
     1
 75
     0
 76
     0
 77
     1
 78
     8
170
     0
171
     2
172
     0
173
     0
174
     0
175
     0
176
   256
177
   256
178
     2
  0
DIMSTYLE
  2
AM_ISO$4
 70
     0
  3

  4
"
  5

  6

  7

 40
1.0
 41
2.5
 42
1.0
 43
10.0
 44
1.0
 45
0.0
 46
0.0
 47
0.1
 48
0.1
140
3.5
141
0.0
142
0.0
143
0.0393701
144
1.0
145
0.0
146
0.71
147
1.5
 71
     0
 72
     0
 73
     0
 74
     1
 75
     0
 76
     0
 77
     1
 78
     8
170
     0
171
     2
172
     0
173
     0
174
     0
175
     0
176
   256
177
   256
178
     2
  0
DIMSTYLE
  2
AM_ISO$6
 70
     0
  3

  4
"
  5

  6

  7

 40
1.0
 41
2.5
 42
1.0
 43
10.0
 44
1.0
 45
0.0
 46
0.0
 47
0.1
 48
0.1
140
3.5
141
0.0
142
0.0
143
0.0393701
144
1.0
145
0.0
146
0.71
147
1.5
 71
     0
 72
     0
 73
     0
 74
     0
 75
     0
 76
     0
 77
     0
 78
     8
170
     0
171
     2
172
     1
173
     0
174
     0
175
     0
176
   256
177
   256
178
     2
  0
DIMSTYLE
  2
AM_ISO$7
 70
     0
  3

  4
"
  5

  6

  7

 40
1.0
 41
2.5
 42
1.0
 43
10.0
 44
1.0
 45
0.0
 46
0.0
 47
0.1
 48
0.1
140
5.0
141
0.0
142
0.0
143
0.0393701
144
1.0
145
0.0
146
0.71
147
1.5
 71
     0
 72
     0
 73
     0
 74
     0
 75
     0
 76
     0
 77
     1
 78
     8
170
     0
171
     2
172
     1
173
     0
174
     0
175
     0
176
   256
177
   256
178
     2
  0
DIMSTYLE
  2
AM_ISO$SF
 70
     0
  3

  4
"
  5

  6

  7

 40
1.0
 41
2.5
 42
1.0
 43
10.0
 44
1.0
 45
0.0
 46
0.0
 47
0.1
 48
0.1
140
3.5
141
0.0
142
0.0
143
0.0393701
144
1.0
145
0.0
146
0.71
147
1.5
 71
     0
 72
     0
 73
     0
 74
     0
 75
     1
 76
     1
 77
     1
 78
     8
170
     0
171
     2
172
     1
173
     0
174
     0
175
     0
176
   256
177
   256
178
     2
  0
DIMSTYLE
  2
AM_ISO$SH
 70
     0
  3

  4
"
  5

  6

  7

 40
1.0
 41
2.5
 42
1.0
 43
10.0
 44
1.0
 45
0.0
 46
0.0
 47
0.1
 48
0.1
140
3.5
141
0.0
142
0.0
143
0.0393701
144
2.0
145
0.0
146
0.71
147
1.5
 71
     0
 72
     0
 73
     0
 74
     0
 75
     1
 76
     1
 77
     1
 78
     8
170
     0
171
     2
172
     1
173
     1
174
     0
175
     0
176
   256
177
   256
178
     2
  0
DIMSTYLE
  2
AM_JIS
 70
     0
  3

  4
"
  5

  6

  7

 40
1.0
 41
2.0
 42
1.0
 43
8.0
 44
1.0
 45
0.0
 46
0.0
 47
0.1
 48
0.1
140
2.5
141
0.0
142
0.0
143
0.0393701
144
1.0
145
0.0
146
0.71
147
1.5
 71
     0
 72
     0
 73
     0
 74
     0
 75
     0
 76
     0
 77
     3
 78
     8
170
     0
171
     2
172
     1
173
     0
174
     0
175
     0
176
     2
177
     2
178
     4
  0
DIMSTYLE
  2
AM_JIS$3
 70
     0
  3

  4
"
  5

  6

  7

 40
1.0
 41
2.0
 42
1.0
 43
10.0
 44
1.0
 45
0.0
 46
0.0
 47
0.1
 48
0.1
140
2.5
141
0.0
142
0.0
143
0.0393701
144
1.0
145
0.0
146
0.71
147
1.5
 71
     0
 72
     0
 73
     0
 74
     1
 75
     0
 76
     0
 77
     3
 78
     8
170
     0
171
     2
172
     0
173
     0
174
     0
175
     0
176
     2
177
     2
178
     4
  0
DIMSTYLE
  2
AM_JIS$4
 70
     0
  3

  4
"
  5

  6

  7

 40
1.0
 41
2.0
 42
1.0
 43
10.0
 44
1.0
 45
0.0
 46
0.0
 47
0.1
 48
0.1
140
2.5
141
0.0
142
0.0
143
0.0393701
144
1.0
145
0.0
146
0.71
147
1.5
 71
     0
 72
     0
 73
     0
 74
     0
 75
     0
 76
     0
 77
     3
 78
     8
170
     0
171
     2
172
     0
173
     0
174
     0
175
     0
176
     2
177
     2
178
     4
  0
DIMSTYLE
  2
AM_JIS$6
 70
     0
  3

  4
"
  5

  6

  7

 40
1.0
 41
2.0
 42
1.0
 43
10.0
 44
1.0
 45
0.0
 46
0.0
 47
0.1
 48
0.1
140
2.5
141
0.0
142
0.0
143
0.0393701
144
1.0
145
0.0
146
0.71
147
1.5
 71
     0
 72
     0
 73
     0
 74
     0
 75
     0
 76
     0
 77
     0
 78
     8
170
     0
171
     2
172
     1
173
     0
174
     0
175
     0
176
     2
177
     2
178
     4
  0
DIMSTYLE
  2
AM_JIS$7
 70
     0
  3

  4
"
  5

  6

  7

 40
1.0
 41
2.0
 42
1.0
 43
10.0
 44
1.0
 45
0.0
 46
0.0
 47
0.1
 48
0.1
140
2.5
141
0.0
142
0.0
143
0.0393701
144
1.0
145
0.0
146
0.71
147
1.5
 71
     0
 72
     0
 73
     0
 74
     0
 75
     0
 76
     0
 77
     3
 78
     8
170
     0
171
     2
172
     1
173
     0
174
     0
175
     0
176
     2
177
     2
178
     4
  0
DIMSTYLE
  2
AM_JIS$SF
 70
     0
  3

  4
"
  5

  6

  7

 40
1.0
 41
2.0
 42
1.0
 43
10.0
 44
1.0
 45
0.0
 46
0.0
 47
0.1
 48
0.1
140
2.5
141
0.0
142
0.0
143
0.0393701
144
1.0
145
0.0
146
0.71
147
1.5
 71
     0
 72
     0
 73
     0
 74
     0
 75
     1
 76
     1
 77
     3
 78
     8
170
     0
171
     2
172
     1
173
     0
174
     0
175
     0
176
     2
177
     2
178
     4
  0
DIMSTYLE
  2
AM_JIS$SH
 70
     0
  3

  4
"
  5

  6

  7

 40
1.0
 41
2.0
 42
1.0
 43
10.0
 44
1.0
 45
0.0
 46
0.0
 47
0.1
 48
0.1
140
2.5
141
0.0
142
0.0
143
0.0393701
144
2.0
145
0.0
146
0.71
147
1.5
 71
     0
 72
     0
 73
     0
 74
     0
 75
     1
 76
     1
 77
     3
 78
     8
170
     0
171
     2
172
     1
173
     1
174
     0
175
     0
176
     2
177
     2
178
     4
  0
DIMSTYLE
  2
AM_JIS$0
 70
     0
  3

  4
"
  5

  6

  7

 40
1.0
 41
2.0
 42
1.0
 43
8.0
 44
1.0
 45
0.0
 46
0.0
 47
0.1
 48
0.1
140
2.5
141
0.0
142
0.0
143
0.0393701
144
1.0
145
0.0
146
0.71
147
1.5
 71
     0
 72
     0
 73
     0
 74
     0
 75
     0
 76
     0
 77
     3
 78
     8
170
     0
171
     2
172
     1
173
     0
174
     0
175
     0
176
     2
177
     2
178
     4
  0
DIMSTYLE
  2
AM_JIS$2
 70
     0
  3

  4
"
  5

  6

  7

 40
1.0
 41
2.0
 42
1.0
 43
8.0
 44
1.0
 45
0.0
 46
0.0
 47
0.1
 48
0.1
140
2.5
141
0.0
142
0.0
143
0.0393701
144
1.0
145
0.0
146
0.71
147
1.5
 71
     0
 72
     0
 73
     0
 74
     0
 75
     0
 76
     0
 77
     3
 78
     8
170
     0
171
     2
172
     1
173
     0
174
     0
175
     0
176
     2
177
     2
178
     4
  0
ENDTAB
  0
ENDSEC
  0
SECTION
  2
BLOCKS
  0
BLOCK
  8
0
  2
$MODEL_SPACE
 70
     0
 10
0.0
 20
0.0
 30
0.0
  3
$MODEL_SPACE
  1

  0
ENDBLK
  5
AA3A
  8
0
  0
BLOCK
 67
     1
  8
0
  2
$PAPER_SPACE
 70
     0
 10
0.0
 20
0.0
 30
0.0
  3
$PAPER_SPACE
  1

  0
ENDBLK
  5
AA36
 67
     1
  8
0
  0
BLOCK
  8
0
  2
GENAXEH
 70
     0
 10
0.0
 20
0.0
 30
0.0
  3
GENAXEH
  1

  0
LINE
  5
A5F3
  8
0
 10
-1.0
 20
0.0
 30
0.0
 11
1.0
 21
0.0
 31
0.0
  0
ENDBLK
  5
A5F4
  8
0
  0
BLOCK
  8
0
  2
_OPEN30
 70
     0
 10
0.0
 20
0.0
 30
0.0
  3
_OPEN30
  1

  0
LINE
  5
A63A
  8
0
  6
BYBLOCK
 62
     0
 10
-1.0
 20
0.26794919
 30
0.0
 11
0.0
 21
0.0
 31
0.0
  0
LINE
  5
A63B
  8
0
  6
BYBLOCK
 62
     0
 10
0.0
 20
0.0
 30
0.0
 11
-1.0
 21
-0.26794919
 31
0.0
  0
LINE
  5
A63C
  8
0
  6
BYBLOCK
 62
     0
 10
0.0
 20
0.0
 30
0.0
 11
-1.0
 21
0.0
 31
0.0
  0
ENDBLK
  5
A63D
  8
0
  0
BLOCK
  8
0
  2
_ACMOPEN15
 70
     0
 10
0.0
 20
0.0
 30
0.0
  3
_ACMOPEN15
  1

  0
LINE
  5
9EA5
  8
0
 62
     0
 10
-1.0
 20
0.0
 30
0.0
 11
0.0
 21
0.0
 31
0.0
  0
LINE
  5
9EA6
  8
0
 62
     0
 10
-1.0
 20
-0.131652497
 30
0.0
 11
0.0
 21
0.0
 31
0.0
  0
LINE
  5
9EA7
  8
0
 62
     0
 10
0.0
 20
0.0
 30
0.0
 11
-1.0
 21
0.131652497
 31
0.0
  0
ENDBLK
  5
9EA8
  8
0
  0
BLOCK
  8
0
  2
_ACMFILLEDHALF
 70
     0
 10
0.0
 20
0.0
 30
0.0
  3
_ACMFILLEDHALF
  1

  0
TRACE
  5
9E2D
  8
0
 62
     0
 10
-0.8
 20
0.0
 30
0.0
 11
-1.0
 21
0.166666666
 31
0.0
 12
0.0
 22
0.0
 32
0.0
 13
0.0
 23
0.0
 33
0.0
  0
LINE
  5
9E2E
  8
0
 62
     0
 10
-1.0
 20
0.0
 30
0.0
 11
-0.8
 21
0.0
 31
0.0
  0
ENDBLK
  5
9E2F
  8
0
  0
BLOCK
  8
0
  2
_ACMFILLED
 70
     0
 10
0.0
 20
0.0
 30
0.0
  3
_ACMFILLED
  1

  0
TRACE
  5
9E3D
  8
0
 62
     0
 10
-1.0
 20
-0.166666666
 30
0.0
 11
-1.0
 21
0.166666666
 31
0.0
 12
0.0
 22
0.0
 32
0.0
 13
0.0
 23
0.0
 33
0.0
  0
ENDBLK
  5
9E3E
  8
0
  0
BLOCK
  8
0
  2
_ACMFILLED15
 70
     0
 10
0.0
 20
0.0
 30
0.0
  3
_ACMFILLED15
  1

  0
TRACE
  5
9E72
  8
0
 62
     0
 10
-1.0
 20
-0.131652497
 30
0.0
 11
-1.0
 21
0.131652497
 31
0.0
 12
0.0
 22
0.0
 32
0.0
 13
0.0
 23
0.0
 33
0.0
  0
ENDBLK
  5
9E73
  8
0
  0
BLOCK
  8
0
  6
BYBLOCK
 62
     0
  2
$6-45
 70
     0
 10
0.0
 20
0.0
 30
0.0
  3
$6-45
  1

  0
ARC
  5
9EEB
  8
0
  6
CONTINUOUS
 62
     3
 10
-2.6499939999999991
 20
2.8002009999999982
 30
0.0
 40
2.600398999999999
 50
89.99998199999996
 51
179.999978
  0
ARC
  5
9EEC
  8
0
  6
CONTINUOUS
 62
     3
 10
2.6499939999999991
 20
2.8002009999999982
 30
0.0
 40
2.600403
 50
0.0
 51
89.99998199999996
  0
LINE
  5
9EED
  8
0
  6
CONTINUOUS
 62
     0
 10
0.066025
 20
0.0
 30
0.0
 11
-0.8
 21
1.5
 31
0.0
  0
LINE
  5
9EEE
  8
0
  6
CONTINUOUS
 62
     0
 10
1.066025
 20
0.0
 30
0.0
 11
0.2
 21
1.5
 31
0.0
  0
LINE
  5
9EEF
  8
0
  6
CONTINUOUS
 62
     0
 10
6.099999999999997
 20
0.0
 30
0.0
 11
-6.099999999999997
 21
0.0
 31
0.0
  0
LINE
  5
9EF0
  8
0
  6
CONTINUOUS
 62
     0
 10
6.099999999999997
 20
1.5
 30
0.0
 11
6.099999999999997
 21
0.0
 31
0.0
  0
LINE
  5
9EF1
  8
0
  6
CONTINUOUS
 62
     0
 10
-6.099999999999997
 20
1.5
 30
0.0
 11
-6.099999999999997
 21
0.0
 31
0.0
  0
LINE
  5
9EF2
  8
0
  6
CONTINUOUS
 62
     3
 10
2.6499939999999991
 20
5.3999940000000004
 30
0.0
 11
-2.6499939999999991
 21
5.3999940000000004
 31
0.0
  0
LINE
  5
9EF3
  8
0
  6
CONTINUOUS
 62
     3
 10
6.099999999999997
 20
1.5
 30
0.0
 11
-6.099999999999997
 21
1.5
 31
0.0
  0
LINE
  5
9EF4
  8
0
  6
CONTINUOUS
 62
     3
 10
-5.25
 20
1.5
 30
0.0
 11
-5.25
 21
2.8002009999999982
 31
0.0
  0
LINE
  5
9EF5
  8
0
  6
CONTINUOUS
 62
     3
 10
5.25
 20
1.5
 30
0.0
 11
5.25
 21
2.8002009999999982
 31
0.0
  0
ENDBLK
  5
9EF6
  8
0
  6
BYBLOCK
 62
     0
  0
BLOCK
  8
0
  2
*U9
 70
     1
 10
0.0
 20
0.0
 30
0.0
  3
*U9
  1

  0
TEXT
  5
A9C3
  8
0
 62
     0
 10
5.1211371559201639
 20
5.9826223594979648
 30
0.0
 40
15.0
  1
ＶＸ０８－００３ＥＭ～ＶＸ０８－０３０ＥＭ
 41
0.7400000000000003
  0
ENDBLK
  5
A9C5
  8
0
  0
BLOCK
  8
0
  2
*U10
 70
     1
 10
0.0
 20
0.0
 30
0.0
  3
*U10
  1

  0
TEXT
  5
A9C7
  8
0
 62
     0
 10
731.40005226980793
 20
808.12895753059843
 30
0.0
 40
15.0
  1
ＶＸ２２－０４０ＥＭ～ＶＸ２２－０５０ＥＭ
 41
0.7400000000000003
  0
ENDBLK
  5
A9C9
  8
0
  0
ENDSEC
  0
SECTION
  2
ENTITIES
  0
LINE
  5
8999
  8
0
 62
     0
 10
598.97760345369261
 20
584.91108597825155
 30
0.0
 11
598.97760345369261
 21
581.91111597825125
 31
0.0
  0
LINE
  5
899A
  8
0
 62
     0
 10
598.97760345369261
 20
584.91108597825155
 30
0.0
 11
654.97760345369238
 21
584.91108597825155
 31
0.0
  0
LINE
  5
899B
  8
0
 62
     0
 10
654.97760345369238
 20
539.91108597825132
 30
0.0
 11
654.97760345369238
 21
584.91108597825155
 31
0.0
  0
LINE
  5
899C
  8
0
 62
     0
 10
584.97760345369261
 20
538.41108597825166
 30
0.0
 11
584.97760345369261
 21
583.41108597825166
 31
0.0
  0
LINE
  5
899D
  8
0
 62
     0
 10
580.97765345369226
 20
538.41108597825166
 30
0.0
 11
584.97760345369261
 21
538.41108597825166
 31
0.0
  0
LINE
  5
899E
  8
0
 62
     0
 10
580.97765345369226
 20
583.41108597825166
 30
0.0
 11
584.97760345369261
 21
583.41108597825166
 31
0.0
  0
LINE
  5
899F
  8
0
 62
     0
 10
584.97760345369261
 20
539.91108597825132
 30
0.0
 11
654.97760345369238
 21
539.91108597825132
 31
0.0
  0
LINE
  5
89A0
  8
0
 62
     0
 10
584.97760345369261
 20
581.91111597825125
 30
0.0
 11
654.97760345369238
 21
581.91111597825125
 31
0.0
  0
LINE
  5
89A1
  8
0
 62
     0
 10
462.97760345369238
 20
444.45948597825128
 30
0.0
 11
462.97760345369238
 21
652.91108097825145
 31
0.0
  0
LINE
  5
89A2
  8
0
 62
     0
 10
874.5968866583778
 20
584.91108597825132
 30
0.0
 11
886.59688665837814
 21
584.91108597825132
 31
0.0
  0
LINE
  5
89A3
  8
0
 62
     0
 10
886.59688665837814
 20
584.91108597825132
 30
0.0
 11
886.59688665837814
 21
576.91111597825125
 31
0.0
  0
LINE
  5
89A4
  8
0
 62
     0
 10
874.5968866583778
 20
584.91108597825132
 30
0.0
 11
874.5968866583778
 21
576.91111597825125
 31
0.0
  0
LINE
  5
89A5
  8
0
 62
     0
 10
874.5968866583778
 20
576.91111597825125
 30
0.0
 11
886.59688665837814
 21
576.91111597825125
 31
0.0
  0
LINE
  5
89A6
  8
0
 62
     0
 10
721.01940665837617
 20
478.500255978251
 30
0.0
 11
721.80475665837605
 21
478.13410597825123
 31
0.0
  0
LINE
  5
89A7
  8
0
 62
     0
 10
724.28425665837665
 20
469.25431597825173
 30
0.0
 11
720.65900665837682
 21
470.94477597825153
 31
0.0
  0
LINE
  5
89A8
  8
0
 62
     0
 10
749.45344487280181
 20
477.31107597825121
 30
0.0
 11
728.04115665837617
 21
477.31107597825121
 31
0.0
  0
LINE
  5
89A9
  8
0
 62
     0
 10
724.28415665837633
 20
469.25431597825173
 30
0.0
 11
745.21825296535985
 21
514.14755767163479
 31
0.0
  0
LINE
  5
89AA
  8
0
 62
     0
 10
734.96610665837682
 20
476.31107597825121
 30
0.0
 11
734.96610665837682
 21
475.31110597825119
 31
0.0
  0
LINE
  5
89AB
  8
0
 62
     0
 10
749.20428231396181
 20
475.31110597825119
 30
0.0
 11
734.96610665837682
 21
475.31110597825119
 31
0.0
  0
LINE
  5
89AC
  8
0
 62
     0
 10
739.36315665837628
 20
571.06120097825124
 30
0.0
 11
756.84330665837615
 21
571.06120097825124
 31
0.0
  0
LINE
  5
89AD
  8
0
 62
     0
 10
720.17520665837651
 20
472.27369097825158
 30
0.0
 11
741.67849258643662
 21
518.38753485892164
 31
0.0
  0
LINE
  5
89AE
  8
0
 62
     0
 10
451.23355345369231
 20
644.15463097825136
 30
0.0
 11
477.97760345369261
 21
644.15463097825136
 31
0.0
  0
LINE
  5
89AF
  8
0
 62
     0
 10
480.73525345369308
 20
504.99616597825172
 30
0.0
 11
493.97105345369209
 21
514.90614097825176
 31
0.0
  0
LINE
  5
89B0
  8
0
 62
     0
 10
483.37430345369359
 20
543.39863097825173
 30
0.0
 11
495.51300345369242
 21
529.48524097825157
 31
0.0
  0
LINE
  5
89B1
  8
0
 62
     0
 10
479.34405345369271
 20
617.30493097825138
 30
0.0
 11
491.14535345369308
 21
621.24628097825132
 31
0.0
  0
LINE
  5
89B2
  8
0
 62
     0
 10
483.17660345369302
 20
645.0880809782517
 30
0.0
 11
493.0026534536928
 21
639.37698097825159
 31
0.0
  0
LINE
  5
89B3
  8
0
 62
     0
 10
462.97760345369238
 20
627.23538097825156
 30
0.0
 11
474.9776034536925
 21
627.23538097825156
 31
0.0
  0
LINE
  5
89B4
  8
0
 62
     0
 10
462.97760345369238
 20
645.49438097825157
 30
0.0
 11
481.6690534536927
 21
645.49438097825157
 31
0.0
  0
LINE
  5
89B5
  8
0
 62
     0
 10
805.93767165837926
 20
638.08258097825114
 30
0.0
 11
801.05492165837768
 21
619.85993097825121
 31
0.0
  0
LINE
  5
89B6
  8
0
 62
     0
 10
943.00872165837768
 20
645.15363097825093
 30
0.0
 11
924.78609165837713
 21
640.27088097825163
 31
0.0
  0
LINE
  5
89B7
  8
0
 62
     0
 10
1017.667946658377
 20
529.98216097825161
 30
0.0
 11
1004.328086658376
 21
543.32203597825173
 31
0.0
  0
LINE
  5
89B8
  8
0
 62
     0
 10
1017.667946658377
 20
515.84004097825175
 30
0.0
 11
1009.856986658377
 21
508.02906597825182
 31
0.0
  0
LINE
  5
89B9
  8
0
 62
     0
 10
743.52582165837612
 20
529.98213097825135
 30
0.0
 11
756.86572165837765
 21
543.3220059782517
 31
0.0
  0
LINE
  5
89BA
  8
0
 62
     0
 10
548.03585345369265
 20
605.08393097825137
 30
0.0
 11
542.97760345369261
 21
605.08393097825137
 31
0.0
  0
LINE
  5
89BB
  8
0
 62
     0
 10
969.29689665837725
 20
406.91111097825092
 30
0.0
 11
969.29689665837725
 21
385.91108097825122
 31
0.0
  0
LINE
  5
89BC
  8
0
 62
     0
 10
544.97760345369261
 20
456.50895097825151
 30
0.0
 11
536.46085345369283
 21
456.50895097825151
 31
0.0
  0
LINE
  5
89BD
  8
0
 62
     0
 10
955.2561566583779
 20
638.08253097825138
 30
0.0
 11
960.13887665837672
 21
619.85993097825121
 31
0.0
  0
LINE
  5
89BE
  8
0
 62
     0
 10
466.92965345369407
 20
449.55891097825167
 30
0.0
 11
439.37970345369371
 21
414.01047597825158
 31
0.0
  0
LINE
  5
89BF
  8
0
 62
     0
 10
462.97760345369238
 20
537.92286597825159
 30
0.0
 11
474.9776034536925
 21
537.92286597825159
 31
0.0
  0
LINE
  5
89C0
  8
0
 62
     0
 10
965.5968866583778
 20
385.91108097825122
 30
0.0
 11
1020.596901658377
 21
385.91108097825122
 31
0.0
  0
LINE
  5
89C1
  8
0
 62
     0
 10
818.18511165837754
 20
645.15363097825093
 30
0.0
 11
836.40773665837764
 21
640.27088097825163
 31
0.0
  0
LINE
  5
89C2
  8
0
 62
     0
 10
467.97760345369261
 20
496.72300597825119
 30
0.0
 11
477.97760345369261
 21
496.72300597825119
 31
0.0
  0
LINE
  5
89C3
  8
0
 62
     0
 10
482.47760345369261
 20
622.38673097825119
 30
0.0
 11
482.47760345369261
 21
643.55993097825149
 31
0.0
  0
LINE
  5
89C4
  8
0
 62
     0
 10
795.59688165837633
 20
386.91111097825171
 30
0.0
 11
795.59688165837633
 21
385.91108097825122
 31
0.0
  0
LINE
  5
89C5
  8
0
 62
     0
 10
477.97760345369261
 20
540.92286597825159
 30
0.0
 11
477.97760345369261
 21
624.23538097825167
 31
0.0
  0
LINE
  5
89C6
  8
0
 62
     0
 10
482.47760345369261
 20
535.39890597825161
 30
0.0
 11
482.47760345369261
 21
508.28675597825162
 31
0.0
  0
LINE
  5
89C7
  8
0
 62
     0
 10
477.97760345369261
 20
503.30076097825162
 30
0.0
 11
477.97760345369261
 21
496.72300597825119
 31
0.0
  0
LINE
  5
89C8
  8
0
 62
     0
 10
740.59687165837772
 20
405.91108097825088
 30
0.0
 11
740.59687165837772
 21
385.91108097825122
 31
0.0
  0
LINE
  5
89C9
  8
0
 62
     0
 10
799.59688165837633
 20
390.91108097825122
 30
0.0
 11
961.96267165837605
 21
390.91108097825122
 31
0.0
  0
LINE
  5
89CA
  8
0
 62
     0
 10
976.5968866583778
 20
410.91108097825111
 30
0.0
 11
1015.596901658378
 21
410.91108097825111
 31
0.0
  0
LINE
  5
89CB
  8
0
 62
     0
 10
791.89690165837658
 20
406.91111097825092
 30
0.0
 11
791.89690165837658
 21
385.91108097825122
 31
0.0
  0
LINE
  5
89CC
  8
0
 62
     0
 10
965.5968866583778
 20
386.91111097825171
 30
0.0
 11
965.5968866583778
 21
385.91108097825122
 31
0.0
  0
LINE
  5
89CD
  8
0
 62
     0
 10
1020.596901658377
 20
405.91108097825088
 30
0.0
 11
1020.596901658377
 21
385.91108097825122
 31
0.0
  0
LINE
  5
89CE
  8
0
 62
     0
 10
740.59687165837772
 20
385.91108097825122
 30
0.0
 11
795.59688165837633
 21
385.91108097825122
 31
0.0
  0
LINE
  5
89CF
  8
0
 62
     0
 10
743.52582165837612
 20
515.83997597825135
 30
0.0
 11
751.33682165837763
 21
508.02903597825161
 31
0.0
  0
LINE
  5
89D0
  8
0
 62
     0
 10
745.59687165837727
 20
410.91108097825111
 30
0.0
 11
787.89690165837771
 21
410.91108097825111
 31
0.0
  0
LINE
  5
89D1
  8
0
 62
     0
 10
560.97765345369214
 20
620.91108097825122
 30
0.0
 11
571.97760345369261
 21
620.91108097825122
 31
0.0
  0
LINE
  5
89D2
  8
0
 62
     0
 10
462.97760345369238
 20
506.30079097825143
 30
0.0
 11
474.9776034536925
 21
506.30079097825143
 31
0.0
  0
LINE
  5
89D3
  8
0
 62
     0
 10
467.97760345369261
 20
496.72300597825119
 30
0.0
 11
467.97760345369261
 21
450.91108097825122
 31
0.0
  0
LINE
  5
89D4
  8
0
 62
     0
 10
757.05197165837774
 20
538.30268597825125
 30
0.0
 11
740.63522165837696
 21
406.52924597825108
 31
0.0
  0
LINE
  5
89D5
  8
0
 62
     0
 10
575.85625345369215
 20
607.03243097825123
 30
0.0
 11
580.09900345369238
 21
602.7897309782511
 31
0.0
  0
LINE
  5
89D6
  8
0
 62
     0
 10
532.97760345369261
 20
595.08393097825115
 30
0.0
 11
532.97760345369261
 21
418.91111097825137
 31
0.0
  0
LINE
  5
89D7
  8
0
 62
     0
 10
477.97760345369261
 20
645.49438097825157
 30
0.0
 11
477.97760345369261
 21
650.45588097825146
 31
0.0
  0
LINE
  5
89D8
  8
0
 62
     0
 10
574.9776034536925
 20
560.91108597825166
 30
0.0
 11
574.9776034536925
 21
414.6570859782513
 31
0.0
  0
LINE
  5
89D9
  8
0
 62
     0
 10
479.9078034536924
 20
647.03363097825127
 30
0.0
 11
545.25675345369291
 21
644.75158097825158
 31
0.0
  0
LINE
  5
89DA
  8
0
 62
     0
 10
575.85630345369361
 20
520.78971597825125
 30
0.0
 11
580.09900345369238
 21
525.03236097825175
 31
0.0
  0
LINE
  5
89DB
  8
0
 62
     0
 10
580.97765345369226
 20
406.91111097825137
 30
0.0
 11
580.97765345369226
 21
385.9110809782515
 31
0.0
  0
LINE
  5
89DC
  8
0
 62
     0
 10
540.97765345369146
 20
410.91108097825122
 30
0.0
 11
576.97760345369261
 21
410.91108097825122
 31
0.0
  0
LINE
  5
89DD
  8
0
 62
     0
 10
462.97765345369208
 20
652.91108097825145
 30
0.0
 11
476.04740345369271
 21
652.4546809782513
 31
0.0
  0
LINE
  5
89DE
  8
0
 62
     0
 10
552.97760345369261
 20
464.50895097825151
 30
0.0
 11
552.97760345369261
 21
636.7564809782516
 31
0.0
  0
LINE
  5
89DF
  8
0
 62
     0
 10
574.9776034536925
 20
560.91108597825166
 30
0.0
 11
574.9776034536925
 21
617.91108097825122
 31
0.0
  0
LINE
  5
89E0
  8
0
 62
     0
 10
786.59688165837633
 20
604.54593097825125
 30
0.0
 11
786.59688165837633
 21
488.9012259782516
 31
0.0
  0
LINE
  5
89E1
  8
0
 62
     0
 10
580.97765345369226
 20
560.91108597825166
 30
0.0
 11
580.97765345369226
 21
600.66848097825118
 31
0.0
  0
LINE
  5
89E2
  8
0
 62
     0
 10
580.97765345369226
 20
560.91108597825166
 30
0.0
 11
580.97765345369226
 21
527.15373097825125
 31
0.0
  0
LINE
  5
89E3
  8
0
 62
     0
 10
388.97755345369291
 20
385.9110809782515
 30
0.0
 11
580.97765345369226
 21
385.9110809782515
 31
0.0
  0
LINE
  5
89E4
  8
0
 62
     0
 10
392.97755345369291
 20
410.91108097825122
 30
0.0
 11
433.05630345369252
 21
410.91108097825122
 31
0.0
  0
LINE
  5
89E5
  8
0
 62
     0
 10
388.97755345369291
 20
406.91111097825137
 30
0.0
 11
388.97755345369291
 21
385.9110809782515
 31
0.0
  0
LINE
  5
89E6
  8
0
 62
     0
 10
1004.141836658377
 20
538.30268597825125
 30
0.0
 11
1020.558541658378
 21
406.52924597825108
 31
0.0
  0
LINE
  5
89E7
  8
0
 62
     0
 10
792.59691165837739
 20
522.91108597825166
 30
0.0
 11
792.59691165837739
 21
418.91111097825092
 31
0.0
  0
LINE
  5
89E8
  8
0
 62
     0
 10
968.59688665837768
 20
532.91108597825178
 30
0.0
 11
968.59688665837768
 21
418.91111097825092
 31
0.0
  0
LINE
  5
89E9
  8
0
 62
     0
 10
974.5968866583778
 20
604.54593097825125
 30
0.0
 11
974.5968866583778
 21
485.29646097825162
 31
0.0
  0
LINE
  5
89EA
  8
0
 62
     0
 10
813.59688165837645
 20
405.91108097825088
 30
0.0
 11
947.59685665837708
 21
405.91108097825088
 31
0.0
  0
LINE
  5
89EB
  8
0
 62
     0
 10
810.24242165837768
 20
400.64176597825121
 30
0.0
 11
950.95134665837702
 21
400.64176597825121
 31
0.0
  0
LINE
  5
89EC
  8
0
 62
     0
 10
876.59688665837757
 20
689.91108097825122
 30
0.0
 11
876.59688665837757
 21
656.41108097825122
 31
0.0
  0
LINE
  5
89ED
  8
0
 62
     0
 10
884.59688665837757
 20
689.91108097825122
 30
0.0
 11
884.59688665837757
 21
656.41108097825122
 31
0.0
  0
LINE
  5
89EE
  8
0
 62
     0
 10
870.6283466583759
 20
652.5282809782517
 30
0.0
 11
872.30913165837705
 21
658.80118097825152
 31
0.0
  0
LINE
  5
89EF
  8
0
 62
     0
 10
890.56548165837705
 20
652.52833097825078
 30
0.0
 11
888.88469665837818
 21
658.80118097825152
 31
0.0
  0
LINE
  5
89F0
  8
0
 62
     0
 10
876.59688665837757
 20
660.17258097825129
 30
0.0
 11
873.09346665837757
 21
659.52573097825132
 31
0.0
  0
LINE
  5
89F1
  8
0
 62
     0
 10
884.59688665837757
 20
660.17258097825129
 30
0.0
 11
888.1003016583777
 21
659.52573097825132
 31
0.0
  0
LINE
  5
89F2
  8
0
 62
     0
 10
451.90775345369258
 20
652.52448097825163
 30
0.0
 11
462.97750345369218
 21
652.91108097825145
 31
0.0
  0
LINE
  5
89F3
  8
0
 62
     0
 10
396.47760345369261
 20
437.91108597825121
 30
0.0
 11
432.11725100838322
 21
436.6665259184158
 31
0.0
  0
LINE
  5
89F4
  8
0
 62
     0
 10
435.97765345369203
 20
411.46351097825158
 30
0.0
 11
435.97765345369203
 21
621.53043097825139
 31
0.0
  0
ARC
  5
89F5
  8
0
 62
     0
 10
431.97765345369203
 20
432.66896259524958
 30
0.0
 40
4.0
 50
0.0
 51
88.000006193419495
1001
GENIUS_GENODEF_13
1002
{
1000
HIER
1070
     0
1002
}
1002
{
1000
MANEDIT
1070
     0
1002
}
1002
{
1000
NOSEL
1070
     0
1002
}
1002
{
1000
BEHIND
1070
     0
1002
}
1002
{
1000
OTHER
1070
     0
1002
}
1002
{
1000
REACTOR
1002
}
1001
GENIUS_GENOBJ-N-FIL_13
1002
{
1000
OWNER
1000
GEN
1002
}
  0
LINE
  5
89F6
  8
0
 62
     0
 10
449.9776034536925
 20
427.68528097825151
 30
0.0
 11
449.9776034536925
 21
650.52578097825153
 31
0.0
  0
LINE
  5
89F7
  8
0
 62
     0
 10
396.47760345369261
 20
607.91108597825132
 30
0.0
 11
432.1172488069223
 21
609.15562631050011
 31
0.0
  0
LINE
  5
89F8
  8
0
 62
     0
 10
438.45665345369241
 20
639.9901309782515
 30
0.0
 11
447.49850345369288
 21
641.58448097825124
 31
0.0
  0
LINE
  5
89F9
  8
0
 62
     0
 10
460.97765345369203
 20
652.91108097825145
 30
0.0
 11
462.97760345369238
 21
652.91108097825145
 31
0.0
  0
LINE
  5
89FA
  8
0
 62
     0
 10
435.97765345369203
 20
621.53043097825139
 30
0.0
 11
435.97765345369203
 21
650.91108097825122
 31
0.0
  0
ARC
  5
89FB
  8
0
 62
     0
 10
431.97765345369203
 20
613.15318971054239
 30
0.0
 40
4.0
 50
271.99996225375321
 51
0.0
1001
GENIUS_GENOBJ-N-FIL_13
1002
{
1000
OWNER
1000
GEN
1002
}
1001
GENIUS_GENODEF_13
1002
{
1000
HIER
1070
     0
1002
}
1002
{
1000
MANEDIT
1070
     0
1002
}
1002
{
1000
NOSEL
1070
     0
1002
}
1002
{
1000
BEHIND
1070
     0
1002
}
1002
{
1000
OTHER
1070
     0
1002
}
1002
{
1000
REACTOR
1002
}
  0
LINE
  5
89FC
  8
0
 62
     0
 10
436.65470345369249
 20
652.41108097825122
 30
0.0
 11
451.3101534536936
 21
652.41108097825122
 31
0.0
  0
LINE
  5
89FD
  8
0
 62
     0
 10
439.16045345369253
 20
659.41108097825122
 30
0.0
 11
454.79465345369198
 21
659.41108097825122
 31
0.0
  0
LINE
  5
89FE
  8
0
 62
     0
 10
456.90045345369242
 20
652.69878097825165
 30
0.0
 11
455.26530345369429
 21
658.80118097825152
 31
0.0
  0
LINE
  5
89FF
  8
0
 62
     0
 10
436.97760345369261
 20
652.41103097825123
 30
0.0
 11
438.68980345369232
 21
658.80118097825152
 31
0.0
  0
LINE
  5
8A00
  8
0
 62
     0
 10
439.47420345369289
 20
659.52573097825132
 30
0.0
 11
446.97765345369203
 21
660.91103097825123
 31
0.0
  0
LINE
  5
8A01
  8
0
 62
     0
 10
446.97760345369261
 20
660.91108097825122
 30
0.0
 11
454.48100345369312
 21
659.52573097825132
 31
0.0
  0
LINE
  5
8A02
  8
0
 62
     0
 10
449.9776034536925
 20
507.8993059782515
 30
0.0
 11
462.97760345369238
 21
507.8993059782515
 31
0.0
  0
LINE
  5
8A03
  8
0
 62
     0
 10
449.9776034536925
 20
537.92286597825159
 30
0.0
 11
462.97760345369238
 21
537.92286597825159
 31
0.0
  0
LINE
  5
8A04
  8
0
 62
     0
 10
449.9776034536925
 20
627.23538097825156
 30
0.0
 11
462.97760345369238
 21
627.23538097825156
 31
0.0
  0
LINE
  5
8A05
  8
0
 62
     0
 10
449.9776034536925
 20
645.49438097825157
 30
0.0
 11
462.97760345369238
 21
645.49438097825157
 31
0.0
  0
ARC
  5
8A06
  8
0
 62
     0
 10
880.5968866583778
 20
560.91108597825166
 30
0.0
 40
20.9999985
 50
106.6015500000189
 51
73.398452000020185
  0
ARC
  5
8A07
  8
0
 62
     0
 10
721.08160665837613
 20
471.85105597825162
 30
0.0
 40
1.0
 50
154.99998000000309
 51
245.00030999997719
  0
ARC
  5
8A08
  8
0
 62
     0
 10
733.96610665837545
 20
476.31107597825121
 30
0.0
 40
1.0
 50
0.0
 51
90.000002999984659
  0
ARC
  5
8A09
  8
0
 62
     0
 10
739.36315665837628
 20
563.4611359782516
 30
0.0
 40
7.599999999999997
 50
90.000002999984659
 51
158.71408999999409
  0
ARC
  5
8A0A
  8
0
 62
     0
 10
722.54075665837615
 20
481.76301097825171
 30
0.0
 40
3.600000199999998
 50
183.3859700000059
 51
245.00060999997311
  0
ARC
  5
8A0B
  8
0
 62
     0
 10
919.19689665837575
 20
493.39811597825121
 30
0.0
 40
200.60001
 50
158.71414000001471
 51
183.3859300000031
  0
ARC
  5
8A0C
  8
0
 62
     0
 10
721.38205665837631
 20
477.22779597825121
 30
0.0
 40
1.0
 50
334.9998499999902
 51
65.000643000006406
  0
CIRCLE
  5
8A0D
  8
0
 62
     0
 10
880.5968866583778
 20
560.91108597825166
 30
0.0
 40
3.5000000500000001
  0
CIRCLE
  5
8A0E
  8
0
 62
     0
 10
880.5968866583778
 20
560.91108597825166
 30
0.0
 40
5.0
  0
ARC
  5
8A0F
  8
0
 62
     0
 10
474.9776034536925
 20
503.30076097825162
 30
0.0
 40
3.0000000500000001
 50
0.0
 51
90.000002999984659
  0
ARC
  5
8A10
  8
0
 62
     0
 10
481.11360345369292
 20
541.4263759782516
 30
0.0
 40
3.0000000500000001
 50
41.102821999974161
 51
90.000002999984659
  0
ARC
  5
8A11
  8
0
 62
     0
 10
474.9776034536925
 20
624.23538097825167
 30
0.0
 40
3.0000000500000001
 50
0.0
 51
90.000002999984659
  0
ARC
  5
8A12
  8
0
 62
     0
 10
474.9776034536925
 20
540.92286597825159
 30
0.0
 40
3.0000000500000001
 50
270.0
 51
0.0
  0
ARC
  5
8A13
  8
0
 62
     0
 10
487.97760345369238
 20
522.91108597825166
 30
0.0
 40
10.0
 50
306.82304000001602
 51
41.102821999974161
  0
ARC
  5
8A14
  8
0
 62
     0
 10
487.97760345369238
 20
630.73128097825122
 30
0.0
 40
10.0
 50
288.46821000003149
 51
59.833878000013208
  0
ARC
  5
8A15
  8
0
 62
     0
 10
750.59687165837636
 20
522.91108597825166
 30
0.0
 40
10.0
 50
135.00000000000921
 51
224.99999999999071
  0
ARC
  5
8A16
  8
0
 62
     0
 10
945.59688665837768
 20
635.49438097825168
 30
0.0
 40
10.0
 50
14.99999999999444
 51
104.9999999999944
  0
ARC
  5
8A17
  8
0
 62
     0
 10
1010.596886658378
 20
522.91108597825166
 30
0.0
 40
10.0
 50
315.00000000000921
 51
45.000001000015267
  0
ARC
  5
8A18
  8
0
 62
     0
 10
544.97760345369261
 20
464.50895097825151
 30
0.0
 40
8.0
 50
270.0
 51
0.0
  0
ARC
  5
8A19
  8
0
 62
     0
 10
787.89690165837771
 20
406.91111097825092
 30
0.0
 40
4.000000049999997
 50
0.0
 51
90.000002999984659
  0
ARC
  5
8A1A
  8
0
 62
     0
 10
880.5968866583778
 20
522.91108597825166
 30
0.0
 40
130.0
 50
127.3755000000164
 51
172.6244900000064
  0
ARC
  5
8A1B
  8
0
 62
     0
 10
481.98990345369288
 20
621.35138097825165
 30
0.0
 40
3.0000000500000001
 50
270.0
 51
288.46822000003448
  0
ARC
  5
8A1C
  8
0
 62
     0
 10
481.6690534536927
 20
642.49438097825168
 30
0.0
 40
3.0000000500000001
 50
59.833878000013208
 51
90.000002999984659
  0
ARC
  5
8A1D
  8
0
 62
     0
 10
815.59688165837758
 20
635.49438097825168
 30
0.0
 40
10.0
 50
74.999999000015293
 51
164.99998999998439
  0
ARC
  5
8A1E
  8
0
 62
     0
 10
880.5968866583778
 20
522.91108597825166
 30
0.0
 40
124.5
 50
7.1014838999877119
 51
172.8985199999988
  0
ARC
  5
8A1F
  8
0
 62
     0
 10
880.5968866583778
 20
522.91108597825166
 30
0.0
 40
130.0
 50
187.3755099999936
 51
189.6244600000116
  0
ARC
  5
8A20
  8
0
 62
     0
 10
880.5968866583778
 20
522.91108597825166
 30
0.0
 40
130.0
 50
67.375506000010077
 51
112.62449000000839
  0
ARC
  5
8A21
  8
0
 62
     0
 10
799.59688165837633
 20
386.91111097825171
 30
0.0
 40
4.000000049999997
 50
99.488295999983904
 51
180.00001000000091
  0
ARC
  5
8A22
  8
0
 62
     0
 10
961.59688665837768
 20
386.91111097825171
 30
0.0
 40
4.000000049999997
 50
0.0
 51
80.511701999970015
  0
ARC
  5
8A23
  8
0
 62
     0
 10
745.59687165837727
 20
405.91108097825088
 30
0.0
 40
5.0
 50
90.000002999984659
 51
180.00001000000091
  0
ARC
  5
8A24
  8
0
 62
     0
 10
1015.596901658378
 20
405.91108097825088
 30
0.0
 40
5.0
 50
0.0
 51
90.000002999984659
  0
ARC
  5
8A25
  8
0
 62
     0
 10
542.97760345369261
 20
595.08393097825115
 30
0.0
 40
10.0
 50
90.000002999984659
 51
180.00001000000091
  0
CIRCLE
  5
8A26
  8
0
 62
     0
 10
880.5968866583778
 20
560.91108597825166
 30
0.0
 40
41.000000499999992
  0
ARC
  5
8A27
  8
0
 62
     0
 10
973.29689665837702
 20
406.91111097825092
 30
0.0
 40
4.000000049999997
 50
90.000002999984659
 51
180.00001000000091
  0
ARC
  5
8A28
  8
0
 62
     0
 10
976.5968866583778
 20
418.91111097825092
 30
0.0
 40
8.0
 50
180.00001000000091
 51
270.0
  0
ARC
  5
8A29
  8
0
 62
     0
 10
880.5968866583778
 20
532.91108597825178
 30
0.0
 40
88.0
 50
0.0
 51
186.52497999999039
  0
ARC
  5
8A2A
  8
0
 62
     0
 10
880.5968866583778
 20
522.91108597825166
 30
0.0
 40
130.0
 50
7.3755072000040354
 51
52.624493999998649
  0
ARC
  5
8A2B
  8
0
 62
     0
 10
784.59688165837633
 20
418.91111097825092
 30
0.0
 40
8.0
 50
270.0
 51
0.0
  0
ARC
  5
8A2C
  8
0
 62
     0
 10
880.5968866583778
 20
488.9012259782516
 30
0.0
 40
93.999994999999984
 50
179.999989999999
 51
200.58195999998011
  0
ARC
  5
8A2D
  8
0
 62
     0
 10
540.97765345369146
 20
418.91111097825137
 30
0.0
 40
8.0
 50
180.00001000000091
 51
270.0
  0
ARC
  5
8A2E
  8
0
 62
     0
 10
571.97760345369261
 20
617.91108097825122
 30
0.0
 40
3.0000000500000001
 50
0.0
 51
90.000002999984659
  0
ARC
  5
8A2F
  8
0
 62
     0
 10
475.97765345369203
 20
650.45588097825146
 30
0.0
 40
2.0000000500000001
 50
0.0
 51
87.999999999996433
  0
ARC
  5
8A30
  8
0
 62
     0
 10
479.97760345369238
 20
649.03243097825168
 30
0.0
 40
2.0000000500000001
 50
179.999989999999
 51
268.0000099999923
  0
ARC
  5
8A31
  8
0
 62
     0
 10
560.97765345369214
 20
628.91108097825122
 30
0.0
 40
8.0
 50
180.00001000000091
 51
270.0
  0
ARC
  5
8A32
  8
0
 62
     0
 10
578.97760345369261
 20
414.6570859782513
 30
0.0
 40
4.000000049999997
 50
179.999989999999
 51
255.52248999999159
  0
ARC
  5
8A33
  8
0
 62
     0
 10
880.5968866583778
 20
522.91108597825166
 30
0.0
 40
130.0
 50
350.37554999999219
 51
352.62449000000652
  0
ARC
  5
8A34
  8
0
 62
     0
 10
576.97760345369261
 20
406.91111097825137
 30
0.0
 40
4.000000049999997
 50
0.0
 51
90.000002999984659
  0
ARC
  5
8A35
  8
0
 62
     0
 10
880.5968866583778
 20
488.9012259782516
 30
0.0
 40
93.999994999999984
 50
339.95001999997157
 51
20.04997600000047
  0
ARC
  5
8A36
  8
0
 62
     0
 10
433.05630345369252
 20
418.91111097825137
 30
0.0
 40
8.0
 50
270.0
 51
322.22432000001322
  0
ARC
  5
8A37
  8
0
 62
     0
 10
973.5968866583778
 20
454.9601259782516
 30
0.0
 40
5.0
 50
159.9500300000069
 51
180.00001000000091
  0
ARC
  5
8A38
  8
0
 62
     0
 10
973.5968866583778
 20
522.84236097825135
 30
0.0
 40
5.0
 50
179.999989999999
 51
200.0499699999931
  0
ARC
  5
8A39
  8
0
 62
     0
 10
462.97760345369238
 20
452.62177597825161
 30
0.0
 40
5.0
 50
322.22432000001322
 51
0.0
  0
ARC
  5
8A3A
  8
0
 62
     0
 10
392.97755345369291
 20
406.91111097825137
 30
0.0
 40
4.000000049999997
 50
90.000002999984659
 51
180.00001000000091
  0
ARC
  5
8A3B
  8
0
 62
     0
 10
577.97760345369261
 20
518.66847097825155
 30
0.0
 40
3.0000000500000001
 50
135.00000000000881
 51
180.00001000000091
  0
ARC
  5
8A3C
  8
0
 62
     0
 10
577.97760345369261
 20
600.66848097825118
 30
0.0
 40
3.0000000500000001
 50
0.0
 51
45.0000010000157
  0
ARC
  5
8A3D
  8
0
 62
     0
 10
577.97760345369261
 20
527.15373097825125
 30
0.0
 40
3.0000000500000001
 50
315.00000000000881
 51
0.0
  0
ARC
  5
8A3E
  8
0
 62
     0
 10
577.97760345369261
 20
609.15368097825149
 30
0.0
 40
3.0000000500000001
 50
179.999989999999
 51
224.9999999999911
  0
ARC
  5
8A3F
  8
0
 62
     0
 10
797.6187316583771
 20
398.74692597825151
 30
0.0
 40
8.0
 50
279.48830000002317
 51
357.00554000001199
  0
ARC
  5
8A40
  8
0
 62
     0
 10
813.59688165837645
 20
397.91108097825111
 30
0.0
 40
8.0
 50
90.000002999984659
 51
177.00554000001199
  0
ARC
  5
8A41
  8
0
 62
     0
 10
947.59685665837708
 20
397.91108097825111
 30
0.0
 40
8.0
 50
2.9944644000066498
 51
90.000002999984659
  0
ARC
  5
8A42
  8
0
 62
     0
 10
544.97760345369261
 20
636.7564809782516
 30
0.0
 40
8.0
 50
0.0
 51
87.999999999996433
  0
ARC
  5
8A43
  8
0
 62
     0
 10
747.80127165837769
 20
504.49351097825092
 30
0.0
 40
5.0
 50
352.89851999999883
 51
45.000001000015267
  0
ARC
  5
8A44
  8
0
 62
     0
 10
753.33017165837634
 20
546.85758597825156
 30
0.0
 40
5.0
 50
315.00000000000921
 51
349.34381999999653
  0
ARC
  5
8A45
  8
0
 62
     0
 10
796.2252416583766
 20
621.15398097825164
 30
0.0
 40
5.0
 50
310.65617999998949
 51
345.00000000000551
  0
ARC
  5
8A46
  8
0
 62
     0
 10
837.70180165837769
 20
645.10053097825153
 30
0.0
 40
5.0
 50
255.0000000000054
 51
289.34381999998823
  0
ARC
  5
8A47
  8
0
 62
     0
 10
923.49199665837705
 20
645.10053097825153
 30
0.0
 40
5.0
 50
250.65618000001189
 51
284.99999999999449
  0
ARC
  5
8A48
  8
0
 62
     0
 10
964.96852665837707
 20
621.15398097825164
 30
0.0
 40
5.0
 50
195.00001000001561
 51
229.34382000001051
  0
ARC
  5
8A49
  8
0
 62
     0
 10
932.53002165837711
 20
647.52228097825162
 30
0.0
 40
5.0
 50
247.37550999999161
 51
284.99999999999449
  0
ARC
  5
8A4A
  8
0
 62
     0
 10
1007.863611658377
 20
546.85758597825156
 30
0.0
 40
5.0
 50
190.6561800000035
 51
224.99999999999071
  0
ARC
  5
8A4B
  8
0
 62
     0
 10
1013.392511658378
 20
504.49351097825092
 30
0.0
 40
5.0
 50
135.00000000000921
 51
187.1014900000086
  0
ARC
  5
8A4C
  8
0
 62
     0
 10
828.66374665837782
 20
647.52228097825162
 30
0.0
 40
5.0
 50
255.0000000000054
 51
292.62449000000851
  0
ARC
  5
8A4D
  8
0
 62
     0
 10
962.54677665837801
 20
630.19208097825128
 30
0.0
 40
5.0
 50
195.00001000001561
 51
232.62449999998361
  0
ARC
  5
8A4E
  8
0
 62
     0
 10
1014.479911658379
 20
540.2412559782515
 30
0.0
 40
5.0
 50
187.3755099999936
 51
224.99999999999071
  0
ARC
  5
8A4F
  8
0
 62
     0
 10
798.64702165837753
 20
630.19208097825128
 30
0.0
 40
5.0
 50
307.37551000002981
 51
345.00000000000551
  0
ARC
  5
8A50
  8
0
 62
     0
 10
746.71387165837655
 20
540.2412559782515
 30
0.0
 40
5.0
 50
315.00000000000921
 51
352.62449000000652
  0
ARC
  5
8A51
  8
0
 62
     0
 10
746.71387165837655
 20
505.5809159782516
 30
0.0
 40
5.0
 50
7.3755080999940761
 51
45.000001000015267
  0
ARC
  5
8A52
  8
0
 62
     0
 10
1014.479911658379
 20
505.5809159782516
 30
0.0
 40
5.0
 50
135.00000000000921
 51
172.6244900000064
  0
ARC
  5
8A53
  8
0
 62
     0
 10
963.57506665837604
 20
398.74692597825151
 30
0.0
 40
8.0
 50
182.99445999998781
 51
260.51169999997683
  0
ARC
  5
8A54
  8
0
 62
     0
 10
810.24242165837768
 20
395.64176597825121
 30
0.0
 40
5.0
 50
90.000002999984659
 51
166.180780000006
  0
ARC
  5
8A55
  8
0
 62
     0
 10
950.95134665837702
 20
395.64176597825121
 30
0.0
 40
5.0
 50
13.819216999987431
 51
90.000002999984659
  0
ARC
  5
8A56
  8
0
 62
     0
 10
880.5968866583778
 20
689.91108097825122
 30
0.0
 40
4.000000049999997
 50
359.999989999999
 51
179.999989999999
  0
ARC
  5
8A57
  8
0
 62
     0
 10
874.5968866583778
 20
656.41108097825122
 30
0.0
 40
2.0000000500000001
 50
270.0
 51
0.0
  0
ARC
  5
8A58
  8
0
 62
     0
 10
886.59688665837814
 20
656.41108097825122
 30
0.0
 40
2.0000000500000001
 50
179.999989999999
 51
270.0
  0
ARC
  5
8A59
  8
0
 62
     0
 10
873.27504665837705
 20
658.5423309782509
 30
0.0
 40
1.0
 50
100.4607199999829
 51
164.99998999998439
  0
ARC
  5
8A5A
  8
0
 62
     0
 10
887.9187516583778
 20
658.5423309782509
 30
0.0
 40
1.0
 50
14.99999999999444
 51
79.53928100000914
  0
ARC
  5
8A5B
  8
0
 62
     0
 10
451.97760345369261
 20
650.52578097825153
 30
0.0
 40
2.0000000500000001
 50
91.999997999994264
 51
180.00001000000091
  0
ARC
  5
8A5C
  8
0
 62
     0
 10
438.97760345369261
 20
637.03568097825132
 30
0.0
 40
3.0000000500000001
 50
100.0000000000058
 51
180.00001000000091
  0
ARC
  5
8A5D
  8
0
 62
     0
 10
446.97760345369261
 20
644.5388309782511
 30
0.0
 40
3.0000000500000001
 50
280.0000000000058
 51
0.0
  0
ARC
  5
8A5E
  8
0
 62
     0
 10
437.97760345369238
 20
650.91108097825122
 30
0.0
 40
2.0000000500000001
 50
131.40962000000599
 51
180.00001000000091
  0
CIRCLE
  5
8A5F
  8
0
 62
     0
 10
446.97760345369261
 20
673.41108097825122
 30
0.0
 40
12.5
  0
ARC
  5
8A60
  8
0
 62
     0
 10
446.97760345369261
 20
673.41108097825122
 30
0.0
 40
20.500000500000009
 50
304.6136399999956
 51
235.3863499999934
  0
ARC
  5
8A61
  8
0
 62
     0
 10
460.89450345369278
 20
653.24758097825111
 30
0.0
 40
4.000000049999997
 50
124.6136500000064
 51
187.8682200000151
  0
ARC
  5
8A62
  8
0
 62
     0
 10
433.06060345369218
 20
653.24758097825111
 30
0.0
 40
4.000000049999997
 50
347.9293300000013
 51
55.386359000031611
  0
ARC
  5
8A63
  8
0
 62
     0
 10
439.65575345369223
 20
658.54233097825124
 30
0.0
 40
1.0
 50
100.4607199999835
 51
164.99998999998439
  0
ARC
  5
8A64
  8
0
 62
     0
 10
454.29950345369218
 20
658.54233097825124
 30
0.0
 40
1.0
 50
14.99999999999446
 51
79.539281000009808
  0
LINE
  5
8A66
  8
0
  6
AM_ISO08W050
 62
     0
 10
880.5968866583778
 20
699.04104414737265
 30
0.0
 11
880.5968866583778
 21
384.94150597825171
 31
0.0
  0
LINE
  5
8A67
  8
0
  6
AM_ISO08W050
 62
     0
 10
995.59688665837768
 20
414.76124097825152
 30
0.0
 11
995.59688665837768
 21
378.93555597825173
 31
0.0
  0
LINE
  5
8A68
  8
0
  6
AM_ISO08W050
 62
     0
 10
765.59687165837909
 20
415.4189859782515
 30
0.0
 11
765.59687165837909
 21
381.01945097825171
 31
0.0
  0
LINE
  5
8A69
  8
0
  6
AM_ISO02W050
 62
     0
 10
1005.096886658378
 20
410.9110809782519
 30
0.0
 11
1005.096886658378
 21
385.9110809782519
 31
0.0
  0
LINE
  5
8A6A
  8
0
  6
AM_ISO02W050
 62
     0
 10
756.0968716583792
 20
410.9110809782519
 30
0.0
 11
756.0968716583792
 21
385.9110809782519
 31
0.0
  0
LINE
  5
8A6B
  8
0
  6
AM_ISO02W050
 62
     0
 10
986.0968866583778
 20
410.9110809782519
 30
0.0
 11
986.0968866583778
 21
385.9110809782519
 31
0.0
  0
LINE
  5
8A6C
  8
0
  6
AM_ISO02W050
 62
     0
 10
775.0969116583791
 20
410.9110809782519
 30
0.0
 11
775.0969116583791
 21
385.9110809782519
 31
0.0
  0
LINE
  5
8A6D
  8
0
  6
AM_ISO08W050
 62
     0
 10
800.79650769381942
 20
560.91108597825166
 30
0.0
 11
960.39726562293731
 21
560.91108597825166
 31
0.0
  0
LINE
  5
8A75
  8
0
  6
AM_ISO08W050
 62
     0
 10
106.83239413190221
 20
522.91108597825132
 30
0.0
 11
432.15755096208511
 21
522.91108597825132
 31
0.0
  0
LINE
  5
8A76
  8
0
  6
AM_ISO08W050
 62
     0
 10
409.04255716522948
 20
560.91108597825132
 30
0.0
 11
662.92200345369474
 21
560.91108597825132
 31
0.0
  0
LINE
  5
8A77
  8
0
  6
AM_ISO02W050
 62
     0
 10
550.47765345369214
 20
410.91108597825132
 30
0.0
 11
550.47765345369214
 21
385.9110809782515
 31
0.0
  0
LINE
  5
8A78
  8
0
  6
AM_ISO02W050
 62
     0
 10
569.47765345369476
 20
410.91108597825132
 30
0.0
 11
569.47765345369476
 21
385.9110809782515
 31
0.0
  0
LINE
  5
8A79
  8
0
  6
AM_ISO02W050
 62
     0
 10
419.47765345369481
 20
410.91108597825132
 30
0.0
 11
419.47765345369481
 21
385.9110809782515
 31
0.0
  0
LINE
  5
8A7A
  8
0
  6
AM_ISO02W050
 62
     0
 10
400.47765345369208
 20
410.91108597825132
 30
0.0
 11
400.47765345369208
 21
385.9110809782515
 31
0.0
  0
LINE
  5
8A7B
  8
0
  6
AM_ISO08W050
 62
     0
 10
559.97760345369534
 20
412.87150097825128
 30
0.0
 11
559.97760345369534
 21
383.15336097825133
 31
0.0
  0
LINE
  5
8A7C
  8
0
  6
AM_ISO08W050
 62
     0
 10
409.97760345369261
 20
412.87150097825128
 30
0.0
 11
409.97760345369261
 21
383.15336097825133
 31
0.0
  0
LINE
  5
970F
  8
0
 62
     0
 10
332.6259364536927
 20
572.09608597825115
 30
0.0
 11
391.47760345369261
 21
572.09608597825115
 31
0.0
  0
LINE
  5
9710
  8
0
 62
     0
 10
332.39517945369261
 20
572.58608597825116
 30
0.0
 11
389.71760345369262
 21
572.58608597825116
 31
0.0
  0
LINE
  5
9711
  8
0
 62
     0
 10
331.22377745369261
 20
574.18608597825119
 30
0.0
 11
389.71760345369262
 21
574.18608597825119
 31
0.0
  0
LINE
  5
9712
  8
0
 62
     0
 10
330.61598745369253
 20
574.72608597825115
 30
0.0
 11
391.47760345369261
 21
574.72608597825115
 31
0.0
  0
LINE
  5
9713
  8
0
 62
     0
 10
253.7724334536926
 20
571.06109897825115
 30
0.0
 11
325.18277345369268
 21
571.06109897825115
 31
0.0
  0
LINE
  5
9714
  8
0
 62
     0
 10
252.41063245369261
 20
576.13150297825132
 30
0.0
 11
326.53363845369262
 21
576.13150297825132
 31
0.0
  0
ARC
  5
9715
  8
0
 62
     0
 10
843.97757345369212
 20
522.69285797825125
 30
0.0
 40
595.5
 50
175.6560359999994
 51
183.93780499999761
  0
ARC
  5
9716
  8
0
 62
     0
 10
252.41063245369261
 20
569.53151197825116
 30
0.0
 40
6.599999999999997
 50
90.0
 51
171.409850999995
  0
ARC
  5
9717
  8
0
 62
     0
 10
253.7724334536926
 20
567.46109297825114
 30
0.0
 40
3.6000000000000001
 50
90.0
 51
174.62414600000039
  0
ARC
  5
9718
  8
0
 62
     0
 10
-265.02239654630739
 20
522.69291997825121
 30
0.0
 40
595.5
 50
356.06220199999939
 51
4.3439640000005717
  0
ARC
  5
9719
  8
0
 62
     0
 10
326.54457445369258
 20
569.53151197825116
 30
0.0
 40
6.599999999999997
 50
8.5901410000037774
 51
90.0
  0
ARC
  5
971A
  8
0
 62
     0
 10
325.18277345369268
 20
567.46109297825114
 30
0.0
 40
3.6000000000000001
 50
5.3758619999981763
 51
90.0
  0
ARC
  5
971B
  8
0
 62
     0
 10
-265.62237254630747
 20
522.69291997825121
 30
0.0
 40
600.59997599999986
 50
355.4679790000045
 51
4.5671770000027472
  0
ARC
  5
971C
  8
0
 62
     0
 10
844.57754845369232
 20
522.69285797825125
 30
0.0
 40
600.59997599999986
 50
175.4328159999979
 51
184.5320279999992
  0
ARC
  5
971D
  8
0
 62
     0
 10
289.47760345369261
 20
468.72908397825108
 30
0.0
 40
16.337935000000002
 50
47.767946999996333
 51
132.23205300000359
  0
LINE
  5
971E
  8
0
 62
     0
 10
255.70053445369251
 20
480.30702497825121
 30
0.0
 11
277.15203645369257
 21
480.30701697825128
 31
0.0
  0
LINE
  5
971F
  8
0
 62
     0
 10
252.4264104536926
 20
469.2542749782512
 30
0.0
 11
326.52879645369262
 21
469.2542749782512
 31
0.0
  0
LINE
  5
9720
  8
0
 62
     0
 10
252.22681045369271
 20
471.67215197825118
 30
0.0
 11
326.72839645369248
 21
471.67215197825118
 31
0.0
  0
LINE
  5
9721
  8
0
 62
     0
 10
254.46318345369261
 20
477.6289169782512
 30
0.0
 11
277.89918245369262
 21
477.62890897825127
 31
0.0
  0
ARC
  5
9722
  8
0
 62
     0
 10
289.54356745369262
 20
467.24309797825128
 30
0.0
 40
15.0
 50
46.7672420000033
 51
133.23275799999661
  0
ARC
  5
9723
  8
0
 62
     0
 10
252.4264104536926
 20
475.85427397825117
 30
0.0
 40
6.599999999999997
 50
185.37618999999609
 51
270.0
  0
ARC
  5
9724
  8
0
 62
     0
 10
252.22681045369271
 20
478.2721509782512
 30
0.0
 40
6.599999999999997
 50
188.0411830000034
 51
270.0
  0
ARC
  5
9725
  8
0
 62
     0
 10
254.46318345369261
 20
482.22892297825121
 30
0.0
 40
4.5999999999999961
 50
185.37625099999849
 51
270.0
  0
LINE
  5
9726
  8
0
 62
     0
 10
323.25467245369271
 20
480.30702497825121
 30
0.0
 11
301.8031704536927
 21
480.30701697825128
 31
0.0
  0
LINE
  5
9727
  8
0
 62
     0
 10
324.49202345369252
 20
477.6289169782512
 30
0.0
 11
301.18795245369267
 21
477.62890897825127
 31
0.0
  0
ARC
  5
9728
  8
0
 62
     0
 10
326.52879645369262
 20
475.85427397825117
 30
0.0
 40
6.599999999999997
 50
270.0
 51
354.62381000000369
  0
ARC
  5
9729
  8
0
 62
     0
 10
326.72839645369248
 20
478.2721509782512
 30
0.0
 40
6.599999999999997
 50
270.0
 51
351.9588320000023
  0
ARC
  5
972A
  8
0
 62
     0
 10
324.49202345369252
 20
482.22892297825121
 30
0.0
 40
4.5999999999999961
 50
270.0
 51
354.6237490000014
  0
ARC
  5
972B
  8
0
 62
     0
 10
277.89918345369261
 20
479.62890897825122
 30
0.0
 40
2.0
 50
270.0
 51
313.23275799999669
  0
ARC
  5
972C
  8
0
 62
     0
 10
277.15203745369263
 20
482.30701697825123
 30
0.0
 40
2.0
 50
270.0
 51
312.2320530000037
  0
ARC
  5
972D
  8
0
 62
     0
 10
301.80316945369248
 20
482.30701697825123
 30
0.0
 40
2.0
 50
227.7679469999963
 51
270.0
  0
ARC
  5
972E
  8
0
 62
     0
 10
301.18795145369268
 20
479.62890897825122
 30
0.0
 40
2.0
 50
226.76724200000331
 51
270.0
  0
ARC
  5
972F
  8
0
 62
     0
 10
117.97760345369259
 20
423.71108597825128
 30
0.0
 40
2.0
 50
180.0
 51
270.0
  0
LINE
  5
9731
  8
0
 62
     0
 10
188.97760345369261
 20
623.71108597825128
 30
0.0
 11
188.97760345369261
 21
421.71108597825122
 31
0.0
  0
ARC
  5
9732
  8
0
 62
     0
 10
118.3776034536926
 20
608.68790097825126
 30
0.0
 40
2.399999999999999
 50
159.99999999999659
 51
180.0
  0
ARC
  5
9733
  8
0
 62
     0
 10
122.9720674536926
 20
621.3110859782513
 30
0.0
 40
2.399999999999999
 50
90.0
 51
159.99999999999659
  0
LINE
  5
9734
  8
0
 62
     0
 10
120.7168044536926
 20
622.13193397825125
 30
0.0
 11
116.1223414536926
 21
609.50874997825122
 31
0.0
  0
LINE
  5
9735
  8
0
 62
     0
 10
121.29156845369261
 20
623.02453997825125
 30
0.0
 11
121.29156845369261
 21
421.71108597825088
 31
0.0
  0
LINE
  5
9736
  8
0
 62
     0
 10
115.97760345369259
 20
608.68790097825126
 30
0.0
 11
115.97760345369259
 21
423.71108597825128
 31
0.0
  0
LINE
  5
9737
  8
0
 62
     0
 10
188.97760345369261
 20
623.71108597825128
 30
0.0
 11
122.9720674536926
 21
623.71108597825128
 31
0.0
  0
LINE
  5
9738
  8
0
 62
     0
 10
341.43447945369257
 20
572.09608597825115
 30
0.0
 11
341.43447945369257
 21
551.73108597825114
 31
0.0
  0
LINE
  5
9739
  8
0
 62
     0
 10
357.47760245369261
 20
572.09608597825115
 30
0.0
 11
357.47760245369261
 21
551.73108597825114
 31
0.0
  0
LINE
  5
973A
  8
0
 62
     0
 10
372.02699845369261
 20
466.8902899782513
 30
0.0
 11
357.47760245369261
 21
466.8902899782513
 31
0.0
  0
LINE
  5
973B
  8
0
 62
     0
 10
376.97760345369261
 20
478.30263997825119
 30
0.0
 11
357.47760245369261
 21
478.30263997825119
 31
0.0
  0
LINE
  5
973C
  8
0
 62
     0
 10
342.1830004536925
 20
471.60537997825122
 30
0.0
 11
357.47760345369261
 21
466.8902899782513
 31
0.0
  0
LINE
  5
973D
  8
0
 62
     0
 10
357.47760345369261
 20
478.30263997825119
 30
0.0
 11
342.44166245369257
 21
477.76188897825119
 31
0.0
  0
ARC
  5
973E
  8
0
 62
     0
 10
342.47760345369261
 20
476.76253497825121
 30
0.0
 40
1.0
 50
92.059690999997201
 51
180.0
  0
ARC
  5
973F
  8
0
 62
     0
 10
342.47760345369261
 20
472.56099997825129
 30
0.0
 40
1.0
 50
180.0
 51
252.86627500000199
  0
LINE
  5
9740
  8
0
 62
     0
 10
357.47760345369261
 20
598.76387297825124
 30
0.0
 11
342.17714445369268
 21
593.94400697825131
 31
0.0
  0
ARC
  5
9741
  8
0
 62
     0
 10
342.47760345369261
 20
592.9902119782513
 30
0.0
 40
1.0
 50
107.485179
 51
180.0
  0
ARC
  5
9742
  8
0
 62
     0
 10
342.47760345369261
 20
590.63914697825123
 30
0.0
 40
1.0
 50
180.0
 51
270.0
  0
LINE
  5
9743
  8
0
 62
     0
 10
342.52615845369257
 20
589.64032597825121
 30
0.0
 11
357.47760345369261
 21
590.3671459782513
 31
0.0
  0
LINE
  5
9744
  8
0
 62
     0
 10
376.97760345369261
 20
590.3671459782513
 30
0.0
 11
357.47760345369261
 21
590.3671459782513
 31
0.0
  0
LINE
  5
9745
  8
0
 62
     0
 10
300.47760345369261
 20
621.19757897825116
 30
0.0
 11
387.9247884536926
 21
621.19757897825116
 31
0.0
  0
ARC
  5
9746
  8
0
 62
     0
 10
211.74184845369271
 20
619.19757897825139
 30
0.0
 40
2.0
 50
90.0
 51
156.1018000000004
  0
ARC
  5
9747
  8
0
 62
     0
 10
387.9247884536926
 20
619.19757897825139
 30
0.0
 40
2.0
 50
10.000001999998901
 51
90.0
  0
LINE
  5
9748
  8
0
 62
     0
 10
391.47760345369261
 20
610.56610297825125
 30
0.0
 11
389.89440345369258
 21
619.5448759782513
 31
0.0
  0
LINE
  5
9749
  8
0
 62
     0
 10
391.21679545369261
 20
610.56610297825125
 30
0.0
 11
391.47760345369261
 21
610.56610297825125
 31
0.0
  0
ARC
  5
974A
  8
0
 62
     0
 10
196.8088184536926
 20
618.00780497825122
 30
0.0
 40
2.0
 50
90.0
 51
169.99999800000111
  0
LINE
  5
974B
  8
0
 62
     0
 10
192.4776034536925
 20
604.96180197825129
 30
0.0
 11
194.83920345369239
 21
618.35510197825124
 31
0.0
  0
ARC
  5
974C
  8
0
 62
     0
 10
387.8737694536926
 20
618.00780497825122
 30
0.0
 40
2.0
 50
10.000001999998901
 51
90.0
  0
LINE
  5
974D
  8
0
 62
     0
 10
391.47760345369261
 20
609.08698497825139
 30
0.0
 11
389.84338445369258
 21
618.35510197825124
 31
0.0
  0
LINE
  5
974E
  8
0
 62
     0
 10
192.4776034536925
 20
604.96180197825129
 30
0.0
 11
193.0455094536926
 21
604.96180197825129
 31
0.0
  0
LINE
  5
974F
  8
0
 62
     0
 10
390.94163245369248
 20
609.08698497825139
 30
0.0
 11
391.47760345369261
 21
609.08698497825139
 31
0.0
  0
ARC
  5
9750
  8
0
 62
     0
 10
387.78791445369262
 20
615.45507097825123
 30
0.0
 40
2.0
 50
10.00000100000196
 51
90.0
  0
ARC
  5
9751
  8
0
 62
     0
 10
196.92660945369241
 20
615.45507097825123
 30
0.0
 40
2.0
 50
90.0
 51
169.9999989999979
  0
LINE
  5
9752
  8
0
 62
     0
 10
192.4776034536925
 20
601.74104597825124
 30
0.0
 11
194.95699345369269
 21
615.80236697825126
 31
0.0
  0
ARC
  5
9753
  8
0
 62
     0
 10
197.1077504536926
 20
611.48988597825132
 30
0.0
 40
2.0
 50
90.0
 51
170.00000000000131
  0
LINE
  5
9754
  8
0
 62
     0
 10
192.4776034536925
 20
596.74856097825125
 30
0.0
 11
195.1381344536926
 21
611.83718197825124
 31
0.0
  0
ARC
  5
9755
  8
0
 62
     0
 10
197.3889784536926
 20
605.91245797825138
 30
0.0
 40
2.0
 50
90.0
 51
170.00000000000131
  0
LINE
  5
9756
  8
0
 62
     0
 10
192.4776034536925
 20
589.57620897825132
 30
0.0
 11
195.41936245369249
 21
606.25975497825129
 31
0.0
  0
ARC
  5
9757
  8
0
 62
     0
 10
197.4842424536925
 20
599.91179097825125
 30
0.0
 40
2.0
 50
90.0
 51
169.9999989999979
  0
LINE
  5
9758
  8
0
 62
     0
 10
192.4776034536925
 20
583.03527297825121
 30
0.0
 11
195.5146264536927
 21
600.25908697825128
 31
0.0
  0
LINE
  5
9759
  8
0
 62
     0
 10
391.34934445369282
 20
606.77473497825122
 30
0.0
 11
389.75752945369248
 21
615.80236697825126
 31
0.0
  0
LINE
  5
975A
  8
0
 62
     0
 10
192.4776034536925
 20
601.74104597825124
 30
0.0
 11
193.3579134536925
 21
601.74104597825124
 31
0.0
  0
ARC
  5
975B
  8
0
 62
     0
 10
387.65853645369248
 20
611.48988597825132
 30
0.0
 40
2.0
 50
9.9999999999987068
 51
90.0
  0
LINE
  5
975C
  8
0
 62
     0
 10
390.52079845369281
 20
606.77473497825122
 30
0.0
 11
389.62815245369251
 21
611.83718197825124
 31
0.0
  0
ARC
  5
975D
  8
0
 62
     0
 10
322.86662145369257
 20
605.91245797825138
 30
0.0
 40
2.0
 50
5.5986529999989587
 51
90.0
  0
ARC
  5
975E
  8
0
 62
     0
 10
322.86466645369262
 20
599.91179097825125
 30
0.0
 40
2.0
 50
5.4290190000020546
 51
90.0
  0
LINE
  5
975F
  8
0
 62
     0
 10
393.47760345369261
 20
483.18837997825119
 30
0.0
 11
393.47760345369261
 21
584.97701897825118
 31
0.0
  0
LINE
  5
9760
  8
0
 62
     0
 10
393.47760345369261
 20
606.77473497825122
 30
0.0
 11
393.47760345369261
 21
610.91108597825132
 31
0.0
  0
LINE
  5
9761
  8
0
 62
     0
 10
341.43447945369257
 20
596.74856097825125
 30
0.0
 11
357.47760245369261
 21
601.34842297825128
 31
0.0
  0
LINE
  5
9762
  8
0
 62
     0
 10
325.77451845369262
 20
596.74856097825125
 30
0.0
 11
341.43447945369257
 21
596.74856097825125
 31
0.0
  0
LINE
  5
9763
  8
0
 62
     0
 10
357.47760245369261
 20
601.34842297825128
 30
0.0
 11
372.17088645369262
 21
601.34842297825128
 31
0.0
  0
ARC
  5
9764
  8
0
 62
     0
 10
374.17740245369271
 20
594.39435197825128
 30
0.0
 40
2.600398999999999
 50
179.9999819999943
 51
269.99997799999522
  0
ARC
  5
9765
  8
0
 62
     0
 10
374.17740245369271
 20
599.69433997825115
 30
0.0
 40
2.600403
 50
90.0
 51
179.9999819999943
  0
LINE
  5
9766
  8
0
 62
     0
 10
376.97760345369261
 20
597.11037097825124
 30
0.0
 11
375.47760345369261
 21
596.2443459782512
 31
0.0
  0
LINE
  5
9767
  8
0
 62
     0
 10
376.97760345369261
 20
598.11037097825124
 30
0.0
 11
375.47760345369261
 21
597.24434597825132
 31
0.0
  0
LINE
  5
9768
  8
0
 62
     0
 10
376.97760345369261
 20
603.14434597825118
 30
0.0
 11
376.97760345369261
 21
590.94434597825125
 31
0.0
  0
LINE
  5
9769
  8
0
 62
     0
 10
375.47760345369261
 20
603.14434597825118
 30
0.0
 11
376.97760345369261
 21
603.14434597825118
 31
0.0
  0
LINE
  5
976A
  8
0
 62
     0
 10
375.47760345369261
 20
590.94434597825125
 30
0.0
 11
376.97760345369261
 21
590.94434597825125
 31
0.0
  0
LINE
  5
976B
  8
0
 62
     0
 10
371.57760945369262
 20
599.69433997825115
 30
0.0
 11
371.57760945369262
 21
594.39435197825128
 31
0.0
  0
LINE
  5
976C
  8
0
 62
     0
 10
375.47760345369261
 20
603.14434597825118
 30
0.0
 11
375.47760345369261
 21
590.94434597825125
 31
0.0
  0
LINE
  5
976D
  8
0
 62
     0
 10
375.47760345369261
 20
591.79434597825116
 30
0.0
 11
374.17740245369271
 21
591.79434597825116
 31
0.0
  0
LINE
  5
976E
  8
0
 62
     0
 10
375.47760345369261
 20
602.29434597825127
 30
0.0
 11
374.17740245369271
 21
602.29434597825127
 31
0.0
  0
ARC
  5
976F
  8
0
 62
     0
 10
374.17740245369271
 20
468.35242497825141
 30
0.0
 40
2.600398999999999
 50
179.9999819999943
 51
269.99997799999522
  0
ARC
  5
9770
  8
0
 62
     0
 10
374.17740245369271
 20
473.65241297825122
 30
0.0
 40
2.600403
 50
90.0
 51
179.9999819999943
  0
LINE
  5
9771
  8
0
 62
     0
 10
376.97760345369261
 20
471.06844397825142
 30
0.0
 11
375.47760345369261
 21
470.20241897825127
 31
0.0
  0
LINE
  5
9772
  8
0
 62
     0
 10
376.97760345369261
 20
472.0684439782512
 30
0.0
 11
375.47760345369261
 21
471.20241897825122
 31
0.0
  0
LINE
  5
9773
  8
0
 62
     0
 10
376.97760345369261
 20
477.10241897825119
 30
0.0
 11
376.97760345369261
 21
464.90241897825132
 31
0.0
  0
LINE
  5
9774
  8
0
 62
     0
 10
375.47760345369261
 20
477.10241897825119
 30
0.0
 11
376.97760345369261
 21
477.10241897825119
 31
0.0
  0
LINE
  5
9775
  8
0
 62
     0
 10
375.47760345369261
 20
464.90241897825132
 30
0.0
 11
376.97760345369261
 21
464.90241897825132
 31
0.0
  0
LINE
  5
9776
  8
0
 62
     0
 10
371.57760945369262
 20
473.65241297825122
 30
0.0
 11
371.57760945369262
 21
468.35242497825141
 31
0.0
  0
LINE
  5
9777
  8
0
 62
     0
 10
375.47760345369261
 20
477.10241897825119
 30
0.0
 11
375.47760345369261
 21
464.90241897825132
 31
0.0
  0
LINE
  5
9778
  8
0
 62
     0
 10
375.47760345369261
 20
465.75241897825111
 30
0.0
 11
374.17740245369271
 21
465.75241897825111
 31
0.0
  0
LINE
  5
9779
  8
0
 62
     0
 10
375.47760345369261
 20
476.25241897825128
 30
0.0
 11
374.17740245369271
 21
476.25241897825128
 31
0.0
  0
LINE
  5
977A
  8
0
 62
     0
 10
391.41677345369283
 20
610.91108597825132
 30
0.0
 11
393.47760345369261
 21
610.91108597825132
 31
0.0
  0
LINE
  5
977B
  8
0
 62
     0
 10
197.1077504536926
 20
613.48988597825132
 30
0.0
 11
387.65853645369248
 21
613.48988597825132
 31
0.0
  0
LINE
  5
977C
  8
0
 62
     0
 10
196.92660945369241
 20
617.45507097825123
 30
0.0
 11
387.78791445369262
 21
617.45507097825123
 31
0.0
  0
LINE
  5
977D
  8
0
 62
     0
 10
196.8088184536926
 20
620.00780497825099
 30
0.0
 11
387.8737694536926
 21
620.00780497825099
 31
0.0
  0
LINE
  5
977E
  8
0
 62
     0
 10
188.97760345369261
 20
616.41108597825132
 30
0.0
 11
194.49642145369251
 21
616.41108597825132
 31
0.0
  0
LINE
  5
977F
  8
0
 62
     0
 10
211.74184845369271
 20
621.19757897825116
 30
0.0
 11
278.47760345369261
 21
621.19757897825116
 31
0.0
  0
LINE
  5
9780
  8
0
 62
     0
 10
357.47760245369261
 20
580.07108597825129
 30
0.0
 11
357.47760245369261
 21
574.72608597825115
 31
0.0
  0
LINE
  5
9781
  8
0
 62
     0
 10
341.43447945369257
 20
580.07108597825129
 30
0.0
 11
341.43447945369257
 21
574.72608597825115
 31
0.0
  0
LINE
  5
9782
  8
0
 62
     0
 10
357.47760245369261
 20
590.3671459782513
 30
0.0
 11
357.47760245369261
 21
582.77108597825122
 31
0.0
  0
LINE
  5
9783
  8
0
 62
     0
 10
357.47760245369261
 20
598.76387297825124
 30
0.0
 11
371.57760945369262
 21
598.76387297825124
 31
0.0
  0
LINE
  5
9784
  8
0
 62
     0
 10
192.4776034536925
 20
583.03527297825121
 30
0.0
 11
326.47760345369261
 21
583.03527297825121
 31
0.0
  0
LINE
  5
9785
  8
0
 62
     0
 10
325.79997645369269
 20
589.57620897825132
 30
0.0
 11
326.47760345369261
 21
589.57620897825132
 31
0.0
  0
LINE
  5
9786
  8
0
 62
     0
 10
197.4842424536925
 20
601.91179097825125
 30
0.0
 11
322.86466645369262
 21
601.91179097825125
 31
0.0
  0
LINE
  5
9787
  8
0
 62
     0
 10
192.4776034536925
 20
589.57620897825132
 30
0.0
 11
193.6309464536925
 21
589.57620897825132
 31
0.0
  0
LINE
  5
9788
  8
0
 62
     0
 10
197.3889784536926
 20
607.91245797825115
 30
0.0
 11
322.86662145369257
 21
607.91245797825115
 31
0.0
  0
LINE
  5
9789
  8
0
 62
     0
 10
393.47760345369261
 20
584.97701897825118
 30
0.0
 11
396.47760345369261
 21
583.24496797825122
 31
0.0
  0
ARC
  5
978A
  8
0
 62
     0
 10
375.97760345369261
 20
585.97701897825129
 30
0.0
 40
1.0
 50
270.0
 51
0.0
  0
ARC
  5
978B
  8
0
 62
     0
 10
378.97760345369261
 20
604.77473497825122
 30
0.0
 40
2.0
 50
90.0
 51
180.0
  0
ARC
  5
978C
  8
0
 62
     0
 10
378.97760345369261
 20
600.65072997825132
 30
0.0
 40
2.0
 50
180.0
 51
270.0
  0
ARC
  5
978D
  8
0
 62
     0
 10
378.97760345369261
 20
596.65072997825132
 30
0.0
 40
2.0
 50
90.0
 51
180.0
  0
LINE
  5
978E
  8
0
 62
     0
 10
378.97760345369261
 20
606.77473497825122
 30
0.0
 11
396.47760345369261
 21
606.77473497825122
 31
0.0
  0
LINE
  5
978F
  8
0
 62
     0
 10
376.97760345369261
 20
584.97701897825118
 30
0.0
 11
393.47760345369261
 21
584.97701897825118
 31
0.0
  0
LINE
  5
9790
  8
0
 62
     0
 10
378.97760345369261
 20
598.65072997825132
 30
0.0
 11
396.47760345369261
 21
598.65072997825132
 31
0.0
  0
LINE
  5
9791
  8
0
 62
     0
 10
376.97760345369261
 20
585.97701897825129
 30
0.0
 11
376.97760345369261
 21
604.77473497825122
 31
0.0
  0
LINE
  5
9792
  8
0
 62
     0
 10
192.4776034536925
 20
438.91108597825121
 30
0.0
 11
188.97760345369261
 21
438.91108597825121
 31
0.0
  0
LINE
  5
9793
  8
0
 62
     0
 10
192.4776034536925
 20
488.55229697825109
 30
0.0
 11
197.0849794536924
 21
482.12069097825122
 31
0.0
  0
LINE
  5
9794
  8
0
 62
     0
 10
197.0849794536924
 20
482.12069097825122
 30
0.0
 11
197.94077945369261
 21
484.7476109782512
 31
0.0
  0
LINE
  5
9795
  8
0
 62
     0
 10
192.4776034536925
 20
488.55229697825109
 30
0.0
 11
197.94077945369261
 21
484.7476109782512
 31
0.0
  0
LINE
  5
9796
  8
0
 62
     0
 10
197.94077945369261
 20
484.7476109782512
 30
0.0
 11
199.15270945369249
 21
484.19165097825129
 31
0.0
  0
LINE
  5
9797
  8
0
 62
     0
 10
188.97760345369261
 20
482.12069097825122
 30
0.0
 11
197.0849794536924
 21
482.12069097825122
 31
0.0
  0
LINE
  5
9798
  8
0
 62
     0
 10
188.97760345369261
 20
488.55229697825109
 30
0.0
 11
192.4776034536925
 21
488.55229697825109
 31
0.0
  0
LINE
  5
9799
  8
0
 62
     0
 10
192.4776034536925
 20
465.97891097825112
 30
0.0
 11
192.4776034536925
 21
462.78601697825121
 31
0.0
  0
LINE
  5
979A
  8
0
 62
     0
 10
194.2376034536926
 20
465.41047697825121
 30
0.0
 11
194.2376034536926
 21
463.41169497825121
 31
0.0
  0
LINE
  5
979B
  8
0
 62
     0
 10
209.2376034536926
 20
474.41108597825121
 30
0.0
 11
209.2376034536926
 21
472.41169497825121
 31
0.0
  0
LINE
  5
979C
  8
0
 62
     0
 10
207.47760345369261
 20
474.87262797825127
 30
0.0
 11
207.47760345369261
 21
471.80489297825108
 31
0.0
  0
LINE
  5
979D
  8
0
 62
     0
 10
207.47760345369261
 20
474.87262797825127
 30
0.0
 11
245.89982045369271
 21
474.87262797825127
 31
0.0
  0
LINE
  5
979E
  8
0
 62
     0
 10
207.47760345369261
 20
471.80489297825108
 30
0.0
 11
247.21464445369261
 21
471.80489297825108
 31
0.0
  0
LINE
  5
979F
  8
0
 62
     0
 10
192.4776034536925
 20
462.78601697825121
 30
0.0
 11
289.47760345369261
 21
462.78601697825121
 31
0.0
  0
LINE
  5
97A0
  8
0
 62
     0
 10
192.4776034536925
 20
465.97891097825112
 30
0.0
 11
289.47760345369261
 21
465.97891097825112
 31
0.0
  0
LINE
  5
97A1
  8
0
 62
     0
 10
194.2376034536926
 20
465.41047697825121
 30
0.0
 11
289.47760345369261
 21
465.41047697825121
 31
0.0
  0
LINE
  5
97A2
  8
0
 62
     0
 10
194.2376034536926
 20
463.41169497825121
 30
0.0
 11
289.47760345369261
 21
463.41169497825121
 31
0.0
  0
LINE
  5
97A3
  8
0
 62
     0
 10
194.2376034536926
 20
465.41047697825121
 30
0.0
 11
192.4776034536925
 21
465.97891097825112
 31
0.0
  0
LINE
  5
97A4
  8
0
 62
     0
 10
194.2376034536926
 20
463.41169497825121
 30
0.0
 11
192.4776034536925
 21
462.78601697825121
 31
0.0
  0
LINE
  5
97A5
  8
0
 62
     0
 10
197.4208694536924
 20
472.1530069782512
 30
0.0
 11
198.60196045369261
 21
471.91559797825113
 31
0.0
  0
LINE
  5
97A6
  8
0
 62
     0
 10
209.2376034536926
 20
474.41108597825121
 30
0.0
 11
245.98613045369251
 21
474.41108597825121
 31
0.0
  0
LINE
  5
97A7
  8
0
 62
     0
 10
209.2376034536926
 20
472.41169497825121
 30
0.0
 11
246.79536645369251
 21
472.41169497825121
 31
0.0
  0
LINE
  5
97A8
  8
0
 62
     0
 10
209.2376034536926
 20
474.41108597825121
 30
0.0
 11
207.47760345369261
 21
474.87262797825127
 31
0.0
  0
LINE
  5
97A9
  8
0
 62
     0
 10
209.2376034536926
 20
472.41169497825121
 30
0.0
 11
207.47760345369261
 21
471.80489297825108
 31
0.0
  0
LINE
  5
97AA
  8
0
 62
     0
 10
326.47760345369261
 20
465.97891097825112
 30
0.0
 11
289.47760345369261
 21
465.97891097825112
 31
0.0
  0
LINE
  5
97AB
  8
0
 62
     0
 10
324.71760345369262
 20
465.41047697825121
 30
0.0
 11
289.47760345369261
 21
465.41047697825121
 31
0.0
  0
LINE
  5
97AC
  8
0
 62
     0
 10
324.71760345369262
 20
463.41169497825121
 30
0.0
 11
289.47760345369261
 21
463.41169497825121
 31
0.0
  0
LINE
  5
97AD
  8
0
 62
     0
 10
324.71760345369262
 20
463.41169497825121
 30
0.0
 11
326.47760345369261
 21
462.78601697825121
 31
0.0
  0
LINE
  5
97AE
  8
0
 62
     0
 10
324.71760345369262
 20
465.41047697825121
 30
0.0
 11
326.47760345369261
 21
465.97891097825112
 31
0.0
  0
LINE
  5
97AF
  8
0
 62
     0
 10
324.71760345369262
 20
465.41047697825121
 30
0.0
 11
324.71760345369262
 21
463.41169497825121
 31
0.0
  0
LINE
  5
97B0
  8
0
 62
     0
 10
326.47760345369261
 20
465.97891097825112
 30
0.0
 11
326.47760345369261
 21
462.78601697825121
 31
0.0
  0
LINE
  5
97B1
  8
0
 62
     0
 10
192.4776034536925
 20
462.78601697825121
 30
0.0
 11
194.0703454536926
 21
445.48682997825108
 31
0.0
  0
LINE
  5
97B2
  8
0
 62
     0
 10
192.4776034536925
 20
456.24596297825121
 30
0.0
 11
193.0797484536925
 21
456.24596297825121
 31
0.0
  0
LINE
  5
97B3
  8
0
 62
     0
 10
192.4776034536925
 20
449.07361097825122
 30
0.0
 11
193.1603804536926
 21
449.07361097825122
 31
0.0
  0
LINE
  5
97B4
  8
0
 62
     0
 10
192.4776034536925
 20
444.08112597825118
 30
0.0
 11
193.00211645369239
 21
444.08112597825118
 31
0.0
  0
LINE
  5
97B5
  8
0
 62
     0
 10
192.4776034536925
 20
440.8603699782513
 30
0.0
 11
192.8375454536926
 21
440.8603699782513
 31
0.0
  0
LINE
  5
97B6
  8
0
 62
     0
 10
192.4308264536927
 20
439.29078897825121
 30
0.0
 11
192.6612174536925
 21
439.29078897825121
 31
0.0
  0
LINE
  5
97B7
  8
0
 62
     0
 10
192.4776034536925
 20
456.24596297825121
 30
0.0
 11
194.06525545369249
 21
439.56818897825133
 31
0.0
  0
LINE
  5
97B8
  8
0
 62
     0
 10
192.4776034536925
 20
449.07361097825122
 30
0.0
 11
194.04943645369261
 21
434.11239997825129
 31
0.0
  0
LINE
  5
97B9
  8
0
 62
     0
 10
192.4776034536925
 20
444.08112597825118
 30
0.0
 11
194.0389144536926
 21
430.11053497825122
 31
0.0
  0
LINE
  5
97BA
  8
0
 62
     0
 10
192.4776034536925
 20
440.8603699782513
 30
0.0
 11
194.03082245369251
 21
427.58304197825117
 31
0.0
  0
LINE
  5
97BB
  8
0
 62
     0
 10
192.4308264536927
 20
439.29078897825121
 30
0.0
 11
194.0213424536926
 21
426.38005497825122
 31
0.0
  0
ARC
  5
97BC
  8
0
 62
     0
 10
196.06192145369241
 20
445.67019497825112
 30
0.0
 40
2.0
 50
185.2604109999981
 51
270.0
  0
ARC
  5
97BD
  8
0
 62
     0
 10
196.05625345369259
 20
439.75772397825131
 30
0.0
 40
2.0
 50
185.4379219999999
 51
270.0
  0
ARC
  5
97BE
  8
0
 62
     0
 10
196.03848945369251
 20
434.32137097825142
 30
0.0
 40
2.0
 50
185.99752600000011
 51
270.0
  0
ARC
  5
97BF
  8
0
 62
     0
 10
196.0265404536926
 20
430.33266597825121
 30
0.0
 40
2.0
 50
186.376742000001
 51
270.0
  0
ARC
  5
97C0
  8
0
 62
     0
 10
196.0172764536926
 20
427.81542297825121
 30
0.0
 40
2.0
 50
186.67229399999829
 51
270.0
  0
ARC
  5
97C1
  8
0
 62
     0
 10
196.0063364536926
 20
426.62459297825109
 30
0.0
 40
2.0
 50
187.02306899999661
 51
270.0
  0
LINE
  5
97C2
  8
0
 62
     0
 10
199.15270945369249
 20
484.19165097825129
 30
0.0
 11
199.15270945369249
 21
471.80489297825108
 31
0.0
  0
LINE
  5
97C3
  8
0
 62
     0
 10
197.0849794536924
 20
482.12069097825122
 30
0.0
 11
197.0849794536924
 21
472.22052397825121
 31
0.0
  0
LINE
  5
97C4
  8
0
 62
     0
 10
188.97760345369261
 20
471.80489297825108
 30
0.0
 11
199.15270945369249
 21
471.80489297825108
 31
0.0
  0
LINE
  5
97C5
  8
0
 62
     0
 10
188.97760345369261
 20
472.22052397825121
 30
0.0
 11
197.0849794536924
 21
472.22052397825121
 31
0.0
  0
LINE
  5
97C6
  8
0
 62
     0
 10
391.47760345369261
 20
538.09108597825116
 30
0.0
 11
389.71760345369262
 21
538.64108597825134
 31
0.0
  0
LINE
  5
97C7
  8
0
 62
     0
 10
391.47760345369261
 20
540.73108597825114
 30
0.0
 11
391.47760345369261
 21
538.09108597825116
 31
0.0
  0
LINE
  5
97C8
  8
0
 62
     0
 10
389.71760345369262
 20
540.24108597825125
 30
0.0
 11
391.47760345369261
 21
540.73108597825114
 31
0.0
  0
LINE
  5
97C9
  8
0
 62
     0
 10
389.71760345369262
 20
540.24108597825125
 30
0.0
 11
389.71760345369262
 21
538.64108597825134
 31
0.0
  0
LINE
  5
97CA
  8
0
 62
     0
 10
391.47760345369261
 20
527.09108597825139
 30
0.0
 11
389.71760345369262
 21
527.64108597825134
 31
0.0
  0
LINE
  5
97CB
  8
0
 62
     0
 10
391.47760345369261
 20
529.73108597825114
 30
0.0
 11
391.47760345369261
 21
527.09108597825139
 31
0.0
  0
LINE
  5
97CC
  8
0
 62
     0
 10
389.71760345369262
 20
529.24108597825125
 30
0.0
 11
391.47760345369261
 21
529.73108597825114
 31
0.0
  0
LINE
  5
97CD
  8
0
 62
     0
 10
389.71760345369262
 20
529.24108597825125
 30
0.0
 11
389.71760345369262
 21
527.64108597825134
 31
0.0
  0
LINE
  5
97CE
  8
0
 62
     0
 10
391.47760345369261
 20
516.09108597825127
 30
0.0
 11
389.71760345369262
 21
516.64108597825134
 31
0.0
  0
LINE
  5
97CF
  8
0
 62
     0
 10
391.47760345369261
 20
518.73108597825114
 30
0.0
 11
391.47760345369261
 21
516.09108597825127
 31
0.0
  0
LINE
  5
97D0
  8
0
 62
     0
 10
389.71760345369262
 20
518.24108597825125
 30
0.0
 11
391.47760345369261
 21
518.73108597825114
 31
0.0
  0
LINE
  5
97D1
  8
0
 62
     0
 10
389.71760345369262
 20
518.24108597825125
 30
0.0
 11
389.71760345369262
 21
516.64108597825134
 31
0.0
  0
LINE
  5
97D2
  8
0
 62
     0
 10
391.47760345369261
 20
505.09108597825121
 30
0.0
 11
389.71760345369262
 21
505.64108597825128
 31
0.0
  0
LINE
  5
97D3
  8
0
 62
     0
 10
391.47760345369261
 20
507.7310859782512
 30
0.0
 11
391.47760345369261
 21
505.09108597825121
 31
0.0
  0
LINE
  5
97D4
  8
0
 62
     0
 10
389.71760345369262
 20
507.24108597825142
 30
0.0
 11
391.47760345369261
 21
507.7310859782512
 31
0.0
  0
LINE
  5
97D5
  8
0
 62
     0
 10
389.71760345369262
 20
507.24108597825142
 30
0.0
 11
389.71760345369262
 21
505.64108597825128
 31
0.0
  0
LINE
  5
97D6
  8
0
 62
     0
 10
390.8892724536928
 20
436.40180597825122
 30
0.0
 11
389.85764345369262
 21
427.58304497825122
 31
0.0
  0
LINE
  5
97D7
  8
0
 62
     0
 10
389.82238645369262
 20
430.11023897825129
 30
0.0
 11
390.87734345369279
 21
439.53722597825117
 31
0.0
  0
LINE
  5
97D8
  8
0
 62
     0
 10
389.84945645369282
 20
434.11109497825117
 30
0.0
 11
390.94836845369252
 21
444.50526897825119
 31
0.0
  0
LINE
  5
97D9
  8
0
 62
     0
 10
390.9993094536926
 20
451.04188897825128
 30
0.0
 11
389.8740284536928
 21
439.56260497825127
 31
0.0
  0
LINE
  5
97DA
  8
0
 62
     0
 10
391.0404764536928
 20
458.45163097825127
 30
0.0
 11
389.80775945369282
 21
445.48096997825121
 31
0.0
  0
LINE
  5
97DB
  8
0
 62
     0
 10
390.94939545369277
 20
435.26547797825123
 30
0.0
 11
389.87736245369251
 21
426.38489997825133
 31
0.0
  0
LINE
  5
97DC
  8
0
 62
     0
 10
389.71760345369262
 20
496.24108597825119
 30
0.0
 11
389.71760345369262
 21
494.64108597825123
 31
0.0
  0
LINE
  5
97DD
  8
0
 62
     0
 10
389.71760345369262
 20
496.24108597825119
 30
0.0
 11
391.47760345369261
 21
496.73108597825131
 31
0.0
  0
LINE
  5
97DE
  8
0
 62
     0
 10
391.47760345369261
 20
496.73108597825131
 30
0.0
 11
391.47760345369261
 21
494.09108597825121
 31
0.0
  0
LINE
  5
97DF
  8
0
 62
     0
 10
391.47760345369261
 20
494.09108597825121
 30
0.0
 11
389.71760345369262
 21
494.64108597825123
 31
0.0
  0
LINE
  5
97E0
  8
0
 62
     0
 10
389.71760345369262
 20
551.24108597825125
 30
0.0
 11
389.71760345369262
 21
549.64108597825134
 31
0.0
  0
LINE
  5
97E1
  8
0
 62
     0
 10
389.71760345369262
 20
551.24108597825125
 30
0.0
 11
391.47760345369261
 21
551.73108597825114
 31
0.0
  0
LINE
  5
97E2
  8
0
 62
     0
 10
391.47760345369261
 20
551.73108597825114
 30
0.0
 11
391.47760345369261
 21
549.09108597825139
 31
0.0
  0
LINE
  5
97E3
  8
0
 62
     0
 10
391.47760345369261
 20
549.09108597825139
 30
0.0
 11
389.71760345369262
 21
549.64108597825134
 31
0.0
  0
LINE
  5
97E4
  8
0
 62
     0
 10
341.43447945369257
 20
549.09108597825139
 30
0.0
 11
341.43447945369257
 21
540.73108597825114
 31
0.0
  0
LINE
  5
97E5
  8
0
 62
     0
 10
357.47760245369261
 20
549.09108597825139
 30
0.0
 11
357.47760245369261
 21
540.73108597825114
 31
0.0
  0
LINE
  5
97E6
  8
0
 62
     0
 10
357.47760245369261
 20
538.09108597825116
 30
0.0
 11
357.47760245369261
 21
529.73108597825114
 31
0.0
  0
LINE
  5
97E7
  8
0
 62
     0
 10
341.43447945369257
 20
538.09108597825116
 30
0.0
 11
341.43447945369257
 21
529.73108597825114
 31
0.0
  0
LINE
  5
97E8
  8
0
 62
     0
 10
341.43447945369257
 20
527.09108597825139
 30
0.0
 11
341.43447945369257
 21
518.73108597825114
 31
0.0
  0
LINE
  5
97E9
  8
0
 62
     0
 10
357.47760245369261
 20
527.09108597825139
 30
0.0
 11
357.47760245369261
 21
518.73108597825114
 31
0.0
  0
LINE
  5
97EA
  8
0
 62
     0
 10
357.47760245369261
 20
516.09108597825127
 30
0.0
 11
357.47760245369261
 21
507.7310859782512
 31
0.0
  0
LINE
  5
97EB
  8
0
 62
     0
 10
341.43447945369257
 20
516.09108597825127
 30
0.0
 11
341.43447945369257
 21
507.7310859782512
 31
0.0
  0
LINE
  5
97EC
  8
0
 62
     0
 10
341.43447945369257
 20
505.09108597825121
 30
0.0
 11
341.43447945369257
 21
496.73108597825131
 31
0.0
  0
LINE
  5
97ED
  8
0
 62
     0
 10
357.47760245369261
 20
505.09108597825121
 30
0.0
 11
357.47760245369261
 21
496.73108597825131
 31
0.0
  0
LINE
  5
97EE
  8
0
 62
     0
 10
357.47760245369261
 20
494.09108597825121
 30
0.0
 11
357.47760245369261
 21
478.30263997825119
 31
0.0
  0
LINE
  5
97EF
  8
0
 62
     0
 10
341.43447945369257
 20
494.09108597825121
 30
0.0
 11
341.43447945369257
 21
462.78601697825121
 31
0.0
  0
LINE
  5
97F0
  8
0
 62
     0
 10
391.0404764536928
 20
458.45163097825127
 30
0.0
 11
357.47760245369261
 21
458.45163097825127
 31
0.0
  0
LINE
  5
97F1
  8
0
 62
     0
 10
390.9993094536926
 20
451.04188897825128
 30
0.0
 11
390.33626345369282
 21
451.04188897825128
 31
0.0
  0
ARC
  5
97F2
  8
0
 62
     0
 10
387.8167314536928
 20
445.67019497825112
 30
0.0
 40
2.0
 50
270.0
 51
354.57098099999791
  0
ARC
  5
97F3
  8
0
 62
     0
 10
387.8835694536927
 20
439.75772397825131
 30
0.0
 40
2.0
 50
270.0
 51
354.40134700000078
  0
ARC
  5
97F4
  8
0
 62
     0
 10
387.86054145369258
 20
434.32137097825142
 30
0.0
 40
2.0
 50
270.0
 51
353.96488600000038
  0
ARC
  5
97F5
  8
0
 62
     0
 10
387.83479345369278
 20
430.33266597825121
 30
0.0
 40
2.0
 50
270.0
 51
353.61470099999991
  0
ARC
  5
97F6
  8
0
 62
     0
 10
387.87118945369252
 20
427.81542297825121
 30
0.0
 40
2.0
 50
270.0
 51
353.32779999999809
  0
ARC
  5
97F7
  8
0
 62
     0
 10
387.89177845369261
 20
426.62459297825109
 30
0.0
 40
2.0
 50
270.0
 51
353.11676000000148
  0
LINE
  5
97F8
  8
0
 62
     0
 10
390.94836845369252
 20
444.50526897825119
 30
0.0
 11
390.35854345369262
 21
444.50526897825119
 31
0.0
  0
LINE
  5
97F9
  8
0
 62
     0
 10
390.87734345369279
 20
439.53722597825117
 30
0.0
 11
390.4231284536927
 21
439.53722597825117
 31
0.0
  0
LINE
  5
97FA
  8
0
 62
     0
 10
390.8892724536928
 20
436.40180597825122
 30
0.0
 11
390.52646445369282
 21
436.40180597825122
 31
0.0
  0
LINE
  5
97FB
  8
0
 62
     0
 10
390.94939545369277
 20
435.26547797825123
 30
0.0
 11
390.75634345369281
 21
435.26547797825123
 31
0.0
  0
LINE
  5
97FC
  8
0
 62
     0
 10
393.47760345369261
 20
483.18837997825119
 30
0.0
 11
376.97760345369261
 21
483.18837997825119
 31
0.0
  0
LINE
  5
97FD
  8
0
 62
     0
 10
396.47760345369261
 20
473.00908797825127
 30
0.0
 11
378.97760345369261
 21
473.00908797825127
 31
0.0
  0
LINE
  5
97FE
  8
0
 62
     0
 10
396.47760345369261
 20
460.72180697825121
 30
0.0
 11
378.97760345369261
 21
460.72180697825121
 31
0.0
  0
LINE
  5
97FF
  8
0
 62
     0
 10
376.97760345369261
 20
482.18837997825108
 30
0.0
 11
376.97760345369261
 21
462.72180697825132
 31
0.0
  0
LINE
  5
9800
  8
0
 62
     0
 10
393.47760345369261
 20
483.18837997825119
 30
0.0
 11
396.47760345369261
 21
484.9204309782512
 31
0.0
  0
ARC
  5
9801
  8
0
 62
     0
 10
378.97760345369261
 20
475.00908797825122
 30
0.0
 40
2.0
 50
180.0
 51
270.0
  0
ARC
  5
9802
  8
0
 62
     0
 10
378.97760345369261
 20
462.72180697825132
 30
0.0
 40
2.0
 50
180.0
 51
270.0
  0
ARC
  5
9803
  8
0
 62
     0
 10
378.97760345369261
 20
471.00908797825122
 30
0.0
 40
2.0
 50
90.0
 51
180.0
  0
LINE
  5
9804
  8
0
 62
     0
 10
357.47760245369261
 20
466.8902899782513
 30
0.0
 11
357.47760245369261
 21
458.45163097825127
 31
0.0
  0
LINE
  5
9805
  8
0
 62
     0
 10
341.43447945369257
 20
462.78601697825121
 30
0.0
 11
357.47760245369261
 21
458.45163097825127
 31
0.0
  0
ARC
  5
9806
  8
0
 62
     0
 10
375.97760345369261
 20
482.18837997825108
 30
0.0
 40
1.0
 50
0.0
 51
90.0
  0
LINE
  5
9807
  8
0
 62
     0
 10
341.43447945369257
 20
462.78601697825121
 30
0.0
 11
289.47760345369261
 21
462.78601697825121
 31
0.0
  0
LINE
  5
9808
  8
0
 62
     0
 10
387.89177845369261
 20
424.6245929782512
 30
0.0
 11
196.0063364536926
 21
424.6245929782512
 31
0.0
  0
LINE
  5
9809
  8
0
 62
     0
 10
387.87118945369252
 20
425.81542297825121
 30
0.0
 11
196.0172764536926
 21
425.81542297825121
 31
0.0
  0
LINE
  5
980A
  8
0
 62
     0
 10
387.83479345369278
 20
428.33266597825121
 30
0.0
 11
196.0265404536926
 21
428.33266597825121
 31
0.0
  0
LINE
  5
980B
  8
0
 62
     0
 10
387.86054145369258
 20
432.3213709782512
 30
0.0
 11
196.03848945369251
 21
432.3213709782512
 31
0.0
  0
LINE
  5
980C
  8
0
 62
     0
 10
387.8835694536927
 20
437.75772397825119
 30
0.0
 11
196.05625345369259
 21
437.75772397825119
 31
0.0
  0
LINE
  5
980D
  8
0
 62
     0
 10
387.8167314536928
 20
443.67019497825129
 30
0.0
 11
196.06192145369241
 21
443.67019497825129
 31
0.0
  0
LINE
  5
980E
  8
0
 62
     0
 10
341.43447945369257
 20
596.74856097825125
 30
0.0
 11
341.43447945369257
 21
582.77108597825122
 31
0.0
  0
LINE
  5
980F
  8
0
 62
     0
 10
357.47760245369261
 20
601.34842297825128
 30
0.0
 11
357.47760245369261
 21
598.76387297825124
 31
0.0
  0
LINE
  5
9810
  8
0
 62
     0
 10
334.27521545369262
 20
551.73108597825114
 30
0.0
 11
391.47760345369261
 21
551.73108597825114
 31
0.0
  0
LINE
  5
9811
  8
0
 62
     0
 10
334.29873345369248
 20
551.24108597825125
 30
0.0
 11
389.71760345369262
 21
551.24108597825125
 31
0.0
  0
LINE
  5
9812
  8
0
 62
     0
 10
334.3716994536926
 20
549.64108597825134
 30
0.0
 11
389.71760345369262
 21
549.64108597825134
 31
0.0
  0
LINE
  5
9813
  8
0
 62
     0
 10
334.3716994536926
 20
549.09108597825139
 30
0.0
 11
391.47760345369261
 21
549.09108597825139
 31
0.0
  0
LINE
  5
9814
  8
0
 62
     0
 10
334.41622145369257
 20
496.73108597825131
 30
0.0
 11
391.47760345369261
 21
496.73108597825131
 31
0.0
  0
LINE
  5
9815
  8
0
 62
     0
 10
334.39482045369249
 20
496.24108597825119
 30
0.0
 11
389.71760345369262
 21
496.24108597825119
 31
0.0
  0
LINE
  5
9816
  8
0
 62
     0
 10
334.3221464536926
 20
494.64108597825123
 30
0.0
 11
389.71760345369262
 21
494.64108597825123
 31
0.0
  0
LINE
  5
9817
  8
0
 62
     0
 10
334.29617745369262
 20
494.09108597825121
 30
0.0
 11
391.47760345369261
 21
494.09108597825121
 31
0.0
  0
LINE
  5
9818
  8
0
 62
     0
 10
334.96149945369262
 20
527.09108597825139
 30
0.0
 11
391.47760345369261
 21
527.09108597825139
 31
0.0
  0
LINE
  5
9819
  8
0
 62
     0
 10
334.95721945369257
 20
527.64108597825134
 30
0.0
 11
389.71760345369262
 21
527.64108597825134
 31
0.0
  0
LINE
  5
981A
  8
0
 62
     0
 10
334.79121345369259
 20
507.7310859782512
 30
0.0
 11
391.47760345369261
 21
507.7310859782512
 31
0.0
  0
LINE
  5
981B
  8
0
 62
     0
 10
334.7788034536926
 20
507.24108597825142
 30
0.0
 11
389.71760345369262
 21
507.24108597825142
 31
0.0
  0
LINE
  5
981C
  8
0
 62
     0
 10
334.73549245369247
 20
505.64108597825128
 30
0.0
 11
389.71760345369262
 21
505.64108597825128
 31
0.0
  0
LINE
  5
981D
  8
0
 62
     0
 10
334.71961845369259
 20
505.09108597825121
 30
0.0
 11
391.47760345369261
 21
505.09108597825121
 31
0.0
  0
LINE
  5
981E
  8
0
 62
     0
 10
334.96453645369257
 20
518.73108597825114
 30
0.0
 11
391.47760345369261
 21
518.73108597825114
 31
0.0
  0
LINE
  5
981F
  8
0
 62
     0
 10
334.9611044536926
 20
518.24108597825125
 30
0.0
 11
389.71760345369262
 21
518.24108597825125
 31
0.0
  0
LINE
  5
9820
  8
0
 62
     0
 10
334.94711245369263
 20
516.64108597825134
 30
0.0
 11
389.71760345369262
 21
516.64108597825134
 31
0.0
  0
LINE
  5
9821
  8
0
 62
     0
 10
334.9413184536927
 20
516.09108597825127
 30
0.0
 11
391.47760345369261
 21
516.09108597825127
 31
0.0
  0
LINE
  5
9822
  8
0
 62
     0
 10
334.72119045369271
 20
540.73108597825114
 30
0.0
 11
391.47760345369261
 21
540.73108597825114
 31
0.0
  0
LINE
  5
9823
  8
0
 62
     0
 10
334.72119045369271
 20
540.24108597825125
 30
0.0
 11
389.71760345369262
 21
540.24108597825125
 31
0.0
  0
LINE
  5
9824
  8
0
 62
     0
 10
334.76582445369257
 20
538.64108597825134
 30
0.0
 11
389.71760345369262
 21
538.64108597825134
 31
0.0
  0
LINE
  5
9825
  8
0
 62
     0
 10
334.78018245369248
 20
538.09108597825116
 30
0.0
 11
391.47760345369261
 21
538.09108597825116
 31
0.0
  0
LINE
  5
9826
  8
0
 62
     0
 10
334.93636345369248
 20
529.73108597825114
 30
0.0
 11
391.47760345369261
 21
529.73108597825114
 31
0.0
  0
LINE
  5
9827
  8
0
 62
     0
 10
334.9419064536927
 20
529.24108597825125
 30
0.0
 11
389.71760345369262
 21
529.24108597825125
 31
0.0
  0
LINE
  5
9828
  8
0
 62
     0
 10
393.47760345369261
 20
434.91108597825121
 30
0.0
 11
393.47760345369261
 21
460.72180697825121
 31
0.0
  0
LINE
  5
9829
  8
0
 62
     0
 10
390.90661445369278
 20
434.91108597825121
 30
0.0
 11
393.47760345369261
 21
434.91108597825121
 31
0.0
  0
LINE
  5
982A
  8
0
 62
     0
 10
391.47760345369261
 20
582.77108597825122
 30
0.0
 11
389.71760345369262
 21
582.21108597825128
 31
0.0
  0
LINE
  5
982B
  8
0
 62
     0
 10
389.71760345369262
 20
580.61108597825125
 30
0.0
 11
391.47760345369261
 21
580.07108597825129
 31
0.0
  0
LINE
  5
982C
  8
0
 62
     0
 10
391.47760345369261
 20
580.07108597825129
 30
0.0
 11
391.47760345369261
 21
582.77108597825122
 31
0.0
  0
LINE
  5
982D
  8
0
 62
     0
 10
389.71760345369262
 20
580.61108597825125
 30
0.0
 11
389.71760345369262
 21
582.21108597825128
 31
0.0
  0
LINE
  5
982E
  8
0
 62
     0
 10
391.47760345369261
 20
574.72608597825115
 30
0.0
 11
389.71760345369262
 21
574.18608597825119
 31
0.0
  0
LINE
  5
982F
  8
0
 62
     0
 10
389.71760345369262
 20
572.58608597825116
 30
0.0
 11
391.47760345369261
 21
572.09608597825115
 31
0.0
  0
LINE
  5
9830
  8
0
 62
     0
 10
389.71760345369262
 20
572.58608597825116
 30
0.0
 11
389.71760345369262
 21
574.18608597825119
 31
0.0
  0
LINE
  5
9831
  8
0
 62
     0
 10
391.47760345369261
 20
572.09608597825115
 30
0.0
 11
391.47760345369261
 21
574.72608597825115
 31
0.0
  0
LINE
  5
9832
  8
0
 62
     0
 10
326.47760345369261
 20
583.03527297825121
 30
0.0
 11
324.85569445369282
 21
600.10101597825121
 31
0.0
  0
LINE
  5
9833
  8
0
 62
     0
 10
326.47760345369261
 20
589.57620897825132
 30
0.0
 11
324.8570804536925
 21
606.10757697825125
 31
0.0
  0
LINE
  5
9834
  8
0
 62
     0
 10
193.7422824536925
 20
596.74856097825125
 30
0.0
 11
192.4776034536925
 21
596.74856097825125
 31
0.0
  0
LINE
  5
9835
  8
0
 62
     0
 10
192.4776034536925
 20
582.77108597825122
 30
0.0
 11
194.2376034536926
 21
582.21108597825128
 31
0.0
  0
LINE
  5
9836
  8
0
 62
     0
 10
194.2376034536926
 20
580.61108597825125
 30
0.0
 11
192.4776034536925
 21
580.07108597825129
 31
0.0
  0
LINE
  5
9837
  8
0
 62
     0
 10
192.4776034536925
 20
574.72608597825115
 30
0.0
 11
194.2376034536926
 21
574.18608597825119
 31
0.0
  0
LINE
  5
9838
  8
0
 62
     0
 10
194.2376034536926
 20
572.58608597825116
 30
0.0
 11
192.4776034536925
 21
572.09608597825115
 31
0.0
  0
LINE
  5
9839
  8
0
 62
     0
 10
192.4776034536925
 20
580.07108597825129
 30
0.0
 11
192.4776034536925
 21
582.77108597825122
 31
0.0
  0
LINE
  5
983A
  8
0
 62
     0
 10
194.2376034536926
 20
580.61108597825125
 30
0.0
 11
194.2376034536926
 21
582.21108597825128
 31
0.0
  0
LINE
  5
983B
  8
0
 62
     0
 10
194.2376034536926
 20
572.58608597825116
 30
0.0
 11
194.2376034536926
 21
574.18608597825119
 31
0.0
  0
LINE
  5
983C
  8
0
 62
     0
 10
192.4776034536925
 20
572.09608597825115
 30
0.0
 11
192.4776034536925
 21
574.72608597825115
 31
0.0
  0
LINE
  5
983D
  8
0
 62
     0
 10
192.4776034536925
 20
561.63052097825107
 30
0.0
 11
245.24109045369269
 21
561.63052097825107
 31
0.0
  0
LINE
  5
983E
  8
0
 62
     0
 10
200.84760345369261
 20
560.77874797825132
 30
0.0
 11
245.1863604536926
 21
560.77874797825132
 31
0.0
  0
LINE
  5
983F
  8
0
 62
     0
 10
192.4776034536925
 20
561.63052097825107
 30
0.0
 11
200.84760345369261
 21
560.77874797825132
 31
0.0
  0
LINE
  5
9840
  8
0
 62
     0
 10
199.15270945369249
 20
484.19165097825129
 30
0.0
 11
245.2128944536926
 21
484.19165097825129
 31
0.0
  0
LINE
  5
9841
  8
0
 62
     0
 10
200.84760345369261
 20
485.04342397825121
 30
0.0
 11
245.15878745369261
 21
485.04342397825121
 31
0.0
  0
LINE
  5
9842
  8
0
 62
     0
 10
192.4776034536925
 20
488.55229697825109
 30
0.0
 11
192.4776034536925
 21
561.63052097825107
 31
0.0
  0
LINE
  5
9843
  8
0
 62
     0
 10
192.4776034536925
 20
488.55229697825109
 30
0.0
 11
197.94077945369261
 21
484.7476109782512
 31
0.0
  0
LINE
  5
9844
  8
0
 62
     0
 10
197.94077945369261
 20
484.7476109782512
 30
0.0
 11
199.15270945369249
 21
484.19165097825129
 31
0.0
  0
LINE
  5
9845
  8
0
 62
     0
 10
197.94077945369261
 20
484.7476109782512
 30
0.0
 11
200.84760345369261
 21
485.04342397825121
 31
0.0
  0
LINE
  5
9846
  8
0
 62
     0
 10
200.84760345369261
 20
485.04342397825121
 30
0.0
 11
200.84760345369261
 21
560.77874797825132
 31
0.0
  0
LINE
  5
9847
  8
0
 62
     0
 10
188.97760345369261
 20
606.53138297825114
 30
0.0
 11
192.75436245369261
 21
606.53138297825114
 31
0.0
  0
LINE
  5
9848
  8
0
 62
     0
 10
278.47760345369261
 20
623.91108597825132
 30
0.0
 11
300.47760345369261
 21
623.91108597825132
 31
0.0
  0
LINE
  5
9849
  8
0
 62
     0
 10
278.47760345369261
 20
623.91108597825132
 30
0.0
 11
278.47760345369261
 21
620.00780497825099
 31
0.0
  0
LINE
  5
984A
  8
0
 62
     0
 10
300.47760345369261
 20
623.91108597825132
 30
0.0
 11
300.47760345369261
 21
620.00780497825099
 31
0.0
  0
LINE
  5
984B
  8
0
 62
     0
 10
194.2376034536926
 20
580.61108597825125
 30
0.0
 11
389.71760345369262
 21
580.61108597825125
 31
0.0
  0
LINE
  5
984C
  8
0
 62
     0
 10
194.2376034536926
 20
582.21108597825128
 30
0.0
 11
389.71760345369262
 21
582.21108597825128
 31
0.0
  0
LINE
  5
984D
  8
0
 62
     0
 10
192.4776034536925
 20
580.07108597825129
 30
0.0
 11
391.47760345369261
 21
580.07108597825129
 31
0.0
  0
LINE
  5
984E
  8
0
 62
     0
 10
192.4776034536925
 20
582.77108597825122
 30
0.0
 11
391.47760345369261
 21
582.77108597825122
 31
0.0
  0
LINE
  5
984F
  8
0
 62
     0
 10
192.4776034536925
 20
572.09608597825115
 30
0.0
 11
246.3292704536926
 21
572.09608597825115
 31
0.0
  0
LINE
  5
9850
  8
0
 62
     0
 10
192.4776034536925
 20
574.72608597825115
 30
0.0
 11
248.33921945369261
 21
574.72608597825115
 31
0.0
  0
LINE
  5
9851
  8
0
 62
     0
 10
194.2376034536926
 20
572.58608597825116
 30
0.0
 11
246.5600274536927
 21
572.58608597825116
 31
0.0
  0
LINE
  5
9852
  8
0
 62
     0
 10
194.2376034536926
 20
574.18608597825119
 30
0.0
 11
247.73142945369261
 21
574.18608597825119
 31
0.0
  0
LINE
  5
9853
  8
0
 62
     0
 10
396.47760345369261
 20
437.91108597825121
 30
0.0
 11
393.47760345369261
 21
434.91108597825121
 31
0.0
  0
LINE
  5
9854
  8
0
 62
     0
 10
396.47760345369261
 20
437.91108597825121
 30
0.0
 11
396.47760345369261
 21
607.91108597825132
 31
0.0
  0
LINE
  5
9855
  8
0
 62
     0
 10
396.47760345369261
 20
607.91108597825132
 30
0.0
 11
393.47760345369261
 21
610.91108597825132
 31
0.0
  0
LINE
  5
9B40
  8
0
 62
     0
 10
117.97760345369259
 20
421.71108597825122
 30
0.0
 11
188.97760345369261
 21
421.71108597825122
 31
0.0
  0
LINE
  5
A111
  8
0
  6
AM_ISO08W050
 62
     0
 10
90.259678985354185
 20
904.59936147383121
 30
0.0
 11
663.99154345369243
 21
904.59936147383121
 31
0.0
  0
LINE
  5
A112
  8
0
  6
CONTINUOUS
 62
     0
 10
451.90786345369219
 20
1033.3431414738311
 30
0.0
 11
462.97763345369242
 21
1033.729731473831
 31
0.0
  0
LINE
  5
A113
  8
0
  6
CONTINUOUS
 62
     0
 10
435.97763345369242
 20
790.49133147383122
 30
0.0
 11
435.97763345369242
 21
900.59930147383056
 31
0.0
  0
LINE
  5
A114
  8
0
  6
CONTINUOUS
 62
     0
 10
449.97750345369218
 20
768.38952147383122
 30
0.0
 11
449.97750345369218
 21
895.05993147383106
 31
0.0
  0
LINE
  5
A115
  8
0
  6
CONTINUOUS
 62
     0
 10
438.45669345369248
 20
1021.678341473831
 30
0.0
 11
447.49856345369278
 21
1023.272701473831
 31
0.0
  0
LINE
  5
A116
  8
0
  6
CONTINUOUS
 62
     0
 10
575.85641345369243
 20
864.47803147383104
 30
0.0
 11
580.09902345369278
 21
868.72064147383105
 31
0.0
  0
LINE
  5
A117
  8
0
  6
CONTINUOUS
 62
     0
 10
575.8563534536928
 20
950.72064147383105
 30
0.0
 11
580.09902345369278
 21
946.47796147383076
 31
0.0
  0
LINE
  5
A118
  8
0
  6
CONTINUOUS
 62
     0
 10
584.97763345369242
 20
925.5993614738311
 30
0.0
 11
654.97760345369238
 21
925.5993614738311
 31
0.0
  0
LINE
  5
A119
  8
0
  6
CONTINUOUS
 62
     0
 10
584.97763345369242
 20
883.59936147383121
 30
0.0
 11
654.97760345369238
 21
883.59936147383121
 31
0.0
  0
LINE
  5
A11A
  8
0
  6
CONTINUOUS
 62
     0
 10
580.97763345369242
 20
927.09936147383075
 30
0.0
 11
584.97763345369242
 21
927.09936147383075
 31
0.0
  0
LINE
  5
A11B
  8
0
  6
CONTINUOUS
 62
     0
 10
580.97763345369242
 20
882.0993614738311
 30
0.0
 11
584.97763345369242
 21
882.0993614738311
 31
0.0
  0
LINE
  5
A11C
  8
0
  6
CONTINUOUS
 62
     0
 10
584.97763345369242
 20
882.0993614738311
 30
0.0
 11
584.97763345369242
 21
927.09936147383075
 31
0.0
  0
LINE
  5
A11D
  8
0
  6
CONTINUOUS
 62
     0
 10
654.97760345369238
 20
883.59936147383121
 30
0.0
 11
654.97760345369238
 21
925.5993614738311
 31
0.0
  0
LINE
  5
A11E
  8
0
  6
CONTINUOUS
 62
     0
 10
598.97763345369242
 20
910.59930147383113
 30
0.0
 11
598.97763345369242
 21
898.59930147383102
 31
0.0
  0
LINE
  5
A11F
  8
0
  6
CONTINUOUS
 62
     0
 10
388.97763345369248
 20
1036.66327147383
 30
0.0
 11
388.97763345369248
 21
1002.784953640057
 31
0.0
  0
LINE
  5
A120
  8
0
  6
CONTINUOUS
 62
     0
 10
580.97763345369242
 20
1036.7905314738309
 30
0.0
 11
580.97763345369242
 21
997.40814147383105
 31
0.0
  0
LINE
  5
A121
  8
0
  6
CONTINUOUS
 62
     0
 10
467.97763345369219
 20
1044.599301473831
 30
0.0
 11
577.11721345369244
 21
1040.788081473831
 31
0.0
  0
LINE
  5
A122
  8
0
  6
CONTINUOUS
 62
     0
 10
392.76821345369291
 20
1040.657771473831
 30
0.0
 11
467.97756345369243
 21
1044.5993614738311
 31
0.0
  0
LINE
  5
A123
  8
0
  6
CENTER
 62
     0
 10
392.97763345369248
 20
1019.599361473831
 30
0.0
 11
426.47763345369219
 21
1019.599361473831
 31
0.0
  0
LINE
  5
A124
  8
0
  6
CENTER
 62
     0
 10
409.97763345369242
 20
1036.0993614738311
 30
0.0
 11
409.97763345369242
 21
1003.099361473831
 31
0.0
  0
LINE
  5
A125
  8
0
  6
CENTER
 62
     0
 10
559.97763345369242
 20
1036.0993614738311
 30
0.0
 11
559.97763345369242
 21
1003.099361473831
 31
0.0
  0
LINE
  5
A126
  8
0
  6
CONTINUOUS
 62
     0
 10
574.97763345369242
 20
990.47992147383115
 30
0.0
 11
574.97763345369242
 21
818.71875147383105
 31
0.0
  0
LINE
  5
A127
  8
0
  6
CONTINUOUS
 62
     0
 10
390.7687174560732
 20
996.35421654225615
 30
0.0
 11
433.85891345369203
 21
992.58429147383072
 31
0.0
  0
LINE
  5
A128
  8
0
  6
CONTINUOUS
 62
     0
 10
392.62899345369277
 20
813.00720147383095
 30
0.0
 11
433.85891345369203
 21
816.61438147383103
 31
0.0
  0
LINE
  5
A129
  8
0
  6
CONTINUOUS
 62
     0
 10
392.76821345369291
 20
768.54089147383104
 30
0.0
 11
467.97756345369243
 21
764.59936147383075
 31
0.0
  0
LINE
  5
A12A
  8
0
  6
CONTINUOUS
 62
     0
 10
467.97756345369243
 20
764.59930147383091
 30
0.0
 11
577.11715345369282
 21
768.41058147383092
 31
0.0
  0
LINE
  5
A12B
  8
0
  6
CONTINUOUS
 62
     0
 10
580.97763345369242
 20
772.40814147383105
 30
0.0
 11
580.97763345369242
 21
811.79053147383104
 31
0.0
  0
LINE
  5
A12C
  8
0
  6
CONTINUOUS
 62
     0
 10
388.97763345369248
 20
772.53540147383103
 30
0.0
 11
388.97763345369248
 21
809.02240147383066
 31
0.0
  0
LINE
  5
A12D
  8
0
  6
CONTINUOUS
 62
     0
 10
462.97763345369242
 20
764.86133147383123
 30
0.0
 11
462.97763345369242
 21
900.59930147383056
 31
0.0
  0
LINE
  5
A12E
  8
0
  6
CONTINUOUS
 62
     0
 10
580.97763345369242
 20
944.35669147383101
 30
0.0
 11
580.97763345369242
 21
870.84198147383086
 31
0.0
  0
LINE
  5
A12F
  8
0
  6
CONTINUOUS
 62
     0
 10
507.06796345369241
 20
1027.7734414738311
 30
0.0
 11
525.25680345369233
 21
1027.1382414738309
 31
0.0
  0
LINE
  5
A130
  8
0
  6
CONTINUOUS
 62
     0
 10
532.97763345369242
 20
1013.599361473831
 30
0.0
 11
532.97763345369242
 21
1019.1431914738311
 31
0.0
  0
LINE
  5
A131
  8
0
  6
CONTINUOUS
 62
     0
 10
560.30264345369278
 20
991.141051473831
 30
0.0
 11
570.15213345369261
 21
990.797121473831
 31
0.0
  0
LINE
  5
A132
  8
0
  6
CONTINUOUS
 62
     0
 10
490.79409345369288
 20
1040.762691473831
 30
0.0
 11
500.16116345369272
 21
1030.885981473831
 31
0.0
  0
LINE
  5
A133
  8
0
  6
CONTINUOUS
 62
     0
 10
449.97756345369231
 20
1034.3463114738311
 30
0.0
 11
442.59902345369278
 21
1035.2705714738311
 31
0.0
  0
LINE
  5
A134
  8
0
  6
CONTINUOUS
 62
     0
 10
532.97763345369242
 20
1037.15185147383
 30
0.0
 11
532.97763345369242
 21
1019.1431914738311
 31
0.0
  0
LINE
  5
A135
  8
0
  6
CONTINUOUS
 62
     0
 10
542.97763345369219
 20
1003.599361473831
 30
0.0
 11
544.97763345369242
 21
1003.599361473831
 31
0.0
  0
LINE
  5
A136
  8
0
  6
CENTER
 62
     0
 10
543.47763345369242
 20
1019.599361473831
 30
0.0
 11
576.97763345369242
 21
1019.599361473831
 31
0.0
  0
LINE
  5
A137
  8
0
  6
CENTER
 62
     0
 10
392.97763345369248
 20
789.59936147383075
 30
0.0
 11
426.47763345369219
 21
789.59936147383075
 31
0.0
  0
LINE
  5
A138
  8
0
  6
CENTER
 62
     0
 10
409.97763345369242
 20
773.09936147383075
 30
0.0
 11
409.97763345369242
 21
806.0993614738311
 31
0.0
  0
LINE
  5
A139
  8
0
  6
CENTER
 62
     0
 10
559.97763345369242
 20
773.09936147383075
 30
0.0
 11
559.97763345369242
 21
806.0993614738311
 31
0.0
  0
LINE
  5
A13A
  8
0
  6
CENTER
 62
     0
 10
543.47763345369242
 20
789.59936147383075
 30
0.0
 11
576.97763345369242
 21
789.59936147383075
 31
0.0
  0
LINE
  5
A13B
  8
0
  6
CONTINUOUS
 62
     0
 10
507.06796345369241
 20
781.42523147383076
 30
0.0
 11
525.25680345369233
 21
782.06042147383107
 31
0.0
  0
LINE
  5
A13C
  8
0
  6
CONTINUOUS
 62
     0
 10
532.97763345369242
 20
795.59936147383121
 30
0.0
 11
532.97763345369242
 21
790.055541473831
 31
0.0
  0
LINE
  5
A13D
  8
0
  6
CONTINUOUS
 62
     0
 10
560.30264345369278
 20
818.05768147383105
 30
0.0
 11
570.15206345369245
 21
818.40161147383105
 31
0.0
  0
LINE
  5
A13E
  8
0
  6
CONTINUOUS
 62
     0
 10
490.79403345369269
 20
768.43591147383097
 30
0.0
 11
500.16122345369263
 21
778.31268147383105
 31
0.0
  0
LINE
  5
A13F
  8
0
  6
CONTINUOUS
 62
     0
 10
532.97763345369242
 20
772.04687147383095
 30
0.0
 11
532.97763345369242
 21
790.055541473831
 31
0.0
  0
LINE
  5
A140
  8
0
  6
CONTINUOUS
 62
     0
 10
542.97763345369219
 20
805.59936147383075
 30
0.0
 11
544.97763345369242
 21
805.59936147383075
 31
0.0
  0
LINE
  5
A141
  8
0
  6
CONTINUOUS
 62
     0
 10
552.97763345369242
 20
813.59936147383075
 30
0.0
 11
552.97763345369242
 21
995.59936147383075
 31
0.0
  0
LINE
  5
A142
  8
0
  6
CONTINUOUS
 62
     0
 10
477.97763345369248
 20
777.92419147383123
 30
0.0
 11
477.97763345369248
 21
825.03357147383065
 31
0.0
  0
LINE
  5
A143
  8
0
  6
CONTINUOUS
 62
     0
 10
479.90786345369241
 20
782.03985147383105
 30
0.0
 11
504.51083345369261
 21
782.89905147383104
 31
0.0
  0
LINE
  5
A144
  8
0
  6
CONTINUOUS
 62
     0
 10
462.97756345369243
 20
775.4689914738309
 30
0.0
 11
476.0474534536927
 21
775.92541147383076
 31
0.0
  0
LINE
  5
A145
  8
0
  6
CONTINUOUS
 62
     0
 10
477.97763345369248
 20
855.03479147383098
 30
0.0
 11
477.97763345369248
 21
954.16388147383054
 31
0.0
  0
LINE
  5
A146
  8
0
  6
CONTINUOUS
 62
     0
 10
482.47763345369248
 20
827.03357147383099
 30
0.0
 11
482.47763345369248
 21
853.03479147383098
 31
0.0
  0
LINE
  5
A147
  8
0
  6
CONTINUOUS
 62
     0
 10
449.97750345369218
 20
827.03357147383099
 30
0.0
 11
475.97763345369231
 21
827.03357147383099
 31
0.0
  0
LINE
  5
A148
  8
0
  6
CONTINUOUS
 62
     0
 10
449.97750345369218
 20
853.03479147383098
 30
0.0
 11
475.97763345369231
 21
853.03479147383098
 31
0.0
  0
LINE
  5
A149
  8
0
  6
CONTINUOUS
 62
     0
 10
482.47763345369248
 20
982.16510147383053
 30
0.0
 11
482.47763345369248
 21
956.163881473831
 31
0.0
  0
LINE
  5
A14A
  8
0
  6
CONTINUOUS
 62
     0
 10
479.90780345369251
 20
1027.1588114738311
 30
0.0
 11
504.51089345369252
 21
1026.29962147383
 31
0.0
  0
LINE
  5
A14B
  8
0
  6
CONTINUOUS
 62
     0
 10
462.97756345369243
 20
1033.7296714738311
 30
0.0
 11
476.0474534536927
 21
1033.27325147383
 31
0.0
  0
LINE
  5
A14C
  8
0
  6
CONTINUOUS
 62
     0
 10
449.97750345369218
 20
956.163881473831
 30
0.0
 11
475.97763345369231
 21
956.163881473831
 31
0.0
  0
LINE
  5
A14D
  8
0
  6
CONTINUOUS
 62
     0
 10
477.97763345369248
 20
1031.274471473831
 30
0.0
 11
477.97763345369248
 21
984.16510147383076
 31
0.0
  0
LINE
  5
A14E
  8
0
  6
CONTINUOUS
 62
     0
 10
449.97750345369218
 20
982.16510147383053
 30
0.0
 11
475.97763345369231
 21
982.16510147383053
 31
0.0
  0
LINE
  5
A14F
  8
0
  6
CONTINUOUS
 62
     0
 10
598.97763345369242
 20
898.59930147383102
 30
0.0
 11
654.97760345369238
 21
898.59930147383102
 31
0.0
  0
LINE
  5
A150
  8
0
  6
CONTINUOUS
 62
     0
 10
598.97763345369242
 20
910.59930147383113
 30
0.0
 11
654.97760345369238
 21
910.59930147383113
 31
0.0
  0
LINE
  5
A151
  8
0
  6
CONTINUOUS
 62
     0
 10
451.90780345369262
 20
775.85559147383071
 30
0.0
 11
462.97763345369242
 21
775.4689914738309
 31
0.0
  0
LINE
  5
A152
  8
0
  6
CONTINUOUS
 62
     0
 10
438.4566334536928
 20
787.52032147383102
 30
0.0
 11
447.49856345369278
 21
785.92596147383074
 31
0.0
  0
LINE
  5
A153
  8
0
  6
CONTINUOUS
 62
     0
 10
449.97756345369231
 20
774.85235147383105
 30
0.0
 11
442.59902345369278
 21
773.92810147383091
 31
0.0
  0
LINE
  5
A154
  8
0
  6
CENTER
 62
     0
 10
446.97763345369231
 20
887.89099147383104
 30
0.0
 11
446.97763345369231
 21
919.20422147383044
 31
0.0
  0
LINE
  5
A155
  8
0
  6
CONTINUOUS
 62
     0
 10
430.47763345369219
 20
900.59930147383056
 30
0.0
 11
463.47763345369231
 21
900.59930147383056
 31
0.0
  0
LINE
  5
A156
  8
0
  6
CONTINUOUS
 62
     0
 10
430.47763345369219
 20
908.59930147383045
 30
0.0
 11
463.47763345369231
 21
908.59930147383045
 31
0.0
  0
LINE
  5
A157
  8
0
  6
CONTINUOUS
 62
     0
 10
462.97763345369242
 20
908.59930147383045
 30
0.0
 11
462.97763345369242
 21
1044.33728147383
 31
0.0
  0
LINE
  5
A158
  8
0
  6
CONTINUOUS
 62
     0
 10
449.97750345369218
 20
914.13873147383094
 30
0.0
 11
449.97750345369218
 21
1040.80908147383
 31
0.0
  0
LINE
  5
A159
  8
0
  6
CONTINUOUS
 62
     0
 10
435.97763345369242
 20
908.59930147383045
 30
0.0
 11
435.97763345369242
 21
1018.740481473831
 31
0.0
  0
LINE
  5
A15A
  8
0
  6
CONTINUOUS
 62
     0
 10
482.47763345369248
 20
768.3621814738309
 30
0.0
 11
482.47763345369248
 21
780.39453147383119
 31
0.0
  0
LINE
  5
A15B
  8
0
  6
CONTINUOUS
 62
     0
 10
482.47763345369248
 20
1028.879211473831
 30
0.0
 11
482.47763345369248
 21
1040.832641473831
 31
0.0
  0
LINE
  5
A15C
  8
0
  6
CONTINUOUS
 62
     0
 10
396.47760345369261
 20
820.59936147383132
 30
0.0
 11
396.47760345369261
 21
988.59936147383075
 31
0.0
  0
LINE
  5
A15D
  8
0
  6
CONTINUOUS
 62
     0
 10
432.11715345369282
 20
819.44208147383108
 30
0.0
 11
396.4776034536925
 21
820.68660161325931
 31
0.0
  0
LINE
  5
A15E
  8
0
  6
CONTINUOUS
 62
     0
 10
432.1172134536925
 20
989.75659147383044
 30
0.0
 11
396.4776034536925
 21
988.51199621170304
 31
0.0
  0
LINE
  5
A160
  8
0
  6
CONTINUOUS
 62
     0
 10
432.11727345369269
 20
992.1167014738312
 30
0.0
 11
400.97769345369278
 21
991.02929147383077
 31
0.0
  0
LINE
  5
A161
  8
0
  6
CONTINUOUS
 62
     0
 10
400.97763345369231
 20
988.66919147383055
 30
0.0
 11
400.97763345369231
 21
991.02929147383077
 31
0.0
  0
LINE
  5
A166
  8
0
  6
CONTINUOUS
 62
     0
 10
400.97763345369231
 20
820.5294814738312
 30
0.0
 11
400.97763345369231
 21
818.16937147383101
 31
0.0
  0
LINE
  5
A167
  8
0
  6
CONTINUOUS
 62
     0
 10
432.1172134536925
 20
817.08197147383123
 30
0.0
 11
400.97769345369278
 21
818.1694314738312
 31
0.0
  0
ARC
  5
A168
  8
0
  6
CONTINUOUS
 62
     0
 10
451.97763345369242
 20
1031.3443014738309
 30
0.0
 40
2.0
 50
91.999997999994051
 51
180.00001000000091
  0
ARC
  5
A169
  8
0
  6
CONTINUOUS
 62
     0
 10
438.97763345369242
 20
1018.723871473831
 30
0.0
 40
3.0
 50
100.000000000005
 51
180.00001000000091
  0
ARC
  5
A16A
  8
0
  6
CONTINUOUS
 62
     0
 10
446.97763345369231
 20
1026.22705147383
 30
0.0
 40
3.0
 50
280.00001000000128
 51
0.0
  0
ARC
  5
A16B
  8
0
  6
CONTINUOUS
 62
     0
 10
577.97763345369242
 20
952.84198147383097
 30
0.0
 40
3.0
 50
179.999989999999
 51
224.99999999999079
  0
ARC
  5
A16C
  8
0
  6
CONTINUOUS
 62
     0
 10
577.97763345369242
 20
870.84198147383086
 30
0.0
 40
3.0
 50
315.00000000000921
 51
0.0
  0
ARC
  5
A16D
  8
0
  6
CONTINUOUS
 62
     0
 10
577.97763345369242
 20
944.35669147383101
 30
0.0
 40
3.0
 50
0.0
 51
45.000000999994569
  0
ARC
  5
A16E
  8
0
  6
CONTINUOUS
 62
     0
 10
577.97763345369242
 20
862.35669147383044
 30
0.0
 40
3.0
 50
135.00000000000921
 51
180.00001000000091
  0
ARC
  5
A16F
  8
0
  6
CONTINUOUS
 62
     0
 10
392.97763345369248
 20
1036.66327147383
 30
0.0
 40
4.0
 50
92.999998999995185
 51
180.00001000000091
  0
ARC
  5
A170
  8
0
  6
CONTINUOUS
 62
     0
 10
576.97763345369242
 20
997.40814147383105
 30
0.0
 40
4.0
 50
278.21321999998997
 51
0.0
  0
CIRCLE
  5
A171
  8
0
  6
CONTINUOUS
 62
     0
 10
559.97763345369242
 20
1019.599361473831
 30
0.0
 40
9.5
  0
CIRCLE
  5
A172
  8
0
  6
CONTINUOUS
 62
     0
 10
409.97763345369242
 20
1019.599361473831
 30
0.0
 40
9.5
  0
ARC
  5
A173
  8
0
  6
CONTINUOUS
 62
     0
 10
576.97763345369242
 20
772.40814147383105
 30
0.0
 40
4.0
 50
272.00000000000369
 51
0.0
  0
ARC
  5
A174
  8
0
  6
CONTINUOUS
 62
     0
 10
392.97763345369248
 20
809.02240147383066
 30
0.0
 40
4.0
 50
95.00000199999208
 51
180.00001000000091
  0
CIRCLE
  5
A175
  8
0
  6
CONTINUOUS
 62
     0
 10
409.97763345369242
 20
789.59936147383075
 30
0.0
 40
9.5
  0
CIRCLE
  5
A176
  8
0
  6
CONTINUOUS
 62
     0
 10
559.97763345369242
 20
789.59936147383075
 30
0.0
 40
9.5
  0
ARC
  5
A177
  8
0
  6
CONTINUOUS
 62
     0
 10
576.97763345369242
 20
811.79053147383104
 30
0.0
 40
4.0
 50
0.0
 51
81.786789000013059
  0
ARC
  5
A178
  8
0
  6
CONTINUOUS
 62
     0
 10
392.97763345369248
 20
772.53540147383103
 30
0.0
 40
4.0
 50
180.00001000000091
 51
266.99998999999372
  0
ARC
  5
A179
  8
0
  6
CONTINUOUS
 62
     0
 10
576.97763345369242
 20
1036.7905314738309
 30
0.0
 40
4.0
 50
0.0
 51
87.999999999996248
  0
ARC
  5
A17A
  8
0
  6
CONTINUOUS
 62
     0
 10
577.97763345369242
 20
862.35669147383044
 30
0.0
 40
3.0
 50
135.00000000000921
 51
180.00001000000091
  0
ARC
  5
A17B
  8
0
  6
CONTINUOUS
 62
     0
 10
577.97763345369242
 20
944.35669147383101
 30
0.0
 40
3.0
 50
0.0
 51
44.999998000015431
  0
ARC
  5
A17C
  8
0
  6
CONTINUOUS
 62
     0
 10
577.97763345369242
 20
870.84198147383086
 30
0.0
 40
3.0
 50
315.00000000000921
 51
0.0
  0
ARC
  5
A17D
  8
0
  6
CONTINUOUS
 62
     0
 10
577.97763345369242
 20
952.84198147383097
 30
0.0
 40
3.0
 50
180.00001000000091
 51
224.99999999999079
  0
ARC
  5
A17E
  8
0
  6
CONTINUOUS
 62
     0
 10
507.4169634536928
 20
1037.7673314738311
 30
0.0
 40
10.0
 50
223.48296000001511
 51
267.99999999999608
  0
ARC
  5
A17F
  8
0
  6
CONTINUOUS
 62
     0
 10
524.97763345369242
 20
1019.1431914738311
 30
0.0
 40
8.0
 50
0.0
 51
87.999999999996248
  0
ARC
  5
A180
  8
0
  6
CONTINUOUS
 62
     0
 10
483.53829345369257
 20
1033.881351473831
 30
0.0
 40
10.0
 50
43.482964999999631
 51
87.999999999996248
  0
ARC
  5
A181
  8
0
  6
CONTINUOUS
 62
     0
 10
441.97763345369242
 20
1030.309321473831
 30
0.0
 40
5.0
 50
82.860167000000104
 51
180.00001000000091
  0
ARC
  5
A182
  8
0
  6
CONTINUOUS
 62
     0
 10
537.97763345369242
 20
1037.15185147383
 30
0.0
 40
5.0
 50
87.999999999996248
 51
180.00001000000091
  0
ARC
  5
A183
  8
0
  6
CONTINUOUS
 62
     0
 10
542.97763345369219
 20
1013.599361473831
 30
0.0
 40
10.0
 50
180.00001000000091
 51
270.0
  0
ARC
  5
A184
  8
0
  6
CONTINUOUS
 62
     0
 10
569.97763345369242
 20
985.80011147383118
 30
0.0
 40
5.0
 50
0.0
 51
87.999999999996248
  0
ARC
  5
A185
  8
0
  6
CONTINUOUS
 62
     0
 10
577.97763345369242
 20
990.47992147383115
 30
0.0
 40
3.0
 50
98.213209000015027
 51
180.00001000000091
  0
ARC
  5
A186
  8
0
  6
CONTINUOUS
 62
     0
 10
507.4169634536928
 20
771.4312714738312
 30
0.0
 40
10.0
 50
91.999997999994051
 51
136.5170399999848
  0
ARC
  5
A187
  8
0
  6
CONTINUOUS
 62
     0
 10
524.97763345369242
 20
790.055541473831
 30
0.0
 40
8.0
 50
272.00000000000369
 51
0.0
  0
ARC
  5
A188
  8
0
  6
CONTINUOUS
 62
     0
 10
483.53829345369257
 20
775.31732147383104
 30
0.0
 40
10.0
 50
272.00000000000369
 51
316.51703999998477
  0
ARC
  5
A189
  8
0
  6
CONTINUOUS
 62
     0
 10
537.97763345369242
 20
772.04687147383095
 30
0.0
 40
5.0
 50
180.00001000000091
 51
271.99999000000798
  0
ARC
  5
A18A
  8
0
  6
CONTINUOUS
 62
     0
 10
542.97763345369219
 20
795.59936147383121
 30
0.0
 40
10.0
 50
90.000002999984659
 51
180.00001000000091
  0
ARC
  5
A18B
  8
0
  6
CONTINUOUS
 62
     0
 10
569.97763345369242
 20
823.39856147383125
 30
0.0
 40
5.0
 50
272.00000000000369
 51
0.0
  0
ARC
  5
A18C
  8
0
  6
CONTINUOUS
 62
     0
 10
577.97763345369242
 20
818.71875147383105
 30
0.0
 40
3.0
 50
180.00001000000091
 51
261.78678000000991
  0
ARC
  5
A18D
  8
0
  6
CONTINUOUS
 62
     0
 10
544.97763345369242
 20
813.59936147383075
 30
0.0
 40
8.0
 50
270.0
 51
0.0
  0
ARC
  5
A18E
  8
0
  6
CONTINUOUS
 62
     0
 10
560.58175345369239
 20
810.06250147383105
 30
0.0
 40
8.0
 50
91.999997999994051
 51
167.22924999999881
  0
ARC
  5
A18F
  8
0
  6
CONTINUOUS
 62
     0
 10
544.97763345369242
 20
995.59936147383075
 30
0.0
 40
8.0
 50
0.0
 51
90.000002999984659
  0
ARC
  5
A190
  8
0
  6
CONTINUOUS
 62
     0
 10
560.58175345369239
 20
999.13617147383115
 30
0.0
 40
8.0
 50
192.77075000000119
 51
267.99999999999608
  0
ARC
  5
A191
  8
0
  6
CONTINUOUS
 62
     0
 10
475.97763345369231
 20
777.92419147383123
 30
0.0
 40
2.0
 50
272.00000000000369
 51
0.0
  0
ARC
  5
A192
  8
0
  6
CONTINUOUS
 62
     0
 10
479.97763345369231
 20
780.0411414738312
 30
0.0
 40
2.0
 50
91.999997999994051
 51
180.00001000000091
  0
ARC
  5
A193
  8
0
  6
CONTINUOUS
 62
     0
 10
475.97763345369231
 20
825.03357147383065
 30
0.0
 40
2.0
 50
0.0
 51
90.000002999984659
  0
ARC
  5
A194
  8
0
  6
CONTINUOUS
 62
     0
 10
475.97763345369231
 20
855.03479147383098
 30
0.0
 40
2.0
 50
270.0
 51
0.0
  0
ARC
  5
A195
  8
0
  6
CONTINUOUS
 62
     0
 10
482.00570345369277
 20
826.65307147383135
 30
0.0
 40
2.0
 50
270.0
 51
296.80020000000292
  0
ARC
  5
A196
  8
0
  6
CONTINUOUS
 62
     0
 10
481.52719345369241
 20
858.91876147383095
 30
0.0
 40
3.0
 50
54.34832400001379
 51
90.000002999984659
  0
ARC
  5
A197
  8
0
  6
CONTINUOUS
 62
     0
 10
482.00570345369277
 20
982.54553147383115
 30
0.0
 40
2.0
 50
63.199808999996499
 51
90.000002999984659
  0
ARC
  5
A198
  8
0
  6
CONTINUOUS
 62
     0
 10
475.97763345369231
 20
1031.274471473831
 30
0.0
 40
2.0
 50
0.0
 51
87.999999999996248
  0
ARC
  5
A199
  8
0
  6
CONTINUOUS
 62
     0
 10
479.97763345369231
 20
1029.1575314738311
 30
0.0
 40
2.0
 50
180.00001000000091
 51
267.99999999999608
  0
ARC
  5
A19A
  8
0
  6
CONTINUOUS
 62
     0
 10
481.52719345369241
 20
950.27991147383102
 30
0.0
 40
3.0
 50
270.0
 51
305.65167000001168
  0
ARC
  5
A19B
  8
0
  6
CONTINUOUS
 62
     0
 10
475.97763345369231
 20
984.16510147383076
 30
0.0
 40
2.0
 50
270.0
 51
0.0
  0
ARC
  5
A19C
  8
0
  6
CONTINUOUS
 62
     0
 10
475.97763345369231
 20
954.16388147383054
 30
0.0
 40
2.0
 50
0.0
 51
90.000002999984659
  0
ARC
  5
A19D
  8
0
  6
CONTINUOUS
 62
     0
 10
598.97763345369242
 20
904.59930147383068
 30
0.0
 40
6.0000037999999991
 50
90.000002999984659
 51
270.0
  0
ARC
  5
A19E
  8
0
  6
CONTINUOUS
 62
     0
 10
452.97750345369178
 20
1040.80908147383
 30
0.0
 40
3.0
 50
92.999998999995185
 51
180.00001000000091
  0
ARC
  5
A19F
  8
0
  6
CONTINUOUS
 62
     0
 10
451.97763345369242
 20
777.85437147383107
 30
0.0
 40
2.0
 50
179.999989999999
 51
268.00000999999207
  0
ARC
  5
A1A0
  8
0
  6
CONTINUOUS
 62
     0
 10
438.97763345369242
 20
790.47473147383096
 30
0.0
 40
3.0
 50
179.999989999999
 51
259.999999999995
  0
ARC
  5
A1A1
  8
0
  6
CONTINUOUS
 62
     0
 10
446.97763345369231
 20
782.97162147383108
 30
0.0
 40
3.0
 50
0.0
 51
79.999998000001099
  0
ARC
  5
A1A2
  8
0
  6
CONTINUOUS
 62
     0
 10
452.97750345369178
 20
768.38952147383122
 30
0.0
 40
3.0
 50
180.00001000000091
 51
266.99998999999372
  0
ARC
  5
A1A3
  8
0
  6
CONTINUOUS
 62
     0
 10
441.97763345369242
 20
778.88940147383107
 30
0.0
 40
5.0
 50
180.00001000000091
 51
277.13982999999359
  0
ARC
  5
A1A4
  8
0
  6
CONTINUOUS
 62
     0
 10
446.97763345369231
 20
904.59936147383121
 30
0.0
 40
10.0
 50
23.578037000006329
 51
156.42195999999231
  0
ARC
  5
A1A5
  8
0
  6
CONTINUOUS
 62
     0
 10
430.47763345369219
 20
904.59930147383068
 30
0.0
 40
3.9999962
 50
90.000002999984659
 51
270.0
  0
ARC
  5
A1A6
  8
0
  6
CONTINUOUS
 62
     0
 10
463.47763345369231
 20
904.59930147383068
 30
0.0
 40
3.9999962
 50
270.0
 51
90.000002999984659
  0
ARC
  5
A1A7
  8
0
  6
CONTINUOUS
 62
     0
 10
446.97763345369231
 20
904.59936147383121
 30
0.0
 40
10.0
 50
203.57826999999861
 51
336.4217200000013
  0
ARC
  5
A1A8
  8
0
  6
CONTINUOUS
 62
     0
 10
431.97763345369242
 20
815.44452147383106
 30
0.0
 40
4.0
 50
0.0
 51
87.999999999996248
  0
ARC
  5
A1A9
  8
0
  6
CONTINUOUS
 62
     0
 10
431.97763345369242
 20
993.75415147383114
 30
0.0
 40
4.0
 50
272.00000000000369
 51
0.0
  0
ARC
  5
A1AA
  8
0
  6
CONTINUOUS
 62
     0
 10
431.97763345369242
 20
996.11426147383077
 30
0.0
 40
4.0
 50
272.00000000000369
 51
0.0
  0
ARC
  5
A1AF
  8
0
  6
CONTINUOUS
 62
     0
 10
431.97763345369242
 20
813.08435147383091
 30
0.0
 40
4.0
 50
0.0
 51
87.999999999996248
  0
POLYLINE
  5
A1B0
  8
0
  6
CONTINUOUS
 62
     0
 66
     1
 10
0.0
 20
0.0
 30
0.0
  0
VERTEX
  5
A1B1
  8
0
  6
CONTINUOUS
 62
     0
 10
482.90732345369253
 20
824.8678114738309
 30
0.0
 42
0.11075717
  0
VERTEX
  5
A1B2
  8
0
  6
CONTINUOUS
 62
     0
 10
495.78826345369242
 20
834.7755914738309
 30
0.0
 42
0.20375769
  0
VERTEX
  5
A1B3
  8
0
  6
CONTINUOUS
 62
     0
 10
498.04599345369218
 20
842.44106147383093
 30
0.0
  0
VERTEX
  5
A1B4
  8
0
  6
CONTINUOUS
 62
     0
 10
483.27619345369271
 20
861.35621147383074
 30
0.0
 42
-1.0
  0
SEQEND
  5
A1B5
  8
0
 62
     0
  0
POLYLINE
  5
A1B6
  8
0
  6
CONTINUOUS
 62
     0
 66
     1
 10
0.0
 20
0.0
 30
0.0
  0
VERTEX
  5
A1B7
  8
0
  6
CONTINUOUS
 62
     0
 10
482.90732345369253
 20
984.33079147383114
 30
0.0
 42
-0.11075703
  0
VERTEX
  5
A1B8
  8
0
  6
CONTINUOUS
 62
     0
 10
495.78829345369252
 20
974.42308147383142
 30
0.0
 42
-0.20375918
  0
VERTEX
  5
A1B9
  8
0
  6
CONTINUOUS
 62
     0
 10
498.04599345369218
 20
966.75760147383141
 30
0.0
  0
VERTEX
  5
A1BA
  8
0
  6
CONTINUOUS
 62
     0
 10
483.27619345369271
 20
947.84246147383101
 30
0.0
 42
-1.0
  0
SEQEND
  5
A1BB
  8
0
 62
     0
  0
LINE
  5
A1BC
  8
0
 62
     0
 10
326.97754245369242
 20
799.59936147383121
 30
0.0
 11
326.97754245369242
 21
802.5993614738311
 31
0.0
  0
LINE
  5
A1BD
  8
0
 62
     0
 10
251.97754245369239
 20
799.59936147383121
 30
0.0
 11
251.97754245369239
 21
802.5993614738311
 31
0.0
  0
LINE
  5
A1BE
  8
0
 62
     0
 10
326.46154245369218
 20
744.13928147383103
 30
0.0
 11
252.4945024536928
 21
744.13928147383103
 31
0.0
  0
LINE
  5
A1BF
  8
0
 62
     0
 10
326.62744245369231
 20
791.41137147383074
 30
0.0
 11
252.0875224536926
 21
791.41137147383074
 31
0.0
  0
LINE
  5
A1C0
  8
0
 62
     0
 10
328.0224624536927
 20
794.38037147383102
 30
0.0
 11
251.03247245369269
 21
794.38037147383102
 31
0.0
  0
LINE
  5
A1C1
  8
0
 62
     0
 10
327.81347245369261
 20
798.84131147383084
 30
0.0
 11
251.11548245369249
 21
798.84131147383084
 31
0.0
  0
LINE
  5
A1C2
  8
0
 62
     0
 10
327.22754245369242
 20
799.59936147383121
 30
0.0
 11
251.71284545369241
 21
799.59936147383121
 31
0.0
  0
LINE
  5
A1C3
  8
0
 62
     0
 10
252.1075424536925
 20
760.04138147383105
 30
0.0
 11
327.0875224536926
 21
760.04138147383105
 31
0.0
  0
ARC
  5
A1C4
  8
0
 62
     0
 10
-265.62248754630741
 20
770.01428147383103
 30
0.0
 40
600.59997999999962
 50
357.906620000001
 51
2.521403000004645
  0
ARC
  5
A1C5
  8
0
 62
     0
 10
326.46154245369218
 20
747.73938147383103
 30
0.0
 40
3.6000000000000001
 50
269.99995999999589
 51
355.68894999999969
  0
ARC
  5
A1C6
  8
0
 62
     0
 10
-265.62248754630741
 20
770.01428147383103
 30
0.0
 40
596.09997999999962
 50
357.83251999999987
 51
1.945678999999225
  0
ARC
  5
A1C7
  8
0
 62
     0
 10
327.22754245369242
 20
795.99939147383077
 30
0.0
 40
3.6000000000000001
 50
53.340590999992578
 51
89.999989000004106
  0
ARC
  5
A1C8
  8
0
 62
     0
 10
328.83252245369249
 20
786.93738147383101
 30
0.0
 40
7.4984399999999978
 50
40.106594000003412
 51
96.966986999996834
  0
ARC
  5
A1C9
  8
0
 62
     0
 10
328.83252245369249
 20
791.40832147383105
 30
0.0
 40
7.4984399999999978
 50
42.099393999988131
 51
96.966986999996834
  0
ARC
  5
A1CA
  8
0
 62
     0
 10
327.4244324536927
 20
787.70935147383102
 30
0.0
 40
3.7436899999999982
 50
43.77279399999189
 51
98.860984000010404
  0
ARC
  5
A1CB
  8
0
 62
     0
 10
327.4244324536927
 20
756.34228147383089
 30
0.0
 40
3.7436899999999982
 50
43.77279399999189
 51
98.860984000010404
  0
ARC
  5
A1CC
  8
0
 62
     0
 10
329.91552245369257
 20
751.43030147383104
 30
0.0
 40
5.7431099999999971
 50
265.1789600000053
 51
324.25095000001107
  0
ARC
  5
A1CD
  8
0
 62
     0
 10
844.57748245369237
 20
770.01428147383103
 30
0.0
 40
600.59997999999962
 50
177.4789699999962
 51
182.09294999999941
  0
ARC
  5
A1CE
  8
0
 62
     0
 10
252.4945024536928
 20
747.73938147383103
 30
0.0
 40
3.6000000000000001
 50
184.31098
 51
269.99995999999589
  0
ARC
  5
A1CF
  8
0
 62
     0
 10
844.57748245369237
 20
770.01428147383103
 30
0.0
 40
596.09997999999962
 50
178.0539699999992
 51
182.16695000000161
  0
ARC
  5
A1D0
  8
0
 62
     0
 10
251.72754245369239
 20
795.99939147383077
 30
0.0
 40
3.6000000000000001
 50
89.999989000004106
 51
126.658990000006
  0
ARC
  5
A1D1
  8
0
 62
     0
 10
250.12256245369281
 20
786.93738147383101
 30
0.0
 40
7.4984399999999978
 50
83.032990999994595
 51
139.89297999998459
  0
ARC
  5
A1D2
  8
0
 62
     0
 10
250.12256245369281
 20
791.40832147383105
 30
0.0
 40
7.4984399999999978
 50
83.032990999994595
 51
137.9009900000091
  0
ARC
  5
A1D3
  8
0
 62
     0
 10
251.53051245369261
 20
787.70935147383102
 30
0.0
 40
3.7436899999999982
 50
81.138986000010377
 51
136.22697999999471
  0
ARC
  5
A1D4
  8
0
 62
     0
 10
251.53051245369261
 20
756.34228147383089
 30
0.0
 40
3.7436899999999982
 50
81.138986000010377
 51
136.22697999999471
  0
ARC
  5
A1D5
  8
0
 62
     0
 10
249.03955245369249
 20
751.43030147383104
 30
0.0
 40
5.7431099999999971
 50
215.7489699999997
 51
274.82095999999279
  0
LINE
  5
A1D6
  8
0
 62
     0
 10
251.97754245369239
 20
802.5993614738311
 30
0.0
 11
326.97754245369242
 21
802.5993614738311
 31
0.0
  0
ARC
  5
A1D7
  8
0
 62
     0
 10
118.3776034536927
 20
819.10198747383095
 30
0.0
 40
2.399999999999999
 50
180.0
 51
199.9999999999952
  0
ARC
  5
A1D8
  8
0
 62
     0
 10
122.9720674536924
 20
806.47880247383114
 30
0.0
 40
2.399999999999999
 50
199.9999999999952
 51
270.0
  0
LINE
  5
A1D9
  8
0
 62
     0
 10
120.7168044536924
 20
805.65795447383096
 30
0.0
 11
116.1223414536925
 21
818.28113947383099
 31
0.0
  0
LINE
  5
A1DA
  8
0
 62
     0
 10
188.97760345369261
 20
804.07880247383105
 30
0.0
 11
122.9720674536924
 21
804.07880247383105
 31
0.0
  0
LINE
  5
A1DB
  8
0
 62
     0
 10
188.97760345369261
 20
1005.119920473831
 30
0.0
 11
188.97760345369261
 21
804.07880247383105
 31
0.0
  0
LINE
  5
A1DC
  8
0
 62
     0
 10
120.7168044536924
 20
1003.540768473831
 30
0.0
 11
116.1223414536925
 21
990.91758347383109
 31
0.0
  0
ARC
  5
A1DD
  8
0
 62
     0
 10
122.9720674536924
 20
1002.7199204738311
 30
0.0
 40
2.399999999999999
 50
90.0
 51
160.0000000000046
  0
ARC
  5
A1DE
  8
0
 62
     0
 10
118.3776034536927
 20
990.09673547383113
 30
0.0
 40
2.399999999999999
 50
160.0000000000046
 51
180.0
  0
LINE
  5
A1DF
  8
0
 62
     0
 10
121.2915684536929
 20
1004.433374473831
 30
0.0
 11
121.2915684536929
 21
804.07880247383105
 31
0.0
  0
LINE
  5
A1E0
  8
0
 62
     0
 10
115.97760345369259
 20
990.09673547383113
 30
0.0
 11
115.97760345369259
 21
819.31992047383108
 31
0.0
  0
LINE
  5
A1E1
  8
0
 62
     0
 10
188.97760345369261
 20
1005.119920473831
 30
0.0
 11
122.9720674536924
 21
1005.119920473831
 31
0.0
  0
ARC
  5
A1E2
  8
0
 62
     0
 10
197.4212474536925
 20
822.1986814738309
 30
0.0
 40
2.0
 50
189.99999999999841
 51
270.0
  0
LINE
  5
A1E3
  8
0
 62
     0
 10
195.45163245369261
 20
821.8513854738311
 30
0.0
 11
192.4776034536925
 21
838.71793947383105
 31
0.0
  0
LINE
  5
A1E4
  8
0
 62
     0
 10
192.4776034536925
 20
838.71793947383105
 30
0.0
 11
193.5393424536924
 21
838.71793947383105
 31
0.0
  0
LINE
  5
A1E5
  8
0
 62
     0
 10
390.94174445369248
 20
990.77166847383114
 30
0.0
 11
391.47760345369261
 21
990.77166847383114
 31
0.0
  0
LINE
  5
A1E6
  8
0
 62
     0
 10
391.20213545369279
 20
992.33392547383073
 30
0.0
 11
391.47760345369261
 21
992.33392547383073
 31
0.0
  0
LINE
  5
A1E7
  8
0
 62
     0
 10
393.15580245369262
 20
816.59951247383106
 30
0.0
 11
393.47760345369261
 21
816.59951247383106
 31
0.0
  0
LINE
  5
A1E8
  8
0
 62
     0
 10
389.2982084536925
 20
821.44737547383102
 30
0.0
 11
391.47760345369261
 21
821.44737547383102
 31
0.0
  0
LINE
  5
A1E9
  8
0
 62
     0
 10
390.30429145369283
 20
833.55294547383085
 30
0.0
 11
391.47760345369261
 21
833.55294547383085
 31
0.0
  0
LINE
  5
A1EA
  8
0
  6
AM_ISO08W050
 62
     0
 10
289.47760345369261
 20
796.94339647383106
 30
0.0
 11
289.47760345369261
 21
806.125112473831
 31
0.0
  0
ARC
  5
A1EB
  8
0
 62
     0
 10
387.7204834536924
 20
993.60760947383108
 30
0.0
 40
2.0
 50
9.9999999999986073
 51
90.0
  0
ARC
  5
A1EC
  8
0
 62
     0
 10
387.7865004536925
 20
997.14840847383073
 30
0.0
 40
2.0
 50
9.9999999999986073
 51
90.0
  0
ARC
  5
A1ED
  8
0
 62
     0
 10
387.87241845369277
 20
999.70014547383084
 30
0.0
 40
2.0
 50
9.9999999999986073
 51
90.0
  0
ARC
  5
A1EE
  8
0
 62
     0
 10
387.90116745369232
 20
1001.099361473831
 30
0.0
 40
2.0
 50
9.9999999999986073
 51
90.0
  0
LINE
  5
A1EF
  8
0
 62
     0
 10
396.47760645369277
 20
989.59936147383075
 30
0.0
 11
393.47760645369277
 21
992.5993614738311
 31
0.0
  0
LINE
  5
A1F0
  8
0
 62
     0
 10
391.4307994536926
 20
992.5993614738311
 30
0.0
 11
393.47760345369261
 21
992.5993614738311
 31
0.0
  0
LINE
  5
A1F1
  8
0
 62
     0
 10
396.47760345369261
 20
819.5993614738311
 30
0.0
 11
393.47760345369261
 21
816.59936147383098
 31
0.0
  0
LINE
  5
A1F2
  8
0
 62
     0
 10
393.47760345369261
 20
816.59936147383098
 30
0.0
 11
393.47760345369261
 21
842.21974747383092
 31
0.0
  0
LINE
  5
A1F3
  8
0
 62
     0
 10
396.47760345369261
 20
819.5993614738311
 30
0.0
 11
396.47760345369261
 21
989.59936147383075
 31
0.0
  0
CIRCLE
  5
A1F4
  8
0
 62
     0
 10
289.47760345369261
 20
904.59936147383121
 30
0.0
 40
11.0
  0
LINE
  5
A1F5
  8
0
 62
     0
 10
196.76372345369231
 20
1003.099361473831
 30
0.0
 11
248.47760345369261
 21
1003.099361473831
 31
0.0
  0
LINE
  5
A1F6
  8
0
 62
     0
 10
328.47760345369261
 20
995.60760947383119
 30
0.0
 11
328.47760345369261
 21
1001.099361473831
 31
0.0
  0
LINE
  5
A1F7
  8
0
 62
     0
 10
250.47760345369261
 20
995.60760947383119
 30
0.0
 11
250.47760345369261
 21
1001.099361473831
 31
0.0
  0
ARC
  5
A1F8
  8
0
 62
     0
 10
248.47760345369261
 20
1001.099361473831
 30
0.0
 40
2.0
 50
0.0
 51
90.0
  0
ARC
  5
A1F9
  8
0
 62
     0
 10
330.47760345369261
 20
1001.099361473831
 30
0.0
 40
2.0
 50
90.0
 51
180.0
  0
LINE
  5
A1FA
  8
0
 62
     0
 10
330.47760345369261
 20
1003.099361473831
 30
0.0
 11
387.90116745369232
 21
1003.099361473831
 31
0.0
  0
LINE
  5
A1FB
  8
0
 62
     0
 10
387.87241845369277
 20
1001.700145473831
 30
0.0
 11
330.47760345369261
 21
1001.700145473831
 31
0.0
  0
LINE
  5
A1FC
  8
0
 62
     0
 10
391.47760345369261
 20
990.77166847383114
 30
0.0
 11
389.84203445369258
 21
1000.047441473831
 31
0.0
  0
LINE
  5
A1FD
  8
0
 62
     0
 10
391.47760345369261
 20
992.33392547383073
 30
0.0
 11
389.8707824536927
 21
1001.446657473831
 31
0.0
  0
LINE
  5
A1FE
  8
0
 62
     0
 10
192.4776034536925
 20
988.30910747383109
 30
0.0
 11
194.79410845369239
 21
1001.446657473831
 31
0.0
  0
ARC
  5
A1FF
  8
0
 62
     0
 10
196.76372345369231
 20
1001.099361473831
 30
0.0
 40
2.0
 50
90.0
 51
170.00000000000139
  0
LINE
  5
A200
  8
0
 62
     0
 10
192.4776034536925
 20
986.65004647383103
 30
0.0
 11
194.8399254536925
 21
1000.047441473831
 31
0.0
  0
ARC
  5
A201
  8
0
 62
     0
 10
196.80954145369279
 20
999.70014547383084
 30
0.0
 40
2.0
 50
90.0
 51
170.00000000000139
  0
ARC
  5
A202
  8
0
 62
     0
 10
248.47760345369261
 20
999.70014547383084
 30
0.0
 40
2.0
 50
0.0
 51
90.0
  0
ARC
  5
A203
  8
0
 62
     0
 10
330.47760345369261
 20
999.70014547383084
 30
0.0
 40
2.0
 50
90.0
 51
180.0
  0
LINE
  5
A204
  8
0
 62
     0
 10
248.47760345369261
 20
1001.700145473831
 30
0.0
 11
196.80954145369279
 21
1001.700145473831
 31
0.0
  0
LINE
  5
A205
  8
0
 62
     0
 10
387.7865004536925
 20
999.14840847383061
 30
0.0
 11
330.47760345369261
 21
999.14840847383061
 31
0.0
  0
LINE
  5
A206
  8
0
 62
     0
 10
391.3488234536926
 20
988.4630104738311
 30
0.0
 11
389.75611545369247
 21
997.49570547383109
 31
0.0
  0
LINE
  5
A207
  8
0
 62
     0
 10
192.4776034536925
 20
983.42925547383095
 30
0.0
 11
194.95789845369291
 21
997.49570547383109
 31
0.0
  0
ARC
  5
A208
  8
0
 62
     0
 10
196.9275134536924
 20
997.14840847383073
 30
0.0
 40
2.0
 50
90.0
 51
170.00000000000139
  0
ARC
  5
A209
  8
0
 62
     0
 10
248.47760345369261
 20
997.14840847383073
 30
0.0
 40
2.0
 50
0.0
 51
90.0
  0
ARC
  5
A20A
  8
0
 62
     0
 10
330.47760345369261
 20
997.14840847383073
 30
0.0
 40
2.0
 50
90.0
 51
180.0
  0
LINE
  5
A20B
  8
0
 62
     0
 10
248.47760345369261
 20
999.14840847383061
 30
0.0
 11
196.9275134536924
 21
999.14840847383061
 31
0.0
  0
LINE
  5
A20C
  8
0
 62
     0
 10
387.7204834536924
 20
995.60760947383119
 30
0.0
 11
197.08902245369239
 21
995.60760947383119
 31
0.0
  0
LINE
  5
A20D
  8
0
 62
     0
 10
390.65846845369288
 20
988.4630104738311
 30
0.0
 11
389.69009945369282
 21
993.95490547383122
 31
0.0
  0
LINE
  5
A20E
  8
0
 62
     0
 10
192.4776034536925
 20
978.97249547383115
 30
0.0
 11
195.11940645369251
 21
993.95490547383122
 31
0.0
  0
ARC
  5
A20F
  8
0
 62
     0
 10
197.08902245369239
 20
993.60760947383108
 30
0.0
 40
2.0
 50
90.0
 51
170.00000000000139
  0
LINE
  5
A210
  8
0
 62
     0
 10
321.5339594536926
 20
989.00004147383083
 30
0.0
 11
197.4212474536925
 21
989.00004147383083
 31
0.0
  0
LINE
  5
A211
  8
0
 62
     0
 10
326.47760345369261
 20
970.48078347383114
 30
0.0
 11
323.50357445369258
 21
987.34733747383075
 31
0.0
  0
ARC
  5
A212
  8
0
 62
     0
 10
321.5339594536926
 20
987.00004147383061
 30
0.0
 40
2.0
 50
9.9999999999986073
 51
90.0
  0
LINE
  5
A213
  8
0
 62
     0
 10
192.4776034536925
 20
970.48078347383114
 30
0.0
 11
195.45163245369261
 21
987.34733747383075
 31
0.0
  0
ARC
  5
A214
  8
0
 62
     0
 10
197.4212474536925
 20
987.00004147383061
 30
0.0
 40
2.0
 50
90.0
 51
170.00000000000139
  0
LINE
  5
A215
  8
0
 62
     0
 10
321.20369545369249
 20
983.59799747383113
 30
0.0
 11
197.7515114536927
 21
983.59799747383113
 31
0.0
  0
LINE
  5
A216
  8
0
 62
     0
 10
326.25655245369262
 20
964.459361473831
 30
0.0
 11
323.1733114536928
 21
981.94529447383115
 31
0.0
  0
ARC
  5
A217
  8
0
 62
     0
 10
321.20369545369249
 20
981.59799747383113
 30
0.0
 40
2.0
 50
9.9999999999986073
 51
90.0
  0
LINE
  5
A218
  8
0
 62
     0
 10
192.75459745369241
 20
964.77662947383101
 30
0.0
 11
195.78189545369241
 21
981.94529447383115
 31
0.0
  0
ARC
  5
A219
  8
0
 62
     0
 10
197.7515114536927
 20
981.59799747383113
 30
0.0
 40
2.0
 50
90.0
 51
170.00000000000139
  0
LINE
  5
A21A
  8
0
 62
     0
 10
391.47760345369261
 20
909.62951347383103
 30
0.0
 11
391.47760345369261
 21
912.57720547383121
 31
0.0
  0
LINE
  5
A21B
  8
0
 62
     0
 10
391.47760345369261
 20
919.62898947383121
 30
0.0
 11
391.47760345369261
 21
922.59046847383115
 31
0.0
  0
LINE
  5
A21C
  8
0
 62
     0
 10
391.47760345369261
 20
930.62116947383117
 30
0.0
 11
391.47760345369261
 21
933.61379647383114
 31
0.0
  0
LINE
  5
A21D
  8
0
 62
     0
 10
391.47760345369261
 20
941.60396447383062
 30
0.0
 11
391.47760345369261
 21
944.64967047383061
 31
0.0
  0
LINE
  5
A21E
  8
0
 62
     0
 10
393.97763345369248
 20
952.57384347383106
 30
0.0
 11
393.97763345369248
 21
955.70475647383114
 31
0.0
  0
LINE
  5
A21F
  8
0
 62
     0
 10
391.47760345369261
 20
961.53231947383074
 30
0.0
 11
391.47760345369261
 21
964.77662947383101
 31
0.0
  0
LINE
  5
A220
  8
0
 62
     0
 10
341.47760345369261
 20
978.97249547383115
 30
0.0
 11
324.98028545369289
 21
978.97249547383115
 31
0.0
  0
LINE
  5
A221
  8
0
 62
     0
 10
373.26438045369241
 20
983.81746347383103
 30
0.0
 11
357.47760345369261
 21
983.81746347383103
 31
0.0
  0
LINE
  5
A222
  8
0
 62
     0
 10
341.47760345369261
 20
978.97249547383115
 30
0.0
 11
357.47760345369261
 21
983.81746347383103
 31
0.0
  0
LINE
  5
A223
  8
0
 62
     0
 10
357.47760345369261
 20
983.81746347383103
 30
0.0
 11
357.47760345369261
 21
980.45214847383113
 31
0.0
  0
LINE
  5
A224
  8
0
 62
     0
 10
341.47760345369261
 20
978.97249547383115
 30
0.0
 11
341.47760345369261
 21
964.77662947383101
 31
0.0
  0
LINE
  5
A225
  8
0
 62
     0
 10
379.47763345369248
 20
967.66532347383077
 30
0.0
 11
379.47763345369248
 21
986.46301047383076
 31
0.0
  0
ARC
  5
A226
  8
0
 62
     0
 10
378.97760345369261
 20
986.46301047383076
 30
0.0
 40
2.0
 50
90.0
 51
180.0
  0
LINE
  5
A227
  8
0
 62
     0
 10
376.97760345369261
 20
972.05542147383073
 30
0.0
 11
357.47760345369261
 21
972.05542147383073
 31
0.0
  0
LINE
  5
A228
  8
0
 62
     0
 10
371.57760945369279
 20
980.45214847383113
 30
0.0
 11
357.47760345369261
 21
980.45214847383113
 31
0.0
  0
LINE
  5
A229
  8
0
 62
     0
 10
357.47760345369261
 20
972.05542147383073
 30
0.0
 11
357.47760345369261
 21
964.77662947383101
 31
0.0
  0
LINE
  5
A22B
  8
0
 62
     0
 10
396.47760345369261
 20
988.4630104738311
 30
0.0
 11
378.97760345369261
 21
988.4630104738311
 31
0.0
  0
LINE
  5
A22C
  8
0
 62
     0
 10
396.47760345369261
 20
966.66532347383077
 30
0.0
 11
375.97760345369261
 21
966.66532347383077
 31
0.0
  0
ARC
  5
A22D
  8
0
 62
     0
 10
378.47763345369248
 20
967.66532347383077
 30
0.0
 40
1.0
 50
270.0
 51
0.0
  0
LINE
  5
A22E
  8
0
 62
     0
 10
396.47760345369261
 20
980.33900547383109
 30
0.0
 11
378.97760345369261
 21
980.33900547383109
 31
0.0
  0
LINE
  5
A22F
  8
0
 62
     0
 10
188.97760345369261
 20
988.59936147383075
 30
0.0
 11
192.4776034536925
 21
988.59936147383075
 31
0.0
  0
ARC
  5
A230
  8
0
 62
     0
 10
393.15580245369262
 20
814.59936147383098
 30
0.0
 40
2.0
 50
90.0
 51
170.00000000000139
  0
ARC
  5
A231
  8
0
 62
     0
 10
329.22024545369283
 20
809.605704473831
 30
0.0
 40
1.9936590000000001
 50
90.075931000003493
 51
178.17025399999861
  0
LINE
  5
A232
  8
0
 62
     0
 10
329.21760345369222
 20
811.5993614738311
 30
0.0
 11
388.91776945369247
 21
811.5993614738311
 31
0.0
  0
LINE
  5
A233
  8
0
 62
     0
 10
326.97760345369261
 20
802.5993614738311
 30
0.0
 11
327.59363245369241
 21
820.19868147383124
 31
0.0
  0
LINE
  5
A234
  8
0
 62
     0
 10
391.18618745369253
 20
814.94665747383101
 30
0.0
 11
390.8873844536925
 21
813.25206547383107
 31
0.0
  0
ARC
  5
A235
  8
0
 62
     0
 10
388.91776945369247
 20
813.59936147383075
 30
0.0
 40
2.0
 50
270.0
 51
350.00000000000148
  0
LINE
  5
A236
  8
0
 62
     0
 10
193.0549534536926
 20
819.5993614738311
 30
0.0
 11
200.2718324536927
 21
807.0993614738311
 31
0.0
  0
LINE
  5
A237
  8
0
 62
     0
 10
202.0038824536928
 20
806.0993614738311
 30
0.0
 11
249.9225744536925
 21
806.0993614738311
 31
0.0
  0
LINE
  5
A238
  8
0
 62
     0
 10
251.97760345369261
 20
802.5993614738311
 30
0.0
 11
251.92129145369239
 21
804.17097647383105
 31
0.0
  0
ARC
  5
A239
  8
0
 62
     0
 10
191.32290245369251
 20
818.5993614738311
 30
0.0
 40
2.0
 50
30.000000000000551
 51
90.0
  0
ARC
  5
A23A
  8
0
 62
     0
 10
202.0038824536928
 20
808.09936147383132
 30
0.0
 40
2.0
 50
210.0000000000004
 51
270.0
  0
ARC
  5
A23B
  8
0
 62
     0
 10
249.9225744536925
 20
804.09936147383098
 30
0.0
 40
2.0
 50
2.052064999998533
 51
90.0
  0
LINE
  5
A23C
  8
0
 62
     0
 10
251.97760345369261
 20
802.5993614738311
 30
0.0
 11
326.97760345369261
 21
802.5993614738311
 31
0.0
  0
LINE
  5
A23D
  8
0
 62
     0
 10
201.0038824536928
 20
806.36731047383103
 30
0.0
 11
201.0038824536928
 21
820.19868147383124
 31
0.0
  0
LINE
  5
A23E
  8
0
 62
     0
 10
387.4446874536925
 20
820.19868147383124
 30
0.0
 11
197.4212474536925
 21
820.19868147383124
 31
0.0
  0
LINE
  5
A23F
  8
0
 62
     0
 10
387.22390145369258
 20
825.60072547383095
 30
0.0
 11
197.53046045369271
 21
825.60072547383095
 31
0.0
  0
LINE
  5
A240
  8
0
 62
     0
 10
391.47760345369261
 20
840.20712747383106
 30
0.0
 11
357.47760345369261
 21
840.20712747383106
 31
0.0
  0
LINE
  5
A241
  8
0
 62
     0
 10
391.47760345369261
 20
840.20712747383106
 30
0.0
 11
389.19351645369261
 21
827.25342847383092
 31
0.0
  0
ARC
  5
A242
  8
0
 62
     0
 10
387.22390145369258
 20
827.60072547383095
 30
0.0
 40
2.0
 50
270.0
 51
350.00000000000148
  0
LINE
  5
A243
  8
0
 62
     0
 10
391.47760345369261
 20
833.55294547383085
 30
0.0
 11
389.41430245369253
 21
821.8513854738311
 31
0.0
  0
ARC
  5
A244
  8
0
 62
     0
 10
387.4446874536925
 20
822.1986814738309
 30
0.0
 40
2.0
 50
270.0
 51
350.00000000000148
  0
LINE
  5
A245
  8
0
 62
     0
 10
196.2203414536925
 20
820.59936147383132
 30
0.0
 11
188.97760345369261
 21
820.59936147383132
 31
0.0
  0
LINE
  5
A246
  8
0
 62
     0
 10
391.47760345369261
 20
821.44737547383102
 30
0.0
 11
390.0325494536927
 21
813.25206547383107
 31
0.0
  0
ARC
  5
A247
  8
0
 62
     0
 10
388.06293345369249
 20
813.59936147383075
 30
0.0
 40
2.0
 50
270.0
 51
350.00000000000148
  0
LINE
  5
A248
  8
0
 62
     0
 10
326.47760345369261
 20
856.43936147383101
 30
0.0
 11
326.47760345369261
 21
853.73936147383085
 31
0.0
  0
LINE
  5
A249
  8
0
 62
     0
 10
396.47760345369261
 20
842.38972447383082
 30
0.0
 11
378.97760345369261
 21
842.38972447383082
 31
0.0
  0
LINE
  5
A24A
  8
0
 62
     0
 10
396.47760345369261
 20
854.69736347383105
 30
0.0
 11
378.97760345369261
 21
854.69736347383105
 31
0.0
  0
LINE
  5
A24B
  8
0
 62
     0
 10
396.47760345369261
 20
864.87665547383085
 30
0.0
 11
391.47760345369261
 21
864.87665547383085
 31
0.0
  0
LINE
  5
A24C
  8
0
 62
     0
 10
376.97760345369261
 20
863.87665547383085
 30
0.0
 11
376.97760345369261
 21
844.38972447383105
 31
0.0
  0
ARC
  5
A24D
  8
0
 62
     0
 10
375.97760345369261
 20
863.87665547383085
 30
0.0
 40
1.0
 50
0.0
 51
42.252324000004279
  0
ARC
  5
A24E
  8
0
 62
     0
 10
378.97760345369261
 20
844.38972447383105
 30
0.0
 40
2.0
 50
180.0
 51
270.0
  0
LINE
  5
A24F
  8
0
 62
     0
 10
341.47760345369261
 20
961.53231947383074
 30
0.0
 11
341.47760345369261
 21
955.70475647383114
 31
0.0
  0
LINE
  5
A250
  8
0
 62
     0
 10
357.47760345369261
 20
961.53231947383074
 30
0.0
 11
357.47760345369261
 21
955.70475647383114
 31
0.0
  0
LINE
  5
A251
  8
0
 62
     0
 10
341.47760345369261
 20
952.57384347383106
 30
0.0
 11
341.47760345369261
 21
944.64967047383061
 31
0.0
  0
LINE
  5
A252
  8
0
 62
     0
 10
341.47760345369261
 20
941.60396447383062
 30
0.0
 11
341.47760345369261
 21
933.61379647383114
 31
0.0
  0
LINE
  5
A253
  8
0
 62
     0
 10
341.47760345369261
 20
930.62116947383117
 30
0.0
 11
341.47760345369261
 21
922.59046847383115
 31
0.0
  0
LINE
  5
A254
  8
0
 62
     0
 10
341.47760345369261
 20
919.62898947383121
 30
0.0
 11
341.47760345369261
 21
912.57720547383121
 31
0.0
  0
LINE
  5
A255
  8
0
 62
     0
 10
341.47760345369261
 20
909.75936147383106
 30
0.0
 11
341.47760345369261
 21
899.56920947383105
 31
0.0
  0
LINE
  5
A256
  8
0
 62
     0
 10
357.47760345369261
 20
909.75936147383106
 30
0.0
 11
357.47760345369261
 21
899.56920947383105
 31
0.0
  0
LINE
  5
A257
  8
0
 62
     0
 10
357.47760345369261
 20
919.62898947383121
 30
0.0
 11
357.47760345369261
 21
912.57720547383121
 31
0.0
  0
LINE
  5
A258
  8
0
 62
     0
 10
357.47760345369261
 20
930.62116947383117
 30
0.0
 11
357.47760345369261
 21
922.59046847383115
 31
0.0
  0
LINE
  5
A259
  8
0
 62
     0
 10
357.47760345369261
 20
941.60396447383062
 30
0.0
 11
357.47760345369261
 21
933.61379647383114
 31
0.0
  0
LINE
  5
A25A
  8
0
 62
     0
 10
357.47760345369261
 20
952.57384347383106
 30
0.0
 11
357.47760345369261
 21
944.64967047383061
 31
0.0
  0
LINE
  5
A25B
  8
0
 62
     0
 10
341.47760345369261
 20
896.62151747383075
 30
0.0
 11
341.47760345369261
 21
889.56973347383109
 31
0.0
  0
LINE
  5
A25C
  8
0
 62
     0
 10
357.47760345369261
 20
896.62151747383075
 30
0.0
 11
357.47760345369261
 21
889.56973347383109
 31
0.0
  0
LINE
  5
A25D
  8
0
 62
     0
 10
357.47760345369261
 20
886.60825447383104
 30
0.0
 11
357.47760345369261
 21
878.5775534738309
 31
0.0
  0
LINE
  5
A25E
  8
0
 62
     0
 10
341.47760345369261
 20
886.60825447383104
 30
0.0
 11
341.47760345369261
 21
878.5775534738309
 31
0.0
  0
LINE
  5
A25F
  8
0
 62
     0
 10
341.47760345369261
 20
875.58492647383105
 30
0.0
 11
341.47760345369261
 21
867.59475847383101
 31
0.0
  0
LINE
  5
A260
  8
0
 62
     0
 10
357.47760345369261
 20
875.58492647383105
 30
0.0
 11
357.47760345369261
 21
867.59475847383101
 31
0.0
  0
LINE
  5
A261
  8
0
 62
     0
 10
372.02699845369261
 20
848.57856547383108
 30
0.0
 11
357.47760245369278
 21
848.57856547383108
 31
0.0
  0
LINE
  5
A262
  8
0
 62
     0
 10
376.97760345369261
 20
859.99091547383114
 30
0.0
 11
357.47760245369278
 21
859.99091547383114
 31
0.0
  0
LINE
  5
A263
  8
0
 62
     0
 10
341.47760345369261
 20
864.54905247383124
 30
0.0
 11
341.47760345369261
 21
844.54905247383101
 31
0.0
  0
LINE
  5
A264
  8
0
 62
     0
 10
393.47760345369261
 20
988.4630104738311
 30
0.0
 11
393.47760345369261
 21
992.5993614738311
 31
0.0
  0
LINE
  5
A265
  8
0
 62
     0
 10
391.47760345369261
 20
818.39761747383102
 30
0.0
 11
390.5703034536927
 21
813.25206547383107
 31
0.0
  0
ARC
  5
A266
  8
0
 62
     0
 10
388.60068845369278
 20
813.59936147383075
 30
0.0
 40
2.0
 50
270.0
 51
350.00000000000148
  0
LINE
  5
A267
  8
0
 62
     0
 10
357.47760345369261
 20
864.54905247383124
 30
0.0
 11
357.47760345369261
 21
859.99091547383114
 31
0.0
  0
LINE
  5
A268
  8
0
 62
     0
 10
393.47760345369261
 20
864.87665547383085
 30
0.0
 11
393.47760345369261
 21
966.66532347383077
 31
0.0
  0
LINE
  5
A269
  8
0
 62
     0
 10
192.4776034536925
 20
844.73936147383085
 30
0.0
 11
195.56084545369271
 21
827.25342847383092
 31
0.0
  0
ARC
  5
A26A
  8
0
 62
     0
 10
197.53046045369271
 20
827.60072547383095
 30
0.0
 40
2.0
 50
189.99999999999841
 51
270.0
  0
LINE
  5
A26B
  8
0
 62
     0
 10
342.18300045369227
 20
853.29365547383088
 30
0.0
 11
357.47760345369261
 21
848.57856547383108
 31
0.0
  0
LINE
  5
A26C
  8
0
 62
     0
 10
357.47760345369261
 20
859.99091547383114
 30
0.0
 11
342.44166245369252
 21
859.45016447383102
 31
0.0
  0
LINE
  5
A26D
  8
0
 62
     0
 10
357.47760345369261
 20
848.57856547383108
 30
0.0
 11
357.47760345369261
 21
840.20712747383106
 31
0.0
  0
ARC
  5
A26E
  8
0
 62
     0
 10
342.47760345369261
 20
858.4508104738311
 30
0.0
 40
1.0
 50
92.059690999990565
 51
180.0
  0
ARC
  5
A26F
  8
0
 62
     0
 10
342.47760345369261
 20
854.24927547383083
 30
0.0
 40
1.0
 50
180.0
 51
252.8662750000021
  0
LINE
  5
A270
  8
0
 62
     0
 10
357.47760345369261
 20
980.45214847383113
 30
0.0
 11
342.17714445369262
 21
975.63228247383063
 31
0.0
  0
LINE
  5
A271
  8
0
 62
     0
 10
342.5261584536924
 20
971.3286014738311
 30
0.0
 11
357.47760345369261
 21
972.05542147383073
 31
0.0
  0
ARC
  5
A272
  8
0
 62
     0
 10
342.47760345369261
 20
974.67848747383084
 30
0.0
 40
1.0
 50
107.4851790000144
 51
180.0
  0
ARC
  5
A273
  8
0
 62
     0
 10
342.47760345369261
 20
972.32742247383112
 30
0.0
 40
1.0
 50
180.0
 51
270.0
  0
LINE
  5
A275
  8
0
 62
     0
 10
391.47760345369261
 20
964.77662947383101
 30
0.0
 11
192.4776034536925
 21
964.77662947383101
 31
0.0
  0
LINE
  5
A276
  8
0
 62
     0
 10
391.47760345369261
 20
961.53231947383074
 30
0.0
 11
192.4776034536925
 21
961.53231947383074
 31
0.0
  0
LINE
  5
A277
  8
0
 62
     0
 10
391.47760345369261
 20
955.70475647383114
 30
0.0
 11
192.4776034536925
 21
955.70475647383114
 31
0.0
  0
LINE
  5
A278
  8
0
 62
     0
 10
391.47760345369261
 20
952.57384347383106
 30
0.0
 11
192.4776034536925
 21
952.57384347383106
 31
0.0
  0
LINE
  5
A279
  8
0
 62
     0
 10
391.47760345369261
 20
944.64967047383061
 30
0.0
 11
192.4776034536925
 21
944.64967047383061
 31
0.0
  0
LINE
  5
A27A
  8
0
 62
     0
 10
391.47760345369261
 20
941.60396447383062
 30
0.0
 11
192.4776034536925
 21
941.60396447383062
 31
0.0
  0
LINE
  5
A27B
  8
0
 62
     0
 10
391.47760345369261
 20
933.61379647383114
 30
0.0
 11
192.4776034536925
 21
933.61379647383114
 31
0.0
  0
LINE
  5
A27C
  8
0
 62
     0
 10
391.47760345369261
 20
930.62116947383117
 30
0.0
 11
192.4776034536925
 21
930.62116947383117
 31
0.0
  0
LINE
  5
A27D
  8
0
 62
     0
 10
391.47760345369261
 20
922.59046847383115
 30
0.0
 11
192.4776034536925
 21
922.59046847383115
 31
0.0
  0
LINE
  5
A27E
  8
0
 62
     0
 10
391.47760345369261
 20
919.62898947383121
 30
0.0
 11
192.4776034536925
 21
919.62898947383121
 31
0.0
  0
LINE
  5
A27F
  8
0
 62
     0
 10
391.47760345369261
 20
912.57720547383121
 30
0.0
 11
297.05084645369237
 21
912.57720547383121
 31
0.0
  0
LINE
  5
A280
  8
0
 62
     0
 10
391.47760345369261
 20
909.62951347383103
 30
0.0
 11
303.86325045369279
 21
909.62951347383103
 31
0.0
  0
LINE
  5
A281
  8
0
 62
     0
 10
389.3986824536928
 20
964.0993614738311
 30
0.0
 11
389.3986824536928
 21
962.09936147383075
 31
0.0
  0
LINE
  5
A282
  8
0
 62
     0
 10
194.55652445369279
 20
962.09936147383075
 30
0.0
 11
389.3986824536928
 21
962.09936147383075
 31
0.0
  0
LINE
  5
A283
  8
0
 62
     0
 10
194.55652445369279
 20
964.0993614738311
 30
0.0
 11
389.3986824536928
 21
964.0993614738311
 31
0.0
  0
LINE
  5
A284
  8
0
 62
     0
 10
194.55652445369279
 20
953.09936147383064
 30
0.0
 11
389.3986824536928
 21
953.09936147383064
 31
0.0
  0
LINE
  5
A285
  8
0
 62
     0
 10
194.55652445369279
 20
955.0993614738311
 30
0.0
 11
389.3986824536928
 21
955.0993614738311
 31
0.0
  0
LINE
  5
A286
  8
0
 62
     0
 10
194.55652445369279
 20
942.09936147383121
 30
0.0
 11
389.3986824536928
 21
942.09936147383121
 31
0.0
  0
LINE
  5
A287
  8
0
 62
     0
 10
194.55652445369279
 20
944.09936147383075
 30
0.0
 11
389.3986824536928
 21
944.09936147383075
 31
0.0
  0
LINE
  5
A288
  8
0
 62
     0
 10
194.55652445369279
 20
931.0993614738311
 30
0.0
 11
389.3986824536928
 21
931.0993614738311
 31
0.0
  0
LINE
  5
A289
  8
0
 62
     0
 10
194.55652445369279
 20
933.09936147383132
 30
0.0
 11
389.3986824536928
 21
933.09936147383132
 31
0.0
  0
LINE
  5
A28A
  8
0
 62
     0
 10
194.55652445369279
 20
920.09936147383064
 30
0.0
 11
389.3986824536928
 21
920.09936147383064
 31
0.0
  0
LINE
  5
A28B
  8
0
 62
     0
 10
194.55652445369279
 20
922.0993614738311
 30
0.0
 11
389.3986824536928
 21
922.0993614738311
 31
0.0
  0
LINE
  5
A28C
  8
0
 62
     0
 10
303.25258045369247
 20
910.09936147383075
 30
0.0
 11
389.3986824536928
 21
910.09936147383075
 31
0.0
  0
LINE
  5
A28D
  8
0
 62
     0
 10
297.52434145369261
 20
912.09936147383075
 30
0.0
 11
389.3986824536928
 21
912.09936147383075
 31
0.0
  0
LINE
  5
A28E
  8
0
 62
     0
 10
389.3986824536928
 20
964.0993614738311
 30
0.0
 11
391.47760345369261
 21
964.77662947383101
 31
0.0
  0
LINE
  5
A28F
  8
0
 62
     0
 10
389.3986824536928
 20
962.09936147383075
 30
0.0
 11
391.47760345369261
 21
961.53231947383074
 31
0.0
  0
LINE
  5
A290
  8
0
 62
     0
 10
391.89871245369278
 20
955.0993614738311
 30
0.0
 11
393.97763345369248
 21
955.70475647383114
 31
0.0
  0
LINE
  5
A291
  8
0
 62
     0
 10
391.89871245369278
 20
953.09936147383064
 30
0.0
 11
393.97763345369248
 21
952.57384347383106
 31
0.0
  0
LINE
  5
A292
  8
0
 62
     0
 10
389.3986824536928
 20
944.09936147383075
 30
0.0
 11
391.47760345369261
 21
944.64967047383061
 31
0.0
  0
LINE
  5
A293
  8
0
 62
     0
 10
389.3986824536928
 20
942.09936147383121
 30
0.0
 11
391.47760345369261
 21
941.60396447383062
 31
0.0
  0
LINE
  5
A294
  8
0
 62
     0
 10
389.3986824536928
 20
933.09936147383132
 30
0.0
 11
391.47760345369261
 21
933.61379647383114
 31
0.0
  0
LINE
  5
A295
  8
0
 62
     0
 10
389.3986824536928
 20
931.0993614738311
 30
0.0
 11
391.47760345369261
 21
930.62116947383117
 31
0.0
  0
LINE
  5
A296
  8
0
 62
     0
 10
389.3986824536928
 20
922.0993614738311
 30
0.0
 11
391.47760345369261
 21
922.59046847383115
 31
0.0
  0
LINE
  5
A297
  8
0
 62
     0
 10
389.3986824536928
 20
920.09936147383064
 30
0.0
 11
391.47760345369261
 21
919.62898947383121
 31
0.0
  0
LINE
  5
A298
  8
0
 62
     0
 10
389.3986824536928
 20
912.09936147383075
 30
0.0
 11
391.47760345369261
 21
912.57720547383121
 31
0.0
  0
LINE
  5
A299
  8
0
 62
     0
 10
389.3986824536928
 20
910.09936147383075
 30
0.0
 11
391.47760345369261
 21
909.62951347383103
 31
0.0
  0
LINE
  5
A29A
  8
0
 62
     0
 10
391.89871245369278
 20
955.0993614738311
 30
0.0
 11
391.89871245369278
 21
953.09936147383064
 31
0.0
  0
LINE
  5
A29B
  8
0
 62
     0
 10
389.3986824536928
 20
944.09936147383075
 30
0.0
 11
389.3986824536928
 21
942.09936147383121
 31
0.0
  0
LINE
  5
A29C
  8
0
 62
     0
 10
389.3986824536928
 20
933.09936147383132
 30
0.0
 11
389.3986824536928
 21
931.0993614738311
 31
0.0
  0
LINE
  5
A29D
  8
0
 62
     0
 10
389.3986824536928
 20
922.0993614738311
 30
0.0
 11
389.3986824536928
 21
920.09936147383064
 31
0.0
  0
LINE
  5
A29E
  8
0
 62
     0
 10
389.3986824536928
 20
912.09936147383075
 30
0.0
 11
389.3986824536928
 21
910.09936147383075
 31
0.0
  0
ARC
  5
A29F
  8
0
 62
     0
 10
303.25258045369247
 20
907.0993614738311
 30
0.0
 40
3.0
 50
90.0
 51
190.2865610000006
  0
ARC
  5
A2A0
  8
0
 62
     0
 10
303.86325045369279
 20
906.15951347383077
 30
0.0
 40
3.4700000000000002
 50
90.0
 51
186.1896490000004
  0
LINE
  5
A2A1
  8
0
 62
     0
 10
209.5565244536929
 20
912.09936147383075
 30
0.0
 11
209.5565244536929
 21
910.09936147383075
 31
0.0
  0
LINE
  5
A2A2
  8
0
 62
     0
 10
194.55652445369279
 20
922.0993614738311
 30
0.0
 11
194.55652445369279
 21
920.09936147383064
 31
0.0
  0
LINE
  5
A2A3
  8
0
 62
     0
 10
194.55652445369279
 20
933.09936147383132
 30
0.0
 11
194.55652445369279
 21
931.0993614738311
 31
0.0
  0
LINE
  5
A2A4
  8
0
 62
     0
 10
194.55652445369279
 20
944.09936147383075
 30
0.0
 11
194.55652445369279
 21
942.09936147383121
 31
0.0
  0
LINE
  5
A2A5
  8
0
 62
     0
 10
194.55652445369279
 20
955.0993614738311
 30
0.0
 11
194.55652445369279
 21
953.09936147383064
 31
0.0
  0
LINE
  5
A2A6
  8
0
 62
     0
 10
209.5565244536929
 20
910.09936147383075
 30
0.0
 11
207.47760345369261
 21
909.62951347383103
 31
0.0
  0
LINE
  5
A2A7
  8
0
 62
     0
 10
209.5565244536929
 20
912.09936147383075
 30
0.0
 11
207.47760345369261
 21
912.57720547383121
 31
0.0
  0
LINE
  5
A2A8
  8
0
 62
     0
 10
194.55652445369279
 20
920.09936147383064
 30
0.0
 11
192.4776034536925
 21
919.62898947383121
 31
0.0
  0
LINE
  5
A2A9
  8
0
 62
     0
 10
194.55652445369279
 20
922.0993614738311
 30
0.0
 11
192.4776034536925
 21
922.59046847383115
 31
0.0
  0
LINE
  5
A2AA
  8
0
 62
     0
 10
194.55652445369279
 20
931.0993614738311
 30
0.0
 11
192.4776034536925
 21
930.62116947383117
 31
0.0
  0
LINE
  5
A2AB
  8
0
 62
     0
 10
194.55652445369279
 20
933.09936147383132
 30
0.0
 11
192.4776034536925
 21
933.61379647383114
 31
0.0
  0
LINE
  5
A2AC
  8
0
 62
     0
 10
194.55652445369279
 20
942.09936147383121
 30
0.0
 11
192.4776034536925
 21
941.60396447383062
 31
0.0
  0
LINE
  5
A2AD
  8
0
 62
     0
 10
194.55652445369279
 20
944.09936147383075
 30
0.0
 11
192.4776034536925
 21
944.64967047383061
 31
0.0
  0
LINE
  5
A2AE
  8
0
 62
     0
 10
194.55652445369279
 20
953.09936147383064
 30
0.0
 11
192.4776034536925
 21
952.57384347383106
 31
0.0
  0
LINE
  5
A2AF
  8
0
 62
     0
 10
194.55652445369279
 20
955.0993614738311
 30
0.0
 11
192.4776034536925
 21
955.70475647383114
 31
0.0
  0
LINE
  5
A2B0
  8
0
 62
     0
 10
194.55652445369279
 20
962.09936147383075
 30
0.0
 11
192.4776034536925
 21
961.53231947383074
 31
0.0
  0
LINE
  5
A2B1
  8
0
 62
     0
 10
194.55652445369279
 20
964.0993614738311
 30
0.0
 11
192.4776034536925
 21
964.77662947383101
 31
0.0
  0
LINE
  5
A2B2
  8
0
 62
     0
 10
194.55652445369279
 20
964.0993614738311
 30
0.0
 11
194.55652445369279
 21
962.09936147383075
 31
0.0
  0
LINE
  5
A2B3
  8
0
 62
     0
 10
192.4776034536925
 20
961.53231947383074
 30
0.0
 11
192.4776034536925
 21
964.77662947383101
 31
0.0
  0
LINE
  5
A2B4
  8
0
 62
     0
 10
192.4776034536925
 20
952.57384347383106
 30
0.0
 11
192.4776034536925
 21
955.70475647383114
 31
0.0
  0
LINE
  5
A2B5
  8
0
 62
     0
 10
192.4776034536925
 20
941.60396447383062
 30
0.0
 11
192.4776034536925
 21
944.64967047383061
 31
0.0
  0
LINE
  5
A2B6
  8
0
 62
     0
 10
192.4776034536925
 20
930.62116947383117
 30
0.0
 11
192.4776034536925
 21
933.61379647383114
 31
0.0
  0
LINE
  5
A2B7
  8
0
 62
     0
 10
192.4776034536925
 20
919.62898947383121
 30
0.0
 11
192.4776034536925
 21
922.59046847383115
 31
0.0
  0
LINE
  5
A2B8
  8
0
 62
     0
 10
207.47760345369261
 20
909.62951347383103
 30
0.0
 11
207.47760345369261
 21
912.57720547383121
 31
0.0
  0
LINE
  5
A2B9
  8
0
 62
     0
 10
207.47760345369261
 20
912.57720547383121
 30
0.0
 11
281.9043604536929
 21
912.57720547383121
 31
0.0
  0
LINE
  5
A2BA
  8
0
 62
     0
 10
207.47760345369261
 20
909.62951347383103
 30
0.0
 11
275.09195645369249
 21
909.62951347383103
 31
0.0
  0
LINE
  5
A2BB
  8
0
 62
     0
 10
275.70262645369257
 20
910.09936147383075
 30
0.0
 11
209.5565244536929
 21
910.09936147383075
 31
0.0
  0
LINE
  5
A2BC
  8
0
 62
     0
 10
281.4308654536926
 20
912.09936147383075
 30
0.0
 11
209.5565244536929
 21
912.09936147383075
 31
0.0
  0
ARC
  5
A2BD
  8
0
 62
     0
 10
275.70262645369257
 20
907.0993614738311
 30
0.0
 40
3.0
 50
349.71343899999948
 51
90.0
  0
ARC
  5
A2BE
  8
0
 62
     0
 10
275.09195645369249
 20
906.15951347383077
 30
0.0
 40
3.4700000000000002
 50
353.81035099999951
 51
90.0
  0
LINE
  5
A2BF
  8
0
 62
     0
 10
391.47760345369261
 20
864.54905247383124
 30
0.0
 11
192.4776034536925
 21
864.54905247383124
 31
0.0
  0
LINE
  5
A2C0
  8
0
 62
     0
 10
391.47760345369261
 20
867.59475847383101
 30
0.0
 11
192.4776034536925
 21
867.59475847383101
 31
0.0
  0
LINE
  5
A2C1
  8
0
 62
     0
 10
391.47760345369261
 20
875.58492647383105
 30
0.0
 11
192.4776034536925
 21
875.58492647383105
 31
0.0
  0
LINE
  5
A2C2
  8
0
 62
     0
 10
391.47760345369261
 20
878.5775534738309
 30
0.0
 11
192.4776034536925
 21
878.5775534738309
 31
0.0
  0
LINE
  5
A2C3
  8
0
 62
     0
 10
391.47760345369261
 20
886.60825447383104
 30
0.0
 11
192.4776034536925
 21
886.60825447383104
 31
0.0
  0
LINE
  5
A2C4
  8
0
 62
     0
 10
391.47760345369261
 20
889.56973347383109
 30
0.0
 11
192.4776034536925
 21
889.56973347383109
 31
0.0
  0
LINE
  5
A2C5
  8
0
 62
     0
 10
194.55652445369279
 20
867.09936147383121
 30
0.0
 11
389.3986824536928
 21
867.09936147383121
 31
0.0
  0
LINE
  5
A2C6
  8
0
 62
     0
 10
194.55652445369279
 20
865.0993614738311
 30
0.0
 11
389.3986824536928
 21
865.0993614738311
 31
0.0
  0
LINE
  5
A2C7
  8
0
 62
     0
 10
194.55652445369279
 20
878.09936147383098
 30
0.0
 11
389.3986824536928
 21
878.09936147383098
 31
0.0
  0
LINE
  5
A2C8
  8
0
 62
     0
 10
194.55652445369279
 20
876.09936147383075
 30
0.0
 11
389.3986824536928
 21
876.09936147383075
 31
0.0
  0
LINE
  5
A2C9
  8
0
 62
     0
 10
194.55652445369279
 20
889.0993614738311
 30
0.0
 11
389.3986824536928
 21
889.0993614738311
 31
0.0
  0
LINE
  5
A2CA
  8
0
 62
     0
 10
194.55652445369279
 20
887.09936147383098
 30
0.0
 11
389.3986824536928
 21
887.09936147383098
 31
0.0
  0
LINE
  5
A2CB
  8
0
 62
     0
 10
207.47760345369261
 20
896.62151747383075
 30
0.0
 11
281.9043604536929
 21
896.62151747383075
 31
0.0
  0
LINE
  5
A2CC
  8
0
 62
     0
 10
207.47760345369261
 20
899.56920947383105
 30
0.0
 11
275.09195645369249
 21
899.56920947383105
 31
0.0
  0
LINE
  5
A2CD
  8
0
 62
     0
 10
275.70262645369257
 20
899.09936147383132
 30
0.0
 11
209.5565244536929
 21
899.09936147383132
 31
0.0
  0
LINE
  5
A2CE
  8
0
 62
     0
 10
281.4308654536926
 20
897.0993614738311
 30
0.0
 11
209.5565244536929
 21
897.0993614738311
 31
0.0
  0
LINE
  5
A2CF
  8
0
 62
     0
 10
207.47760345369261
 20
899.56920947383105
 30
0.0
 11
207.47760345369261
 21
896.62151747383075
 31
0.0
  0
LINE
  5
A2D0
  8
0
 62
     0
 10
192.4776034536925
 20
889.56973347383109
 30
0.0
 11
192.4776034536925
 21
886.60825447383104
 31
0.0
  0
LINE
  5
A2D1
  8
0
 62
     0
 10
192.4776034536925
 20
878.5775534738309
 30
0.0
 11
192.4776034536925
 21
875.58492647383105
 31
0.0
  0
LINE
  5
A2D2
  8
0
 62
     0
 10
192.4776034536925
 20
867.59475847383101
 30
0.0
 11
192.4776034536925
 21
864.54905247383124
 31
0.0
  0
LINE
  5
A2D3
  8
0
 62
     0
 10
194.55652445369279
 20
865.0993614738311
 30
0.0
 11
192.4776034536925
 21
864.54905247383124
 31
0.0
  0
LINE
  5
A2D4
  8
0
 62
     0
 10
194.55652445369279
 20
867.09936147383121
 30
0.0
 11
192.4776034536925
 21
867.59475847383101
 31
0.0
  0
LINE
  5
A2D5
  8
0
 62
     0
 10
194.55652445369279
 20
876.09936147383075
 30
0.0
 11
192.4776034536925
 21
875.58492647383105
 31
0.0
  0
LINE
  5
A2D6
  8
0
 62
     0
 10
194.55652445369279
 20
878.09936147383098
 30
0.0
 11
192.4776034536925
 21
878.5775534738309
 31
0.0
  0
LINE
  5
A2D7
  8
0
 62
     0
 10
194.55652445369279
 20
887.09936147383098
 30
0.0
 11
192.4776034536925
 21
886.60825447383104
 31
0.0
  0
LINE
  5
A2D8
  8
0
 62
     0
 10
194.55652445369279
 20
889.0993614738311
 30
0.0
 11
192.4776034536925
 21
889.56973347383109
 31
0.0
  0
LINE
  5
A2D9
  8
0
 62
     0
 10
209.5565244536929
 20
897.0993614738311
 30
0.0
 11
207.47760345369261
 21
896.62151747383075
 31
0.0
  0
LINE
  5
A2DA
  8
0
 62
     0
 10
209.5565244536929
 20
899.09936147383132
 30
0.0
 11
207.47760345369261
 21
899.56920947383105
 31
0.0
  0
LINE
  5
A2DB
  8
0
 62
     0
 10
194.55652445369279
 20
865.0993614738311
 30
0.0
 11
194.55652445369279
 21
867.09936147383121
 31
0.0
  0
LINE
  5
A2DC
  8
0
 62
     0
 10
194.55652445369279
 20
876.09936147383075
 30
0.0
 11
194.55652445369279
 21
878.09936147383098
 31
0.0
  0
LINE
  5
A2DD
  8
0
 62
     0
 10
194.55652445369279
 20
887.09936147383098
 30
0.0
 11
194.55652445369279
 21
889.0993614738311
 31
0.0
  0
LINE
  5
A2DE
  8
0
 62
     0
 10
209.5565244536929
 20
897.0993614738311
 30
0.0
 11
209.5565244536929
 21
899.09936147383132
 31
0.0
  0
ARC
  5
A2DF
  8
0
 62
     0
 10
275.70262645369257
 20
902.09936147383075
 30
0.0
 40
3.0
 50
270.0
 51
10.286561000000651
  0
ARC
  5
A2E0
  8
0
 62
     0
 10
275.09195645369249
 20
903.03920947383142
 30
0.0
 40
3.4700000000000002
 50
270.0
 51
6.1896490000005366
  0
LINE
  5
A2E1
  8
0
 62
     0
 10
391.47760345369261
 20
896.62151747383075
 30
0.0
 11
297.05084645369237
 21
896.62151747383075
 31
0.0
  0
LINE
  5
A2E2
  8
0
 62
     0
 10
391.47760345369261
 20
899.56920947383105
 30
0.0
 11
303.86325045369279
 21
899.56920947383105
 31
0.0
  0
LINE
  5
A2E3
  8
0
 62
     0
 10
303.25258045369247
 20
899.09936147383132
 30
0.0
 11
389.3986824536928
 21
899.09936147383132
 31
0.0
  0
LINE
  5
A2E4
  8
0
 62
     0
 10
297.52434145369261
 20
897.0993614738311
 30
0.0
 11
389.3986824536928
 21
897.0993614738311
 31
0.0
  0
ARC
  5
A2E5
  8
0
 62
     0
 10
303.25258045369247
 20
902.09936147383075
 30
0.0
 40
3.0
 50
169.71343899999931
 51
270.0
  0
ARC
  5
A2E6
  8
0
 62
     0
 10
303.86325045369279
 20
903.03920947383142
 30
0.0
 40
3.4700000000000002
 50
173.8103509999994
 51
270.0
  0
LINE
  5
A2E7
  8
0
 62
     0
 10
389.3986824536928
 20
897.0993614738311
 30
0.0
 11
389.3986824536928
 21
899.09936147383132
 31
0.0
  0
LINE
  5
A2E8
  8
0
 62
     0
 10
389.3986824536928
 20
887.09936147383098
 30
0.0
 11
389.3986824536928
 21
889.0993614738311
 31
0.0
  0
LINE
  5
A2E9
  8
0
 62
     0
 10
389.3986824536928
 20
876.09936147383075
 30
0.0
 11
389.3986824536928
 21
878.09936147383098
 31
0.0
  0
LINE
  5
A2EA
  8
0
 62
     0
 10
389.3986824536928
 20
865.0993614738311
 30
0.0
 11
389.3986824536928
 21
867.09936147383121
 31
0.0
  0
LINE
  5
A2EB
  8
0
 62
     0
 10
389.3986824536928
 20
899.09936147383132
 30
0.0
 11
391.47760345369261
 21
899.56920947383105
 31
0.0
  0
LINE
  5
A2EC
  8
0
 62
     0
 10
389.3986824536928
 20
897.0993614738311
 30
0.0
 11
391.47760345369261
 21
896.62151747383075
 31
0.0
  0
LINE
  5
A2ED
  8
0
 62
     0
 10
389.3986824536928
 20
889.0993614738311
 30
0.0
 11
391.47760345369261
 21
889.56973347383109
 31
0.0
  0
LINE
  5
A2EE
  8
0
 62
     0
 10
389.3986824536928
 20
887.09936147383098
 30
0.0
 11
391.47760345369261
 21
886.60825447383104
 31
0.0
  0
LINE
  5
A2EF
  8
0
 62
     0
 10
389.3986824536928
 20
878.09936147383098
 30
0.0
 11
391.47760345369261
 21
878.5775534738309
 31
0.0
  0
LINE
  5
A2F0
  8
0
 62
     0
 10
389.3986824536928
 20
876.09936147383075
 30
0.0
 11
391.47760345369261
 21
875.58492647383105
 31
0.0
  0
LINE
  5
A2F1
  8
0
 62
     0
 10
389.3986824536928
 20
867.09936147383121
 30
0.0
 11
391.47760345369261
 21
867.59475847383101
 31
0.0
  0
LINE
  5
A2F2
  8
0
 62
     0
 10
389.3986824536928
 20
865.0993614738311
 30
0.0
 11
391.47760345369261
 21
864.54905247383124
 31
0.0
  0
LINE
  5
A2F3
  8
0
 62
     0
 10
391.47760345369261
 20
867.59475847383101
 30
0.0
 11
391.47760345369261
 21
864.54905247383124
 31
0.0
  0
LINE
  5
A2F4
  8
0
 62
     0
 10
391.47760345369261
 20
878.5775534738309
 30
0.0
 11
391.47760345369261
 21
875.58492647383105
 31
0.0
  0
LINE
  5
A2F5
  8
0
 62
     0
 10
391.47760345369261
 20
889.56973347383109
 30
0.0
 11
391.47760345369261
 21
886.60825447383104
 31
0.0
  0
LINE
  5
A2F6
  8
0
 62
     0
 10
391.47760345369261
 20
899.56920947383105
 30
0.0
 11
391.47760345369261
 21
896.62151747383075
 31
0.0
  0
LINE
  5
A2F7
  8
0
 62
     0
 10
324.3986824536924
 20
856.0993614738311
 30
0.0
 11
326.47760345369261
 21
856.59475847383101
 31
0.0
  0
LINE
  5
A2F8
  8
0
 62
     0
 10
326.47760345369261
 20
856.59475847383101
 30
0.0
 11
192.4776034536925
 21
856.59475847383101
 31
0.0
  0
LINE
  5
A2F9
  8
0
 62
     0
 10
194.55652445369279
 20
856.0993614738311
 30
0.0
 11
324.3986824536924
 21
856.0993614738311
 31
0.0
  0
LINE
  5
A2FA
  8
0
 62
     0
 10
324.3986824536924
 20
854.09936147383098
 30
0.0
 11
324.3986824536924
 21
856.0993614738311
 31
0.0
  0
LINE
  5
A2FB
  8
0
 62
     0
 10
326.47760345369261
 20
853.54905247383101
 30
0.0
 11
192.4776034536925
 21
853.54905247383101
 31
0.0
  0
LINE
  5
A2FC
  8
0
 62
     0
 10
194.55652445369279
 20
854.09936147383098
 30
0.0
 11
324.3986824536924
 21
854.09936147383098
 31
0.0
  0
LINE
  5
A2FD
  8
0
 62
     0
 10
324.3986824536924
 20
854.09936147383098
 30
0.0
 11
326.47760345369261
 21
853.54905247383101
 31
0.0
  0
LINE
  5
A2FE
  8
0
 62
     0
 10
326.47760345369261
 20
847.59475847383101
 30
0.0
 11
192.4776034536925
 21
847.59475847383101
 31
0.0
  0
LINE
  5
A2FF
  8
0
 62
     0
 10
194.55652445369279
 20
847.0993614738311
 30
0.0
 11
324.3986824536924
 21
847.0993614738311
 31
0.0
  0
LINE
  5
A300
  8
0
 62
     0
 10
326.47760345369261
 20
844.54905247383101
 30
0.0
 11
192.5111604536923
 21
844.54905247383101
 31
0.0
  0
LINE
  5
A301
  8
0
 62
     0
 10
194.55652445369279
 20
845.09936147383098
 30
0.0
 11
324.3986824536924
 21
845.09936147383098
 31
0.0
  0
LINE
  5
A302
  8
0
 62
     0
 10
324.3986824536924
 20
845.09936147383098
 30
0.0
 11
326.47760345369261
 21
844.54905247383101
 31
0.0
  0
LINE
  5
A303
  8
0
 62
     0
 10
326.47760345369261
 20
847.59475847383101
 30
0.0
 11
326.47760345369261
 21
844.54905247383101
 31
0.0
  0
LINE
  5
A304
  8
0
 62
     0
 10
324.3986824536924
 20
845.09936147383098
 30
0.0
 11
324.3986824536924
 21
847.0993614738311
 31
0.0
  0
LINE
  5
A305
  8
0
 62
     0
 10
324.3986824536924
 20
847.0993614738311
 30
0.0
 11
326.47760345369261
 21
847.59475847383101
 31
0.0
  0
LINE
  5
A306
  8
0
 62
     0
 10
326.47760345369261
 20
844.54905247383101
 30
0.0
 11
341.47760345369261
 21
844.54905247383101
 31
0.0
  0
LINE
  5
A307
  8
0
 62
     0
 10
341.47760345369261
 20
844.54905247383101
 30
0.0
 11
357.47760345369261
 21
840.20712747383106
 31
0.0
  0
LINE
  5
A308
  8
0
 62
     0
 10
192.4776034536925
 20
856.59475847383101
 30
0.0
 11
192.4776034536925
 21
853.54905247383101
 31
0.0
  0
LINE
  5
A309
  8
0
 62
     0
 10
192.4776034536925
 20
847.59475847383101
 30
0.0
 11
192.4776034536925
 21
844.54905247383101
 31
0.0
  0
LINE
  5
A30A
  8
0
 62
     0
 10
194.55652445369279
 20
854.09936147383098
 30
0.0
 11
194.55652445369279
 21
856.0993614738311
 31
0.0
  0
LINE
  5
A30B
  8
0
 62
     0
 10
194.55652445369279
 20
856.0993614738311
 30
0.0
 11
192.4776034536925
 21
856.59475847383101
 31
0.0
  0
LINE
  5
A30C
  8
0
 62
     0
 10
194.55652445369279
 20
854.09936147383098
 30
0.0
 11
192.4776034536925
 21
853.54905247383101
 31
0.0
  0
LINE
  5
A30D
  8
0
 62
     0
 10
194.55652445369279
 20
847.0993614738311
 30
0.0
 11
192.4776034536925
 21
847.59475847383101
 31
0.0
  0
LINE
  5
A30E
  8
0
 62
     0
 10
194.55652445369279
 20
845.09936147383098
 30
0.0
 11
194.55652445369279
 21
847.0993614738311
 31
0.0
  0
LINE
  5
A30F
  8
0
 62
     0
 10
194.55652445369279
 20
845.09936147383098
 30
0.0
 11
192.4776034536925
 21
844.54905247383101
 31
0.0
  0
LINE
  5
A310
  8
0
 62
     0
 10
188.97760345369261
 20
912.24313247383134
 30
0.0
 11
195.47760345369261
 21
912.24313247383134
 31
0.0
  0
LINE
  5
A311
  8
0
 62
     0
 10
188.97760345369261
 20
912.57721047383109
 30
0.0
 11
196.15760345369239
 21
912.57721047383109
 31
0.0
  0
LINE
  5
A312
  8
0
 62
     0
 10
197.47760345369261
 20
910.24313247383111
 30
0.0
 11
197.47760345369261
 21
904.59936547383074
 31
0.0
  0
LINE
  5
A313
  8
0
 62
     0
 10
199.15760345369239
 20
915.5772104738312
 30
0.0
 11
199.15760345369239
 21
904.59936547383074
 31
0.0
  0
ARC
  5
A314
  8
0
 62
     0
 10
196.15760345369239
 20
915.5772104738312
 30
0.0
 40
3.0
 50
270.0
 51
0.0
  0
LINE
  5
A315
  8
0
 62
     0
 10
188.97760345369261
 20
896.95559747383106
 30
0.0
 11
195.47760345369261
 21
896.95559747383106
 31
0.0
  0
LINE
  5
A316
  8
0
 62
     0
 10
188.97760345369261
 20
896.62151947383074
 30
0.0
 11
196.15760345369239
 21
896.62151947383074
 31
0.0
  0
LINE
  5
A317
  8
0
 62
     0
 10
197.47760345369261
 20
898.95559747383084
 30
0.0
 11
197.47760345369261
 21
904.59936547383074
 31
0.0
  0
LINE
  5
A318
  8
0
 62
     0
 10
199.15760345369239
 20
893.62151947383109
 30
0.0
 11
199.15760345369239
 21
904.59936547383074
 31
0.0
  0
ARC
  5
A319
  8
0
 62
     0
 10
196.15760345369239
 20
893.62151947383109
 30
0.0
 40
3.0
 50
359.99999799999722
 51
89.999998000010223
  0
ARC
  5
A31B
  8
0
  6
CONTINUOUS
 62
     0
 10
374.17740245369271
 20
976.08262747383105
 30
0.0
 40
2.600398999999999
 50
179.99998200000081
 51
269.99997799999852
  0
ARC
  5
A31C
  8
0
  6
CONTINUOUS
 62
     0
 10
374.17740245369271
 20
981.38261547383036
 30
0.0
 40
2.600403
 50
90.0
 51
179.99998200000081
  0
LINE
  5
A31D
  8
0
  6
CONTINUOUS
 62
     0
 10
376.97760345369261
 20
978.79864647383101
 30
0.0
 11
375.47760345369261
 21
977.93262147383109
 31
0.0
  0
LINE
  5
A31E
  8
0
  6
CONTINUOUS
 62
     0
 10
376.97760345369261
 20
979.79864647383044
 30
0.0
 11
375.47760345369261
 21
978.93262147383109
 31
0.0
  0
LINE
  5
A31F
  8
0
  6
CONTINUOUS
 62
     0
 10
376.97760345369261
 20
984.83262147383073
 30
0.0
 11
376.97760345369261
 21
972.63262147383102
 31
0.0
  0
LINE
  5
A320
  8
0
  6
CONTINUOUS
 62
     0
 10
375.47760345369261
 20
984.83262147383073
 30
0.0
 11
376.97760345369261
 21
984.83262147383073
 31
0.0
  0
LINE
  5
A321
  8
0
  6
CONTINUOUS
 62
     0
 10
375.47760345369261
 20
972.63262147383102
 30
0.0
 11
376.97760345369261
 21
972.63262147383102
 31
0.0
  0
LINE
  5
A322
  8
0
  6
CONTINUOUS
 62
     0
 10
371.57760945369262
 20
981.38261547383036
 30
0.0
 11
371.57760945369262
 21
976.08262747383105
 31
0.0
  0
LINE
  5
A323
  8
0
  6
CONTINUOUS
 62
     0
 10
375.47760345369261
 20
984.83262147383073
 30
0.0
 11
375.47760345369261
 21
972.63262147383102
 31
0.0
  0
LINE
  5
A324
  8
0
  6
CONTINUOUS
 62
     0
 10
375.47760345369261
 20
973.48262147383105
 30
0.0
 11
374.17740245369271
 21
973.48262147383105
 31
0.0
  0
LINE
  5
A325
  8
0
  6
CONTINUOUS
 62
     0
 10
375.47760345369261
 20
983.98262147383105
 30
0.0
 11
374.17740245369271
 21
983.98262147383105
 31
0.0
  0
ARC
  5
A326
  8
0
  6
CONTINUOUS
 62
     0
 10
374.17740245369271
 20
850.04070047383084
 30
0.0
 40
2.600398999999999
 50
179.99998200000081
 51
269.99997799999852
  0
ARC
  5
A327
  8
0
  6
CONTINUOUS
 62
     0
 10
374.17740245369271
 20
855.34068847383105
 30
0.0
 40
2.600403
 50
90.0
 51
179.99998200000081
  0
LINE
  5
A328
  8
0
  6
CONTINUOUS
 62
     0
 10
376.97760345369261
 20
852.75671947383103
 30
0.0
 11
375.47760345369261
 21
851.8906944738311
 31
0.0
  0
LINE
  5
A329
  8
0
  6
CONTINUOUS
 62
     0
 10
376.97760345369261
 20
853.75671947383103
 30
0.0
 11
375.47760345369261
 21
852.8906944738311
 31
0.0
  0
LINE
  5
A32A
  8
0
  6
CONTINUOUS
 62
     0
 10
376.97760345369261
 20
858.79069447383074
 30
0.0
 11
376.97760345369261
 21
846.59069447383115
 31
0.0
  0
LINE
  5
A32B
  8
0
  6
CONTINUOUS
 62
     0
 10
375.47760345369261
 20
858.79069447383074
 30
0.0
 11
376.97760345369261
 21
858.79069447383074
 31
0.0
  0
LINE
  5
A32C
  8
0
  6
CONTINUOUS
 62
     0
 10
375.47760345369261
 20
846.59069447383115
 30
0.0
 11
376.97760345369261
 21
846.59069447383115
 31
0.0
  0
LINE
  5
A32D
  8
0
  6
CONTINUOUS
 62
     0
 10
371.57760945369262
 20
855.34068847383105
 30
0.0
 11
371.57760945369262
 21
850.04070047383084
 31
0.0
  0
LINE
  5
A32E
  8
0
  6
CONTINUOUS
 62
     0
 10
375.47760345369261
 20
858.79069447383074
 30
0.0
 11
375.47760345369261
 21
846.59069447383115
 31
0.0
  0
LINE
  5
A32F
  8
0
  6
CONTINUOUS
 62
     0
 10
375.47760345369261
 20
847.44069447383094
 30
0.0
 11
374.17740245369271
 21
847.44069447383094
 31
0.0
  0
LINE
  5
A330
  8
0
  6
CONTINUOUS
 62
     0
 10
375.47760345369261
 20
857.94069447383106
 30
0.0
 11
374.17740245369271
 21
857.94069447383106
 31
0.0
  0
LINE
  5
A48E
  8
0
  6
CONTINUOUS
 62
     0
 10
396.47760345369261
 20
980.33900547383109
 30
0.0
 11
435.97763345369242
 21
980.33900547383109
 31
0.0
  0
LINE
  5
A48F
  8
0
  6
CONTINUOUS
 62
     0
 10
396.47760345369261
 20
966.66532347383077
 30
0.0
 11
435.97763345369242
 21
966.66532347383077
 31
0.0
  0
LINE
  5
A490
  8
0
  6
CONTINUOUS
 62
     0
 10
396.47760345369261
 20
842.38972447383082
 30
0.0
 11
435.97763345369242
 21
842.38972447383082
 31
0.0
  0
LINE
  5
A491
  8
0
  6
CONTINUOUS
 62
     0
 10
396.47760345369261
 20
854.69736347383105
 30
0.0
 11
435.97763345369242
 21
854.69736347383105
 31
0.0
  0
LINE
  5
A492
  8
0
  6
CONTINUOUS
 62
     0
 10
396.47760345369261
 20
864.87665547383085
 30
0.0
 11
435.97763345369242
 21
864.87665547383085
 31
0.0
  0
LINE
  5
A575
  8
0
 62
     0
 10
435.97765345369203
 20
606.77473497825122
 30
0.0
 11
396.47760345369261
 21
606.77473497825122
 31
0.0
  0
LINE
  5
A576
  8
0
 62
     0
 10
435.97765345369203
 20
598.65072997825132
 30
0.0
 11
396.47760345369261
 21
598.65072997825132
 31
0.0
  0
LINE
  5
A577
  8
0
 62
     0
 10
435.97765345369203
 20
584.97701897825118
 30
0.0
 11
396.47760345369261
 21
584.97701897825118
 31
0.0
  0
LINE
  5
A578
  8
0
 62
     0
 10
435.97765345369203
 20
473.00908797825127
 30
0.0
 11
396.47760345369261
 21
473.00908797825127
 31
0.0
  0
LINE
  5
A579
  8
0
 62
     0
 10
435.97765345369203
 20
483.18837997825119
 30
0.0
 11
396.47760345369261
 21
483.18837997825119
 31
0.0
  0
LINE
  5
A57A
  8
0
 62
     0
 10
435.97765345369203
 20
460.72180697825121
 30
0.0
 11
396.47760345369261
 21
460.72180697825121
 31
0.0
  0
TEXT
  5
ABA0
  8
0
  6
CONTINUOUS
 62
     0
 10
742.76745205352813
 20
896.27414587495855
 30
0.0
 40
15.0
  1
VX22-040EM~VX22-050EM
  0
ENDSEC
  0
EOF
