  0
SECTION
  2
HEADER
  9
$ACADVER
  1
AC1009
  9
$INSBASE
 10
0.0
 20
0.0
 30
0.0
  9
$EXTMIN
 10
175.5030260189601
 20
424.22756662905471
 30
-0.000000000000013
  9
$EXTMAX
 10
1187.810077822536
 20
1171.7391326805
 30
0.0000000000000023
  9
$LIMMIN
 10
0.0000005999945643
 20
-0.0000005963913736
  9
$LIMMAX
 10
1707.000000599995
 20
1109.9999994036091
  9
$ORTHOMODE
 70
     0
  9
$REGENMODE
 70
     1
  9
$FILLMODE
 70
     1
  9
$QTEXTMODE
 70
     0
  9
$MIRRTEXT
 70
     0
  9
$DRAGMODE
 70
     2
  9
$LTSCALE
 40
1.0
  9
$OSMODE
 70
   551
  9
$ATTMODE
 70
     1
  9
$TEXTSIZE
 40
2.5
  9
$TRACEWID
 40
1.0
  9
$TEXTSTYLE
  7
STANDARD
  9
$CLAYER
  8
0
  9
$CELTYPE
  6
BYLAYER
  9
$CECOLOR
 62
   256
  9
$DIMSCALE
 40
1.0
  9
$DIMASZ
 40
2.0
  9
$DIMEXO
 40
1.0
  9
$DIMDLI
 40
8.0
  9
$DIMRND
 40
0.0
  9
$DIMDLE
 40
0.0
  9
$DIMEXE
 40
1.0
  9
$DIMTP
 40
-0.025
  9
$DIMTM
 40
0.043
  9
$DIMTXT
 40
2.5
  9
$DIMCEN
 40
0.0
  9
$DIMTSZ
 40
0.0
  9
$DIMTOL
 70
     0
  9
$DIMLIM
 70
     0
  9
$DIMTIH
 70
     0
  9
$DIMTOH
 70
     0
  9
$DIMSE1
 70
     0
  9
$DIMSE2
 70
     0
  9
$DIMTAD
 70
     3
  9
$DIMZIN
 70
     8
  9
$DIMBLK
  1

  9
$DIMASO
 70
     1
  9
$DIMSHO
 70
     1
  9
$DIMPOST
  1

  9
$DIMAPOST
  1
"
  9
$DIMALT
 70
     0
  9
$DIMALTD
 70
     2
  9
$DIMALTF
 40
0.0393701
  9
$DIMLFAC
 40
1.0
  9
$DIMTOFL
 70
     1
  9
$DIMTVP
 40
0.0
  9
$DIMTIX
 70
     0
  9
$DIMSOXD
 70
     0
  9
$DIMSAH
 70
     0
  9
$DIMBLK1
  1

  9
$DIMBLK2
  1

  9
$DIMSTYLE
  2
AM_JIS
  9
$DIMCLRD
 70
     2
  9
$DIMCLRE
 70
     2
  9
$DIMCLRT
 70
     4
  9
$DIMTFAC
 40
0.71
  9
$DIMGAP
 40
1.5
  9
$LUNITS
 70
     2
  9
$LUPREC
 70
     2
  9
$SKETCHINC
 40
1.0
  9
$FILLETRAD
 40
0.0
  9
$AUNITS
 70
     0
  9
$AUPREC
 70
     0
  9
$MENU
  1
.
  9
$ELEVATION
 40
0.0
  9
$PELEVATION
 40
0.0
  9
$THICKNESS
 40
0.0
  9
$LIMCHECK
 70
     0
  9
$BLIPMODE
 70
     0
  9
$CHAMFERA
 40
3.0
  9
$CHAMFERB
 40
3.0
  9
$SKPOLY
 70
     0
  9
$TDCREATE
 40
2456829.3841110538
  9
$TDUPDATE
 40
2458540.6866111229
  9
$TDINDWG
 40
0.704329213
  9
$TDUSRTIMER
 40
0.7043287963
  9
$USRTIMER
 70
     1
  9
$ANGBASE
 50
0.0
  9
$ANGDIR
 70
     0
  9
$PDMODE
 70
     0
  9
$PDSIZE
 40
0.0
  9
$PLINEWID
 40
0.0
  9
$COORDS
 70
     1
  9
$SPLFRAME
 70
     0
  9
$SPLINETYPE
 70
     6
  9
$SPLINESEGS
 70
     8
  9
$ATTDIA
 70
     1
  9
$ATTREQ
 70
     1
  9
$HANDLING
 70
     1
  9
$HANDSEED
  5
CF86
  9
$SURFTAB1
 70
     6
  9
$SURFTAB2
 70
     6
  9
$SURFTYPE
 70
     6
  9
$SURFU
 70
     6
  9
$SURFV
 70
     6
  9
$UCSNAME
  2

  9
$UCSORG
 10
0.0
 20
0.0
 30
0.0
  9
$UCSXDIR
 10
1.0
 20
0.0
 30
0.0
  9
$UCSYDIR
 10
0.0
 20
1.0
 30
0.0
  9
$PUCSNAME
  2

  9
$PUCSORG
 10
0.0
 20
0.0
 30
0.0
  9
$PUCSXDIR
 10
1.0
 20
0.0
 30
0.0
  9
$PUCSYDIR
 10
0.0
 20
1.0
 30
0.0
  9
$USERI1
 70
     0
  9
$USERI2
 70
     0
  9
$USERI3
 70
     0
  9
$USERI4
 70
     0
  9
$USERI5
 70
     0
  9
$USERR1
 40
0.0
  9
$USERR2
 40
0.0
  9
$USERR3
 40
0.0
  9
$USERR4
 40
0.0
  9
$USERR5
 40
0.0
  9
$WORLDVIEW
 70
     1
  9
$SHADEDGE
 70
     3
  9
$SHADEDIF
 70
    70
  9
$TILEMODE
 70
     1
  9
$MAXACTVP
 70
    64
  9
$PLIMCHECK
 70
     0
  9
$PEXTMIN
 10
1.0000000000000000E+020
 20
1.0000000000000000E+020
 30
1.0000000000000000E+020
  9
$PEXTMAX
 10
-1.0000000000000000E+020
 20
-1.0000000000000000E+020
 30
-1.0000000000000000E+020
  9
$PLIMMIN
 10
0.0
 20
0.0
  9
$PLIMMAX
 10
420.0
 20
297.0
  9
$UNITMODE
 70
     0
  9
$VISRETAIN
 70
     1
  9
$PLINEGEN
 70
     0
  9
$PSLTSCALE
 70
     1
  0
ENDSEC
  0
SECTION
  2
TABLES
  0
TABLE
  2
VPORT
 70
     1
  0
VPORT
  2
*ACTIVE
 70
     0
 10
0.0
 20
0.0
 11
1.0
 21
1.0
 12
681.65655192074814
 22
797.98334965477727
 13
0.0
 23
0.0
 14
15.0
 24
15.0
 15
60.0
 25
60.0
 16
0.0
 26
0.0
 36
1.0
 17
0.0
 27
0.0
 37
0.0
 40
752.64322439962461
 41
1.7571592210767459
 42
50.0
 43
0.0
 44
0.0
 50
0.0
 51
0.0
 71
    16
 72
  1000
 73
     1
 74
     3
 75
     0
 76
     0
 77
     0
 78
     0
  0
ENDTAB
  0
TABLE
  2
LTYPE
 70
    24
  0
LTYPE
  2
CONTINUOUS
 70
     0
  3
Solid line
 72
    65
 73
     0
 40
0.0
  0
LTYPE
  2
CENTER
 70
     0
  3
Center ____ _ ____ _ ____ _ ____ _ ____ _ ____
 72
    65
 73
     4
 40
50.799999999999997
 49
31.75
 49
-6.349999999999997
 49
6.349999999999997
 49
-6.349999999999997
  0
LTYPE
  2
AM_ISO02W050
 70
     0
  3
__ __ __ __ __ __ __ __ __ __ __ __ __ __ __
 72
    65
 73
     2
 40
7.5
 49
6.0
 49
-1.5
  0
LTYPE
  2
AM_ISO08W050
 70
     0
  3
____ . ____ . ____ . ____ . ____ . ____ . ____
 72
    65
 73
     4
 40
18.0
 49
12.0
 49
-1.5
 49
3.0
 49
-1.5
  0
LTYPE
  2
AM_ISO09W050
 70
     0
  3
_____ . . _____ . . _____ . . ____ .. ____
 72
    65
 73
     6
 40
22.5
 49
12.0
 49
-1.5
 49
3.0
 49
-1.5
 49
3.0
 49
-1.5
  0
LTYPE
  2
AMCONSTR
 70
     0
  3
_______________________
 72
    65
 73
     2
 40
9999.0
 49
9999.0
 49
0.0
  0
LTYPE
  2
AM_ISO08W050X2
 70
     0
  3
__ . __ . __ . __ . __ . __
 72
    65
 73
     4
 40
9.0
 49
6.0
 49
-0.75
 49
1.5
 49
-0.75
  0
LTYPE
  2
AM_ISO02W050X2
 70
     0
  3
 _ _ _ _ _ _ _ _ _ _ _ _
 72
    65
 73
     2
 40
3.75
 49
3.0
 49
-0.75
  0
LTYPE
  2
AMZIGZAG
 70
     0
  3
/\/-/\/-/\/-/\/-/\/-/\/
 72
    65
 73
     2
 40
11.0001
 49
0.0001
 49
-11.0
  0
LTYPE
  2
ACANSTGBM
 70
     0
  3
__ . . __ . .
 72
    65
 73
     6
 40
9.0
 49
4.0
 49
-1.0
 49
1.0
 49
-1.0
 49
1.0
 49
-1.0
  0
LTYPE
  2
ACANSTGLM
 70
     0
  3
_ _ _ _ _
 72
    65
 73
     2
 40
3.0
 49
2.0
 49
-1.0
  0
LTYPE
  2
ACISOWELD
 70
     0
  3
_ _ _ _ _
 72
    65
 73
     2
 40
2.0
 49
2.0
 49
-1.0
  0
LTYPE
  2
ACISOTGB
 70
     0
  3
__ . . __ . .
 72
    65
 73
     6
 40
9.0
 49
4.0
 49
-1.0
 49
1.0
 49
-1.0
 49
1.0
 49
-1.0
  0
LTYPE
  2
ACISOTGL
 70
     0
  3
_ _ _ _ _
 72
    65
 73
     2
 40
3.0
 49
2.0
 49
-1.0
  0
LTYPE
  2
ACJISTGB
 70
     0
  3
__ . . __ . .
 72
    65
 73
     6
 40
9.0
 49
4.0
 49
-1.0
 49
1.0
 49
-1.0
 49
1.0
 49
-1.0
  0
LTYPE
  2
ACJISTGL
 70
     0
  3
_ _ _ _ _
 72
    65
 73
     2
 40
3.0
 49
2.0
 49
-1.0
  0
LTYPE
  2
HIDDEN
 70
     0
  3
Hidden __ __ __ __ __ __ __ __ __ __ __ __ __ _
 72
    65
 73
     2
 40
9.5249999999999968
 49
6.349999999999997
 49
-3.174999999999998
  0
LTYPE
  2
PHANTOM2
 70
     0
  3
Phantom (.5x) ___ _ _ ___ _ _ ___ _ _ ___ _ _
 72
    65
 73
     6
 40
31.75
 49
15.875
 49
-3.174999999999998
 49
3.174999999999998
 49
-3.174999999999998
 49
3.174999999999998
 49
-3.174999999999998
  0
LTYPE
  2
CENTER2
 70
     0
  3
Center (.5x) ___ _ ___ _ ___ _ ___ _ ___ _ ___
 72
    65
 73
     4
 40
1.125
 49
0.75
 49
-0.125
 49
0.125
 49
-0.125
  0
LTYPE
  2
HIDDEN2
 70
     0
  3
Hidden (.5x) _ _ _ _ _ _ _ _ _ _ _ _ _ _ _ _ _
 72
    65
 73
     2
 40
0.1875
 49
0.125
 49
-0.0625
  0
LTYPE
  2
AMZIGZAG2
 70
     0
  3
/\/-/\/-/\/-/\/-/\/-/\/
 72
    65
 73
     2
 40
0.4401
 49
0.0001
 49
-0.4400000000000001
  0
LTYPE
  2
ACANSTGB
 70
     0
  3
__ . . __ . .
 72
    65
 73
     6
 40
0.35433070866
 49
0.15748031496
 49
-0.03937007874
 49
0.03937007874
 49
-0.03937007874
 49
0.03937007874
 49
-0.03937007874
  0
LTYPE
  2
ACANSTGL
 70
     0
  3
_ _ _ _ _
 72
    65
 73
     2
 40
0.11811023622
 49
0.07874015748
 49
-0.03937007874
  0
ENDTAB
  0
TABLE
  2
LAYER
 70
     4
  0
LAYER
  2
0
 70
     0
 62
     7
  6
CONTINUOUS
  0
LAYER
  2
DEFPOINTS
 70
     0
 62
     7
  6
CONTINUOUS
  0
LAYER
  2
AM_CL
 70
     0
 62
     1
  6
AMCONSTR
  0
LAYER
  2
AM_5
 70
     0
 62
     2
  6
CONTINUOUS
  0
ENDTAB
  0
TABLE
  2
STYLE
 70
    10
  0
STYLE
  2
STANDARD
 70
     0
 40
0.0
 41
0.7400000000000003
 50
0.0
 71
     0
 42
2.5
  3
txt.shx
  4
bigfont.shx
  0
STYLE
  2
ANNOTATIVE
 70
     0
 40
0.0
 41
1.0
 50
0.0
 71
     0
 42
0.2
  3
txt
  4

  0
STYLE
  2

 70
     1
 40
0.0
 41
1.0
 50
0.0
 71
     0
 42
2.5
  3
ltypeshp.shx
  4

  0
STYLE
  2
ACANSTS
 70
     0
 40
1.0
 41
1.0
 50
0.0
 71
     0
 42
2.5
  3
romans.shx
  4
bigfont.shx
  0
STYLE
  2
ACANSGDT
 70
     0
 40
0.0
 41
1.0
 50
0.0
 71
     0
 42
2.5
  3
amgdt.shx
  4

  0
STYLE
  2
ACISOTS
 70
     0
 40
1.0
 41
1.0
 50
0.0
 71
     0
 42
2.5
  3
isocp.shx
  4
extfont.shx
  0
STYLE
  2
ACISOGDT
 70
     0
 40
0.0
 41
1.0
 50
0.0
 71
     0
 42
2.5
  3
amgdt.shx
  4

  0
STYLE
  2
ACJISGDT
 70
     0
 40
0.0
 41
1.0
 50
0.0
 71
     0
 42
2.5
  3
amgdt.shx
  4

  0
STYLE
  2
ACJISTS
 70
     0
 40
1.0
 41
1.0
 50
0.0
 71
     0
 42
2.5
  3
isocp.shx
  4
extfont.shx
  0
STYLE
  2

 70
     1
 40
0.0
 41
1.0
 50
0.0
 71
     0
 42
2.5
  3
genltshp.shx
  4

  0
ENDTAB
  0
TABLE
  2
VIEW
 70
     6
  0
VIEW
  2
AM_VIEW1
 70
     0
 40
555.00000000000011
 10
599.14035147718755
 20
832.49999940360874
 41
1198.280701754386
 11
0.0
 21
0.0
 31
1.0
 12
0.0
 22
0.0
 32
0.0
 42
50.0
 43
0.0
 44
0.0
 50
0.0
 71
    16
  0
VIEW
  2
AM_VIEW2
 70
     0
 40
555.00000000000011
 10
1107.8596497228009
 20
832.49999940360874
 41
1198.280701754386
 11
0.0
 21
0.0
 31
1.0
 12
0.0
 22
0.0
 32
0.0
 42
50.0
 43
0.0
 44
0.0
 50
0.0
 71
    16
  0
VIEW
  2
AM_VIEW3
 70
     0
 40
555.00000000000011
 10
599.14035147718755
 20
277.49999940360868
 41
1198.280701754386
 11
0.0
 21
0.0
 31
1.0
 12
0.0
 22
0.0
 32
0.0
 42
50.0
 43
0.0
 44
0.0
 50
0.0
 71
    16
  0
VIEW
  2
AM_VIEW4
 70
     0
 40
555.00000000000011
 10
1107.8596497228009
 20
277.49999940360868
 41
1198.280701754386
 11
0.0
 21
0.0
 31
1.0
 12
0.0
 22
0.0
 32
0.0
 42
50.0
 43
0.0
 44
0.0
 50
0.0
 71
    16
  0
VIEW
  2
AM_VIEW5
 70
     0
 40
555.00000000000011
 10
853.50000059999434
 20
554.99999940360874
 41
1198.280701754386
 11
0.0
 21
0.0
 31
1.0
 12
0.0
 22
0.0
 32
0.0
 42
50.0
 43
0.0
 44
0.0
 50
0.0
 71
    16
  0
VIEW
  2
AM_VIEW6
 70
     0
 40
1109.9889000000001
 10
853.50000059999434
 20
554.99999940360874
 41
2396.5374378947372
 11
0.0
 21
0.0
 31
1.0
 12
0.0
 22
0.0
 32
0.0
 42
50.0
 43
0.0
 44
0.0
 50
0.0
 71
    16
  0
ENDTAB
  0
TABLE
  2
UCS
 70
     0
  0
ENDTAB
  0
TABLE
  2
APPID
 70
   158
  0
APPID
  2
ACAD
 70
     0
  0
APPID
  2
ACADANNOTATIVE
 70
     0
  0
APPID
  2
ACAD_MLEADERVER
 70
     0
  0
APPID
  2
MCAD_NO_VIS
 70
     0
  0
APPID
  2
ACAD_TEMP_GRAPHIC
 70
     0
  0
APPID
  2
AD_DRAW
 70
     0
  0
APPID
  2
ACATTRIBSERVICES
 70
     0
  0
APPID
  2
DESIGNERASSEMBLIES
 70
     0
  0
APPID
  2
ACADM_DIM_EDIT
 70
     0
  0
APPID
  2
AMDT_DM_ADJ
 70
     0
  0
APPID
  2
GENIUS_GENDIMSH_14
 70
     0
  0
APPID
  2
GEVID1057795304
 70
     0
  0
APPID
  2
GEVDC
 70
     0
  0
APPID
  2
GEVCON
 70
     0
  0
APPID
  2
GENIUS_GENBH_13
 70
     0
  0
APPID
  2
GENIUS_GENOENT_13
 70
     0
  0
APPID
  2
GENIUS_GENOBJ-NBEHI-BHF_13
 70
     0
  0
APPID
  2
GENIUS_GENOLIS_13
 70
     0
  0
APPID
  2
GENIUS_GENODEF_13
 70
     0
  0
APPID
  2
GENIUS_GENOREF_13
 70
     0
  0
APPID
  2
GENIUS_GENOBJ-NBEHI-BHB_13
 70
     0
  0
APPID
  2
GENIUS_GENOBJ-F-SCPASSM_13
 70
     0
  0
APPID
  2
GENIUS_GENDTOL_13
 70
     0
  0
APPID
  2
GENIUS_GENTRA_14
 70
     0
  0
APPID
  2
ASURF_PCURVE_APPNAME
 70
     0
  0
APPID
  2
GENIUS_GENCFG_13
 70
     0
  0
APPID
  2
GENIUS_GE3CFG0_13
 70
     0
  0
APPID
  2
GENIUS_GENCFG0_13
 70
     0
  0
APPID
  2
GENIUS_GENCFG1_13
 70
     0
  0
APPID
  2
GENIUS_GENCFG2_13
 70
     0
  0
APPID
  2
GENIUS_GENCFG3_13
 70
     0
  0
APPID
  2
GENIUS_GENCFG4_13
 70
     0
  0
APPID
  2
GENIUS_GEVCFG0_13
 70
     0
  0
APPID
  2
GENIUS_GENOBJ-N-TIT_13
 70
     0
  0
APPID
  2
GENIUS_GENTITLE_13
 70
     0
  0
APPID
  2
GENIUS_GENSCREG_15
 70
     0
  0
APPID
  2
GENIUS_GENOBJ-N-SDF_13
 70
     0
  0
APPID
  2
GENIUS_GENFIL_13
 70
     0
  0
APPID
  2
GENIUS_GENOBJ-N-CHA_13
 70
     0
  0
APPID
  2
GENIUS_GEFSH_13
 70
     0
  0
APPID
  2
GENIUS_GENOBJ-F-SHS_13
 70
     0
  0
APPID
  2
GENIUS_GENOBJ-N-CEN_13
 70
     0
  0
APPID
  2
GENIUS_GENREC_14
 70
     0
  0
APPID
  2
GENIUS_GENOBJ-N-REC_13
 70
     0
  0
APPID
  2
GENIUS_GENOBJ-N-HTC_13
 70
     0
  0
APPID
  2
GENIUS_GENHATCH_13
 70
     0
  0
APPID
  2
ACAD_PSEXT
 70
     0
  0
APPID
  2
ACAD_EXEMPT_FROM_CAD_STANDARDS
 70
     0
  0
APPID
  2
ACAECLAYERSTANDARD
 70
     0
  0
APPID
  2
GENIUS_GENCEN_19
 70
     0
  0
APPID
  2
ACAD_DSTYLE_DIMINSPECT
 70
     0
  0
APPID
  2
ACAD_DSTYLE_DIMANGULAR_EXT
 70
     0
  0
APPID
  2
ACADANNOPO
 70
     0
  0
APPID
  2
ACAD_NAV_VCDISPLAY
 70
     0
  0
APPID
  2
GENIUS_GENOBJ-N-FIL_13
 70
     0
  0
APPID
  2
ACAD_DSTYLE_DIMBREAK
 70
     0
  0
APPID
  2
ACAD_DSTYLE_DIMJAG
 70
     0
  0
APPID
  2
ACAD_DSTYLE_DIMRADIAL_EXTENSION
 70
     0
  0
APPID
  2
GENIUS_GENHINW_13
 70
     0
  0
APPID
  2
GENIUS_FIRSTVISTXT_14
 70
     0
  0
APPID
  2
GENIUS_GENOBJ-N-LEADER_13
 70
     0
  0
APPID
  2
DCO15
 70
     0
  0
APPID
  2
GENIUS_DUMCFG0_13
 70
     0
  0
APPID
  2
ACAD_DSTYLE_DIMTEXT_FILL
 70
     0
  0
APPID
  2
AMG_2DHIDE
 70
     0
  0
APPID
  2
GENIUS_GEFSHEP_13
 70
     0
  0
APPID
  2
GENIUS_GENOBJ-F-SHE_13
 70
     0
  0
APPID
  2
GENIUS_GEFSHE_13
 70
     0
  0
APPID
  2
ACAD_DIMASSOC_DIMLFAC
 70
     0
  0
APPID
  2
ACAD_DIMASSOC_CALC_DIMLFAC
 70
     0
  0
APPID
  2
ACAD_DIMASSOC_OVERRIDDEN_D
 70
     0
  0
APPID
  2
GENIUS_GENOBJ-F-SHSV_13
 70
     0
  0
APPID
  2
GENIUS_GEFWELD_13
 70
     0
  0
APPID
  2
GENIUS_GENOBJ-N-CRS_13
 70
     0
  0
APPID
  2
GENIUS_GENOBJ-N-RSBK_13
 70
     0
  0
APPID
  2
GENIUS_GENOBJ-N-LIB_13
 70
     0
  0
APPID
  2
GENIUS_GENSCALE_13
 70
     0
  0
APPID
  2
GENIUS_GENDREL_13
 70
     0
  0
APPID
  2
GEVPT
 70
     0
  0
APPID
  2
GEVIT
 70
     0
  0
APPID
  2
VCC
 70
     0
  0
APPID
  2
GENBH
 70
     0
  0
APPID
  2
GEVMK
 70
     0
  0
APPID
  2
GENIUS_GENOBJ-F-DESC_13
 70
     0
  0
APPID
  2
GENIUS_GEFDESC_14
 70
     0
  0
APPID
  2
GENIUS_GENOBJ-F-FEAT_13
 70
     0
  0
APPID
  2
GENIUS_GEFFEAT_14
 70
     0
  0
APPID
  2
GENIUS_GEFPARTINS_13
 70
     0
  0
APPID
  2
GENIUS_GENSCREG_13
 70
     0
  0
APPID
  2
GENIUS_GEFSHP_13
 70
     0
  0
APPID
  2
GEVID1025574798
 70
     0
  0
APPID
  2
GEVID1025574769
 70
     0
  0
APPID
  2
GEVID1025757451
 70
     0
  0
APPID
  2
GEVID1240528327
 70
     0
  0
APPID
  2
AMG_2DSTRUCT_BTR
 70
     0
  0
APPID
  2
ACADM_2DVIEW_IGN_NOTIFY
 70
     0
  0
APPID
  2
GEVID1240528328
 70
     0
  0
APPID
  2
GEVID1240528329
 70
     0
  0
APPID
  2
GEVRADREF
 70
     0
  0
APPID
  2
GEVID1240528330
 70
     0
  0
APPID
  2
GEVID1240528331
 70
     0
  0
APPID
  2
GEVID1240528332
 70
     0
  0
APPID
  2
GEVID1240791080
 70
     0
  0
APPID
  2
GEVID1240791081
 70
     0
  0
APPID
  2
GEVID1240791082
 70
     0
  0
APPID
  2
GEVID1240791083
 70
     0
  0
APPID
  2
GEVID1240791084
 70
     0
  0
APPID
  2
GEVID1240791085
 70
     0
  0
APPID
  2
GEVID1240791086
 70
     0
  0
APPID
  2
GEVID1240791087
 70
     0
  0
APPID
  2
GEVID1240791088
 70
     0
  0
APPID
  2
GEVID1240791089
 70
     0
  0
APPID
  2
GEVID1240791090
 70
     0
  0
APPID
  2
GEVID1240791091
 70
     0
  0
APPID
  2
GEVID1240791092
 70
     0
  0
APPID
  2
GEVID1240791093
 70
     0
  0
APPID
  2
GEVID1240791094
 70
     0
  0
APPID
  2
GEVID1240791095
 70
     0
  0
APPID
  2
GEVID1240791096
 70
     0
  0
APPID
  2
GEVID1240791097
 70
     0
  0
APPID
  2
GEVID1240791098
 70
     0
  0
APPID
  2
GEVID1240791099
 70
     0
  0
APPID
  2
GEVID1240791100
 70
     0
  0
APPID
  2
GEVID1240791101
 70
     0
  0
APPID
  2
GEVID1240791102
 70
     0
  0
APPID
  2
GEVID1240791103
 70
     0
  0
APPID
  2
GEVID1240791104
 70
     0
  0
APPID
  2
GEVID1240791105
 70
     0
  0
APPID
  2
GEVID1240875381
 70
     0
  0
APPID
  2
GEVID1240875382
 70
     0
  0
APPID
  2
GEVID1240875383
 70
     0
  0
APPID
  2
GEVID1240875384
 70
     0
  0
APPID
  2
GEVID1240875385
 70
     0
  0
APPID
  2
GEVID1240875386
 70
     0
  0
APPID
  2
GEVID1240875387
 70
     0
  0
APPID
  2
GEVID1240875388
 70
     0
  0
APPID
  2
GEVID1240875389
 70
     0
  0
APPID
  2
GEVID1240875390
 70
     0
  0
APPID
  2
GEVID1240875391
 70
     0
  0
APPID
  2
GEVID1240875392
 70
     0
  0
APPID
  2
GEVID1240875393
 70
     0
  0
APPID
  2
GEVID1240875394
 70
     0
  0
APPID
  2
GEVID1240875395
 70
     0
  0
APPID
  2
GEVID1240875396
 70
     0
  0
APPID
  2
GEVID1240875397
 70
     0
  0
APPID
  2
GEVID1240875398
 70
     0
  0
APPID
  2
GEVID1240875399
 70
     0
  0
APPID
  2
GEVID1240908996
 70
     0
  0
APPID
  2
GEVID1240908997
 70
     0
  0
APPID
  2
GEVID1240908998
 70
     0
  0
APPID
  2
GEVID1240908999
 70
     0
  0
APPID
  2
GEVID1240909000
 70
     0
  0
APPID
  2
GENIUS_GENOBJ-N-ZOO_13
 70
     0
  0
APPID
  2
GENIUS_GENZOO_17
 70
     0
  0
APPID
  2
GENIUS_GE3SECT_13
 70
     0
  0
APPID
  2
GEV_VCCNULL_SWITCH_OFF
 70
     0
  0
APPID
  2
ACAD_DSTYLE_DIMTALN
 70
     0
  0
APPID
  2
CONTENTBLOCKDESCRIPTION
 70
     0
  0
ENDTAB
  0
TABLE
  2
DIMSTYLE
 70
    23
  0
DIMSTYLE
  2
STANDARD
 70
     0
  3

  4

  5

  6

  7

 40
1.0
 41
0.18
 42
0.0625
 43
0.38
 44
0.18
 45
0.0
 46
0.0
 47
0.0
 48
0.0
140
0.18
141
0.09
142
0.0
143
25.399999999999999
144
1.0
145
0.0
146
1.0
147
0.09
 71
     0
 72
     0
 73
     1
 74
     1
 75
     0
 76
     0
 77
     0
 78
     0
170
     0
171
     2
172
     0
173
     0
174
     0
175
     0
176
     0
177
     0
178
     0
  0
DIMSTYLE
  2
ANNOTATIVE
 70
     0
  3

  4

  5

  6

  7

 40
1.0
 41
0.18
 42
0.0625
 43
0.38
 44
0.18
 45
0.0
 46
0.0
 47
0.0
 48
0.0
140
0.18
141
0.09
142
0.0
143
25.399999999999999
144
1.0
145
0.0
146
1.0
147
0.09
 71
     0
 72
     0
 73
     1
 74
     1
 75
     0
 76
     0
 77
     0
 78
     0
170
     0
171
     2
172
     0
173
     0
174
     0
175
     0
176
     0
177
     0
178
     0
  0
DIMSTYLE
  2
AM_ANSI
 70
     0
  3

  4
"
  5

  6

  7

 40
1.0
 41
2.5
 42
1.0
 43
10.0
 44
1.0
 45
0.0
 46
0.0
 47
0.1
 48
0.1
140
3.5
141
0.0
142
0.0
143
0.0393701
144
1.0
145
0.0
146
0.71
147
1.5
 71
     0
 72
     0
 73
     1
 74
     1
 75
     0
 76
     0
 77
     0
 78
     8
170
     0
171
     2
172
     0
173
     0
174
     0
175
     0
176
     2
177
     2
178
     4
  0
DIMSTYLE
  2
AM_ANSI$3
 70
     0
  3

  4
"
  5

  6

  7

 40
1.0
 41
2.5
 42
1.0
 43
10.0
 44
1.0
 45
0.0
 46
0.0
 47
0.1
 48
0.1
140
3.5
141
0.0
142
0.0
143
0.0393701
144
1.0
145
0.0
146
0.71
147
1.5
 71
     0
 72
     0
 73
     1
 74
     1
 75
     0
 76
     0
 77
     0
 78
     8
170
     0
171
     2
172
     0
173
     0
174
     0
175
     0
176
     2
177
     2
178
     4
  0
DIMSTYLE
  2
AM_ANSI$4
 70
     0
  3

  4
"
  5

  6

  7

 40
1.0
 41
2.5
 42
1.0
 43
10.0
 44
1.0
 45
0.0
 46
0.0
 47
0.1
 48
0.1
140
3.5
141
0.0
142
0.0
143
0.0393701
144
1.0
145
0.0
146
0.71
147
1.5
 71
     0
 72
     0
 73
     1
 74
     1
 75
     0
 76
     0
 77
     0
 78
     8
170
     0
171
     2
172
     0
173
     0
174
     0
175
     0
176
     2
177
     2
178
     4
  0
DIMSTYLE
  2
AM_ANSI$7
 70
     0
  3

  4
"
  5

  6

  7

 40
1.0
 41
2.5
 42
1.0
 43
10.0
 44
1.0
 45
0.0
 46
0.0
 47
0.1
 48
0.1
140
5.0
141
0.0
142
0.0
143
0.0393701
144
1.0
145
0.0
146
0.71
147
1.5
 71
     0
 72
     0
 73
     1
 74
     1
 75
     0
 76
     0
 77
     0
 78
     8
170
     0
171
     2
172
     0
173
     0
174
     0
175
     0
176
     2
177
     2
178
     4
  0
DIMSTYLE
  2
AM_ANSI$SF
 70
     0
  3

  4
"
  5

  6

  7

 40
1.0
 41
2.5
 42
1.0
 43
10.0
 44
1.0
 45
0.0
 46
0.0
 47
0.1
 48
0.1
140
3.5
141
0.0
142
0.0
143
0.0393701
144
1.0
145
0.0
146
0.71
147
1.5
 71
     0
 72
     0
 73
     1
 74
     1
 75
     1
 76
     1
 77
     0
 78
     8
170
     0
171
     2
172
     0
173
     0
174
     0
175
     0
176
     2
177
     2
178
     4
  0
DIMSTYLE
  2
AM_ANSI$SH
 70
     0
  3

  4
"
  5

  6

  7

 40
1.0
 41
2.5
 42
1.0
 43
10.0
 44
1.0
 45
0.0
 46
0.0
 47
0.1
 48
0.1
140
3.5
141
0.0
142
0.0
143
0.0393701
144
1.0
145
0.0
146
0.71
147
1.5
 71
     0
 72
     0
 73
     1
 74
     1
 75
     1
 76
     1
 77
     0
 78
     8
170
     0
171
     2
172
     0
173
     1
174
     0
175
     0
176
     2
177
     2
178
     4
  0
DIMSTYLE
  2
AM_ISO
 70
     0
  3

  4
"
  5

  6

  7

 40
1.0
 41
2.5
 42
1.0
 43
10.0
 44
1.0
 45
0.0
 46
0.0
 47
0.1
 48
0.1
140
3.5
141
0.0
142
0.0
143
0.0393701
144
1.0
145
0.0
146
0.71
147
1.5
 71
     0
 72
     0
 73
     0
 74
     0
 75
     0
 76
     0
 77
     1
 78
     8
170
     0
171
     2
172
     1
173
     0
174
     0
175
     0
176
   256
177
   256
178
     2
  0
DIMSTYLE
  2
AM_ISO$3
 70
     0
  3

  4
"
  5

  6

  7

 40
1.0
 41
2.5
 42
1.0
 43
10.0
 44
1.0
 45
0.0
 46
0.0
 47
0.1
 48
0.1
140
3.5
141
0.0
142
0.0
143
0.0393701
144
1.0
145
0.0
146
0.71
147
1.5
 71
     0
 72
     0
 73
     0
 74
     1
 75
     0
 76
     0
 77
     1
 78
     8
170
     0
171
     2
172
     0
173
     0
174
     0
175
     0
176
   256
177
   256
178
     2
  0
DIMSTYLE
  2
AM_ISO$4
 70
     0
  3

  4
"
  5

  6

  7

 40
1.0
 41
2.5
 42
1.0
 43
10.0
 44
1.0
 45
0.0
 46
0.0
 47
0.1
 48
0.1
140
3.5
141
0.0
142
0.0
143
0.0393701
144
1.0
145
0.0
146
0.71
147
1.5
 71
     0
 72
     0
 73
     0
 74
     1
 75
     0
 76
     0
 77
     1
 78
     8
170
     0
171
     2
172
     0
173
     0
174
     0
175
     0
176
   256
177
   256
178
     2
  0
DIMSTYLE
  2
AM_ISO$6
 70
     0
  3

  4
"
  5

  6

  7

 40
1.0
 41
2.5
 42
1.0
 43
10.0
 44
1.0
 45
0.0
 46
0.0
 47
0.1
 48
0.1
140
3.5
141
0.0
142
0.0
143
0.0393701
144
1.0
145
0.0
146
0.71
147
1.5
 71
     0
 72
     0
 73
     0
 74
     0
 75
     0
 76
     0
 77
     0
 78
     8
170
     0
171
     2
172
     1
173
     0
174
     0
175
     0
176
   256
177
   256
178
     2
  0
DIMSTYLE
  2
AM_ISO$7
 70
     0
  3

  4
"
  5

  6

  7

 40
1.0
 41
2.5
 42
1.0
 43
10.0
 44
1.0
 45
0.0
 46
0.0
 47
0.1
 48
0.1
140
5.0
141
0.0
142
0.0
143
0.0393701
144
1.0
145
0.0
146
0.71
147
1.5
 71
     0
 72
     0
 73
     0
 74
     0
 75
     0
 76
     0
 77
     1
 78
     8
170
     0
171
     2
172
     1
173
     0
174
     0
175
     0
176
   256
177
   256
178
     2
  0
DIMSTYLE
  2
AM_ISO$SF
 70
     0
  3

  4
"
  5

  6

  7

 40
1.0
 41
2.5
 42
1.0
 43
10.0
 44
1.0
 45
0.0
 46
0.0
 47
0.1
 48
0.1
140
3.5
141
0.0
142
0.0
143
0.0393701
144
1.0
145
0.0
146
0.71
147
1.5
 71
     0
 72
     0
 73
     0
 74
     0
 75
     1
 76
     1
 77
     1
 78
     8
170
     0
171
     2
172
     1
173
     0
174
     0
175
     0
176
   256
177
   256
178
     2
  0
DIMSTYLE
  2
AM_ISO$SH
 70
     0
  3

  4
"
  5

  6

  7

 40
1.0
 41
2.5
 42
1.0
 43
10.0
 44
1.0
 45
0.0
 46
0.0
 47
0.1
 48
0.1
140
3.5
141
0.0
142
0.0
143
0.0393701
144
2.0
145
0.0
146
0.71
147
1.5
 71
     0
 72
     0
 73
     0
 74
     0
 75
     1
 76
     1
 77
     1
 78
     8
170
     0
171
     2
172
     1
173
     1
174
     0
175
     0
176
   256
177
   256
178
     2
  0
DIMSTYLE
  2
AM_JIS
 70
     0
  3

  4
"
  5

  6

  7

 40
1.0
 41
2.0
 42
1.0
 43
8.0
 44
1.0
 45
0.0
 46
0.0
 47
0.1
 48
0.1
140
2.5
141
0.0
142
0.0
143
0.0393701
144
1.0
145
0.0
146
0.71
147
1.5
 71
     0
 72
     0
 73
     0
 74
     0
 75
     0
 76
     0
 77
     3
 78
     8
170
     0
171
     2
172
     1
173
     0
174
     0
175
     0
176
     2
177
     2
178
     4
  0
DIMSTYLE
  2
AM_JIS$3
 70
     0
  3

  4
"
  5

  6

  7

 40
1.0
 41
2.0
 42
1.0
 43
10.0
 44
1.0
 45
0.0
 46
0.0
 47
0.1
 48
0.1
140
2.5
141
0.0
142
0.0
143
0.0393701
144
1.0
145
0.0
146
0.71
147
1.5
 71
     0
 72
     0
 73
     0
 74
     1
 75
     0
 76
     0
 77
     3
 78
     8
170
     0
171
     2
172
     0
173
     0
174
     0
175
     0
176
     2
177
     2
178
     4
  0
DIMSTYLE
  2
AM_JIS$4
 70
     0
  3

  4
"
  5

  6

  7

 40
1.0
 41
2.0
 42
1.0
 43
10.0
 44
1.0
 45
0.0
 46
0.0
 47
0.1
 48
0.1
140
2.5
141
0.0
142
0.0
143
0.0393701
144
1.0
145
0.0
146
0.71
147
1.5
 71
     0
 72
     0
 73
     0
 74
     0
 75
     0
 76
     0
 77
     3
 78
     8
170
     0
171
     2
172
     0
173
     0
174
     0
175
     0
176
     2
177
     2
178
     4
  0
DIMSTYLE
  2
AM_JIS$6
 70
     0
  3

  4
"
  5

  6

  7

 40
1.0
 41
2.0
 42
1.0
 43
10.0
 44
1.0
 45
0.0
 46
0.0
 47
0.1
 48
0.1
140
2.5
141
0.0
142
0.0
143
0.0393701
144
1.0
145
0.0
146
0.71
147
1.5
 71
     0
 72
     0
 73
     0
 74
     0
 75
     0
 76
     0
 77
     0
 78
     8
170
     0
171
     2
172
     1
173
     0
174
     0
175
     0
176
     2
177
     2
178
     4
  0
DIMSTYLE
  2
AM_JIS$7
 70
     0
  3

  4
"
  5

  6

  7

 40
1.0
 41
2.0
 42
1.0
 43
10.0
 44
1.0
 45
0.0
 46
0.0
 47
0.1
 48
0.1
140
2.5
141
0.0
142
0.0
143
0.0393701
144
1.0
145
0.0
146
0.71
147
1.5
 71
     0
 72
     0
 73
     0
 74
     0
 75
     0
 76
     0
 77
     3
 78
     8
170
     0
171
     2
172
     1
173
     0
174
     0
175
     0
176
     2
177
     2
178
     4
  0
DIMSTYLE
  2
AM_JIS$SF
 70
     0
  3

  4
"
  5

  6

  7

 40
1.0
 41
2.0
 42
1.0
 43
10.0
 44
1.0
 45
0.0
 46
0.0
 47
0.1
 48
0.1
140
2.5
141
0.0
142
0.0
143
0.0393701
144
1.0
145
0.0
146
0.71
147
1.5
 71
     0
 72
     0
 73
     0
 74
     0
 75
     1
 76
     1
 77
     3
 78
     8
170
     0
171
     2
172
     1
173
     0
174
     0
175
     0
176
     2
177
     2
178
     4
  0
DIMSTYLE
  2
AM_JIS$SH
 70
     0
  3

  4
"
  5

  6

  7

 40
1.0
 41
2.0
 42
1.0
 43
10.0
 44
1.0
 45
0.0
 46
0.0
 47
0.1
 48
0.1
140
2.5
141
0.0
142
0.0
143
0.0393701
144
2.0
145
0.0
146
0.71
147
1.5
 71
     0
 72
     0
 73
     0
 74
     0
 75
     1
 76
     1
 77
     3
 78
     8
170
     0
171
     2
172
     1
173
     1
174
     0
175
     0
176
     2
177
     2
178
     4
  0
DIMSTYLE
  2
AM_JIS$0
 70
     0
  3

  4
"
  5

  6

  7

 40
1.0
 41
2.0
 42
1.0
 43
8.0
 44
1.0
 45
0.0
 46
0.0
 47
0.1
 48
0.1
140
2.5
141
0.0
142
0.0
143
0.0393701
144
1.0
145
0.0
146
0.71
147
1.5
 71
     0
 72
     0
 73
     0
 74
     0
 75
     0
 76
     0
 77
     3
 78
     8
170
     0
171
     2
172
     1
173
     0
174
     0
175
     0
176
     2
177
     2
178
     4
  0
ENDTAB
  0
ENDSEC
  0
SECTION
  2
BLOCKS
  0
BLOCK
  8
0
  2
$MODEL_SPACE
 70
     0
 10
0.0
 20
0.0
 30
0.0
  3
$MODEL_SPACE
  1

  0
ENDBLK
  5
CDD1
  8
0
  0
BLOCK
 67
     1
  8
0
  2
$PAPER_SPACE
 70
     0
 10
0.0
 20
0.0
 30
0.0
  3
$PAPER_SPACE
  1

  0
ENDBLK
  5
CDCD
 67
     1
  8
0
  0
BLOCK
  8
0
  2
GENAXEH
 70
     0
 10
0.0
 20
0.0
 30
0.0
  3
GENAXEH
  1

  0
LINE
  5
C98C
  8
0
 10
-1.0
 20
0.0
 30
0.0
 11
1.0
 21
0.0
 31
0.0
  0
ENDBLK
  5
C98D
  8
0
  0
BLOCK
  8
0
  2
_OPEN30
 70
     0
 10
0.0
 20
0.0
 30
0.0
  3
_OPEN30
  1

  0
LINE
  5
C9D3
  8
0
  6
BYBLOCK
 62
     0
 10
-1.0
 20
0.26794919
 30
0.0
 11
0.0
 21
0.0
 31
0.0
  0
LINE
  5
C9D4
  8
0
  6
BYBLOCK
 62
     0
 10
0.0
 20
0.0
 30
0.0
 11
-1.0
 21
-0.26794919
 31
0.0
  0
LINE
  5
C9D5
  8
0
  6
BYBLOCK
 62
     0
 10
0.0
 20
0.0
 30
0.0
 11
-1.0
 21
0.0
 31
0.0
  0
ENDBLK
  5
C9D6
  8
0
  0
BLOCK
  8
0
  2
*U4
 70
     1
 10
0.0
 20
0.0
 30
0.0
  3
*U4
  1

  0
TEXT
  5
CD5A
  8
0
 62
     0
 10
5.1211371559201639
 20
5.9826223594979648
 30
0.0
 40
15.0
  1
ＶＸ０８－００３ＥＭ～ＶＸ０８－０３０ＥＭ
 41
0.7400000000000003
  0
ENDBLK
  5
CD5C
  8
0
  0
BLOCK
  8
0
  2
*U5
 70
     1
 10
0.0
 20
0.0
 30
0.0
  3
*U5
  1

  0
TEXT
  5
CD5E
  8
0
 62
     0
 10
873.51047487844585
 20
906.5298370930642
 30
0.0
 40
15.0
  1
ＶＸ２２－０６０ＥＭ～ＶＸ２２－２００ＥＭ
 41
0.7400000000000003
  0
ENDBLK
  5
CD60
  8
0
  0
BLOCK
  8
0
  2
_ACMFILLEDHALF
 70
     0
 10
0.0
 20
0.0
 30
0.0
  3
_ACMFILLEDHALF
  1

  0
TRACE
  5
CF0B
  8
0
 62
     0
 10
-0.8
 20
0.0
 30
0.0
 11
-1.0
 21
0.166666666
 31
0.0
 12
0.0
 22
0.0
 32
0.0
 13
0.0
 23
0.0
 33
0.0
  0
LINE
  5
CF0C
  8
0
 62
     0
 10
-1.0
 20
0.0
 30
0.0
 11
-0.8
 21
0.0
 31
0.0
  0
ENDBLK
  5
CF0A
  8
0
  0
ENDSEC
  0
SECTION
  2
ENTITIES
  0
LINE
  5
924C
  8
0
 62
     0
 10
1027.7138137515651
 20
762.30182382777059
 30
0.0
 11
1032.191873751565
 21
761.41407382777072
 31
0.0
  0
LINE
  5
924D
  8
0
 62
     0
 10
1013.235753751565
 20
761.41407382777072
 30
0.0
 11
1017.713813751566
 21
762.30182382777059
 31
0.0
  0
LINE
  5
924E
  8
0
 62
     0
 10
1010.067788751564
 20
751.748123827771
 30
0.0
 11
1012.464303751565
 21
760.69197382777054
 31
0.0
  0
LINE
  5
924F
  8
0
 62
     0
 10
1035.3598387515619
 20
751.748123827771
 30
0.0
 11
1032.963323751567
 21
760.69202382777087
 31
0.0
  0
LINE
  5
9250
  8
0
 62
     0
 10
1027.713843751565
 20
798.29307382777074
 30
0.0
 11
1027.713843751565
 21
756.29307382777074
 31
0.0
  0
LINE
  5
9251
  8
0
 62
     0
 10
1017.713843751565
 20
798.29307382777074
 30
0.0
 11
1017.713843751565
 21
756.29307382777074
 31
0.0
  0
LINE
  5
9252
  8
0
 62
     0
 10
723.29715673788564
 20
661.79308882777104
 30
0.0
 11
723.29715673788564
 21
657.79308882777104
 31
0.0
  0
LINE
  5
9253
  8
0
 62
     0
 10
723.29715673788564
 20
661.79308882777104
 30
0.0
 11
785.2971567378886
 21
661.79308882777104
 31
0.0
  0
LINE
  5
9254
  8
0
 62
     0
 10
703.29715673788678
 20
602.79308882777104
 30
0.0
 11
785.2971567378886
 21
602.79308882777104
 31
0.0
  0
LINE
  5
9255
  8
0
 62
     0
 10
785.2971567378886
 20
661.79308882777104
 30
0.0
 11
785.2971567378886
 21
602.79308882777104
 31
0.0
  0
LINE
  5
9256
  8
0
 62
     0
 10
703.29715673788678
 20
660.29308882777104
 30
0.0
 11
703.29715673788678
 21
600.29308882777104
 31
0.0
  0
LINE
  5
9257
  8
0
 62
     0
 10
703.29715673788678
 20
657.79308882777104
 30
0.0
 11
785.2971567378886
 21
657.79308882777104
 31
0.0
  0
LINE
  5
9258
  8
0
 62
     0
 10
697.29715673788655
 20
660.29308882777104
 30
0.0
 11
703.29715673788678
 21
660.29308882777104
 31
0.0
  0
LINE
  5
9259
  8
0
 62
     0
 10
697.29715673788655
 20
600.29308882777104
 30
0.0
 11
703.29715673788678
 21
600.29308882777104
 31
0.0
  0
LINE
  5
925A
  8
0
 62
     0
 10
1014.713813751566
 20
651.79308882777104
 30
0.0
 11
1030.713813751566
 21
651.79308882777104
 31
0.0
  0
LINE
  5
925B
  8
0
 62
     0
 10
1014.713813751566
 20
661.79308882777104
 30
0.0
 11
1030.713813751566
 21
661.79308882777104
 31
0.0
  0
LINE
  5
925C
  8
0
 62
     0
 10
1014.713813751566
 20
651.79308882777104
 30
0.0
 11
1014.713813751566
 21
661.79308882777104
 31
0.0
  0
LINE
  5
925D
  8
0
 62
     0
 10
1030.713813751566
 20
651.79308882777104
 30
0.0
 11
1030.713813751566
 21
661.79308882777104
 31
0.0
  0
LINE
  5
925E
  8
0
 62
     0
 10
889.71381375156784
 20
638.75947137447645
 30
0.0
 11
889.71381375156784
 21
624.91877137447682
 31
0.0
  0
LINE
  5
925F
  8
0
 62
     0
 10
922.71384375156606
 20
472.29305382777108
 30
0.0
 11
922.71384375156606
 21
615.29308882777104
 31
0.0
  0
LINE
  5
9260
  8
0
 62
     0
 10
555.29715673788951
 20
622.39907382777074
 30
0.0
 11
575.29715673788826
 21
622.39907382777074
 31
0.0
  0
LINE
  5
9261
  8
0
 62
     0
 10
694.22740673788712
 20
690.40027382777089
 30
0.0
 11
695.36700673788937
 21
690.36052382777098
 31
0.0
  0
LINE
  5
9262
  8
0
 62
     0
 10
674.42555673788718
 20
716.85667382777046
 30
0.0
 11
687.73290673788722
 21
715.69242382777111
 31
0.0
  0
LINE
  5
9263
  8
0
 62
     0
 10
857.713823751566
 20
460.29308382777077
 30
0.0
 11
857.713823751566
 21
430.29308382777077
 31
0.0
  0
LINE
  5
9264
  8
0
 62
     0
 10
922.71384375156606
 20
460.29308382777077
 30
0.0
 11
862.71382375156497
 21
460.29308382777077
 31
0.0
  0
LINE
  5
9265
  8
0
 62
     0
 10
927.71384375156515
 20
430.29308382777077
 30
0.0
 11
857.713823751566
 21
430.29308382777077
 31
0.0
  0
LINE
  5
9266
  8
0
 62
     0
 10
1022.713843751565
 20
437.29305382777102
 30
0.0
 11
932.71384375156504
 21
437.29305382777102
 31
0.0
  0
LINE
  5
9267
  8
0
 62
     0
 10
692.29715673788655
 20
710.71137382777101
 30
0.0
 11
692.29715673788655
 21
463.95333382777079
 31
0.0
  0
LINE
  5
9268
  8
0
 62
     0
 10
642.29715673788655
 20
460.29308382777077
 30
0.0
 11
692.29715673788655
 21
460.29308382777077
 31
0.0
  0
LINE
  5
9269
  8
0
 62
     0
 10
697.29715673788655
 20
455.29308382777077
 30
0.0
 11
697.29715673788655
 21
430.29308382777077
 31
0.0
  0
LINE
  5
926A
  8
0
 62
     0
 10
550.29715673788587
 20
752.29307382777074
 30
0.0
 11
570.47165673788766
 21
751.58857382777069
 31
0.0
  0
LINE
  5
926B
  8
0
 62
     0
 10
697.29715673788655
 20
688.36172382777056
 30
0.0
 11
697.29715673788655
 21
572.22448382777088
 31
0.0
  0
LINE
  5
926C
  8
0
 62
     0
 10
578.32545673788945
 20
747.31437382777074
 30
0.0
 11
655.64620673788556
 21
744.61422382777073
 31
0.0
  0
LINE
  5
926D
  8
0
 62
     0
 10
467.29715673788661
 20
430.29308382777077
 30
0.0
 11
697.29715673788655
 21
430.29308382777077
 31
0.0
  0
LINE
  5
926E
  8
0
 62
     0
 10
694.22735673788543
 20
570.185848827771
 30
0.0
 11
695.36690673788723
 21
570.22567382777072
 31
0.0
  0
LINE
  5
926F
  8
0
 62
     0
 10
467.29715673788661
 20
455.29308382777077
 30
0.0
 11
467.29715673788661
 21
430.29308382777077
 31
0.0
  0
LINE
  5
9270
  8
0
 62
     0
 10
472.2971567378865
 20
460.29308382777077
 30
0.0
 11
519.12655673788731
 21
460.29308382777077
 31
0.0
  0
LINE
  5
9271
  8
0
 62
     0
 10
575.29715673788826
 20
746.5916238277706
 30
0.0
 11
575.29715673788826
 21
622.39907382777074
 31
0.0
  0
LINE
  5
9272
  8
0
 62
     0
 10
555.29715673788951
 20
622.39907382777074
 30
0.0
 11
555.29715673788951
 21
532.5320688277709
 31
0.0
  0
LINE
  5
9273
  8
0
 62
     0
 10
665.29715673788678
 20
734.62027382777069
 30
0.0
 11
665.29715673788678
 21
486.60009382777082
 31
0.0
  0
LINE
  5
9274
  8
0
 62
     0
 10
905.71381375156614
 20
537.2569838277708
 30
0.0
 11
905.71381375156614
 21
681.22687382777065
 31
0.0
  0
LINE
  5
9275
  8
0
 62
     0
 10
647.29715673788655
 20
682.2507238277708
 30
0.0
 11
665.29715673788678
 21
682.2507238277708
 31
0.0
  0
LINE
  5
9276
  8
0
 62
     0
 10
632.29715673788678
 20
476.60009382777071
 30
0.0
 11
655.29715673788951
 21
476.60009382777071
 31
0.0
  0
LINE
  5
9277
  8
0
 62
     0
 10
632.29715673788678
 20
667.25072882777113
 30
0.0
 11
632.29715673788678
 21
470.29308382777072
 31
0.0
  0
LINE
  5
9278
  8
0
 62
     0
 10
927.71384375156515
 20
455.29308382777077
 30
0.0
 11
927.71384375156515
 21
430.29308382777077
 31
0.0
  0
LINE
  5
9279
  8
0
 62
     0
 10
857.713823751566
 20
460.29308382777077
 30
0.0
 11
895.91119875156494
 21
656.80138882777101
 31
0.0
  0
LINE
  5
927A
  8
0
 62
     0
 10
523.6492067378872
 20
463.16097382777082
 30
0.0
 11
554.34245673788837
 21
528.26784882777076
 31
0.0
  0
LINE
  5
927B
  8
0
 62
     0
 10
1022.713843751565
 20
446.29308382777077
 30
0.0
 11
963.70450375156508
 21
446.29308382777077
 31
0.0
  0
LINE
  5
927C
  8
0
 62
     0
 10
930.64273875156584
 20
443.22200882777082
 30
0.0
 11
938.83322875156477
 21
451.41249882777078
 31
0.0
  0
LINE
  5
927D
  8
0
 62
     0
 10
957.96872875156407
 20
448.10155382777077
 30
0.0
 11
951.64005375156478
 21
452.53295382777083
 31
0.0
  0
LINE
  5
927E
  8
0
 62
     0
 10
550.29715673788587
 20
752.29307382777074
 30
0.0
 11
550.29715673788587
 21
519.68700382777047
 31
0.0
  0
LINE
  5
927F
  8
0
 62
     0
 10
1155.7138337515651
 20
638.75948882777072
 30
0.0
 11
1155.7138337515651
 21
624.91878882777098
 31
0.0
  0
LINE
  5
9280
  8
0
 62
     0
 10
1122.713813751566
 20
472.29305382777108
 30
0.0
 11
1122.713813751566
 21
615.29308882777104
 31
0.0
  0
LINE
  5
9281
  8
0
 62
     0
 10
1187.7138187515659
 20
460.29308382777077
 30
0.0
 11
1187.7138187515659
 21
430.29308382777077
 31
0.0
  0
LINE
  5
9282
  8
0
 62
     0
 10
1122.713813751566
 20
460.29308382777077
 30
0.0
 11
1182.713818751565
 21
460.29308382777077
 31
0.0
  0
LINE
  5
9283
  8
0
 62
     0
 10
1117.713813751566
 20
430.29308382777077
 30
0.0
 11
1187.7138187515659
 21
430.29308382777077
 31
0.0
  0
LINE
  5
9284
  8
0
 62
     0
 10
1022.713843751565
 20
437.29305382777102
 30
0.0
 11
1112.713813751566
 21
437.29305382777102
 31
0.0
  0
LINE
  5
9285
  8
0
 62
     0
 10
1139.713813751566
 20
537.2569838277708
 30
0.0
 11
1139.713813751566
 21
681.22687382777065
 31
0.0
  0
LINE
  5
9286
  8
0
 62
     0
 10
1117.713813751566
 20
455.29308382777077
 30
0.0
 11
1117.713813751566
 21
430.29308382777077
 31
0.0
  0
LINE
  5
9287
  8
0
 62
     0
 10
1187.7138187515659
 20
460.29308382777077
 30
0.0
 11
1149.5164737515661
 21
656.80138882777101
 31
0.0
  0
LINE
  5
9288
  8
0
 62
     0
 10
1022.713843751565
 20
446.29308382777077
 30
0.0
 11
1081.723153751565
 21
446.29308382777077
 31
0.0
  0
LINE
  5
9289
  8
0
 62
     0
 10
1114.7848887515649
 20
443.22200882777082
 30
0.0
 11
1106.594398751565
 21
451.41249882777078
 31
0.0
  0
LINE
  5
928A
  8
0
 62
     0
 10
1087.4589037515641
 20
448.1015888277708
 30
0.0
 11
1093.7875737515651
 21
452.53295382777083
 31
0.0
  0
LINE
  5
928B
  8
0
 62
     0
 10
516.31495673788731
 20
721.91707382777054
 30
0.0
 11
502.26165673788478
 21
702.94502382777046
 31
0.0
  0
LINE
  5
928C
  8
0
 62
     0
 10
481.7971567378894
 20
670.29308382777072
 30
0.0
 11
495.47160673788721
 21
670.77061882777082
 31
0.0
  0
LINE
  5
928D
  8
0
 62
     0
 10
519.29715673788678
 20
752.29307382777074
 30
0.0
 11
550.29715673788587
 21
752.29307382777074
 31
0.0
  0
LINE
  5
928E
  8
0
 62
     0
 10
517.29715673788655
 20
750.29312382777073
 30
0.0
 11
517.29715673788655
 21
724.89322382777073
 31
0.0
  0
LINE
  5
928F
  8
0
 62
     0
 10
522.22735673788554
 20
751.31282382777056
 30
0.0
 11
550.29715673788587
 21
752.29307382777074
 31
0.0
  0
LINE
  5
9291
  8
0
 62
     0
 10
520.29715673788917
 20
749.31412382777069
 30
0.0
 11
520.29715673788917
 21
460.43206382777078
 31
0.0
  0
LINE
  5
9292
  8
0
 62
     0
 10
500.29715673788672
 20
696.9927738277712
 30
0.0
 11
500.29715673788672
 21
486.0805288277711
 31
0.0
  0
LINE
  5
9293
  8
0
 62
     0
 10
500.29715673788672
 20
486.0805288277711
 30
0.0
 11
500.29715673788672
 21
476.22078882777072
 31
0.0
  0
LINE
  5
9294
  8
0
 62
     0
 10
481.7971567378857
 20
500.29308382777077
 30
0.0
 11
495.4717067378873
 21
499.81557882777082
 31
0.0
  0
LINE
  5
9295
  8
0
 62
     0
 10
511.80465673788729
 20
460.29311382777092
 30
0.0
 11
503.11495673788551
 21
469.26265882777102
 31
0.0
  0
LINE
  5
9296
  8
0
 62
     0
 10
519.31495673788731
 20
725.96707382777072
 30
0.0
 11
516.31495673788731
 21
721.91707382777054
 31
0.0
  0
LINE
  5
9297
  8
0
 62
     0
 10
522.50310673788715
 20
761.29307382777074
 30
0.0
 11
542.09115673788915
 21
761.29307382777074
 31
0.0
  0
LINE
  5
9298
  8
0
 62
     0
 10
519.79715673788564
 20
752.29307382777074
 30
0.0
 11
522.04765673788677
 21
760.69197382777054
 31
0.0
  0
LINE
  5
9299
  8
0
 62
     0
 10
544.79720673788734
 20
752.29307382777074
 30
0.0
 11
542.54670673788723
 21
760.69202382777087
 31
0.0
  0
LINE
  5
929A
  8
0
 62
     0
 10
522.81910673788707
 20
761.41407382777072
 30
0.0
 11
532.29715673788678
 21
763.29312382777073
 31
0.0
  0
LINE
  5
929B
  8
0
 62
     0
 10
532.29715673788678
 20
763.29307382777085
 30
0.0
 11
541.77525673788693
 21
761.41407382777072
 31
0.0
  0
ARC
  5
92A1
  8
0
 62
     0
 10
1015.713813751565
 20
756.29307382777074
 30
0.0
 40
2.0000000500000001
 50
270.0
 51
0.0
  0
ARC
  5
92A2
  8
0
 62
     0
 10
1029.7138137515651
 20
756.29307382777074
 30
0.0
 40
2.0000000500000001
 50
179.999989999999
 51
270.0
  0
ARC
  5
92A3
  8
0
 62
     0
 10
1031.9973837515661
 20
760.43317382777104
 30
0.0
 40
1.0
 50
14.99999999999442
 51
78.786710000006536
  0
ARC
  5
92A4
  8
0
 62
     0
 10
1013.430243751566
 20
760.43317382777104
 30
0.0
 40
1.0
 50
101.21328999999341
 51
164.99998999998439
  0
ARC
  5
92A5
  8
0
 62
     0
 10
1022.713843751565
 20
798.29307382777074
 30
0.0
 40
5.0
 50
359.999989999999
 51
179.999989999999
  0
ARC
  5
92A6
  8
0
 62
     0
 10
1022.713843751565
 20
630.29308882777104
 30
0.0
 40
27.500000499999999
 50
106.9123900000299
 51
73.087597000014085
  0
ARC
  5
92A7
  8
0
 62
     0
 10
694.29715673788564
 20
568.18712882777072
 30
0.0
 40
2.0000000500000001
 50
91.999997999994051
 51
180.00001000000091
  0
ARC
  5
92A8
  8
0
 62
     0
 10
692.29715673788655
 20
455.29308382777077
 30
0.0
 40
5.0
 50
0.0
 51
90.000002999984659
  0
ARC
  5
92A9
  8
0
 62
     0
 10
519.12655673788731
 20
465.29308382777077
 30
0.0
 40
5.0
 50
270.0
 51
334.75947000000423
  0
ARC
  5
92AA
  8
0
 62
     0
 10
694.29715673788564
 20
692.39907382777085
 30
0.0
 40
2.0000000500000001
 50
179.999989999999
 51
268.00000999999207
  0
ARC
  5
92AB
  8
0
 62
     0
 10
655.29715673788951
 20
734.62027382777069
 30
0.0
 40
10.0
 50
0.0
 51
87.999999999996334
  0
ARC
  5
92AC
  8
0
 62
     0
 10
1022.713843751565
 20
615.29308882777104
 30
0.0
 40
100.0
 50
90.000002999984659
 51
180.00001000000091
  0
ARC
  5
92AD
  8
0
 62
     0
 10
687.29715673788678
 20
710.71137382777101
 30
0.0
 40
5.0
 50
0.0
 51
84.999996999985655
  0
ARC
  5
92AE
  8
0
 62
     0
 10
695.29715673788951
 20
688.36172382777056
 30
0.0
 40
2.0000000500000001
 50
0.0
 51
87.999999999996334
  0
ARC
  5
92AF
  8
0
 62
     0
 10
862.71382375156497
 20
455.29308382777077
 30
0.0
 40
5.0
 50
90.000002999984659
 51
180.00001000000091
  0
ARC
  5
92B0
  8
0
 62
     0
 10
1022.713843751565
 20
605.29308882777104
 30
0.0
 40
147.0
 50
90.000002999984659
 51
134.59796000000421
  0
ARC
  5
92B1
  8
0
 62
     0
 10
1022.713843751565
 20
605.29308882777104
 30
0.0
 40
142.0
 50
90.000002999984659
 51
136.44564000002171
  0
ARC
  5
92B2
  8
0
 62
     0
 10
1022.713843751565
 20
630.29308882777104
 30
0.0
 40
60.0
 50
90.000002999984659
 51
270.0
  0
ARC
  5
92B3
  8
0
 62
     0
 10
642.29715673788655
 20
470.29308382777072
 30
0.0
 40
10.0
 50
179.999989999999
 51
270.0
  0
ARC
  5
92B4
  8
0
 62
     0
 10
695.29715673788951
 20
572.22448382777088
 30
0.0
 40
2.0000000500000001
 50
272.00000000000369
 51
0.0
  0
ARC
  5
92B5
  8
0
 62
     0
 10
578.49995673788953
 20
752.31132382777105
 30
0.0
 40
5.0
 50
214.8873400000316
 51
267.99999999999642
  0
ARC
  5
92B6
  8
0
 62
     0
 10
570.29715673788917
 20
746.5916238277706
 30
0.0
 40
5.0
 50
34.887350000004567
 51
87.999999999996334
  0
ARC
  5
92B7
  8
0
 62
     0
 10
647.29715673788655
 20
667.25072882777113
 30
0.0
 40
15.0
 50
90.000002999984659
 51
180.00001000000091
  0
ARC
  5
92B8
  8
0
 62
     0
 10
1022.713843751565
 20
537.29305382777102
 30
0.0
 40
117.0
 50
179.999989999999
 51
211.27329999998091
  0
ARC
  5
92B9
  8
0
 62
     0
 10
910.71381375156511
 20
472.29305382777108
 30
0.0
 40
12.0
 50
270.0
 51
0.0
  0
ARC
  5
92BA
  8
0
 62
     0
 10
655.29715673788951
 20
486.60009382777082
 30
0.0
 40
10.0
 50
270.0
 51
0.0
  0
ARC
  5
92BB
  8
0
 62
     0
 10
987.2025237515652
 20
639.05617882777074
 30
0.0
 40
93.0
 50
136.44564000002171
 51
168.99999999998741
  0
ARC
  5
92BC
  8
0
 62
     0
 10
675.29715673788587
 20
726.81857382777071
 30
0.0
 40
10.0
 50
179.999989999999
 51
265.00000000002638
  0
ARC
  5
92BD
  8
0
 62
     0
 10
932.71384375156504
 20
432.2930538277709
 30
0.0
 40
5.0
 50
90.000002999984659
 51
180.00001000000091
  0
ARC
  5
92BE
  8
0
 62
     0
 10
922.71384375156606
 20
455.29308382777077
 30
0.0
 40
5.0
 50
0.0
 51
90.000002999984659
  0
ARC
  5
92BF
  8
0
 62
     0
 10
545.29715673788678
 20
532.5320688277709
 30
0.0
 40
10.0
 50
334.75947000000423
 51
0.0
  0
ARC
  5
92C0
  8
0
 62
     0
 10
915.71381375156511
 20
681.22687382777065
 30
0.0
 40
10.0
 50
149.4639200000228
 51
180.00001000000091
  0
ARC
  5
92C1
  8
0
 62
     0
 10
472.2971567378865
 20
455.29308382777077
 30
0.0
 40
5.0
 50
90.000002999984659
 51
180.00001000000091
  0
ARC
  5
92C2
  8
0
 62
     0
 10
697.29715673788655
 20
463.95333382777079
 30
0.0
 40
5.0
 50
179.999989999999
 51
240.00000999999011
  0
ARC
  5
92C3
  8
0
 62
     0
 10
989.71381375156614
 20
638.75948882777072
 30
0.0
 40
100.0
 50
134.59796000000421
 51
180.00001000000091
  0
ARC
  5
92C4
  8
0
 62
     0
 10
963.70450375156508
 20
456.29308382777077
 30
0.0
 40
10.0
 50
235.00000000002271
 51
270.0
  0
ARC
  5
92C5
  8
0
 62
     0
 10
937.71384375156492
 20
436.15093382777081
 30
0.0
 40
10.0
 50
135.00000000000941
 51
180.00001000000091
  0
ARC
  5
92C6
  8
0
 62
     0
 10
945.90430375156484
 20
444.34139382777079
 30
0.0
 40
10.0
 50
54.999998999997892
 51
135.00000000000941
  0
ARC
  5
92C7
  8
0
 62
     0
 10
1022.713843751565
 20
615.29308882777104
 30
0.0
 40
100.0
 50
0.0
 51
90.000002999984659
  0
ARC
  5
92C8
  8
0
 62
     0
 10
1182.713818751565
 20
455.29308382777077
 30
0.0
 40
5.0
 50
0.0
 51
90.000002999984659
  0
ARC
  5
92C9
  8
0
 62
     0
 10
1022.713843751565
 20
605.29308882777104
 30
0.0
 40
147.0
 50
45.402042999998812
 51
90.000002999984659
  0
ARC
  5
92CA
  8
0
 62
     0
 10
1022.713843751565
 20
605.29308882777104
 30
0.0
 40
142.0
 50
43.554363999986009
 51
90.000002999984659
  0
ARC
  5
92CB
  8
0
 62
     0
 10
1022.713843751565
 20
630.29308882777104
 30
0.0
 40
60.0
 50
270.0
 51
90.000002999984659
  0
ARC
  5
92CC
  8
0
 62
     0
 10
1022.713843751565
 20
537.29305382777102
 30
0.0
 40
117.0
 50
328.72670000001858
 51
0.0
  0
ARC
  5
92CD
  8
0
 62
     0
 10
1134.713813751566
 20
472.29305382777108
 30
0.0
 40
12.0
 50
180.00001000000091
 51
270.0
  0
ARC
  5
92CE
  8
0
 62
     0
 10
1058.2251037515639
 20
639.05617882777074
 30
0.0
 40
93.0
 50
11.0000000000125
 51
43.554363999986009
  0
ARC
  5
92CF
  8
0
 62
     0
 10
1112.713813751566
 20
432.2930538277709
 30
0.0
 40
5.0
 50
0.0
 51
90.000002999984659
  0
ARC
  5
92D0
  8
0
 62
     0
 10
1122.713813751566
 20
455.29308382777077
 30
0.0
 40
5.0
 50
90.000002999984659
 51
180.00001000000091
  0
ARC
  5
92D1
  8
0
 62
     0
 10
1129.7138137515651
 20
681.22687382777065
 30
0.0
 40
10.0
 50
0.0
 51
30.536084999990109
  0
ARC
  5
92D2
  8
0
 62
     0
 10
1055.713813751566
 20
638.75948882777072
 30
0.0
 40
100.0
 50
0.0
 51
45.402042999998812
  0
ARC
  5
92D3
  8
0
 62
     0
 10
1081.723153751565
 20
456.29308382777077
 30
0.0
 40
10.0
 50
270.0
 51
304.99999999997732
  0
ARC
  5
92D4
  8
0
 62
     0
 10
1107.7138137515651
 20
436.15093382777081
 30
0.0
 40
10.0
 50
0.0
 51
45.000001000028881
  0
ARC
  5
92D5
  8
0
 62
     0
 10
1099.523323751564
 20
444.34139382777079
 30
0.0
 40
10.0
 50
45.000001000028881
 51
124.99999999997731
  0
CIRCLE
  5
92D6
  8
0
 62
     0
 10
1022.713843751565
 20
630.29308882777104
 30
0.0
 40
6.0
  0
CIRCLE
  5
92D7
  8
0
 62
     0
 10
1022.713843751565
 20
630.29308882777104
 30
0.0
 40
4.500000049999997
  0
ARC
  5
92D8
  8
0
 62
     0
 10
515.29715673788564
 20
728.94322382777045
 30
0.0
 40
5.0
 50
323.47113999998629
 51
0.0
  0
ARC
  5
92D9
  8
0
 62
     0
 10
522.29715673788655
 20
749.31412382777069
 30
0.0
 40
2.0000000500000001
 50
91.999997999994051
 51
180.00001000000091
  0
ARC
  5
92DA
  8
0
 62
     0
 10
519.29715673788678
 20
750.29312382777073
 30
0.0
 40
2.0000000500000001
 50
90.000002999984659
 51
180.00001000000091
  0
ARC
  5
92DB
  8
0
 62
     0
 10
510.2971567378865
 20
476.22078882777072
 30
0.0
 40
10.0
 50
179.999989999999
 51
224.0922199999896
  0
ARC
  5
92DC
  8
0
 62
     0
 10
512.29715673788587
 20
724.89322382777073
 30
0.0
 40
5.0
 50
323.47113999998629
 51
0.0
  0
ARC
  5
92DD
  8
0
 62
     0
 10
510.2971567378865
 20
696.9927738277712
 30
0.0
 40
10.0
 50
143.47113999998609
 51
180.00001000000091
  0
ARC
  5
92DE
  8
0
 62
     0
 10
495.29715673788837
 20
494.81859882777093
 30
0.0
 40
5.0
 50
0.0
 51
87.999999999996334
  0
CIRCLE
  5
92DF
  8
0
 62
     0
 10
532.29715673788678
 20
778.29307382777074
 30
0.0
 40
15.0
  0
ARC
  5
92E0
  8
0
 62
     0
 10
532.29715673788678
 20
778.29307382777074
 30
0.0
 40
25.000000499999999
 50
306.46671999997483
 51
233.5332899999614
  0
ARC
  5
92E1
  8
0
 62
     0
 10
523.01360673788565
 20
760.43317382777104
 30
0.0
 40
1.0
 50
101.21328999999341
 51
164.99998999998439
  0
ARC
  5
92E2
  8
0
 62
     0
 10
541.580806737888
 20
760.43317382777104
 30
0.0
 40
1.0
 50
14.99999999999442
 51
78.786710000006536
  0
ARC
  5
92E3
  8
0
 62
     0
 10
513.87210673788684
 20
753.36277382777075
 30
0.0
 40
6.0
 50
349.72995000001248
 51
53.533291000030069
  0
ARC
  5
92E4
  8
0
 62
     0
 10
550.72215673788764
 20
753.36277382777075
 30
0.0
 40
6.0
 50
126.4666999999944
 51
190.2700599999921
  0
ARC
  5
92E5
  8
0
 62
     0
 10
495.29715673788837
 20
675.76756882777113
 30
0.0
 40
5.0
 50
272.00000000000369
 51
0.0
  0
LINE
  5
92EC
  8
0
  6
AM_ISO02W050
 62
     0
 10
880.71382375156509
 20
460.29308382777077
 30
0.0
 11
880.71382375156509
 21
430.29308382777077
 31
0.0
  0
LINE
  5
92ED
  8
0
  6
AM_ISO02W050
 62
     0
 10
899.71381375156511
 20
460.29308382777077
 30
0.0
 11
899.71381375156511
 21
430.29308382777077
 31
0.0
  0
LINE
  5
92EE
  8
0
  6
AM_ISO08W050
 62
     0
 10
890.21382375156497
 20
464.95433882777093
 30
0.0
 11
890.21382375156497
 21
427.29308382777077
 31
0.0
  0
LINE
  5
92EF
  8
0
  6
AM_ISO08W050
 62
     0
 10
1022.713843751565
 20
424.29306882777081
 30
0.0
 11
1022.713843751565
 21
807.42076334846342
 31
0.0
  0
LINE
  5
92F0
  8
0
  6
AM_ISO08W050
 62
     0
 10
1132.4042240438159
 20
630.29308882777104
 30
0.0
 11
913.02346345931585
 21
630.29308882777104
 31
0.0
  0
LINE
  5
92F1
  8
0
  6
AM_ISO02W050
 62
     0
 10
1164.713813751566
 20
460.29308382777077
 30
0.0
 11
1164.713813751566
 21
430.29308382777077
 31
0.0
  0
LINE
  5
92F2
  8
0
  6
AM_ISO02W050
 62
     0
 10
1145.7138287515641
 20
460.29308382777077
 30
0.0
 11
1145.7138287515641
 21
430.29308382777077
 31
0.0
  0
LINE
  5
92F3
  8
0
  6
AM_ISO08W050
 62
     0
 10
1155.213813751566
 20
464.95433882777093
 30
0.0
 11
1155.213813751566
 21
427.29308382777077
 31
0.0
  0
LINE
  5
92FB
  8
0
  6
AM_ISO08W050
 62
     0
 10
537.28729328108182
 20
630.29308882777104
 30
0.0
 11
790.72600673788702
 21
630.29308882777104
 31
0.0
  0
LINE
  5
92FC
  8
0
  6
AM_ISO08W050
 62
     0
 10
667.29715673788655
 20
464.20095382777077
 30
0.0
 11
667.29715673788655
 21
427.29308382777077
 31
0.0
  0
LINE
  5
92FD
  8
0
  6
AM_ISO08W050
 62
     0
 10
497.29715673788559
 20
465.033244014395
 30
0.0
 11
497.29715673788559
 21
427.29308382777077
 31
0.0
  0
LINE
  5
92FE
  8
0
  6
AM_ISO02W050
 62
     0
 10
676.79715673788564
 20
460.29308382777077
 30
0.0
 11
676.79715673788564
 21
430.29308382777077
 31
0.0
  0
LINE
  5
92FF
  8
0
  6
AM_ISO02W050
 62
     0
 10
657.79715673788678
 20
460.29308382777077
 30
0.0
 11
657.79715673788678
 21
430.29308382777077
 31
0.0
  0
LINE
  5
9300
  8
0
  6
AM_ISO02W050
 62
     0
 10
487.79715673788593
 20
460.29308382777077
 30
0.0
 11
487.79715673788593
 21
430.29308382777077
 31
0.0
  0
LINE
  5
9301
  8
0
  6
AM_ISO02W050
 62
     0
 10
506.7971567378857
 20
460.29308382777077
 30
0.0
 11
506.7971567378857
 21
430.29308382777077
 31
0.0
  0
LINE
  5
AB4E
  8
0
 62
     0
 10
874.2895177515652
 20
557.54847482777075
 30
0.0
 11
872.41013175156525
 21
558.23251582777095
 31
0.0
  0
ARC
  5
AB4F
  8
0
 62
     0
 10
861.71615875156465
 20
528.85107582777084
 30
0.0
 40
2.0
 50
339.99999899999881
 51
0.0
  0
ARC
  5
AB50
  8
0
 62
     0
 10
872.71615875156499
 20
629.9180558277709
 30
0.0
 40
9.0
 50
90.0
 51
180.0
  0
LINE
  5
AB51
  8
0
 62
     0
 10
863.71615875156465
 20
629.9180558277709
 30
0.0
 11
863.71615875156465
 21
528.85107582777084
 31
0.0
  0
ARC
  5
AB54
  8
0
 62
     0
 10
866.77473275156524
 20
522.28276982777084
 30
0.0
 40
5.0
 50
159.9999950000032
 51
250.0000049999982
  0
LINE
  5
AB56
  8
0
 62
     0
 10
868.59999580227895
 20
516.29754009274075
 30
0.0
 11
865.06463175156489
 21
517.58430682777089
 31
0.0
  0
LINE
  5
AB60
  8
0
 62
     0
 10
889.71393946911326
 20
638.9180558277709
 30
0.0
 11
872.71615875156499
 21
638.9180558277709
 31
0.0
  0
LINE
  5
AB61
  8
0
 62
     0
 10
881.72713799884104
 20
583.83077928889747
 30
0.0
 11
872.41013175156525
 21
558.23251582777095
 31
0.0
  0
LINE
  5
AB63
  8
0
 62
     0
 10
878.61563375156516
 20
569.43439182777081
 30
0.0
 11
878.90807193384785
 21
569.32795300529369
 31
0.0
  0
LINE
  5
AB66
  8
0
 62
     0
 10
878.61563375156516
 20
569.43439182777081
 30
0.0
 11
862.07627175156495
 21
523.99286882777085
 31
0.0
  0
LINE
  5
AEBD
  8
0
 62
     0
 10
481.7971567378894
 20
500.29308382777077
 30
0.0
 11
481.7971567378894
 21
670.29308382777072
 31
0.0
  0
LINE
  5
BDD2
  8
0
 62
     0
 10
417.94548973788937
 20
634.47808382777112
 30
0.0
 11
476.79715673788951
 21
634.47808382777112
 31
0.0
  0
LINE
  5
BDD3
  8
0
 62
     0
 10
417.71473273788939
 20
634.96808382777112
 30
0.0
 11
475.0371567378894
 21
634.96808382777112
 31
0.0
  0
LINE
  5
BDD4
  8
0
 62
     0
 10
416.54333073788939
 20
636.56808382777115
 30
0.0
 11
475.0371567378894
 21
636.56808382777115
 31
0.0
  0
LINE
  5
BDD5
  8
0
 62
     0
 10
415.93554073788943
 20
637.10808382777122
 30
0.0
 11
476.79715673788951
 21
637.10808382777122
 31
0.0
  0
LINE
  5
BDD6
  8
0
 62
     0
 10
339.09198673788939
 20
633.44309682777111
 30
0.0
 11
410.50232673788958
 21
633.44309682777111
 31
0.0
  0
LINE
  5
BDD7
  8
0
 62
     0
 10
337.73018573788949
 20
638.51350082777105
 30
0.0
 11
411.85319173788918
 21
638.51350082777105
 31
0.0
  0
ARC
  5
BDD8
  8
0
 62
     0
 10
929.29712673788924
 20
585.07485582777122
 30
0.0
 40
595.5
 50
175.6560359999994
 51
183.9378049999973
  0
ARC
  5
BDD9
  8
0
 62
     0
 10
337.73018573788949
 20
631.91350982777112
 30
0.0
 40
6.599999999999997
 50
90.0
 51
171.4098509999948
  0
ARC
  5
BDDA
  8
0
 62
     0
 10
339.09198673788939
 20
629.84309082777122
 30
0.0
 40
3.6000000000000001
 50
90.0
 51
174.62414600000011
  0
ARC
  5
BDDB
  8
0
 62
     0
 10
-179.70284326211049
 20
585.07491782777117
 30
0.0
 40
595.5
 50
356.06220199999939
 51
4.3439640000005717
  0
ARC
  5
BDDC
  8
0
 62
     0
 10
411.86412773788948
 20
631.91350982777112
 30
0.0
 40
6.599999999999997
 50
8.5901410000046692
 51
90.0
  0
ARC
  5
BDDD
  8
0
 62
     0
 10
410.50232673788958
 20
629.84309082777122
 30
0.0
 40
3.6000000000000001
 50
5.3758619999981763
 51
90.0
  0
ARC
  5
BDDE
  8
0
 62
     0
 10
-180.3028192621104
 20
585.07491782777117
 30
0.0
 40
600.59997599999986
 50
355.4679790000045
 51
4.5671770000030012
  0
ARC
  5
BDDF
  8
0
 62
     0
 10
929.89710173788956
 20
585.07485582777122
 30
0.0
 40
600.59997599999986
 50
175.4328159999985
 51
184.5320279999994
  0
ARC
  5
BDE0
  8
0
 62
     0
 10
374.79715673788951
 20
531.11108182777105
 30
0.0
 40
16.337935000000002
 50
47.767946999997292
 51
132.23205300000271
  0
LINE
  5
BDE1
  8
0
 62
     0
 10
341.02008773788941
 20
542.68902282777105
 30
0.0
 11
362.47158973788947
 21
542.68901482777119
 31
0.0
  0
LINE
  5
BDE2
  8
0
 62
     0
 10
337.7459637378895
 20
531.63627282777088
 30
0.0
 11
411.84834973788918
 21
531.63627282777088
 31
0.0
  0
LINE
  5
BDE3
  8
0
 62
     0
 10
337.54636373788958
 20
534.0541498277712
 30
0.0
 11
412.04794973788938
 21
534.0541498277712
 31
0.0
  0
LINE
  5
BDE4
  8
0
 62
     0
 10
339.78273673788948
 20
540.0109148277711
 30
0.0
 11
363.2187357378894
 21
540.01090682777112
 31
0.0
  0
ARC
  5
BDE5
  8
0
 62
     0
 10
374.8631207378894
 20
529.62509582777125
 30
0.0
 40
15.0
 50
46.767242000003023
 51
133.23275799999701
  0
ARC
  5
BDE6
  8
0
 62
     0
 10
337.7459637378895
 20
538.23627182777113
 30
0.0
 40
6.599999999999997
 50
185.3761899999954
 51
270.0
  0
ARC
  5
BDE7
  8
0
 62
     0
 10
337.54636373788958
 20
540.65414882777122
 30
0.0
 40
6.599999999999997
 50
188.04118300000439
 51
270.0
  0
ARC
  5
BDE8
  8
0
 62
     0
 10
339.78273673788948
 20
544.61092082777122
 30
0.0
 40
4.5999999999999961
 50
185.37625099999781
 51
270.0
  0
LINE
  5
BDE9
  8
0
 62
     0
 10
408.57422573788932
 20
542.68902282777105
 30
0.0
 11
387.12272373788949
 21
542.68901482777119
 31
0.0
  0
LINE
  5
BDEA
  8
0
 62
     0
 10
409.81157673788942
 20
540.0109148277711
 30
0.0
 11
386.50750573788957
 21
540.01090682777112
 31
0.0
  0
ARC
  5
BDEB
  8
0
 62
     0
 10
411.84834973788918
 20
538.23627182777113
 30
0.0
 40
6.599999999999997
 50
270.0
 51
354.62381000000403
  0
ARC
  5
BDEC
  8
0
 62
     0
 10
412.04794973788938
 20
540.65414882777122
 30
0.0
 40
6.599999999999997
 50
270.0
 51
351.95883200000321
  0
ARC
  5
BDED
  8
0
 62
     0
 10
409.81157673788942
 20
544.61092082777122
 30
0.0
 40
4.5999999999999961
 50
270.0
 51
354.62374900000219
  0
ARC
  5
BDEE
  8
0
 62
     0
 10
363.2187367378894
 20
542.01090682777112
 30
0.0
 40
2.0
 50
270.0
 51
313.23275799999692
  0
ARC
  5
BDEF
  8
0
 62
     0
 10
362.47159073788953
 20
544.68901482777108
 30
0.0
 40
2.0
 50
270.0
 51
312.23205300000279
  0
ARC
  5
BDF0
  8
0
 62
     0
 10
387.12272273788949
 20
544.68901482777108
 30
0.0
 40
2.0
 50
227.76794699999729
 51
270.0
  0
ARC
  5
BDF1
  8
0
 62
     0
 10
386.50750473788958
 20
542.01090682777112
 30
0.0
 40
2.0
 50
226.76724200000291
 51
270.0
  0
ARC
  5
BDF2
  8
0
 62
     0
 10
203.29715673788951
 20
486.09308382777118
 30
0.0
 40
2.0
 50
180.0
 51
270.0
  0
LINE
  5
BDF4
  8
0
 62
     0
 10
274.29715673788951
 20
686.09308382777101
 30
0.0
 11
274.29715673788951
 21
484.09308382777118
 31
0.0
  0
ARC
  5
BDF5
  8
0
 62
     0
 10
203.69715673788949
 20
671.06989882777111
 30
0.0
 40
2.399999999999999
 50
159.99999999999631
 51
180.0
  0
ARC
  5
BDF6
  8
0
 62
     0
 10
208.2916207378895
 20
683.69308382777115
 30
0.0
 40
2.399999999999999
 50
90.0
 51
159.99999999999631
  0
LINE
  5
BDF7
  8
0
 62
     0
 10
206.03635773788949
 20
684.5139318277711
 30
0.0
 11
201.4418947378895
 21
671.89074782777118
 31
0.0
  0
LINE
  5
BDF8
  8
0
 62
     0
 10
206.61112173788959
 20
685.40653782777122
 30
0.0
 11
206.61112173788959
 21
484.09308382777118
 31
0.0
  0
LINE
  5
BDF9
  8
0
 62
     0
 10
201.29715673788951
 20
671.06989882777111
 30
0.0
 11
201.29715673788951
 21
486.09308382777118
 31
0.0
  0
LINE
  5
BDFA
  8
0
 62
     0
 10
274.29715673788951
 20
686.09308382777101
 30
0.0
 11
208.2916207378895
 21
686.09308382777101
 31
0.0
  0
LINE
  5
BDFB
  8
0
 62
     0
 10
426.75403273788942
 20
634.47808382777112
 30
0.0
 11
426.75403273788942
 21
614.11308382777088
 31
0.0
  0
LINE
  5
BDFC
  8
0
 62
     0
 10
442.7971557378894
 20
634.47808382777112
 30
0.0
 11
442.7971557378894
 21
614.11308382777088
 31
0.0
  0
LINE
  5
BDFD
  8
0
 62
     0
 10
457.3465517378894
 20
529.27228782777127
 30
0.0
 11
442.7971557378894
 21
529.27228782777127
 31
0.0
  0
LINE
  5
BDFE
  8
0
 62
     0
 10
462.29715673788951
 20
540.68463782777121
 30
0.0
 11
442.7971557378894
 21
540.68463782777121
 31
0.0
  0
LINE
  5
BDFF
  8
0
 62
     0
 10
427.50255373788917
 20
533.98737782777118
 30
0.0
 11
442.79715673788951
 21
529.27228782777127
 31
0.0
  0
LINE
  5
BE00
  8
0
 62
     0
 10
442.79715673788951
 20
540.68463782777121
 30
0.0
 11
427.76121573788947
 21
540.14388682777121
 31
0.0
  0
ARC
  5
BE01
  8
0
 62
     0
 10
427.7971567378894
 20
539.14453282777106
 30
0.0
 40
1.0
 50
92.059690999997201
 51
180.0
  0
ARC
  5
BE02
  8
0
 62
     0
 10
427.7971567378894
 20
534.94299782777125
 30
0.0
 40
1.0
 50
180.0
 51
252.86627500000199
  0
LINE
  5
BE03
  8
0
 62
     0
 10
442.79715673788951
 20
661.14587082777109
 30
0.0
 11
427.49669773788958
 21
656.32600482777127
 31
0.0
  0
ARC
  5
BE04
  8
0
 62
     0
 10
427.7971567378894
 20
655.37220982777114
 30
0.0
 40
1.0
 50
107.4851789999999
 51
180.0
  0
ARC
  5
BE05
  8
0
 62
     0
 10
427.7971567378894
 20
653.0211448277712
 30
0.0
 40
1.0
 50
180.0
 51
270.0
  0
LINE
  5
BE06
  8
0
 62
     0
 10
427.84571173788942
 20
652.02232382777106
 30
0.0
 11
442.79715673788951
 21
652.74914382777126
 31
0.0
  0
LINE
  5
BE07
  8
0
 62
     0
 10
462.29715673788951
 20
652.74914382777126
 30
0.0
 11
442.79715673788951
 21
652.74914382777126
 31
0.0
  0
LINE
  5
BE08
  8
0
 62
     0
 10
385.79715673788951
 20
683.57957682777123
 30
0.0
 11
473.24434173788939
 21
683.57957682777123
 31
0.0
  0
ARC
  5
BE09
  8
0
 62
     0
 10
297.06140173788958
 20
681.57957682777123
 30
0.0
 40
2.0
 50
90.0
 51
156.10179999999841
  0
ARC
  5
BE0A
  8
0
 62
     0
 10
473.24434173788939
 20
681.57957682777123
 30
0.0
 40
2.0
 50
10.000001999998901
 51
90.0
  0
LINE
  5
BE0B
  8
0
 62
     0
 10
476.79715673788951
 20
672.94810082777121
 30
0.0
 11
475.21395673788942
 21
681.92687382777115
 31
0.0
  0
LINE
  5
BE0C
  8
0
 62
     0
 10
476.5363487378894
 20
672.94810082777121
 30
0.0
 11
476.79715673788951
 21
672.94810082777121
 31
0.0
  0
ARC
  5
BE0D
  8
0
 62
     0
 10
282.12837173788961
 20
680.38980282777106
 30
0.0
 40
2.0
 50
90.0
 51
169.99999800000111
  0
LINE
  5
BE0E
  8
0
 62
     0
 10
277.79715673788951
 20
667.34379982777125
 30
0.0
 11
280.15875673788952
 21
680.73709982777109
 31
0.0
  0
ARC
  5
BE0F
  8
0
 62
     0
 10
473.19332273788939
 20
680.38980282777106
 30
0.0
 40
2.0
 50
10.000001999998901
 51
90.0
  0
LINE
  5
BE10
  8
0
 62
     0
 10
476.79715673788951
 20
671.46898282777124
 30
0.0
 11
475.16293773788942
 21
680.73709982777109
 31
0.0
  0
LINE
  5
BE11
  8
0
 62
     0
 10
277.79715673788951
 20
667.34379982777125
 30
0.0
 11
278.3650627378895
 21
667.34379982777125
 31
0.0
  0
LINE
  5
BE12
  8
0
 62
     0
 10
476.26118573788921
 20
671.46898282777124
 30
0.0
 11
476.79715673788951
 21
671.46898282777124
 31
0.0
  0
ARC
  5
BE13
  8
0
 62
     0
 10
473.10746773788918
 20
677.83706882777108
 30
0.0
 40
2.0
 50
10.00000100000292
 51
90.0
  0
ARC
  5
BE14
  8
0
 62
     0
 10
282.24616273788951
 20
677.83706882777108
 30
0.0
 40
2.0
 50
90.0
 51
169.99999899999699
  0
LINE
  5
BE15
  8
0
 62
     0
 10
277.79715673788951
 20
664.1230438277712
 30
0.0
 11
280.27654673788959
 21
678.18436482777099
 31
0.0
  0
ARC
  5
BE16
  8
0
 62
     0
 10
282.42730373788947
 20
673.87188382777106
 30
0.0
 40
2.0
 50
90.0
 51
170.00000000000139
  0
LINE
  5
BE17
  8
0
 62
     0
 10
277.79715673788951
 20
659.13055882777121
 30
0.0
 11
280.4576877378895
 21
674.2191798277712
 31
0.0
  0
ARC
  5
BE18
  8
0
 62
     0
 10
282.70853173788947
 20
668.29445582777123
 30
0.0
 40
2.0
 50
90.0
 51
170.00000000000139
  0
LINE
  5
BE19
  8
0
 62
     0
 10
277.79715673788951
 20
651.95820682777128
 30
0.0
 11
280.73891573788939
 21
668.64175282777126
 31
0.0
  0
ARC
  5
BE1A
  8
0
 62
     0
 10
282.8037957378894
 20
662.2937888277711
 30
0.0
 40
2.0
 50
90.0
 51
169.99999899999699
  0
LINE
  5
BE1B
  8
0
 62
     0
 10
277.79715673788951
 20
645.41727082777106
 30
0.0
 11
280.8341797378896
 21
662.64108482777112
 31
0.0
  0
LINE
  5
BE1C
  8
0
 62
     0
 10
476.66889773788949
 20
669.15673282777107
 30
0.0
 11
475.07708273788921
 21
678.18436482777099
 31
0.0
  0
LINE
  5
BE1D
  8
0
 62
     0
 10
277.79715673788951
 20
664.1230438277712
 30
0.0
 11
278.67746673788952
 21
664.1230438277712
 31
0.0
  0
ARC
  5
BE1E
  8
0
 62
     0
 10
472.97808973788921
 20
673.87188382777106
 30
0.0
 40
2.0
 50
9.9999999999986073
 51
90.0
  0
LINE
  5
BE1F
  8
0
 62
     0
 10
475.84035173788919
 20
669.15673282777107
 30
0.0
 11
474.94770573788952
 21
674.2191798277712
 31
0.0
  0
ARC
  5
BE20
  8
0
 62
     0
 10
408.18617473788919
 20
668.29445582777123
 30
0.0
 40
2.0
 50
5.5986529999986434
 51
90.0
  0
ARC
  5
BE21
  8
0
 62
     0
 10
408.18421973788941
 20
662.2937888277711
 30
0.0
 40
2.0
 50
5.4290190000020546
 51
90.0
  0
LINE
  5
BE22
  8
0
 62
     0
 10
478.79715673788951
 20
545.57037782777127
 30
0.0
 11
478.79715673788951
 21
647.35901682777126
 31
0.0
  0
LINE
  5
BE23
  8
0
 62
     0
 10
478.79715673788951
 20
669.15673282777107
 30
0.0
 11
478.79715673788951
 21
673.29308382777106
 31
0.0
  0
LINE
  5
BE24
  8
0
 62
     0
 10
426.75403273788942
 20
659.13055882777121
 30
0.0
 11
442.7971557378894
 21
663.73042082777124
 31
0.0
  0
LINE
  5
BE25
  8
0
 62
     0
 10
411.09407173788941
 20
659.13055882777121
 30
0.0
 11
426.75403273788942
 21
659.13055882777121
 31
0.0
  0
LINE
  5
BE26
  8
0
 62
     0
 10
442.7971557378894
 20
663.73042082777124
 30
0.0
 11
457.4904397378894
 21
663.73042082777124
 31
0.0
  0
ARC
  5
BE27
  8
0
 62
     0
 10
459.49695573788938
 20
656.77634982777113
 30
0.0
 40
2.600398999999999
 50
179.9999819999943
 51
269.99997799999522
  0
ARC
  5
BE28
  8
0
 62
     0
 10
459.49695573788938
 20
662.07633782777123
 30
0.0
 40
2.600403
 50
90.0
 51
179.9999819999943
  0
LINE
  5
BE29
  8
0
 62
     0
 10
462.29715673788951
 20
659.49236882777109
 30
0.0
 11
460.79715673788951
 21
658.62634382777105
 31
0.0
  0
LINE
  5
BE2A
  8
0
 62
     0
 10
462.29715673788951
 20
660.4923688277712
 30
0.0
 11
460.79715673788951
 21
659.62634382777105
 31
0.0
  0
LINE
  5
BE2B
  8
0
 62
     0
 10
462.29715673788951
 20
665.52634382777126
 30
0.0
 11
462.29715673788951
 21
653.32634382777121
 31
0.0
  0
LINE
  5
BE2C
  8
0
 62
     0
 10
460.79715673788951
 20
665.52634382777126
 30
0.0
 11
462.29715673788951
 21
665.52634382777126
 31
0.0
  0
LINE
  5
BE2D
  8
0
 62
     0
 10
460.79715673788951
 20
653.32634382777121
 30
0.0
 11
462.29715673788951
 21
653.32634382777121
 31
0.0
  0
LINE
  5
BE2E
  8
0
 62
     0
 10
456.8971627378894
 20
662.07633782777123
 30
0.0
 11
456.8971627378894
 21
656.77634982777113
 31
0.0
  0
LINE
  5
BE2F
  8
0
 62
     0
 10
460.79715673788951
 20
665.52634382777126
 30
0.0
 11
460.79715673788951
 21
653.32634382777121
 31
0.0
  0
LINE
  5
BE30
  8
0
 62
     0
 10
460.79715673788951
 20
654.17634382777123
 30
0.0
 11
459.49695573788938
 21
654.17634382777123
 31
0.0
  0
LINE
  5
BE31
  8
0
 62
     0
 10
460.79715673788951
 20
664.67634382777123
 30
0.0
 11
459.49695573788938
 21
664.67634382777123
 31
0.0
  0
ARC
  5
BE32
  8
0
 62
     0
 10
459.49695573788938
 20
530.73442282777125
 30
0.0
 40
2.600398999999999
 50
179.9999819999943
 51
269.99997799999522
  0
ARC
  5
BE33
  8
0
 62
     0
 10
459.49695573788938
 20
536.03441082777124
 30
0.0
 40
2.600403
 50
90.0
 51
179.9999819999943
  0
LINE
  5
BE34
  8
0
 62
     0
 10
462.29715673788951
 20
533.4504418277711
 30
0.0
 11
460.79715673788951
 21
532.58441682777107
 31
0.0
  0
LINE
  5
BE35
  8
0
 62
     0
 10
462.29715673788951
 20
534.45044182777121
 30
0.0
 11
460.79715673788951
 21
533.58441682777107
 31
0.0
  0
LINE
  5
BE36
  8
0
 62
     0
 10
462.29715673788951
 20
539.48441682777116
 30
0.0
 11
462.29715673788951
 21
527.28441682777122
 31
0.0
  0
LINE
  5
BE37
  8
0
 62
     0
 10
460.79715673788951
 20
539.48441682777116
 30
0.0
 11
462.29715673788951
 21
539.48441682777116
 31
0.0
  0
LINE
  5
BE38
  8
0
 62
     0
 10
460.79715673788951
 20
527.28441682777122
 30
0.0
 11
462.29715673788951
 21
527.28441682777122
 31
0.0
  0
LINE
  5
BE39
  8
0
 62
     0
 10
456.8971627378894
 20
536.03441082777124
 30
0.0
 11
456.8971627378894
 21
530.73442282777125
 31
0.0
  0
LINE
  5
BE3A
  8
0
 62
     0
 10
460.79715673788951
 20
539.48441682777116
 30
0.0
 11
460.79715673788951
 21
527.28441682777122
 31
0.0
  0
LINE
  5
BE3B
  8
0
 62
     0
 10
460.79715673788951
 20
528.13441682777113
 30
0.0
 11
459.49695573788938
 21
528.13441682777113
 31
0.0
  0
LINE
  5
BE3C
  8
0
 62
     0
 10
460.79715673788951
 20
538.63441682777125
 30
0.0
 11
459.49695573788938
 21
538.63441682777125
 31
0.0
  0
LINE
  5
BE3D
  8
0
 62
     0
 10
476.73632673788961
 20
673.29308382777106
 30
0.0
 11
478.79715673788951
 21
673.29308382777106
 31
0.0
  0
LINE
  5
BE3E
  8
0
 62
     0
 10
282.42730373788947
 20
675.87188382777117
 30
0.0
 11
472.97808973788921
 21
675.87188382777117
 31
0.0
  0
LINE
  5
BE3F
  8
0
 62
     0
 10
282.24616273788951
 20
679.83706882777119
 30
0.0
 11
473.10746773788918
 21
679.83706882777119
 31
0.0
  0
LINE
  5
BE40
  8
0
 62
     0
 10
282.12837173788961
 20
682.38980282777106
 30
0.0
 11
473.19332273788939
 21
682.38980282777106
 31
0.0
  0
LINE
  5
BE41
  8
0
 62
     0
 10
274.29715673788951
 20
678.79308382777106
 30
0.0
 11
279.81597473788952
 21
678.79308382777106
 31
0.0
  0
LINE
  5
BE42
  8
0
 62
     0
 10
297.06140173788958
 20
683.57957682777123
 30
0.0
 11
363.79715673788951
 21
683.57957682777123
 31
0.0
  0
LINE
  5
BE43
  8
0
 62
     0
 10
442.7971557378894
 20
642.45308382777125
 30
0.0
 11
442.7971557378894
 21
637.10808382777122
 31
0.0
  0
LINE
  5
BE44
  8
0
 62
     0
 10
426.75403273788942
 20
642.45308382777125
 30
0.0
 11
426.75403273788942
 21
637.10808382777122
 31
0.0
  0
LINE
  5
BE45
  8
0
 62
     0
 10
442.7971557378894
 20
652.74914382777126
 30
0.0
 11
442.7971557378894
 21
645.15308382777118
 31
0.0
  0
LINE
  5
BE46
  8
0
 62
     0
 10
442.7971557378894
 20
661.14587082777109
 30
0.0
 11
456.8971627378894
 21
661.14587082777109
 31
0.0
  0
LINE
  5
BE47
  8
0
 62
     0
 10
277.79715673788951
 20
645.41727082777106
 30
0.0
 11
411.79715673788922
 21
645.41727082777106
 31
0.0
  0
LINE
  5
BE48
  8
0
 62
     0
 10
411.11952973788959
 20
651.95820682777128
 30
0.0
 11
411.79715673788922
 21
651.95820682777128
 31
0.0
  0
LINE
  5
BE49
  8
0
 62
     0
 10
282.8037957378894
 20
664.29378882777087
 30
0.0
 11
408.18421973788941
 21
664.29378882777087
 31
0.0
  0
LINE
  5
BE4A
  8
0
 62
     0
 10
277.79715673788951
 20
651.95820682777128
 30
0.0
 11
278.95049973788952
 21
651.95820682777128
 31
0.0
  0
LINE
  5
BE4B
  8
0
 62
     0
 10
282.70853173788947
 20
670.29445582777123
 30
0.0
 11
408.18617473788919
 21
670.29445582777123
 31
0.0
  0
LINE
  5
BE4C
  8
0
 62
     0
 10
478.79715673788951
 20
647.35901682777126
 30
0.0
 11
481.7971567378894
 21
645.62696582777119
 31
0.0
  0
ARC
  5
BE4D
  8
0
 62
     0
 10
461.2971567378894
 20
648.35901682777126
 30
0.0
 40
1.0
 50
270.0
 51
0.0
  0
ARC
  5
BE4E
  8
0
 62
     0
 10
464.29715673788951
 20
667.15673282777118
 30
0.0
 40
2.0
 50
90.0
 51
180.0
  0
ARC
  5
BE4F
  8
0
 62
     0
 10
464.29715673788951
 20
663.03272782777105
 30
0.0
 40
2.0
 50
180.0
 51
270.0
  0
ARC
  5
BE50
  8
0
 62
     0
 10
464.29715673788951
 20
659.03272782777117
 30
0.0
 40
2.0
 50
90.0
 51
180.0
  0
LINE
  5
BE51
  8
0
 62
     0
 10
464.29715673788951
 20
669.15673282777107
 30
0.0
 11
481.7971567378894
 21
669.15673282777107
 31
0.0
  0
LINE
  5
BE52
  8
0
 62
     0
 10
462.29715673788951
 20
647.35901682777126
 30
0.0
 11
478.79715673788951
 21
647.35901682777126
 31
0.0
  0
LINE
  5
BE53
  8
0
 62
     0
 10
464.29715673788951
 20
661.03272782777105
 30
0.0
 11
481.7971567378894
 21
661.03272782777105
 31
0.0
  0
LINE
  5
BE54
  8
0
 62
     0
 10
462.29715673788951
 20
648.35901682777126
 30
0.0
 11
462.29715673788951
 21
667.15673282777118
 31
0.0
  0
LINE
  5
BE55
  8
0
 62
     0
 10
277.79715673788951
 20
501.29308382777123
 30
0.0
 11
274.29715673788951
 21
501.29308382777123
 31
0.0
  0
LINE
  5
BE56
  8
0
 62
     0
 10
277.79715673788951
 20
550.93429482777105
 30
0.0
 11
282.4045327378895
 21
544.50268882777118
 31
0.0
  0
LINE
  5
BE57
  8
0
 62
     0
 10
282.4045327378895
 20
544.50268882777118
 30
0.0
 11
283.26033273788948
 21
547.12960882777111
 31
0.0
  0
LINE
  5
BE58
  8
0
 62
     0
 10
277.79715673788951
 20
550.93429482777105
 30
0.0
 11
283.26033273788948
 21
547.12960882777111
 31
0.0
  0
LINE
  5
BE59
  8
0
 62
     0
 10
283.26033273788948
 20
547.12960882777111
 30
0.0
 11
284.47226273788942
 21
546.57364882777119
 31
0.0
  0
LINE
  5
BE5A
  8
0
 62
     0
 10
274.29715673788951
 20
544.50268882777118
 30
0.0
 11
282.4045327378895
 21
544.50268882777118
 31
0.0
  0
LINE
  5
BE5B
  8
0
 62
     0
 10
274.29715673788951
 20
550.93429482777105
 30
0.0
 11
277.79715673788951
 21
550.93429482777105
 31
0.0
  0
LINE
  5
BE5C
  8
0
 62
     0
 10
277.79715673788951
 20
528.36090882777125
 30
0.0
 11
277.79715673788951
 21
525.16801482777123
 31
0.0
  0
LINE
  5
BE5D
  8
0
 62
     0
 10
279.5571567378895
 20
527.79247482777123
 30
0.0
 11
279.5571567378895
 21
525.79369282777111
 31
0.0
  0
LINE
  5
BE5E
  8
0
 62
     0
 10
294.5571567378895
 20
536.79308382777106
 30
0.0
 11
294.5571567378895
 21
534.79369282777111
 31
0.0
  0
LINE
  5
BE5F
  8
0
 62
     0
 10
292.79715673788951
 20
537.25462582777106
 30
0.0
 11
292.79715673788951
 21
534.18689082777075
 31
0.0
  0
LINE
  5
BE60
  8
0
 62
     0
 10
292.79715673788951
 20
537.25462582777106
 30
0.0
 11
331.2193737378895
 21
537.25462582777106
 31
0.0
  0
LINE
  5
BE61
  8
0
 62
     0
 10
292.79715673788951
 20
534.18689082777075
 30
0.0
 11
332.53419773788949
 21
534.18689082777075
 31
0.0
  0
LINE
  5
BE62
  8
0
 62
     0
 10
277.79715673788951
 20
525.16801482777123
 30
0.0
 11
374.79715673788951
 21
525.16801482777123
 31
0.0
  0
LINE
  5
BE63
  8
0
 62
     0
 10
277.79715673788951
 20
528.36090882777125
 30
0.0
 11
374.79715673788951
 21
528.36090882777125
 31
0.0
  0
LINE
  5
BE64
  8
0
 62
     0
 10
279.5571567378895
 20
527.79247482777123
 30
0.0
 11
374.79715673788951
 21
527.79247482777123
 31
0.0
  0
LINE
  5
BE65
  8
0
 62
     0
 10
279.5571567378895
 20
525.79369282777111
 30
0.0
 11
374.79715673788951
 21
525.79369282777111
 31
0.0
  0
LINE
  5
BE66
  8
0
 62
     0
 10
279.5571567378895
 20
527.79247482777123
 30
0.0
 11
277.79715673788951
 21
528.36090882777125
 31
0.0
  0
LINE
  5
BE67
  8
0
 62
     0
 10
279.5571567378895
 20
525.79369282777111
 30
0.0
 11
277.79715673788951
 21
525.16801482777123
 31
0.0
  0
LINE
  5
BE68
  8
0
 62
     0
 10
282.7404227378895
 20
534.53500482777122
 30
0.0
 11
283.9215137378896
 21
534.29759582777115
 31
0.0
  0
LINE
  5
BE69
  8
0
 62
     0
 10
294.5571567378895
 20
536.79308382777106
 30
0.0
 11
331.30568373788952
 21
536.79308382777106
 31
0.0
  0
LINE
  5
BE6A
  8
0
 62
     0
 10
294.5571567378895
 20
534.79369282777111
 30
0.0
 11
332.11491973788952
 21
534.79369282777111
 31
0.0
  0
LINE
  5
BE6B
  8
0
 62
     0
 10
294.5571567378895
 20
536.79308382777106
 30
0.0
 11
292.79715673788951
 21
537.25462582777106
 31
0.0
  0
LINE
  5
BE6C
  8
0
 62
     0
 10
294.5571567378895
 20
534.79369282777111
 30
0.0
 11
292.79715673788951
 21
534.18689082777075
 31
0.0
  0
LINE
  5
BE6D
  8
0
 62
     0
 10
411.79715673788922
 20
528.36090882777125
 30
0.0
 11
374.79715673788951
 21
528.36090882777125
 31
0.0
  0
LINE
  5
BE6E
  8
0
 62
     0
 10
410.0371567378894
 20
527.79247482777123
 30
0.0
 11
374.79715673788951
 21
527.79247482777123
 31
0.0
  0
LINE
  5
BE6F
  8
0
 62
     0
 10
410.0371567378894
 20
525.79369282777111
 30
0.0
 11
374.79715673788951
 21
525.79369282777111
 31
0.0
  0
LINE
  5
BE70
  8
0
 62
     0
 10
410.0371567378894
 20
525.79369282777111
 30
0.0
 11
411.79715673788922
 21
525.16801482777123
 31
0.0
  0
LINE
  5
BE71
  8
0
 62
     0
 10
410.0371567378894
 20
527.79247482777123
 30
0.0
 11
411.79715673788922
 21
528.36090882777125
 31
0.0
  0
LINE
  5
BE72
  8
0
 62
     0
 10
410.0371567378894
 20
527.79247482777123
 30
0.0
 11
410.0371567378894
 21
525.79369282777111
 31
0.0
  0
LINE
  5
BE73
  8
0
 62
     0
 10
411.79715673788922
 20
528.36090882777125
 30
0.0
 11
411.79715673788922
 21
525.16801482777123
 31
0.0
  0
LINE
  5
BE74
  8
0
 62
     0
 10
277.79715673788951
 20
525.16801482777123
 30
0.0
 11
279.3898987378895
 21
507.8688278277711
 31
0.0
  0
LINE
  5
BE75
  8
0
 62
     0
 10
277.79715673788951
 20
518.62796082777106
 30
0.0
 11
278.39930173788957
 21
518.62796082777106
 31
0.0
  0
LINE
  5
BE76
  8
0
 62
     0
 10
277.79715673788951
 20
511.45560882777107
 30
0.0
 11
278.4799337378895
 21
511.45560882777107
 31
0.0
  0
LINE
  5
BE77
  8
0
 62
     0
 10
277.79715673788951
 20
506.46312382777108
 30
0.0
 11
278.32166973788941
 21
506.46312382777108
 31
0.0
  0
LINE
  5
BE78
  8
0
 62
     0
 10
277.79715673788951
 20
503.24236782777109
 30
0.0
 11
278.1570987378895
 21
503.24236782777109
 31
0.0
  0
LINE
  5
BE79
  8
0
 62
     0
 10
277.7503797378896
 20
501.67278682777112
 30
0.0
 11
277.98077073788937
 21
501.67278682777112
 31
0.0
  0
LINE
  5
BE7A
  8
0
 62
     0
 10
277.79715673788951
 20
518.62796082777106
 30
0.0
 11
279.38480873788939
 21
501.95018682777112
 31
0.0
  0
LINE
  5
BE7B
  8
0
 62
     0
 10
277.79715673788951
 20
511.45560882777107
 30
0.0
 11
279.36898973788948
 21
496.49439782777119
 31
0.0
  0
LINE
  5
BE7C
  8
0
 62
     0
 10
277.79715673788951
 20
506.46312382777108
 30
0.0
 11
279.35846773788961
 21
492.49253282777107
 31
0.0
  0
LINE
  5
BE7D
  8
0
 62
     0
 10
277.79715673788951
 20
503.24236782777109
 30
0.0
 11
279.35037573788952
 21
489.96503982777119
 31
0.0
  0
LINE
  5
BE7E
  8
0
 62
     0
 10
277.7503797378896
 20
501.67278682777112
 30
0.0
 11
279.34089573788958
 21
488.76205282777119
 31
0.0
  0
ARC
  5
BE7F
  8
0
 62
     0
 10
281.3814747378895
 20
508.05219282777108
 30
0.0
 40
2.0
 50
185.2604109999989
 51
270.0
  0
ARC
  5
BE80
  8
0
 62
     0
 10
281.37580673788949
 20
502.1397218277711
 30
0.0
 40
2.0
 50
185.4379219999999
 51
270.0
  0
ARC
  5
BE81
  8
0
 62
     0
 10
281.35804273788949
 20
496.7033688277711
 30
0.0
 40
2.0
 50
185.9975260000009
 51
270.0
  0
ARC
  5
BE82
  8
0
 62
     0
 10
281.34609373788948
 20
492.71466382777118
 30
0.0
 40
2.0
 50
186.37674200000021
 51
270.0
  0
ARC
  5
BE83
  8
0
 62
     0
 10
281.3368297378895
 20
490.19742082777111
 30
0.0
 40
2.0
 50
186.67229399999829
 51
270.0
  0
ARC
  5
BE84
  8
0
 62
     0
 10
281.3258897378895
 20
489.00659082777111
 30
0.0
 40
2.0
 50
187.02306899999601
 51
270.0
  0
LINE
  5
BE85
  8
0
 62
     0
 10
284.47226273788942
 20
546.57364882777119
 30
0.0
 11
284.47226273788942
 21
534.18689082777075
 31
0.0
  0
LINE
  5
BE86
  8
0
 62
     0
 10
282.4045327378895
 20
544.50268882777118
 30
0.0
 11
282.4045327378895
 21
534.60252182777106
 31
0.0
  0
LINE
  5
BE87
  8
0
 62
     0
 10
274.29715673788951
 20
534.18689082777075
 30
0.0
 11
284.47226273788942
 21
534.18689082777075
 31
0.0
  0
LINE
  5
BE88
  8
0
 62
     0
 10
274.29715673788951
 20
534.60252182777106
 30
0.0
 11
282.4045327378895
 21
534.60252182777106
 31
0.0
  0
LINE
  5
BE89
  8
0
 62
     0
 10
476.79715673788951
 20
600.47308382777123
 30
0.0
 11
475.0371567378894
 21
601.02308382777119
 31
0.0
  0
LINE
  5
BE8A
  8
0
 62
     0
 10
476.79715673788951
 20
603.11308382777111
 30
0.0
 11
476.79715673788951
 21
600.47308382777123
 31
0.0
  0
LINE
  5
BE8B
  8
0
 62
     0
 10
475.0371567378894
 20
602.62308382777121
 30
0.0
 11
476.79715673788951
 21
603.11308382777111
 31
0.0
  0
LINE
  5
BE8C
  8
0
 62
     0
 10
475.0371567378894
 20
602.62308382777121
 30
0.0
 11
475.0371567378894
 21
601.02308382777119
 31
0.0
  0
LINE
  5
BE8D
  8
0
 62
     0
 10
476.79715673788951
 20
589.47308382777123
 30
0.0
 11
475.0371567378894
 21
590.02308382777107
 31
0.0
  0
LINE
  5
BE8E
  8
0
 62
     0
 10
476.79715673788951
 20
592.11308382777111
 30
0.0
 11
476.79715673788951
 21
589.47308382777123
 31
0.0
  0
LINE
  5
BE8F
  8
0
 62
     0
 10
475.0371567378894
 20
591.62308382777098
 30
0.0
 11
476.79715673788951
 21
592.11308382777111
 31
0.0
  0
LINE
  5
BE90
  8
0
 62
     0
 10
475.0371567378894
 20
591.62308382777098
 30
0.0
 11
475.0371567378894
 21
590.02308382777107
 31
0.0
  0
LINE
  5
BE91
  8
0
 62
     0
 10
476.79715673788951
 20
578.47308382777123
 30
0.0
 11
475.0371567378894
 21
579.02308382777119
 31
0.0
  0
LINE
  5
BE92
  8
0
 62
     0
 10
476.79715673788951
 20
581.11308382777111
 30
0.0
 11
476.79715673788951
 21
578.47308382777123
 31
0.0
  0
LINE
  5
BE93
  8
0
 62
     0
 10
475.0371567378894
 20
580.62308382777121
 30
0.0
 11
476.79715673788951
 21
581.11308382777111
 31
0.0
  0
LINE
  5
BE94
  8
0
 62
     0
 10
475.0371567378894
 20
580.62308382777121
 30
0.0
 11
475.0371567378894
 21
579.02308382777119
 31
0.0
  0
LINE
  5
BE95
  8
0
 62
     0
 10
476.79715673788951
 20
567.47308382777123
 30
0.0
 11
475.0371567378894
 21
568.02308382777119
 31
0.0
  0
LINE
  5
BE96
  8
0
 62
     0
 10
476.79715673788951
 20
570.11308382777111
 30
0.0
 11
476.79715673788951
 21
567.47308382777123
 31
0.0
  0
LINE
  5
BE97
  8
0
 62
     0
 10
475.0371567378894
 20
569.62308382777121
 30
0.0
 11
476.79715673788951
 21
570.11308382777111
 31
0.0
  0
LINE
  5
BE98
  8
0
 62
     0
 10
475.0371567378894
 20
569.62308382777121
 30
0.0
 11
475.0371567378894
 21
568.02308382777119
 31
0.0
  0
LINE
  5
BE99
  8
0
 62
     0
 10
476.20882573788958
 20
498.78380382777112
 30
0.0
 11
475.1771967378894
 21
489.96504282777119
 31
0.0
  0
LINE
  5
BE9A
  8
0
 62
     0
 10
475.1419397378894
 20
492.49223682777108
 30
0.0
 11
476.19689673788918
 21
501.91922382777108
 31
0.0
  0
LINE
  5
BE9B
  8
0
 62
     0
 10
475.16900973788961
 20
496.49309282777119
 30
0.0
 11
476.26792173788942
 21
506.88726682777121
 31
0.0
  0
LINE
  5
BE9C
  8
0
 62
     0
 10
476.3188627378895
 20
513.42388682777107
 30
0.0
 11
475.1935817378893
 21
501.94460282777118
 31
0.0
  0
LINE
  5
BE9D
  8
0
 62
     0
 10
476.36002973788959
 20
520.83362882777124
 30
0.0
 11
475.1273127378895
 21
507.86296782777112
 31
0.0
  0
LINE
  5
BE9E
  8
0
 62
     0
 10
476.2689487378895
 20
497.64747582777119
 30
0.0
 11
475.1969157378893
 21
488.76689782777112
 31
0.0
  0
LINE
  5
BE9F
  8
0
 62
     0
 10
475.0371567378894
 20
558.62308382777087
 30
0.0
 11
475.0371567378894
 21
557.02308382777107
 31
0.0
  0
LINE
  5
BEA0
  8
0
 62
     0
 10
475.0371567378894
 20
558.62308382777087
 30
0.0
 11
476.79715673788951
 21
559.11308382777088
 31
0.0
  0
LINE
  5
BEA1
  8
0
 62
     0
 10
476.79715673788951
 20
559.11308382777088
 30
0.0
 11
476.79715673788951
 21
556.47308382777123
 31
0.0
  0
LINE
  5
BEA2
  8
0
 62
     0
 10
476.79715673788951
 20
556.47308382777123
 30
0.0
 11
475.0371567378894
 21
557.02308382777107
 31
0.0
  0
LINE
  5
BEA3
  8
0
 62
     0
 10
475.0371567378894
 20
613.62308382777121
 30
0.0
 11
475.0371567378894
 21
612.02308382777119
 31
0.0
  0
LINE
  5
BEA4
  8
0
 62
     0
 10
475.0371567378894
 20
613.62308382777121
 30
0.0
 11
476.79715673788951
 21
614.11308382777088
 31
0.0
  0
LINE
  5
BEA5
  8
0
 62
     0
 10
476.79715673788951
 20
614.11308382777088
 30
0.0
 11
476.79715673788951
 21
611.47308382777123
 31
0.0
  0
LINE
  5
BEA6
  8
0
 62
     0
 10
476.79715673788951
 20
611.47308382777123
 30
0.0
 11
475.0371567378894
 21
612.02308382777119
 31
0.0
  0
LINE
  5
BEA7
  8
0
 62
     0
 10
426.75403273788942
 20
611.47308382777123
 30
0.0
 11
426.75403273788942
 21
603.11308382777111
 31
0.0
  0
LINE
  5
BEA8
  8
0
 62
     0
 10
442.7971557378894
 20
611.47308382777123
 30
0.0
 11
442.7971557378894
 21
603.11308382777111
 31
0.0
  0
LINE
  5
BEA9
  8
0
 62
     0
 10
442.7971557378894
 20
600.47308382777123
 30
0.0
 11
442.7971557378894
 21
592.11308382777111
 31
0.0
  0
LINE
  5
BEAA
  8
0
 62
     0
 10
426.75403273788942
 20
600.47308382777123
 30
0.0
 11
426.75403273788942
 21
592.11308382777111
 31
0.0
  0
LINE
  5
BEAB
  8
0
 62
     0
 10
426.75403273788942
 20
589.47308382777123
 30
0.0
 11
426.75403273788942
 21
581.11308382777111
 31
0.0
  0
LINE
  5
BEAC
  8
0
 62
     0
 10
442.7971557378894
 20
589.47308382777123
 30
0.0
 11
442.7971557378894
 21
581.11308382777111
 31
0.0
  0
LINE
  5
BEAD
  8
0
 62
     0
 10
442.7971557378894
 20
578.47308382777123
 30
0.0
 11
442.7971557378894
 21
570.11308382777111
 31
0.0
  0
LINE
  5
BEAE
  8
0
 62
     0
 10
426.75403273788942
 20
578.47308382777123
 30
0.0
 11
426.75403273788942
 21
570.11308382777111
 31
0.0
  0
LINE
  5
BEAF
  8
0
 62
     0
 10
426.75403273788942
 20
567.47308382777123
 30
0.0
 11
426.75403273788942
 21
559.11308382777088
 31
0.0
  0
LINE
  5
BEB0
  8
0
 62
     0
 10
442.7971557378894
 20
567.47308382777123
 30
0.0
 11
442.7971557378894
 21
559.11308382777088
 31
0.0
  0
LINE
  5
BEB1
  8
0
 62
     0
 10
442.7971557378894
 20
556.47308382777123
 30
0.0
 11
442.7971557378894
 21
540.68463782777121
 31
0.0
  0
LINE
  5
BEB2
  8
0
 62
     0
 10
426.75403273788942
 20
556.47308382777123
 30
0.0
 11
426.75403273788942
 21
525.16801482777123
 31
0.0
  0
LINE
  5
BEB3
  8
0
 62
     0
 10
476.36002973788959
 20
520.83362882777124
 30
0.0
 11
442.7971557378894
 21
520.83362882777124
 31
0.0
  0
LINE
  5
BEB4
  8
0
 62
     0
 10
476.3188627378895
 20
513.42388682777107
 30
0.0
 11
475.65581673788932
 21
513.42388682777107
 31
0.0
  0
ARC
  5
BEB5
  8
0
 62
     0
 10
473.13628473788941
 20
508.05219282777108
 30
0.0
 40
2.0
 50
270.0
 51
354.57098099999791
  0
ARC
  5
BEB6
  8
0
 62
     0
 10
473.20312273788949
 20
502.1397218277711
 30
0.0
 40
2.0
 50
270.0
 51
354.40134700000141
  0
ARC
  5
BEB7
  8
0
 62
     0
 10
473.18009473788948
 20
496.7033688277711
 30
0.0
 40
2.0
 50
270.0
 51
353.96488600000077
  0
ARC
  5
BEB8
  8
0
 62
     0
 10
473.1543467378894
 20
492.71466382777118
 30
0.0
 40
2.0
 50
270.0
 51
353.61470099999991
  0
ARC
  5
BEB9
  8
0
 62
     0
 10
473.19074273788942
 20
490.19742082777111
 30
0.0
 40
2.0
 50
270.0
 51
353.3277999999973
  0
ARC
  5
BEBA
  8
0
 62
     0
 10
473.21133173788951
 20
489.00659082777111
 30
0.0
 40
2.0
 50
270.0
 51
353.11676000000062
  0
LINE
  5
BEBB
  8
0
 62
     0
 10
476.26792173788942
 20
506.88726682777121
 30
0.0
 11
475.6780967378894
 21
506.88726682777121
 31
0.0
  0
LINE
  5
BEBC
  8
0
 62
     0
 10
476.19689673788918
 20
501.91922382777108
 30
0.0
 11
475.74268173788943
 21
501.91922382777108
 31
0.0
  0
LINE
  5
BEBD
  8
0
 62
     0
 10
476.20882573788958
 20
498.78380382777112
 30
0.0
 11
475.8460177378895
 21
498.78380382777112
 31
0.0
  0
LINE
  5
BEBE
  8
0
 62
     0
 10
476.2689487378895
 20
497.64747582777119
 30
0.0
 11
476.07589673788948
 21
497.64747582777119
 31
0.0
  0
LINE
  5
BEBF
  8
0
 62
     0
 10
478.79715673788951
 20
545.57037782777127
 30
0.0
 11
462.29715673788951
 21
545.57037782777127
 31
0.0
  0
LINE
  5
BEC0
  8
0
 62
     0
 10
481.7971567378894
 20
535.39108582777112
 30
0.0
 11
464.29715673788951
 21
535.39108582777112
 31
0.0
  0
LINE
  5
BEC1
  8
0
 62
     0
 10
481.7971567378894
 20
523.10380482777123
 30
0.0
 11
464.29715673788951
 21
523.10380482777123
 31
0.0
  0
LINE
  5
BEC2
  8
0
 62
     0
 10
462.29715673788951
 20
544.57037782777115
 30
0.0
 11
462.29715673788951
 21
525.10380482777123
 31
0.0
  0
LINE
  5
BEC3
  8
0
 62
     0
 10
478.79715673788951
 20
545.57037782777127
 30
0.0
 11
481.7971567378894
 21
547.30242882777111
 31
0.0
  0
ARC
  5
BEC4
  8
0
 62
     0
 10
464.29715673788951
 20
537.39108582777112
 30
0.0
 40
2.0
 50
180.0
 51
270.0
  0
ARC
  5
BEC5
  8
0
 62
     0
 10
464.29715673788951
 20
525.10380482777123
 30
0.0
 40
2.0
 50
180.0
 51
270.0
  0
ARC
  5
BEC6
  8
0
 62
     0
 10
464.29715673788951
 20
533.39108582777112
 30
0.0
 40
2.0
 50
90.0
 51
180.0
  0
LINE
  5
BEC7
  8
0
 62
     0
 10
442.7971557378894
 20
529.27228782777127
 30
0.0
 11
442.7971557378894
 21
520.83362882777124
 31
0.0
  0
LINE
  5
BEC8
  8
0
 62
     0
 10
426.75403273788942
 20
525.16801482777123
 30
0.0
 11
442.7971557378894
 21
520.83362882777124
 31
0.0
  0
ARC
  5
BEC9
  8
0
 62
     0
 10
461.2971567378894
 20
544.57037782777115
 30
0.0
 40
1.0
 50
0.0
 51
90.0
  0
LINE
  5
BECA
  8
0
 62
     0
 10
426.75403273788942
 20
525.16801482777123
 30
0.0
 11
374.79715673788951
 21
525.16801482777123
 31
0.0
  0
LINE
  5
BECB
  8
0
 62
     0
 10
473.21133173788951
 20
487.00659082777122
 30
0.0
 11
281.3258897378895
 21
487.00659082777122
 31
0.0
  0
LINE
  5
BECC
  8
0
 62
     0
 10
473.19074273788942
 20
488.19742082777123
 30
0.0
 11
281.3368297378895
 21
488.19742082777123
 31
0.0
  0
LINE
  5
BECD
  8
0
 62
     0
 10
473.1543467378894
 20
490.71466382777112
 30
0.0
 11
281.34609373788948
 21
490.71466382777112
 31
0.0
  0
LINE
  5
BECE
  8
0
 62
     0
 10
473.18009473788948
 20
494.7033688277711
 30
0.0
 11
281.35804273788949
 21
494.7033688277711
 31
0.0
  0
LINE
  5
BECF
  8
0
 62
     0
 10
473.20312273788949
 20
500.1397218277711
 30
0.0
 11
281.37580673788949
 21
500.1397218277711
 31
0.0
  0
LINE
  5
BED0
  8
0
 62
     0
 10
473.13628473788941
 20
506.05219282777108
 30
0.0
 11
281.3814747378895
 21
506.05219282777108
 31
0.0
  0
LINE
  5
BED1
  8
0
 62
     0
 10
426.75403273788942
 20
659.13055882777121
 30
0.0
 11
426.75403273788942
 21
645.15308382777118
 31
0.0
  0
LINE
  5
BED2
  8
0
 62
     0
 10
442.7971557378894
 20
663.73042082777124
 30
0.0
 11
442.7971557378894
 21
661.14587082777109
 31
0.0
  0
LINE
  5
BED3
  8
0
 62
     0
 10
419.59476873788941
 20
614.11308382777088
 30
0.0
 11
476.79715673788951
 21
614.11308382777088
 31
0.0
  0
LINE
  5
BED4
  8
0
 62
     0
 10
419.61828673788921
 20
613.62308382777121
 30
0.0
 11
475.0371567378894
 21
613.62308382777121
 31
0.0
  0
LINE
  5
BED5
  8
0
 62
     0
 10
419.6912527378895
 20
612.02308382777119
 30
0.0
 11
475.0371567378894
 21
612.02308382777119
 31
0.0
  0
LINE
  5
BED6
  8
0
 62
     0
 10
419.6912527378895
 20
611.47308382777123
 30
0.0
 11
476.79715673788951
 21
611.47308382777123
 31
0.0
  0
LINE
  5
BED7
  8
0
 62
     0
 10
419.73577473788941
 20
559.11308382777088
 30
0.0
 11
476.79715673788951
 21
559.11308382777088
 31
0.0
  0
LINE
  5
BED8
  8
0
 62
     0
 10
419.71437373788922
 20
558.62308382777087
 30
0.0
 11
475.0371567378894
 21
558.62308382777087
 31
0.0
  0
LINE
  5
BED9
  8
0
 62
     0
 10
419.64169973788938
 20
557.02308382777107
 30
0.0
 11
475.0371567378894
 21
557.02308382777107
 31
0.0
  0
LINE
  5
BEDA
  8
0
 62
     0
 10
419.61573073788952
 20
556.47308382777123
 30
0.0
 11
476.79715673788951
 21
556.47308382777123
 31
0.0
  0
LINE
  5
BEDB
  8
0
 62
     0
 10
420.2810527378893
 20
589.47308382777123
 30
0.0
 11
476.79715673788951
 21
589.47308382777123
 31
0.0
  0
LINE
  5
BEDC
  8
0
 62
     0
 10
420.27677273788942
 20
590.02308382777107
 30
0.0
 11
475.0371567378894
 21
590.02308382777107
 31
0.0
  0
LINE
  5
BEDD
  8
0
 62
     0
 10
420.11076673788909
 20
570.11308382777111
 30
0.0
 11
476.79715673788951
 21
570.11308382777111
 31
0.0
  0
LINE
  5
BEDE
  8
0
 62
     0
 10
420.09835673788939
 20
569.62308382777121
 30
0.0
 11
475.0371567378894
 21
569.62308382777121
 31
0.0
  0
LINE
  5
BEDF
  8
0
 62
     0
 10
420.05504573788937
 20
568.02308382777119
 30
0.0
 11
475.0371567378894
 21
568.02308382777119
 31
0.0
  0
LINE
  5
BEE0
  8
0
 62
     0
 10
420.03917173788909
 20
567.47308382777123
 30
0.0
 11
476.79715673788951
 21
567.47308382777123
 31
0.0
  0
LINE
  5
BEE1
  8
0
 62
     0
 10
420.2840897378893
 20
581.11308382777111
 30
0.0
 11
476.79715673788951
 21
581.11308382777111
 31
0.0
  0
LINE
  5
BEE2
  8
0
 62
     0
 10
420.28065773788921
 20
580.62308382777121
 30
0.0
 11
475.0371567378894
 21
580.62308382777121
 31
0.0
  0
LINE
  5
BEE3
  8
0
 62
     0
 10
420.26666573788953
 20
579.02308382777119
 30
0.0
 11
475.0371567378894
 21
579.02308382777119
 31
0.0
  0
LINE
  5
BEE4
  8
0
 62
     0
 10
420.2608717378896
 20
578.47308382777123
 30
0.0
 11
476.79715673788951
 21
578.47308382777123
 31
0.0
  0
LINE
  5
BEE5
  8
0
 62
     0
 10
420.0407437378895
 20
603.11308382777111
 30
0.0
 11
476.79715673788951
 21
603.11308382777111
 31
0.0
  0
LINE
  5
BEE6
  8
0
 62
     0
 10
420.0407437378895
 20
602.62308382777121
 30
0.0
 11
475.0371567378894
 21
602.62308382777121
 31
0.0
  0
LINE
  5
BEE7
  8
0
 62
     0
 10
420.08537773788942
 20
601.02308382777119
 30
0.0
 11
475.0371567378894
 21
601.02308382777119
 31
0.0
  0
LINE
  5
BEE8
  8
0
 62
     0
 10
420.09973573788938
 20
600.47308382777123
 30
0.0
 11
476.79715673788951
 21
600.47308382777123
 31
0.0
  0
LINE
  5
BEE9
  8
0
 62
     0
 10
420.25591673788921
 20
592.11308382777111
 30
0.0
 11
476.79715673788951
 21
592.11308382777111
 31
0.0
  0
LINE
  5
BEEA
  8
0
 62
     0
 10
420.26145973788948
 20
591.62308382777098
 30
0.0
 11
475.0371567378894
 21
591.62308382777098
 31
0.0
  0
LINE
  5
BEEB
  8
0
 62
     0
 10
478.79715673788951
 20
497.29308382777111
 30
0.0
 11
478.79715673788951
 21
523.10380482777123
 31
0.0
  0
LINE
  5
BEEC
  8
0
 62
     0
 10
476.22616773788923
 20
497.29308382777111
 30
0.0
 11
478.79715673788951
 21
497.29308382777111
 31
0.0
  0
LINE
  5
BEED
  8
0
 62
     0
 10
476.79715673788951
 20
645.15308382777118
 30
0.0
 11
475.0371567378894
 21
644.59308382777101
 31
0.0
  0
LINE
  5
BEEE
  8
0
 62
     0
 10
475.0371567378894
 20
642.99308382777122
 30
0.0
 11
476.79715673788951
 21
642.45308382777125
 31
0.0
  0
LINE
  5
BEEF
  8
0
 62
     0
 10
476.79715673788951
 20
642.45308382777125
 30
0.0
 11
476.79715673788951
 21
645.15308382777118
 31
0.0
  0
LINE
  5
BEF0
  8
0
 62
     0
 10
475.0371567378894
 20
642.99308382777122
 30
0.0
 11
475.0371567378894
 21
644.59308382777101
 31
0.0
  0
LINE
  5
BEF1
  8
0
 62
     0
 10
476.79715673788951
 20
637.10808382777122
 30
0.0
 11
475.0371567378894
 21
636.56808382777115
 31
0.0
  0
LINE
  5
BEF2
  8
0
 62
     0
 10
475.0371567378894
 20
634.96808382777112
 30
0.0
 11
476.79715673788951
 21
634.47808382777112
 31
0.0
  0
LINE
  5
BEF3
  8
0
 62
     0
 10
475.0371567378894
 20
634.96808382777112
 30
0.0
 11
475.0371567378894
 21
636.56808382777115
 31
0.0
  0
LINE
  5
BEF4
  8
0
 62
     0
 10
476.79715673788951
 20
634.47808382777112
 30
0.0
 11
476.79715673788951
 21
637.10808382777122
 31
0.0
  0
LINE
  5
BEF5
  8
0
 62
     0
 10
411.79715673788922
 20
645.41727082777106
 30
0.0
 11
410.17524773788938
 21
662.48301382777117
 31
0.0
  0
LINE
  5
BEF6
  8
0
 62
     0
 10
411.79715673788922
 20
651.95820682777128
 30
0.0
 11
410.17663373788952
 21
668.48957482777098
 31
0.0
  0
LINE
  5
BEF7
  8
0
 62
     0
 10
279.06183573788951
 20
659.13055882777121
 30
0.0
 11
277.79715673788951
 21
659.13055882777121
 31
0.0
  0
LINE
  5
BEF8
  8
0
 62
     0
 10
277.79715673788951
 20
645.15308382777118
 30
0.0
 11
279.5571567378895
 21
644.59308382777101
 31
0.0
  0
LINE
  5
BEF9
  8
0
 62
     0
 10
279.5571567378895
 20
642.99308382777122
 30
0.0
 11
277.79715673788951
 21
642.45308382777125
 31
0.0
  0
LINE
  5
BEFA
  8
0
 62
     0
 10
277.79715673788951
 20
637.10808382777122
 30
0.0
 11
279.5571567378895
 21
636.56808382777115
 31
0.0
  0
LINE
  5
BEFB
  8
0
 62
     0
 10
279.5571567378895
 20
634.96808382777112
 30
0.0
 11
277.79715673788951
 21
634.47808382777112
 31
0.0
  0
LINE
  5
BEFC
  8
0
 62
     0
 10
277.79715673788951
 20
642.45308382777125
 30
0.0
 11
277.79715673788951
 21
645.15308382777118
 31
0.0
  0
LINE
  5
BEFD
  8
0
 62
     0
 10
279.5571567378895
 20
642.99308382777122
 30
0.0
 11
279.5571567378895
 21
644.59308382777101
 31
0.0
  0
LINE
  5
BEFE
  8
0
 62
     0
 10
279.5571567378895
 20
634.96808382777112
 30
0.0
 11
279.5571567378895
 21
636.56808382777115
 31
0.0
  0
LINE
  5
BEFF
  8
0
 62
     0
 10
277.79715673788951
 20
634.47808382777112
 30
0.0
 11
277.79715673788951
 21
637.10808382777122
 31
0.0
  0
LINE
  5
BF00
  8
0
 62
     0
 10
277.79715673788951
 20
624.01251882777115
 30
0.0
 11
330.56064373788962
 21
624.01251882777115
 31
0.0
  0
LINE
  5
BF01
  8
0
 62
     0
 10
286.16715673788951
 20
623.16074582777128
 30
0.0
 11
330.5059137378895
 21
623.16074582777128
 31
0.0
  0
LINE
  5
BF02
  8
0
 62
     0
 10
277.79715673788951
 20
624.01251882777115
 30
0.0
 11
286.16715673788951
 21
623.16074582777128
 31
0.0
  0
LINE
  5
BF03
  8
0
 62
     0
 10
284.47226273788942
 20
546.57364882777119
 30
0.0
 11
330.53244773788958
 21
546.57364882777119
 31
0.0
  0
LINE
  5
BF04
  8
0
 62
     0
 10
286.16715673788951
 20
547.42542182777106
 30
0.0
 11
330.47834073788948
 21
547.42542182777106
 31
0.0
  0
LINE
  5
BF05
  8
0
 62
     0
 10
277.79715673788951
 20
550.93429482777105
 30
0.0
 11
277.79715673788951
 21
624.01251882777115
 31
0.0
  0
LINE
  5
BF06
  8
0
 62
     0
 10
277.79715673788951
 20
550.93429482777105
 30
0.0
 11
283.26033273788948
 21
547.12960882777111
 31
0.0
  0
LINE
  5
BF07
  8
0
 62
     0
 10
283.26033273788948
 20
547.12960882777111
 30
0.0
 11
284.47226273788942
 21
546.57364882777119
 31
0.0
  0
LINE
  5
BF08
  8
0
 62
     0
 10
283.26033273788948
 20
547.12960882777111
 30
0.0
 11
286.16715673788951
 21
547.42542182777106
 31
0.0
  0
LINE
  5
BF09
  8
0
 62
     0
 10
286.16715673788951
 20
547.42542182777106
 30
0.0
 11
286.16715673788951
 21
623.16074582777128
 31
0.0
  0
LINE
  5
BF0A
  8
0
 62
     0
 10
274.29715673788951
 20
668.91338082777122
 30
0.0
 11
278.07391573788948
 21
668.91338082777122
 31
0.0
  0
LINE
  5
BF0B
  8
0
 62
     0
 10
363.79715673788951
 20
686.29308382777106
 30
0.0
 11
385.79715673788951
 21
686.29308382777106
 31
0.0
  0
LINE
  5
BF0C
  8
0
 62
     0
 10
363.79715673788951
 20
686.29308382777106
 30
0.0
 11
363.79715673788951
 21
682.38980282777106
 31
0.0
  0
LINE
  5
BF0D
  8
0
 62
     0
 10
385.79715673788951
 20
686.29308382777106
 30
0.0
 11
385.79715673788951
 21
682.38980282777106
 31
0.0
  0
LINE
  5
BF0E
  8
0
 62
     0
 10
279.5571567378895
 20
642.99308382777122
 30
0.0
 11
475.0371567378894
 21
642.99308382777122
 31
0.0
  0
LINE
  5
BF0F
  8
0
 62
     0
 10
279.5571567378895
 20
644.59308382777101
 30
0.0
 11
475.0371567378894
 21
644.59308382777101
 31
0.0
  0
LINE
  5
BF10
  8
0
 62
     0
 10
277.79715673788951
 20
642.45308382777125
 30
0.0
 11
476.79715673788951
 21
642.45308382777125
 31
0.0
  0
LINE
  5
BF11
  8
0
 62
     0
 10
277.79715673788951
 20
645.15308382777118
 30
0.0
 11
476.79715673788951
 21
645.15308382777118
 31
0.0
  0
LINE
  5
BF12
  8
0
 62
     0
 10
277.79715673788951
 20
634.47808382777112
 30
0.0
 11
331.64882373788947
 21
634.47808382777112
 31
0.0
  0
LINE
  5
BF13
  8
0
 62
     0
 10
277.79715673788951
 20
637.10808382777122
 30
0.0
 11
333.65877273788948
 21
637.10808382777122
 31
0.0
  0
LINE
  5
BF14
  8
0
 62
     0
 10
279.5571567378895
 20
634.96808382777112
 30
0.0
 11
331.87958073788963
 21
634.96808382777112
 31
0.0
  0
LINE
  5
BF15
  8
0
 62
     0
 10
279.5571567378895
 20
636.56808382777115
 30
0.0
 11
333.05098273788951
 21
636.56808382777115
 31
0.0
  0
LINE
  5
BF16
  8
0
 62
     0
 10
481.7971567378894
 20
500.29308382777123
 30
0.0
 11
478.79715673788951
 21
497.29308382777111
 31
0.0
  0
LINE
  5
BF17
  8
0
 62
     0
 10
481.7971567378894
 20
500.29308382777123
 30
0.0
 11
481.7971567378894
 21
670.29308382777106
 31
0.0
  0
LINE
  5
BF18
  8
0
 62
     0
 10
481.7971567378894
 20
670.29308382777106
 30
0.0
 11
478.79715673788951
 21
673.29308382777106
 31
0.0
  0
LINE
  5
BF83
  8
0
 62
     0
 10
203.29715673788951
 20
484.09308382777118
 30
0.0
 11
274.29715673788951
 21
484.09308382777118
 31
0.0
  0
LINE
  5
BFE3
  8
0
  6
AM_ISO08W050
 62
     0
 10
562.0322810294814
 20
585.29308382777106
 30
0.0
 11
184.5331567378895
 21
585.29308382777106
 31
0.0
1001
GENIUS_GENOBJ-N-CEN_13
1002
{
1000
OWNER
1000
GEN
1002
}
1001
GENIUS_GENODEF_13
1002
{
1000
HIER
1070
     0
1002
}
1002
{
1000
MANEDIT
1070
     0
1002
}
1002
{
1000
NOSEL
1070
     0
1002
}
1002
{
1000
BEHIND
1070
     0
1002
}
1002
{
1000
OTHER
1070
     0
1002
}
1002
{
1000
REACTOR
1002
}
1001
GENIUS_GENCEN_19
1002
{
1040
16.763999999999999
1002
}
  0
LINE
  5
C5B2
  8
0
  6
AM_ISO08W050
 62
     0
 10
175.57929226955051
 20
1006.679917372477
 30
0.0
 11
795.91440673788884
 21
1006.679917372477
 31
0.0
  0
LINE
  5
C5B3
  8
0
  6
CONTINUOUS
 62
     0
 10
481.7971567378886
 20
1090.679857372478
 30
0.0
 11
495.47165673788868
 21
1091.1573873724781
 31
0.0
  0
LINE
  5
C5B4
  8
0
  6
CONTINUOUS
 62
     0
 10
481.7971567378886
 20
922.67985737247727
 30
0.0
 11
495.47165673788868
 21
922.20231737247821
 31
0.0
  0
LINE
  5
C5B5
  8
0
  6
CONTINUOUS
 62
     0
 10
481.79721673788868
 20
922.67985737247727
 30
0.0
 11
481.79721673788868
 21
1090.6799173724769
 31
0.0
  0
LINE
  5
C5B6
  8
0
  6
CONTINUOUS
 62
     0
 10
697.29721673788879
 20
1036.6799173724769
 30
0.0
 11
703.29715673788894
 21
1036.6799173724769
 31
0.0
  0
LINE
  5
C5B7
  8
0
  6
CONTINUOUS
 62
     0
 10
697.29721673788879
 20
976.67991737247746
 30
0.0
 11
703.29715673788894
 21
976.67991737247746
 31
0.0
  0
LINE
  5
C5B8
  8
0
  6
CONTINUOUS
 62
     0
 10
723.29715673788894
 20
1014.679917372477
 30
0.0
 11
723.29715673788894
 21
998.67985737247784
 31
0.0
  0
LINE
  5
C5B9
  8
0
  6
CONTINUOUS
 62
     0
 10
703.29715673788894
 20
979.17991737247769
 30
0.0
 11
785.2971567378886
 21
979.17991737247769
 31
0.0
  0
LINE
  5
C5BA
  8
0
  6
CONTINUOUS
 62
     0
 10
785.2971567378886
 20
1034.1799173724769
 30
0.0
 11
785.2971567378886
 21
979.17991737247769
 31
0.0
  0
LINE
  5
C5BB
  8
0
  6
CONTINUOUS
 62
     0
 10
703.29715673788894
 20
1036.6799173724769
 30
0.0
 11
703.29715673788894
 21
976.67991737247746
 31
0.0
  0
LINE
  5
C5BC
  8
0
  6
CONTINUOUS
 62
     0
 10
703.29715673788894
 20
1034.1799173724769
 30
0.0
 11
785.2971567378886
 21
1034.1799173724769
 31
0.0
  0
LINE
  5
C5BD
  8
0
  6
CONTINUOUS
 62
     0
 10
632.2972167378889
 20
1163.813337372477
 30
0.0
 11
632.2972167378889
 21
1135.268167372478
 31
0.0
  0
LINE
  5
C5BE
  8
0
  6
CONTINUOUS
 62
     0
 10
550.2972167378889
 20
1139.6799173724769
 30
0.0
 11
575.2972167378889
 21
1138.806927372478
 31
0.0
  0
LINE
  5
C5BF
  8
0
  6
CONTINUOUS
 62
     0
 10
575.2972167378889
 20
1138.8068673724781
 30
0.0
 11
579.44198673788844
 21
1134.6620873724769
 31
0.0
  0
LINE
  5
C5C0
  8
0
  6
CONTINUOUS
 62
     0
 10
579.44192673788871
 20
1134.6620873724769
 30
0.0
 11
629.13717673788869
 21
1132.9266773724769
 31
0.0
  0
LINE
  5
C5C1
  8
0
  6
CONTINUOUS
 62
     0
 10
643.87838673788872
 20
1123.275437372477
 30
0.0
 11
657.57644673788866
 21
1122.797097372478
 31
0.0
  0
LINE
  5
C5C2
  8
0
  6
CONTINUOUS
 62
     0
 10
555.29721673788879
 20
1156.7384473724769
 30
0.0
 11
555.29721673788879
 21
1139.505297372478
 31
0.0
  0
LINE
  5
C5C3
  8
0
  6
CONTINUOUS
 62
     0
 10
673.01803673788868
 20
1106.4102573724781
 30
0.0
 11
684.57638673788836
 21
1106.0066373724769
 31
0.0
  0
LINE
  5
C5C4
  8
0
  6
CENTER
 62
     0
 10
650.17959673788891
 20
1139.1799173724769
 30
0.0
 11
684.62204673788892
 21
1139.1799173724769
 31
0.0
  0
LINE
  5
C5C5
  8
0
  6
CONTINUOUS
 62
     0
 10
550.2972167378889
 20
1139.6799173724769
 30
0.0
 11
550.2972167378889
 21
1011.679917372477
 31
0.0
  0
LINE
  5
C5C6
  8
0
  6
CONTINUOUS
 62
     0
 10
697.29721673788879
 20
1161.892687372477
 30
0.0
 11
697.29721673788879
 21
1111.467087372477
 31
0.0
  0
LINE
  5
C5C7
  8
0
  6
CONTINUOUS
 62
     0
 10
694.22738673788854
 20
1066.787087372478
 30
0.0
 11
695.36703673788895
 21
1066.7472973724771
 31
0.0
  0
LINE
  5
C5C8
  8
0
  6
CONTINUOUS
 62
     0
 10
467.29721673788879
 20
1163.7784273724781
 30
0.0
 11
467.29721673788879
 21
1121.392197372478
 31
0.0
  0
LINE
  5
C5C9
  8
0
  6
CONTINUOUS
 62
     0
 10
697.29721673788879
 20
1064.748517372477
 30
0.0
 11
697.29721673788879
 21
948.61130737247754
 31
0.0
  0
LINE
  5
C5CA
  8
0
  6
CONTINUOUS
 62
     0
 10
692.2972167378889
 20
1104.050887372478
 30
0.0
 11
692.2972167378889
 21
909.30894737247752
 31
0.0
  0
LINE
  5
C5CB
  8
0
  6
CONTINUOUS
 62
     0
 10
471.42898673788858
 20
1116.468117372478
 30
0.0
 11
500.29715673788911
 21
1111.377907372477
 31
0.0
  0
LINE
  5
C5CC
  8
0
  6
CONTINUOUS
 62
     0
 10
555.29721673788879
 20
1171.679857372478
 30
0.0
 11
692.47171673788887
 21
1166.889627372477
 31
0.0
  0
LINE
  5
C5CD
  8
0
  6
CONTINUOUS
 62
     0
 10
555.29721673788879
 20
1171.6799173724769
 30
0.0
 11
472.12265673788841
 21
1168.7753773724769
 31
0.0
  0
LINE
  5
C5CE
  8
0
  6
CENTER
 62
     0
 10
480.24319673788881
 20
1139.1799173724769
 30
0.0
 11
514.52304673788865
 21
1139.1799173724769
 31
0.0
  0
LINE
  5
C5CF
  8
0
  6
CENTER
 62
     0
 10
497.29721673788879
 20
1155.4018973724781
 30
0.0
 11
497.29721673788879
 21
1121.593367372478
 31
0.0
  0
LINE
  5
C5D0
  8
0
  6
CENTER
 62
     0
 10
667.2972167378889
 20
1155.613207372478
 30
0.0
 11
667.2972167378889
 21
1121.170757372478
 31
0.0
  0
LINE
  5
C5D1
  8
0
  6
CONTINUOUS
 62
     0
 10
526.29721673788879
 20
1158.5065773724771
 30
0.0
 11
553.29727673788875
 21
1148.960187372478
 31
0.0
  0
LINE
  5
C5D2
  8
0
  6
CONTINUOUS
 62
     0
 10
522.83340673788871
 20
1170.337937372477
 30
0.0
 11
553.2972167378889
 21
1159.5668773724781
 31
0.0
  0
LINE
  5
C5D3
  8
0
  6
CENTER
 62
     0
 10
667.2972167378889
 20
857.48734737247821
 30
0.0
 11
667.2972167378889
 21
890.23606737247815
 31
0.0
  0
LINE
  5
C5D4
  8
0
  6
CENTER
 62
     0
 10
497.29721673788879
 20
857.48734737247821
 30
0.0
 11
497.29721673788879
 21
890.94797737247768
 31
0.0
  0
LINE
  5
C5D5
  8
0
  6
CENTER
 62
     0
 10
481.25094673788891
 20
874.17991737247814
 30
0.0
 11
514.23697673788865
 21
874.17991737247814
 31
0.0
  0
LINE
  5
C5D6
  8
0
  6
CONTINUOUS
 62
     0
 10
555.29721673788879
 20
841.67991737247769
 30
0.0
 11
472.12265673788841
 21
844.58439737247795
 31
0.0
  0
LINE
  5
C5D7
  8
0
  6
CONTINUOUS
 62
     0
 10
555.29715673788905
 20
841.67991737247769
 30
0.0
 11
692.47171673788887
 21
846.47013737247823
 31
0.0
  0
LINE
  5
C5D8
  8
0
  6
CONTINUOUS
 62
     0
 10
471.42898673788858
 20
896.89164737247745
 30
0.0
 11
500.29715673788911
 21
901.9819173724776
 31
0.0
  0
LINE
  5
C5D9
  8
0
  6
CONTINUOUS
 62
     0
 10
467.29721673788879
 20
849.58140737247743
 30
0.0
 11
467.29721673788879
 21
891.96763737247784
 31
0.0
  0
LINE
  5
C5DA
  8
0
  6
CONTINUOUS
 62
     0
 10
694.22738673788854
 20
946.57267737247753
 30
0.0
 11
695.36703673788895
 21
946.61246737247757
 31
0.0
  0
LINE
  5
C5DB
  8
0
  6
CONTINUOUS
 62
     0
 10
697.29721673788879
 20
851.46708737247775
 30
0.0
 11
697.29721673788879
 21
901.89268737247812
 31
0.0
  0
LINE
  5
C5DC
  8
0
  6
CENTER
 62
     0
 10
651.16464673788869
 20
874.17991737247814
 30
0.0
 11
684.38797673788861
 21
874.17991737247814
 31
0.0
  0
LINE
  5
C5DD
  8
0
  6
CONTINUOUS
 62
     0
 10
665.2972167378889
 20
898.55778737247772
 30
0.0
 11
665.2972167378889
 21
1114.801987372477
 31
0.0
  0
LINE
  5
C5DE
  8
0
  6
CONTINUOUS
 62
     0
 10
673.01803673788868
 20
906.94956737247753
 30
0.0
 11
684.57638673788836
 21
907.35319737247789
 31
0.0
  0
LINE
  5
C5DF
  8
0
  6
CONTINUOUS
 62
     0
 10
643.87838673788872
 20
890.08433737247753
 30
0.0
 11
657.5763867378887
 21
890.56272737247775
 31
0.0
  0
LINE
  5
C5E0
  8
0
  6
CONTINUOUS
 62
     0
 10
579.44192673788871
 20
878.69761737247768
 30
0.0
 11
629.13717673788869
 21
880.43302737247757
 31
0.0
  0
LINE
  5
C5E1
  8
0
  6
CONTINUOUS
 62
     0
 10
575.2972167378889
 20
874.55289737247745
 30
0.0
 11
579.44198673788844
 21
878.69767737247776
 31
0.0
  0
LINE
  5
C5E2
  8
0
  6
CONTINUOUS
 62
     0
 10
550.29715673788905
 20
873.67985737247784
 30
0.0
 11
575.2972167378889
 21
874.55289737247745
 31
0.0
  0
LINE
  5
C5E3
  8
0
  6
CONTINUOUS
 62
     0
 10
522.83352673788875
 20
843.02189737247795
 30
0.0
 11
553.2972167378889
 21
853.79294737247756
 31
0.0
  0
LINE
  5
C5E4
  8
0
  6
CONTINUOUS
 62
     0
 10
526.29721673788879
 20
854.85319737247835
 30
0.0
 11
553.29727673788875
 21
864.39957737247755
 31
0.0
  0
LINE
  5
C5E5
  8
0
  6
CONTINUOUS
 62
     0
 10
555.29721673788879
 20
856.62131737247773
 30
0.0
 11
555.29721673788879
 21
873.8544773724775
 31
0.0
  0
LINE
  5
C5E6
  8
0
  6
CONTINUOUS
 62
     0
 10
632.2972167378889
 20
849.54642737247775
 30
0.0
 11
632.2972167378889
 21
878.0916573724777
 31
0.0
  0
LINE
  5
C5E7
  8
0
  6
CONTINUOUS
 62
     0
 10
575.29715673788905
 20
874.55289737247745
 30
0.0
 11
575.29715673788905
 21
1138.8068673724781
 31
0.0
  0
LINE
  5
C5E8
  8
0
  6
CONTINUOUS
 62
     0
 10
723.2972167378889
 20
998.67985737247784
 30
0.0
 11
785.2971567378886
 21
998.67985737247784
 31
0.0
  0
LINE
  5
C5E9
  8
0
  6
CONTINUOUS
 62
     0
 10
723.2972167378889
 20
1014.679917372477
 30
0.0
 11
785.2971567378886
 21
1014.679917372477
 31
0.0
  0
LINE
  5
C5EA
  8
0
  6
CONTINUOUS
 62
     0
 10
550.2972167378889
 20
873.67991737247814
 30
0.0
 11
525.12271673788882
 21
874.5590673724779
 31
0.0
  0
LINE
  5
C5EB
  8
0
  6
CONTINUOUS
 62
     0
 10
550.29715673788905
 20
1139.679857372478
 30
0.0
 11
525.12265673788852
 21
1138.800767372478
 31
0.0
  0
LINE
  5
C5EC
  8
0
  6
CONTINUOUS
 62
     0
 10
515.47165673788845
 20
1118.4939373724781
 30
0.0
 11
505.1226567378888
 21
1118.132547372478
 31
0.0
  0
LINE
  5
C5ED
  8
0
  6
CONTINUOUS
 62
     0
 10
515.47171673788898
 20
894.86588737247769
 30
0.0
 11
505.1226567378888
 21
895.22727737247772
 31
0.0
  0
LINE
  5
C5EE
  8
0
  6
CONTINUOUS
 62
     0
 10
500.29715673788911
 20
900.22422737247746
 30
0.0
 11
500.29715673788911
 21
1113.135607372478
 31
0.0
  0
LINE
  5
C5EF
  8
0
  6
CENTER
 62
     0
 10
532.2972167378889
 20
991.49961737247816
 30
0.0
 11
532.2972167378889
 21
1021.234477372478
 31
0.0
  0
LINE
  5
C5F0
  8
0
  6
CONTINUOUS
 62
     0
 10
512.2972167378889
 20
1001.679917372477
 30
0.0
 11
552.29721673788856
 21
1001.679917372477
 31
0.0
  0
LINE
  5
C5F1
  8
0
  6
CONTINUOUS
 62
     0
 10
512.2972167378889
 20
1011.679917372477
 30
0.0
 11
552.29721673788856
 21
1011.679917372477
 31
0.0
  0
LINE
  5
C5F2
  8
0
  6
CONTINUOUS
 62
     0
 10
550.2972167378889
 20
1001.679917372477
 30
0.0
 11
550.2972167378889
 21
873.67991737247814
 31
0.0
  0
LINE
  5
C5F3
  8
0
  6
CONTINUOUS
 62
     0
 10
520.29715673788905
 20
879.55601737247775
 30
0.0
 11
520.29715673788905
 21
996.14432737247773
 31
0.0
  0
LINE
  5
C5FD
  8
0
  6
CONTINUOUS
 62
     0
 10
520.29715673788905
 20
1017.215437372477
 30
0.0
 11
520.29715673788905
 21
1133.803817372476
 31
0.0
  0
ARC
  5
C5FE
  8
0
  6
CONTINUOUS
 62
     0
 10
657.2972167378889
 20
1114.801987372477
 30
0.0
 40
8.0
 50
0.0
 51
87.999999999996248
  0
ARC
  5
C5FF
  8
0
  6
CONTINUOUS
 62
     0
 10
673.2972167378889
 20
1114.405377372477
 30
0.0
 40
8.0
 50
180.00001000000091
 51
267.99999999999608
  0
ARC
  5
C600
  8
0
  6
CONTINUOUS
 62
     0
 10
525.2972167378889
 20
1155.678147372477
 30
0.0
 40
3.0
 50
70.527973000001808
 51
180.00001000000091
  0
ARC
  5
C601
  8
0
  6
CONTINUOUS
 62
     0
 10
684.2972167378889
 20
1098.0115173724771
 30
0.0
 40
8.0
 50
0.0
 51
87.999999999996248
  0
ARC
  5
C602
  8
0
  6
CONTINUOUS
 62
     0
 10
637.2972167378889
 20
1163.813337372477
 30
0.0
 40
5.0
 50
87.999999999996248
 51
180.00001000000091
  0
CIRCLE
  5
C603
  8
0
  6
CONTINUOUS
 62
     0
 10
497.29721673788879
 20
1139.1799173724769
 30
0.0
 40
9.5
  0
ARC
  5
C604
  8
0
  6
CONTINUOUS
 62
     0
 10
695.2972167378889
 20
1064.748517372477
 30
0.0
 40
2.0
 50
0.0
 51
87.999999999996248
  0
ARC
  5
C605
  8
0
  6
CONTINUOUS
 62
     0
 10
694.2972167378889
 20
1068.785867372477
 30
0.0
 40
2.0
 50
180.00001000000091
 51
267.99999999999608
  0
ARC
  5
C606
  8
0
  6
CONTINUOUS
 62
     0
 10
472.29721673788879
 20
1163.7784273724781
 30
0.0
 40
5.0
 50
91.999997999994051
 51
180.00001000000091
  0
ARC
  5
C607
  8
0
  6
CONTINUOUS
 62
     0
 10
692.2972167378889
 20
1161.892687372477
 30
0.0
 40
5.0
 50
0.0
 51
87.999999999996248
  0
ARC
  5
C608
  8
0
  6
CONTINUOUS
 62
     0
 10
692.2972167378889
 20
1111.467087372477
 30
0.0
 40
5.0
 50
292.0243100000078
 51
0.0
  0
ARC
  5
C609
  8
0
  6
CONTINUOUS
 62
     0
 10
472.29721673788879
 20
1121.392197372478
 30
0.0
 40
5.0
 50
180.00001000000091
 51
259.99998999999877
  0
CIRCLE
  5
C60A
  8
0
  6
CONTINUOUS
 62
     0
 10
667.2972167378889
 20
1139.1799173724769
 30
0.0
 40
9.5
  0
ARC
  5
C60B
  8
0
  6
CONTINUOUS
 62
     0
 10
552.29721673788856
 20
1146.131757372478
 30
0.0
 40
3.0
 50
0.0
 51
70.527973000001808
  0
ARC
  5
C60C
  8
0
  6
CONTINUOUS
 62
     0
 10
552.29721673788856
 20
1156.7384473724769
 30
0.0
 40
3.0
 50
0.0
 51
70.527973000001808
  0
CIRCLE
  5
C60D
  8
0
  6
CONTINUOUS
 62
     0
 10
667.2972167378889
 20
874.17991737247814
 30
0.0
 40
9.5
  0
ARC
  5
C60E
  8
0
  6
CONTINUOUS
 62
     0
 10
472.29721673788879
 20
891.96763737247784
 30
0.0
 40
5.0
 50
100.000000000005
 51
180.00001000000091
  0
ARC
  5
C60F
  8
0
  6
CONTINUOUS
 62
     0
 10
692.2972167378889
 20
901.89268737247812
 30
0.0
 40
5.0
 50
0.0
 51
67.975689000004877
  0
ARC
  5
C610
  8
0
  6
CONTINUOUS
 62
     0
 10
692.2972167378889
 20
851.46708737247775
 30
0.0
 40
5.0
 50
272.00000000000369
 51
0.0
  0
ARC
  5
C611
  8
0
  6
CONTINUOUS
 62
     0
 10
472.29721673788879
 20
849.58140737247743
 30
0.0
 40
5.0
 50
180.00001000000091
 51
267.99999999999608
  0
ARC
  5
C612
  8
0
  6
CONTINUOUS
 62
     0
 10
694.2972167378889
 20
944.57395737247725
 30
0.0
 40
2.0
 50
91.999997999994051
 51
180.00001000000091
  0
ARC
  5
C613
  8
0
  6
CONTINUOUS
 62
     0
 10
695.2972167378889
 20
948.61130737247754
 30
0.0
 40
2.0
 50
272.00000000000369
 51
0.0
  0
CIRCLE
  5
C614
  8
0
  6
CONTINUOUS
 62
     0
 10
497.29721673788879
 20
874.17991737247814
 30
0.0
 40
9.5
  0
ARC
  5
C615
  8
0
  6
CONTINUOUS
 62
     0
 10
695.2972167378889
 20
1104.050887372478
 30
0.0
 40
3.0
 50
112.0243100000078
 51
180.00001000000091
  0
ARC
  5
C616
  8
0
  6
CONTINUOUS
 62
     0
 10
695.2972167378889
 20
909.30894737247752
 30
0.0
 40
3.0
 50
180.00001000000091
 51
247.9756899999922
  0
ARC
  5
C617
  8
0
  6
CONTINUOUS
 62
     0
 10
684.2972167378889
 20
915.348247372478
 30
0.0
 40
8.0
 50
272.00000000000369
 51
0.0
  0
ARC
  5
C618
  8
0
  6
CONTINUOUS
 62
     0
 10
673.2972167378889
 20
898.95438737247753
 30
0.0
 40
8.0
 50
91.999997999994051
 51
180.00001000000091
  0
ARC
  5
C619
  8
0
  6
CONTINUOUS
 62
     0
 10
657.2972167378889
 20
898.55778737247772
 30
0.0
 40
8.0
 50
272.00000000000369
 51
0.0
  0
ARC
  5
C61A
  8
0
  6
CONTINUOUS
 62
     0
 10
552.29721673788856
 20
856.62131737247773
 30
0.0
 40
3.0
 50
289.47202000000192
 51
0.0
  0
ARC
  5
C61B
  8
0
  6
CONTINUOUS
 62
     0
 10
552.29721673788856
 20
867.22800737247758
 30
0.0
 40
3.0
 50
289.47202000000192
 51
0.0
  0
ARC
  5
C61C
  8
0
  6
CONTINUOUS
 62
     0
 10
637.2972167378889
 20
849.54642737247775
 30
0.0
 40
5.0
 50
180.00001000000091
 51
271.99999000000798
  0
ARC
  5
C61D
  8
0
  6
CONTINUOUS
 62
     0
 10
525.2972167378889
 20
857.68162737247769
 30
0.0
 40
3.0
 50
180.00001000000091
 51
289.47202999999718
  0
ARC
  5
C61E
  8
0
  6
CONTINUOUS
 62
     0
 10
644.2972167378889
 20
1135.268167372478
 30
0.0
 40
12.0
 50
180.00001000000091
 51
267.99999999999608
  0
ARC
  5
C61F
  8
0
  6
CONTINUOUS
 62
     0
 10
628.96261673788865
 20
1127.9297873724779
 30
0.0
 40
5.0
 50
25.573517000004369
 51
87.999999999996248
  0
ARC
  5
C620
  8
0
  6
CONTINUOUS
 62
     0
 10
644.2972167378889
 20
878.0916573724777
 30
0.0
 40
12.0
 50
91.999997999994051
 51
180.00001000000091
  0
ARC
  5
C621
  8
0
  6
CONTINUOUS
 62
     0
 10
628.96261673788865
 20
885.43003737247795
 30
0.0
 40
5.0
 50
272.00000000000369
 51
334.4264800000031
  0
ARC
  5
C622
  8
0
  6
CONTINUOUS
 62
     0
 10
723.2972167378889
 20
1006.679857372478
 30
0.0
 40
8.0000113999999982
 50
90.000002999984659
 51
270.0
  0
ARC
  5
C623
  8
0
  6
CONTINUOUS
 62
     0
 10
505.29715673788888
 20
900.22422737247746
 30
0.0
 40
5.0
 50
180.00001000000091
 51
267.99999999999608
  0
ARC
  5
C624
  8
0
  6
CONTINUOUS
 62
     0
 10
505.29715673788888
 20
1113.135607372478
 30
0.0
 40
5.0
 50
91.999997999994051
 51
180.00001000000091
  0
ARC
  5
C625
  8
0
  6
CONTINUOUS
 62
     0
 10
532.2972167378889
 20
1006.679917372477
 30
0.0
 40
15.0
 50
148.21197999999171
 51
160.5287699999993
  0
ARC
  5
C626
  8
0
  6
CONTINUOUS
 62
     0
 10
532.2972167378889
 20
1006.679917372477
 30
0.0
 40
12.5
 50
23.578179999997541
 51
156.42182000000241
  0
ARC
  5
C627
  8
0
  6
CONTINUOUS
 62
     0
 10
512.2972167378889
 20
1006.679917372477
 30
0.0
 40
5.0
 50
90.000002999984659
 51
270.0
  0
ARC
  5
C628
  8
0
  6
CONTINUOUS
 62
     0
 10
552.29721673788856
 20
1006.679917372477
 30
0.0
 40
5.0
 50
270.0
 51
90.000002999984659
  0
ARC
  5
C629
  8
0
  6
CONTINUOUS
 62
     0
 10
532.2972167378889
 20
1006.679917372477
 30
0.0
 40
12.5
 50
203.57817999999739
 51
336.42182999999483
  0
ARC
  5
C62A
  8
0
  6
CONTINUOUS
 62
     0
 10
532.2972167378889
 20
1006.679917372477
 30
0.0
 40
15.0
 50
199.4712300000007
 51
211.78802000000829
  0
ARC
  5
C62B
  8
0
  6
CONTINUOUS
 62
     0
 10
525.29715673788905
 20
879.55601737247775
 30
0.0
 40
5.0
 50
180.00001000000091
 51
267.99999999999608
  0
ARC
  5
C62C
  8
0
  6
CONTINUOUS
 62
     0
 10
525.29715673788905
 20
1133.803817372476
 30
0.0
 40
5.0
 50
91.999997999994051
 51
180.00001000000091
  0
ARC
  5
C62D
  8
0
  6
CONTINUOUS
 62
     0
 10
495.297156737889
 20
917.20536737247824
 30
0.0
 40
5.0
 50
0.0
 51
87.999999999996248
  0
ARC
  5
C62E
  8
0
  6
CONTINUOUS
 62
     0
 10
495.297156737889
 20
1096.154397372477
 30
0.0
 40
5.0
 50
272.00000000000369
 51
0.0
  0
ARC
  5
C62F
  8
0
  6
CONTINUOUS
 62
     0
 10
515.29715673788905
 20
1123.4908873724769
 30
0.0
 40
5.0
 50
272.00000000000369
 51
0.0
  0
ARC
  5
C630
  8
0
  6
CONTINUOUS
 62
     0
 10
515.29715673788905
 20
889.86887737247775
 30
0.0
 40
5.0
 50
0.0
 51
87.999999999996248
  0
ARC
  5
C637
  8
0
  6
CONTINUOUS
 62
     0
 10
515.29715673788905
 20
996.14432737247773
 30
0.0
 40
5.0
 50
0.0
 51
31.788018000003131
  0
ARC
  5
C638
  8
0
  6
CONTINUOUS
 62
     0
 10
515.29715673788905
 20
1017.215437372477
 30
0.0
 40
5.0
 50
328.2119799999918
 51
0.0
  0
LINE
  5
C639
  8
0
 62
     0
 10
412.29715573788872
 20
901.67991737247746
 30
0.0
 11
412.29715573788872
 21
904.67991737247758
 31
0.0
  0
LINE
  5
C63A
  8
0
 62
     0
 10
337.29715573788877
 20
901.67991737247746
 30
0.0
 11
337.29715573788877
 21
904.67991737247758
 31
0.0
  0
LINE
  5
C63B
  8
0
 62
     0
 10
411.78115573788853
 20
846.2198373724774
 30
0.0
 11
337.8141157378891
 21
846.2198373724774
 31
0.0
  0
LINE
  5
C63C
  8
0
 62
     0
 10
411.94705573788849
 20
893.49192737247745
 30
0.0
 11
337.40713573788889
 21
893.49192737247745
 31
0.0
  0
LINE
  5
C63D
  8
0
 62
     0
 10
413.34207573788888
 20
896.46092737247795
 30
0.0
 11
336.3520857378889
 21
896.46092737247795
 31
0.0
  0
LINE
  5
C63E
  8
0
 62
     0
 10
413.13308573788879
 20
900.92186737247755
 30
0.0
 11
336.43509573788879
 21
900.92186737247755
 31
0.0
  0
LINE
  5
C63F
  8
0
 62
     0
 10
412.54715573788872
 20
901.67991737247746
 30
0.0
 11
337.03245873788859
 21
901.67991737247746
 31
0.0
  0
LINE
  5
C640
  8
0
 62
     0
 10
337.42715573788882
 20
862.12193737247753
 30
0.0
 11
412.40713573788878
 21
862.12193737247753
 31
0.0
  0
ARC
  5
C641
  8
0
 62
     0
 10
-180.30287426211109
 20
872.09483737247774
 30
0.0
 40
600.59997999999962
 50
357.90661999999458
 51
2.5214029999981382
  0
ARC
  5
C642
  8
0
 62
     0
 10
411.78115573788853
 20
849.81993737247763
 30
0.0
 40
3.6000000000000001
 50
269.99995999999589
 51
355.68894999999969
  0
ARC
  5
C643
  8
0
 62
     0
 10
-180.30287426211109
 20
872.09483737247774
 30
0.0
 40
596.09997999999962
 50
357.83251999999328
 51
1.945678999999225
  0
ARC
  5
C644
  8
0
 62
     0
 10
412.54715573788872
 20
898.0799473724777
 30
0.0
 40
3.6000000000000001
 50
53.340590999997779
 51
89.999989000004106
  0
ARC
  5
C645
  8
0
 62
     0
 10
414.15213573788878
 20
889.01793737247772
 30
0.0
 40
7.4984399999999978
 50
40.106594000003412
 51
96.966986999996834
  0
ARC
  5
C646
  8
0
 62
     0
 10
414.15213573788878
 20
893.48887737247753
 30
0.0
 40
7.4984399999999978
 50
42.0993939999925
 51
96.966986999996834
  0
ARC
  5
C647
  8
0
 62
     0
 10
412.7440457378886
 20
889.78990737247761
 30
0.0
 40
3.7436899999999982
 50
43.772793999996388
 51
98.860984000010404
  0
ARC
  5
C648
  8
0
 62
     0
 10
412.7440457378886
 20
858.4228373724776
 30
0.0
 40
3.7436899999999982
 50
43.772793999996388
 51
98.860984000010404
  0
ARC
  5
C649
  8
0
 62
     0
 10
415.23513573788881
 20
853.51085737247774
 30
0.0
 40
5.7431099999999971
 50
265.1789600000053
 51
324.25095000000579
  0
ARC
  5
C64A
  8
0
 62
     0
 10
929.89709573788855
 20
872.09483737247774
 30
0.0
 40
600.59997999999962
 50
177.4789700000027
 51
182.0929499999929
  0
ARC
  5
C64B
  8
0
 62
     0
 10
337.8141157378891
 20
849.81993737247763
 30
0.0
 40
3.6000000000000001
 50
184.31098
 51
269.99995999999589
  0
ARC
  5
C64C
  8
0
 62
     0
 10
929.89709573788855
 20
872.09483737247774
 30
0.0
 40
596.09997999999962
 50
178.05396999999269
 51
182.16694999999501
  0
ARC
  5
C64D
  8
0
 62
     0
 10
337.04715573788877
 20
898.0799473724777
 30
0.0
 40
3.6000000000000001
 50
89.999989000004106
 51
126.658990000006
  0
ARC
  5
C64E
  8
0
 62
     0
 10
335.4421757378891
 20
889.01793737247772
 30
0.0
 40
7.4984399999999978
 50
83.032990999994595
 51
139.89297999998459
  0
ARC
  5
C64F
  8
0
 62
     0
 10
335.4421757378891
 20
893.48887737247753
 30
0.0
 40
7.4984399999999978
 50
83.032990999994595
 51
137.9009900000047
  0
ARC
  5
C650
  8
0
 62
     0
 10
336.8501257378889
 20
889.78990737247761
 30
0.0
 40
3.7436899999999982
 50
81.138986000010405
 51
136.2269799999992
  0
ARC
  5
C651
  8
0
 62
     0
 10
336.8501257378889
 20
858.4228373724776
 30
0.0
 40
3.7436899999999982
 50
81.138986000010405
 51
136.2269799999992
  0
ARC
  5
C652
  8
0
 62
     0
 10
334.35916573788882
 20
853.51085737247774
 30
0.0
 40
5.7431099999999971
 50
215.7489699999997
 51
274.82095999999279
  0
LINE
  5
C653
  8
0
 62
     0
 10
337.29715573788877
 20
904.67991737247758
 30
0.0
 11
412.29715573788872
 21
904.67991737247758
 31
0.0
  0
ARC
  5
C654
  8
0
 62
     0
 10
203.69721673788899
 20
921.18254337247765
 30
0.0
 40
2.399999999999999
 50
180.0
 51
200.00000000000369
  0
ARC
  5
C655
  8
0
 62
     0
 10
208.29168073788881
 20
908.55935837247785
 30
0.0
 40
2.399999999999999
 50
200.00000000000369
 51
270.0
  0
LINE
  5
C656
  8
0
 62
     0
 10
206.0364177378888
 20
907.73851037247755
 30
0.0
 11
201.44195473788889
 21
920.36169537247747
 31
0.0
  0
LINE
  5
C657
  8
0
 62
     0
 10
274.2972167378889
 20
906.15935837247753
 30
0.0
 11
208.29168073788881
 21
906.15935837247753
 31
0.0
  0
LINE
  5
C658
  8
0
 62
     0
 10
274.2972167378889
 20
1107.200476372476
 30
0.0
 11
274.2972167378889
 21
906.15935837247753
 31
0.0
  0
LINE
  5
C659
  8
0
 62
     0
 10
206.0364177378888
 20
1105.6213243724781
 30
0.0
 11
201.44195473788889
 21
1092.998139372477
 31
0.0
  0
ARC
  5
C65A
  8
0
 62
     0
 10
208.29168073788881
 20
1104.8004763724771
 30
0.0
 40
2.399999999999999
 50
90.0
 51
159.99999999999631
  0
ARC
  5
C65B
  8
0
 62
     0
 10
203.69721673788899
 20
1092.177291372476
 30
0.0
 40
2.399999999999999
 50
159.99999999999631
 51
180.0
  0
LINE
  5
C65C
  8
0
 62
     0
 10
206.61118173788921
 20
1106.5139303724779
 30
0.0
 11
206.61118173788921
 21
906.15935837247753
 31
0.0
  0
LINE
  5
C65D
  8
0
 62
     0
 10
201.2972167378889
 20
1092.177291372476
 30
0.0
 11
201.2972167378889
 21
921.40047637247756
 31
0.0
  0
LINE
  5
C65E
  8
0
 62
     0
 10
274.2972167378889
 20
1107.200476372476
 30
0.0
 11
208.29168073788881
 21
1107.200476372476
 31
0.0
  0
ARC
  5
C65F
  8
0
 62
     0
 10
282.74086073788891
 20
924.27923737247772
 30
0.0
 40
2.0
 50
190.000000000005
 51
270.0
  0
LINE
  5
C660
  8
0
 62
     0
 10
280.77124573788888
 20
923.93194137247747
 30
0.0
 11
277.7972167378889
 21
940.79849537247765
 31
0.0
  0
LINE
  5
C661
  8
0
 62
     0
 10
277.7972167378889
 20
940.79849537247765
 30
0.0
 11
278.85895573788872
 21
940.79849537247765
 31
0.0
  0
LINE
  5
C662
  8
0
 62
     0
 10
476.2613577378886
 20
1092.8522243724781
 30
0.0
 11
476.79721673788868
 21
1092.8522243724781
 31
0.0
  0
LINE
  5
C663
  8
0
 62
     0
 10
476.52174873788891
 20
1094.414481372477
 30
0.0
 11
476.79721673788868
 21
1094.414481372477
 31
0.0
  0
LINE
  5
C664
  8
0
 62
     0
 10
478.4754157378888
 20
918.68006837247765
 30
0.0
 11
478.79721673788879
 21
918.68006837247765
 31
0.0
  0
LINE
  5
C665
  8
0
 62
     0
 10
474.61782173788868
 20
923.52793137247761
 30
0.0
 11
476.79721673788868
 21
923.52793137247761
 31
0.0
  0
LINE
  5
C666
  8
0
 62
     0
 10
475.62390473788901
 20
935.63350137247755
 30
0.0
 11
476.79721673788868
 21
935.63350137247755
 31
0.0
  0
LINE
  5
C667
  8
0
  6
AM_ISO08W050
 62
     0
 10
374.79721673788879
 20
899.02395237247777
 30
0.0
 11
374.79721673788879
 21
908.2056683724777
 31
0.0
  0
ARC
  5
C668
  8
0
 62
     0
 10
473.04009673788852
 20
1095.688165372477
 30
0.0
 40
2.0
 50
10.00000000000502
 51
90.0
  0
ARC
  5
C669
  8
0
 62
     0
 10
473.10611373788879
 20
1099.2289643724771
 30
0.0
 40
2.0
 50
10.00000000000502
 51
90.0
  0
ARC
  5
C66A
  8
0
 62
     0
 10
473.1920317378889
 20
1101.780701372478
 30
0.0
 40
2.0
 50
10.00000000000502
 51
90.0
  0
ARC
  5
C66B
  8
0
 62
     0
 10
473.22078073788862
 20
1103.1799173724769
 30
0.0
 40
2.0
 50
10.00000000000502
 51
90.0
  0
LINE
  5
C66C
  8
0
 62
     0
 10
481.79721973788889
 20
1091.6799173724769
 30
0.0
 11
478.79721973788901
 21
1094.6799173724769
 31
0.0
  0
LINE
  5
C66D
  8
0
 62
     0
 10
476.75041273788872
 20
1094.6799173724769
 30
0.0
 11
478.79721673788879
 21
1094.6799173724769
 31
0.0
  0
LINE
  5
C66E
  8
0
 62
     0
 10
481.79721673788868
 20
921.67991737247758
 30
0.0
 11
478.79721673788879
 21
918.67991737247746
 31
0.0
  0
LINE
  5
C66F
  8
0
  6
CONTINUOUS
 62
     0
 10
478.79721673788879
 20
918.67991737247746
 30
0.0
 11
478.79721673788879
 21
944.30030337247752
 31
0.0
  0
LINE
  5
C670
  8
0
  6
CONTINUOUS
 62
     0
 10
481.79721673788868
 20
921.67991737247758
 30
0.0
 11
481.79721673788868
 21
1091.6799173724769
 31
0.0
  0
CIRCLE
  5
C671
  8
0
 62
     0
 10
374.79721673788879
 20
1006.679917372477
 30
0.0
 40
11.0
  0
LINE
  5
C672
  8
0
 62
     0
 10
282.08333673788883
 20
1105.1799173724769
 30
0.0
 11
333.7972167378889
 21
1105.1799173724769
 31
0.0
  0
LINE
  5
C673
  8
0
 62
     0
 10
413.79721673788879
 20
1097.688165372477
 30
0.0
 11
413.79721673788879
 21
1103.1799173724769
 31
0.0
  0
LINE
  5
C674
  8
0
 62
     0
 10
335.7972167378889
 20
1097.688165372477
 30
0.0
 11
335.7972167378889
 21
1103.1799173724769
 31
0.0
  0
ARC
  5
C675
  8
0
 62
     0
 10
333.7972167378889
 20
1103.1799173724769
 30
0.0
 40
2.0
 50
0.0
 51
90.0
  0
ARC
  5
C676
  8
0
 62
     0
 10
415.79721673788868
 20
1103.1799173724769
 30
0.0
 40
2.0
 50
90.0
 51
180.0
  0
LINE
  5
C677
  8
0
 62
     0
 10
415.79721673788868
 20
1105.1799173724769
 30
0.0
 11
473.22078073788862
 21
1105.1799173724769
 31
0.0
  0
LINE
  5
C678
  8
0
 62
     0
 10
473.1920317378889
 20
1103.780701372478
 30
0.0
 11
415.79721673788868
 21
1103.780701372478
 31
0.0
  0
LINE
  5
C679
  8
0
 62
     0
 10
476.79721673788868
 20
1092.8522243724781
 30
0.0
 11
475.16164773788859
 21
1102.1279973724779
 31
0.0
  0
LINE
  5
C67A
  8
0
 62
     0
 10
476.79721673788868
 20
1094.414481372477
 30
0.0
 11
475.19039573788888
 21
1103.527213372477
 31
0.0
  0
LINE
  5
C67B
  8
0
 62
     0
 10
277.7972167378889
 20
1090.3896633724769
 30
0.0
 11
280.11372173788868
 21
1103.527213372477
 31
0.0
  0
ARC
  5
C67C
  8
0
 62
     0
 10
282.08333673788883
 20
1103.1799173724769
 30
0.0
 40
2.0
 50
90.0
 51
169.99999999999491
  0
LINE
  5
C67D
  8
0
 62
     0
 10
277.7972167378889
 20
1088.730602372478
 30
0.0
 11
280.15953873788879
 21
1102.1279973724779
 31
0.0
  0
ARC
  5
C67E
  8
0
 62
     0
 10
282.12915473788911
 20
1101.780701372478
 30
0.0
 40
2.0
 50
90.0
 51
169.99999999999491
  0
ARC
  5
C67F
  8
0
 62
     0
 10
333.7972167378889
 20
1101.780701372478
 30
0.0
 40
2.0
 50
0.0
 51
90.0
  0
ARC
  5
C680
  8
0
 62
     0
 10
415.79721673788868
 20
1101.780701372478
 30
0.0
 40
2.0
 50
90.0
 51
180.0
  0
LINE
  5
C681
  8
0
 62
     0
 10
333.7972167378889
 20
1103.780701372478
 30
0.0
 11
282.12915473788911
 21
1103.780701372478
 31
0.0
  0
LINE
  5
C682
  8
0
 62
     0
 10
473.10611373788879
 20
1101.2289643724771
 30
0.0
 11
415.79721673788868
 21
1101.2289643724771
 31
0.0
  0
LINE
  5
C683
  8
0
 62
     0
 10
476.66843673788873
 20
1090.543566372477
 30
0.0
 11
475.07572873788871
 21
1099.576261372478
 31
0.0
  0
LINE
  5
C684
  8
0
 62
     0
 10
277.7972167378889
 20
1085.5098113724771
 30
0.0
 11
280.2775117378892
 21
1099.576261372478
 31
0.0
  0
ARC
  5
C685
  8
0
 62
     0
 10
282.24712673788878
 20
1099.2289643724771
 30
0.0
 40
2.0
 50
90.0
 51
169.99999999999491
  0
ARC
  5
C686
  8
0
 62
     0
 10
333.7972167378889
 20
1099.2289643724771
 30
0.0
 40
2.0
 50
0.0
 51
90.0
  0
ARC
  5
C687
  8
0
 62
     0
 10
415.79721673788868
 20
1099.2289643724771
 30
0.0
 40
2.0
 50
90.0
 51
180.0
  0
LINE
  5
C688
  8
0
 62
     0
 10
333.7972167378889
 20
1101.2289643724771
 30
0.0
 11
282.24712673788878
 21
1101.2289643724771
 31
0.0
  0
LINE
  5
C689
  8
0
 62
     0
 10
473.04009673788852
 20
1097.688165372477
 30
0.0
 11
282.4086357378888
 21
1097.688165372477
 31
0.0
  0
LINE
  5
C68A
  8
0
 62
     0
 10
475.978081737889
 20
1090.543566372477
 30
0.0
 11
475.00971273788889
 21
1096.0354613724769
 31
0.0
  0
LINE
  5
C68B
  8
0
 62
     0
 10
277.7972167378889
 20
1081.0530513724771
 30
0.0
 11
280.43901973788888
 21
1096.0354613724769
 31
0.0
  0
ARC
  5
C68C
  8
0
 62
     0
 10
282.4086357378888
 20
1095.688165372477
 30
0.0
 40
2.0
 50
90.0
 51
169.99999999999491
  0
LINE
  5
C68D
  8
0
 62
     0
 10
406.8535727378889
 20
1091.0805973724771
 30
0.0
 11
282.74086073788891
 21
1091.0805973724771
 31
0.0
  0
LINE
  5
C68E
  8
0
 62
     0
 10
411.79721673788868
 20
1072.5613393724771
 30
0.0
 11
408.82318773788887
 21
1089.427893372477
 31
0.0
  0
ARC
  5
C68F
  8
0
 62
     0
 10
406.8535727378889
 20
1089.0805973724771
 30
0.0
 40
2.0
 50
10.00000000000502
 51
90.0
  0
LINE
  5
C690
  8
0
 62
     0
 10
277.7972167378889
 20
1072.5613393724771
 30
0.0
 11
280.77124573788888
 21
1089.427893372477
 31
0.0
  0
ARC
  5
C691
  8
0
 62
     0
 10
282.74086073788891
 20
1089.0805973724771
 30
0.0
 40
2.0
 50
90.0
 51
169.99999999999491
  0
LINE
  5
C692
  8
0
 62
     0
 10
406.52330873788878
 20
1085.6785533724781
 30
0.0
 11
283.07112473788908
 21
1085.6785533724781
 31
0.0
  0
LINE
  5
C693
  8
0
 62
     0
 10
411.5761657378888
 20
1066.5399173724779
 30
0.0
 11
408.4929247378891
 21
1084.025850372477
 31
0.0
  0
ARC
  5
C694
  8
0
 62
     0
 10
406.52330873788878
 20
1083.6785533724781
 30
0.0
 40
2.0
 50
10.00000000000502
 51
90.0
  0
LINE
  5
C695
  8
0
 62
     0
 10
278.07421073788879
 20
1066.857185372477
 30
0.0
 11
281.10150873788871
 21
1084.025850372477
 31
0.0
  0
ARC
  5
C696
  8
0
 62
     0
 10
283.07112473788908
 20
1083.6785533724781
 30
0.0
 40
2.0
 50
90.0
 51
169.99999999999491
  0
LINE
  5
C697
  8
0
 62
     0
 10
476.79721673788868
 20
1011.7100693724771
 30
0.0
 11
476.79721673788868
 21
1014.657761372477
 31
0.0
  0
LINE
  5
C698
  8
0
 62
     0
 10
476.79721673788868
 20
1021.709545372478
 30
0.0
 11
476.79721673788868
 21
1024.6710243724781
 31
0.0
  0
LINE
  5
C699
  8
0
 62
     0
 10
476.79721673788868
 20
1032.7017253724771
 30
0.0
 11
476.79721673788868
 21
1035.6943523724769
 31
0.0
  0
LINE
  5
C69A
  8
0
 62
     0
 10
476.79721673788868
 20
1043.6845203724779
 30
0.0
 11
476.79721673788868
 21
1046.730226372478
 31
0.0
  0
LINE
  5
C69B
  8
0
 62
     0
 10
476.79721673788868
 20
1054.654399372477
 30
0.0
 11
476.79721673788868
 21
1057.7853123724781
 31
0.0
  0
LINE
  5
C69C
  8
0
 62
     0
 10
476.79721673788868
 20
1063.612875372477
 30
0.0
 11
476.79721673788868
 21
1066.857185372477
 31
0.0
  0
LINE
  5
C69D
  8
0
 62
     0
 10
426.79721673788868
 20
1081.0530513724771
 30
0.0
 11
410.29989873788912
 21
1081.0530513724771
 31
0.0
  0
LINE
  5
C69E
  8
0
 62
     0
 10
458.5839937378887
 20
1085.898019372476
 30
0.0
 11
442.79721673788879
 21
1085.898019372476
 31
0.0
  0
LINE
  5
C69F
  8
0
 62
     0
 10
426.79721673788868
 20
1081.0530513724771
 30
0.0
 11
442.79721673788879
 21
1085.898019372476
 31
0.0
  0
LINE
  5
C6A0
  8
0
 62
     0
 10
442.79721673788879
 20
1085.898019372476
 30
0.0
 11
442.79721673788879
 21
1082.5327043724781
 31
0.0
  0
LINE
  5
C6A1
  8
0
 62
     0
 10
426.79721673788868
 20
1081.0530513724771
 30
0.0
 11
426.79721673788868
 21
1066.857185372477
 31
0.0
  0
LINE
  5
C6A2
  8
0
 62
     0
 10
462.29721673788879
 20
1069.7458793724779
 30
0.0
 11
462.29721673788879
 21
1088.543566372477
 31
0.0
  0
ARC
  5
C6A3
  8
0
 62
     0
 10
464.29721673788868
 20
1088.543566372477
 30
0.0
 40
2.0
 50
90.0
 51
180.0
  0
LINE
  5
C6A4
  8
0
 62
     0
 10
462.29721673788879
 20
1074.1359773724771
 30
0.0
 11
442.79721673788879
 21
1074.1359773724771
 31
0.0
  0
LINE
  5
C6A5
  8
0
 62
     0
 10
456.89722273788891
 20
1082.5327043724781
 30
0.0
 11
442.79721673788879
 21
1082.5327043724781
 31
0.0
  0
LINE
  5
C6A6
  8
0
 62
     0
 10
442.79721673788879
 20
1074.1359773724771
 30
0.0
 11
442.79721673788879
 21
1066.857185372477
 31
0.0
  0
LINE
  5
C6A8
  8
0
 62
     0
 10
481.79721673788868
 20
1090.543566372477
 30
0.0
 11
464.29721673788868
 21
1090.543566372477
 31
0.0
  0
LINE
  5
C6A9
  8
0
 62
     0
 10
481.79721673788868
 20
1068.7458793724779
 30
0.0
 11
461.29721673788868
 21
1068.7458793724779
 31
0.0
  0
ARC
  5
C6AA
  8
0
 62
     0
 10
461.29721673788868
 20
1069.7458793724779
 30
0.0
 40
1.0
 50
270.0
 51
0.0
  0
LINE
  5
C6AB
  8
0
 62
     0
 10
481.79721673788868
 20
1082.419561372478
 30
0.0
 11
464.29721673788868
 21
1082.419561372478
 31
0.0
  0
LINE
  5
C6AC
  8
0
 62
     0
 10
274.2972167378889
 20
1090.6799173724769
 30
0.0
 11
277.7972167378889
 21
1090.6799173724769
 31
0.0
  0
ARC
  5
C6AD
  8
0
 62
     0
 10
478.4754157378888
 20
916.67991737247769
 30
0.0
 40
2.0
 50
90.0
 51
169.99999999999491
  0
ARC
  5
C6AE
  8
0
 62
     0
 10
414.53985873788889
 20
911.6862603724777
 30
0.0
 40
1.9936590000000001
 50
90.075931000003493
 51
178.1702539999921
  0
LINE
  5
C6AF
  8
0
 62
     0
 10
414.53721673788851
 20
913.67991737247758
 30
0.0
 11
474.23738273788848
 21
913.67991737247758
 31
0.0
  0
LINE
  5
C6B0
  8
0
 62
     0
 10
412.29721673788879
 20
904.67991737247758
 30
0.0
 11
412.9132457378887
 21
922.2792373724775
 31
0.0
  0
LINE
  5
C6B1
  8
0
 62
     0
 10
476.50580073788888
 20
917.02721337247749
 30
0.0
 11
476.20699773788868
 21
915.33262137247755
 31
0.0
  0
ARC
  5
C6B2
  8
0
 62
     0
 10
474.23738273788848
 20
915.67991737247758
 30
0.0
 40
2.0
 50
270.0
 51
349.99999999999488
  0
LINE
  5
C6B3
  8
0
 62
     0
 10
278.37456673788893
 20
921.67991737247758
 30
0.0
 11
285.59144573788888
 21
909.17991737247758
 31
0.0
  0
LINE
  5
C6B4
  8
0
 62
     0
 10
287.323495737889
 20
908.17991737247746
 30
0.0
 11
335.2421877378888
 21
908.17991737247746
 31
0.0
  0
LINE
  5
C6B5
  8
0
 62
     0
 10
337.29721673788879
 20
904.67991737247758
 30
0.0
 11
337.2409047378888
 21
906.25153237247764
 31
0.0
  0
ARC
  5
C6B6
  8
0
 62
     0
 10
276.64251573788903
 20
920.67991737247746
 30
0.0
 40
2.0
 50
30.000000000000551
 51
90.0
  0
ARC
  5
C6B7
  8
0
 62
     0
 10
287.323495737889
 20
910.17991737247758
 30
0.0
 40
2.0
 50
210.0000000000004
 51
270.0
  0
ARC
  5
C6B8
  8
0
 62
     0
 10
335.2421877378888
 20
906.17991737247746
 30
0.0
 40
2.0
 50
2.052064999998533
 51
90.0
  0
LINE
  5
C6B9
  8
0
 62
     0
 10
337.29721673788879
 20
904.67991737247758
 30
0.0
 11
412.29721673788879
 21
904.67991737247758
 31
0.0
  0
LINE
  5
C6BA
  8
0
 62
     0
 10
286.32349573788912
 20
908.44786637247773
 30
0.0
 11
286.32349573788912
 21
922.2792373724775
 31
0.0
  0
LINE
  5
C6BB
  8
0
 62
     0
 10
472.76430073788879
 20
922.2792373724775
 30
0.0
 11
282.74086073788891
 21
922.2792373724775
 31
0.0
  0
LINE
  5
C6BC
  8
0
 62
     0
 10
472.54351473788859
 20
927.68128137247766
 30
0.0
 11
282.85007373788892
 21
927.68128137247766
 31
0.0
  0
LINE
  5
C6BD
  8
0
 62
     0
 10
476.79721673788868
 20
942.28768337247755
 30
0.0
 11
442.79721673788879
 21
942.28768337247755
 31
0.0
  0
LINE
  5
C6BE
  8
0
 62
     0
 10
476.79721673788868
 20
942.28768337247755
 30
0.0
 11
474.51312973788879
 21
929.3339843724774
 31
0.0
  0
ARC
  5
C6BF
  8
0
 62
     0
 10
472.54351473788859
 20
929.68128137247754
 30
0.0
 40
2.0
 50
270.0
 51
349.99999999999488
  0
LINE
  5
C6C0
  8
0
 62
     0
 10
476.79721673788868
 20
935.63350137247755
 30
0.0
 11
474.73391573788871
 21
923.93194137247747
 31
0.0
  0
ARC
  5
C6C1
  8
0
 62
     0
 10
472.76430073788879
 20
924.27923737247772
 30
0.0
 40
2.0
 50
270.0
 51
349.99999999999488
  0
LINE
  5
C6C2
  8
0
 62
     0
 10
281.53995473788882
 20
922.67991737247758
 30
0.0
 11
274.2972167378889
 21
922.67991737247758
 31
0.0
  0
LINE
  5
C6C3
  8
0
 62
     0
 10
476.79721673788868
 20
923.52793137247761
 30
0.0
 11
475.3521627378891
 21
915.33262137247755
 31
0.0
  0
ARC
  5
C6C4
  8
0
 62
     0
 10
473.38254673788867
 20
915.67991737247758
 30
0.0
 40
2.0
 50
270.0
 51
349.99999999999488
  0
LINE
  5
C6C5
  8
0
 62
     0
 10
411.79721673788868
 20
958.51991737247761
 30
0.0
 11
411.79721673788868
 21
955.81991737247745
 31
0.0
  0
LINE
  5
C6C6
  8
0
  6
CONTINUOUS
 62
     0
 10
481.79721673788868
 20
944.47028037247753
 30
0.0
 11
464.29721673788868
 21
944.47028037247753
 31
0.0
  0
LINE
  5
C6C7
  8
0
  6
CONTINUOUS
 62
     0
 10
481.79721673788868
 20
956.77791937247741
 30
0.0
 11
464.29721673788868
 21
956.77791937247741
 31
0.0
  0
LINE
  5
C6C8
  8
0
  6
CONTINUOUS
 62
     0
 10
481.79721673788868
 20
966.95721137247745
 30
0.0
 11
476.79721673788868
 21
966.95721137247745
 31
0.0
  0
LINE
  5
C6C9
  8
0
 62
     0
 10
462.29721673788879
 20
965.95721137247756
 30
0.0
 11
462.29721673788879
 21
946.47028037247742
 31
0.0
  0
ARC
  5
C6CA
  8
0
 62
     0
 10
461.29721673788868
 20
965.95721137247756
 30
0.0
 40
1.0
 50
0.0
 51
42.252324000004279
  0
ARC
  5
C6CB
  8
0
 62
     0
 10
464.29721673788868
 20
946.47028037247742
 30
0.0
 40
2.0
 50
180.0
 51
270.0
  0
LINE
  5
C6CC
  8
0
 62
     0
 10
426.79721673788868
 20
1063.612875372477
 30
0.0
 11
426.79721673788868
 21
1057.7853123724781
 31
0.0
  0
LINE
  5
C6CD
  8
0
 62
     0
 10
442.79721673788879
 20
1063.612875372477
 30
0.0
 11
442.79721673788879
 21
1057.7853123724781
 31
0.0
  0
LINE
  5
C6CE
  8
0
 62
     0
 10
426.79721673788868
 20
1054.654399372477
 30
0.0
 11
426.79721673788868
 21
1046.730226372478
 31
0.0
  0
LINE
  5
C6CF
  8
0
 62
     0
 10
426.79721673788868
 20
1043.6845203724779
 30
0.0
 11
426.79721673788868
 21
1035.6943523724769
 31
0.0
  0
LINE
  5
C6D0
  8
0
 62
     0
 10
426.79721673788868
 20
1032.7017253724771
 30
0.0
 11
426.79721673788868
 21
1024.6710243724781
 31
0.0
  0
LINE
  5
C6D1
  8
0
 62
     0
 10
426.79721673788868
 20
1021.709545372478
 30
0.0
 11
426.79721673788868
 21
1014.657761372477
 31
0.0
  0
LINE
  5
C6D2
  8
0
 62
     0
 10
426.79721673788868
 20
1011.839917372478
 30
0.0
 11
426.79721673788868
 21
1001.649765372478
 31
0.0
  0
LINE
  5
C6D3
  8
0
 62
     0
 10
442.79721673788879
 20
1011.839917372478
 30
0.0
 11
442.79721673788879
 21
1001.649765372478
 31
0.0
  0
LINE
  5
C6D4
  8
0
 62
     0
 10
442.79721673788879
 20
1021.709545372478
 30
0.0
 11
442.79721673788879
 21
1014.657761372477
 31
0.0
  0
LINE
  5
C6D5
  8
0
 62
     0
 10
442.79721673788879
 20
1032.7017253724771
 30
0.0
 11
442.79721673788879
 21
1024.6710243724781
 31
0.0
  0
LINE
  5
C6D6
  8
0
 62
     0
 10
442.79721673788879
 20
1043.6845203724779
 30
0.0
 11
442.79721673788879
 21
1035.6943523724769
 31
0.0
  0
LINE
  5
C6D7
  8
0
 62
     0
 10
442.79721673788879
 20
1054.654399372477
 30
0.0
 11
442.79721673788879
 21
1046.730226372478
 31
0.0
  0
LINE
  5
C6D8
  8
0
 62
     0
 10
426.79721673788868
 20
998.70207337247757
 30
0.0
 11
426.79721673788868
 21
991.65028937247746
 31
0.0
  0
LINE
  5
C6D9
  8
0
 62
     0
 10
442.79721673788879
 20
998.70207337247757
 30
0.0
 11
442.79721673788879
 21
991.65028937247746
 31
0.0
  0
LINE
  5
C6DA
  8
0
 62
     0
 10
442.79721673788879
 20
988.68881037247752
 30
0.0
 11
442.79721673788879
 21
980.65810937247761
 31
0.0
  0
LINE
  5
C6DB
  8
0
 62
     0
 10
426.79721673788868
 20
988.68881037247752
 30
0.0
 11
426.79721673788868
 21
980.65810937247761
 31
0.0
  0
LINE
  5
C6DC
  8
0
 62
     0
 10
426.79721673788868
 20
977.66548237247764
 30
0.0
 11
426.79721673788868
 21
969.67531437247749
 31
0.0
  0
LINE
  5
C6DD
  8
0
 62
     0
 10
442.79721673788879
 20
977.66548237247764
 30
0.0
 11
442.79721673788879
 21
969.67531437247749
 31
0.0
  0
LINE
  5
C6DE
  8
0
 62
     0
 10
457.34661173788868
 20
950.65912137247744
 30
0.0
 11
442.79721573788879
 21
950.65912137247744
 31
0.0
  0
LINE
  5
C6DF
  8
0
 62
     0
 10
462.29721673788879
 20
962.07147137247784
 30
0.0
 11
442.79721573788879
 21
962.07147137247784
 31
0.0
  0
LINE
  5
C6E0
  8
0
 62
     0
 10
426.79721673788868
 20
966.62960837247749
 30
0.0
 11
426.79721673788868
 21
946.62960837247783
 31
0.0
  0
LINE
  5
C6E1
  8
0
 62
     0
 10
478.79721673788879
 20
1090.543566372477
 30
0.0
 11
478.79721673788879
 21
1094.6799173724769
 31
0.0
  0
LINE
  5
C6E2
  8
0
 62
     0
 10
476.79721673788868
 20
920.4781733724775
 30
0.0
 11
475.88991673788883
 21
915.33262137247755
 31
0.0
  0
ARC
  5
C6E3
  8
0
 62
     0
 10
473.92030173788908
 20
915.67991737247758
 30
0.0
 40
2.0
 50
270.0
 51
349.99999999999488
  0
LINE
  5
C6E4
  8
0
 62
     0
 10
442.79721673788879
 20
966.62960837247749
 30
0.0
 11
442.79721673788879
 21
962.07147137247784
 31
0.0
  0
LINE
  5
C6E5
  8
0
  6
CONTINUOUS
 62
     0
 10
478.79721673788879
 20
966.95721137247745
 30
0.0
 11
478.79721673788879
 21
1068.7458793724779
 31
0.0
  0
LINE
  5
C6E6
  8
0
 62
     0
 10
277.7972167378889
 20
946.81991737247745
 30
0.0
 11
280.88045873788911
 21
929.3339843724774
 31
0.0
  0
ARC
  5
C6E7
  8
0
 62
     0
 10
282.85007373788892
 20
929.68128137247754
 30
0.0
 40
2.0
 50
190.000000000005
 51
270.0
  0
LINE
  5
C6E8
  8
0
 62
     0
 10
427.50261373788862
 20
955.37421137247759
 30
0.0
 11
442.79721673788879
 21
950.65912137247744
 31
0.0
  0
LINE
  5
C6E9
  8
0
 62
     0
 10
442.79721673788879
 20
962.07147137247784
 30
0.0
 11
427.76127573788881
 21
961.53072037247773
 31
0.0
  0
LINE
  5
C6EA
  8
0
 62
     0
 10
442.79721673788879
 20
950.65912137247744
 30
0.0
 11
442.79721673788879
 21
942.28768337247755
 31
0.0
  0
ARC
  5
C6EB
  8
0
 62
     0
 10
427.79721673788868
 20
960.53136637247746
 30
0.0
 40
1.0
 50
92.059690999990565
 51
180.0
  0
ARC
  5
C6EC
  8
0
 62
     0
 10
427.79721673788868
 20
956.32983137247754
 30
0.0
 40
1.0
 50
180.0
 51
252.8662750000021
  0
LINE
  5
C6ED
  8
0
 62
     0
 10
442.79721673788879
 20
1082.5327043724781
 30
0.0
 11
427.49675773788869
 21
1077.7128383724771
 31
0.0
  0
LINE
  5
C6EE
  8
0
 62
     0
 10
427.8457717378887
 20
1073.409157372477
 30
0.0
 11
442.79721673788879
 21
1074.1359773724771
 31
0.0
  0
ARC
  5
C6EF
  8
0
 62
     0
 10
427.79721673788868
 20
1076.7590433724779
 30
0.0
 40
1.0
 50
107.4851790000144
 51
180.0
  0
ARC
  5
C6F0
  8
0
 62
     0
 10
427.79721673788868
 20
1074.4079783724781
 30
0.0
 40
1.0
 50
180.0
 51
270.0
  0
LINE
  5
C6F2
  8
0
 62
     0
 10
476.79721673788868
 20
1066.857185372477
 30
0.0
 11
277.7972167378889
 21
1066.857185372477
 31
0.0
  0
LINE
  5
C6F3
  8
0
 62
     0
 10
476.79721673788868
 20
1063.612875372477
 30
0.0
 11
277.7972167378889
 21
1063.612875372477
 31
0.0
  0
LINE
  5
C6F4
  8
0
 62
     0
 10
476.79721673788868
 20
1057.7853123724781
 30
0.0
 11
277.7972167378889
 21
1057.7853123724781
 31
0.0
  0
LINE
  5
C6F5
  8
0
 62
     0
 10
476.79721673788868
 20
1054.654399372477
 30
0.0
 11
277.7972167378889
 21
1054.654399372477
 31
0.0
  0
LINE
  5
C6F6
  8
0
 62
     0
 10
476.79721673788868
 20
1046.730226372478
 30
0.0
 11
277.7972167378889
 21
1046.730226372478
 31
0.0
  0
LINE
  5
C6F7
  8
0
 62
     0
 10
476.79721673788868
 20
1043.6845203724779
 30
0.0
 11
277.7972167378889
 21
1043.6845203724779
 31
0.0
  0
LINE
  5
C6F8
  8
0
 62
     0
 10
476.79721673788868
 20
1035.6943523724769
 30
0.0
 11
277.7972167378889
 21
1035.6943523724769
 31
0.0
  0
LINE
  5
C6F9
  8
0
 62
     0
 10
476.79721673788868
 20
1032.7017253724771
 30
0.0
 11
277.7972167378889
 21
1032.7017253724771
 31
0.0
  0
LINE
  5
C6FA
  8
0
 62
     0
 10
476.79721673788868
 20
1024.6710243724781
 30
0.0
 11
277.7972167378889
 21
1024.6710243724781
 31
0.0
  0
LINE
  5
C6FB
  8
0
 62
     0
 10
476.79721673788868
 20
1021.709545372478
 30
0.0
 11
277.7972167378889
 21
1021.709545372478
 31
0.0
  0
LINE
  5
C6FC
  8
0
 62
     0
 10
476.79721673788868
 20
1014.657761372477
 30
0.0
 11
382.37045973788872
 21
1014.657761372477
 31
0.0
  0
LINE
  5
C6FD
  8
0
 62
     0
 10
476.79721673788868
 20
1011.7100693724771
 30
0.0
 11
389.18286373788902
 21
1011.7100693724771
 31
0.0
  0
LINE
  5
C6FE
  8
0
 62
     0
 10
474.71829573788909
 20
1066.1799173724769
 30
0.0
 11
474.71829573788909
 21
1064.1799173724769
 31
0.0
  0
LINE
  5
C6FF
  8
0
 62
     0
 10
279.87613773788911
 20
1064.1799173724769
 30
0.0
 11
474.71829573788909
 21
1064.1799173724769
 31
0.0
  0
LINE
  5
C700
  8
0
 62
     0
 10
279.87613773788911
 20
1066.1799173724769
 30
0.0
 11
474.71829573788909
 21
1066.1799173724769
 31
0.0
  0
LINE
  5
C701
  8
0
 62
     0
 10
279.87613773788911
 20
1055.1799173724769
 30
0.0
 11
474.71829573788909
 21
1055.1799173724769
 31
0.0
  0
LINE
  5
C702
  8
0
 62
     0
 10
279.87613773788911
 20
1057.1799173724769
 30
0.0
 11
474.71829573788909
 21
1057.1799173724769
 31
0.0
  0
LINE
  5
C703
  8
0
 62
     0
 10
279.87613773788911
 20
1044.1799173724769
 30
0.0
 11
474.71829573788909
 21
1044.1799173724769
 31
0.0
  0
LINE
  5
C704
  8
0
 62
     0
 10
279.87613773788911
 20
1046.1799173724769
 30
0.0
 11
474.71829573788909
 21
1046.1799173724769
 31
0.0
  0
LINE
  5
C705
  8
0
 62
     0
 10
279.87613773788911
 20
1033.1799173724769
 30
0.0
 11
474.71829573788909
 21
1033.1799173724769
 31
0.0
  0
LINE
  5
C706
  8
0
 62
     0
 10
279.87613773788911
 20
1035.1799173724769
 30
0.0
 11
474.71829573788909
 21
1035.1799173724769
 31
0.0
  0
LINE
  5
C707
  8
0
 62
     0
 10
279.87613773788911
 20
1022.179917372477
 30
0.0
 11
474.71829573788909
 21
1022.179917372477
 31
0.0
  0
LINE
  5
C708
  8
0
 62
     0
 10
279.87613773788911
 20
1024.1799173724769
 30
0.0
 11
474.71829573788909
 21
1024.1799173724769
 31
0.0
  0
LINE
  5
C709
  8
0
 62
     0
 10
388.57219373788888
 20
1012.179917372478
 30
0.0
 11
474.71829573788909
 21
1012.179917372478
 31
0.0
  0
LINE
  5
C70A
  8
0
 62
     0
 10
382.84395473788879
 20
1014.179917372477
 30
0.0
 11
474.71829573788909
 21
1014.179917372477
 31
0.0
  0
LINE
  5
C70B
  8
0
 62
     0
 10
474.71829573788909
 20
1066.1799173724769
 30
0.0
 11
476.79721673788868
 21
1066.857185372477
 31
0.0
  0
LINE
  5
C70C
  8
0
 62
     0
 10
474.71829573788909
 20
1064.1799173724769
 30
0.0
 11
476.79721673788868
 21
1063.612875372477
 31
0.0
  0
LINE
  5
C70D
  8
0
 62
     0
 10
474.71829573788909
 20
1057.1799173724769
 30
0.0
 11
476.79721673788868
 21
1057.7853123724781
 31
0.0
  0
LINE
  5
C70E
  8
0
 62
     0
 10
474.71829573788909
 20
1055.1799173724769
 30
0.0
 11
476.79721673788868
 21
1054.654399372477
 31
0.0
  0
LINE
  5
C70F
  8
0
 62
     0
 10
474.71829573788909
 20
1046.1799173724769
 30
0.0
 11
476.79721673788868
 21
1046.730226372478
 31
0.0
  0
LINE
  5
C710
  8
0
 62
     0
 10
474.71829573788909
 20
1044.1799173724769
 30
0.0
 11
476.79721673788868
 21
1043.6845203724779
 31
0.0
  0
LINE
  5
C711
  8
0
 62
     0
 10
474.71829573788909
 20
1035.1799173724769
 30
0.0
 11
476.79721673788868
 21
1035.6943523724769
 31
0.0
  0
LINE
  5
C712
  8
0
 62
     0
 10
474.71829573788909
 20
1033.1799173724769
 30
0.0
 11
476.79721673788868
 21
1032.7017253724771
 31
0.0
  0
LINE
  5
C713
  8
0
 62
     0
 10
474.71829573788909
 20
1024.1799173724769
 30
0.0
 11
476.79721673788868
 21
1024.6710243724781
 31
0.0
  0
LINE
  5
C714
  8
0
 62
     0
 10
474.71829573788909
 20
1022.179917372477
 30
0.0
 11
476.79721673788868
 21
1021.709545372478
 31
0.0
  0
LINE
  5
C715
  8
0
 62
     0
 10
474.71829573788909
 20
1014.179917372477
 30
0.0
 11
476.79721673788868
 21
1014.657761372477
 31
0.0
  0
LINE
  5
C716
  8
0
 62
     0
 10
474.71829573788909
 20
1012.179917372478
 30
0.0
 11
476.79721673788868
 21
1011.7100693724771
 31
0.0
  0
LINE
  5
C717
  8
0
 62
     0
 10
474.71829573788909
 20
1057.1799173724769
 30
0.0
 11
474.71829573788909
 21
1055.1799173724769
 31
0.0
  0
LINE
  5
C718
  8
0
 62
     0
 10
474.71829573788909
 20
1046.1799173724769
 30
0.0
 11
474.71829573788909
 21
1044.1799173724769
 31
0.0
  0
LINE
  5
C719
  8
0
 62
     0
 10
474.71829573788909
 20
1035.1799173724769
 30
0.0
 11
474.71829573788909
 21
1033.1799173724769
 31
0.0
  0
LINE
  5
C71A
  8
0
 62
     0
 10
474.71829573788909
 20
1024.1799173724769
 30
0.0
 11
474.71829573788909
 21
1022.179917372477
 31
0.0
  0
LINE
  5
C71B
  8
0
 62
     0
 10
474.71829573788909
 20
1014.179917372477
 30
0.0
 11
474.71829573788909
 21
1012.179917372478
 31
0.0
  0
ARC
  5
C71C
  8
0
 62
     0
 10
388.57219373788888
 20
1009.179917372478
 30
0.0
 40
3.0
 50
90.0
 51
190.28656100000819
  0
ARC
  5
C71D
  8
0
 62
     0
 10
389.18286373788902
 20
1008.240069372478
 30
0.0
 40
3.4700000000000002
 50
90.0
 51
186.1896490000004
  0
LINE
  5
C71E
  8
0
 62
     0
 10
294.87613773788922
 20
1014.179917372477
 30
0.0
 11
294.87613773788922
 21
1012.179917372478
 31
0.0
  0
LINE
  5
C71F
  8
0
 62
     0
 10
279.87613773788911
 20
1024.1799173724769
 30
0.0
 11
279.87613773788911
 21
1022.179917372477
 31
0.0
  0
LINE
  5
C720
  8
0
 62
     0
 10
279.87613773788911
 20
1035.1799173724769
 30
0.0
 11
279.87613773788911
 21
1033.1799173724769
 31
0.0
  0
LINE
  5
C721
  8
0
 62
     0
 10
279.87613773788911
 20
1046.1799173724769
 30
0.0
 11
279.87613773788911
 21
1044.1799173724769
 31
0.0
  0
LINE
  5
C722
  8
0
 62
     0
 10
279.87613773788911
 20
1057.1799173724769
 30
0.0
 11
279.87613773788911
 21
1055.1799173724769
 31
0.0
  0
LINE
  5
C723
  8
0
 62
     0
 10
294.87613773788922
 20
1012.179917372478
 30
0.0
 11
292.79721673788879
 21
1011.7100693724771
 31
0.0
  0
LINE
  5
C724
  8
0
 62
     0
 10
294.87613773788922
 20
1014.179917372477
 30
0.0
 11
292.79721673788879
 21
1014.657761372477
 31
0.0
  0
LINE
  5
C725
  8
0
 62
     0
 10
279.87613773788911
 20
1022.179917372477
 30
0.0
 11
277.7972167378889
 21
1021.709545372478
 31
0.0
  0
LINE
  5
C726
  8
0
 62
     0
 10
279.87613773788911
 20
1024.1799173724769
 30
0.0
 11
277.7972167378889
 21
1024.6710243724781
 31
0.0
  0
LINE
  5
C727
  8
0
 62
     0
 10
279.87613773788911
 20
1033.1799173724769
 30
0.0
 11
277.7972167378889
 21
1032.7017253724771
 31
0.0
  0
LINE
  5
C728
  8
0
 62
     0
 10
279.87613773788911
 20
1035.1799173724769
 30
0.0
 11
277.7972167378889
 21
1035.6943523724769
 31
0.0
  0
LINE
  5
C729
  8
0
 62
     0
 10
279.87613773788911
 20
1044.1799173724769
 30
0.0
 11
277.7972167378889
 21
1043.6845203724779
 31
0.0
  0
LINE
  5
C72A
  8
0
 62
     0
 10
279.87613773788911
 20
1046.1799173724769
 30
0.0
 11
277.7972167378889
 21
1046.730226372478
 31
0.0
  0
LINE
  5
C72B
  8
0
 62
     0
 10
279.87613773788911
 20
1055.1799173724769
 30
0.0
 11
277.7972167378889
 21
1054.654399372477
 31
0.0
  0
LINE
  5
C72C
  8
0
 62
     0
 10
279.87613773788911
 20
1057.1799173724769
 30
0.0
 11
277.7972167378889
 21
1057.7853123724781
 31
0.0
  0
LINE
  5
C72D
  8
0
 62
     0
 10
279.87613773788911
 20
1064.1799173724769
 30
0.0
 11
277.7972167378889
 21
1063.612875372477
 31
0.0
  0
LINE
  5
C72E
  8
0
 62
     0
 10
279.87613773788911
 20
1066.1799173724769
 30
0.0
 11
277.7972167378889
 21
1066.857185372477
 31
0.0
  0
LINE
  5
C72F
  8
0
 62
     0
 10
279.87613773788911
 20
1066.1799173724769
 30
0.0
 11
279.87613773788911
 21
1064.1799173724769
 31
0.0
  0
LINE
  5
C730
  8
0
 62
     0
 10
277.7972167378889
 20
1063.612875372477
 30
0.0
 11
277.7972167378889
 21
1066.857185372477
 31
0.0
  0
LINE
  5
C731
  8
0
 62
     0
 10
277.7972167378889
 20
1054.654399372477
 30
0.0
 11
277.7972167378889
 21
1057.7853123724781
 31
0.0
  0
LINE
  5
C732
  8
0
 62
     0
 10
277.7972167378889
 20
1043.6845203724779
 30
0.0
 11
277.7972167378889
 21
1046.730226372478
 31
0.0
  0
LINE
  5
C733
  8
0
 62
     0
 10
277.7972167378889
 20
1032.7017253724771
 30
0.0
 11
277.7972167378889
 21
1035.6943523724769
 31
0.0
  0
LINE
  5
C734
  8
0
 62
     0
 10
277.7972167378889
 20
1021.709545372478
 30
0.0
 11
277.7972167378889
 21
1024.6710243724781
 31
0.0
  0
LINE
  5
C735
  8
0
 62
     0
 10
292.79721673788879
 20
1011.7100693724771
 30
0.0
 11
292.79721673788879
 21
1014.657761372477
 31
0.0
  0
LINE
  5
C736
  8
0
 62
     0
 10
292.79721673788879
 20
1014.657761372477
 30
0.0
 11
367.22397373788908
 21
1014.657761372477
 31
0.0
  0
LINE
  5
C737
  8
0
 62
     0
 10
292.79721673788879
 20
1011.7100693724771
 30
0.0
 11
360.4115697378889
 21
1011.7100693724771
 31
0.0
  0
LINE
  5
C738
  8
0
 62
     0
 10
361.02223973788892
 20
1012.179917372478
 30
0.0
 11
294.87613773788922
 21
1012.179917372478
 31
0.0
  0
LINE
  5
C739
  8
0
 62
     0
 10
366.7504787378889
 20
1014.179917372477
 30
0.0
 11
294.87613773788922
 21
1014.179917372477
 31
0.0
  0
ARC
  5
C73A
  8
0
 62
     0
 10
361.02223973788892
 20
1009.179917372478
 30
0.0
 40
3.0
 50
349.71343899999181
 51
90.0
  0
ARC
  5
C73B
  8
0
 62
     0
 10
360.4115697378889
 20
1008.240069372478
 30
0.0
 40
3.4700000000000002
 50
353.81035099999951
 51
90.0
  0
LINE
  5
C73C
  8
0
 62
     0
 10
476.79721673788868
 20
966.62960837247749
 30
0.0
 11
277.7972167378889
 21
966.62960837247749
 31
0.0
  0
LINE
  5
C73D
  8
0
 62
     0
 10
476.79721673788868
 20
969.67531437247749
 30
0.0
 11
277.7972167378889
 21
969.67531437247749
 31
0.0
  0
LINE
  5
C73E
  8
0
 62
     0
 10
476.79721673788868
 20
977.66548237247764
 30
0.0
 11
277.7972167378889
 21
977.66548237247764
 31
0.0
  0
LINE
  5
C73F
  8
0
 62
     0
 10
476.79721673788868
 20
980.65810937247761
 30
0.0
 11
277.7972167378889
 21
980.65810937247761
 31
0.0
  0
LINE
  5
C740
  8
0
 62
     0
 10
476.79721673788868
 20
988.68881037247752
 30
0.0
 11
277.7972167378889
 21
988.68881037247752
 31
0.0
  0
LINE
  5
C741
  8
0
 62
     0
 10
476.79721673788868
 20
991.65028937247746
 30
0.0
 11
277.7972167378889
 21
991.65028937247746
 31
0.0
  0
LINE
  5
C742
  8
0
 62
     0
 10
279.87613773788911
 20
969.17991737247758
 30
0.0
 11
474.71829573788909
 21
969.17991737247758
 31
0.0
  0
LINE
  5
C743
  8
0
 62
     0
 10
279.87613773788911
 20
967.17991737247758
 30
0.0
 11
474.71829573788909
 21
967.17991737247758
 31
0.0
  0
LINE
  5
C744
  8
0
 62
     0
 10
279.87613773788911
 20
980.17991737247746
 30
0.0
 11
474.71829573788909
 21
980.17991737247746
 31
0.0
  0
LINE
  5
C745
  8
0
 62
     0
 10
279.87613773788911
 20
978.17991737247758
 30
0.0
 11
474.71829573788909
 21
978.17991737247758
 31
0.0
  0
LINE
  5
C746
  8
0
 62
     0
 10
279.87613773788911
 20
991.17991737247746
 30
0.0
 11
474.71829573788909
 21
991.17991737247746
 31
0.0
  0
LINE
  5
C747
  8
0
 62
     0
 10
279.87613773788911
 20
989.17991737247746
 30
0.0
 11
474.71829573788909
 21
989.17991737247746
 31
0.0
  0
LINE
  5
C748
  8
0
 62
     0
 10
292.79721673788879
 20
998.70207337247757
 30
0.0
 11
367.22397373788908
 21
998.70207337247757
 31
0.0
  0
LINE
  5
C749
  8
0
 62
     0
 10
292.79721673788879
 20
1001.649765372478
 30
0.0
 11
360.4115697378889
 21
1001.649765372478
 31
0.0
  0
LINE
  5
C74A
  8
0
 62
     0
 10
361.02223973788892
 20
1001.179917372478
 30
0.0
 11
294.87613773788922
 21
1001.179917372478
 31
0.0
  0
LINE
  5
C74B
  8
0
 62
     0
 10
366.7504787378889
 20
999.17991737247746
 30
0.0
 11
294.87613773788922
 21
999.17991737247746
 31
0.0
  0
LINE
  5
C74C
  8
0
 62
     0
 10
292.79721673788879
 20
1001.649765372478
 30
0.0
 11
292.79721673788879
 21
998.70207337247757
 31
0.0
  0
LINE
  5
C74D
  8
0
 62
     0
 10
277.7972167378889
 20
991.65028937247746
 30
0.0
 11
277.7972167378889
 21
988.68881037247752
 31
0.0
  0
LINE
  5
C74E
  8
0
 62
     0
 10
277.7972167378889
 20
980.65810937247761
 30
0.0
 11
277.7972167378889
 21
977.66548237247764
 31
0.0
  0
LINE
  5
C74F
  8
0
 62
     0
 10
277.7972167378889
 20
969.67531437247749
 30
0.0
 11
277.7972167378889
 21
966.62960837247749
 31
0.0
  0
LINE
  5
C750
  8
0
 62
     0
 10
279.87613773788911
 20
967.17991737247758
 30
0.0
 11
277.7972167378889
 21
966.62960837247749
 31
0.0
  0
LINE
  5
C751
  8
0
 62
     0
 10
279.87613773788911
 20
969.17991737247758
 30
0.0
 11
277.7972167378889
 21
969.67531437247749
 31
0.0
  0
LINE
  5
C752
  8
0
 62
     0
 10
279.87613773788911
 20
978.17991737247758
 30
0.0
 11
277.7972167378889
 21
977.66548237247764
 31
0.0
  0
LINE
  5
C753
  8
0
 62
     0
 10
279.87613773788911
 20
980.17991737247746
 30
0.0
 11
277.7972167378889
 21
980.65810937247761
 31
0.0
  0
LINE
  5
C754
  8
0
 62
     0
 10
279.87613773788911
 20
989.17991737247746
 30
0.0
 11
277.7972167378889
 21
988.68881037247752
 31
0.0
  0
LINE
  5
C755
  8
0
 62
     0
 10
279.87613773788911
 20
991.17991737247746
 30
0.0
 11
277.7972167378889
 21
991.65028937247746
 31
0.0
  0
LINE
  5
C756
  8
0
 62
     0
 10
294.87613773788922
 20
999.17991737247746
 30
0.0
 11
292.79721673788879
 21
998.70207337247757
 31
0.0
  0
LINE
  5
C757
  8
0
 62
     0
 10
294.87613773788922
 20
1001.179917372478
 30
0.0
 11
292.79721673788879
 21
1001.649765372478
 31
0.0
  0
LINE
  5
C758
  8
0
 62
     0
 10
279.87613773788911
 20
967.17991737247758
 30
0.0
 11
279.87613773788911
 21
969.17991737247758
 31
0.0
  0
LINE
  5
C759
  8
0
 62
     0
 10
279.87613773788911
 20
978.17991737247758
 30
0.0
 11
279.87613773788911
 21
980.17991737247746
 31
0.0
  0
LINE
  5
C75A
  8
0
 62
     0
 10
279.87613773788911
 20
989.17991737247746
 30
0.0
 11
279.87613773788911
 21
991.17991737247746
 31
0.0
  0
LINE
  5
C75B
  8
0
 62
     0
 10
294.87613773788922
 20
999.17991737247746
 30
0.0
 11
294.87613773788922
 21
1001.179917372478
 31
0.0
  0
ARC
  5
C75C
  8
0
 62
     0
 10
361.02223973788892
 20
1004.179917372478
 30
0.0
 40
3.0
 50
270.0
 51
10.28656100000822
  0
ARC
  5
C75D
  8
0
 62
     0
 10
360.4115697378889
 20
1005.119765372477
 30
0.0
 40
3.4700000000000002
 50
270.0
 51
6.1896490000005366
  0
LINE
  5
C75E
  8
0
 62
     0
 10
476.79721673788868
 20
998.70207337247757
 30
0.0
 11
382.37045973788872
 21
998.70207337247757
 31
0.0
  0
LINE
  5
C75F
  8
0
 62
     0
 10
476.79721673788868
 20
1001.649765372478
 30
0.0
 11
389.18286373788902
 21
1001.649765372478
 31
0.0
  0
LINE
  5
C760
  8
0
 62
     0
 10
388.57219373788888
 20
1001.179917372478
 30
0.0
 11
474.71829573788909
 21
1001.179917372478
 31
0.0
  0
LINE
  5
C761
  8
0
 62
     0
 10
382.84395473788879
 20
999.17991737247746
 30
0.0
 11
474.71829573788909
 21
999.17991737247746
 31
0.0
  0
ARC
  5
C762
  8
0
 62
     0
 10
388.57219373788888
 20
1004.179917372478
 30
0.0
 40
3.0
 50
169.71343899999181
 51
270.0
  0
ARC
  5
C763
  8
0
 62
     0
 10
389.18286373788902
 20
1005.119765372477
 30
0.0
 40
3.4700000000000002
 50
173.8103509999994
 51
270.0
  0
LINE
  5
C764
  8
0
 62
     0
 10
474.71829573788909
 20
999.17991737247746
 30
0.0
 11
474.71829573788909
 21
1001.179917372478
 31
0.0
  0
LINE
  5
C765
  8
0
 62
     0
 10
474.71829573788909
 20
989.17991737247746
 30
0.0
 11
474.71829573788909
 21
991.17991737247746
 31
0.0
  0
LINE
  5
C766
  8
0
 62
     0
 10
474.71829573788909
 20
978.17991737247758
 30
0.0
 11
474.71829573788909
 21
980.17991737247746
 31
0.0
  0
LINE
  5
C767
  8
0
 62
     0
 10
474.71829573788909
 20
967.17991737247758
 30
0.0
 11
474.71829573788909
 21
969.17991737247758
 31
0.0
  0
LINE
  5
C768
  8
0
 62
     0
 10
474.71829573788909
 20
1001.179917372478
 30
0.0
 11
476.79721673788868
 21
1001.649765372478
 31
0.0
  0
LINE
  5
C769
  8
0
 62
     0
 10
474.71829573788909
 20
999.17991737247746
 30
0.0
 11
476.79721673788868
 21
998.70207337247757
 31
0.0
  0
LINE
  5
C76A
  8
0
 62
     0
 10
474.71829573788909
 20
991.17991737247746
 30
0.0
 11
476.79721673788868
 21
991.65028937247746
 31
0.0
  0
LINE
  5
C76B
  8
0
 62
     0
 10
474.71829573788909
 20
989.17991737247746
 30
0.0
 11
476.79721673788868
 21
988.68881037247752
 31
0.0
  0
LINE
  5
C76C
  8
0
 62
     0
 10
474.71829573788909
 20
980.17991737247746
 30
0.0
 11
476.79721673788868
 21
980.65810937247761
 31
0.0
  0
LINE
  5
C76D
  8
0
 62
     0
 10
474.71829573788909
 20
978.17991737247758
 30
0.0
 11
476.79721673788868
 21
977.66548237247764
 31
0.0
  0
LINE
  5
C76E
  8
0
 62
     0
 10
474.71829573788909
 20
969.17991737247758
 30
0.0
 11
476.79721673788868
 21
969.67531437247749
 31
0.0
  0
LINE
  5
C76F
  8
0
 62
     0
 10
474.71829573788909
 20
967.17991737247758
 30
0.0
 11
476.79721673788868
 21
966.62960837247749
 31
0.0
  0
LINE
  5
C770
  8
0
 62
     0
 10
476.79721673788868
 20
969.67531437247749
 30
0.0
 11
476.79721673788868
 21
966.62960837247749
 31
0.0
  0
LINE
  5
C771
  8
0
 62
     0
 10
476.79721673788868
 20
980.65810937247761
 30
0.0
 11
476.79721673788868
 21
977.66548237247764
 31
0.0
  0
LINE
  5
C772
  8
0
 62
     0
 10
476.79721673788868
 20
991.65028937247746
 30
0.0
 11
476.79721673788868
 21
988.68881037247752
 31
0.0
  0
LINE
  5
C773
  8
0
 62
     0
 10
476.79721673788868
 20
1001.649765372478
 30
0.0
 11
476.79721673788868
 21
998.70207337247757
 31
0.0
  0
LINE
  5
C774
  8
0
 62
     0
 10
409.71829573788852
 20
958.17991737247746
 30
0.0
 11
411.79721673788868
 21
958.67531437247749
 31
0.0
  0
LINE
  5
C775
  8
0
 62
     0
 10
411.79721673788868
 20
958.67531437247749
 30
0.0
 11
277.7972167378889
 21
958.67531437247749
 31
0.0
  0
LINE
  5
C776
  8
0
 62
     0
 10
279.87613773788911
 20
958.17991737247746
 30
0.0
 11
409.71829573788852
 21
958.17991737247746
 31
0.0
  0
LINE
  5
C777
  8
0
 62
     0
 10
409.71829573788852
 20
956.17991737247746
 30
0.0
 11
409.71829573788852
 21
958.17991737247746
 31
0.0
  0
LINE
  5
C778
  8
0
 62
     0
 10
411.79721673788868
 20
955.62960837247761
 30
0.0
 11
277.7972167378889
 21
955.62960837247761
 31
0.0
  0
LINE
  5
C779
  8
0
 62
     0
 10
279.87613773788911
 20
956.17991737247746
 30
0.0
 11
409.71829573788852
 21
956.17991737247746
 31
0.0
  0
LINE
  5
C77A
  8
0
 62
     0
 10
409.71829573788852
 20
956.17991737247746
 30
0.0
 11
411.79721673788868
 21
955.62960837247761
 31
0.0
  0
LINE
  5
C77B
  8
0
 62
     0
 10
411.79721673788868
 20
949.6753143724776
 30
0.0
 11
277.7972167378889
 21
949.6753143724776
 31
0.0
  0
LINE
  5
C77C
  8
0
 62
     0
 10
279.87613773788911
 20
949.17991737247746
 30
0.0
 11
409.71829573788852
 21
949.17991737247746
 31
0.0
  0
LINE
  5
C77D
  8
0
 62
     0
 10
411.79721673788868
 20
946.62960837247783
 30
0.0
 11
277.83077373788871
 21
946.62960837247783
 31
0.0
  0
LINE
  5
C77E
  8
0
 62
     0
 10
279.87613773788911
 20
947.17991737247746
 30
0.0
 11
409.71829573788852
 21
947.17991737247746
 31
0.0
  0
LINE
  5
C77F
  8
0
 62
     0
 10
409.71829573788852
 20
947.17991737247746
 30
0.0
 11
411.79721673788868
 21
946.62960837247783
 31
0.0
  0
LINE
  5
C780
  8
0
 62
     0
 10
411.79721673788868
 20
949.6753143724776
 30
0.0
 11
411.79721673788868
 21
946.62960837247783
 31
0.0
  0
LINE
  5
C781
  8
0
 62
     0
 10
409.71829573788852
 20
947.17991737247746
 30
0.0
 11
409.71829573788852
 21
949.17991737247746
 31
0.0
  0
LINE
  5
C782
  8
0
 62
     0
 10
409.71829573788852
 20
949.17991737247746
 30
0.0
 11
411.79721673788868
 21
949.6753143724776
 31
0.0
  0
LINE
  5
C783
  8
0
 62
     0
 10
411.79721673788868
 20
946.62960837247783
 30
0.0
 11
426.79721673788868
 21
946.62960837247783
 31
0.0
  0
LINE
  5
C784
  8
0
 62
     0
 10
426.79721673788868
 20
946.62960837247783
 30
0.0
 11
442.79721673788879
 21
942.28768337247755
 31
0.0
  0
LINE
  5
C785
  8
0
 62
     0
 10
277.7972167378889
 20
958.67531437247749
 30
0.0
 11
277.7972167378889
 21
955.62960837247761
 31
0.0
  0
LINE
  5
C786
  8
0
 62
     0
 10
277.7972167378889
 20
949.6753143724776
 30
0.0
 11
277.7972167378889
 21
946.62960837247783
 31
0.0
  0
LINE
  5
C787
  8
0
 62
     0
 10
279.87613773788911
 20
956.17991737247746
 30
0.0
 11
279.87613773788911
 21
958.17991737247746
 31
0.0
  0
LINE
  5
C788
  8
0
 62
     0
 10
279.87613773788911
 20
958.17991737247746
 30
0.0
 11
277.7972167378889
 21
958.67531437247749
 31
0.0
  0
LINE
  5
C789
  8
0
 62
     0
 10
279.87613773788911
 20
956.17991737247746
 30
0.0
 11
277.7972167378889
 21
955.62960837247761
 31
0.0
  0
LINE
  5
C78A
  8
0
 62
     0
 10
279.87613773788911
 20
949.17991737247746
 30
0.0
 11
277.7972167378889
 21
949.6753143724776
 31
0.0
  0
LINE
  5
C78B
  8
0
 62
     0
 10
279.87613773788911
 20
947.17991737247746
 30
0.0
 11
279.87613773788911
 21
949.17991737247746
 31
0.0
  0
LINE
  5
C78C
  8
0
 62
     0
 10
279.87613773788911
 20
947.17991737247746
 30
0.0
 11
277.7972167378889
 21
946.62960837247783
 31
0.0
  0
LINE
  5
C78D
  8
0
 62
     0
 10
274.2972167378889
 20
1014.323688372477
 30
0.0
 11
280.7972167378889
 21
1014.323688372477
 31
0.0
  0
LINE
  5
C78E
  8
0
 62
     0
 10
274.2972167378889
 20
1014.657766372478
 30
0.0
 11
281.47721673788868
 21
1014.657766372478
 31
0.0
  0
LINE
  5
C78F
  8
0
 62
     0
 10
282.79721673788879
 20
1012.323688372477
 30
0.0
 11
282.79721673788879
 21
1006.679921372477
 31
0.0
  0
LINE
  5
C790
  8
0
 62
     0
 10
284.4772167378888
 20
1017.657766372478
 30
0.0
 11
284.4772167378888
 21
1006.679921372477
 31
0.0
  0
ARC
  5
C791
  8
0
 62
     0
 10
281.47721673788868
 20
1017.657766372478
 30
0.0
 40
3.0
 50
270.0
 51
0.0
  0
LINE
  5
C792
  8
0
 62
     0
 10
274.2972167378889
 20
999.03615337247766
 30
0.0
 11
280.7972167378889
 21
999.03615337247766
 31
0.0
  0
LINE
  5
C793
  8
0
 62
     0
 10
274.2972167378889
 20
998.70207537247757
 30
0.0
 11
281.47721673788868
 21
998.70207537247757
 31
0.0
  0
LINE
  5
C794
  8
0
 62
     0
 10
282.79721673788879
 20
1001.036153372478
 30
0.0
 11
282.79721673788879
 21
1006.679921372477
 31
0.0
  0
LINE
  5
C795
  8
0
 62
     0
 10
284.4772167378888
 20
995.70207537247745
 30
0.0
 11
284.4772167378888
 21
1006.679921372477
 31
0.0
  0
ARC
  5
C796
  8
0
 62
     0
 10
281.47721673788868
 20
995.70207537247745
 30
0.0
 40
3.0
 50
359.99999799999722
 51
89.999998000010223
  0
ARC
  5
C797
  8
0
  6
CONTINUOUS
 62
     0
 10
459.49701573788872
 20
1078.1631833724771
 30
0.0
 40
2.600398999999999
 50
179.99998200000081
 51
269.99997799999852
  0
ARC
  5
C798
  8
0
  6
CONTINUOUS
 62
     0
 10
459.49701573788872
 20
1083.463171372478
 30
0.0
 40
2.600403
 50
90.0
 51
179.99998200000081
  0
LINE
  5
C799
  8
0
  6
CONTINUOUS
 62
     0
 10
462.29721673788879
 20
1080.8792023724779
 30
0.0
 11
460.79721673788868
 21
1080.013177372477
 31
0.0
  0
LINE
  5
C79A
  8
0
  6
CONTINUOUS
 62
     0
 10
462.29721673788879
 20
1081.879202372477
 30
0.0
 11
460.79721673788868
 21
1081.0131773724779
 31
0.0
  0
LINE
  5
C79B
  8
0
  6
CONTINUOUS
 62
     0
 10
462.29721673788879
 20
1086.9131773724771
 30
0.0
 11
462.29721673788879
 21
1074.713177372478
 31
0.0
  0
LINE
  5
C79C
  8
0
  6
CONTINUOUS
 62
     0
 10
460.79721673788868
 20
1086.9131773724771
 30
0.0
 11
462.29721673788879
 21
1086.9131773724771
 31
0.0
  0
LINE
  5
C79D
  8
0
  6
CONTINUOUS
 62
     0
 10
460.79721673788868
 20
1074.713177372478
 30
0.0
 11
462.29721673788879
 21
1074.713177372478
 31
0.0
  0
LINE
  5
C79E
  8
0
  6
CONTINUOUS
 62
     0
 10
456.89722273788868
 20
1083.463171372478
 30
0.0
 11
456.89722273788868
 21
1078.1631833724771
 31
0.0
  0
LINE
  5
C79F
  8
0
  6
CONTINUOUS
 62
     0
 10
460.79721673788868
 20
1086.9131773724771
 30
0.0
 11
460.79721673788868
 21
1074.713177372478
 31
0.0
  0
LINE
  5
C7A0
  8
0
  6
CONTINUOUS
 62
     0
 10
460.79721673788868
 20
1075.563177372477
 30
0.0
 11
459.49701573788872
 21
1075.563177372477
 31
0.0
  0
LINE
  5
C7A1
  8
0
  6
CONTINUOUS
 62
     0
 10
460.79721673788868
 20
1086.063177372477
 30
0.0
 11
459.49701573788872
 21
1086.063177372477
 31
0.0
  0
ARC
  5
C7A2
  8
0
  6
CONTINUOUS
 62
     0
 10
459.49701573788872
 20
952.12125637247755
 30
0.0
 40
2.600398999999999
 50
179.99998200000081
 51
269.99997799999852
  0
ARC
  5
C7A3
  8
0
  6
CONTINUOUS
 62
     0
 10
459.49701573788872
 20
957.42124437247753
 30
0.0
 40
2.600403
 50
90.0
 51
179.99998200000081
  0
LINE
  5
C7A4
  8
0
  6
CONTINUOUS
 62
     0
 10
462.29721673788879
 20
954.83727537247751
 30
0.0
 11
460.79721673788868
 21
953.97125037247747
 31
0.0
  0
LINE
  5
C7A5
  8
0
  6
CONTINUOUS
 62
     0
 10
462.29721673788879
 20
955.83727537247773
 30
0.0
 11
460.79721673788868
 21
954.97125037247747
 31
0.0
  0
LINE
  5
C7A6
  8
0
  6
CONTINUOUS
 62
     0
 10
462.29721673788879
 20
960.87125037247756
 30
0.0
 11
462.29721673788879
 21
948.6712503724774
 31
0.0
  0
LINE
  5
C7A7
  8
0
  6
CONTINUOUS
 62
     0
 10
460.79721673788868
 20
960.87125037247756
 30
0.0
 11
462.29721673788879
 21
960.87125037247756
 31
0.0
  0
LINE
  5
C7A8
  8
0
  6
CONTINUOUS
 62
     0
 10
460.79721673788868
 20
948.6712503724774
 30
0.0
 11
462.29721673788879
 21
948.6712503724774
 31
0.0
  0
LINE
  5
C7A9
  8
0
  6
CONTINUOUS
 62
     0
 10
456.89722273788868
 20
957.42124437247753
 30
0.0
 11
456.89722273788868
 21
952.12125637247755
 31
0.0
  0
LINE
  5
C7AA
  8
0
  6
CONTINUOUS
 62
     0
 10
460.79721673788868
 20
960.87125037247756
 30
0.0
 11
460.79721673788868
 21
948.6712503724774
 31
0.0
  0
LINE
  5
C7AB
  8
0
  6
CONTINUOUS
 62
     0
 10
460.79721673788868
 20
949.52125037247765
 30
0.0
 11
459.49701573788872
 21
949.52125037247765
 31
0.0
  0
LINE
  5
C7AC
  8
0
  6
CONTINUOUS
 62
     0
 10
460.79721673788868
 20
960.02125037247743
 30
0.0
 11
459.49701573788872
 21
960.02125037247743
 31
0.0
  0
LINE
  5
C907
  8
0
  6
CONTINUOUS
 62
     0
 10
500.29715673788911
 20
1082.419561372478
 30
0.0
 11
481.79721673788868
 21
1082.419561372478
 31
0.0
  0
LINE
  5
C908
  8
0
  6
CONTINUOUS
 62
     0
 10
500.29715673788911
 20
1068.7458793724779
 30
0.0
 11
481.79721673788868
 21
1068.7458793724779
 31
0.0
  0
LINE
  5
C909
  8
0
  6
CONTINUOUS
 62
     0
 10
500.29715673788911
 20
956.77791937247741
 30
0.0
 11
481.79721673788868
 21
956.77791937247741
 31
0.0
  0
LINE
  5
C90A
  8
0
  6
CONTINUOUS
 62
     0
 10
500.29715673788911
 20
966.95721137247745
 30
0.0
 11
481.79721673788868
 21
966.95721137247745
 31
0.0
  0
LINE
  5
C90B
  8
0
  6
CONTINUOUS
 62
     0
 10
500.29715673788911
 20
944.47028037247753
 30
0.0
 11
481.79721673788868
 21
944.47028037247753
 31
0.0
  0
LINE
  5
C90C
  8
0
 62
     0
 10
481.7971567378894
 20
661.03272782777105
 30
0.0
 11
500.29715673788672
 21
661.03272782777105
 31
0.0
  0
LINE
  5
C90E
  8
0
 62
     0
 10
481.7971567378894
 20
669.15673282777107
 30
0.0
 11
500.29715673788672
 21
669.15673282777107
 31
0.0
  0
LINE
  5
C90F
  8
0
 62
     0
 10
481.7971567378894
 20
647.35901682777126
 30
0.0
 11
500.29715673788672
 21
647.35901682777126
 31
0.0
  0
LINE
  5
C910
  8
0
 62
     0
 10
481.7971567378894
 20
535.39108582777112
 30
0.0
 11
500.29715673788672
 21
535.39108582777112
 31
0.0
  0
LINE
  5
C911
  8
0
 62
     0
 10
481.7971567378894
 20
545.57037782777127
 30
0.0
 11
500.29715673788672
 21
545.57037782777127
 31
0.0
  0
LINE
  5
C912
  8
0
 62
     0
 10
481.7971567378894
 20
523.10380482777123
 30
0.0
 11
500.29715673788672
 21
523.10380482777123
 31
0.0
  0
TEXT
  5
CF30
  8
0
  6
CONTINUOUS
 62
     0
 10
870.41985898146572
 20
1005.167841136286
 30
0.0
 40
15.0
  1
VX22-060EM~VX22-200EM
  0
ENDSEC
  0
EOF
