  0
SECTION
  2
HEADER
  9
$ACADVER
  1
AC1009
  9
$INSBASE
 10
0.0
 20
0.0
 30
0.0
  9
$EXTMIN
 10
116.76759809413799
 20
430.57168683039072
 30
-0.000000000000013
  9
$EXTMAX
 10
1333.541660633791
 20
1285.4191716027169
 30
0.0000000000000023
  9
$LIMMIN
 10
0.0000005999945643
 20
-0.0000005963913736
  9
$LIMMAX
 10
1707.000000599995
 20
1109.9999994036091
  9
$ORTHOMODE
 70
     0
  9
$REGENMODE
 70
     1
  9
$FILLMODE
 70
     1
  9
$QTEXTMODE
 70
     0
  9
$MIRRTEXT
 70
     0
  9
$DRAGMODE
 70
     2
  9
$LTSCALE
 40
1.0
  9
$OSMODE
 70
   551
  9
$ATTMODE
 70
     1
  9
$TEXTSIZE
 40
2.5
  9
$TRACEWID
 40
1.0
  9
$TEXTSTYLE
  7
STANDARD
  9
$CLAYER
  8
0
  9
$CELTYPE
  6
BYLAYER
  9
$CECOLOR
 62
   256
  9
$DIMSCALE
 40
1.0
  9
$DIMASZ
 40
2.0
  9
$DIMEXO
 40
1.0
  9
$DIMDLI
 40
8.0
  9
$DIMRND
 40
0.0
  9
$DIMDLE
 40
0.0
  9
$DIMEXE
 40
1.0
  9
$DIMTP
 40
-0.025
  9
$DIMTM
 40
0.043
  9
$DIMTXT
 40
2.5
  9
$DIMCEN
 40
0.0
  9
$DIMTSZ
 40
0.0
  9
$DIMTOL
 70
     0
  9
$DIMLIM
 70
     0
  9
$DIMTIH
 70
     0
  9
$DIMTOH
 70
     0
  9
$DIMSE1
 70
     0
  9
$DIMSE2
 70
     0
  9
$DIMTAD
 70
     3
  9
$DIMZIN
 70
     8
  9
$DIMBLK
  1

  9
$DIMASO
 70
     1
  9
$DIMSHO
 70
     1
  9
$DIMPOST
  1

  9
$DIMAPOST
  1
"
  9
$DIMALT
 70
     0
  9
$DIMALTD
 70
     2
  9
$DIMALTF
 40
0.0393701
  9
$DIMLFAC
 40
1.0
  9
$DIMTOFL
 70
     1
  9
$DIMTVP
 40
0.0
  9
$DIMTIX
 70
     0
  9
$DIMSOXD
 70
     0
  9
$DIMSAH
 70
     0
  9
$DIMBLK1
  1

  9
$DIMBLK2
  1

  9
$DIMSTYLE
  2
AM_JIS
  9
$DIMCLRD
 70
     2
  9
$DIMCLRE
 70
     2
  9
$DIMCLRT
 70
     4
  9
$DIMTFAC
 40
0.71
  9
$DIMGAP
 40
1.5
  9
$LUNITS
 70
     2
  9
$LUPREC
 70
     2
  9
$SKETCHINC
 40
1.0
  9
$FILLETRAD
 40
0.0
  9
$AUNITS
 70
     0
  9
$AUPREC
 70
     0
  9
$MENU
  1
.
  9
$ELEVATION
 40
0.0
  9
$PELEVATION
 40
0.0
  9
$THICKNESS
 40
0.0
  9
$LIMCHECK
 70
     0
  9
$BLIPMODE
 70
     0
  9
$CHAMFERA
 40
3.0
  9
$CHAMFERB
 40
3.0
  9
$SKPOLY
 70
     0
  9
$TDCREATE
 40
2456829.3841110538
  9
$TDUPDATE
 40
2458540.687043264
  9
$TDINDWG
 40
0.7091605093
  9
$TDUSRTIMER
 40
0.7091599074
  9
$USRTIMER
 70
     1
  9
$ANGBASE
 50
0.0
  9
$ANGDIR
 70
     0
  9
$PDMODE
 70
     0
  9
$PDSIZE
 40
0.0
  9
$PLINEWID
 40
0.0
  9
$COORDS
 70
     1
  9
$SPLFRAME
 70
     0
  9
$SPLINETYPE
 70
     6
  9
$SPLINESEGS
 70
     8
  9
$ATTDIA
 70
     1
  9
$ATTREQ
 70
     1
  9
$HANDLING
 70
     1
  9
$HANDSEED
  5
C4BC
  9
$SURFTAB1
 70
     6
  9
$SURFTAB2
 70
     6
  9
$SURFTYPE
 70
     6
  9
$SURFU
 70
     6
  9
$SURFV
 70
     6
  9
$UCSNAME
  2

  9
$UCSORG
 10
0.0
 20
0.0
 30
0.0
  9
$UCSXDIR
 10
1.0
 20
0.0
 30
0.0
  9
$UCSYDIR
 10
0.0
 20
1.0
 30
0.0
  9
$PUCSNAME
  2

  9
$PUCSORG
 10
0.0
 20
0.0
 30
0.0
  9
$PUCSXDIR
 10
1.0
 20
0.0
 30
0.0
  9
$PUCSYDIR
 10
0.0
 20
1.0
 30
0.0
  9
$USERI1
 70
     0
  9
$USERI2
 70
     0
  9
$USERI3
 70
     0
  9
$USERI4
 70
     0
  9
$USERI5
 70
     0
  9
$USERR1
 40
0.0
  9
$USERR2
 40
0.0
  9
$USERR3
 40
0.0
  9
$USERR4
 40
0.0
  9
$USERR5
 40
0.0
  9
$WORLDVIEW
 70
     1
  9
$SHADEDGE
 70
     3
  9
$SHADEDIF
 70
    70
  9
$TILEMODE
 70
     1
  9
$MAXACTVP
 70
    64
  9
$PLIMCHECK
 70
     0
  9
$PEXTMIN
 10
1.0000000000000000E+020
 20
1.0000000000000000E+020
 30
1.0000000000000000E+020
  9
$PEXTMAX
 10
-1.0000000000000000E+020
 20
-1.0000000000000000E+020
 30
-1.0000000000000000E+020
  9
$PLIMMIN
 10
0.0
 20
0.0
  9
$PLIMMAX
 10
420.0
 20
297.0
  9
$UNITMODE
 70
     0
  9
$VISRETAIN
 70
     1
  9
$PLINEGEN
 70
     0
  9
$PSLTSCALE
 70
     1
  0
ENDSEC
  0
SECTION
  2
TABLES
  0
TABLE
  2
VPORT
 70
     1
  0
VPORT
  2
*ACTIVE
 70
     0
 10
0.0
 20
0.0
 11
1.0
 21
1.0
 12
725.15462936396455
 22
857.99542921655416
 13
0.0
 23
0.0
 14
15.0
 24
15.0
 15
60.0
 25
60.0
 16
0.0
 26
0.0
 36
1.0
 17
0.0
 27
0.0
 37
0.0
 40
860.71600297442512
 41
1.7571592210767459
 42
50.0
 43
0.0
 44
0.0
 50
0.0
 51
0.0
 71
     0
 72
  1000
 73
     1
 74
     3
 75
     0
 76
     0
 77
     0
 78
     0
  0
ENDTAB
  0
TABLE
  2
LTYPE
 70
    24
  0
LTYPE
  2
CONTINUOUS
 70
     0
  3
Solid line
 72
    65
 73
     0
 40
0.0
  0
LTYPE
  2
CENTER
 70
     0
  3
Center ____ _ ____ _ ____ _ ____ _ ____ _ ____
 72
    65
 73
     4
 40
50.799999999999997
 49
31.75
 49
-6.349999999999997
 49
6.349999999999997
 49
-6.349999999999997
  0
LTYPE
  2
AM_ISO02W050
 70
     0
  3
__ __ __ __ __ __ __ __ __ __ __ __ __ __ __
 72
    65
 73
     2
 40
7.5
 49
6.0
 49
-1.5
  0
LTYPE
  2
AM_ISO08W050
 70
     0
  3
____ . ____ . ____ . ____ . ____ . ____ . ____
 72
    65
 73
     4
 40
18.0
 49
12.0
 49
-1.5
 49
3.0
 49
-1.5
  0
LTYPE
  2
AM_ISO09W050
 70
     0
  3
_____ . . _____ . . _____ . . ____ .. ____
 72
    65
 73
     6
 40
22.5
 49
12.0
 49
-1.5
 49
3.0
 49
-1.5
 49
3.0
 49
-1.5
  0
LTYPE
  2
AMCONSTR
 70
     0
  3
_______________________
 72
    65
 73
     2
 40
9999.0
 49
9999.0
 49
0.0
  0
LTYPE
  2
AM_ISO08W050X2
 70
     0
  3
__ . __ . __ . __ . __ . __
 72
    65
 73
     4
 40
9.0
 49
6.0
 49
-0.75
 49
1.5
 49
-0.75
  0
LTYPE
  2
AM_ISO02W050X2
 70
     0
  3
 _ _ _ _ _ _ _ _ _ _ _ _
 72
    65
 73
     2
 40
3.75
 49
3.0
 49
-0.75
  0
LTYPE
  2
AMZIGZAG
 70
     0
  3
/\/-/\/-/\/-/\/-/\/-/\/
 72
    65
 73
     2
 40
11.0001
 49
0.0001
 49
-11.0
  0
LTYPE
  2
ACANSTGBM
 70
     0
  3
__ . . __ . .
 72
    65
 73
     6
 40
9.0
 49
4.0
 49
-1.0
 49
1.0
 49
-1.0
 49
1.0
 49
-1.0
  0
LTYPE
  2
ACANSTGLM
 70
     0
  3
_ _ _ _ _
 72
    65
 73
     2
 40
3.0
 49
2.0
 49
-1.0
  0
LTYPE
  2
ACISOWELD
 70
     0
  3
_ _ _ _ _
 72
    65
 73
     2
 40
2.0
 49
2.0
 49
-1.0
  0
LTYPE
  2
ACISOTGB
 70
     0
  3
__ . . __ . .
 72
    65
 73
     6
 40
9.0
 49
4.0
 49
-1.0
 49
1.0
 49
-1.0
 49
1.0
 49
-1.0
  0
LTYPE
  2
ACISOTGL
 70
     0
  3
_ _ _ _ _
 72
    65
 73
     2
 40
3.0
 49
2.0
 49
-1.0
  0
LTYPE
  2
ACJISTGB
 70
     0
  3
__ . . __ . .
 72
    65
 73
     6
 40
9.0
 49
4.0
 49
-1.0
 49
1.0
 49
-1.0
 49
1.0
 49
-1.0
  0
LTYPE
  2
ACJISTGL
 70
     0
  3
_ _ _ _ _
 72
    65
 73
     2
 40
3.0
 49
2.0
 49
-1.0
  0
LTYPE
  2
HIDDEN
 70
     0
  3
Hidden __ __ __ __ __ __ __ __ __ __ __ __ __ _
 72
    65
 73
     2
 40
9.5249999999999968
 49
6.349999999999997
 49
-3.174999999999998
  0
LTYPE
  2
PHANTOM2
 70
     0
  3
Phantom (.5x) ___ _ _ ___ _ _ ___ _ _ ___ _ _
 72
    65
 73
     6
 40
31.75
 49
15.875
 49
-3.174999999999998
 49
3.174999999999998
 49
-3.174999999999998
 49
3.174999999999998
 49
-3.174999999999998
  0
LTYPE
  2
CENTER2
 70
     0
  3
Center (.5x) ___ _ ___ _ ___ _ ___ _ ___ _ ___
 72
    65
 73
     4
 40
1.125
 49
0.75
 49
-0.125
 49
0.125
 49
-0.125
  0
LTYPE
  2
HIDDEN2
 70
     0
  3
Hidden (.5x) _ _ _ _ _ _ _ _ _ _ _ _ _ _ _ _ _
 72
    65
 73
     2
 40
0.1875
 49
0.125
 49
-0.0625
  0
LTYPE
  2
AMZIGZAG2
 70
     0
  3
/\/-/\/-/\/-/\/-/\/-/\/
 72
    65
 73
     2
 40
0.4401
 49
0.0001
 49
-0.4400000000000001
  0
LTYPE
  2
ACANSTGB
 70
     0
  3
__ . . __ . .
 72
    65
 73
     6
 40
0.35433070866
 49
0.15748031496
 49
-0.03937007874
 49
0.03937007874
 49
-0.03937007874
 49
0.03937007874
 49
-0.03937007874
  0
LTYPE
  2
ACANSTGL
 70
     0
  3
_ _ _ _ _
 72
    65
 73
     2
 40
0.11811023622
 49
0.07874015748
 49
-0.03937007874
  0
ENDTAB
  0
TABLE
  2
LAYER
 70
     4
  0
LAYER
  2
0
 70
     0
 62
     7
  6
CONTINUOUS
  0
LAYER
  2
DEFPOINTS
 70
     0
 62
     7
  6
CONTINUOUS
  0
LAYER
  2
AM_CL
 70
     0
 62
     1
  6
AMCONSTR
  0
LAYER
  2
AM_5
 70
     0
 62
     2
  6
CONTINUOUS
  0
ENDTAB
  0
TABLE
  2
STYLE
 70
    10
  0
STYLE
  2
STANDARD
 70
     0
 40
0.0
 41
0.7400000000000003
 50
0.0
 71
     0
 42
2.5
  3
txt.shx
  4
bigfont.shx
  0
STYLE
  2
ANNOTATIVE
 70
     0
 40
0.0
 41
1.0
 50
0.0
 71
     0
 42
0.2
  3
txt
  4

  0
STYLE
  2

 70
     1
 40
0.0
 41
1.0
 50
0.0
 71
     0
 42
2.5
  3
ltypeshp.shx
  4

  0
STYLE
  2
ACANSTS
 70
     0
 40
1.0
 41
1.0
 50
0.0
 71
     0
 42
2.5
  3
romans.shx
  4
bigfont.shx
  0
STYLE
  2
ACANSGDT
 70
     0
 40
0.0
 41
1.0
 50
0.0
 71
     0
 42
2.5
  3
amgdt.shx
  4

  0
STYLE
  2
ACISOTS
 70
     0
 40
1.0
 41
1.0
 50
0.0
 71
     0
 42
2.5
  3
isocp.shx
  4
extfont.shx
  0
STYLE
  2
ACISOGDT
 70
     0
 40
0.0
 41
1.0
 50
0.0
 71
     0
 42
2.5
  3
amgdt.shx
  4

  0
STYLE
  2
ACJISGDT
 70
     0
 40
0.0
 41
1.0
 50
0.0
 71
     0
 42
2.5
  3
amgdt.shx
  4

  0
STYLE
  2
ACJISTS
 70
     0
 40
1.0
 41
1.0
 50
0.0
 71
     0
 42
2.5
  3
isocp.shx
  4
extfont.shx
  0
STYLE
  2

 70
     1
 40
0.0
 41
1.0
 50
0.0
 71
     0
 42
2.5
  3
genltshp.shx
  4

  0
ENDTAB
  0
TABLE
  2
VIEW
 70
     6
  0
VIEW
  2
AM_VIEW1
 70
     0
 40
555.00000000000011
 10
586.60142408753893
 20
832.49999940360874
 41
1173.202846975089
 11
0.0
 21
0.0
 31
1.0
 12
0.0
 22
0.0
 32
0.0
 42
50.0
 43
0.0
 44
0.0
 50
0.0
 71
     0
  0
VIEW
  2
AM_VIEW2
 70
     0
 40
555.00000000000011
 10
1120.3985771124501
 20
832.49999940360874
 41
1173.202846975089
 11
0.0
 21
0.0
 31
1.0
 12
0.0
 22
0.0
 32
0.0
 42
50.0
 43
0.0
 44
0.0
 50
0.0
 71
     0
  0
VIEW
  2
AM_VIEW3
 70
     0
 40
555.00000000000011
 10
586.60142408753893
 20
277.49999940360868
 41
1173.202846975089
 11
0.0
 21
0.0
 31
1.0
 12
0.0
 22
0.0
 32
0.0
 42
50.0
 43
0.0
 44
0.0
 50
0.0
 71
     0
  0
VIEW
  2
AM_VIEW4
 70
     0
 40
555.00000000000011
 10
1120.3985771124501
 20
277.49999940360868
 41
1173.202846975089
 11
0.0
 21
0.0
 31
1.0
 12
0.0
 22
0.0
 32
0.0
 42
50.0
 43
0.0
 44
0.0
 50
0.0
 71
     0
  0
VIEW
  2
AM_VIEW5
 70
     0
 40
555.00000000000011
 10
853.50000059999434
 20
554.99999940360874
 41
1173.202846975089
 11
0.0
 21
0.0
 31
1.0
 12
0.0
 22
0.0
 32
0.0
 42
50.0
 43
0.0
 44
0.0
 50
0.0
 71
     0
  0
VIEW
  2
AM_VIEW6
 70
     0
 40
1109.9889000000001
 10
853.50000059999434
 20
554.99999940360874
 41
2346.3822298932391
 11
0.0
 21
0.0
 31
1.0
 12
0.0
 22
0.0
 32
0.0
 42
50.0
 43
0.0
 44
0.0
 50
0.0
 71
     0
  0
ENDTAB
  0
TABLE
  2
UCS
 70
     0
  0
ENDTAB
  0
TABLE
  2
APPID
 70
   158
  0
APPID
  2
ACAD
 70
     0
  0
APPID
  2
ACADANNOTATIVE
 70
     0
  0
APPID
  2
ACAD_MLEADERVER
 70
     0
  0
APPID
  2
MCAD_NO_VIS
 70
     0
  0
APPID
  2
ACAD_TEMP_GRAPHIC
 70
     0
  0
APPID
  2
AD_DRAW
 70
     0
  0
APPID
  2
ACATTRIBSERVICES
 70
     0
  0
APPID
  2
DESIGNERASSEMBLIES
 70
     0
  0
APPID
  2
ACADM_DIM_EDIT
 70
     0
  0
APPID
  2
AMDT_DM_ADJ
 70
     0
  0
APPID
  2
GENIUS_GENDIMSH_14
 70
     0
  0
APPID
  2
GEVID1057795304
 70
     0
  0
APPID
  2
GEVDC
 70
     0
  0
APPID
  2
GEVCON
 70
     0
  0
APPID
  2
GENIUS_GENBH_13
 70
     0
  0
APPID
  2
GENIUS_GENOENT_13
 70
     0
  0
APPID
  2
GENIUS_GENOBJ-NBEHI-BHF_13
 70
     0
  0
APPID
  2
GENIUS_GENOLIS_13
 70
     0
  0
APPID
  2
GENIUS_GENODEF_13
 70
     0
  0
APPID
  2
GENIUS_GENOREF_13
 70
     0
  0
APPID
  2
GENIUS_GENOBJ-NBEHI-BHB_13
 70
     0
  0
APPID
  2
GENIUS_GENOBJ-F-SCPASSM_13
 70
     0
  0
APPID
  2
GENIUS_GENDTOL_13
 70
     0
  0
APPID
  2
GENIUS_GENTRA_14
 70
     0
  0
APPID
  2
ASURF_PCURVE_APPNAME
 70
     0
  0
APPID
  2
GENIUS_GENCFG_13
 70
     0
  0
APPID
  2
GENIUS_GE3CFG0_13
 70
     0
  0
APPID
  2
GENIUS_GENCFG0_13
 70
     0
  0
APPID
  2
GENIUS_GENCFG1_13
 70
     0
  0
APPID
  2
GENIUS_GENCFG2_13
 70
     0
  0
APPID
  2
GENIUS_GENCFG3_13
 70
     0
  0
APPID
  2
GENIUS_GENCFG4_13
 70
     0
  0
APPID
  2
GENIUS_GEVCFG0_13
 70
     0
  0
APPID
  2
GENIUS_GENOBJ-N-TIT_13
 70
     0
  0
APPID
  2
GENIUS_GENTITLE_13
 70
     0
  0
APPID
  2
GENIUS_GENSCREG_15
 70
     0
  0
APPID
  2
GENIUS_GENOBJ-N-SDF_13
 70
     0
  0
APPID
  2
GENIUS_GENFIL_13
 70
     0
  0
APPID
  2
GENIUS_GENOBJ-N-CHA_13
 70
     0
  0
APPID
  2
GENIUS_GEFSH_13
 70
     0
  0
APPID
  2
GENIUS_GENOBJ-F-SHS_13
 70
     0
  0
APPID
  2
GENIUS_GENOBJ-N-CEN_13
 70
     0
  0
APPID
  2
GENIUS_GENREC_14
 70
     0
  0
APPID
  2
GENIUS_GENOBJ-N-REC_13
 70
     0
  0
APPID
  2
GENIUS_GENOBJ-N-HTC_13
 70
     0
  0
APPID
  2
GENIUS_GENHATCH_13
 70
     0
  0
APPID
  2
ACAD_PSEXT
 70
     0
  0
APPID
  2
ACAD_EXEMPT_FROM_CAD_STANDARDS
 70
     0
  0
APPID
  2
ACAECLAYERSTANDARD
 70
     0
  0
APPID
  2
GENIUS_GENCEN_19
 70
     0
  0
APPID
  2
ACAD_DSTYLE_DIMINSPECT
 70
     0
  0
APPID
  2
ACAD_DSTYLE_DIMANGULAR_EXT
 70
     0
  0
APPID
  2
ACADANNOPO
 70
     0
  0
APPID
  2
ACAD_NAV_VCDISPLAY
 70
     0
  0
APPID
  2
GENIUS_GENOBJ-N-FIL_13
 70
     0
  0
APPID
  2
ACAD_DSTYLE_DIMBREAK
 70
     0
  0
APPID
  2
ACAD_DSTYLE_DIMJAG
 70
     0
  0
APPID
  2
ACAD_DSTYLE_DIMRADIAL_EXTENSION
 70
     0
  0
APPID
  2
GENIUS_GENHINW_13
 70
     0
  0
APPID
  2
GENIUS_FIRSTVISTXT_14
 70
     0
  0
APPID
  2
GENIUS_GENOBJ-N-LEADER_13
 70
     0
  0
APPID
  2
DCO15
 70
     0
  0
APPID
  2
GENIUS_DUMCFG0_13
 70
     0
  0
APPID
  2
ACAD_DSTYLE_DIMTEXT_FILL
 70
     0
  0
APPID
  2
AMG_2DHIDE
 70
     0
  0
APPID
  2
GENIUS_GEFSHEP_13
 70
     0
  0
APPID
  2
GENIUS_GENOBJ-F-SHE_13
 70
     0
  0
APPID
  2
GENIUS_GEFSHE_13
 70
     0
  0
APPID
  2
ACAD_DIMASSOC_DIMLFAC
 70
     0
  0
APPID
  2
ACAD_DIMASSOC_CALC_DIMLFAC
 70
     0
  0
APPID
  2
ACAD_DIMASSOC_OVERRIDDEN_D
 70
     0
  0
APPID
  2
GENIUS_GENOBJ-F-SHSV_13
 70
     0
  0
APPID
  2
GENIUS_GEFWELD_13
 70
     0
  0
APPID
  2
GENIUS_GENOBJ-N-CRS_13
 70
     0
  0
APPID
  2
GENIUS_GENOBJ-N-RSBK_13
 70
     0
  0
APPID
  2
GENIUS_GENOBJ-N-LIB_13
 70
     0
  0
APPID
  2
GENIUS_GENSCALE_13
 70
     0
  0
APPID
  2
GENIUS_GENDREL_13
 70
     0
  0
APPID
  2
GEVPT
 70
     0
  0
APPID
  2
GEVIT
 70
     0
  0
APPID
  2
VCC
 70
     0
  0
APPID
  2
GENBH
 70
     0
  0
APPID
  2
GEVMK
 70
     0
  0
APPID
  2
GENIUS_GENOBJ-F-DESC_13
 70
     0
  0
APPID
  2
GENIUS_GEFDESC_14
 70
     0
  0
APPID
  2
GENIUS_GENOBJ-F-FEAT_13
 70
     0
  0
APPID
  2
GENIUS_GEFFEAT_14
 70
     0
  0
APPID
  2
GENIUS_GEFPARTINS_13
 70
     0
  0
APPID
  2
GENIUS_GENSCREG_13
 70
     0
  0
APPID
  2
GENIUS_GEFSHP_13
 70
     0
  0
APPID
  2
GEVID1025574798
 70
     0
  0
APPID
  2
GEVID1025574769
 70
     0
  0
APPID
  2
GEVID1025757451
 70
     0
  0
APPID
  2
GEVID1240528327
 70
     0
  0
APPID
  2
AMG_2DSTRUCT_BTR
 70
     0
  0
APPID
  2
ACADM_2DVIEW_IGN_NOTIFY
 70
     0
  0
APPID
  2
GEVID1240528328
 70
     0
  0
APPID
  2
GEVID1240528329
 70
     0
  0
APPID
  2
GEVRADREF
 70
     0
  0
APPID
  2
GEVID1240528330
 70
     0
  0
APPID
  2
GEVID1240528331
 70
     0
  0
APPID
  2
GEVID1240528332
 70
     0
  0
APPID
  2
GEVID1240791080
 70
     0
  0
APPID
  2
GEVID1240791081
 70
     0
  0
APPID
  2
GEVID1240791082
 70
     0
  0
APPID
  2
GEVID1240791083
 70
     0
  0
APPID
  2
GEVID1240791084
 70
     0
  0
APPID
  2
GEVID1240791085
 70
     0
  0
APPID
  2
GEVID1240791086
 70
     0
  0
APPID
  2
GEVID1240791087
 70
     0
  0
APPID
  2
GEVID1240791088
 70
     0
  0
APPID
  2
GEVID1240791089
 70
     0
  0
APPID
  2
GEVID1240791090
 70
     0
  0
APPID
  2
GEVID1240791091
 70
     0
  0
APPID
  2
GEVID1240791092
 70
     0
  0
APPID
  2
GEVID1240791093
 70
     0
  0
APPID
  2
GEVID1240791094
 70
     0
  0
APPID
  2
GEVID1240791095
 70
     0
  0
APPID
  2
GEVID1240791096
 70
     0
  0
APPID
  2
GEVID1240791097
 70
     0
  0
APPID
  2
GEVID1240791098
 70
     0
  0
APPID
  2
GEVID1240791099
 70
     0
  0
APPID
  2
GEVID1240791100
 70
     0
  0
APPID
  2
GEVID1240791101
 70
     0
  0
APPID
  2
GEVID1240791102
 70
     0
  0
APPID
  2
GEVID1240791103
 70
     0
  0
APPID
  2
GEVID1240791104
 70
     0
  0
APPID
  2
GEVID1240791105
 70
     0
  0
APPID
  2
GEVID1240875381
 70
     0
  0
APPID
  2
GEVID1240875382
 70
     0
  0
APPID
  2
GEVID1240875383
 70
     0
  0
APPID
  2
GEVID1240875384
 70
     0
  0
APPID
  2
GEVID1240875385
 70
     0
  0
APPID
  2
GEVID1240875386
 70
     0
  0
APPID
  2
GEVID1240875387
 70
     0
  0
APPID
  2
GEVID1240875388
 70
     0
  0
APPID
  2
GEVID1240875389
 70
     0
  0
APPID
  2
GEVID1240875390
 70
     0
  0
APPID
  2
GEVID1240875391
 70
     0
  0
APPID
  2
GEVID1240875392
 70
     0
  0
APPID
  2
GEVID1240875393
 70
     0
  0
APPID
  2
GEVID1240875394
 70
     0
  0
APPID
  2
GEVID1240875395
 70
     0
  0
APPID
  2
GEVID1240875396
 70
     0
  0
APPID
  2
GEVID1240875397
 70
     0
  0
APPID
  2
GEVID1240875398
 70
     0
  0
APPID
  2
GEVID1240875399
 70
     0
  0
APPID
  2
GEVID1240908996
 70
     0
  0
APPID
  2
GEVID1240908997
 70
     0
  0
APPID
  2
GEVID1240908998
 70
     0
  0
APPID
  2
GEVID1240908999
 70
     0
  0
APPID
  2
GEVID1240909000
 70
     0
  0
APPID
  2
GENIUS_GENOBJ-N-ZOO_13
 70
     0
  0
APPID
  2
GENIUS_GENZOO_17
 70
     0
  0
APPID
  2
GENIUS_GE3SECT_13
 70
     0
  0
APPID
  2
GEV_VCCNULL_SWITCH_OFF
 70
     0
  0
APPID
  2
ACAD_DSTYLE_DIMTALN
 70
     0
  0
APPID
  2
CONTENTBLOCKDESCRIPTION
 70
     0
  0
ENDTAB
  0
TABLE
  2
DIMSTYLE
 70
    23
  0
DIMSTYLE
  2
STANDARD
 70
     0
  3

  4

  5

  6

  7

 40
1.0
 41
0.18
 42
0.0625
 43
0.38
 44
0.18
 45
0.0
 46
0.0
 47
0.0
 48
0.0
140
0.18
141
0.09
142
0.0
143
25.399999999999999
144
1.0
145
0.0
146
1.0
147
0.09
 71
     0
 72
     0
 73
     1
 74
     1
 75
     0
 76
     0
 77
     0
 78
     0
170
     0
171
     2
172
     0
173
     0
174
     0
175
     0
176
     0
177
     0
178
     0
  0
DIMSTYLE
  2
ANNOTATIVE
 70
     0
  3

  4

  5

  6

  7

 40
1.0
 41
0.18
 42
0.0625
 43
0.38
 44
0.18
 45
0.0
 46
0.0
 47
0.0
 48
0.0
140
0.18
141
0.09
142
0.0
143
25.399999999999999
144
1.0
145
0.0
146
1.0
147
0.09
 71
     0
 72
     0
 73
     1
 74
     1
 75
     0
 76
     0
 77
     0
 78
     0
170
     0
171
     2
172
     0
173
     0
174
     0
175
     0
176
     0
177
     0
178
     0
  0
DIMSTYLE
  2
AM_ANSI
 70
     0
  3

  4
"
  5

  6

  7

 40
1.0
 41
2.5
 42
1.0
 43
10.0
 44
1.0
 45
0.0
 46
0.0
 47
0.1
 48
0.1
140
3.5
141
0.0
142
0.0
143
0.0393701
144
1.0
145
0.0
146
0.71
147
1.5
 71
     0
 72
     0
 73
     1
 74
     1
 75
     0
 76
     0
 77
     0
 78
     8
170
     0
171
     2
172
     0
173
     0
174
     0
175
     0
176
     2
177
     2
178
     4
  0
DIMSTYLE
  2
AM_ANSI$3
 70
     0
  3

  4
"
  5

  6

  7

 40
1.0
 41
2.5
 42
1.0
 43
10.0
 44
1.0
 45
0.0
 46
0.0
 47
0.1
 48
0.1
140
3.5
141
0.0
142
0.0
143
0.0393701
144
1.0
145
0.0
146
0.71
147
1.5
 71
     0
 72
     0
 73
     1
 74
     1
 75
     0
 76
     0
 77
     0
 78
     8
170
     0
171
     2
172
     0
173
     0
174
     0
175
     0
176
     2
177
     2
178
     4
  0
DIMSTYLE
  2
AM_ANSI$4
 70
     0
  3

  4
"
  5

  6

  7

 40
1.0
 41
2.5
 42
1.0
 43
10.0
 44
1.0
 45
0.0
 46
0.0
 47
0.1
 48
0.1
140
3.5
141
0.0
142
0.0
143
0.0393701
144
1.0
145
0.0
146
0.71
147
1.5
 71
     0
 72
     0
 73
     1
 74
     1
 75
     0
 76
     0
 77
     0
 78
     8
170
     0
171
     2
172
     0
173
     0
174
     0
175
     0
176
     2
177
     2
178
     4
  0
DIMSTYLE
  2
AM_ANSI$7
 70
     0
  3

  4
"
  5

  6

  7

 40
1.0
 41
2.5
 42
1.0
 43
10.0
 44
1.0
 45
0.0
 46
0.0
 47
0.1
 48
0.1
140
5.0
141
0.0
142
0.0
143
0.0393701
144
1.0
145
0.0
146
0.71
147
1.5
 71
     0
 72
     0
 73
     1
 74
     1
 75
     0
 76
     0
 77
     0
 78
     8
170
     0
171
     2
172
     0
173
     0
174
     0
175
     0
176
     2
177
     2
178
     4
  0
DIMSTYLE
  2
AM_ANSI$SF
 70
     0
  3

  4
"
  5

  6

  7

 40
1.0
 41
2.5
 42
1.0
 43
10.0
 44
1.0
 45
0.0
 46
0.0
 47
0.1
 48
0.1
140
3.5
141
0.0
142
0.0
143
0.0393701
144
1.0
145
0.0
146
0.71
147
1.5
 71
     0
 72
     0
 73
     1
 74
     1
 75
     1
 76
     1
 77
     0
 78
     8
170
     0
171
     2
172
     0
173
     0
174
     0
175
     0
176
     2
177
     2
178
     4
  0
DIMSTYLE
  2
AM_ANSI$SH
 70
     0
  3

  4
"
  5

  6

  7

 40
1.0
 41
2.5
 42
1.0
 43
10.0
 44
1.0
 45
0.0
 46
0.0
 47
0.1
 48
0.1
140
3.5
141
0.0
142
0.0
143
0.0393701
144
1.0
145
0.0
146
0.71
147
1.5
 71
     0
 72
     0
 73
     1
 74
     1
 75
     1
 76
     1
 77
     0
 78
     8
170
     0
171
     2
172
     0
173
     1
174
     0
175
     0
176
     2
177
     2
178
     4
  0
DIMSTYLE
  2
AM_ISO
 70
     0
  3

  4
"
  5

  6

  7

 40
1.0
 41
2.5
 42
1.0
 43
10.0
 44
1.0
 45
0.0
 46
0.0
 47
0.1
 48
0.1
140
3.5
141
0.0
142
0.0
143
0.0393701
144
1.0
145
0.0
146
0.71
147
1.5
 71
     0
 72
     0
 73
     0
 74
     0
 75
     0
 76
     0
 77
     1
 78
     8
170
     0
171
     2
172
     1
173
     0
174
     0
175
     0
176
   256
177
   256
178
     2
  0
DIMSTYLE
  2
AM_ISO$3
 70
     0
  3

  4
"
  5

  6

  7

 40
1.0
 41
2.5
 42
1.0
 43
10.0
 44
1.0
 45
0.0
 46
0.0
 47
0.1
 48
0.1
140
3.5
141
0.0
142
0.0
143
0.0393701
144
1.0
145
0.0
146
0.71
147
1.5
 71
     0
 72
     0
 73
     0
 74
     1
 75
     0
 76
     0
 77
     1
 78
     8
170
     0
171
     2
172
     0
173
     0
174
     0
175
     0
176
   256
177
   256
178
     2
  0
DIMSTYLE
  2
AM_ISO$4
 70
     0
  3

  4
"
  5

  6

  7

 40
1.0
 41
2.5
 42
1.0
 43
10.0
 44
1.0
 45
0.0
 46
0.0
 47
0.1
 48
0.1
140
3.5
141
0.0
142
0.0
143
0.0393701
144
1.0
145
0.0
146
0.71
147
1.5
 71
     0
 72
     0
 73
     0
 74
     1
 75
     0
 76
     0
 77
     1
 78
     8
170
     0
171
     2
172
     0
173
     0
174
     0
175
     0
176
   256
177
   256
178
     2
  0
DIMSTYLE
  2
AM_ISO$6
 70
     0
  3

  4
"
  5

  6

  7

 40
1.0
 41
2.5
 42
1.0
 43
10.0
 44
1.0
 45
0.0
 46
0.0
 47
0.1
 48
0.1
140
3.5
141
0.0
142
0.0
143
0.0393701
144
1.0
145
0.0
146
0.71
147
1.5
 71
     0
 72
     0
 73
     0
 74
     0
 75
     0
 76
     0
 77
     0
 78
     8
170
     0
171
     2
172
     1
173
     0
174
     0
175
     0
176
   256
177
   256
178
     2
  0
DIMSTYLE
  2
AM_ISO$7
 70
     0
  3

  4
"
  5

  6

  7

 40
1.0
 41
2.5
 42
1.0
 43
10.0
 44
1.0
 45
0.0
 46
0.0
 47
0.1
 48
0.1
140
5.0
141
0.0
142
0.0
143
0.0393701
144
1.0
145
0.0
146
0.71
147
1.5
 71
     0
 72
     0
 73
     0
 74
     0
 75
     0
 76
     0
 77
     1
 78
     8
170
     0
171
     2
172
     1
173
     0
174
     0
175
     0
176
   256
177
   256
178
     2
  0
DIMSTYLE
  2
AM_ISO$SF
 70
     0
  3

  4
"
  5

  6

  7

 40
1.0
 41
2.5
 42
1.0
 43
10.0
 44
1.0
 45
0.0
 46
0.0
 47
0.1
 48
0.1
140
3.5
141
0.0
142
0.0
143
0.0393701
144
1.0
145
0.0
146
0.71
147
1.5
 71
     0
 72
     0
 73
     0
 74
     0
 75
     1
 76
     1
 77
     1
 78
     8
170
     0
171
     2
172
     1
173
     0
174
     0
175
     0
176
   256
177
   256
178
     2
  0
DIMSTYLE
  2
AM_ISO$SH
 70
     0
  3

  4
"
  5

  6

  7

 40
1.0
 41
2.5
 42
1.0
 43
10.0
 44
1.0
 45
0.0
 46
0.0
 47
0.1
 48
0.1
140
3.5
141
0.0
142
0.0
143
0.0393701
144
2.0
145
0.0
146
0.71
147
1.5
 71
     0
 72
     0
 73
     0
 74
     0
 75
     1
 76
     1
 77
     1
 78
     8
170
     0
171
     2
172
     1
173
     1
174
     0
175
     0
176
   256
177
   256
178
     2
  0
DIMSTYLE
  2
AM_JIS
 70
     0
  3

  4
"
  5

  6

  7

 40
1.0
 41
2.0
 42
1.0
 43
8.0
 44
1.0
 45
0.0
 46
0.0
 47
0.1
 48
0.1
140
2.5
141
0.0
142
0.0
143
0.0393701
144
1.0
145
0.0
146
0.71
147
1.5
 71
     0
 72
     0
 73
     0
 74
     0
 75
     0
 76
     0
 77
     3
 78
     8
170
     0
171
     2
172
     1
173
     0
174
     0
175
     0
176
     2
177
     2
178
     4
  0
DIMSTYLE
  2
AM_JIS$3
 70
     0
  3

  4
"
  5

  6

  7

 40
1.0
 41
2.0
 42
1.0
 43
10.0
 44
1.0
 45
0.0
 46
0.0
 47
0.1
 48
0.1
140
2.5
141
0.0
142
0.0
143
0.0393701
144
1.0
145
0.0
146
0.71
147
1.5
 71
     0
 72
     0
 73
     0
 74
     1
 75
     0
 76
     0
 77
     3
 78
     8
170
     0
171
     2
172
     0
173
     0
174
     0
175
     0
176
     2
177
     2
178
     4
  0
DIMSTYLE
  2
AM_JIS$4
 70
     0
  3

  4
"
  5

  6

  7

 40
1.0
 41
2.0
 42
1.0
 43
10.0
 44
1.0
 45
0.0
 46
0.0
 47
0.1
 48
0.1
140
2.5
141
0.0
142
0.0
143
0.0393701
144
1.0
145
0.0
146
0.71
147
1.5
 71
     0
 72
     0
 73
     0
 74
     0
 75
     0
 76
     0
 77
     3
 78
     8
170
     0
171
     2
172
     0
173
     0
174
     0
175
     0
176
     2
177
     2
178
     4
  0
DIMSTYLE
  2
AM_JIS$6
 70
     0
  3

  4
"
  5

  6

  7

 40
1.0
 41
2.0
 42
1.0
 43
10.0
 44
1.0
 45
0.0
 46
0.0
 47
0.1
 48
0.1
140
2.5
141
0.0
142
0.0
143
0.0393701
144
1.0
145
0.0
146
0.71
147
1.5
 71
     0
 72
     0
 73
     0
 74
     0
 75
     0
 76
     0
 77
     0
 78
     8
170
     0
171
     2
172
     1
173
     0
174
     0
175
     0
176
     2
177
     2
178
     4
  0
DIMSTYLE
  2
AM_JIS$7
 70
     0
  3

  4
"
  5

  6

  7

 40
1.0
 41
2.0
 42
1.0
 43
10.0
 44
1.0
 45
0.0
 46
0.0
 47
0.1
 48
0.1
140
2.5
141
0.0
142
0.0
143
0.0393701
144
1.0
145
0.0
146
0.71
147
1.5
 71
     0
 72
     0
 73
     0
 74
     0
 75
     0
 76
     0
 77
     3
 78
     8
170
     0
171
     2
172
     1
173
     0
174
     0
175
     0
176
     2
177
     2
178
     4
  0
DIMSTYLE
  2
AM_JIS$SF
 70
     0
  3

  4
"
  5

  6

  7

 40
1.0
 41
2.0
 42
1.0
 43
10.0
 44
1.0
 45
0.0
 46
0.0
 47
0.1
 48
0.1
140
2.5
141
0.0
142
0.0
143
0.0393701
144
1.0
145
0.0
146
0.71
147
1.5
 71
     0
 72
     0
 73
     0
 74
     0
 75
     1
 76
     1
 77
     3
 78
     8
170
     0
171
     2
172
     1
173
     0
174
     0
175
     0
176
     2
177
     2
178
     4
  0
DIMSTYLE
  2
AM_JIS$SH
 70
     0
  3

  4
"
  5

  6

  7

 40
1.0
 41
2.0
 42
1.0
 43
10.0
 44
1.0
 45
0.0
 46
0.0
 47
0.1
 48
0.1
140
2.5
141
0.0
142
0.0
143
0.0393701
144
2.0
145
0.0
146
0.71
147
1.5
 71
     0
 72
     0
 73
     0
 74
     0
 75
     1
 76
     1
 77
     3
 78
     8
170
     0
171
     2
172
     1
173
     1
174
     0
175
     0
176
     2
177
     2
178
     4
  0
DIMSTYLE
  2
AM_JIS$0
 70
     0
  3

  4
"
  5

  6

  7

 40
1.0
 41
2.0
 42
1.0
 43
8.0
 44
1.0
 45
0.0
 46
0.0
 47
0.1
 48
0.1
140
2.5
141
0.0
142
0.0
143
0.0393701
144
1.0
145
0.0
146
0.71
147
1.5
 71
     0
 72
     0
 73
     0
 74
     0
 75
     0
 76
     0
 77
     3
 78
     8
170
     0
171
     2
172
     1
173
     0
174
     0
175
     0
176
     2
177
     2
178
     4
  0
ENDTAB
  0
ENDSEC
  0
SECTION
  2
BLOCKS
  0
BLOCK
  8
0
  2
$MODEL_SPACE
 70
     0
 10
0.0
 20
0.0
 30
0.0
  3
$MODEL_SPACE
  1

  0
ENDBLK
  5
C303
  8
0
  0
BLOCK
 67
     1
  8
0
  2
$PAPER_SPACE
 70
     0
 10
0.0
 20
0.0
 30
0.0
  3
$PAPER_SPACE
  1

  0
ENDBLK
  5
C2FF
 67
     1
  8
0
  0
BLOCK
  8
0
  2
GENAXEH
 70
     0
 10
0.0
 20
0.0
 30
0.0
  3
GENAXEH
  1

  0
LINE
  5
BEC3
  8
0
 10
-1.0
 20
0.0
 30
0.0
 11
1.0
 21
0.0
 31
0.0
  0
ENDBLK
  5
BEC4
  8
0
  0
BLOCK
  8
0
  2
_OPEN30
 70
     0
 10
0.0
 20
0.0
 30
0.0
  3
_OPEN30
  1

  0
LINE
  5
BF0A
  8
0
  6
BYBLOCK
 62
     0
 10
-1.0
 20
0.26794919
 30
0.0
 11
0.0
 21
0.0
 31
0.0
  0
LINE
  5
BF0B
  8
0
  6
BYBLOCK
 62
     0
 10
0.0
 20
0.0
 30
0.0
 11
-1.0
 21
-0.26794919
 31
0.0
  0
LINE
  5
BF0C
  8
0
  6
BYBLOCK
 62
     0
 10
0.0
 20
0.0
 30
0.0
 11
-1.0
 21
0.0
 31
0.0
  0
ENDBLK
  5
BF0D
  8
0
  0
BLOCK
  8
0
  2
*D4
 70
     1
 10
0.0
 20
0.0
 30
0.0
  3
*D4
  1

  0
LINE
  5
C05D
  8
AM_5
 62
     2
 10
550.52848644620894
 20
439.09816231545159
 30
0.0
 11
550.52848644620894
 21
395.5130760524649
 31
0.0
  0
LINE
  5
C05E
  8
AM_5
 62
     2
 10
750.52848644620883
 20
439.09816231545159
 30
0.0
 11
750.52848644620883
 21
395.5130760524649
 31
0.0
  0
LINE
  5
C05F
  8
AM_5
 62
     2
 10
552.52848644620894
 20
396.51307605246478
 30
0.0
 11
748.52848644620883
 21
396.51307605246478
 31
0.0
  0
SOLID
  5
C060
  8
AM_5
 62
     2
 10
552.52848644620894
 20
396.84640938579832
 30
0.0
 11
552.52848644620894
 21
396.17974271913153
 31
0.0
 12
550.52848644620894
 22
396.51307605246478
 32
0.0
 13
550.52848644620894
 23
396.51307605246478
 33
0.0
  0
SOLID
  5
C061
  8
AM_5
 62
     2
 10
748.52848644620883
 20
396.84640938579832
 30
0.0
 11
748.52848644620883
 21
396.17974271913153
 31
0.0
 12
750.52848644620883
 22
396.51307605246478
 32
0.0
 13
750.52848644620883
 23
396.51307605246478
 33
0.0
  0
INSERT
  5
C062
  8
0
  2
*U5
 10
0.0
 20
0.0
 30
0.0
  0
POINT
  5
C063
  8
DEFPOINTS
 62
     0
 10
550.52848644620894
 20
440.09816231545159
 30
0.0
  0
POINT
  5
C064
  8
DEFPOINTS
 62
     0
 10
750.52848644620883
 20
440.09816231545159
 30
0.0
  0
POINT
  5
C065
  8
DEFPOINTS
 62
     0
 10
750.52848644620883
 20
396.51307605246478
 30
0.0
  0
ENDBLK
  5
C03F
  8
0
  0
BLOCK
  8
0
  2
*U5
 70
     1
 10
0.0
 20
0.0
 30
0.0
  3
*U5
  1

  0
TEXT
  5
C290
  8
AM_5
 62
     4
 10
648.37015311287564
 20
398.01307605246478
 30
0.0
 40
2.5
  1
200
 41
0.7400000000000003
  0
ENDBLK
  5
C292
  8
0
  0
BLOCK
  8
0
  2
*U6
 70
     1
 10
0.0
 20
0.0
 30
0.0
  3
*U6
  1

  0
TEXT
  5
C288
  8
0
 62
     0
 10
5.1211371559201639
 20
5.9826223594979648
 30
0.0
 40
15.0
  1
ＶＸ０８－００３ＥＭ～ＶＸ０８－０３０ＥＭ
 41
0.7400000000000003
  0
ENDBLK
  5
C28A
  8
0
  0
BLOCK
  8
0
  2
*U7
 70
     1
 10
0.0
 20
0.0
 30
0.0
  3
*U7
  1

  0
TEXT
  5
C28C
  8
0
 62
     0
 10
966.02954276908633
 20
982.02871174337906
 30
0.0
 40
15.0
  1
ＶＸ２２－２４０ＥＭ～ＶＸ２２－３００ＥＭ
 41
0.7400000000000003
  0
ENDBLK
  5
C28E
  8
0
  0
BLOCK
  8
0
  2
_ACMFILLEDHALF
 70
     0
 10
0.0
 20
0.0
 30
0.0
  3
_ACMFILLEDHALF
  1

  0
TRACE
  5
C441
  8
0
 62
     0
 10
-0.8
 20
0.0
 30
0.0
 11
-1.0
 21
0.166666666
 31
0.0
 12
0.0
 22
0.0
 32
0.0
 13
0.0
 23
0.0
 33
0.0
  0
LINE
  5
C442
  8
0
 62
     0
 10
-1.0
 20
0.0
 30
0.0
 11
-0.8
 21
0.0
 31
0.0
  0
ENDBLK
  5
C440
  8
0
  0
ENDSEC
  0
SECTION
  2
ENTITIES
  0
LINE
  5
9CBB
  8
0
 62
     0
 10
810.52848644620894
 20
699.09818731545181
 30
0.0
 11
891.52853644620961
 21
699.09818731545181
 31
0.0
  0
LINE
  5
9CBC
  8
0
 62
     0
 10
810.52848644620894
 20
699.09818731545181
 30
0.0
 11
810.52848644620894
 21
695.09818731545181
 31
0.0
  0
LINE
  5
9CBD
  8
0
 62
     0
 10
786.52848644620906
 20
635.09816731545152
 30
0.0
 11
891.52853644620961
 21
635.09816731545152
 31
0.0
  0
LINE
  5
9CBE
  8
0
 62
     0
 10
786.52848644620906
 20
695.09818731545181
 30
0.0
 11
891.52853644620961
 21
695.09818731545181
 31
0.0
  0
LINE
  5
9CBF
  8
0
 62
     0
 10
891.52853644620961
 20
699.09818731545181
 30
0.0
 11
891.52853644620961
 21
635.09816731545152
 31
0.0
  0
LINE
  5
9CC0
  8
0
 62
     0
 10
786.52848644620906
 20
697.59818731545136
 30
0.0
 11
786.52848644620906
 21
632.59816731545152
 31
0.0
  0
LINE
  5
9CC1
  8
0
 62
     0
 10
780.52848644620883
 20
632.59816731545152
 30
0.0
 11
786.52848644620906
 21
632.59816731545152
 31
0.0
  0
LINE
  5
9CC2
  8
0
 62
     0
 10
780.52848644620883
 20
697.59818731545136
 30
0.0
 11
786.52848644620906
 21
697.59818731545136
 31
0.0
  0
LINE
  5
9CC3
  8
0
 62
     0
 10
1107.845721157737
 20
699.09818731545181
 30
0.0
 11
1107.845721157737
 21
688.09818731545124
 31
0.0
  0
LINE
  5
9CC4
  8
0
 62
     0
 10
1089.8457211577361
 20
688.09818731545124
 30
0.0
 11
1107.845721157737
 21
688.09818731545124
 31
0.0
  0
LINE
  5
9CC5
  8
0
 62
     0
 10
1089.8457211577361
 20
699.09818731545181
 30
0.0
 11
1107.845721157737
 21
699.09818731545181
 31
0.0
  0
LINE
  5
9CC6
  8
0
 62
     0
 10
1089.8457211577361
 20
699.09818731545181
 30
0.0
 11
1089.8457211577361
 21
688.09818731545124
 31
0.0
  0
LINE
  5
9CC7
  8
0
 62
     0
 10
1093.845751157736
 20
843.09818731545136
 30
0.0
 11
1093.845751157736
 21
801.09818731545136
 31
0.0
  0
LINE
  5
9CC8
  8
0
 62
     0
 10
1103.845751157736
 20
843.09818731545136
 30
0.0
 11
1103.845751157736
 21
801.09818731545136
 31
0.0
  0
LINE
  5
9CC9
  8
0
 62
     0
 10
1111.4643711577371
 20
796.65533731545179
 30
0.0
 11
1109.0952311577371
 21
805.49708731545184
 31
0.0
  0
LINE
  5
9CCA
  8
0
 62
     0
 10
1086.2270661577361
 20
796.6552873154518
 30
0.0
 11
1088.596206157737
 21
805.49708731545184
 31
0.0
  0
LINE
  5
9CCB
  8
0
 62
     0
 10
1089.367691157735
 20
806.21913731545135
 30
0.0
 11
1093.845721157737
 21
807.10688731545122
 31
0.0
  0
LINE
  5
9CCC
  8
0
 62
     0
 10
1103.845751157736
 20
807.10693731545109
 30
0.0
 11
1108.3238111577371
 21
806.21918731545156
 31
0.0
  0
LINE
  5
9CCD
  8
0
 62
     0
 10
638.02848644620894
 20
797.09818731545136
 30
0.0
 11
638.02848644620894
 21
517.33626231545122
 31
0.0
  0
LINE
  5
9CCE
  8
0
 62
     0
 10
777.42383644620975
 20
730.20658731545154
 30
0.0
 11
777.6332364462088
 21
730.199237315451
 31
0.0
  0
LINE
  5
9CCF
  8
0
 62
     0
 10
593.42503644620865
 20
474.85677231545168
 30
0.0
 11
639.92503644620865
 21
519.14247731545163
 31
0.0
  0
LINE
  5
9CD0
  8
0
 62
     0
 10
998.84575115773725
 20
467.09816231545159
 30
0.0
 11
998.84575115773725
 21
440.09816231545159
 31
0.0
  0
LINE
  5
9CD1
  8
0
 62
     0
 10
918.84573615773411
 20
440.09816231545159
 30
0.0
 11
998.84575115773725
 21
440.09816231545159
 31
0.0
  0
LINE
  5
9CD2
  8
0
 62
     0
 10
923.84573615773525
 20
472.09816231545159
 30
0.0
 11
993.84575115773634
 21
472.09816231545159
 31
0.0
  0
LINE
  5
9CD3
  8
0
 62
     0
 10
1001.845721157737
 20
443.09816231545159
 30
0.0
 11
1098.845751157736
 21
443.09816231545159
 31
0.0
  0
LINE
  5
9CD4
  8
0
 62
     0
 10
962.02729615773717
 20
696.8997373154516
 30
0.0
 11
918.84573615773411
 21
474.74968231545159
 31
0.0
  0
LINE
  5
9CD5
  8
0
 62
     0
 10
918.84573615773411
 20
474.74965231545161
 30
0.0
 11
918.84573615773411
 21
440.09816231545159
 31
0.0
  0
LINE
  5
9CD6
  8
0
 62
     0
 10
520.52848644620906
 20
467.09816231545159
 30
0.0
 11
520.52848644620906
 21
440.09816231545159
 31
0.0
  0
LINE
  5
9CD7
  8
0
 62
     0
 10
525.52848644620894
 20
472.09816231545159
 30
0.0
 11
586.52848644620917
 21
472.09816231545159
 31
0.0
  0
LINE
  5
9CD8
  8
0
 62
     0
 10
780.52848644620883
 20
467.09816231545159
 30
0.0
 11
780.52848644620883
 21
440.09816231545159
 31
0.0
  0
LINE
  5
9CD9
  8
0
 62
     0
 10
729.52848644620894
 20
472.09816231545159
 30
0.0
 11
775.52848644620883
 21
472.09816231545159
 31
0.0
  0
LINE
  5
9CDA
  8
0
 62
     0
 10
714.52848644620883
 20
510.75014231545128
 30
0.0
 11
734.52848644620883
 21
510.75014231545128
 31
0.0
  0
LINE
  5
9CDB
  8
0
 62
     0
 10
520.52848644620906
 20
440.09816231545159
 30
0.0
 11
780.52848644620883
 21
440.09816231545159
 31
0.0
  0
LINE
  5
9CDC
  8
0
 62
     0
 10
753.65703644620862
 20
758.92423731545182
 30
0.0
 11
767.22583644620863
 21
757.7370873154515
 31
0.0
  0
LINE
  5
9CDD
  8
0
 62
     0
 10
780.52848644620883
 20
727.20108731545179
 30
0.0
 11
780.52848644620883
 21
602.99523231545163
 31
0.0
  0
LINE
  5
9CDE
  8
0
 62
     0
 10
774.52848644620894
 20
749.76748731545183
 30
0.0
 11
774.52848644620894
 21
472.09816231545159
 31
0.0
  0
LINE
  5
9CDF
  8
0
 62
     0
 10
643.02848644620894
 20
594.40038231545122
 30
0.0
 11
643.02848644620894
 21
526.38387231545164
 31
0.0
  0
LINE
  5
9CE0
  8
0
 62
     0
 10
777.42383644620975
 20
599.98976731545133
 30
0.0
 11
777.6332364462088
 21
599.99706231545156
 31
0.0
  0
LINE
  5
9CE1
  8
0
 62
     0
 10
744.52848644620951
 20
778.71913731545169
 30
0.0
 11
744.52848644620951
 21
520.75014231545117
 31
0.0
  0
LINE
  5
9CE2
  8
0
 62
     0
 10
714.52848644620883
 20
701.0250873154514
 30
0.0
 11
714.52848644620883
 21
487.09816231545159
 31
0.0
  0
LINE
  5
9CE3
  8
0
 62
     0
 10
679.7436864462087
 20
790.63838731545104
 30
0.0
 11
734.8774864462082
 21
788.71308731545105
 31
0.0
  0
LINE
  5
9CE4
  8
0
 62
     0
 10
729.52848644620894
 20
716.0250873154514
 30
0.0
 11
744.52848644620951
 21
716.0250873154514
 31
0.0
  0
LINE
  5
9CE5
  8
0
 62
     0
 10
968.84575115773634
 20
714.4001873154516
 30
0.0
 11
968.84575115773634
 21
577.09816731545152
 31
0.0
  0
LINE
  5
9CE6
  8
0
 62
     0
 10
638.02853644620848
 20
797.09818731545136
 30
0.0
 11
663.04503644620854
 21
796.22458731545146
 31
0.0
  0
LINE
  5
9CE7
  8
0
 62
     0
 10
672.34698644620812
 20
793.55728731545184
 30
0.0
 11
675.09268644620909
 21
791.97208731545163
 31
0.0
  0
LINE
  5
9CE8
  8
0
 62
     0
 10
991.84572115773597
 20
650.09816731545152
 30
0.0
 11
991.84572115773597
 21
487.09816231545159
 31
0.0
  0
LINE
  5
9CE9
  8
0
 62
     0
 10
638.02848644620894
 20
594.40038231545122
 30
0.0
 11
668.02848644620894
 21
594.40038231545122
 31
0.0
  0
LINE
  5
9CEA
  8
0
 62
     0
 10
668.02848644620894
 20
795.41273731545152
 30
0.0
 11
668.02848644620894
 21
594.40038231545122
 31
0.0
  0
LINE
  5
9CEB
  8
0
 62
     0
 10
1033.0227211577369
 20
454.77769731545192
 30
0.0
 11
1022.847671157737
 21
462.17030731545168
 31
0.0
  0
LINE
  5
9CEC
  8
0
 62
     0
 10
1038.900591157736
 20
452.86787731545161
 30
0.0
 11
1098.845751157736
 21
452.86787731545161
 31
0.0
  0
LINE
  5
9CED
  8
0
 62
     0
 10
1001.7746761577361
 20
453.02708731545118
 30
0.0
 11
1009.898791157737
 21
461.1512023154512
 31
0.0
  0
LINE
  5
9CEE
  8
0
 62
     0
 10
1195.916796157735
 20
453.02711731545162
 30
0.0
 11
1187.7926811577379
 21
461.1512023154512
 31
0.0
  0
LINE
  5
9CEF
  8
0
 62
     0
 10
1158.7908811577361
 20
452.86787731545161
 30
0.0
 11
1098.845751157736
 21
452.86787731545161
 31
0.0
  0
LINE
  5
9CF0
  8
0
 62
     0
 10
1164.6686911577381
 20
454.77772731545161
 30
0.0
 11
1174.843766157737
 21
462.17033731545172
 31
0.0
  0
LINE
  5
9CF1
  8
0
 62
     0
 10
1205.8457211577361
 20
650.09816731545152
 30
0.0
 11
1205.8457211577361
 21
487.09816231545159
 31
0.0
  0
LINE
  5
9CF2
  8
0
 62
     0
 10
1228.8457361577391
 20
714.4001873154516
 30
0.0
 11
1228.8457361577391
 21
577.09816731545152
 31
0.0
  0
LINE
  5
9CF3
  8
0
 62
     0
 10
1278.845736157738
 20
474.74965231545161
 30
0.0
 11
1278.845736157738
 21
440.09816231545159
 31
0.0
  0
LINE
  5
9CF4
  8
0
 62
     0
 10
1235.6641261577361
 20
696.8997373154516
 30
0.0
 11
1278.8457211577361
 21
474.74968231545159
 31
0.0
  0
LINE
  5
9CF5
  8
0
 62
     0
 10
1195.845721157737
 20
443.09816231545159
 30
0.0
 11
1098.845751157736
 21
443.09816231545159
 31
0.0
  0
LINE
  5
9CF6
  8
0
 62
     0
 10
1273.845736157738
 20
472.09816231545159
 30
0.0
 11
1203.845736157738
 21
472.09816231545159
 31
0.0
  0
LINE
  5
9CF7
  8
0
 62
     0
 10
1278.845736157738
 20
440.09816231545159
 30
0.0
 11
1198.845736157738
 21
440.09816231545159
 31
0.0
  0
LINE
  5
9CF8
  8
0
 62
     0
 10
1198.845736157738
 20
467.09816231545159
 30
0.0
 11
1198.845736157738
 21
440.09816231545159
 31
0.0
  0
LINE
  5
9CF9
  8
0
 62
     0
 10
579.27548644620799
 20
763.09573731545186
 30
0.0
 11
566.78153644620852
 21
753.10058731545121
 31
0.0
  0
LINE
  5
9CFA
  8
0
 62
     0
 10
565.99308644620851
 20
488.37816231545168
 30
0.0
 11
580.06393644620812
 21
474.4480173154513
 31
0.0
  0
LINE
  5
9CFB
  8
0
 62
     0
 10
616.0285364462087
 20
784.84573731545152
 30
0.0
 11
616.0285364462087
 21
772.21883731545165
 31
0.0
  0
LINE
  5
9CFC
  8
0
 62
     0
 10
518.52853644620882
 20
505.09816231545159
 30
0.0
 11
558.02848644620906
 21
505.09816231545159
 31
0.0
  0
LINE
  5
9CFD
  8
0
 62
     0
 10
503.52853644620882
 20
497.09816231545159
 30
0.0
 11
514.52848644620894
 21
497.09816231545159
 31
0.0
  0
LINE
  5
9CFE
  8
0
 62
     0
 10
503.52853644620882
 20
737.09818731545181
 30
0.0
 11
514.52848644620894
 21
737.09818731545181
 31
0.0
  0
LINE
  5
9CFF
  8
0
 62
     0
 10
583.02848644620906
 20
795.09823731545134
 30
0.0
 11
583.02848644620906
 21
472.09816231545159
 31
0.0
  0
LINE
  5
9D01
  8
0
 62
     0
 10
516.52848644620906
 20
735.09818731545136
 30
0.0
 11
516.52848644620906
 21
499.09819731545161
 31
0.0
  0
LINE
  5
9D02
  8
0
 62
     0
 10
518.52853644620882
 20
729.0981873154517
 30
0.0
 11
558.02848644620906
 21
729.0981873154517
 31
0.0
  0
LINE
  5
9D03
  8
0
 62
     0
 10
503.52853644620882
 20
737.09818731545181
 30
0.0
 11
503.52853644620882
 21
497.09816231545159
 31
0.0
  0
LINE
  5
9D04
  8
0
 62
     0
 10
563.02848644620894
 20
745.29188731545185
 30
0.0
 11
563.02848644620894
 21
495.48466731545142
 31
0.0
  0
LINE
  5
9D05
  8
0
 62
     0
 10
587.85398644621
 20
795.34603731545155
 30
0.0
 11
638.02848644620894
 21
797.09818731545136
 31
0.0
  0
LINE
  5
9D06
  8
0
 62
     0
 10
585.0285364462087
 20
797.09818731545136
 30
0.0
 11
638.02848644620894
 21
797.09818731545136
 31
0.0
  0
LINE
  5
9D07
  8
0
 62
     0
 10
588.23448644620919
 20
806.09818731545124
 30
0.0
 11
607.82258644620924
 21
806.09818731545124
 31
0.0
  0
LINE
  5
9D08
  8
0
 62
     0
 10
585.52848644620894
 20
797.09818731545136
 30
0.0
 11
587.77898644620916
 21
805.49708731545184
 31
0.0
  0
LINE
  5
9D09
  8
0
 62
     0
 10
610.52848644620929
 20
797.0982373154518
 30
0.0
 11
608.27808644620916
 21
805.49708731545184
 31
0.0
  0
LINE
  5
9D0A
  8
0
 62
     0
 10
588.5504864462099
 20
806.21918731545156
 30
0.0
 11
598.02848644620929
 21
808.09818731545136
 31
0.0
  0
LINE
  5
9D0B
  8
0
 62
     0
 10
598.0286364462097
 20
808.09808731545161
 30
0.0
 11
607.50658644620853
 21
806.21913731545135
 31
0.0
  0
LINE
  5
9D0C
  8
0
 62
     0
 10
476.52848644620912
 20
716.82538731545117
 30
0.0
 11
516.52848644620906
 21
716.82538731545117
 31
0.0
  0
LINE
  5
9D0D
  8
0
 62
     0
 10
474.52848644620912
 20
701.2689873154518
 30
0.0
 11
516.52848644620906
 21
701.2689873154518
 31
0.0
  0
LINE
  5
9D0E
  8
0
 62
     0
 10
474.52848644620912
 20
532.92729731545126
 30
0.0
 11
516.52848644620906
 21
532.92729731545126
 31
0.0
  0
LINE
  5
9D0F
  8
0
 62
     0
 10
476.52848644620912
 20
517.37096231545161
 30
0.0
 11
516.52848644620906
 21
517.37096231545161
 31
0.0
  0
LINE
  5
9D10
  8
0
 62
     0
 10
516.52848644620906
 20
546.1653673154517
 30
0.0
 11
563.02848644620894
 21
546.1653673154517
 31
0.0
  0
LINE
  5
9D11
  8
0
 62
     0
 10
516.52848644620906
 20
530.4232973154518
 30
0.0
 11
563.02848644620894
 21
530.4232973154518
 31
0.0
  0
LINE
  5
9D12
  8
0
 62
     0
 10
516.52848644620906
 20
688.03098731545151
 30
0.0
 11
563.02848644620894
 21
688.03098731545151
 31
0.0
  0
LINE
  5
9D13
  8
0
 62
     0
 10
516.52848644620906
 20
703.77303731545123
 30
0.0
 11
563.02848644620894
 21
703.77303731545123
 31
0.0
  0
LINE
  5
9D14
  8
0
 62
     0
 10
487.5285364462087
 20
693.09478731545107
 30
0.0
 11
516.52848644620906
 21
693.09478731545107
 31
0.0
  0
LINE
  5
9D15
  8
0
 62
     0
 10
487.5285364462087
 20
541.10152231545158
 30
0.0
 11
516.52848644620906
 21
541.10152231545158
 31
0.0
  0
LINE
  5
9D16
  8
0
 62
     0
 10
588.02848644620894
 20
527.7716873154518
 30
0.0
 11
614.02848644620894
 21
527.7716873154518
 31
0.0
  0
LINE
  5
9D17
  8
0
 62
     0
 10
588.02848644620894
 20
568.04106731545176
 30
0.0
 11
614.02848644620894
 21
568.04106731545176
 31
0.0
  0
LINE
  5
9D18
  8
0
 62
     0
 10
588.02848644620894
 20
653.1490073154514
 30
0.0
 11
614.02848644620894
 21
653.1490073154514
 31
0.0
  0
LINE
  5
9D19
  8
0
 62
     0
 10
588.02848644620894
 20
690.32318731545104
 30
0.0
 11
614.02848644620894
 21
690.32318731545104
 31
0.0
  0
LINE
  5
9D1A
  8
0
 62
     0
 10
588.02848644620894
 20
770.21883731545199
 30
0.0
 11
614.02848644620894
 21
770.21883731545199
 31
0.0
  0
LINE
  5
9D1B
  8
0
 62
     0
 10
588.02848644620894
 20
786.84573731545186
 30
0.0
 11
614.02848644620894
 21
786.84573731545186
 31
0.0
  0
LINE
  5
9D1C
  8
0
 62
     0
 10
616.0285364462087
 20
566.04103731545138
 30
0.0
 11
616.0285364462087
 21
529.77171731545161
 31
0.0
  0
LINE
  5
9D1D
  8
0
 62
     0
 10
616.0285364462087
 20
688.32318731545138
 30
0.0
 11
616.0285364462087
 21
655.14900731545117
 31
0.0
  0
LINE
  5
9D1E
  8
0
 62
     0
 10
488.52853644620882
 20
737.09818731545181
 30
0.0
 11
503.52853644620882
 21
737.09818731545181
 31
0.0
  0
LINE
  5
9D1F
  8
0
 62
     0
 10
467.35398644620977
 20
495.83495231545169
 30
0.0
 11
503.52853644620882
 21
497.09819731545173
 31
0.0
  0
LINE
  5
9D20
  8
0
 62
     0
 10
462.5285364462087
 20
514.37096231545127
 30
0.0
 11
462.52848649620762
 21
474.59815854780129
 31
0.0
  0
LINE
  5
9D21
  8
0
 62
     0
 10
474.52848644620912
 20
519.37096231545127
 30
0.0
 11
474.52848644620912
 21
549.10149231545165
 31
0.0
  0
LINE
  5
9D22
  8
0
 62
     0
 10
423.02848644620912
 20
641.59819731545178
 30
0.0
 11
437.63323644620851
 21
642.10820731545175
 31
0.0
  0
LINE
  5
9D23
  8
0
 62
     0
 10
423.02848644620912
 20
471.5981923154518
 30
0.0
 11
459.52848644620912
 21
471.5981923154518
 31
0.0
  0
LINE
  5
9D24
  8
0
 62
     0
 10
456.52848644620917
 20
556.59819731545156
 30
0.0
 11
456.52848644620917
 21
692.5814873154518
 31
0.0
  0
LINE
  5
9D25
  8
0
 62
     0
 10
440.52848644620917
 20
642.36175194017108
 30
0.0
 11
440.52848644620917
 21
664.09819731545156
 31
0.0
  0
LINE
  5
9D26
  8
0
 62
     0
 10
443.52848644620912
 20
667.09816731545152
 30
0.0
 11
453.52848644620917
 21
667.09816731545152
 31
0.0
  0
LINE
  5
9D27
  8
0
 62
     0
 10
457.19843644621051
 20
695.08148731545157
 30
0.0
 11
472.9925864462092
 21
722.43793731545156
 31
0.0
  0
LINE
  5
9D28
  8
0
 62
     0
 10
440.52848644620917
 20
641.8353873154515
 30
0.0
 11
455.78673644620892
 21
641.8353873154515
 31
0.0
  0
LINE
  5
9D29
  8
0
 62
     0
 10
485.52848644620912
 20
734.09818731545124
 30
0.0
 11
485.52848644620912
 21
716.82538731545117
 31
0.0
  0
LINE
  5
9D2A
  8
0
 62
     0
 10
475.59068644620851
 20
723.93793731545134
 30
0.0
 11
482.52853644620882
 21
723.93793731545134
 31
0.0
  0
LINE
  5
9D2B
  8
0
 62
     0
 10
485.52848644620912
 20
691.09483731545151
 30
0.0
 11
485.52848644620912
 21
543.10152231545123
 31
0.0
  0
LINE
  5
9D2C
  8
0
 62
     0
 10
474.52848644620912
 20
685.09478731545119
 30
0.0
 11
474.52848644620912
 21
714.82538731545139
 31
0.0
  0
ARC
  5
9D2D
  8
0
 62
     0
 10
1098.845751157736
 20
665.09816731545152
 30
0.0
 40
30.000000499999999
 50
107.457600000035
 51
72.542383999963974
  0
ARC
  5
9D2E
  8
0
 62
     0
 10
1098.845751157736
 20
843.09818731545136
 30
0.0
 40
5.0
 50
0.0
 51
179.999989999999
  0
ARC
  5
9D2F
  8
0
 62
     0
 10
1089.562151157736
 20
805.23828731545154
 30
0.0
 40
1.0
 50
101.2132899999918
 51
164.99998999999701
  0
ARC
  5
9D30
  8
0
 62
     0
 10
1108.1293511577369
 20
805.23828731545154
 30
0.0
 40
1.0
 50
14.99999999999444
 51
78.786710000008227
  0
ARC
  5
9D31
  8
0
 62
     0
 10
1105.845751157736
 20
801.09818731545136
 30
0.0
 40
2.0000000500000001
 50
179.999989999999
 51
270.0
  0
ARC
  5
9D32
  8
0
 62
     0
 10
1091.8457211577361
 20
801.09818731545136
 30
0.0
 40
2.0000000500000001
 50
270.0
 51
0.0
  0
CIRCLE
  5
9D33
  8
0
 62
     0
 10
1098.845751157736
 20
665.09816731545152
 30
0.0
 40
6.0
  0
CIRCLE
  5
9D34
  8
0
 62
     0
 10
1098.845751157736
 20
665.09816731545152
 30
0.0
 40
4.500000049999997
  0
CIRCLE
  5
9D35
  8
0
 62
     0
 10
1098.845751157736
 20
665.09816731545152
 30
0.0
 40
65.0
  0
ARC
  5
9D36
  8
0
 62
     0
 10
923.84573615773525
 20
467.09816231545159
 30
0.0
 40
5.0
 50
90.000002999984659
 51
180.00001000000091
  0
ARC
  5
9D37
  8
0
 62
     0
 10
734.52848644620883
 20
520.75014231545117
 30
0.0
 40
10.0
 50
270.0
 51
0.0
  0
ARC
  5
9D38
  8
0
 62
     0
 10
1001.845721157737
 20
440.09816231545159
 30
0.0
 40
3.0000000500000001
 50
90.000002999984659
 51
180.00001000000091
  0
ARC
  5
9D39
  8
0
 62
     0
 10
1098.845751157736
 20
617.09816731545152
 30
0.0
 40
180.00000499999999
 50
90.000002999984659
 51
108.48476000001961
  0
ARC
  5
9D3A
  8
0
 62
     0
 10
993.84575115773634
 20
467.09816231545159
 30
0.0
 40
5.0
 50
0.0
 51
90.000002999984659
  0
ARC
  5
9D3B
  8
0
 62
     0
 10
1079.8226161577361
 20
674.00267731545136
 30
0.0
 40
120.0
 50
108.48476000001961
 51
169.0000000000154
  0
ARC
  5
9D3C
  8
0
 62
     0
 10
525.52848644620894
 20
467.09816231545159
 30
0.0
 40
5.0
 50
90.000002999984659
 51
180.00001000000091
  0
ARC
  5
9D3D
  8
0
 62
     0
 10
729.52848644620894
 20
487.09816231545159
 30
0.0
 40
15.0
 50
179.999989999999
 51
270.0
  0
ARC
  5
9D3E
  8
0
 62
     0
 10
729.52848644620894
 20
701.0250873154514
 30
0.0
 40
15.0
 50
90.000002999984659
 51
180.00001000000091
  0
ARC
  5
9D3F
  8
0
 62
     0
 10
754.52848644620894
 20
768.88613731545183
 30
0.0
 40
10.0
 50
179.999989999999
 51
265.00000000002638
  0
ARC
  5
9D40
  8
0
 62
     0
 10
775.52848644620883
 20
467.09816231545159
 30
0.0
 40
5.0
 50
0.0
 51
90.000002999984659
  0
ARC
  5
9D41
  8
0
 62
     0
 10
777.52853644620882
 20
602.99523231545163
 30
0.0
 40
3.0000000500000001
 50
272.00000000000369
 51
0.0
  0
ARC
  5
9D42
  8
0
 62
     0
 10
766.52848644620894
 20
749.76748731545183
 30
0.0
 40
8.0
 50
0.0
 51
84.99999699998564
  0
ARC
  5
9D43
  8
0
 62
     0
 10
777.52853644620882
 20
733.2047373154511
 30
0.0
 40
3.0000000500000001
 50
179.999989999999
 51
268.00000999999207
  0
ARC
  5
9D44
  8
0
 62
     0
 10
1098.845751157736
 20
617.09816731545152
 30
0.0
 40
175.00000499999999
 50
90.000002999984659
 51
111.4753500000155
  0
ARC
  5
9D45
  8
0
 62
     0
 10
1098.845751157736
 20
577.09816731545152
 30
0.0
 40
130.0
 50
179.999989999999
 51
214.6059899999957
  0
ARC
  5
9D46
  8
0
 62
     0
 10
734.52848644620883
 20
778.71913731545169
 30
0.0
 40
10.0
 50
0.0
 51
87.999999999996334
  0
ARC
  5
9D47
  8
0
 62
     0
 10
978.84575115773612
 20
714.4001873154516
 30
0.0
 40
10.0
 50
155.21109000000271
 51
180.00001000000091
  0
ARC
  5
9D48
  8
0
 62
     0
 10
1098.845751157736
 20
650.09816731545152
 30
0.0
 40
107.0
 50
90.000002999984659
 51
180.00001000000091
  0
ARC
  5
9D49
  8
0
 62
     0
 10
586.52848644620917
 20
482.09816231545159
 30
0.0
 40
10.0
 50
270.0
 51
313.60281999996982
  0
ARC
  5
9D4A
  8
0
 62
     0
 10
633.02848644620906
 20
526.38387231545164
 30
0.0
 40
10.0
 50
313.60281999996982
 51
0.0
  0
ARC
  5
9D4B
  8
0
 62
     0
 10
777.52853644620882
 20
596.99159731545171
 30
0.0
 40
3.0000000500000001
 50
91.999997999993994
 51
180.00001000000091
  0
ARC
  5
9D4C
  8
0
 62
     0
 10
777.52853644620882
 20
727.20108731545179
 30
0.0
 40
3.0000000500000001
 50
0.0
 51
87.999999999996334
  0
ARC
  5
9D4D
  8
0
 62
     0
 10
1078.710161157738
 20
668.27980731545131
 30
0.0
 40
120.0
 50
111.4753500000155
 51
169.0000000000154
  0
ARC
  5
9D4E
  8
0
 62
     0
 10
976.84571615773712
 20
487.09816231545159
 30
0.0
 40
15.0
 50
270.0
 51
0.0
  0
ARC
  5
9D4F
  8
0
 62
     0
 10
662.34698644620846
 20
776.23673731545182
 30
0.0
 40
20.000000499999999
 50
60.000001999986779
 51
87.999999999996334
  0
ARC
  5
9D50
  8
0
 62
     0
 10
680.09268644620886
 20
800.63233731545108
 30
0.0
 40
10.0
 50
240.00000000000031
 51
267.99999999999642
  0
ARC
  5
9D51
  8
0
 62
     0
 10
1038.900591157736
 20
462.86787731545172
 30
0.0
 40
10.0
 50
233.99999999998869
 51
270.0
  0
ARC
  5
9D52
  8
0
 62
     0
 10
1016.9698361577369
 20
454.08012731545142
 30
0.0
 40
10.0
 50
54.000001999974742
 51
135.00000000000949
  0
ARC
  5
9D53
  8
0
 62
     0
 10
1008.845751157736
 20
445.95604231545121
 30
0.0
 40
10.0
 50
135.00000000000949
 51
180.00001000000091
  0
ARC
  5
9D54
  8
0
 62
     0
 10
1188.845751157736
 20
445.95604231545121
 30
0.0
 40
10.0
 50
0.0
 51
45.00000100002881
  0
ARC
  5
9D55
  8
0
 62
     0
 10
1180.7216061577381
 20
454.08012731545142
 30
0.0
 40
10.0
 50
45.00000100002881
 51
126.0000000000112
  0
ARC
  5
9D56
  8
0
 62
     0
 10
1158.7908811577361
 20
462.86787731545172
 30
0.0
 40
10.0
 50
270.0
 51
306.0000000000112
  0
ARC
  5
9D57
  8
0
 62
     0
 10
1220.8457211577361
 20
487.09816231545159
 30
0.0
 40
15.0
 50
179.999989999999
 51
270.0
  0
ARC
  5
9D58
  8
0
 62
     0
 10
1118.9812811577351
 20
668.27980731545131
 30
0.0
 40
120.0
 50
10.99999999998435
 51
68.524650999994023
  0
ARC
  5
9D59
  8
0
 62
     0
 10
1098.845751157736
 20
650.09816731545152
 30
0.0
 40
107.0
 50
0.0
 51
90.000002999984659
  0
ARC
  5
9D5A
  8
0
 62
     0
 10
1218.845736157738
 20
714.4001873154516
 30
0.0
 40
10.0
 50
0.0
 51
24.788910999977119
  0
ARC
  5
9D5B
  8
0
 62
     0
 10
1098.845751157736
 20
617.09816731545152
 30
0.0
 40
175.00000499999999
 50
68.524644999992361
 51
90.000002999984659
  0
ARC
  5
9D5C
  8
0
 62
     0
 10
1098.845751157736
 20
577.09816731545152
 30
0.0
 40
130.0
 50
325.39400000001319
 51
0.0
  0
ARC
  5
9D5D
  8
0
 62
     0
 10
1117.868881157734
 20
674.00267731545136
 30
0.0
 40
120.0
 50
10.99999999998435
 51
71.515242999973225
  0
ARC
  5
9D5E
  8
0
 62
     0
 10
1195.845721157737
 20
440.09816231545159
 30
0.0
 40
3.0000000500000001
 50
0.0
 51
90.000002999984659
  0
ARC
  5
9D5F
  8
0
 62
     0
 10
1203.845736157738
 20
467.09816231545159
 30
0.0
 40
5.0
 50
90.000002999984659
 51
180.00001000000091
  0
ARC
  5
9D60
  8
0
 62
     0
 10
1098.845751157736
 20
617.09816731545152
 30
0.0
 40
180.00000499999999
 50
71.515242999973225
 51
90.000002999984659
  0
ARC
  5
9D61
  8
0
 62
     0
 10
1273.845736157738
 20
467.09816231545159
 30
0.0
 40
5.0
 50
0.0
 51
90.000002999984659
  0
ARC
  5
9D62
  8
0
 62
     0
 10
585.0285364462087
 20
795.09823731545134
 30
0.0
 40
2.0000000500000001
 50
90.000002999984659
 51
180.00001000000091
  0
ARC
  5
9D63
  8
0
 62
     0
 10
573.02848644620894
 20
467.34148231545117
 30
0.0
 40
10.0
 50
28.40299999999479
 51
45.287917999991301
  0
ARC
  5
9D64
  8
0
 62
     0
 10
558.02848644620906
 20
500.09816231545159
 30
0.0
 40
5.0
 50
0.0
 51
90.000002999984659
  0
ARC
  5
9D65
  8
0
 62
     0
 10
573.02848644620894
 20
770.90438731545169
 30
0.0
 40
10.0
 50
308.65980999996481
 51
0.0
  0
ARC
  5
9D66
  8
0
 62
     0
 10
588.02848644620894
 20
790.34908731545124
 30
0.0
 40
5.0
 50
91.999997999993994
 51
180.00001000000091
  0
ARC
  5
9D67
  8
0
 62
     0
 10
558.02848644620906
 20
734.09818731545124
 30
0.0
 40
5.0
 50
270.0
 51
0.0
  0
ARC
  5
9D68
  8
0
 62
     0
 10
514.52848644620894
 20
735.09818731545136
 30
0.0
 40
2.0000000500000001
 50
0.0
 51
90.000002999984659
  0
ARC
  5
9D69
  8
0
 62
     0
 10
514.52848644620894
 20
499.09819731545161
 30
0.0
 40
2.0000000500000001
 50
270.0
 51
0.0
  0
ARC
  5
9D6A
  8
0
 62
     0
 10
573.02848644620894
 20
745.29188731545185
 30
0.0
 40
10.0
 50
128.65980999996481
 51
180.00001000000091
  0
ARC
  5
9D6B
  8
0
 62
     0
 10
518.52853644620882
 20
503.09816231545159
 30
0.0
 40
2.0000000500000001
 50
90.000002999984659
 51
180.00001000000091
  0
ARC
  5
9D6C
  8
0
 62
     0
 10
518.52853644620882
 20
731.09818731545124
 30
0.0
 40
2.0000000500000001
 50
179.999989999999
 51
270.0
  0
ARC
  5
9D6D
  8
0
 62
     0
 10
573.02848644620894
 20
495.48466731545142
 30
0.0
 40
10.0
 50
179.999989999999
 51
225.2879199999964
  0
CIRCLE
  5
9D6E
  8
0
 62
     0
 10
598.02848644620929
 20
823.09818731545136
 30
0.0
 40
15.0
  0
ARC
  5
9D6F
  8
0
 62
     0
 10
598.02848644620929
 20
823.09818731545136
 30
0.0
 40
25.000000499999999
 50
306.46672000003269
 51
233.53328999995361
  0
ARC
  5
9D70
  8
0
 62
     0
 10
588.74493644620895
 20
805.23828731545154
 30
0.0
 40
1.0
 50
101.2132899999917
 51
164.99998999999701
  0
ARC
  5
9D71
  8
0
 62
     0
 10
607.31213644620811
 20
805.23828731545154
 30
0.0
 40
1.0
 50
14.99999999999446
 51
78.786710000008227
  0
ARC
  5
9D72
  8
0
 62
     0
 10
579.60348644620967
 20
798.16788731545148
 30
0.0
 40
6.0
 50
349.72994999998758
 51
53.533291000035561
  0
ARC
  5
9D73
  8
0
 62
     0
 10
616.45353644620866
 20
798.16788731545148
 30
0.0
 40
6.0
 50
126.46669999999681
 51
190.27005999999301
  0
ARC
  5
9D74
  8
0
 62
     0
 10
614.02848644620894
 20
772.21883731545165
 30
0.0
 40
2.0000000500000001
 50
270.0
 51
0.0
  0
ARC
  5
9D75
  8
0
 62
     0
 10
614.02848644620894
 20
784.84573731545152
 30
0.0
 40
2.0000000500000001
 50
0.0
 51
90.000002999984659
  0
ARC
  5
9D76
  8
0
 62
     0
 10
614.02848644620894
 20
529.77171731545161
 30
0.0
 40
2.0000000500000001
 50
270.0
 51
0.0
  0
ARC
  5
9D77
  8
0
 62
     0
 10
614.02848644620894
 20
566.04103731545138
 30
0.0
 40
2.0000000500000001
 50
0.0
 51
90.000002999984659
  0
ARC
  5
9D78
  8
0
 62
     0
 10
614.02848644620894
 20
655.14900731545117
 30
0.0
 40
2.0000000500000001
 50
270.0
 51
0.0
  0
ARC
  5
9D79
  8
0
 62
     0
 10
614.02848644620894
 20
688.32318731545138
 30
0.0
 40
2.0000000500000001
 50
0.0
 51
90.000002999984659
  0
ARC
  5
9D7A
  8
0
 62
     0
 10
588.02848644620894
 20
522.7716873154518
 30
0.0
 40
5.0
 50
90.000002999984659
 51
180.00001000000091
  0
ARC
  5
9D7B
  8
0
 62
     0
 10
588.02848644620894
 20
573.04106731545164
 30
0.0
 40
5.0
 50
179.999989999999
 51
270.0
  0
ARC
  5
9D7C
  8
0
 62
     0
 10
588.02848644620894
 20
648.1490073154514
 30
0.0
 40
5.0
 50
90.000002999984659
 51
180.00001000000091
  0
ARC
  5
9D7D
  8
0
 62
     0
 10
588.02848644620894
 20
695.32318731545104
 30
0.0
 40
5.0
 50
179.999989999999
 51
270.0
  0
ARC
  5
9D7E
  8
0
 62
     0
 10
588.02848644620894
 20
765.21883731545154
 30
0.0
 40
5.0
 50
90.000002999984659
 51
180.00001000000091
  0
ARC
  5
9D7F
  8
0
 62
     0
 10
588.02848644620894
 20
791.84573731545186
 30
0.0
 40
5.0
 50
179.999989999999
 51
270.0
  0
ARC
  5
9D80
  8
0
 62
     0
 10
467.52853644620973
 20
490.83800231545172
 30
0.0
 40
5.0
 50
91.999997999993994
 51
180.00001000000091
  0
ARC
  5
9D81
  8
0
 62
     0
 10
443.52848644620912
 20
664.09819731545156
 30
0.0
 40
3.0000000500000001
 50
90.000002999984659
 51
180.00001000000091
  0
ARC
  5
9D82
  8
0
 62
     0
 10
453.52848644620917
 20
670.09816731545152
 30
0.0
 40
3.0000000500000001
 50
270.0
 51
0.0
  0
ARC
  5
9D83
  8
0
 62
     0
 10
459.52848644620912
 20
474.59816231545159
 30
0.0
 40
3.0000000500000001
 50
270.0
 51
0.2885557991143161
  0
ARC
  5
9D84
  8
0
 62
     0
 10
461.52848644620917
 20
692.5814873154518
 30
0.0
 40
5.0
 50
149.9999999999807
 51
180.00001000000091
  0
ARC
  5
9D85
  8
0
 62
     0
 10
437.52863644620959
 20
645.10634731545133
 30
0.0
 40
3.0000000500000001
 50
272.00000000000369
 51
0.0
  0
ARC
  5
9D86
  8
0
 62
     0
 10
437.52863644620959
 20
642.33174731545171
 30
0.0
 40
3.0000000500000001
 50
270.0
 51
0.5730556653541647
  0
ARC
  5
9D87
  8
0
 62
     0
 10
488.52853644620882
 20
734.09818731545124
 30
0.0
 40
3.0000000500000001
 50
90.000002999984659
 51
180.00001000000091
  0
ARC
  5
9D88
  8
0
 62
     0
 10
476.52848644620912
 20
714.82538731545139
 30
0.0
 40
2.0000000500000001
 50
90.000002999984659
 51
180.00001000000091
  0
ARC
  5
9D89
  8
0
 62
     0
 10
482.52853644620882
 20
726.9378873154518
 30
0.0
 40
3.0000000500000001
 50
270.0
 51
0.0
  0
ARC
  5
9D8A
  8
0
 62
     0
 10
475.59068644620851
 20
720.93788731545123
 30
0.0
 40
3.0000000500000001
 50
90.000002999984659
 51
149.9999999999807
  0
ARC
  5
9D8B
  8
0
 62
     0
 10
465.52848644620917
 20
514.37096231545127
 30
0.0
 40
3.0000000500000001
 50
90.000002999984659
 51
180.00001000000091
  0
ARC
  5
9D8C
  8
0
 62
     0
 10
476.52848644620912
 20
519.37096231545127
 30
0.0
 40
2.0000000500000001
 50
179.999989999999
 51
270.0
  0
ARC
  5
9D8D
  8
0
 62
     0
 10
487.5285364462087
 20
691.09483731545151
 30
0.0
 40
2.0000000500000001
 50
90.000002999984659
 51
180.00001000000091
  0
ARC
  5
9D8E
  8
0
 62
     0
 10
472.52853644620973
 20
685.09478731545119
 30
0.0
 40
2.0000000500000001
 50
270.0
 51
0.0
  0
ARC
  5
9D8F
  8
0
 62
     0
 10
472.52853644620973
 20
549.10149231545165
 30
0.0
 40
2.0000000500000001
 50
0.0
 51
90.000002999984659
  0
ARC
  5
9D90
  8
0
 62
     0
 10
487.5285364462087
 20
543.10152231545123
 30
0.0
 40
2.0000000500000001
 50
179.999989999999
 51
270.0
  0
LINE
  5
9D92
  8
0
  6
AM_ISO08W050
 62
     0
 10
953.84575115773612
 20
476.9365723154516
 30
0.0
 11
953.84575115773612
 21
433.85860231545161
 31
0.0
  0
LINE
  5
9D93
  8
0
  6
AM_ISO02W050
 62
     0
 10
965.845751157736
 20
472.09816231545159
 30
0.0
 11
965.845751157736
 21
440.09816231545159
 31
0.0
  0
LINE
  5
9D94
  8
0
  6
AM_ISO02W050
 62
     0
 10
941.84573615773718
 20
472.09816231545159
 30
0.0
 11
941.84573615773718
 21
440.09816231545159
 31
0.0
  0
LINE
  5
9D95
  8
0
  6
AM_ISO02W050
 62
     0
 10
1255.8457211577361
 20
472.09816231545159
 30
0.0
 11
1255.8457211577361
 21
440.09816231545159
 31
0.0
  0
LINE
  5
9D96
  8
0
  6
AM_ISO02W050
 62
     0
 10
1231.845736157735
 20
472.09816231545159
 30
0.0
 11
1231.845736157735
 21
440.09816231545159
 31
0.0
  0
LINE
  5
9D97
  8
0
  6
AM_ISO08W050
 62
     0
 10
1219.200547310372
 20
665.09816731545152
 30
0.0
 11
978.49095500509725
 21
665.09816731545152
 31
0.0
  0
LINE
  5
9D98
  8
0
  6
AM_ISO08W050
 62
     0
 10
1243.845736157735
 20
476.9365723154516
 30
0.0
 11
1243.845736157735
 21
433.85860231545161
 31
0.0
  0
LINE
  5
9D99
  8
0
  6
AM_ISO08W050
 62
     0
 10
1098.845751157736
 20
856.87596081583285
 30
0.0
 11
1098.845751157736
 21
430.66064731545151
 31
0.0
  0
LINE
  5
9DA1
  8
0
  6
AM_ISO08W050
 62
     0
 10
894.46753644620901
 20
665.09816731545152
 30
0.0
 11
544.27919474655664
 21
665.09816731545152
 31
0.0
  0
LINE
  5
9DA2
  8
0
  6
AM_ISO08W050
 62
     0
 10
550.52848644620894
 20
476.39793731545171
 30
0.0
 11
550.52848644620894
 21
434.78500731545108
 31
0.0
  0
LINE
  5
9DA3
  8
0
  6
AM_ISO08W050
 62
     0
 10
750.52848644620883
 20
476.39793731545171
 30
0.0
 11
750.52848644620883
 21
434.78500731545108
 31
0.0
  0
LINE
  5
9DA4
  8
0
  6
AM_ISO02W050
 62
     0
 10
738.52853644620882
 20
472.09816231545159
 30
0.0
 11
738.52853644620882
 21
440.09816231545159
 31
0.0
  0
LINE
  5
9DA5
  8
0
  6
AM_ISO02W050
 62
     0
 10
762.5285364462087
 20
472.09816231545159
 30
0.0
 11
762.5285364462087
 21
440.09816231545159
 31
0.0
  0
LINE
  5
9DA6
  8
0
  6
AM_ISO02W050
 62
     0
 10
538.52853644620882
 20
472.09816231545159
 30
0.0
 11
538.52853644620882
 21
440.09816231545159
 31
0.0
  0
LINE
  5
9DA7
  8
0
  6
AM_ISO02W050
 62
     0
 10
562.5285364462087
 20
472.09816231545159
 30
0.0
 11
562.5285364462087
 21
440.09816231545159
 31
0.0
  0
LINE
  5
9DA8
  8
0
  6
AM_ISO08W050
 62
     0
 10
133.89358205026019
 20
556.59819731545156
 30
0.0
 11
557.37283705242589
 21
556.59819731545156
 31
0.0
  0
LINE
  5
ADF8
  8
0
 62
     0
 10
359.17681944620898
 20
605.78319731545162
 30
0.0
 11
418.02848644620912
 21
605.78319731545162
 31
0.0
  0
LINE
  5
ADF9
  8
0
 62
     0
 10
358.94606244620911
 20
606.27319731545185
 30
0.0
 11
416.26848644620912
 21
606.27319731545185
 31
0.0
  0
LINE
  5
ADFA
  8
0
 62
     0
 10
357.77466044620928
 20
607.87319731545176
 30
0.0
 11
416.26848644620912
 21
607.87319731545176
 31
0.0
  0
LINE
  5
ADFB
  8
0
 62
     0
 10
357.1668704462092
 20
608.41319731545161
 30
0.0
 11
418.02848644620912
 21
608.41319731545161
 31
0.0
  0
LINE
  5
ADFC
  8
0
 62
     0
 10
280.32331644620911
 20
604.74821031545162
 30
0.0
 11
351.73365644620918
 21
604.74821031545162
 31
0.0
  0
LINE
  5
ADFD
  8
0
 62
     0
 10
278.96151544620921
 20
609.81861431545155
 30
0.0
 11
353.08452144620912
 21
609.81861431545155
 31
0.0
  0
ARC
  5
ADFE
  8
0
 62
     0
 10
870.52845644620879
 20
556.3799693154516
 30
0.0
 40
595.5
 50
175.6560359999994
 51
183.93780499999761
  0
ARC
  5
ADFF
  8
0
 62
     0
 10
278.96151544620921
 20
603.21862331545185
 30
0.0
 40
6.599999999999997
 50
90.0
 51
171.4098509999948
  0
ARC
  5
AE00
  8
0
 62
     0
 10
280.32331644620911
 20
601.14820431545161
 30
0.0
 40
3.6000000000000001
 50
90.0
 51
174.62414600000039
  0
ARC
  5
AE01
  8
0
 62
     0
 10
-238.4715135537908
 20
556.38003131545167
 30
0.0
 40
595.5
 50
356.06220199999939
 51
4.3439640000005717
  0
ARC
  5
AE02
  8
0
 62
     0
 10
353.0954574462092
 20
603.21862331545185
 30
0.0
 40
6.599999999999997
 50
8.5901410000037774
 51
90.0
  0
ARC
  5
AE03
  8
0
 62
     0
 10
351.73365644620918
 20
601.14820431545161
 30
0.0
 40
3.6000000000000001
 50
5.3758619999981763
 51
90.0
  0
ARC
  5
AE04
  8
0
 62
     0
 10
-239.0714895537908
 20
556.38003131545167
 30
0.0
 40
600.59997599999986
 50
355.4679790000045
 51
4.5671770000027472
  0
ARC
  5
AE05
  8
0
 62
     0
 10
871.12843144620911
 20
556.3799693154516
 30
0.0
 40
600.59997599999986
 50
175.4328159999979
 51
184.5320279999992
  0
ARC
  5
AE06
  8
0
 62
     0
 10
316.02848644620917
 20
502.4161953154516
 30
0.0
 40
16.337935000000002
 50
47.76794699999509
 51
132.2320530000049
  0
LINE
  5
AE07
  8
0
 62
     0
 10
282.25141744620908
 20
513.99413631545178
 30
0.0
 11
303.70291944620919
 21
513.99412831545169
 31
0.0
  0
LINE
  5
AE08
  8
0
 62
     0
 10
278.97729344620922
 20
502.94138631545161
 30
0.0
 11
353.07967944620918
 21
502.94138631545161
 31
0.0
  0
LINE
  5
AE09
  8
0
 62
     0
 10
278.7776934462093
 20
505.35926331545181
 30
0.0
 11
353.2792794462091
 21
505.35926331545181
 31
0.0
  0
LINE
  5
AE0A
  8
0
 62
     0
 10
281.0140664462092
 20
511.31602831545172
 30
0.0
 11
304.45006544620912
 21
511.31602031545162
 31
0.0
  0
ARC
  5
AE0B
  8
0
 62
     0
 10
316.09445044620918
 20
500.93020931545158
 30
0.0
 40
15.0
 50
46.767242000003563
 51
133.23275799999641
  0
ARC
  5
AE0C
  8
0
 62
     0
 10
278.97729344620922
 20
509.54138531545181
 30
0.0
 40
6.599999999999997
 50
185.37618999999609
 51
270.0
  0
ARC
  5
AE0D
  8
0
 62
     0
 10
278.7776934462093
 20
511.95926231545172
 30
0.0
 40
6.599999999999997
 50
188.04118300000351
 51
270.0
  0
ARC
  5
AE0E
  8
0
 62
     0
 10
281.0140664462092
 20
515.91603431545161
 30
0.0
 40
4.5999999999999961
 50
185.37625099999849
 51
270.0
  0
LINE
  5
AE0F
  8
0
 62
     0
 10
349.80555544620933
 20
513.99413631545178
 30
0.0
 11
328.35405344620909
 21
513.99412831545169
 31
0.0
  0
LINE
  5
AE10
  8
0
 62
     0
 10
351.04290644620909
 20
511.31602831545172
 30
0.0
 11
327.73883544620918
 21
511.31602031545162
 31
0.0
  0
ARC
  5
AE11
  8
0
 62
     0
 10
353.07967944620918
 20
509.54138531545181
 30
0.0
 40
6.599999999999997
 50
270.0
 51
354.62381000000369
  0
ARC
  5
AE12
  8
0
 62
     0
 10
353.2792794462091
 20
511.95926231545172
 30
0.0
 40
6.599999999999997
 50
270.0
 51
351.9588320000023
  0
ARC
  5
AE13
  8
0
 62
     0
 10
351.04290644620909
 20
515.91603431545161
 30
0.0
 40
4.5999999999999961
 50
270.0
 51
354.62374900000151
  0
ARC
  5
AE14
  8
0
 62
     0
 10
304.45006644620912
 20
513.31602031545196
 30
0.0
 40
2.0
 50
270.0
 51
313.23275799999641
  0
ARC
  5
AE15
  8
0
 62
     0
 10
303.70292044620919
 20
515.9941283154518
 30
0.0
 40
2.0
 50
270.0
 51
312.23205300000052
  0
ARC
  5
AE16
  8
0
 62
     0
 10
328.3540524462091
 20
515.9941283154518
 30
0.0
 40
2.0
 50
227.7679469999951
 51
270.0
  0
ARC
  5
AE17
  8
0
 62
     0
 10
327.73883444620918
 20
513.31602031545196
 30
0.0
 40
2.0
 50
226.76724200000359
 51
270.0
  0
ARC
  5
AE18
  8
0
 62
     0
 10
144.52848644620909
 20
457.39819731545163
 30
0.0
 40
2.0
 50
180.0
 51
270.0
  0
LINE
  5
AE1A
  8
0
 62
     0
 10
215.5284864462092
 20
657.39819731545163
 30
0.0
 11
215.5284864462092
 21
455.3981973154518
 31
0.0
  0
ARC
  5
AE1B
  8
0
 62
     0
 10
144.92848644620909
 20
642.3750123154515
 30
0.0
 40
2.399999999999999
 50
159.99999999999631
 51
180.0
  0
ARC
  5
AE1C
  8
0
 62
     0
 10
149.52295044620911
 20
654.99819731545165
 30
0.0
 40
2.399999999999999
 50
90.0
 51
159.99999999999631
  0
LINE
  5
AE1D
  8
0
 62
     0
 10
147.2676874462091
 20
655.8190453154516
 30
0.0
 11
142.67322444620899
 21
643.19586131545168
 31
0.0
  0
LINE
  5
AE1E
  8
0
 62
     0
 10
147.8424514462092
 20
656.7116513154516
 30
0.0
 11
147.8424514462092
 21
455.3981973154518
 31
0.0
  0
LINE
  5
AE1F
  8
0
 62
     0
 10
142.528486446209
 20
642.3750123154515
 30
0.0
 11
142.528486446209
 21
457.39819731545163
 31
0.0
  0
LINE
  5
AE20
  8
0
 62
     0
 10
215.5284864462092
 20
657.39819731545163
 30
0.0
 11
149.52295044620911
 21
657.39819731545163
 31
0.0
  0
LINE
  5
AE21
  8
0
 62
     0
 10
367.98536244620902
 20
605.78319731545162
 30
0.0
 11
367.98536244620902
 21
585.41819731545161
 31
0.0
  0
LINE
  5
AE22
  8
0
 62
     0
 10
384.02848544620917
 20
605.78319731545162
 30
0.0
 11
384.02848544620917
 21
585.41819731545161
 31
0.0
  0
LINE
  5
AE23
  8
0
 62
     0
 10
398.57788144620918
 20
500.57740131545182
 30
0.0
 11
384.02848544620917
 21
500.57740131545182
 31
0.0
  0
LINE
  5
AE24
  8
0
 62
     0
 10
403.52848644620917
 20
511.98975131545171
 30
0.0
 11
384.02848544620917
 21
511.98975131545171
 31
0.0
  0
LINE
  5
AE25
  8
0
 62
     0
 10
368.73388344620912
 20
505.2924913154518
 30
0.0
 11
384.02848644620917
 21
500.57740131545182
 31
0.0
  0
LINE
  5
AE26
  8
0
 62
     0
 10
384.02848644620917
 20
511.98975131545171
 30
0.0
 11
368.99254544620919
 21
511.4490003154516
 31
0.0
  0
ARC
  5
AE27
  8
0
 62
     0
 10
369.02848644620917
 20
510.44964631545162
 30
0.0
 40
1.0
 50
92.059690999997088
 51
180.0
  0
ARC
  5
AE28
  8
0
 62
     0
 10
369.02848644620917
 20
506.24811131545158
 30
0.0
 40
1.0
 50
180.0
 51
252.8662750000021
  0
LINE
  5
AE29
  8
0
 62
     0
 10
384.02848644620917
 20
632.45098431545159
 30
0.0
 11
368.72802744620918
 21
627.63111831545166
 31
0.0
  0
ARC
  5
AE2A
  8
0
 62
     0
 10
369.02848644620917
 20
626.67732331545164
 30
0.0
 40
1.0
 50
107.485179
 51
180.0
  0
ARC
  5
AE2B
  8
0
 62
     0
 10
369.02848644620917
 20
624.3262583154517
 30
0.0
 40
1.0
 50
180.0
 51
270.0
  0
LINE
  5
AE2C
  8
0
 62
     0
 10
369.07704144620902
 20
623.32743731545156
 30
0.0
 11
384.02848644620917
 21
624.05425731545176
 31
0.0
  0
LINE
  5
AE2D
  8
0
 62
     0
 10
403.52848644620917
 20
624.05425731545176
 30
0.0
 11
384.02848644620917
 21
624.05425731545176
 31
0.0
  0
LINE
  5
AE2E
  8
0
 62
     0
 10
327.02848644620917
 20
654.88469031545162
 30
0.0
 11
414.47567144620911
 21
654.88469031545162
 31
0.0
  0
ARC
  5
AE2F
  8
0
 62
     0
 10
238.29273144620919
 20
652.88469031545162
 30
0.0
 40
2.0
 50
90.0
 51
156.10180000000051
  0
ARC
  5
AE30
  8
0
 62
     0
 10
414.47567144620911
 20
652.88469031545162
 30
0.0
 40
2.0
 50
10.000001999998901
 51
90.0
  0
LINE
  5
AE31
  8
0
 62
     0
 10
418.02848644620912
 20
644.25321431545171
 30
0.0
 11
416.44528644620902
 21
653.23198731545165
 31
0.0
  0
LINE
  5
AE32
  8
0
 62
     0
 10
417.76767844620912
 20
644.25321431545171
 30
0.0
 11
418.02848644620912
 21
644.25321431545171
 31
0.0
  0
ARC
  5
AE33
  8
0
 62
     0
 10
223.35970144620919
 20
651.69491631545156
 30
0.0
 40
2.0
 50
90.0
 51
169.99999800000111
  0
LINE
  5
AE34
  8
0
 62
     0
 10
219.0284864462092
 20
638.64891331545175
 30
0.0
 11
221.3900864462091
 21
652.0422133154517
 31
0.0
  0
ARC
  5
AE35
  8
0
 62
     0
 10
414.42465244620911
 20
651.69491631545156
 30
0.0
 40
2.0
 50
10.000001999998901
 51
90.0
  0
LINE
  5
AE36
  8
0
 62
     0
 10
418.02848644620912
 20
642.77409631545163
 30
0.0
 11
416.39426744620903
 21
652.0422133154517
 31
0.0
  0
LINE
  5
AE37
  8
0
 62
     0
 10
219.0284864462092
 20
638.64891331545175
 30
0.0
 11
219.59639244620919
 21
638.64891331545175
 31
0.0
  0
LINE
  5
AE38
  8
0
 62
     0
 10
417.49251544620921
 20
642.77409631545163
 30
0.0
 11
418.02848644620912
 21
642.77409631545163
 31
0.0
  0
ARC
  5
AE39
  8
0
 62
     0
 10
414.33879744620913
 20
649.14218231545158
 30
0.0
 40
2.0
 50
10.00000100000196
 51
90.0
  0
ARC
  5
AE3A
  8
0
 62
     0
 10
223.47749244620911
 20
649.14218231545158
 30
0.0
 40
2.0
 50
90.0
 51
169.9999989999979
  0
LINE
  5
AE3B
  8
0
 62
     0
 10
219.0284864462092
 20
635.4281573154517
 30
0.0
 11
221.5078764462092
 21
649.48947831545149
 31
0.0
  0
ARC
  5
AE3C
  8
0
 62
     0
 10
223.65863344620911
 20
645.17699731545179
 30
0.0
 40
2.0
 50
90.0
 51
170.00000000000139
  0
LINE
  5
AE3D
  8
0
 62
     0
 10
219.0284864462092
 20
630.43567231545171
 30
0.0
 11
221.68901744620919
 21
645.5242933154517
 31
0.0
  0
ARC
  5
AE3E
  8
0
 62
     0
 10
223.93986144620919
 20
639.59956931545162
 30
0.0
 40
2.0
 50
90.0
 51
170.00000000000139
  0
LINE
  5
AE3F
  8
0
 62
     0
 10
219.0284864462092
 20
623.26332031545167
 30
0.0
 11
221.97024544620911
 21
639.94686631545164
 31
0.0
  0
ARC
  5
AE40
  8
0
 62
     0
 10
224.03512544620909
 20
633.59890231545171
 30
0.0
 40
2.0
 50
90.0
 51
169.9999989999979
  0
LINE
  5
AE41
  8
0
 62
     0
 10
219.0284864462092
 20
616.72238431545156
 30
0.0
 11
222.06550944620929
 21
633.94619831545162
 31
0.0
  0
LINE
  5
AE42
  8
0
 62
     0
 10
417.90022744620887
 20
640.46184631545157
 30
0.0
 11
416.30841244620888
 21
649.48947831545149
 31
0.0
  0
LINE
  5
AE43
  8
0
 62
     0
 10
219.0284864462092
 20
635.4281573154517
 30
0.0
 11
219.90879644620921
 21
635.4281573154517
 31
0.0
  0
ARC
  5
AE44
  8
0
 62
     0
 10
414.2094194462091
 20
645.17699731545179
 30
0.0
 40
2.0
 50
9.9999999999986073
 51
90.0
  0
LINE
  5
AE45
  8
0
 62
     0
 10
417.07168144620903
 20
640.46184631545157
 30
0.0
 11
416.17903544620913
 21
645.5242933154517
 31
0.0
  0
ARC
  5
AE46
  8
0
 62
     0
 10
349.41750444620919
 20
639.59956931545162
 30
0.0
 40
2.0
 50
5.5986529999989587
 51
90.0
  0
ARC
  5
AE47
  8
0
 62
     0
 10
349.41554944620918
 20
633.59890231545171
 30
0.0
 40
2.0
 50
5.4290190000020546
 51
90.0
  0
LINE
  5
AE48
  8
0
 62
     0
 10
420.02848644620917
 20
516.87549131545177
 30
0.0
 11
420.02848644620917
 21
618.66413031545164
 31
0.0
  0
LINE
  5
AE49
  8
0
 62
     0
 10
420.02848644620917
 20
640.46184631545157
 30
0.0
 11
420.02848644620917
 21
644.59819731545156
 31
0.0
  0
LINE
  5
AE4A
  8
0
 62
     0
 10
367.98536244620902
 20
630.43567231545171
 30
0.0
 11
384.02848544620917
 21
635.03553431545163
 31
0.0
  0
LINE
  5
AE4B
  8
0
 62
     0
 10
352.32540144620918
 20
630.43567231545171
 30
0.0
 11
367.98536244620902
 21
630.43567231545171
 31
0.0
  0
LINE
  5
AE4C
  8
0
 62
     0
 10
384.02848544620917
 20
635.03553431545163
 30
0.0
 11
398.72176944620912
 21
635.03553431545163
 31
0.0
  0
ARC
  5
AE4D
  8
0
 62
     0
 10
400.7282854462091
 20
628.08146331545163
 30
0.0
 40
2.600398999999999
 50
179.9999819999943
 51
269.99997799999522
  0
ARC
  5
AE4E
  8
0
 62
     0
 10
400.7282854462091
 20
633.38145131545161
 30
0.0
 40
2.600403
 50
90.0
 51
179.9999819999943
  0
LINE
  5
AE4F
  8
0
 62
     0
 10
403.52848644620917
 20
630.79748231545159
 30
0.0
 11
402.02848644620912
 21
629.93145731545178
 31
0.0
  0
LINE
  5
AE50
  8
0
 62
     0
 10
403.52848644620917
 20
631.7974823154517
 30
0.0
 11
402.02848644620912
 21
630.93145731545178
 31
0.0
  0
LINE
  5
AE51
  8
0
 62
     0
 10
403.52848644620917
 20
636.83145731545187
 30
0.0
 11
403.52848644620917
 21
624.63145731545171
 31
0.0
  0
LINE
  5
AE52
  8
0
 62
     0
 10
402.02848644620912
 20
636.83145731545187
 30
0.0
 11
403.52848644620917
 21
636.83145731545187
 31
0.0
  0
LINE
  5
AE53
  8
0
 62
     0
 10
402.02848644620912
 20
624.63145731545171
 30
0.0
 11
403.52848644620917
 21
624.63145731545171
 31
0.0
  0
LINE
  5
AE54
  8
0
 62
     0
 10
398.12849244620918
 20
633.38145131545161
 30
0.0
 11
398.12849244620918
 21
628.08146331545163
 31
0.0
  0
LINE
  5
AE55
  8
0
 62
     0
 10
402.02848644620912
 20
636.83145731545187
 30
0.0
 11
402.02848644620912
 21
624.63145731545171
 31
0.0
  0
LINE
  5
AE56
  8
0
 62
     0
 10
402.02848644620912
 20
625.48145731545162
 30
0.0
 11
400.7282854462091
 21
625.48145731545162
 31
0.0
  0
LINE
  5
AE57
  8
0
 62
     0
 10
402.02848644620912
 20
635.98145731545151
 30
0.0
 11
400.7282854462091
 21
635.98145731545151
 31
0.0
  0
ARC
  5
AE58
  8
0
 62
     0
 10
400.7282854462091
 20
502.03953631545158
 30
0.0
 40
2.600398999999999
 50
179.9999819999943
 51
269.99997799999522
  0
ARC
  5
AE59
  8
0
 62
     0
 10
400.7282854462091
 20
507.3395243154518
 30
0.0
 40
2.600403
 50
90.0
 51
179.9999819999943
  0
LINE
  5
AE5A
  8
0
 62
     0
 10
403.52848644620917
 20
504.7555553154516
 30
0.0
 11
402.02848644620912
 21
503.88953031545162
 31
0.0
  0
LINE
  5
AE5B
  8
0
 62
     0
 10
403.52848644620917
 20
505.75555531545172
 30
0.0
 11
402.02848644620912
 21
504.88953031545168
 31
0.0
  0
LINE
  5
AE5C
  8
0
 62
     0
 10
403.52848644620917
 20
510.78953031545188
 30
0.0
 11
403.52848644620917
 21
498.58953031545173
 31
0.0
  0
LINE
  5
AE5D
  8
0
 62
     0
 10
402.02848644620912
 20
510.78953031545188
 30
0.0
 11
403.52848644620917
 21
510.78953031545188
 31
0.0
  0
LINE
  5
AE5E
  8
0
 62
     0
 10
402.02848644620912
 20
498.58953031545173
 30
0.0
 11
403.52848644620917
 21
498.58953031545173
 31
0.0
  0
LINE
  5
AE5F
  8
0
 62
     0
 10
398.12849244620918
 20
507.3395243154518
 30
0.0
 11
398.12849244620918
 21
502.03953631545158
 31
0.0
  0
LINE
  5
AE60
  8
0
 62
     0
 10
402.02848644620912
 20
510.78953031545188
 30
0.0
 11
402.02848644620912
 21
498.58953031545173
 31
0.0
  0
LINE
  5
AE61
  8
0
 62
     0
 10
402.02848644620912
 20
499.43953031545158
 30
0.0
 11
400.7282854462091
 21
499.43953031545158
 31
0.0
  0
LINE
  5
AE62
  8
0
 62
     0
 10
402.02848644620912
 20
509.93953031545158
 30
0.0
 11
400.7282854462091
 21
509.93953031545158
 31
0.0
  0
LINE
  5
AE63
  8
0
 62
     0
 10
417.96765644620911
 20
644.59819731545156
 30
0.0
 11
420.02848644620917
 21
644.59819731545156
 31
0.0
  0
LINE
  5
AE64
  8
0
 62
     0
 10
223.65863344620911
 20
647.17699731545167
 30
0.0
 11
414.2094194462091
 21
647.17699731545167
 31
0.0
  0
LINE
  5
AE65
  8
0
 62
     0
 10
223.47749244620911
 20
651.14218231545169
 30
0.0
 11
414.33879744620913
 21
651.14218231545169
 31
0.0
  0
LINE
  5
AE66
  8
0
 62
     0
 10
223.35970144620919
 20
653.69491631545179
 30
0.0
 11
414.42465244620911
 21
653.69491631545179
 31
0.0
  0
LINE
  5
AE67
  8
0
 62
     0
 10
215.5284864462092
 20
650.09819731545178
 30
0.0
 11
221.04730444620921
 21
650.09819731545178
 31
0.0
  0
LINE
  5
AE68
  8
0
 62
     0
 10
238.29273144620919
 20
654.88469031545162
 30
0.0
 11
305.02848644620917
 21
654.88469031545162
 31
0.0
  0
LINE
  5
AE69
  8
0
 62
     0
 10
384.02848544620917
 20
613.75819731545175
 30
0.0
 11
384.02848544620917
 21
608.41319731545161
 31
0.0
  0
LINE
  5
AE6A
  8
0
 62
     0
 10
367.98536244620902
 20
613.75819731545175
 30
0.0
 11
367.98536244620902
 21
608.41319731545161
 31
0.0
  0
LINE
  5
AE6B
  8
0
 62
     0
 10
384.02848544620917
 20
624.05425731545176
 30
0.0
 11
384.02848544620917
 21
616.45819731545168
 31
0.0
  0
LINE
  5
AE6C
  8
0
 62
     0
 10
384.02848544620917
 20
632.45098431545159
 30
0.0
 11
398.12849244620918
 21
632.45098431545159
 31
0.0
  0
LINE
  5
AE6D
  8
0
 62
     0
 10
219.0284864462092
 20
616.72238431545156
 30
0.0
 11
353.02848644620917
 21
616.72238431545156
 31
0.0
  0
LINE
  5
AE6E
  8
0
 62
     0
 10
352.3508594462092
 20
623.26332031545167
 30
0.0
 11
353.02848644620917
 21
623.26332031545167
 31
0.0
  0
LINE
  5
AE6F
  8
0
 62
     0
 10
224.03512544620909
 20
635.59890231545171
 30
0.0
 11
349.41554944620918
 21
635.59890231545171
 31
0.0
  0
LINE
  5
AE70
  8
0
 62
     0
 10
219.0284864462092
 20
623.26332031545167
 30
0.0
 11
220.18182944620909
 21
623.26332031545167
 31
0.0
  0
LINE
  5
AE71
  8
0
 62
     0
 10
223.93986144620919
 20
641.59956931545162
 30
0.0
 11
349.41750444620919
 21
641.59956931545162
 31
0.0
  0
LINE
  5
AE72
  8
0
 62
     0
 10
420.02848644620917
 20
618.66413031545164
 30
0.0
 11
423.02848644620912
 21
616.93207931545169
 31
0.0
  0
ARC
  5
AE73
  8
0
 62
     0
 10
402.52848644620917
 20
619.66413031545164
 30
0.0
 40
1.0
 50
270.0
 51
0.0
  0
ARC
  5
AE74
  8
0
 62
     0
 10
405.52848644620912
 20
638.46184631545168
 30
0.0
 40
2.0
 50
90.0
 51
180.0
  0
ARC
  5
AE75
  8
0
 62
     0
 10
405.52848644620912
 20
634.33784131545178
 30
0.0
 40
2.0
 50
180.0
 51
270.0
  0
ARC
  5
AE76
  8
0
 62
     0
 10
405.52848644620912
 20
630.33784131545178
 30
0.0
 40
2.0
 50
90.0
 51
180.0
  0
LINE
  5
AE77
  8
0
 62
     0
 10
405.52848644620912
 20
640.46184631545157
 30
0.0
 11
423.02848644620912
 21
640.46184631545157
 31
0.0
  0
LINE
  5
AE78
  8
0
 62
     0
 10
403.52848644620917
 20
618.66413031545164
 30
0.0
 11
420.02848644620917
 21
618.66413031545164
 31
0.0
  0
LINE
  5
AE79
  8
0
 62
     0
 10
405.52848644620912
 20
632.33784131545156
 30
0.0
 11
423.02848644620912
 21
632.33784131545156
 31
0.0
  0
LINE
  5
AE7A
  8
0
 62
     0
 10
403.52848644620917
 20
619.66413031545164
 30
0.0
 11
403.52848644620917
 21
638.46184631545168
 31
0.0
  0
LINE
  5
AE7B
  8
0
 62
     0
 10
219.0284864462092
 20
472.59819731545161
 30
0.0
 11
215.5284864462092
 21
472.59819731545161
 31
0.0
  0
LINE
  5
AE7C
  8
0
 62
     0
 10
219.0284864462092
 20
522.23940831545178
 30
0.0
 11
223.6358624462091
 21
515.8078023154518
 31
0.0
  0
LINE
  5
AE7D
  8
0
 62
     0
 10
223.6358624462091
 20
515.8078023154518
 30
0.0
 11
224.4916624462092
 21
518.43472231545184
 31
0.0
  0
LINE
  5
AE7E
  8
0
 62
     0
 10
219.0284864462092
 20
522.23940831545178
 30
0.0
 11
224.4916624462092
 21
518.43472231545184
 31
0.0
  0
LINE
  5
AE7F
  8
0
 62
     0
 10
224.4916624462092
 20
518.43472231545184
 30
0.0
 11
225.70359244620909
 21
517.87876231545181
 31
0.0
  0
LINE
  5
AE80
  8
0
 62
     0
 10
215.5284864462092
 20
515.8078023154518
 30
0.0
 11
223.6358624462091
 21
515.8078023154518
 31
0.0
  0
LINE
  5
AE81
  8
0
 62
     0
 10
215.5284864462092
 20
522.23940831545178
 30
0.0
 11
219.0284864462092
 21
522.23940831545178
 31
0.0
  0
LINE
  5
AE82
  8
0
 62
     0
 10
219.0284864462092
 20
499.66602231545158
 30
0.0
 11
219.0284864462092
 21
496.47312831545167
 31
0.0
  0
LINE
  5
AE83
  8
0
 62
     0
 10
220.78848644620919
 20
499.09758831545167
 30
0.0
 11
220.78848644620919
 21
497.09880631545172
 31
0.0
  0
LINE
  5
AE84
  8
0
 62
     0
 10
235.78848644620919
 20
508.09819731545173
 30
0.0
 11
235.78848644620919
 21
506.09880631545172
 31
0.0
  0
LINE
  5
AE85
  8
0
 62
     0
 10
234.0284864462092
 20
508.55973931545162
 30
0.0
 11
234.0284864462092
 21
505.4920043154516
 31
0.0
  0
LINE
  5
AE86
  8
0
 62
     0
 10
234.0284864462092
 20
508.55973931545162
 30
0.0
 11
272.45070344620922
 21
508.55973931545162
 31
0.0
  0
LINE
  5
AE87
  8
0
 62
     0
 10
234.0284864462092
 20
505.4920043154516
 30
0.0
 11
273.76552744620909
 21
505.4920043154516
 31
0.0
  0
LINE
  5
AE88
  8
0
 62
     0
 10
219.0284864462092
 20
496.47312831545167
 30
0.0
 11
316.02848644620917
 21
496.47312831545167
 31
0.0
  0
LINE
  5
AE89
  8
0
 62
     0
 10
219.0284864462092
 20
499.66602231545158
 30
0.0
 11
316.02848644620917
 21
499.66602231545158
 31
0.0
  0
LINE
  5
AE8A
  8
0
 62
     0
 10
220.78848644620919
 20
499.09758831545167
 30
0.0
 11
316.02848644620917
 21
499.09758831545167
 31
0.0
  0
LINE
  5
AE8B
  8
0
 62
     0
 10
220.78848644620919
 20
497.09880631545172
 30
0.0
 11
316.02848644620917
 21
497.09880631545172
 31
0.0
  0
LINE
  5
AE8C
  8
0
 62
     0
 10
220.78848644620919
 20
499.09758831545167
 30
0.0
 11
219.0284864462092
 21
499.66602231545158
 31
0.0
  0
LINE
  5
AE8D
  8
0
 62
     0
 10
220.78848644620919
 20
497.09880631545172
 30
0.0
 11
219.0284864462092
 21
496.47312831545167
 31
0.0
  0
LINE
  5
AE8E
  8
0
 62
     0
 10
223.97175244620919
 20
505.84011831545172
 30
0.0
 11
225.1528434462092
 21
505.60270931545182
 31
0.0
  0
LINE
  5
AE8F
  8
0
 62
     0
 10
235.78848644620919
 20
508.09819731545173
 30
0.0
 11
272.53701344620907
 21
508.09819731545173
 31
0.0
  0
LINE
  5
AE90
  8
0
 62
     0
 10
235.78848644620919
 20
506.09880631545172
 30
0.0
 11
273.34624944620919
 21
506.09880631545172
 31
0.0
  0
LINE
  5
AE91
  8
0
 62
     0
 10
235.78848644620919
 20
508.09819731545173
 30
0.0
 11
234.0284864462092
 21
508.55973931545162
 31
0.0
  0
LINE
  5
AE92
  8
0
 62
     0
 10
235.78848644620919
 20
506.09880631545172
 30
0.0
 11
234.0284864462092
 21
505.4920043154516
 31
0.0
  0
LINE
  5
AE93
  8
0
 62
     0
 10
353.02848644620917
 20
499.66602231545158
 30
0.0
 11
316.02848644620917
 21
499.66602231545158
 31
0.0
  0
LINE
  5
AE94
  8
0
 62
     0
 10
351.26848644620918
 20
499.09758831545167
 30
0.0
 11
316.02848644620917
 21
499.09758831545167
 31
0.0
  0
LINE
  5
AE95
  8
0
 62
     0
 10
351.26848644620918
 20
497.09880631545172
 30
0.0
 11
316.02848644620917
 21
497.09880631545172
 31
0.0
  0
LINE
  5
AE96
  8
0
 62
     0
 10
351.26848644620918
 20
497.09880631545172
 30
0.0
 11
353.02848644620917
 21
496.47312831545167
 31
0.0
  0
LINE
  5
AE97
  8
0
 62
     0
 10
351.26848644620918
 20
499.09758831545167
 30
0.0
 11
353.02848644620917
 21
499.66602231545158
 31
0.0
  0
LINE
  5
AE98
  8
0
 62
     0
 10
351.26848644620918
 20
499.09758831545167
 30
0.0
 11
351.26848644620918
 21
497.09880631545172
 31
0.0
  0
LINE
  5
AE99
  8
0
 62
     0
 10
353.02848644620917
 20
499.66602231545158
 30
0.0
 11
353.02848644620917
 21
496.47312831545167
 31
0.0
  0
LINE
  5
AE9A
  8
0
 62
     0
 10
219.0284864462092
 20
496.47312831545167
 30
0.0
 11
220.62122844620919
 21
479.1739413154516
 31
0.0
  0
LINE
  5
AE9B
  8
0
 62
     0
 10
219.0284864462092
 20
489.93307431545168
 30
0.0
 11
219.63063144620921
 21
489.93307431545168
 31
0.0
  0
LINE
  5
AE9C
  8
0
 62
     0
 10
219.0284864462092
 20
482.7607223154518
 30
0.0
 11
219.7112634462091
 21
482.7607223154518
 31
0.0
  0
LINE
  5
AE9D
  8
0
 62
     0
 10
219.0284864462092
 20
477.76823731545159
 30
0.0
 11
219.5529994462091
 21
477.76823731545159
 31
0.0
  0
LINE
  5
AE9E
  8
0
 62
     0
 10
219.0284864462092
 20
474.54748131545159
 30
0.0
 11
219.38842844620919
 21
474.54748131545159
 31
0.0
  0
LINE
  5
AE9F
  8
0
 62
     0
 10
218.98170944620921
 20
472.97790031545168
 30
0.0
 11
219.21210044620909
 21
472.97790031545168
 31
0.0
  0
LINE
  5
AEA0
  8
0
 62
     0
 10
219.0284864462092
 20
489.93307431545168
 30
0.0
 11
220.61613844620911
 21
473.25530031545162
 31
0.0
  0
LINE
  5
AEA1
  8
0
 62
     0
 10
219.0284864462092
 20
482.7607223154518
 30
0.0
 11
220.60031944620911
 21
467.79951131545158
 31
0.0
  0
LINE
  5
AEA2
  8
0
 62
     0
 10
219.0284864462092
 20
477.76823731545159
 30
0.0
 11
220.58979744620919
 21
463.7976463154518
 31
0.0
  0
LINE
  5
AEA3
  8
0
 62
     0
 10
219.0284864462092
 20
474.54748131545159
 30
0.0
 11
220.58170544620921
 21
461.27015331545181
 31
0.0
  0
LINE
  5
AEA4
  8
0
 62
     0
 10
218.98170944620921
 20
472.97790031545168
 30
0.0
 11
220.57222544620919
 21
460.0671663154518
 31
0.0
  0
ARC
  5
AEA5
  8
0
 62
     0
 10
222.61280444620911
 20
479.35730631545158
 30
0.0
 40
2.0
 50
185.2604109999981
 51
270.0
  0
ARC
  5
AEA6
  8
0
 62
     0
 10
222.60713644620921
 20
473.4448353154516
 30
0.0
 40
2.0
 50
185.4379219999999
 51
270.0
  0
ARC
  5
AEA7
  8
0
 62
     0
 10
222.58937244620921
 20
468.0084823154516
 30
0.0
 40
2.0
 50
185.99752600000011
 51
270.0
  0
ARC
  5
AEA8
  8
0
 62
     0
 10
222.5774234462092
 20
464.01977731545162
 30
0.0
 40
2.0
 50
186.376742000001
 51
270.0
  0
ARC
  5
AEA9
  8
0
 62
     0
 10
222.56815944620919
 20
461.50253431545173
 30
0.0
 40
2.0
 50
186.67229399999829
 51
270.0
  0
ARC
  5
AEAA
  8
0
 62
     0
 10
222.55721944620919
 20
460.31170431545172
 30
0.0
 40
2.0
 50
187.02306899999661
 51
270.0
  0
LINE
  5
AEAB
  8
0
 62
     0
 10
225.70359244620909
 20
517.87876231545181
 30
0.0
 11
225.70359244620909
 21
505.4920043154516
 31
0.0
  0
LINE
  5
AEAC
  8
0
 62
     0
 10
223.6358624462091
 20
515.8078023154518
 30
0.0
 11
223.6358624462091
 21
505.90763531545173
 31
0.0
  0
LINE
  5
AEAD
  8
0
 62
     0
 10
215.5284864462092
 20
505.4920043154516
 30
0.0
 11
225.70359244620909
 21
505.4920043154516
 31
0.0
  0
LINE
  5
AEAE
  8
0
 62
     0
 10
215.5284864462092
 20
505.90763531545173
 30
0.0
 11
223.6358624462091
 21
505.90763531545173
 31
0.0
  0
LINE
  5
AEAF
  8
0
 62
     0
 10
418.02848644620912
 20
571.77819731545162
 30
0.0
 11
416.26848644620912
 21
572.32819731545169
 31
0.0
  0
LINE
  5
AEB0
  8
0
 62
     0
 10
418.02848644620912
 20
574.41819731545161
 30
0.0
 11
418.02848644620912
 21
571.77819731545162
 31
0.0
  0
LINE
  5
AEB1
  8
0
 62
     0
 10
416.26848644620912
 20
573.92819731545171
 30
0.0
 11
418.02848644620912
 21
574.41819731545161
 31
0.0
  0
LINE
  5
AEB2
  8
0
 62
     0
 10
416.26848644620912
 20
573.92819731545171
 30
0.0
 11
416.26848644620912
 21
572.32819731545169
 31
0.0
  0
LINE
  5
AEB3
  8
0
 62
     0
 10
418.02848644620912
 20
560.77819731545162
 30
0.0
 11
416.26848644620912
 21
561.3281973154518
 31
0.0
  0
LINE
  5
AEB4
  8
0
 62
     0
 10
418.02848644620912
 20
563.41819731545149
 30
0.0
 11
418.02848644620912
 21
560.77819731545162
 31
0.0
  0
LINE
  5
AEB5
  8
0
 62
     0
 10
416.26848644620912
 20
562.92819731545183
 30
0.0
 11
418.02848644620912
 21
563.41819731545149
 31
0.0
  0
LINE
  5
AEB6
  8
0
 62
     0
 10
416.26848644620912
 20
562.92819731545183
 30
0.0
 11
416.26848644620912
 21
561.3281973154518
 31
0.0
  0
LINE
  5
AEB7
  8
0
 62
     0
 10
418.02848644620912
 20
549.77819731545151
 30
0.0
 11
416.26848644620912
 21
550.3281973154518
 31
0.0
  0
LINE
  5
AEB8
  8
0
 62
     0
 10
418.02848644620912
 20
552.41819731545183
 30
0.0
 11
418.02848644620912
 21
549.77819731545151
 31
0.0
  0
LINE
  5
AEB9
  8
0
 62
     0
 10
416.26848644620912
 20
551.92819731545183
 30
0.0
 11
418.02848644620912
 21
552.41819731545183
 31
0.0
  0
LINE
  5
AEBA
  8
0
 62
     0
 10
416.26848644620912
 20
551.92819731545183
 30
0.0
 11
416.26848644620912
 21
550.3281973154518
 31
0.0
  0
LINE
  5
AEBB
  8
0
 62
     0
 10
418.02848644620912
 20
538.77819731545162
 30
0.0
 11
416.26848644620912
 21
539.32819731545158
 31
0.0
  0
LINE
  5
AEBC
  8
0
 62
     0
 10
418.02848644620912
 20
541.41819731545183
 30
0.0
 11
418.02848644620912
 21
538.77819731545162
 31
0.0
  0
LINE
  5
AEBD
  8
0
 62
     0
 10
416.26848644620912
 20
540.92819731545183
 30
0.0
 11
418.02848644620912
 21
541.41819731545183
 31
0.0
  0
LINE
  5
AEBE
  8
0
 62
     0
 10
416.26848644620912
 20
540.92819731545183
 30
0.0
 11
416.26848644620912
 21
539.32819731545158
 31
0.0
  0
LINE
  5
AEBF
  8
0
 62
     0
 10
417.44015544620902
 20
470.08891731545168
 30
0.0
 11
416.40852644620918
 21
461.2701563154518
 31
0.0
  0
LINE
  5
AEC0
  8
0
 62
     0
 10
416.37326944620889
 20
463.79735031545181
 30
0.0
 11
417.42822644620918
 21
473.22433731545181
 31
0.0
  0
LINE
  5
AEC1
  8
0
 62
     0
 10
416.40033944620887
 20
467.79820631545181
 30
0.0
 11
417.4992514462092
 21
478.19238031545171
 31
0.0
  0
LINE
  5
AEC2
  8
0
 62
     0
 10
417.55019244620911
 20
484.7290003154518
 30
0.0
 11
416.42491144620919
 21
473.24971631545162
 31
0.0
  0
LINE
  5
AEC3
  8
0
 62
     0
 10
417.5913594462092
 20
492.13874231545162
 30
0.0
 11
416.35864244620888
 21
479.16808131545167
 31
0.0
  0
LINE
  5
AEC4
  8
0
 62
     0
 10
417.50027844620888
 20
468.9525893154518
 30
0.0
 11
416.42824544620902
 21
460.07201131545162
 31
0.0
  0
LINE
  5
AEC5
  8
0
 62
     0
 10
416.26848644620912
 20
529.92819731545183
 30
0.0
 11
416.26848644620912
 21
528.3281973154518
 31
0.0
  0
LINE
  5
AEC6
  8
0
 62
     0
 10
416.26848644620912
 20
529.92819731545183
 30
0.0
 11
418.02848644620912
 21
530.41819731545183
 31
0.0
  0
LINE
  5
AEC7
  8
0
 62
     0
 10
418.02848644620912
 20
530.41819731545183
 30
0.0
 11
418.02848644620912
 21
527.77819731545162
 31
0.0
  0
LINE
  5
AEC8
  8
0
 62
     0
 10
418.02848644620912
 20
527.77819731545162
 30
0.0
 11
416.26848644620912
 21
528.3281973154518
 31
0.0
  0
LINE
  5
AEC9
  8
0
 62
     0
 10
416.26848644620912
 20
584.92819731545171
 30
0.0
 11
416.26848644620912
 21
583.32819731545169
 31
0.0
  0
LINE
  5
AECA
  8
0
 62
     0
 10
416.26848644620912
 20
584.92819731545171
 30
0.0
 11
418.02848644620912
 21
585.41819731545161
 31
0.0
  0
LINE
  5
AECB
  8
0
 62
     0
 10
418.02848644620912
 20
585.41819731545161
 30
0.0
 11
418.02848644620912
 21
582.77819731545151
 31
0.0
  0
LINE
  5
AECC
  8
0
 62
     0
 10
418.02848644620912
 20
582.77819731545151
 30
0.0
 11
416.26848644620912
 21
583.32819731545169
 31
0.0
  0
LINE
  5
AECD
  8
0
 62
     0
 10
367.98536244620902
 20
582.77819731545151
 30
0.0
 11
367.98536244620902
 21
574.41819731545161
 31
0.0
  0
LINE
  5
AECE
  8
0
 62
     0
 10
384.02848544620917
 20
582.77819731545151
 30
0.0
 11
384.02848544620917
 21
574.41819731545161
 31
0.0
  0
LINE
  5
AECF
  8
0
 62
     0
 10
384.02848544620917
 20
571.77819731545162
 30
0.0
 11
384.02848544620917
 21
563.41819731545149
 31
0.0
  0
LINE
  5
AED0
  8
0
 62
     0
 10
367.98536244620902
 20
571.77819731545162
 30
0.0
 11
367.98536244620902
 21
563.41819731545149
 31
0.0
  0
LINE
  5
AED1
  8
0
 62
     0
 10
367.98536244620902
 20
560.77819731545162
 30
0.0
 11
367.98536244620902
 21
552.41819731545183
 31
0.0
  0
LINE
  5
AED2
  8
0
 62
     0
 10
384.02848544620917
 20
560.77819731545162
 30
0.0
 11
384.02848544620917
 21
552.41819731545183
 31
0.0
  0
LINE
  5
AED3
  8
0
 62
     0
 10
384.02848544620917
 20
549.77819731545151
 30
0.0
 11
384.02848544620917
 21
541.41819731545183
 31
0.0
  0
LINE
  5
AED4
  8
0
 62
     0
 10
367.98536244620902
 20
549.77819731545151
 30
0.0
 11
367.98536244620902
 21
541.41819731545183
 31
0.0
  0
LINE
  5
AED5
  8
0
 62
     0
 10
367.98536244620902
 20
538.77819731545162
 30
0.0
 11
367.98536244620902
 21
530.41819731545183
 31
0.0
  0
LINE
  5
AED6
  8
0
 62
     0
 10
384.02848544620917
 20
538.77819731545162
 30
0.0
 11
384.02848544620917
 21
530.41819731545183
 31
0.0
  0
LINE
  5
AED7
  8
0
 62
     0
 10
384.02848544620917
 20
527.77819731545162
 30
0.0
 11
384.02848544620917
 21
511.98975131545171
 31
0.0
  0
LINE
  5
AED8
  8
0
 62
     0
 10
367.98536244620902
 20
527.77819731545162
 30
0.0
 11
367.98536244620902
 21
496.47312831545167
 31
0.0
  0
LINE
  5
AED9
  8
0
 62
     0
 10
417.5913594462092
 20
492.13874231545162
 30
0.0
 11
384.02848544620917
 21
492.13874231545162
 31
0.0
  0
LINE
  5
AEDA
  8
0
 62
     0
 10
417.55019244620911
 20
484.7290003154518
 30
0.0
 11
416.8871464462091
 21
484.7290003154518
 31
0.0
  0
ARC
  5
AEDB
  8
0
 62
     0
 10
414.36761444620919
 20
479.35730631545158
 30
0.0
 40
2.0
 50
270.0
 51
354.57098099999791
  0
ARC
  5
AEDC
  8
0
 62
     0
 10
414.43445244620898
 20
473.4448353154516
 30
0.0
 40
2.0
 50
270.0
 51
354.40134700000101
  0
ARC
  5
AEDD
  8
0
 62
     0
 10
414.41142444620891
 20
468.0084823154516
 30
0.0
 40
2.0
 50
270.0
 51
353.96488600000038
  0
ARC
  5
AEDE
  8
0
 62
     0
 10
414.38567644620912
 20
464.01977731545162
 30
0.0
 40
2.0
 50
270.0
 51
353.61470099999991
  0
ARC
  5
AEDF
  8
0
 62
     0
 10
414.42207244620897
 20
461.50253431545173
 30
0.0
 40
2.0
 50
270.0
 51
353.32779999999809
  0
ARC
  5
AEE0
  8
0
 62
     0
 10
414.44266144620917
 20
460.31170431545172
 30
0.0
 40
2.0
 50
270.0
 51
353.11676000000148
  0
LINE
  5
AEE1
  8
0
 62
     0
 10
417.4992514462092
 20
478.19238031545171
 30
0.0
 11
416.90942644620912
 21
478.19238031545171
 31
0.0
  0
LINE
  5
AEE2
  8
0
 62
     0
 10
417.42822644620918
 20
473.22433731545181
 30
0.0
 11
416.97401144620898
 21
473.22433731545181
 31
0.0
  0
LINE
  5
AEE3
  8
0
 62
     0
 10
417.44015544620902
 20
470.08891731545168
 30
0.0
 11
417.0773474462091
 21
470.08891731545168
 31
0.0
  0
LINE
  5
AEE4
  8
0
 62
     0
 10
417.50027844620888
 20
468.9525893154518
 30
0.0
 11
417.30722644620892
 21
468.9525893154518
 31
0.0
  0
LINE
  5
AEE5
  8
0
 62
     0
 10
420.02848644620917
 20
516.87549131545177
 30
0.0
 11
403.52848644620917
 21
516.87549131545177
 31
0.0
  0
LINE
  5
AEE6
  8
0
 62
     0
 10
423.02848644620912
 20
506.69619931545162
 30
0.0
 11
405.52848644620912
 21
506.69619931545162
 31
0.0
  0
LINE
  5
AEE7
  8
0
 62
     0
 10
423.02848644620912
 20
494.40891831545167
 30
0.0
 11
405.52848644620912
 21
494.40891831545167
 31
0.0
  0
LINE
  5
AEE8
  8
0
 62
     0
 10
403.52848644620917
 20
515.87549131545165
 30
0.0
 11
403.52848644620917
 21
496.40891831545161
 31
0.0
  0
LINE
  5
AEE9
  8
0
 62
     0
 10
420.02848644620917
 20
516.87549131545177
 30
0.0
 11
423.02848644620912
 21
518.60754231545184
 31
0.0
  0
ARC
  5
AEEA
  8
0
 62
     0
 10
405.52848644620912
 20
508.69619931545168
 30
0.0
 40
2.0
 50
180.0
 51
270.0
  0
ARC
  5
AEEB
  8
0
 62
     0
 10
405.52848644620912
 20
496.40891831545161
 30
0.0
 40
2.0
 50
180.0
 51
270.0
  0
ARC
  5
AEEC
  8
0
 62
     0
 10
405.52848644620912
 20
504.69619931545168
 30
0.0
 40
2.0
 50
90.0
 51
180.0
  0
LINE
  5
AEED
  8
0
 62
     0
 10
384.02848544620917
 20
500.57740131545182
 30
0.0
 11
384.02848544620917
 21
492.13874231545162
 31
0.0
  0
LINE
  5
AEEE
  8
0
 62
     0
 10
367.98536244620902
 20
496.47312831545167
 30
0.0
 11
384.02848544620917
 21
492.13874231545162
 31
0.0
  0
ARC
  5
AEEF
  8
0
 62
     0
 10
402.52848644620917
 20
515.87549131545165
 30
0.0
 40
1.0
 50
0.0
 51
90.0
  0
LINE
  5
AEF0
  8
0
 62
     0
 10
367.98536244620902
 20
496.47312831545167
 30
0.0
 11
316.02848644620917
 21
496.47312831545167
 31
0.0
  0
LINE
  5
AEF1
  8
0
 62
     0
 10
414.44266144620917
 20
458.31170431545161
 30
0.0
 11
222.55721944620919
 21
458.31170431545161
 31
0.0
  0
LINE
  5
AEF2
  8
0
 62
     0
 10
414.42207244620897
 20
459.50253431545161
 30
0.0
 11
222.56815944620919
 21
459.50253431545161
 31
0.0
  0
LINE
  5
AEF3
  8
0
 62
     0
 10
414.38567644620912
 20
462.01977731545168
 30
0.0
 11
222.5774234462092
 21
462.01977731545168
 31
0.0
  0
LINE
  5
AEF4
  8
0
 62
     0
 10
414.41142444620891
 20
466.00848231545172
 30
0.0
 11
222.58937244620921
 21
466.00848231545172
 31
0.0
  0
LINE
  5
AEF5
  8
0
 62
     0
 10
414.43445244620898
 20
471.44483531545183
 30
0.0
 11
222.60713644620921
 21
471.44483531545183
 31
0.0
  0
LINE
  5
AEF6
  8
0
 62
     0
 10
414.36761444620919
 20
477.35730631545158
 30
0.0
 11
222.61280444620911
 21
477.35730631545158
 31
0.0
  0
LINE
  5
AEF7
  8
0
 62
     0
 10
367.98536244620902
 20
630.43567231545171
 30
0.0
 11
367.98536244620902
 21
616.45819731545168
 31
0.0
  0
LINE
  5
AEF8
  8
0
 62
     0
 10
384.02848544620917
 20
635.03553431545163
 30
0.0
 11
384.02848544620917
 21
632.45098431545159
 31
0.0
  0
LINE
  5
AEF9
  8
0
 62
     0
 10
360.82609844620902
 20
585.41819731545161
 30
0.0
 11
418.02848644620912
 21
585.41819731545161
 31
0.0
  0
LINE
  5
AEFA
  8
0
 62
     0
 10
360.8496164462091
 20
584.92819731545171
 30
0.0
 11
416.26848644620912
 21
584.92819731545171
 31
0.0
  0
LINE
  5
AEFB
  8
0
 62
     0
 10
360.92258244620922
 20
583.32819731545169
 30
0.0
 11
416.26848644620912
 21
583.32819731545169
 31
0.0
  0
LINE
  5
AEFC
  8
0
 62
     0
 10
360.92258244620922
 20
582.77819731545151
 30
0.0
 11
418.02848644620912
 21
582.77819731545151
 31
0.0
  0
LINE
  5
AEFD
  8
0
 62
     0
 10
360.96710444620919
 20
530.41819731545183
 30
0.0
 11
418.02848644620912
 21
530.41819731545183
 31
0.0
  0
LINE
  5
AEFE
  8
0
 62
     0
 10
360.94570344620911
 20
529.92819731545183
 30
0.0
 11
416.26848644620912
 21
529.92819731545183
 31
0.0
  0
LINE
  5
AEFF
  8
0
 62
     0
 10
360.8730294462091
 20
528.3281973154518
 30
0.0
 11
416.26848644620912
 21
528.3281973154518
 31
0.0
  0
LINE
  5
AF00
  8
0
 62
     0
 10
360.84706044620918
 20
527.77819731545162
 30
0.0
 11
418.02848644620912
 21
527.77819731545162
 31
0.0
  0
LINE
  5
AF01
  8
0
 62
     0
 10
361.51238244620919
 20
560.77819731545162
 30
0.0
 11
418.02848644620912
 21
560.77819731545162
 31
0.0
  0
LINE
  5
AF02
  8
0
 62
     0
 10
361.50810244620902
 20
561.3281973154518
 30
0.0
 11
416.26848644620912
 21
561.3281973154518
 31
0.0
  0
LINE
  5
AF03
  8
0
 62
     0
 10
361.3420964462091
 20
541.41819731545183
 30
0.0
 11
418.02848644620912
 21
541.41819731545183
 31
0.0
  0
LINE
  5
AF04
  8
0
 62
     0
 10
361.32968644620922
 20
540.92819731545183
 30
0.0
 11
416.26848644620912
 21
540.92819731545183
 31
0.0
  0
LINE
  5
AF05
  8
0
 62
     0
 10
361.28637544620898
 20
539.32819731545158
 30
0.0
 11
416.26848644620912
 21
539.32819731545158
 31
0.0
  0
LINE
  5
AF06
  8
0
 62
     0
 10
361.27050144620921
 20
538.77819731545162
 30
0.0
 11
418.02848644620912
 21
538.77819731545162
 31
0.0
  0
LINE
  5
AF07
  8
0
 62
     0
 10
361.51541944620919
 20
552.41819731545183
 30
0.0
 11
418.02848644620912
 21
552.41819731545183
 31
0.0
  0
LINE
  5
AF08
  8
0
 62
     0
 10
361.5119874462091
 20
551.92819731545183
 30
0.0
 11
416.26848644620912
 21
551.92819731545183
 31
0.0
  0
LINE
  5
AF09
  8
0
 62
     0
 10
361.49799544620919
 20
550.3281973154518
 30
0.0
 11
416.26848644620912
 21
550.3281973154518
 31
0.0
  0
LINE
  5
AF0A
  8
0
 62
     0
 10
361.49220144620932
 20
549.77819731545151
 30
0.0
 11
418.02848644620912
 21
549.77819731545151
 31
0.0
  0
LINE
  5
AF0B
  8
0
 62
     0
 10
361.27207344620911
 20
574.41819731545161
 30
0.0
 11
418.02848644620912
 21
574.41819731545161
 31
0.0
  0
LINE
  5
AF0C
  8
0
 62
     0
 10
361.27207344620911
 20
573.92819731545171
 30
0.0
 11
416.26848644620912
 21
573.92819731545171
 31
0.0
  0
LINE
  5
AF0D
  8
0
 62
     0
 10
361.31670744620919
 20
572.32819731545169
 30
0.0
 11
416.26848644620912
 21
572.32819731545169
 31
0.0
  0
LINE
  5
AF0E
  8
0
 62
     0
 10
361.33106544620921
 20
571.77819731545162
 30
0.0
 11
418.02848644620912
 21
571.77819731545162
 31
0.0
  0
LINE
  5
AF0F
  8
0
 62
     0
 10
361.4872464462091
 20
563.41819731545149
 30
0.0
 11
418.02848644620912
 21
563.41819731545149
 31
0.0
  0
LINE
  5
AF10
  8
0
 62
     0
 10
361.4927894462092
 20
562.92819731545183
 30
0.0
 11
416.26848644620912
 21
562.92819731545183
 31
0.0
  0
LINE
  5
AF11
  8
0
 62
     0
 10
420.02848644620917
 20
468.59819731545161
 30
0.0
 11
420.02848644620917
 21
494.40891831545167
 31
0.0
  0
LINE
  5
AF12
  8
0
 62
     0
 10
417.45749744620917
 20
468.59819731545161
 30
0.0
 11
420.02848644620917
 21
468.59819731545161
 31
0.0
  0
LINE
  5
AF13
  8
0
 62
     0
 10
418.02848644620912
 20
616.45819731545168
 30
0.0
 11
416.26848644620912
 21
615.89819731545163
 31
0.0
  0
LINE
  5
AF14
  8
0
 62
     0
 10
416.26848644620912
 20
614.29819731545172
 30
0.0
 11
418.02848644620912
 21
613.75819731545175
 31
0.0
  0
LINE
  5
AF15
  8
0
 62
     0
 10
418.02848644620912
 20
613.75819731545175
 30
0.0
 11
418.02848644620912
 21
616.45819731545168
 31
0.0
  0
LINE
  5
AF16
  8
0
 62
     0
 10
416.26848644620912
 20
614.29819731545172
 30
0.0
 11
416.26848644620912
 21
615.89819731545163
 31
0.0
  0
LINE
  5
AF17
  8
0
 62
     0
 10
418.02848644620912
 20
608.41319731545161
 30
0.0
 11
416.26848644620912
 21
607.87319731545176
 31
0.0
  0
LINE
  5
AF18
  8
0
 62
     0
 10
416.26848644620912
 20
606.27319731545185
 30
0.0
 11
418.02848644620912
 21
605.78319731545162
 31
0.0
  0
LINE
  5
AF19
  8
0
 62
     0
 10
416.26848644620912
 20
606.27319731545185
 30
0.0
 11
416.26848644620912
 21
607.87319731545176
 31
0.0
  0
LINE
  5
AF1A
  8
0
 62
     0
 10
418.02848644620912
 20
605.78319731545162
 30
0.0
 11
418.02848644620912
 21
608.41319731545161
 31
0.0
  0
LINE
  5
AF1B
  8
0
 62
     0
 10
353.02848644620917
 20
616.72238431545156
 30
0.0
 11
351.40657744620921
 21
633.78812731545167
 31
0.0
  0
LINE
  5
AF1C
  8
0
 62
     0
 10
353.02848644620917
 20
623.26332031545167
 30
0.0
 11
351.40796344620912
 21
639.79468831545171
 31
0.0
  0
LINE
  5
AF1D
  8
0
 62
     0
 10
220.2931654462092
 20
630.43567231545171
 30
0.0
 11
219.0284864462092
 21
630.43567231545171
 31
0.0
  0
LINE
  5
AF1E
  8
0
 62
     0
 10
219.0284864462092
 20
616.45819731545168
 30
0.0
 11
220.78848644620919
 21
615.89819731545163
 31
0.0
  0
LINE
  5
AF1F
  8
0
 62
     0
 10
220.78848644620919
 20
614.29819731545172
 30
0.0
 11
219.0284864462092
 21
613.75819731545175
 31
0.0
  0
LINE
  5
AF20
  8
0
 62
     0
 10
219.0284864462092
 20
608.41319731545161
 30
0.0
 11
220.78848644620919
 21
607.87319731545176
 31
0.0
  0
LINE
  5
AF21
  8
0
 62
     0
 10
220.78848644620919
 20
606.27319731545185
 30
0.0
 11
219.0284864462092
 21
605.78319731545162
 31
0.0
  0
LINE
  5
AF22
  8
0
 62
     0
 10
219.0284864462092
 20
613.75819731545175
 30
0.0
 11
219.0284864462092
 21
616.45819731545168
 31
0.0
  0
LINE
  5
AF23
  8
0
 62
     0
 10
220.78848644620919
 20
614.29819731545172
 30
0.0
 11
220.78848644620919
 21
615.89819731545163
 31
0.0
  0
LINE
  5
AF24
  8
0
 62
     0
 10
220.78848644620919
 20
606.27319731545185
 30
0.0
 11
220.78848644620919
 21
607.87319731545176
 31
0.0
  0
LINE
  5
AF25
  8
0
 62
     0
 10
219.0284864462092
 20
605.78319731545162
 30
0.0
 11
219.0284864462092
 21
608.41319731545161
 31
0.0
  0
LINE
  5
AF26
  8
0
 62
     0
 10
219.0284864462092
 20
595.31763231545165
 30
0.0
 11
271.79197344620928
 21
595.31763231545165
 31
0.0
  0
LINE
  5
AF27
  8
0
 62
     0
 10
227.3984864462092
 20
594.46585931545167
 30
0.0
 11
271.73724344620922
 21
594.46585931545167
 31
0.0
  0
LINE
  5
AF28
  8
0
 62
     0
 10
219.0284864462092
 20
595.31763231545165
 30
0.0
 11
227.3984864462092
 21
594.46585931545167
 31
0.0
  0
LINE
  5
AF29
  8
0
 62
     0
 10
225.70359244620909
 20
517.87876231545181
 30
0.0
 11
271.76377744620908
 21
517.87876231545181
 31
0.0
  0
LINE
  5
AF2A
  8
0
 62
     0
 10
227.3984864462092
 20
518.73053531545179
 30
0.0
 11
271.7096704462092
 21
518.73053531545179
 31
0.0
  0
LINE
  5
AF2B
  8
0
 62
     0
 10
219.0284864462092
 20
522.23940831545178
 30
0.0
 11
219.0284864462092
 21
595.31763231545165
 31
0.0
  0
LINE
  5
AF2C
  8
0
 62
     0
 10
219.0284864462092
 20
522.23940831545178
 30
0.0
 11
224.4916624462092
 21
518.43472231545184
 31
0.0
  0
LINE
  5
AF2D
  8
0
 62
     0
 10
224.4916624462092
 20
518.43472231545184
 30
0.0
 11
225.70359244620909
 21
517.87876231545181
 31
0.0
  0
LINE
  5
AF2E
  8
0
 62
     0
 10
224.4916624462092
 20
518.43472231545184
 30
0.0
 11
227.3984864462092
 21
518.73053531545179
 31
0.0
  0
LINE
  5
AF2F
  8
0
 62
     0
 10
227.3984864462092
 20
518.73053531545179
 30
0.0
 11
227.3984864462092
 21
594.46585931545167
 31
0.0
  0
LINE
  5
AF30
  8
0
 62
     0
 10
215.5284864462092
 20
640.21849431545161
 30
0.0
 11
219.30524544620911
 21
640.21849431545161
 31
0.0
  0
LINE
  5
AF31
  8
0
 62
     0
 10
305.02848644620917
 20
657.59819731545178
 30
0.0
 11
327.02848644620917
 21
657.59819731545178
 31
0.0
  0
LINE
  5
AF32
  8
0
 62
     0
 10
305.02848644620917
 20
657.59819731545178
 30
0.0
 11
305.02848644620917
 21
653.69491631545179
 31
0.0
  0
LINE
  5
AF33
  8
0
 62
     0
 10
327.02848644620917
 20
657.59819731545178
 30
0.0
 11
327.02848644620917
 21
653.69491631545179
 31
0.0
  0
LINE
  5
AF34
  8
0
 62
     0
 10
220.78848644620919
 20
614.29819731545172
 30
0.0
 11
416.26848644620912
 21
614.29819731545172
 31
0.0
  0
LINE
  5
AF35
  8
0
 62
     0
 10
220.78848644620919
 20
615.89819731545163
 30
0.0
 11
416.26848644620912
 21
615.89819731545163
 31
0.0
  0
LINE
  5
AF36
  8
0
 62
     0
 10
219.0284864462092
 20
613.75819731545175
 30
0.0
 11
418.02848644620912
 21
613.75819731545175
 31
0.0
  0
LINE
  5
AF37
  8
0
 62
     0
 10
219.0284864462092
 20
616.45819731545168
 30
0.0
 11
418.02848644620912
 21
616.45819731545168
 31
0.0
  0
LINE
  5
AF38
  8
0
 62
     0
 10
219.0284864462092
 20
605.78319731545162
 30
0.0
 11
272.88015344620919
 21
605.78319731545162
 31
0.0
  0
LINE
  5
AF39
  8
0
 62
     0
 10
219.0284864462092
 20
608.41319731545161
 30
0.0
 11
274.8901024462092
 21
608.41319731545161
 31
0.0
  0
LINE
  5
AF3A
  8
0
 62
     0
 10
220.78848644620919
 20
606.27319731545185
 30
0.0
 11
273.11091044620918
 21
606.27319731545185
 31
0.0
  0
LINE
  5
AF3B
  8
0
 62
     0
 10
220.78848644620919
 20
607.87319731545176
 30
0.0
 11
274.28231244620918
 21
607.87319731545176
 31
0.0
  0
LINE
  5
AF3C
  8
0
 62
     0
 10
423.02848644620912
 20
471.59819731545173
 30
0.0
 11
420.02848644620917
 21
468.59819731545161
 31
0.0
  0
LINE
  5
AF3D
  8
0
 62
     0
 10
423.02848644620912
 20
471.59819731545173
 30
0.0
 11
423.02848644620912
 21
641.59819731545178
 31
0.0
  0
LINE
  5
AF3E
  8
0
 62
     0
 10
423.02848644620912
 20
641.59819731545178
 30
0.0
 11
420.02848644620917
 21
644.59819731545156
 31
0.0
  0
LINE
  5
B3BA
  8
0
 62
     0
 10
144.52848644620909
 20
455.3981973154518
 30
0.0
 11
215.5284864462092
 21
455.3981973154518
 31
0.0
  0
LINE
  5
B9CA
  8
0
  6
AM_ISO08W050
 62
     0
 10
116.8106519778711
 20
1105.37198224392
 30
0.0
 11
907.3514764462094
 21
1105.37198224392
 31
0.0
  0
LINE
  5
B9CB
  8
0
  6
CONTINUOUS
 62
     0
 10
810.52853644620961
 20
1114.37198224392
 30
0.0
 11
810.52853644620961
 21
1096.37198224392
 31
0.0
  0
LINE
  5
B9CC
  8
0
  6
CONTINUOUS
 62
     0
 10
786.52853644620961
 20
1135.37198224392
 30
0.0
 11
891.52853644620961
 21
1135.37198224392
 31
0.0
  0
LINE
  5
B9CD
  8
0
  6
CONTINUOUS
 62
     0
 10
786.52853644620961
 20
1137.87198224392
 30
0.0
 11
786.52853644620961
 21
1072.87198224392
 31
0.0
  0
LINE
  5
B9CE
  8
0
  6
CONTINUOUS
 62
     0
 10
891.52853644620961
 20
1135.37198224392
 30
0.0
 11
891.52853644620961
 21
1075.37198224392
 31
0.0
  0
LINE
  5
B9CF
  8
0
  6
CONTINUOUS
 62
     0
 10
780.52853644620961
 20
1072.87198224392
 30
0.0
 11
786.52853644620961
 21
1072.87198224392
 31
0.0
  0
LINE
  5
B9D0
  8
0
  6
CONTINUOUS
 62
     0
 10
780.52853644620961
 20
1137.87198224392
 30
0.0
 11
786.52853644620961
 21
1137.87198224392
 31
0.0
  0
LINE
  5
B9D1
  8
0
  6
CONTINUOUS
 62
     0
 10
786.52853644620961
 20
1075.37198224392
 30
0.0
 11
891.52853644620961
 21
1075.37198224392
 31
0.0
  0
LINE
  5
B9D2
  8
0
  6
CONTINUOUS
 62
     0
 10
520.52857644621042
 20
1276.2657422439199
 30
0.0
 11
520.52857644621042
 21
1220.6710422439189
 31
0.0
  0
LINE
  5
B9D3
  8
0
  6
CONTINUOUS
 62
     0
 10
777.42386644620944
 20
1170.480342243919
 30
0.0
 11
777.63327644620915
 21
1170.47304224392
 31
0.0
  0
LINE
  5
B9D4
  8
0
  6
CONTINUOUS
 62
     0
 10
525.35397644620923
 20
1281.262742243918
 30
0.0
 11
643.02853644620961
 21
1285.3721422439189
 31
0.0
  0
LINE
  5
B9D5
  8
0
  6
CONTINUOUS
 62
     0
 10
643.02853644620961
 20
1285.3719422439201
 30
0.0
 11
775.70303644620969
 21
1280.7389422439189
 31
0.0
  0
LINE
  5
B9D6
  8
0
  6
CENTER
 62
     0
 10
532.62177644620931
 20
1250.371942243919
 30
0.0
 11
568.80471644620945
 21
1250.371942243919
 31
0.0
  0
LINE
  5
B9D7
  8
0
  6
CENTER
 62
     0
 10
731.62802644620922
 20
1250.371942243919
 30
0.0
 11
770.68258644620971
 21
1250.371942243919
 31
0.0
  0
LINE
  5
B9D8
  8
0
  6
CENTER
 62
     0
 10
750.52853644620961
 20
1269.9148422439191
 30
0.0
 11
750.52853644620961
 21
1229.998642243919
 31
0.0
  0
LINE
  5
B9D9
  8
0
  6
CENTER
 62
     0
 10
550.52853644620939
 20
1269.340442243918
 30
0.0
 11
550.52853644620939
 21
1230.5730422439201
 31
0.0
  0
LINE
  5
B9DA
  8
0
  6
CONTINUOUS
 62
     0
 10
774.52853644620961
 20
1205.836842243918
 30
0.0
 11
774.52853644620961
 21
1004.9070722439189
 31
0.0
  0
LINE
  5
B9DB
  8
0
  6
CONTINUOUS
 62
     0
 10
780.52853644620961
 20
1167.47484224392
 30
0.0
 11
780.52853644620961
 21
1043.269072243919
 31
0.0
  0
LINE
  5
B9DC
  8
0
  6
CONTINUOUS
 62
     0
 10
780.52853644620961
 20
1275.7419422439179
 30
0.0
 11
780.52853644620961
 21
1215.00194224392
 31
0.0
  0
LINE
  5
B9DD
  8
0
  6
CONTINUOUS
 62
     0
 10
638.02853644620961
 20
1264.31904224392
 30
0.0
 11
638.02853644620961
 21
946.42496224391971
 31
0.0
  0
LINE
  5
B9DE
  8
0
  6
CONTINUOUS
 62
     0
 10
780.52853644620961
 20
935.00204224391973
 30
0.0
 11
780.52853644620961
 21
995.74191224391984
 31
0.0
  0
LINE
  5
B9DF
  8
0
  6
CENTER
 62
     0
 10
550.52853644620939
 20
940.1883822439197
 30
0.0
 11
550.52853644620939
 21
978.89212224391963
 31
0.0
  0
LINE
  5
B9E0
  8
0
  6
CENTER
 62
     0
 10
750.52853644620961
 20
939.68930224391966
 30
0.0
 11
750.52853644620961
 21
979.7195122439191
 31
0.0
  0
LINE
  5
B9E1
  8
0
  6
CENTER
 62
     0
 10
750.52853644620961
 20
960.37198224391966
 30
0.0
 11
770.64718644620962
 21
960.37198224391966
 31
0.0
  0
LINE
  5
B9E2
  8
0
  6
CENTER
 62
     0
 10
530.89097644620949
 20
960.37198224391966
 30
0.0
 11
570.19479644620935
 21
960.37198224391966
 31
0.0
  0
LINE
  5
B9E3
  8
0
  6
CONTINUOUS
 62
     0
 10
643.02847644620931
 20
925.37198224391955
 30
0.0
 11
775.70297644620905
 21
930.00510224391894
 31
0.0
  0
LINE
  5
B9E4
  8
0
  6
CONTINUOUS
 62
     0
 10
525.35387644620948
 20
929.48129224391971
 30
0.0
 11
643.02853644620961
 21
925.37198224391955
 31
0.0
  0
LINE
  5
B9E5
  8
0
  6
CONTINUOUS
 62
     0
 10
777.42386644620944
 20
1040.2635222439201
 30
0.0
 11
777.63321644620953
 21
1040.2708422439191
 31
0.0
  0
LINE
  5
B9E6
  8
0
  6
CONTINUOUS
 62
     0
 10
520.52857644621042
 20
934.47824224391957
 30
0.0
 11
520.52857644621042
 21
990.07297224391982
 31
0.0
  0
LINE
  5
B9E7
  8
0
  6
CONTINUOUS
 62
     0
 10
706.80771644620961
 20
948.82681224391922
 30
0.0
 11
638.02853644620961
 21
946.42496224391971
 31
0.0
  0
LINE
  5
B9E8
  8
0
  6
CONTINUOUS
 62
     0
 10
638.84176644620925
 20
943.00717224391963
 30
0.0
 11
596.3417064462094
 21
936.00192224391981
 31
0.0
  0
LINE
  5
B9E9
  8
0
  6
CONTINUOUS
 62
     0
 10
591.31387644620952
 20
927.30246224391965
 30
0.0
 11
634.25570644620962
 21
932.61246224391971
 31
0.0
  0
LINE
  5
B9EA
  8
0
  6
CONTINUOUS
 62
     0
 10
643.02853644620961
 20
942.53690224391971
 30
0.0
 11
643.02853644620961
 21
946.59958224391971
 31
0.0
  0
LINE
  5
B9EB
  8
0
  6
CONTINUOUS
 62
     0
 10
714.52853644620961
 20
938.22409224391981
 30
0.0
 11
714.52853644620961
 21
959.83902224391954
 31
0.0
  0
LINE
  5
B9EC
  8
0
  6
CONTINUOUS
 62
     0
 10
744.52853644620961
 20
985.02884224391914
 30
0.0
 11
744.52853644620961
 21
1225.7151422439199
 31
0.0
  0
LINE
  5
B9ED
  8
0
  6
CONTINUOUS
 62
     0
 10
734.87747644620947
 20
975.03494224391955
 30
0.0
 11
729.00503644620915
 21
974.82993224391964
 31
0.0
  0
LINE
  5
B9EE
  8
0
  6
CONTINUOUS
 62
     0
 10
766.80771644620961
 20
998.10232224391939
 30
0.0
 11
754.17953644620945
 21
997.66135224391917
 31
0.0
  0
LINE
  5
B9EF
  8
0
  6
CONTINUOUS
 62
     0
 10
643.02853644620961
 20
1268.207042243919
 30
0.0
 11
643.02853644620961
 21
1264.1443422439199
 31
0.0
  0
LINE
  5
B9F0
  8
0
  6
CONTINUOUS
 62
     0
 10
734.87747644620947
 20
1235.709042243918
 30
0.0
 11
729.00503644620915
 21
1235.91414224392
 31
0.0
  0
LINE
  5
B9F1
  8
0
  6
CONTINUOUS
 62
     0
 10
714.52853644620961
 20
1272.519842243918
 30
0.0
 11
714.52853644620961
 21
1250.904942243918
 31
0.0
  0
LINE
  5
B9F2
  8
0
  6
CONTINUOUS
 62
     0
 10
706.80771644620961
 20
1261.917242243919
 30
0.0
 11
638.02853644620961
 21
1264.3191422439199
 31
0.0
  0
LINE
  5
B9F3
  8
0
  6
CONTINUOUS
 62
     0
 10
766.80771644620961
 20
1212.6416422439199
 30
0.0
 11
754.17959644620953
 21
1213.08264224392
 31
0.0
  0
LINE
  5
B9F4
  8
0
  6
CONTINUOUS
 62
     0
 10
591.31387644620952
 20
1283.4415422439199
 30
0.0
 11
634.25564644620954
 21
1278.13154224392
 31
0.0
  0
LINE
  5
B9F5
  8
0
  6
CONTINUOUS
 62
     0
 10
638.84170644620951
 20
1267.7367422439179
 30
0.0
 11
596.3417064462094
 21
1274.7419422439179
 31
0.0
  0
LINE
  5
B9F6
  8
0
  6
CONTINUOUS
 62
     0
 10
810.52853644620961
 20
1096.37198224392
 30
0.0
 11
891.52853644620961
 21
1096.37198224392
 31
0.0
  0
LINE
  5
B9F7
  8
0
  6
CONTINUOUS
 62
     0
 10
810.52853644620961
 20
1114.37198224392
 30
0.0
 11
891.52853644620961
 21
1114.37198224392
 31
0.0
  0
LINE
  5
B9F8
  8
0
  6
CENTER
 62
     0
 10
598.02853644620961
 20
1088.2370922439191
 30
0.0
 11
598.02853644620961
 21
1121.285312243919
 31
0.0
  0
LINE
  5
B9F9
  8
0
  6
CONTINUOUS
 62
     0
 10
578.02853644620961
 20
1100.3719822439191
 30
0.0
 11
618.02853644620961
 21
1100.3719822439191
 31
0.0
  0
LINE
  5
B9FA
  8
0
  6
CONTINUOUS
 62
     0
 10
578.02853644620961
 20
1110.3719822439191
 30
0.0
 11
618.02853644620961
 21
1110.3719822439191
 31
0.0
  0
LINE
  5
B9FB
  8
0
  6
CONTINUOUS
 62
     0
 10
518.52857644621122
 20
993.37198224391966
 30
0.0
 11
558.02847644620931
 21
993.37198224391966
 31
0.0
  0
LINE
  5
B9FC
  8
0
  6
CONTINUOUS
 62
     0
 10
487.52857644620951
 20
985.37198224391966
 30
0.0
 11
514.52857644620929
 21
985.37198224391966
 31
0.0
  0
LINE
  5
B9FD
  8
0
  6
CONTINUOUS
 62
     0
 10
487.52857644620951
 20
1225.371942243919
 30
0.0
 11
514.52857644620929
 21
1225.371942243919
 31
0.0
  0
LINE
  5
B9FE
  8
0
  6
CONTINUOUS
 62
     0
 10
516.52847644621113
 20
1223.371942243919
 30
0.0
 11
516.52847644621113
 21
987.37198224391966
 31
0.0
  0
LINE
  5
B9FF
  8
0
  6
CONTINUOUS
 62
     0
 10
518.52857644621122
 20
1217.371942243919
 30
0.0
 11
558.02847644620931
 21
1217.371942243919
 31
0.0
  0
LINE
  5
BA00
  8
0
  6
CONTINUOUS
 62
     0
 10
503.52857644620951
 20
1225.371942243919
 30
0.0
 11
503.52857644620951
 21
985.37198224391966
 31
0.0
  0
LINE
  5
BA01
  8
0
  6
CONTINUOUS
 62
     0
 10
516.52847644621113
 20
1034.439182243919
 30
0.0
 11
563.02847644620931
 21
1034.439182243919
 31
0.0
  0
LINE
  5
BA02
  8
0
  6
CONTINUOUS
 62
     0
 10
503.52857644620951
 20
1205.099142243919
 30
0.0
 11
516.52847644621113
 21
1205.099142243919
 31
0.0
  0
LINE
  5
BA03
  8
0
  6
CONTINUOUS
 62
     0
 10
503.52857644620951
 20
1189.5427422439191
 30
0.0
 11
516.52847644621113
 21
1189.5427422439191
 31
0.0
  0
LINE
  5
BA04
  8
0
  6
CONTINUOUS
 62
     0
 10
516.52847644621113
 20
1176.304742243919
 30
0.0
 11
563.02847644620931
 21
1176.304742243919
 31
0.0
  0
LINE
  5
BA05
  8
0
  6
CONTINUOUS
 62
     0
 10
503.52857644620951
 20
1181.3685422439189
 30
0.0
 11
516.52847644621113
 21
1181.3685422439189
 31
0.0
  0
LINE
  5
BA06
  8
0
  6
CONTINUOUS
 62
     0
 10
503.52857644620951
 20
1029.3752722439201
 30
0.0
 11
516.52847644621113
 21
1029.3752722439201
 31
0.0
  0
LINE
  5
BA07
  8
0
  6
CONTINUOUS
 62
     0
 10
516.52847644621113
 20
1192.0469422439171
 30
0.0
 11
563.02847644620931
 21
1192.0469422439171
 31
0.0
  0
LINE
  5
BA08
  8
0
  6
CONTINUOUS
 62
     0
 10
503.52857644620951
 20
1021.201082243919
 30
0.0
 11
516.52847644621113
 21
1021.201082243919
 31
0.0
  0
LINE
  5
BA09
  8
0
  6
CONTINUOUS
 62
     0
 10
503.52857644620951
 20
1005.644742243919
 30
0.0
 11
516.52847644621113
 21
1005.644742243919
 31
0.0
  0
LINE
  5
BA0A
  8
0
  6
CONTINUOUS
 62
     0
 10
516.52847644621113
 20
1018.697112243919
 30
0.0
 11
563.02847644620931
 21
1018.697112243919
 31
0.0
  0
LINE
  5
BA0B
  8
0
  6
CONTINUOUS
 62
     0
 10
583.02847644620931
 20
953.17404224391964
 30
0.0
 11
583.02847644620931
 21
1100.3719822439191
 31
0.0
  0
LINE
  5
BA0C
  8
0
  6
CONTINUOUS
 62
     0
 10
638.02853644620961
 20
946.42496224391971
 30
0.0
 11
587.85397644620923
 21
948.17709224391945
 31
0.0
  0
LINE
  5
BA0D
  8
0
  6
CONTINUOUS
 62
     0
 10
638.02853644620961
 20
1264.31904224392
 30
0.0
 11
587.85397644620923
 21
1262.56694224392
 31
0.0
  0
LINE
  5
BA0E
  8
0
  6
CONTINUOUS
 62
     0
 10
588.02847644620931
 20
1010.42783224392
 30
0.0
 11
614.02853644620961
 21
1010.42783224392
 31
0.0
  0
LINE
  5
BA0F
  8
0
  6
CONTINUOUS
 62
     0
 10
588.02847644620931
 20
1056.3434122439189
 30
0.0
 11
614.02853644620961
 21
1056.3434122439189
 31
0.0
  0
LINE
  5
BA10
  8
0
  6
CONTINUOUS
 62
     0
 10
588.02847644620931
 20
969.07236224391966
 30
0.0
 11
614.02853644620961
 21
969.07236224391966
 31
0.0
  0
LINE
  5
BA11
  8
0
  6
CONTINUOUS
 62
     0
 10
588.02847644620931
 20
958.28195224391925
 30
0.0
 11
614.02853644620961
 21
958.28195224391925
 31
0.0
  0
LINE
  5
BA12
  8
0
  6
CONTINUOUS
 62
     0
 10
616.02853644620961
 20
960.28195224391925
 30
0.0
 11
616.02853644620961
 21
967.07236224391954
 31
0.0
  0
LINE
  5
BA13
  8
0
  6
CONTINUOUS
 62
     0
 10
616.02853644620961
 20
1012.42783224392
 30
0.0
 11
616.02853644620961
 21
1054.3434122439189
 31
0.0
  0
LINE
  5
BA14
  8
0
  6
CONTINUOUS
 62
     0
 10
588.02847644620931
 20
1252.4619422439191
 30
0.0
 11
614.02853644620961
 21
1252.4619422439191
 31
0.0
  0
LINE
  5
BA15
  8
0
  6
CONTINUOUS
 62
     0
 10
616.02853644620961
 20
1198.31624224392
 30
0.0
 11
616.02853644620961
 21
1156.4005422439191
 31
0.0
  0
LINE
  5
BA16
  8
0
  6
CONTINUOUS
 62
     0
 10
588.02847644620931
 20
1200.31624224392
 30
0.0
 11
614.02853644620961
 21
1200.31624224392
 31
0.0
  0
LINE
  5
BA17
  8
0
  6
CONTINUOUS
 62
     0
 10
588.02847644620931
 20
1241.671542243919
 30
0.0
 11
614.02853644620961
 21
1241.671542243919
 31
0.0
  0
LINE
  5
BA18
  8
0
  6
CONTINUOUS
 62
     0
 10
588.02847644620931
 20
1154.4005422439191
 30
0.0
 11
614.02853644620961
 21
1154.4005422439191
 31
0.0
  0
LINE
  5
BA19
  8
0
  6
CONTINUOUS
 62
     0
 10
616.02853644620961
 20
1250.46194224392
 30
0.0
 11
616.02853644620961
 21
1243.6715422439199
 31
0.0
  0
LINE
  5
BA1A
  8
0
  6
CONTINUOUS
 62
     0
 10
563.02847644620931
 20
980.44058224391927
 30
0.0
 11
563.02847644620931
 21
1230.303342243918
 31
0.0
  0
LINE
  5
BA1B
  8
0
  6
CONTINUOUS
 62
     0
 10
578.3625164462095
 20
974.73740224391941
 30
0.0
 11
567.69449644620931
 21
975.45175224391915
 31
0.0
  0
LINE
  5
BA1C
  8
0
  6
CONTINUOUS
 62
     0
 10
578.36258644620943
 20
1236.0065422439191
 30
0.0
 11
567.6944264462096
 21
1235.2921422439199
 31
0.0
  0
LINE
  5
BA1D
  8
0
  6
CONTINUOUS
 62
     0
 10
583.02847644620931
 20
1110.3719822439191
 30
0.0
 11
583.02847644620931
 21
1257.5698422439191
 31
0.0
  0
LINE
  5
BA1E
  8
0
  6
CONTINUOUS
 62
     0
 10
668.02847644620931
 20
1263.271442243919
 30
0.0
 11
668.02847644620931
 21
947.47263224391952
 31
0.0
  0
LINE
  5
BA1F
  8
0
  6
CONTINUOUS
 62
     0
 10
485.52857644620929
 20
1223.371942243919
 30
0.0
 11
485.52857644620929
 21
987.37198224391966
 31
0.0
  0
LINE
  5
BA20
  8
0
  6
CONTINUOUS
 62
     0
 10
456.52857644621042
 20
1199.315842243919
 30
0.0
 11
456.52857644621042
 21
1011.42813224392
 31
0.0
  0
LINE
  5
BA21
  8
0
  6
CONTINUOUS
 62
     0
 10
451.70297644620922
 20
1020.370642243919
 30
0.0
 11
423.02857644620929
 21
1021.37198224392
 31
0.0
  0
LINE
  5
BA22
  8
0
  6
CONTINUOUS
 62
     0
 10
451.70297644620922
 20
1190.3733422439191
 30
0.0
 11
423.02857644620929
 21
1189.371942243919
 31
0.0
  0
LINE
  5
BA28
  8
0
  6
CONTINUOUS
 62
     0
 10
423.02857644620929
 20
1021.37198224392
 30
0.0
 11
423.02857644620929
 21
1189.371942243919
 31
0.0
  0
LINE
  5
BA2D
  8
0
  6
CONTINUOUS
 62
     0
 10
459.81837644621118
 20
1204.014342243918
 30
0.0
 11
482.23857644621108
 21
1212.1746422439189
 31
0.0
  0
LINE
  5
BA2E
  8
0
  6
CONTINUOUS
 62
     0
 10
459.81847644620888
 20
1006.729712243919
 30
0.0
 11
482.23857644621108
 21
998.56943224391944
 31
0.0
  0
ARC
  5
BA2F
  8
0
  6
CONTINUOUS
 62
     0
 10
775.52853644620961
 20
1215.00194224392
 30
0.0
 40
5.0
 50
293.57817999998292
 51
0.0
  0
CIRCLE
  5
BA30
  8
0
  6
CONTINUOUS
 62
     0
 10
750.52853644620961
 20
1250.371942243919
 30
0.0
 40
12.0
  0
ARC
  5
BA31
  8
0
  6
CONTINUOUS
 62
     0
 10
777.52853644620961
 20
1167.47484224392
 30
0.0
 40
3.0
 50
0.0
 51
87.999999999996447
  0
ARC
  5
BA32
  8
0
  6
CONTINUOUS
 62
     0
 10
525.52857644620951
 20
1276.2657422439199
 30
0.0
 40
5.0
 50
91.999997999994306
 51
180.00001000000091
  0
CIRCLE
  5
BA33
  8
0
  6
CONTINUOUS
 62
     0
 10
550.52853644620939
 20
1250.371942243919
 30
0.0
 40
12.0
  0
ARC
  5
BA34
  8
0
  6
CONTINUOUS
 62
     0
 10
775.52853644620961
 20
1275.7419422439179
 30
0.0
 40
5.0
 50
0.0
 51
87.999999999996447
  0
ARC
  5
BA35
  8
0
  6
CONTINUOUS
 62
     0
 10
777.52853644620961
 20
1173.4785422439199
 30
0.0
 40
3.0
 50
180.00001000000091
 51
267.99999999999648
  0
ARC
  5
BA36
  8
0
  6
CONTINUOUS
 62
     0
 10
525.52857644620951
 20
1220.6710422439189
 30
0.0
 40
5.0
 50
180.00001000000091
 51
221.2849400000012
  0
ARC
  5
BA37
  8
0
  6
CONTINUOUS
 62
     0
 10
779.52853644620961
 20
1205.836842243918
 30
0.0
 40
5.0
 50
113.57817999998301
 51
180.00001000000091
  0
ARC
  5
BA38
  8
0
  6
CONTINUOUS
 62
     0
 10
779.52853644620961
 20
1004.9070722439189
 30
0.0
 40
5.0
 50
180.00001000000091
 51
246.42182000001699
  0
ARC
  5
BA39
  8
0
  6
CONTINUOUS
 62
     0
 10
525.52857644620951
 20
990.07297224391982
 30
0.0
 40
5.0
 50
138.7152999999978
 51
180.00001000000091
  0
ARC
  5
BA3A
  8
0
  6
CONTINUOUS
 62
     0
 10
777.52853644620961
 20
1037.265412243918
 30
0.0
 40
3.0
 50
91.999997999994306
 51
180.00001000000091
  0
ARC
  5
BA3B
  8
0
  6
CONTINUOUS
 62
     0
 10
525.52857644620951
 20
934.47824224391957
 30
0.0
 40
5.0
 50
180.00001000000091
 51
267.99999999999648
  0
ARC
  5
BA3C
  8
0
  6
CONTINUOUS
 62
     0
 10
775.52853644620961
 20
935.00204224391973
 30
0.0
 40
5.0
 50
272.00000000000352
 51
0.0
  0
CIRCLE
  5
BA3D
  8
0
  6
CONTINUOUS
 62
     0
 10
550.52853644620939
 20
960.37198224391966
 30
0.0
 40
12.0
  0
ARC
  5
BA3E
  8
0
  6
CONTINUOUS
 62
     0
 10
777.52853644620961
 20
1043.269072243919
 30
0.0
 40
3.0
 50
272.00000000000352
 51
0.0
  0
CIRCLE
  5
BA3F
  8
0
  6
CONTINUOUS
 62
     0
 10
750.52853644620961
 20
960.37198224391966
 30
0.0
 40
12.0
  0
ARC
  5
BA40
  8
0
  6
CONTINUOUS
 62
     0
 10
775.52853644620961
 20
995.74191224391984
 30
0.0
 40
5.0
 50
0.0
 51
66.421821000015456
  0
ARC
  5
BA41
  8
0
  6
CONTINUOUS
 62
     0
 10
638.02853644620961
 20
947.94058224391915
 30
0.0
 40
5.0
 50
279.35985999998599
 51
344.36583000000542
  0
ARC
  5
BA42
  8
0
  6
CONTINUOUS
 62
     0
 10
633.0285364462095
 20
942.53690224391971
 30
0.0
 40
10.0
 50
277.04919999998998
 51
0.0
  0
ARC
  5
BA43
  8
0
  6
CONTINUOUS
 62
     0
 10
724.52853644620961
 20
938.22409224391981
 30
0.0
 40
10.0
 50
180.00001000000091
 51
271.99998999998161
  0
ARC
  5
BA44
  8
0
  6
CONTINUOUS
 62
     0
 10
595.5285364462095
 20
940.93533224391956
 30
0.0
 40
5.0
 50
180.00001000000091
 51
279.3598499999901
  0
ARC
  5
BA45
  8
0
  6
CONTINUOUS
 62
     0
 10
706.52853644620961
 20
956.82193224391938
 30
0.0
 40
8.0
 50
272.00000000000352
 51
0.0
  0
ARC
  5
BA46
  8
0
  6
CONTINUOUS
 62
     0
 10
729.5285364462095
 20
959.83902224391954
 30
0.0
 40
15.0
 50
91.999997999994306
 51
180.00001000000091
  0
ARC
  5
BA47
  8
0
  6
CONTINUOUS
 62
     0
 10
734.52853644620961
 20
985.02884224391914
 30
0.0
 40
10.0
 50
272.00000000000352
 51
0.0
  0
ARC
  5
BA48
  8
0
  6
CONTINUOUS
 62
     0
 10
754.5285364462095
 20
987.66745224391912
 30
0.0
 40
10.0
 50
91.999997999994306
 51
180.00001000000091
  0
ARC
  5
BA49
  8
0
  6
CONTINUOUS
 62
     0
 10
766.5285364462095
 20
1006.0975022439191
 30
0.0
 40
8.0
 50
272.00000000000352
 51
0.0
  0
ARC
  5
BA4A
  8
0
  6
CONTINUOUS
 62
     0
 10
766.5285364462095
 20
1204.646542243918
 30
0.0
 40
8.0
 50
0.0
 51
87.999999999996447
  0
ARC
  5
BA4B
  8
0
  6
CONTINUOUS
 62
     0
 10
754.5285364462095
 20
1223.076442243919
 30
0.0
 40
10.0
 50
180.00001000000091
 51
267.99999999999648
  0
ARC
  5
BA4C
  8
0
  6
CONTINUOUS
 62
     0
 10
729.5285364462095
 20
1250.904942243918
 30
0.0
 40
15.0
 50
180.00001000000091
 51
267.99999999999648
  0
ARC
  5
BA4D
  8
0
  6
CONTINUOUS
 62
     0
 10
734.52853644620961
 20
1225.7151422439199
 30
0.0
 40
10.0
 50
0.0
 51
87.999999999996447
  0
ARC
  5
BA4E
  8
0
  6
CONTINUOUS
 62
     0
 10
706.52853644620961
 20
1253.922042243918
 30
0.0
 40
8.0
 50
0.0
 51
87.999999999996447
  0
ARC
  5
BA4F
  8
0
  6
CONTINUOUS
 62
     0
 10
638.02853644620961
 20
1262.8033422439189
 30
0.0
 40
5.0
 50
15.63417199999704
 51
80.640142999995817
  0
ARC
  5
BA50
  8
0
  6
CONTINUOUS
 62
     0
 10
633.0285364462095
 20
1268.207042243919
 30
0.0
 40
10.0
 50
0.0
 51
82.950795999992309
  0
ARC
  5
BA51
  8
0
  6
CONTINUOUS
 62
     0
 10
724.52853644620961
 20
1272.519842243918
 30
0.0
 40
10.0
 50
87.999999999996447
 51
180.00001000000091
  0
ARC
  5
BA52
  8
0
  6
CONTINUOUS
 62
     0
 10
595.5285364462095
 20
1269.808642243918
 30
0.0
 40
5.0
 50
80.640142999995817
 51
180.00001000000091
  0
ARC
  5
BA53
  8
0
  6
CONTINUOUS
 62
     0
 10
810.52853644620961
 20
1105.37198224392
 30
0.0
 40
8.9999962
 50
90.000002999984659
 51
270.0
  0
ARC
  5
BA54
  8
0
  6
CONTINUOUS
 62
     0
 10
618.02853644620961
 20
1105.37198224392
 30
0.0
 40
5.0
 50
270.0
 51
90.000002999984659
  0
ARC
  5
BA55
  8
0
  6
CONTINUOUS
 62
     0
 10
578.02853644620961
 20
1105.37198224392
 30
0.0
 40
5.0
 50
90.000002999984659
 51
270.0
  0
ARC
  5
BA56
  8
0
  6
CONTINUOUS
 62
     0
 10
598.02853644620961
 20
1105.37198224392
 30
0.0
 40
12.5
 50
23.578179999997541
 51
156.42182000000241
  0
ARC
  5
BA57
  8
0
  6
CONTINUOUS
 62
     0
 10
598.02853644620961
 20
1105.37198224392
 30
0.0
 40
12.5
 50
203.57817999999739
 51
336.42182999999483
  0
ARC
  5
BA58
  8
0
  6
CONTINUOUS
 62
     0
 10
558.02847644620931
 20
988.37198224391955
 30
0.0
 40
5.0
 50
0.0
 51
90.000002999984659
  0
ARC
  5
BA59
  8
0
  6
CONTINUOUS
 62
     0
 10
558.02847644620931
 20
1222.3719422439201
 30
0.0
 40
5.0
 50
270.0
 51
0.0
  0
ARC
  5
BA5A
  8
0
  6
CONTINUOUS
 62
     0
 10
514.52857644620929
 20
1223.371942243919
 30
0.0
 40
2.0
 50
0.0
 51
90.000002999984659
  0
ARC
  5
BA5B
  8
0
  6
CONTINUOUS
 62
     0
 10
514.52857644620929
 20
987.37198224391966
 30
0.0
 40
2.0
 50
270.0
 51
0.0
  0
ARC
  5
BA5C
  8
0
  6
CONTINUOUS
 62
     0
 10
518.52857644621122
 20
991.37198224391955
 30
0.0
 40
2.0
 50
90.000002999984659
 51
180.00001000000091
  0
ARC
  5
BA5D
  8
0
  6
CONTINUOUS
 62
     0
 10
518.52857644621122
 20
1219.371942243919
 30
0.0
 40
2.0
 50
179.999989999999
 51
270.0
  0
ARC
  5
BA5E
  8
0
  6
CONTINUOUS
 62
     0
 10
588.02847644620931
 20
953.17404224391964
 30
0.0
 40
5.0
 50
180.00001000000091
 51
268.00001000001851
  0
ARC
  5
BA5F
  8
0
  6
CONTINUOUS
 62
     0
 10
588.02847644620931
 20
1257.5698422439191
 30
0.0
 40
5.0
 50
91.999997999994306
 51
180.00001000000091
  0
ARC
  5
BA60
  8
0
  6
CONTINUOUS
 62
     0
 10
614.02853644620961
 20
960.28195224391925
 30
0.0
 40
2.0
 50
270.0
 51
0.0
  0
ARC
  5
BA61
  8
0
  6
CONTINUOUS
 62
     0
 10
614.02853644620961
 20
967.07236224391954
 30
0.0
 40
2.0
 50
0.0
 51
90.000002999984659
  0
ARC
  5
BA62
  8
0
  6
CONTINUOUS
 62
     0
 10
614.02853644620961
 20
1012.42783224392
 30
0.0
 40
2.0
 50
270.0
 51
0.0
  0
ARC
  5
BA63
  8
0
  6
CONTINUOUS
 62
     0
 10
614.02853644620961
 20
1054.3434122439189
 30
0.0
 40
2.0
 50
0.0
 51
90.000002999984659
  0
ARC
  5
BA64
  8
0
  6
CONTINUOUS
 62
     0
 10
588.02847644620931
 20
1061.343412243918
 30
0.0
 40
5.0
 50
180.00001000000091
 51
270.0
  0
ARC
  5
BA65
  8
0
  6
CONTINUOUS
 62
     0
 10
588.02847644620931
 20
1005.4278322439191
 30
0.0
 40
5.0
 50
90.000002999984659
 51
180.00001000000091
  0
ARC
  5
BA66
  8
0
  6
CONTINUOUS
 62
     0
 10
588.02847644620931
 20
974.07236224391966
 30
0.0
 40
5.0
 50
180.00001000000091
 51
270.0
  0
ARC
  5
BA67
  8
0
  6
CONTINUOUS
 62
     0
 10
588.02847644620931
 20
953.2819522439197
 30
0.0
 40
5.0
 50
90.000002999984659
 51
180.00001000000091
  0
ARC
  5
BA68
  8
0
  6
CONTINUOUS
 62
     0
 10
588.02847644620931
 20
1257.461942243918
 30
0.0
 40
5.0
 50
180.00001000000091
 51
270.0
  0
ARC
  5
BA69
  8
0
  6
CONTINUOUS
 62
     0
 10
614.02853644620961
 20
1156.4005422439191
 30
0.0
 40
2.0
 50
270.0
 51
0.0
  0
ARC
  5
BA6A
  8
0
  6
CONTINUOUS
 62
     0
 10
614.02853644620961
 20
1243.6715422439199
 30
0.0
 40
2.0
 50
270.0
 51
0.0
  0
ARC
  5
BA6B
  8
0
  6
CONTINUOUS
 62
     0
 10
614.02853644620961
 20
1250.46194224392
 30
0.0
 40
2.0
 50
0.0
 51
90.000002999984659
  0
ARC
  5
BA6C
  8
0
  6
CONTINUOUS
 62
     0
 10
588.02847644620931
 20
1149.4005422439179
 30
0.0
 40
5.0
 50
90.000002999984659
 51
180.00001000000091
  0
ARC
  5
BA6D
  8
0
  6
CONTINUOUS
 62
     0
 10
614.02853644620961
 20
1198.31624224392
 30
0.0
 40
2.0
 50
0.0
 51
90.000002999984659
  0
ARC
  5
BA6E
  8
0
  6
CONTINUOUS
 62
     0
 10
588.02847644620931
 20
1205.31624224392
 30
0.0
 40
5.0
 50
180.00001000000091
 51
270.0
  0
ARC
  5
BA6F
  8
0
  6
CONTINUOUS
 62
     0
 10
588.02847644620931
 20
1236.6715422439199
 30
0.0
 40
5.0
 50
90.000002999984659
 51
180.00001000000091
  0
ARC
  5
BA70
  8
0
  6
CONTINUOUS
 62
     0
 10
578.02847644620931
 20
969.74857224391963
 30
0.0
 40
5.0
 50
0.0
 51
86.1691609999923
  0
ARC
  5
BA71
  8
0
  6
CONTINUOUS
 62
     0
 10
568.02847644620931
 20
980.44058224391927
 30
0.0
 40
5.0
 50
180.00001000000091
 51
266.16916000000413
  0
ARC
  5
BA72
  8
0
  6
CONTINUOUS
 62
     0
 10
568.02847644620931
 20
1230.303342243918
 30
0.0
 40
5.0
 50
93.830837000004578
 51
180.00001000000091
  0
ARC
  5
BA73
  8
0
  6
CONTINUOUS
 62
     0
 10
578.02847644620931
 20
1240.995442243918
 30
0.0
 40
5.0
 50
273.83083999999587
 51
0.0
  0
ARC
  5
BA74
  8
0
  6
CONTINUOUS
 62
     0
 10
487.52857644620951
 20
987.37198224391966
 30
0.0
 40
2.0
 50
179.999989999999
 51
270.0
  0
ARC
  5
BA75
  8
0
  6
CONTINUOUS
 62
     0
 10
487.52857644620951
 20
1223.371942243919
 30
0.0
 40
2.0
 50
90.000002999984659
 51
180.00001000000091
  0
ARC
  5
BA76
  8
0
  6
CONTINUOUS
 62
     0
 10
480.52857644621042
 20
1216.8730422439189
 30
0.0
 40
5.0
 50
289.9999999999892
 51
0.0
  0
ARC
  5
BA77
  8
0
  6
CONTINUOUS
 62
     0
 10
461.52857644620951
 20
1199.315842243919
 30
0.0
 40
5.0
 50
109.9999999999892
 51
180.00001000000091
  0
ARC
  5
BA78
  8
0
  6
CONTINUOUS
 62
     0
 10
480.52857644621042
 20
993.87094224391967
 30
0.0
 40
5.0
 50
0.0
 51
70.000000000010758
  0
ARC
  5
BA79
  8
0
  6
CONTINUOUS
 62
     0
 10
461.52857644620951
 20
1011.42813224392
 30
0.0
 40
5.0
 50
179.999989999999
 51
250.0000000000108
  0
ARC
  5
BA7B
  8
0
  6
CONTINUOUS
 62
     0
 10
451.52857644621122
 20
1195.370242243918
 30
0.0
 40
5.0
 50
272.00000000000352
 51
0.0
  0
ARC
  5
BA81
  8
0
  6
CONTINUOUS
 62
     0
 10
451.52857644621122
 20
1015.37369224392
 30
0.0
 40
5.0
 50
0.0
 51
87.999999999996447
  0
LINE
  5
BA82
  8
0
 62
     0
 10
353.52851544620933
 20
1000.3719622439201
 30
0.0
 11
353.52851544620933
 21
1003.3719622439201
 31
0.0
  0
LINE
  5
BA83
  8
0
 62
     0
 10
278.52851544620933
 20
1000.3719622439201
 30
0.0
 11
278.52851544620933
 21
1003.3719622439201
 31
0.0
  0
LINE
  5
BA84
  8
0
 62
     0
 10
353.01251544620919
 20
944.91188224391965
 30
0.0
 11
279.04547544620959
 21
944.91188224391965
 31
0.0
  0
LINE
  5
BA85
  8
0
 62
     0
 10
353.17841544620921
 20
992.18397224392004
 30
0.0
 11
278.6384954462095
 21
992.18397224392004
 31
0.0
  0
LINE
  5
BA86
  8
0
 62
     0
 10
354.5734354462096
 20
995.15297224391998
 30
0.0
 11
277.58344544620962
 21
995.15297224391998
 31
0.0
  0
LINE
  5
BA87
  8
0
 62
     0
 10
354.36444544620952
 20
999.61391224392014
 30
0.0
 11
277.6664554462094
 21
999.61391224392014
 31
0.0
  0
LINE
  5
BA88
  8
0
 62
     0
 10
353.77851544620933
 20
1000.3719622439201
 30
0.0
 11
278.26381844620931
 21
1000.3719622439201
 31
0.0
  0
LINE
  5
BA89
  8
0
 62
     0
 10
278.65851544620938
 20
960.81398224391967
 30
0.0
 11
353.6384954462095
 21
960.81398224391967
 31
0.0
  0
ARC
  5
BA8A
  8
0
 62
     0
 10
-239.07151455379051
 20
970.78688224391965
 30
0.0
 40
600.59997999999962
 50
357.90661999999458
 51
2.5214029999981382
  0
ARC
  5
BA8B
  8
0
 62
     0
 10
353.01251544620919
 20
948.51198224391965
 30
0.0
 40
3.6000000000000001
 50
269.99995999999589
 51
355.68894999999969
  0
ARC
  5
BA8C
  8
0
 62
     0
 10
-239.07151455379051
 20
970.78688224391965
 30
0.0
 40
596.09997999999962
 50
357.83251999999328
 51
1.945678999999225
  0
ARC
  5
BA8D
  8
0
 62
     0
 10
353.77851544620933
 20
996.77199224391995
 30
0.0
 40
3.6000000000000001
 50
53.34059100000168
 51
89.999989000004106
  0
ARC
  5
BA8E
  8
0
 62
     0
 10
355.38349544620939
 20
987.70998224391997
 30
0.0
 40
7.4984399999999978
 50
40.106594000003412
 51
96.966986999996834
  0
ARC
  5
BA8F
  8
0
 62
     0
 10
355.38349544620939
 20
992.18092224392001
 30
0.0
 40
7.4984399999999978
 50
42.099393999997332
 51
96.966986999996834
  0
ARC
  5
BA90
  8
0
 62
     0
 10
353.97540544620949
 20
988.48195224391964
 30
0.0
 40
3.7436899999999982
 50
43.772794000001099
 51
98.86098400000941
  0
ARC
  5
BA91
  8
0
 62
     0
 10
353.97540544620949
 20
957.11488224391996
 30
0.0
 40
3.7436899999999982
 50
43.772794000001099
 51
98.86098400000941
  0
ARC
  5
BA92
  8
0
 62
     0
 10
356.46649544620948
 20
952.20290224391965
 30
0.0
 40
5.7431099999999971
 50
265.1789600000053
 51
324.2509500000005
  0
ARC
  5
BA93
  8
0
 62
     0
 10
871.12845544620961
 20
970.78688224391965
 30
0.0
 40
600.59997999999962
 50
177.4789700000027
 51
182.0929499999929
  0
ARC
  5
BA94
  8
0
 62
     0
 10
279.04547544620959
 20
948.51198224391965
 30
0.0
 40
3.6000000000000001
 50
184.31098
 51
269.99995999999589
  0
ARC
  5
BA95
  8
0
 62
     0
 10
871.12845544620961
 20
970.78688224391965
 30
0.0
 40
596.09997999999962
 50
178.05396999999269
 51
182.16694999999501
  0
ARC
  5
BA96
  8
0
 62
     0
 10
278.27851544620933
 20
996.77199224391995
 30
0.0
 40
3.6000000000000001
 50
89.999989000004106
 51
126.65899000000211
  0
ARC
  5
BA97
  8
0
 62
     0
 10
276.67353544620971
 20
987.70998224391997
 30
0.0
 40
7.4984399999999978
 50
83.032990999994595
 51
139.89297999998959
  0
ARC
  5
BA98
  8
0
 62
     0
 10
276.67353544620971
 20
992.18092224392001
 30
0.0
 40
7.4984399999999978
 50
83.032990999994595
 51
137.90098999999981
  0
ARC
  5
BA99
  8
0
 62
     0
 10
278.08148544620951
 20
988.48195224391964
 30
0.0
 40
3.7436899999999982
 50
81.138986000011414
 51
136.22698000000381
  0
ARC
  5
BA9A
  8
0
 62
     0
 10
278.08148544620951
 20
957.11488224391996
 30
0.0
 40
3.7436899999999982
 50
81.138986000011414
 51
136.22698000000381
  0
ARC
  5
BA9B
  8
0
 62
     0
 10
275.59052544620943
 20
952.20290224391965
 30
0.0
 40
5.7431099999999971
 50
215.7489699999997
 51
274.82095999999348
  0
LINE
  5
BA9C
  8
0
 62
     0
 10
278.52851544620933
 20
1003.3719622439201
 30
0.0
 11
353.52851544620933
 21
1003.3719622439201
 31
0.0
  0
ARC
  5
BA9D
  8
0
 62
     0
 10
144.9285764462096
 20
1019.874588243919
 30
0.0
 40
2.399999999999999
 50
180.0
 51
200.00000000000369
  0
ARC
  5
BA9E
  8
0
 62
     0
 10
149.52304044620939
 20
1007.25140324392
 30
0.0
 40
2.399999999999999
 50
200.00000000000369
 51
270.0
  0
LINE
  5
BA9F
  8
0
 62
     0
 10
147.26777744620941
 20
1006.43055524392
 30
0.0
 11
142.6733144462095
 21
1019.053740243919
 31
0.0
  0
LINE
  5
BAA0
  8
0
 62
     0
 10
215.52857644620951
 20
1004.85140324392
 30
0.0
 11
149.52304044620939
 21
1004.85140324392
 31
0.0
  0
LINE
  5
BAA1
  8
0
 62
     0
 10
215.52857644620951
 20
1205.8925212439201
 30
0.0
 11
215.52857644620951
 21
1004.85140324392
 31
0.0
  0
LINE
  5
BAA2
  8
0
 62
     0
 10
147.26777744620941
 20
1204.3133692439201
 30
0.0
 11
142.6733144462095
 21
1191.6901842439199
 31
0.0
  0
ARC
  5
BAA3
  8
0
 62
     0
 10
149.52304044620939
 20
1203.49252124392
 30
0.0
 40
2.399999999999999
 50
90.0
 51
159.99999999999631
  0
ARC
  5
BAA4
  8
0
 62
     0
 10
144.9285764462096
 20
1190.869336243919
 30
0.0
 40
2.399999999999999
 50
159.99999999999631
 51
180.0
  0
LINE
  5
BAA5
  8
0
 62
     0
 10
147.84254144620979
 20
1205.20597524392
 30
0.0
 11
147.84254144620979
 21
1004.85140324392
 31
0.0
  0
LINE
  5
BAA6
  8
0
 62
     0
 10
142.52857644620951
 20
1190.869336243919
 30
0.0
 11
142.52857644620951
 21
1020.09252124392
 31
0.0
  0
LINE
  5
BAA7
  8
0
 62
     0
 10
215.52857644620951
 20
1205.8925212439201
 30
0.0
 11
149.52304044620939
 21
1205.8925212439201
 31
0.0
  0
ARC
  5
BAA8
  8
0
 62
     0
 10
223.97222044620949
 20
1022.97128224392
 30
0.0
 40
2.0
 50
190.000000000005
 51
270.0
  0
LINE
  5
BAA9
  8
0
 62
     0
 10
222.00260544620949
 20
1022.623986243919
 30
0.0
 11
219.02857644620951
 21
1039.4905402439199
 31
0.0
  0
LINE
  5
BAAA
  8
0
 62
     0
 10
219.02857644620951
 20
1039.4905402439199
 30
0.0
 11
220.0903154462093
 21
1039.4905402439199
 31
0.0
  0
LINE
  5
BAAB
  8
0
 62
     0
 10
417.49271744620938
 20
1191.544269243919
 30
0.0
 11
418.0285764462094
 21
1191.544269243919
 31
0.0
  0
LINE
  5
BAAC
  8
0
 62
     0
 10
417.75310844620958
 20
1193.106526243919
 30
0.0
 11
418.0285764462094
 21
1193.106526243919
 31
0.0
  0
LINE
  5
BAAD
  8
0
 62
     0
 10
419.70677544620952
 20
1017.372113243919
 30
0.0
 11
420.02857644620951
 21
1017.372113243919
 31
0.0
  0
LINE
  5
BAAE
  8
0
 62
     0
 10
415.84918144620929
 20
1022.21997624392
 30
0.0
 11
418.0285764462094
 21
1022.21997624392
 31
0.0
  0
LINE
  5
BAAF
  8
0
 62
     0
 10
416.85526444620962
 20
1034.3255462439199
 30
0.0
 11
418.0285764462094
 21
1034.3255462439199
 31
0.0
  0
LINE
  5
BAB0
  8
0
  6
AM_ISO08W050
 62
     0
 10
316.02857644620951
 20
997.7159972439199
 30
0.0
 11
316.02857644620951
 21
1006.89771324392
 31
0.0
  0
ARC
  5
BAB1
  8
0
 62
     0
 10
414.27145644620902
 20
1194.3802102439199
 30
0.0
 40
2.0
 50
10.00000000000502
 51
90.0
  0
ARC
  5
BAB2
  8
0
 62
     0
 10
414.3374734462094
 20
1197.92100924392
 30
0.0
 40
2.0
 50
10.00000000000502
 51
90.0
  0
ARC
  5
BAB3
  8
0
 62
     0
 10
414.42339144620962
 20
1200.47274624392
 30
0.0
 40
2.0
 50
10.00000000000502
 51
90.0
  0
ARC
  5
BAB4
  8
0
 62
     0
 10
414.45214044620911
 20
1201.8719622439201
 30
0.0
 40
2.0
 50
10.00000000000502
 51
90.0
  0
LINE
  5
BAB5
  8
0
 62
     0
 10
423.02857944620962
 20
1190.3719622439189
 30
0.0
 11
420.02857944620962
 21
1193.3719622439201
 31
0.0
  0
LINE
  5
BAB6
  8
0
 62
     0
 10
417.98177244620922
 20
1193.3719622439201
 30
0.0
 11
420.02857644620951
 21
1193.3719622439201
 31
0.0
  0
LINE
  5
BAB7
  8
0
 62
     0
 10
423.02857644620929
 20
1020.3719622439201
 30
0.0
 11
420.02857644620951
 21
1017.3719622439201
 31
0.0
  0
LINE
  5
BAB8
  8
0
 62
     0
 10
420.02857644620951
 20
1017.3719622439201
 30
0.0
 11
420.02857644620951
 21
1042.9923482439201
 31
0.0
  0
LINE
  5
BAB9
  8
0
 62
     0
 10
423.02857644620929
 20
1020.3719622439201
 30
0.0
 11
423.02857644620929
 21
1190.3719622439189
 31
0.0
  0
CIRCLE
  5
BABA
  8
0
 62
     0
 10
316.02857644620951
 20
1105.3719622439189
 30
0.0
 40
11.0
  0
LINE
  5
BABB
  8
0
 62
     0
 10
223.3146964462093
 20
1203.8719622439201
 30
0.0
 11
275.02857644620951
 21
1203.8719622439201
 31
0.0
  0
LINE
  5
BABC
  8
0
 62
     0
 10
355.02857644620951
 20
1196.3802102439199
 30
0.0
 11
355.02857644620951
 21
1201.8719622439201
 31
0.0
  0
LINE
  5
BABD
  8
0
 62
     0
 10
277.02857644620951
 20
1196.3802102439199
 30
0.0
 11
277.02857644620951
 21
1201.8719622439201
 31
0.0
  0
ARC
  5
BABE
  8
0
 62
     0
 10
275.02857644620951
 20
1201.8719622439201
 30
0.0
 40
2.0
 50
0.0
 51
90.0
  0
ARC
  5
BABF
  8
0
 62
     0
 10
357.02857644620951
 20
1201.8719622439201
 30
0.0
 40
2.0
 50
90.0
 51
180.0
  0
LINE
  5
BAC0
  8
0
 62
     0
 10
357.02857644620951
 20
1203.8719622439201
 30
0.0
 11
414.45214044620911
 21
1203.8719622439201
 31
0.0
  0
LINE
  5
BAC1
  8
0
 62
     0
 10
414.42339144620962
 20
1202.47274624392
 30
0.0
 11
357.02857644620951
 21
1202.47274624392
 31
0.0
  0
LINE
  5
BAC2
  8
0
 62
     0
 10
418.0285764462094
 20
1191.544269243919
 30
0.0
 11
416.3930074462092
 21
1200.8200422439199
 31
0.0
  0
LINE
  5
BAC3
  8
0
 62
     0
 10
418.0285764462094
 20
1193.106526243919
 30
0.0
 11
416.4217554462096
 21
1202.21925824392
 31
0.0
  0
LINE
  5
BAC4
  8
0
 62
     0
 10
219.02857644620951
 20
1189.08170824392
 30
0.0
 11
221.34508144620929
 21
1202.21925824392
 31
0.0
  0
ARC
  5
BAC5
  8
0
 62
     0
 10
223.3146964462093
 20
1201.8719622439201
 30
0.0
 40
2.0
 50
90.0
 51
169.99999999999491
  0
LINE
  5
BAC6
  8
0
 62
     0
 10
219.02857644620951
 20
1187.4226472439191
 30
0.0
 11
221.39089844620941
 21
1200.8200422439199
 31
0.0
  0
ARC
  5
BAC7
  8
0
 62
     0
 10
223.36051444620989
 20
1200.47274624392
 30
0.0
 40
2.0
 50
90.0
 51
169.99999999999491
  0
ARC
  5
BAC8
  8
0
 62
     0
 10
275.02857644620951
 20
1200.47274624392
 30
0.0
 40
2.0
 50
0.0
 51
90.0
  0
ARC
  5
BAC9
  8
0
 62
     0
 10
357.02857644620951
 20
1200.47274624392
 30
0.0
 40
2.0
 50
90.0
 51
180.0
  0
LINE
  5
BACA
  8
0
 62
     0
 10
275.02857644620951
 20
1202.47274624392
 30
0.0
 11
223.36051444620989
 21
1202.47274624392
 31
0.0
  0
LINE
  5
BACB
  8
0
 62
     0
 10
414.3374734462094
 20
1199.92100924392
 30
0.0
 11
357.02857644620951
 21
1199.92100924392
 31
0.0
  0
LINE
  5
BACC
  8
0
 62
     0
 10
417.89979644620939
 20
1189.235611243919
 30
0.0
 11
416.30708844620938
 21
1198.2683062439201
 31
0.0
  0
LINE
  5
BACD
  8
0
 62
     0
 10
219.02857644620951
 20
1184.20185624392
 30
0.0
 11
221.50887144620981
 21
1198.2683062439201
 31
0.0
  0
ARC
  5
BACE
  8
0
 62
     0
 10
223.4784864462093
 20
1197.92100924392
 30
0.0
 40
2.0
 50
90.0
 51
169.99999999999491
  0
ARC
  5
BACF
  8
0
 62
     0
 10
275.02857644620951
 20
1197.92100924392
 30
0.0
 40
2.0
 50
0.0
 51
90.0
  0
ARC
  5
BAD0
  8
0
 62
     0
 10
357.02857644620951
 20
1197.92100924392
 30
0.0
 40
2.0
 50
90.0
 51
180.0
  0
LINE
  5
BAD1
  8
0
 62
     0
 10
275.02857644620951
 20
1199.92100924392
 30
0.0
 11
223.4784864462093
 21
1199.92100924392
 31
0.0
  0
LINE
  5
BAD2
  8
0
 62
     0
 10
414.27145644620902
 20
1196.3802102439199
 30
0.0
 11
223.6399954462093
 21
1196.3802102439199
 31
0.0
  0
LINE
  5
BAD3
  8
0
 62
     0
 10
417.20944144620972
 20
1189.235611243919
 30
0.0
 11
416.24107244620961
 21
1194.7275062439189
 31
0.0
  0
LINE
  5
BAD4
  8
0
 62
     0
 10
219.02857644620951
 20
1179.7450962439191
 30
0.0
 11
221.67037944620949
 21
1194.7275062439189
 31
0.0
  0
ARC
  5
BAD5
  8
0
 62
     0
 10
223.6399954462093
 20
1194.3802102439199
 30
0.0
 40
2.0
 50
90.0
 51
169.99999999999491
  0
LINE
  5
BAD6
  8
0
 62
     0
 10
348.08493244620951
 20
1189.77264224392
 30
0.0
 11
223.97222044620949
 21
1189.77264224392
 31
0.0
  0
LINE
  5
BAD7
  8
0
 62
     0
 10
353.02857644620951
 20
1171.25338424392
 30
0.0
 11
350.0545474462096
 21
1188.1199382439199
 31
0.0
  0
ARC
  5
BAD8
  8
0
 62
     0
 10
348.08493244620951
 20
1187.77264224392
 30
0.0
 40
2.0
 50
10.00000000000502
 51
90.0
  0
LINE
  5
BAD9
  8
0
 62
     0
 10
219.02857644620951
 20
1171.25338424392
 30
0.0
 11
222.00260544620949
 21
1188.1199382439199
 31
0.0
  0
ARC
  5
BADA
  8
0
 62
     0
 10
223.97222044620949
 20
1187.77264224392
 30
0.0
 40
2.0
 50
90.0
 51
169.99999999999491
  0
LINE
  5
BADB
  8
0
 62
     0
 10
347.75466844620939
 20
1184.3705982439201
 30
0.0
 11
224.3024844462096
 21
1184.3705982439201
 31
0.0
  0
LINE
  5
BADC
  8
0
 62
     0
 10
352.80752544620952
 20
1165.23196224392
 30
0.0
 11
349.72428444620971
 21
1182.7178952439201
 31
0.0
  0
ARC
  5
BADD
  8
0
 62
     0
 10
347.75466844620939
 20
1182.3705982439201
 30
0.0
 40
2.0
 50
10.00000000000502
 51
90.0
  0
LINE
  5
BADE
  8
0
 62
     0
 10
219.30557044620929
 20
1165.54923024392
 30
0.0
 11
222.33286844620929
 21
1182.7178952439201
 31
0.0
  0
ARC
  5
BADF
  8
0
 62
     0
 10
224.3024844462096
 20
1182.3705982439201
 30
0.0
 40
2.0
 50
90.0
 51
169.99999999999491
  0
LINE
  5
BAE0
  8
0
 62
     0
 10
418.0285764462094
 20
1110.402114243919
 30
0.0
 11
418.0285764462094
 21
1113.3498062439189
 31
0.0
  0
LINE
  5
BAE1
  8
0
 62
     0
 10
418.0285764462094
 20
1120.4015902439201
 30
0.0
 11
418.0285764462094
 21
1123.3630692439201
 31
0.0
  0
LINE
  5
BAE2
  8
0
 62
     0
 10
418.0285764462094
 20
1131.39377024392
 30
0.0
 11
418.0285764462094
 21
1134.3863972439201
 31
0.0
  0
LINE
  5
BAE3
  8
0
 62
     0
 10
418.0285764462094
 20
1142.3765652439199
 30
0.0
 11
418.0285764462094
 21
1145.42227124392
 31
0.0
  0
LINE
  5
BAE4
  8
0
 62
     0
 10
418.0285764462094
 20
1153.3464442439199
 30
0.0
 11
418.0285764462094
 21
1156.4773572439201
 31
0.0
  0
LINE
  5
BAE5
  8
0
 62
     0
 10
418.0285764462094
 20
1162.304920243919
 30
0.0
 11
418.0285764462094
 21
1165.54923024392
 31
0.0
  0
LINE
  5
BAE6
  8
0
 62
     0
 10
368.02857644620951
 20
1179.7450962439191
 30
0.0
 11
351.53125844620979
 21
1179.7450962439191
 31
0.0
  0
LINE
  5
BAE7
  8
0
 62
     0
 10
399.81535344620931
 20
1184.590064243919
 30
0.0
 11
384.02857644620951
 21
1184.590064243919
 31
0.0
  0
LINE
  5
BAE8
  8
0
 62
     0
 10
368.02857644620951
 20
1179.7450962439191
 30
0.0
 11
384.02857644620951
 21
1184.590064243919
 31
0.0
  0
LINE
  5
BAE9
  8
0
 62
     0
 10
384.02857644620951
 20
1184.590064243919
 30
0.0
 11
384.02857644620951
 21
1181.2247492439201
 31
0.0
  0
LINE
  5
BAEA
  8
0
 62
     0
 10
368.02857644620951
 20
1179.7450962439191
 30
0.0
 11
368.02857644620951
 21
1165.54923024392
 31
0.0
  0
LINE
  5
BAEB
  8
0
 62
     0
 10
403.52857644620951
 20
1168.43792424392
 30
0.0
 11
403.52857644620951
 21
1187.235611243919
 31
0.0
  0
ARC
  5
BAEC
  8
0
 62
     0
 10
405.5285764462094
 20
1187.235611243919
 30
0.0
 40
2.0
 50
90.0
 51
180.0
  0
LINE
  5
BAED
  8
0
 62
     0
 10
403.52857644620951
 20
1172.82802224392
 30
0.0
 11
384.02857644620951
 21
1172.82802224392
 31
0.0
  0
LINE
  5
BAEE
  8
0
 62
     0
 10
398.12858244620958
 20
1181.2247492439201
 30
0.0
 11
384.02857644620951
 21
1181.2247492439201
 31
0.0
  0
LINE
  5
BAEF
  8
0
 62
     0
 10
384.02857644620951
 20
1172.82802224392
 30
0.0
 11
384.02857644620951
 21
1165.54923024392
 31
0.0
  0
ARC
  5
BAF0
  8
0
  6
CONTINUOUS
 62
     0
 10
400.72837544620921
 20
1176.85522824392
 30
0.0
 40
2.600398999999999
 50
179.99998200000081
 51
269.99997800000818
  0
ARC
  5
BAF1
  8
0
  6
CONTINUOUS
 62
     0
 10
400.72837544620921
 20
1182.15521624392
 30
0.0
 40
2.600403
 50
90.0
 51
179.99998200000081
  0
LINE
  5
BAF2
  8
0
  6
CONTINUOUS
 62
     0
 10
403.52857644620951
 20
1179.57124724392
 30
0.0
 11
402.02857644620929
 21
1178.7052222439199
 31
0.0
  0
LINE
  5
BAF3
  8
0
  6
CONTINUOUS
 62
     0
 10
403.52857644620951
 20
1180.57124724392
 30
0.0
 11
402.02857644620929
 21
1179.7052222439199
 31
0.0
  0
LINE
  5
BAF4
  8
0
  6
CONTINUOUS
 62
     0
 10
403.52857644620951
 20
1185.6052222439189
 30
0.0
 11
403.52857644620951
 21
1173.40522224392
 31
0.0
  0
LINE
  5
BAF5
  8
0
  6
CONTINUOUS
 62
     0
 10
402.02857644620929
 20
1185.6052222439189
 30
0.0
 11
403.52857644620951
 21
1185.6052222439189
 31
0.0
  0
LINE
  5
BAF6
  8
0
  6
CONTINUOUS
 62
     0
 10
402.02857644620929
 20
1173.40522224392
 30
0.0
 11
403.52857644620951
 21
1173.40522224392
 31
0.0
  0
LINE
  5
BAF7
  8
0
  6
CONTINUOUS
 62
     0
 10
398.12858244620958
 20
1182.15521624392
 30
0.0
 11
398.12858244620958
 21
1176.85522824392
 31
0.0
  0
LINE
  5
BAF8
  8
0
  6
CONTINUOUS
 62
     0
 10
402.02857644620929
 20
1185.6052222439189
 30
0.0
 11
402.02857644620929
 21
1173.40522224392
 31
0.0
  0
LINE
  5
BAF9
  8
0
  6
CONTINUOUS
 62
     0
 10
402.02857644620929
 20
1174.2552222439199
 30
0.0
 11
400.72837544620921
 21
1174.2552222439199
 31
0.0
  0
LINE
  5
BAFA
  8
0
  6
CONTINUOUS
 62
     0
 10
402.02857644620929
 20
1184.7552222439199
 30
0.0
 11
400.72837544620921
 21
1184.7552222439199
 31
0.0
  0
LINE
  5
BAFB
  8
0
 62
     0
 10
423.02857644620929
 20
1189.235611243919
 30
0.0
 11
405.5285764462094
 21
1189.235611243919
 31
0.0
  0
LINE
  5
BAFC
  8
0
 62
     0
 10
423.02857644620929
 20
1167.43792424392
 30
0.0
 11
402.52857644620951
 21
1167.43792424392
 31
0.0
  0
ARC
  5
BAFD
  8
0
 62
     0
 10
402.52857644620951
 20
1168.43792424392
 30
0.0
 40
1.0
 50
270.0
 51
0.0
  0
LINE
  5
BAFE
  8
0
 62
     0
 10
423.02857644620929
 20
1181.1116062439201
 30
0.0
 11
405.5285764462094
 21
1181.1116062439201
 31
0.0
  0
LINE
  5
BAFF
  8
0
 62
     0
 10
215.52857644620951
 20
1189.3719622439201
 30
0.0
 11
219.02857644620951
 21
1189.3719622439201
 31
0.0
  0
ARC
  5
BB00
  8
0
 62
     0
 10
419.70677544620952
 20
1015.3719622439201
 30
0.0
 40
2.0
 50
90.0
 51
169.99999999999491
  0
ARC
  5
BB01
  8
0
 62
     0
 10
355.77121844620979
 20
1010.37830524392
 30
0.0
 40
1.9936590000000001
 50
90.075931000003493
 51
178.1702539999921
  0
LINE
  5
BB02
  8
0
 62
     0
 10
355.76857644620918
 20
1012.3719622439201
 30
0.0
 11
415.46874244620932
 21
1012.3719622439201
 31
0.0
  0
LINE
  5
BB03
  8
0
 62
     0
 10
353.52857644620951
 20
1003.3719622439201
 30
0.0
 11
354.14460544620931
 21
1020.97128224392
 31
0.0
  0
LINE
  5
BB04
  8
0
 62
     0
 10
417.73716044620937
 20
1015.71925824392
 30
0.0
 11
417.4383574462093
 21
1014.02466624392
 31
0.0
  0
ARC
  5
BB05
  8
0
 62
     0
 10
415.46874244620932
 20
1014.3719622439201
 30
0.0
 40
2.0
 50
270.0
 51
349.99999999999488
  0
LINE
  5
BB06
  8
0
 62
     0
 10
219.60592644620951
 20
1020.3719622439201
 30
0.0
 11
226.8228054462096
 21
1007.8719622439201
 31
0.0
  0
LINE
  5
BB07
  8
0
 62
     0
 10
228.5548554462097
 20
1006.8719622439201
 30
0.0
 11
276.47354744620941
 21
1006.8719622439201
 31
0.0
  0
LINE
  5
BB08
  8
0
 62
     0
 10
278.52857644620951
 20
1003.3719622439201
 30
0.0
 11
278.47226444620929
 21
1004.94357724392
 31
0.0
  0
ARC
  5
BB09
  8
0
 62
     0
 10
217.87387544620961
 20
1019.3719622439201
 30
0.0
 40
2.0
 50
30.000000000000551
 51
90.0
  0
ARC
  5
BB0A
  8
0
 62
     0
 10
228.5548554462097
 20
1008.8719622439201
 30
0.0
 40
2.0
 50
210.0000000000004
 51
270.0
  0
ARC
  5
BB0B
  8
0
 62
     0
 10
276.47354744620941
 20
1004.8719622439201
 30
0.0
 40
2.0
 50
2.052064999998533
 51
90.0
  0
LINE
  5
BB0C
  8
0
 62
     0
 10
278.52857644620951
 20
1003.3719622439201
 30
0.0
 11
353.52857644620951
 21
1003.3719622439201
 31
0.0
  0
LINE
  5
BB0D
  8
0
 62
     0
 10
227.5548554462097
 20
1007.13991124392
 30
0.0
 11
227.5548554462097
 21
1020.97128224392
 31
0.0
  0
LINE
  5
BB0E
  8
0
 62
     0
 10
413.9956604462094
 20
1020.97128224392
 30
0.0
 11
223.97222044620949
 21
1020.97128224392
 31
0.0
  0
LINE
  5
BB0F
  8
0
 62
     0
 10
413.7748744462092
 20
1026.37332624392
 30
0.0
 11
224.08143344620959
 21
1026.37332624392
 31
0.0
  0
LINE
  5
BB10
  8
0
 62
     0
 10
418.0285764462094
 20
1040.9797282439199
 30
0.0
 11
384.02857644620951
 21
1040.9797282439199
 31
0.0
  0
LINE
  5
BB11
  8
0
 62
     0
 10
418.0285764462094
 20
1040.9797282439199
 30
0.0
 11
415.74448944620951
 21
1028.02602924392
 31
0.0
  0
ARC
  5
BB12
  8
0
 62
     0
 10
413.7748744462092
 20
1028.37332624392
 30
0.0
 40
2.0
 50
270.0
 51
349.99999999999488
  0
LINE
  5
BB13
  8
0
 62
     0
 10
418.0285764462094
 20
1034.3255462439199
 30
0.0
 11
415.96527544620938
 21
1022.623986243919
 31
0.0
  0
ARC
  5
BB14
  8
0
 62
     0
 10
413.9956604462094
 20
1022.97128224392
 30
0.0
 40
2.0
 50
270.0
 51
349.99999999999488
  0
LINE
  5
BB15
  8
0
 62
     0
 10
222.7713144462094
 20
1021.3719622439201
 30
0.0
 11
215.52857644620951
 21
1021.3719622439201
 31
0.0
  0
LINE
  5
BB16
  8
0
 62
     0
 10
418.0285764462094
 20
1022.21997624392
 30
0.0
 11
416.58352244620971
 21
1014.02466624392
 31
0.0
  0
ARC
  5
BB17
  8
0
 62
     0
 10
414.6139064462094
 20
1014.3719622439201
 30
0.0
 40
2.0
 50
270.0
 51
349.99999999999488
  0
LINE
  5
BB18
  8
0
 62
     0
 10
353.02857644620951
 20
1057.21196224392
 30
0.0
 11
353.02857644620951
 21
1054.511962243919
 31
0.0
  0
LINE
  5
BB19
  8
0
 62
     0
 10
423.02857644620929
 20
1043.1623252439199
 30
0.0
 11
405.5285764462094
 21
1043.1623252439199
 31
0.0
  0
LINE
  5
BB1A
  8
0
 62
     0
 10
423.02857644620929
 20
1055.46996424392
 30
0.0
 11
405.5285764462094
 21
1055.46996424392
 31
0.0
  0
LINE
  5
BB1B
  8
0
 62
     0
 10
423.02857644620929
 20
1065.6492562439189
 30
0.0
 11
418.0285764462094
 21
1065.6492562439189
 31
0.0
  0
LINE
  5
BB1C
  8
0
 62
     0
 10
403.52857644620951
 20
1064.64925624392
 30
0.0
 11
403.52857644620951
 21
1045.1623252439199
 31
0.0
  0
ARC
  5
BB1D
  8
0
 62
     0
 10
402.52857644620951
 20
1064.64925624392
 30
0.0
 40
1.0
 50
0.0
 51
42.252324000004279
  0
ARC
  5
BB1E
  8
0
 62
     0
 10
405.5285764462094
 20
1045.1623252439199
 30
0.0
 40
2.0
 50
180.0
 51
270.0
  0
LINE
  5
BB1F
  8
0
 62
     0
 10
368.02857644620951
 20
1162.304920243919
 30
0.0
 11
368.02857644620951
 21
1156.4773572439201
 31
0.0
  0
LINE
  5
BB20
  8
0
 62
     0
 10
384.02857644620951
 20
1162.304920243919
 30
0.0
 11
384.02857644620951
 21
1156.4773572439201
 31
0.0
  0
LINE
  5
BB21
  8
0
 62
     0
 10
368.02857644620951
 20
1153.3464442439199
 30
0.0
 11
368.02857644620951
 21
1145.42227124392
 31
0.0
  0
LINE
  5
BB22
  8
0
 62
     0
 10
368.02857644620951
 20
1142.3765652439199
 30
0.0
 11
368.02857644620951
 21
1134.3863972439201
 31
0.0
  0
LINE
  5
BB23
  8
0
 62
     0
 10
368.02857644620951
 20
1131.39377024392
 30
0.0
 11
368.02857644620951
 21
1123.3630692439201
 31
0.0
  0
LINE
  5
BB24
  8
0
 62
     0
 10
368.02857644620951
 20
1120.4015902439201
 30
0.0
 11
368.02857644620951
 21
1113.3498062439189
 31
0.0
  0
LINE
  5
BB25
  8
0
 62
     0
 10
368.02857644620951
 20
1110.5319622439199
 30
0.0
 11
368.02857644620951
 21
1100.34181024392
 31
0.0
  0
LINE
  5
BB26
  8
0
 62
     0
 10
384.02857644620951
 20
1110.5319622439199
 30
0.0
 11
384.02857644620951
 21
1100.34181024392
 31
0.0
  0
LINE
  5
BB27
  8
0
 62
     0
 10
384.02857644620951
 20
1120.4015902439201
 30
0.0
 11
384.02857644620951
 21
1113.3498062439189
 31
0.0
  0
LINE
  5
BB28
  8
0
 62
     0
 10
384.02857644620951
 20
1131.39377024392
 30
0.0
 11
384.02857644620951
 21
1123.3630692439201
 31
0.0
  0
LINE
  5
BB29
  8
0
 62
     0
 10
384.02857644620951
 20
1142.3765652439199
 30
0.0
 11
384.02857644620951
 21
1134.3863972439201
 31
0.0
  0
LINE
  5
BB2A
  8
0
 62
     0
 10
384.02857644620951
 20
1153.3464442439199
 30
0.0
 11
384.02857644620951
 21
1145.42227124392
 31
0.0
  0
LINE
  5
BB2B
  8
0
 62
     0
 10
368.02857644620951
 20
1097.3941182439189
 30
0.0
 11
368.02857644620951
 21
1090.34233424392
 31
0.0
  0
LINE
  5
BB2C
  8
0
 62
     0
 10
384.02857644620951
 20
1097.3941182439189
 30
0.0
 11
384.02857644620951
 21
1090.34233424392
 31
0.0
  0
LINE
  5
BB2D
  8
0
 62
     0
 10
384.02857644620951
 20
1087.38085524392
 30
0.0
 11
384.02857644620951
 21
1079.3501542439201
 31
0.0
  0
LINE
  5
BB2E
  8
0
 62
     0
 10
368.02857644620951
 20
1087.38085524392
 30
0.0
 11
368.02857644620951
 21
1079.3501542439201
 31
0.0
  0
LINE
  5
BB2F
  8
0
 62
     0
 10
368.02857644620951
 20
1076.35752724392
 30
0.0
 11
368.02857644620951
 21
1068.36735924392
 31
0.0
  0
LINE
  5
BB30
  8
0
 62
     0
 10
384.02857644620951
 20
1076.35752724392
 30
0.0
 11
384.02857644620951
 21
1068.36735924392
 31
0.0
  0
LINE
  5
BB31
  8
0
 62
     0
 10
398.57797144620952
 20
1049.35116624392
 30
0.0
 11
384.02857544620957
 21
1049.35116624392
 31
0.0
  0
LINE
  5
BB32
  8
0
 62
     0
 10
403.52857644620951
 20
1060.7635162439201
 30
0.0
 11
384.02857544620957
 21
1060.7635162439201
 31
0.0
  0
LINE
  5
BB33
  8
0
 62
     0
 10
368.02857644620951
 20
1065.3216532439201
 30
0.0
 11
368.02857644620951
 21
1045.3216532439201
 31
0.0
  0
LINE
  5
BB34
  8
0
 62
     0
 10
420.02857644620951
 20
1189.235611243919
 30
0.0
 11
420.02857644620951
 21
1193.3719622439201
 31
0.0
  0
LINE
  5
BB35
  8
0
 62
     0
 10
418.0285764462094
 20
1019.17021824392
 30
0.0
 11
417.12127644620961
 21
1014.02466624392
 31
0.0
  0
ARC
  5
BB36
  8
0
 62
     0
 10
415.15166144620969
 20
1014.3719622439201
 30
0.0
 40
2.0
 50
270.0
 51
349.99999999999488
  0
LINE
  5
BB37
  8
0
 62
     0
 10
384.02857644620951
 20
1065.3216532439201
 30
0.0
 11
384.02857644620951
 21
1060.7635162439201
 31
0.0
  0
LINE
  5
BB38
  8
0
 62
     0
 10
420.02857644620951
 20
1065.6492562439189
 30
0.0
 11
420.02857644620951
 21
1167.43792424392
 31
0.0
  0
LINE
  5
BB39
  8
0
 62
     0
 10
219.02857644620951
 20
1045.511962243919
 30
0.0
 11
222.1118184462097
 21
1028.02602924392
 31
0.0
  0
ARC
  5
BB3A
  8
0
 62
     0
 10
224.08143344620959
 20
1028.37332624392
 30
0.0
 40
2.0
 50
190.000000000005
 51
270.0
  0
LINE
  5
BB3B
  8
0
 62
     0
 10
368.73397344620929
 20
1054.06625624392
 30
0.0
 11
384.02857644620951
 21
1049.35116624392
 31
0.0
  0
LINE
  5
BB3C
  8
0
 62
     0
 10
384.02857644620951
 20
1060.7635162439201
 30
0.0
 11
368.99263544620942
 21
1060.2227652439201
 31
0.0
  0
LINE
  5
BB3D
  8
0
 62
     0
 10
384.02857644620951
 20
1049.35116624392
 30
0.0
 11
384.02857644620951
 21
1040.9797282439199
 31
0.0
  0
ARC
  5
BB3E
  8
0
 62
     0
 10
369.02857644620951
 20
1059.2234112439201
 30
0.0
 40
1.0
 50
92.059690999990565
 51
180.0
  0
ARC
  5
BB3F
  8
0
 62
     0
 10
369.02857644620951
 20
1055.0218762439199
 30
0.0
 40
1.0
 50
180.0
 51
252.86627500000029
  0
LINE
  5
BB40
  8
0
 62
     0
 10
384.02857644620951
 20
1181.2247492439201
 30
0.0
 11
368.72811744620952
 21
1176.40488324392
 31
0.0
  0
LINE
  5
BB41
  8
0
 62
     0
 10
369.07713144620931
 20
1172.1012022439199
 30
0.0
 11
384.02857644620951
 21
1172.82802224392
 31
0.0
  0
ARC
  5
BB42
  8
0
 62
     0
 10
369.02857644620951
 20
1175.4510882439199
 30
0.0
 40
1.0
 50
107.4851790000144
 51
180.0
  0
ARC
  5
BB43
  8
0
 62
     0
 10
369.02857644620951
 20
1173.1000232439201
 30
0.0
 40
1.0
 50
180.0
 51
270.0
  0
LINE
  5
BB45
  8
0
 62
     0
 10
418.0285764462094
 20
1165.54923024392
 30
0.0
 11
219.02857644620951
 21
1165.54923024392
 31
0.0
  0
LINE
  5
BB46
  8
0
 62
     0
 10
418.0285764462094
 20
1162.304920243919
 30
0.0
 11
219.02857644620951
 21
1162.304920243919
 31
0.0
  0
LINE
  5
BB47
  8
0
 62
     0
 10
418.0285764462094
 20
1156.4773572439201
 30
0.0
 11
219.02857644620951
 21
1156.4773572439201
 31
0.0
  0
LINE
  5
BB48
  8
0
 62
     0
 10
418.0285764462094
 20
1153.3464442439199
 30
0.0
 11
219.02857644620951
 21
1153.3464442439199
 31
0.0
  0
LINE
  5
BB49
  8
0
 62
     0
 10
418.0285764462094
 20
1145.42227124392
 30
0.0
 11
219.02857644620951
 21
1145.42227124392
 31
0.0
  0
LINE
  5
BB4A
  8
0
 62
     0
 10
418.0285764462094
 20
1142.3765652439199
 30
0.0
 11
219.02857644620951
 21
1142.3765652439199
 31
0.0
  0
LINE
  5
BB4B
  8
0
 62
     0
 10
418.0285764462094
 20
1134.3863972439201
 30
0.0
 11
219.02857644620951
 21
1134.3863972439201
 31
0.0
  0
LINE
  5
BB4C
  8
0
 62
     0
 10
418.0285764462094
 20
1131.39377024392
 30
0.0
 11
219.02857644620951
 21
1131.39377024392
 31
0.0
  0
LINE
  5
BB4D
  8
0
 62
     0
 10
418.0285764462094
 20
1123.3630692439201
 30
0.0
 11
219.02857644620951
 21
1123.3630692439201
 31
0.0
  0
LINE
  5
BB4E
  8
0
 62
     0
 10
418.0285764462094
 20
1120.4015902439201
 30
0.0
 11
219.02857644620951
 21
1120.4015902439201
 31
0.0
  0
LINE
  5
BB4F
  8
0
 62
     0
 10
418.0285764462094
 20
1113.3498062439189
 30
0.0
 11
323.60181944620939
 21
1113.3498062439189
 31
0.0
  0
LINE
  5
BB50
  8
0
 62
     0
 10
418.0285764462094
 20
1110.402114243919
 30
0.0
 11
330.41422344620958
 21
1110.402114243919
 31
0.0
  0
LINE
  5
BB51
  8
0
 62
     0
 10
415.9496554462097
 20
1164.8719622439201
 30
0.0
 11
415.9496554462097
 21
1162.8719622439201
 31
0.0
  0
LINE
  5
BB52
  8
0
 62
     0
 10
221.10749744620981
 20
1162.8719622439201
 30
0.0
 11
415.9496554462097
 21
1162.8719622439201
 31
0.0
  0
LINE
  5
BB53
  8
0
 62
     0
 10
221.10749744620981
 20
1164.8719622439201
 30
0.0
 11
415.9496554462097
 21
1164.8719622439201
 31
0.0
  0
LINE
  5
BB54
  8
0
 62
     0
 10
221.10749744620981
 20
1153.8719622439201
 30
0.0
 11
415.9496554462097
 21
1153.8719622439201
 31
0.0
  0
LINE
  5
BB55
  8
0
 62
     0
 10
221.10749744620981
 20
1155.8719622439201
 30
0.0
 11
415.9496554462097
 21
1155.8719622439201
 31
0.0
  0
LINE
  5
BB56
  8
0
 62
     0
 10
221.10749744620981
 20
1142.8719622439201
 30
0.0
 11
415.9496554462097
 21
1142.8719622439201
 31
0.0
  0
LINE
  5
BB57
  8
0
 62
     0
 10
221.10749744620981
 20
1144.8719622439201
 30
0.0
 11
415.9496554462097
 21
1144.8719622439201
 31
0.0
  0
LINE
  5
BB58
  8
0
 62
     0
 10
221.10749744620981
 20
1131.8719622439201
 30
0.0
 11
415.9496554462097
 21
1131.8719622439201
 31
0.0
  0
LINE
  5
BB59
  8
0
 62
     0
 10
221.10749744620981
 20
1133.8719622439201
 30
0.0
 11
415.9496554462097
 21
1133.8719622439201
 31
0.0
  0
LINE
  5
BB5A
  8
0
 62
     0
 10
221.10749744620981
 20
1120.8719622439201
 30
0.0
 11
415.9496554462097
 21
1120.8719622439201
 31
0.0
  0
LINE
  5
BB5B
  8
0
 62
     0
 10
221.10749744620981
 20
1122.8719622439201
 30
0.0
 11
415.9496554462097
 21
1122.8719622439201
 31
0.0
  0
LINE
  5
BB5C
  8
0
 62
     0
 10
329.80355344620949
 20
1110.8719622439201
 30
0.0
 11
415.9496554462097
 21
1110.8719622439201
 31
0.0
  0
LINE
  5
BB5D
  8
0
 62
     0
 10
324.0753144462094
 20
1112.8719622439201
 30
0.0
 11
415.9496554462097
 21
1112.8719622439201
 31
0.0
  0
LINE
  5
BB5E
  8
0
 62
     0
 10
415.9496554462097
 20
1164.8719622439201
 30
0.0
 11
418.0285764462094
 21
1165.54923024392
 31
0.0
  0
LINE
  5
BB5F
  8
0
 62
     0
 10
415.9496554462097
 20
1162.8719622439201
 30
0.0
 11
418.0285764462094
 21
1162.304920243919
 31
0.0
  0
LINE
  5
BB60
  8
0
 62
     0
 10
415.9496554462097
 20
1155.8719622439201
 30
0.0
 11
418.0285764462094
 21
1156.4773572439201
 31
0.0
  0
LINE
  5
BB61
  8
0
 62
     0
 10
415.9496554462097
 20
1153.8719622439201
 30
0.0
 11
418.0285764462094
 21
1153.3464442439199
 31
0.0
  0
LINE
  5
BB62
  8
0
 62
     0
 10
415.9496554462097
 20
1144.8719622439201
 30
0.0
 11
418.0285764462094
 21
1145.42227124392
 31
0.0
  0
LINE
  5
BB63
  8
0
 62
     0
 10
415.9496554462097
 20
1142.8719622439201
 30
0.0
 11
418.0285764462094
 21
1142.3765652439199
 31
0.0
  0
LINE
  5
BB64
  8
0
 62
     0
 10
415.9496554462097
 20
1133.8719622439201
 30
0.0
 11
418.0285764462094
 21
1134.3863972439201
 31
0.0
  0
LINE
  5
BB65
  8
0
 62
     0
 10
415.9496554462097
 20
1131.8719622439201
 30
0.0
 11
418.0285764462094
 21
1131.39377024392
 31
0.0
  0
LINE
  5
BB66
  8
0
 62
     0
 10
415.9496554462097
 20
1122.8719622439201
 30
0.0
 11
418.0285764462094
 21
1123.3630692439201
 31
0.0
  0
LINE
  5
BB67
  8
0
 62
     0
 10
415.9496554462097
 20
1120.8719622439201
 30
0.0
 11
418.0285764462094
 21
1120.4015902439201
 31
0.0
  0
LINE
  5
BB68
  8
0
 62
     0
 10
415.9496554462097
 20
1112.8719622439201
 30
0.0
 11
418.0285764462094
 21
1113.3498062439189
 31
0.0
  0
LINE
  5
BB69
  8
0
 62
     0
 10
415.9496554462097
 20
1110.8719622439201
 30
0.0
 11
418.0285764462094
 21
1110.402114243919
 31
0.0
  0
LINE
  5
BB6A
  8
0
 62
     0
 10
415.9496554462097
 20
1155.8719622439201
 30
0.0
 11
415.9496554462097
 21
1153.8719622439201
 31
0.0
  0
LINE
  5
BB6B
  8
0
 62
     0
 10
415.9496554462097
 20
1144.8719622439201
 30
0.0
 11
415.9496554462097
 21
1142.8719622439201
 31
0.0
  0
LINE
  5
BB6C
  8
0
 62
     0
 10
415.9496554462097
 20
1133.8719622439201
 30
0.0
 11
415.9496554462097
 21
1131.8719622439201
 31
0.0
  0
LINE
  5
BB6D
  8
0
 62
     0
 10
415.9496554462097
 20
1122.8719622439201
 30
0.0
 11
415.9496554462097
 21
1120.8719622439201
 31
0.0
  0
LINE
  5
BB6E
  8
0
 62
     0
 10
415.9496554462097
 20
1112.8719622439201
 30
0.0
 11
415.9496554462097
 21
1110.8719622439201
 31
0.0
  0
ARC
  5
BB6F
  8
0
 62
     0
 10
329.80355344620949
 20
1107.8719622439201
 30
0.0
 40
3.0
 50
90.0
 51
190.28656100000819
  0
ARC
  5
BB70
  8
0
 62
     0
 10
330.41422344620958
 20
1106.9321142439201
 30
0.0
 40
3.4700000000000002
 50
90.0
 51
186.1896490000004
  0
LINE
  5
BB71
  8
0
 62
     0
 10
236.10749744620981
 20
1112.8719622439201
 30
0.0
 11
236.10749744620981
 21
1110.8719622439201
 31
0.0
  0
LINE
  5
BB72
  8
0
 62
     0
 10
221.10749744620981
 20
1122.8719622439201
 30
0.0
 11
221.10749744620981
 21
1120.8719622439201
 31
0.0
  0
LINE
  5
BB73
  8
0
 62
     0
 10
221.10749744620981
 20
1133.8719622439201
 30
0.0
 11
221.10749744620981
 21
1131.8719622439201
 31
0.0
  0
LINE
  5
BB74
  8
0
 62
     0
 10
221.10749744620981
 20
1144.8719622439201
 30
0.0
 11
221.10749744620981
 21
1142.8719622439201
 31
0.0
  0
LINE
  5
BB75
  8
0
 62
     0
 10
221.10749744620981
 20
1155.8719622439201
 30
0.0
 11
221.10749744620981
 21
1153.8719622439201
 31
0.0
  0
LINE
  5
BB76
  8
0
 62
     0
 10
236.10749744620981
 20
1110.8719622439201
 30
0.0
 11
234.02857644620951
 21
1110.402114243919
 31
0.0
  0
LINE
  5
BB77
  8
0
 62
     0
 10
236.10749744620981
 20
1112.8719622439201
 30
0.0
 11
234.02857644620951
 21
1113.3498062439189
 31
0.0
  0
LINE
  5
BB78
  8
0
 62
     0
 10
221.10749744620981
 20
1120.8719622439201
 30
0.0
 11
219.02857644620951
 21
1120.4015902439201
 31
0.0
  0
LINE
  5
BB79
  8
0
 62
     0
 10
221.10749744620981
 20
1122.8719622439201
 30
0.0
 11
219.02857644620951
 21
1123.3630692439201
 31
0.0
  0
LINE
  5
BB7A
  8
0
 62
     0
 10
221.10749744620981
 20
1131.8719622439201
 30
0.0
 11
219.02857644620951
 21
1131.39377024392
 31
0.0
  0
LINE
  5
BB7B
  8
0
 62
     0
 10
221.10749744620981
 20
1133.8719622439201
 30
0.0
 11
219.02857644620951
 21
1134.3863972439201
 31
0.0
  0
LINE
  5
BB7C
  8
0
 62
     0
 10
221.10749744620981
 20
1142.8719622439201
 30
0.0
 11
219.02857644620951
 21
1142.3765652439199
 31
0.0
  0
LINE
  5
BB7D
  8
0
 62
     0
 10
221.10749744620981
 20
1144.8719622439201
 30
0.0
 11
219.02857644620951
 21
1145.42227124392
 31
0.0
  0
LINE
  5
BB7E
  8
0
 62
     0
 10
221.10749744620981
 20
1153.8719622439201
 30
0.0
 11
219.02857644620951
 21
1153.3464442439199
 31
0.0
  0
LINE
  5
BB7F
  8
0
 62
     0
 10
221.10749744620981
 20
1155.8719622439201
 30
0.0
 11
219.02857644620951
 21
1156.4773572439201
 31
0.0
  0
LINE
  5
BB80
  8
0
 62
     0
 10
221.10749744620981
 20
1162.8719622439201
 30
0.0
 11
219.02857644620951
 21
1162.304920243919
 31
0.0
  0
LINE
  5
BB81
  8
0
 62
     0
 10
221.10749744620981
 20
1164.8719622439201
 30
0.0
 11
219.02857644620951
 21
1165.54923024392
 31
0.0
  0
LINE
  5
BB82
  8
0
 62
     0
 10
221.10749744620981
 20
1164.8719622439201
 30
0.0
 11
221.10749744620981
 21
1162.8719622439201
 31
0.0
  0
LINE
  5
BB83
  8
0
 62
     0
 10
219.02857644620951
 20
1162.304920243919
 30
0.0
 11
219.02857644620951
 21
1165.54923024392
 31
0.0
  0
LINE
  5
BB84
  8
0
 62
     0
 10
219.02857644620951
 20
1153.3464442439199
 30
0.0
 11
219.02857644620951
 21
1156.4773572439201
 31
0.0
  0
LINE
  5
BB85
  8
0
 62
     0
 10
219.02857644620951
 20
1142.3765652439199
 30
0.0
 11
219.02857644620951
 21
1145.42227124392
 31
0.0
  0
LINE
  5
BB86
  8
0
 62
     0
 10
219.02857644620951
 20
1131.39377024392
 30
0.0
 11
219.02857644620951
 21
1134.3863972439201
 31
0.0
  0
LINE
  5
BB87
  8
0
 62
     0
 10
219.02857644620951
 20
1120.4015902439201
 30
0.0
 11
219.02857644620951
 21
1123.3630692439201
 31
0.0
  0
LINE
  5
BB88
  8
0
 62
     0
 10
234.02857644620951
 20
1110.402114243919
 30
0.0
 11
234.02857644620951
 21
1113.3498062439189
 31
0.0
  0
LINE
  5
BB89
  8
0
 62
     0
 10
234.02857644620951
 20
1113.3498062439189
 30
0.0
 11
308.45533344620969
 21
1113.3498062439189
 31
0.0
  0
LINE
  5
BB8A
  8
0
 62
     0
 10
234.02857644620951
 20
1110.402114243919
 30
0.0
 11
301.64292944620951
 21
1110.402114243919
 31
0.0
  0
LINE
  5
BB8B
  8
0
 62
     0
 10
302.25359944620948
 20
1110.8719622439201
 30
0.0
 11
236.10749744620981
 21
1110.8719622439201
 31
0.0
  0
LINE
  5
BB8C
  8
0
 62
     0
 10
307.98183844620951
 20
1112.8719622439201
 30
0.0
 11
236.10749744620981
 21
1112.8719622439201
 31
0.0
  0
ARC
  5
BB8D
  8
0
 62
     0
 10
302.25359944620948
 20
1107.8719622439201
 30
0.0
 40
3.0
 50
349.71343899999181
 51
90.0
  0
ARC
  5
BB8E
  8
0
 62
     0
 10
301.64292944620951
 20
1106.9321142439201
 30
0.0
 40
3.4700000000000002
 50
353.81035099999951
 51
90.0
  0
LINE
  5
BB8F
  8
0
 62
     0
 10
418.0285764462094
 20
1065.3216532439201
 30
0.0
 11
219.02857644620951
 21
1065.3216532439201
 31
0.0
  0
LINE
  5
BB90
  8
0
 62
     0
 10
418.0285764462094
 20
1068.36735924392
 30
0.0
 11
219.02857644620951
 21
1068.36735924392
 31
0.0
  0
LINE
  5
BB91
  8
0
 62
     0
 10
418.0285764462094
 20
1076.35752724392
 30
0.0
 11
219.02857644620951
 21
1076.35752724392
 31
0.0
  0
LINE
  5
BB92
  8
0
 62
     0
 10
418.0285764462094
 20
1079.3501542439201
 30
0.0
 11
219.02857644620951
 21
1079.3501542439201
 31
0.0
  0
LINE
  5
BB93
  8
0
 62
     0
 10
418.0285764462094
 20
1087.38085524392
 30
0.0
 11
219.02857644620951
 21
1087.38085524392
 31
0.0
  0
LINE
  5
BB94
  8
0
 62
     0
 10
418.0285764462094
 20
1090.34233424392
 30
0.0
 11
219.02857644620951
 21
1090.34233424392
 31
0.0
  0
LINE
  5
BB95
  8
0
 62
     0
 10
221.10749744620981
 20
1067.8719622439201
 30
0.0
 11
415.9496554462097
 21
1067.8719622439201
 31
0.0
  0
LINE
  5
BB96
  8
0
 62
     0
 10
221.10749744620981
 20
1065.8719622439201
 30
0.0
 11
415.9496554462097
 21
1065.8719622439201
 31
0.0
  0
LINE
  5
BB97
  8
0
 62
     0
 10
221.10749744620981
 20
1078.8719622439201
 30
0.0
 11
415.9496554462097
 21
1078.8719622439201
 31
0.0
  0
LINE
  5
BB98
  8
0
 62
     0
 10
221.10749744620981
 20
1076.8719622439201
 30
0.0
 11
415.9496554462097
 21
1076.8719622439201
 31
0.0
  0
LINE
  5
BB99
  8
0
 62
     0
 10
221.10749744620981
 20
1089.8719622439201
 30
0.0
 11
415.9496554462097
 21
1089.8719622439201
 31
0.0
  0
LINE
  5
BB9A
  8
0
 62
     0
 10
221.10749744620981
 20
1087.8719622439201
 30
0.0
 11
415.9496554462097
 21
1087.8719622439201
 31
0.0
  0
LINE
  5
BB9B
  8
0
 62
     0
 10
234.02857644620951
 20
1097.3941182439189
 30
0.0
 11
308.45533344620969
 21
1097.3941182439189
 31
0.0
  0
LINE
  5
BB9C
  8
0
 62
     0
 10
234.02857644620951
 20
1100.34181024392
 30
0.0
 11
301.64292944620951
 21
1100.34181024392
 31
0.0
  0
LINE
  5
BB9D
  8
0
 62
     0
 10
302.25359944620948
 20
1099.8719622439201
 30
0.0
 11
236.10749744620981
 21
1099.8719622439201
 31
0.0
  0
LINE
  5
BB9E
  8
0
 62
     0
 10
307.98183844620951
 20
1097.8719622439201
 30
0.0
 11
236.10749744620981
 21
1097.8719622439201
 31
0.0
  0
LINE
  5
BB9F
  8
0
 62
     0
 10
234.02857644620951
 20
1100.34181024392
 30
0.0
 11
234.02857644620951
 21
1097.3941182439189
 31
0.0
  0
LINE
  5
BBA0
  8
0
 62
     0
 10
219.02857644620951
 20
1090.34233424392
 30
0.0
 11
219.02857644620951
 21
1087.38085524392
 31
0.0
  0
LINE
  5
BBA1
  8
0
 62
     0
 10
219.02857644620951
 20
1079.3501542439201
 30
0.0
 11
219.02857644620951
 21
1076.35752724392
 31
0.0
  0
LINE
  5
BBA2
  8
0
 62
     0
 10
219.02857644620951
 20
1068.36735924392
 30
0.0
 11
219.02857644620951
 21
1065.3216532439201
 31
0.0
  0
LINE
  5
BBA3
  8
0
 62
     0
 10
221.10749744620981
 20
1065.8719622439201
 30
0.0
 11
219.02857644620951
 21
1065.3216532439201
 31
0.0
  0
LINE
  5
BBA4
  8
0
 62
     0
 10
221.10749744620981
 20
1067.8719622439201
 30
0.0
 11
219.02857644620951
 21
1068.36735924392
 31
0.0
  0
LINE
  5
BBA5
  8
0
 62
     0
 10
221.10749744620981
 20
1076.8719622439201
 30
0.0
 11
219.02857644620951
 21
1076.35752724392
 31
0.0
  0
LINE
  5
BBA6
  8
0
 62
     0
 10
221.10749744620981
 20
1078.8719622439201
 30
0.0
 11
219.02857644620951
 21
1079.3501542439201
 31
0.0
  0
LINE
  5
BBA7
  8
0
 62
     0
 10
221.10749744620981
 20
1087.8719622439201
 30
0.0
 11
219.02857644620951
 21
1087.38085524392
 31
0.0
  0
LINE
  5
BBA8
  8
0
 62
     0
 10
221.10749744620981
 20
1089.8719622439201
 30
0.0
 11
219.02857644620951
 21
1090.34233424392
 31
0.0
  0
LINE
  5
BBA9
  8
0
 62
     0
 10
236.10749744620981
 20
1097.8719622439201
 30
0.0
 11
234.02857644620951
 21
1097.3941182439189
 31
0.0
  0
LINE
  5
BBAA
  8
0
 62
     0
 10
236.10749744620981
 20
1099.8719622439201
 30
0.0
 11
234.02857644620951
 21
1100.34181024392
 31
0.0
  0
LINE
  5
BBAB
  8
0
 62
     0
 10
221.10749744620981
 20
1065.8719622439201
 30
0.0
 11
221.10749744620981
 21
1067.8719622439201
 31
0.0
  0
LINE
  5
BBAC
  8
0
 62
     0
 10
221.10749744620981
 20
1076.8719622439201
 30
0.0
 11
221.10749744620981
 21
1078.8719622439201
 31
0.0
  0
LINE
  5
BBAD
  8
0
 62
     0
 10
221.10749744620981
 20
1087.8719622439201
 30
0.0
 11
221.10749744620981
 21
1089.8719622439201
 31
0.0
  0
LINE
  5
BBAE
  8
0
 62
     0
 10
236.10749744620981
 20
1097.8719622439201
 30
0.0
 11
236.10749744620981
 21
1099.8719622439201
 31
0.0
  0
ARC
  5
BBAF
  8
0
 62
     0
 10
302.25359944620948
 20
1102.8719622439201
 30
0.0
 40
3.0
 50
270.0
 51
10.28656100000822
  0
ARC
  5
BBB0
  8
0
 62
     0
 10
301.64292944620951
 20
1103.81181024392
 30
0.0
 40
3.4700000000000002
 50
270.0
 51
6.1896490000005366
  0
LINE
  5
BBB1
  8
0
 62
     0
 10
418.0285764462094
 20
1097.3941182439189
 30
0.0
 11
323.60181944620939
 21
1097.3941182439189
 31
0.0
  0
LINE
  5
BBB2
  8
0
 62
     0
 10
418.0285764462094
 20
1100.34181024392
 30
0.0
 11
330.41422344620958
 21
1100.34181024392
 31
0.0
  0
LINE
  5
BBB3
  8
0
 62
     0
 10
329.80355344620949
 20
1099.8719622439201
 30
0.0
 11
415.9496554462097
 21
1099.8719622439201
 31
0.0
  0
LINE
  5
BBB4
  8
0
 62
     0
 10
324.0753144462094
 20
1097.8719622439201
 30
0.0
 11
415.9496554462097
 21
1097.8719622439201
 31
0.0
  0
ARC
  5
BBB5
  8
0
 62
     0
 10
329.80355344620949
 20
1102.8719622439201
 30
0.0
 40
3.0
 50
169.71343899999181
 51
270.0
  0
ARC
  5
BBB6
  8
0
 62
     0
 10
330.41422344620958
 20
1103.81181024392
 30
0.0
 40
3.4700000000000002
 50
173.8103509999994
 51
270.0
  0
LINE
  5
BBB7
  8
0
 62
     0
 10
415.9496554462097
 20
1097.8719622439201
 30
0.0
 11
415.9496554462097
 21
1099.8719622439201
 31
0.0
  0
LINE
  5
BBB8
  8
0
 62
     0
 10
415.9496554462097
 20
1087.8719622439201
 30
0.0
 11
415.9496554462097
 21
1089.8719622439201
 31
0.0
  0
LINE
  5
BBB9
  8
0
 62
     0
 10
415.9496554462097
 20
1076.8719622439201
 30
0.0
 11
415.9496554462097
 21
1078.8719622439201
 31
0.0
  0
LINE
  5
BBBA
  8
0
 62
     0
 10
415.9496554462097
 20
1065.8719622439201
 30
0.0
 11
415.9496554462097
 21
1067.8719622439201
 31
0.0
  0
LINE
  5
BBBB
  8
0
 62
     0
 10
415.9496554462097
 20
1099.8719622439201
 30
0.0
 11
418.0285764462094
 21
1100.34181024392
 31
0.0
  0
LINE
  5
BBBC
  8
0
 62
     0
 10
415.9496554462097
 20
1097.8719622439201
 30
0.0
 11
418.0285764462094
 21
1097.3941182439189
 31
0.0
  0
LINE
  5
BBBD
  8
0
 62
     0
 10
415.9496554462097
 20
1089.8719622439201
 30
0.0
 11
418.0285764462094
 21
1090.34233424392
 31
0.0
  0
LINE
  5
BBBE
  8
0
 62
     0
 10
415.9496554462097
 20
1087.8719622439201
 30
0.0
 11
418.0285764462094
 21
1087.38085524392
 31
0.0
  0
LINE
  5
BBBF
  8
0
 62
     0
 10
415.9496554462097
 20
1078.8719622439201
 30
0.0
 11
418.0285764462094
 21
1079.3501542439201
 31
0.0
  0
LINE
  5
BBC0
  8
0
 62
     0
 10
415.9496554462097
 20
1076.8719622439201
 30
0.0
 11
418.0285764462094
 21
1076.35752724392
 31
0.0
  0
LINE
  5
BBC1
  8
0
 62
     0
 10
415.9496554462097
 20
1067.8719622439201
 30
0.0
 11
418.0285764462094
 21
1068.36735924392
 31
0.0
  0
LINE
  5
BBC2
  8
0
 62
     0
 10
415.9496554462097
 20
1065.8719622439201
 30
0.0
 11
418.0285764462094
 21
1065.3216532439201
 31
0.0
  0
LINE
  5
BBC3
  8
0
 62
     0
 10
418.0285764462094
 20
1068.36735924392
 30
0.0
 11
418.0285764462094
 21
1065.3216532439201
 31
0.0
  0
LINE
  5
BBC4
  8
0
 62
     0
 10
418.0285764462094
 20
1079.3501542439201
 30
0.0
 11
418.0285764462094
 21
1076.35752724392
 31
0.0
  0
LINE
  5
BBC5
  8
0
 62
     0
 10
418.0285764462094
 20
1090.34233424392
 30
0.0
 11
418.0285764462094
 21
1087.38085524392
 31
0.0
  0
LINE
  5
BBC6
  8
0
 62
     0
 10
418.0285764462094
 20
1100.34181024392
 30
0.0
 11
418.0285764462094
 21
1097.3941182439189
 31
0.0
  0
LINE
  5
BBC7
  8
0
 62
     0
 10
350.94965544620931
 20
1056.8719622439201
 30
0.0
 11
353.02857644620951
 21
1057.36735924392
 31
0.0
  0
LINE
  5
BBC8
  8
0
 62
     0
 10
353.02857644620951
 20
1057.36735924392
 30
0.0
 11
219.02857644620951
 21
1057.36735924392
 31
0.0
  0
LINE
  5
BBC9
  8
0
 62
     0
 10
221.10749744620981
 20
1056.8719622439201
 30
0.0
 11
350.94965544620931
 21
1056.8719622439201
 31
0.0
  0
LINE
  5
BBCA
  8
0
 62
     0
 10
350.94965544620931
 20
1054.8719622439201
 30
0.0
 11
350.94965544620931
 21
1056.8719622439201
 31
0.0
  0
LINE
  5
BBCB
  8
0
 62
     0
 10
353.02857644620951
 20
1054.3216532439201
 30
0.0
 11
219.02857644620951
 21
1054.3216532439201
 31
0.0
  0
LINE
  5
BBCC
  8
0
 62
     0
 10
221.10749744620981
 20
1054.8719622439201
 30
0.0
 11
350.94965544620931
 21
1054.8719622439201
 31
0.0
  0
LINE
  5
BBCD
  8
0
 62
     0
 10
350.94965544620931
 20
1054.8719622439201
 30
0.0
 11
353.02857644620951
 21
1054.3216532439201
 31
0.0
  0
LINE
  5
BBCE
  8
0
 62
     0
 10
353.02857644620951
 20
1048.36735924392
 30
0.0
 11
219.02857644620951
 21
1048.36735924392
 31
0.0
  0
LINE
  5
BBCF
  8
0
 62
     0
 10
221.10749744620981
 20
1047.8719622439201
 30
0.0
 11
350.94965544620931
 21
1047.8719622439201
 31
0.0
  0
LINE
  5
BBD0
  8
0
 62
     0
 10
353.02857644620951
 20
1045.3216532439201
 30
0.0
 11
219.06213344620929
 21
1045.3216532439201
 31
0.0
  0
LINE
  5
BBD1
  8
0
 62
     0
 10
221.10749744620981
 20
1045.8719622439201
 30
0.0
 11
350.94965544620931
 21
1045.8719622439201
 31
0.0
  0
LINE
  5
BBD2
  8
0
 62
     0
 10
350.94965544620931
 20
1045.8719622439201
 30
0.0
 11
353.02857644620951
 21
1045.3216532439201
 31
0.0
  0
LINE
  5
BBD3
  8
0
 62
     0
 10
353.02857644620951
 20
1048.36735924392
 30
0.0
 11
353.02857644620951
 21
1045.3216532439201
 31
0.0
  0
LINE
  5
BBD4
  8
0
 62
     0
 10
350.94965544620931
 20
1045.8719622439201
 30
0.0
 11
350.94965544620931
 21
1047.8719622439201
 31
0.0
  0
LINE
  5
BBD5
  8
0
 62
     0
 10
350.94965544620931
 20
1047.8719622439201
 30
0.0
 11
353.02857644620951
 21
1048.36735924392
 31
0.0
  0
LINE
  5
BBD6
  8
0
 62
     0
 10
353.02857644620951
 20
1045.3216532439201
 30
0.0
 11
368.02857644620951
 21
1045.3216532439201
 31
0.0
  0
LINE
  5
BBD7
  8
0
 62
     0
 10
368.02857644620951
 20
1045.3216532439201
 30
0.0
 11
384.02857644620951
 21
1040.9797282439199
 31
0.0
  0
LINE
  5
BBD8
  8
0
 62
     0
 10
219.02857644620951
 20
1057.36735924392
 30
0.0
 11
219.02857644620951
 21
1054.3216532439201
 31
0.0
  0
LINE
  5
BBD9
  8
0
 62
     0
 10
219.02857644620951
 20
1048.36735924392
 30
0.0
 11
219.02857644620951
 21
1045.3216532439201
 31
0.0
  0
LINE
  5
BBDA
  8
0
 62
     0
 10
221.10749744620981
 20
1054.8719622439201
 30
0.0
 11
221.10749744620981
 21
1056.8719622439201
 31
0.0
  0
LINE
  5
BBDB
  8
0
 62
     0
 10
221.10749744620981
 20
1056.8719622439201
 30
0.0
 11
219.02857644620951
 21
1057.36735924392
 31
0.0
  0
LINE
  5
BBDC
  8
0
 62
     0
 10
221.10749744620981
 20
1054.8719622439201
 30
0.0
 11
219.02857644620951
 21
1054.3216532439201
 31
0.0
  0
LINE
  5
BBDD
  8
0
 62
     0
 10
221.10749744620981
 20
1047.8719622439201
 30
0.0
 11
219.02857644620951
 21
1048.36735924392
 31
0.0
  0
LINE
  5
BBDE
  8
0
 62
     0
 10
221.10749744620981
 20
1045.8719622439201
 30
0.0
 11
221.10749744620981
 21
1047.8719622439201
 31
0.0
  0
LINE
  5
BBDF
  8
0
 62
     0
 10
221.10749744620981
 20
1045.8719622439201
 30
0.0
 11
219.02857644620951
 21
1045.3216532439201
 31
0.0
  0
LINE
  5
BBE0
  8
0
 62
     0
 10
215.52857644620951
 20
1113.0157332439201
 30
0.0
 11
222.02857644620951
 21
1113.0157332439201
 31
0.0
  0
LINE
  5
BBE1
  8
0
 62
     0
 10
215.52857644620951
 20
1113.3498112439199
 30
0.0
 11
222.70857644620929
 21
1113.3498112439199
 31
0.0
  0
LINE
  5
BBE2
  8
0
 62
     0
 10
224.02857644620951
 20
1111.0157332439201
 30
0.0
 11
224.02857644620951
 21
1105.37196624392
 31
0.0
  0
LINE
  5
BBE3
  8
0
 62
     0
 10
225.70857644620941
 20
1116.3498112439199
 30
0.0
 11
225.70857644620941
 21
1105.37196624392
 31
0.0
  0
ARC
  5
BBE4
  8
0
 62
     0
 10
222.70857644620929
 20
1116.3498112439199
 30
0.0
 40
3.0
 50
270.0
 51
0.0
  0
LINE
  5
BBE5
  8
0
 62
     0
 10
215.52857644620951
 20
1097.7281982439199
 30
0.0
 11
222.02857644620951
 21
1097.7281982439199
 31
0.0
  0
LINE
  5
BBE6
  8
0
 62
     0
 10
215.52857644620951
 20
1097.39412024392
 30
0.0
 11
222.70857644620929
 21
1097.39412024392
 31
0.0
  0
LINE
  5
BBE7
  8
0
 62
     0
 10
224.02857644620951
 20
1099.7281982439199
 30
0.0
 11
224.02857644620951
 21
1105.37196624392
 31
0.0
  0
LINE
  5
BBE8
  8
0
 62
     0
 10
225.70857644620941
 20
1094.39412024392
 30
0.0
 11
225.70857644620941
 21
1105.37196624392
 31
0.0
  0
ARC
  5
BBE9
  8
0
 62
     0
 10
222.70857644620929
 20
1094.39412024392
 30
0.0
 40
3.0
 50
359.99999799999722
 51
89.999998000010223
  0
ARC
  5
BBEA
  8
0
  6
CONTINUOUS
 62
     0
 10
400.72837544620921
 20
1050.81330124392
 30
0.0
 40
2.600398999999999
 50
179.99998200000081
 51
269.99997799999852
  0
ARC
  5
BBEB
  8
0
  6
CONTINUOUS
 62
     0
 10
400.72837544620921
 20
1056.11328924392
 30
0.0
 40
2.600403
 50
90.0
 51
179.99998200000081
  0
LINE
  5
BBEC
  8
0
  6
CONTINUOUS
 62
     0
 10
403.52857644620951
 20
1053.52932024392
 30
0.0
 11
402.02857644620929
 21
1052.6632952439199
 31
0.0
  0
LINE
  5
BBED
  8
0
  6
CONTINUOUS
 62
     0
 10
403.52857644620951
 20
1054.52932024392
 30
0.0
 11
402.02857644620929
 21
1053.6632952439199
 31
0.0
  0
LINE
  5
BBEE
  8
0
  6
CONTINUOUS
 62
     0
 10
403.52857644620951
 20
1059.56329524392
 30
0.0
 11
403.52857644620951
 21
1047.36329524392
 31
0.0
  0
LINE
  5
BBEF
  8
0
  6
CONTINUOUS
 62
     0
 10
402.02857644620929
 20
1059.56329524392
 30
0.0
 11
403.52857644620951
 21
1059.56329524392
 31
0.0
  0
LINE
  5
BBF0
  8
0
  6
CONTINUOUS
 62
     0
 10
402.02857644620929
 20
1047.36329524392
 30
0.0
 11
403.52857644620951
 21
1047.36329524392
 31
0.0
  0
LINE
  5
BBF1
  8
0
  6
CONTINUOUS
 62
     0
 10
398.12858244620952
 20
1056.11328924392
 30
0.0
 11
398.12858244620952
 21
1050.81330124392
 31
0.0
  0
LINE
  5
BBF2
  8
0
  6
CONTINUOUS
 62
     0
 10
402.02857644620929
 20
1059.56329524392
 30
0.0
 11
402.02857644620929
 21
1047.36329524392
 31
0.0
  0
LINE
  5
BBF3
  8
0
  6
CONTINUOUS
 62
     0
 10
402.02857644620929
 20
1048.2132952439199
 30
0.0
 11
400.72837544620921
 21
1048.2132952439199
 31
0.0
  0
LINE
  5
BBF4
  8
0
  6
CONTINUOUS
 62
     0
 10
402.02857644620929
 20
1058.7132952439199
 30
0.0
 11
400.72837544620921
 21
1058.7132952439199
 31
0.0
  0
LINE
  5
BD5E
  8
0
  6
CONTINUOUS
 62
     0
 10
423.02857644620929
 20
1181.1116062439201
 30
0.0
 11
456.52857644621042
 21
1181.1116062439201
 31
0.0
  0
LINE
  5
BD5F
  8
0
  6
CONTINUOUS
 62
     0
 10
423.02857644620929
 20
1167.43792424392
 30
0.0
 11
456.52857644621042
 21
1167.43792424392
 31
0.0
  0
LINE
  5
BD60
  8
0
  6
CONTINUOUS
 62
     0
 10
423.02857644620929
 20
1043.1623252439199
 30
0.0
 11
456.52857644621042
 21
1043.1623252439199
 31
0.0
  0
LINE
  5
BD61
  8
0
  6
CONTINUOUS
 62
     0
 10
423.02857644620929
 20
1055.46996424392
 30
0.0
 11
456.52857644621042
 21
1055.46996424392
 31
0.0
  0
LINE
  5
BD62
  8
0
  6
CONTINUOUS
 62
     0
 10
423.02857644620929
 20
1065.6492562439189
 30
0.0
 11
456.52857644621042
 21
1065.6492562439189
 31
0.0
  0
LINE
  5
BE45
  8
0
 62
     0
 10
423.02848644620912
 20
618.66413031545164
 30
0.0
 11
456.52848644620917
 21
618.66413031545164
 31
0.0
  0
LINE
  5
BE46
  8
0
 62
     0
 10
423.02848644620912
 20
632.33784131545156
 30
0.0
 11
456.52848644620917
 21
632.33784131545156
 31
0.0
  0
LINE
  5
BE47
  8
0
 62
     0
 10
423.02848644620912
 20
640.46184631545157
 30
0.0
 11
439.87458413322167
 21
640.46184631545157
 31
0.0
  0
LINE
  5
BE48
  8
0
 62
     0
 10
462.52851137621042
 20
494.40891831545167
 30
0.0
 11
423.02848644620912
 21
494.40891831545167
 31
0.0
  0
LINE
  5
BE49
  8
0
 62
     0
 10
462.52852680760191
 20
506.69619931545162
 30
0.0
 11
423.02848644620912
 21
506.69619931545162
 31
0.0
  0
LINE
  5
BE4A
  8
0
 62
     0
 10
463.87702200876078
 20
516.87549131545177
 30
0.0
 11
423.02848644620912
 21
516.87549131545177
 31
0.0
  0
TEXT
  5
C466
  8
0
  6
CONTINUOUS
 62
     0
 10
1021.038313670836
 20
1093.840835104113
 30
0.0
 40
15.0
  1
VX22-240EM~VX22-300EM
  0
ENDSEC
  0
EOF
