  0
SECTION
  2
HEADER
  9
$ACADVER
  1
AC1009
  9
$INSBASE
 10
0.0
 20
0.0
 30
0.0
  9
$EXTMIN
 10
32.297977582422838
 20
350.10766656266111
 30
-0.000000000000013
  9
$EXTMAX
 10
1157.083591249509
 20
1152.5696267450251
 30
0.0000000000000023
  9
$LIMMIN
 10
0.0000005999945643
 20
-0.0000005963913736
  9
$LIMMAX
 10
1422.5000005999941
 20
924.99999940360874
  9
$ORTHOMODE
 70
     0
  9
$REGENMODE
 70
     1
  9
$FILLMODE
 70
     1
  9
$QTEXTMODE
 70
     0
  9
$MIRRTEXT
 70
     0
  9
$DRAGMODE
 70
     2
  9
$LTSCALE
 40
1.0
  9
$OSMODE
 70
   551
  9
$ATTMODE
 70
     1
  9
$TEXTSIZE
 40
12.5
  9
$TRACEWID
 40
1.0
  9
$TEXTSTYLE
  7
USER1
  9
$CLAYER
  8
0
  9
$CELTYPE
  6
BYLAYER
  9
$CECOLOR
 62
   256
  9
$DIMSCALE
 40
1.0
  9
$DIMASZ
 40
2.0
  9
$DIMEXO
 40
1.0
  9
$DIMDLI
 40
8.0
  9
$DIMRND
 40
0.0
  9
$DIMDLE
 40
0.0
  9
$DIMEXE
 40
1.0
  9
$DIMTP
 40
-0.025
  9
$DIMTM
 40
0.043
  9
$DIMTXT
 40
2.5
  9
$DIMCEN
 40
0.0
  9
$DIMTSZ
 40
0.0
  9
$DIMTOL
 70
     0
  9
$DIMLIM
 70
     0
  9
$DIMTIH
 70
     0
  9
$DIMTOH
 70
     0
  9
$DIMSE1
 70
     0
  9
$DIMSE2
 70
     0
  9
$DIMTAD
 70
     3
  9
$DIMZIN
 70
     8
  9
$DIMBLK
  1

  9
$DIMASO
 70
     1
  9
$DIMSHO
 70
     1
  9
$DIMPOST
  1

  9
$DIMAPOST
  1
"
  9
$DIMALT
 70
     0
  9
$DIMALTD
 70
     2
  9
$DIMALTF
 40
0.0393701
  9
$DIMLFAC
 40
1.0
  9
$DIMTOFL
 70
     1
  9
$DIMTVP
 40
0.0
  9
$DIMTIX
 70
     0
  9
$DIMSOXD
 70
     0
  9
$DIMSAH
 70
     0
  9
$DIMBLK1
  1

  9
$DIMBLK2
  1

  9
$DIMSTYLE
  2
AM_JIS
  9
$DIMCLRD
 70
     2
  9
$DIMCLRE
 70
     2
  9
$DIMCLRT
 70
     4
  9
$DIMTFAC
 40
0.71
  9
$DIMGAP
 40
1.5
  9
$LUNITS
 70
     2
  9
$LUPREC
 70
     2
  9
$SKETCHINC
 40
1.0
  9
$FILLETRAD
 40
0.0
  9
$AUNITS
 70
     0
  9
$AUPREC
 70
     0
  9
$MENU
  1
.
  9
$ELEVATION
 40
0.0
  9
$PELEVATION
 40
0.0
  9
$THICKNESS
 40
0.0
  9
$LIMCHECK
 70
     0
  9
$BLIPMODE
 70
     0
  9
$CHAMFERA
 40
2.5
  9
$CHAMFERB
 40
2.5
  9
$SKPOLY
 70
     0
  9
$TDCREATE
 40
2456829.3841110538
  9
$TDUPDATE
 40
2458540.6907266672
  9
$TDINDWG
 40
0.5826884838000001
  9
$TDUSRTIMER
 40
0.5826880787
  9
$USRTIMER
 70
     1
  9
$ANGBASE
 50
0.0
  9
$ANGDIR
 70
     0
  9
$PDMODE
 70
     0
  9
$PDSIZE
 40
0.0
  9
$PLINEWID
 40
0.0
  9
$COORDS
 70
     1
  9
$SPLFRAME
 70
     0
  9
$SPLINETYPE
 70
     6
  9
$SPLINESEGS
 70
     8
  9
$ATTDIA
 70
     1
  9
$ATTREQ
 70
     1
  9
$HANDLING
 70
     1
  9
$HANDSEED
  5
BE04
  9
$SURFTAB1
 70
     6
  9
$SURFTAB2
 70
     6
  9
$SURFTYPE
 70
     6
  9
$SURFU
 70
     6
  9
$SURFV
 70
     6
  9
$UCSNAME
  2

  9
$UCSORG
 10
0.0
 20
0.0
 30
0.0
  9
$UCSXDIR
 10
1.0
 20
0.0
 30
0.0
  9
$UCSYDIR
 10
0.0
 20
1.0
 30
0.0
  9
$PUCSNAME
  2

  9
$PUCSORG
 10
0.0
 20
0.0
 30
0.0
  9
$PUCSXDIR
 10
1.0
 20
0.0
 30
0.0
  9
$PUCSYDIR
 10
0.0
 20
1.0
 30
0.0
  9
$USERI1
 70
     0
  9
$USERI2
 70
     0
  9
$USERI3
 70
     0
  9
$USERI4
 70
     0
  9
$USERI5
 70
     0
  9
$USERR1
 40
0.0
  9
$USERR2
 40
0.0
  9
$USERR3
 40
0.0
  9
$USERR4
 40
0.0
  9
$USERR5
 40
0.0
  9
$WORLDVIEW
 70
     1
  9
$SHADEDGE
 70
     3
  9
$SHADEDIF
 70
    70
  9
$TILEMODE
 70
     1
  9
$MAXACTVP
 70
    64
  9
$PLIMCHECK
 70
     0
  9
$PEXTMIN
 10
1.0000000000000000E+020
 20
1.0000000000000000E+020
 30
1.0000000000000000E+020
  9
$PEXTMAX
 10
-1.0000000000000000E+020
 20
-1.0000000000000000E+020
 30
-1.0000000000000000E+020
  9
$PLIMMIN
 10
0.0
 20
0.0
  9
$PLIMMAX
 10
420.0
 20
297.0
  9
$UNITMODE
 70
     0
  9
$VISRETAIN
 70
     1
  9
$PLINEGEN
 70
     0
  9
$PSLTSCALE
 70
     1
  0
ENDSEC
  0
SECTION
  2
TABLES
  0
TABLE
  2
VPORT
 70
     1
  0
VPORT
  2
*ACTIVE
 70
     0
 10
0.0
 20
0.0
 11
1.0
 21
1.0
 12
594.69078441596594
 22
751.33864665384294
 13
0.0
 23
0.0
 14
12.5
 24
12.5
 15
50.0
 25
50.0
 16
0.0
 26
0.0
 36
1.0
 17
0.0
 27
0.0
 37
0.0
 40
807.97085235752866
 41
1.7571592210767459
 42
50.0
 43
0.0
 44
0.0
 50
0.0
 51
0.0
 71
     0
 72
  1000
 73
     1
 74
     3
 75
     0
 76
     0
 77
     0
 78
     0
  0
ENDTAB
  0
TABLE
  2
LTYPE
 70
    24
  0
LTYPE
  2
CONTINUOUS
 70
     0
  3
Solid line
 72
    65
 73
     0
 40
0.0
  0
LTYPE
  2
CENTER
 70
     0
  3
Center ____ _ ____ _ ____ _ ____ _ ____ _ ____
 72
    65
 73
     4
 40
50.799999999999997
 49
31.75
 49
-6.349999999999997
 49
6.349999999999997
 49
-6.349999999999997
  0
LTYPE
  2
AM_ISO02W050
 70
     0
  3
__ __ __ __ __ __ __ __ __ __ __ __ __ __ __
 72
    65
 73
     2
 40
7.5
 49
6.0
 49
-1.5
  0
LTYPE
  2
AM_ISO08W050
 70
     0
  3
____ . ____ . ____ . ____ . ____ . ____ . ____
 72
    65
 73
     4
 40
18.0
 49
12.0
 49
-1.5
 49
3.0
 49
-1.5
  0
LTYPE
  2
AM_ISO09W050
 70
     0
  3
_____ . . _____ . . _____ . . ____ .. ____
 72
    65
 73
     6
 40
22.5
 49
12.0
 49
-1.5
 49
3.0
 49
-1.5
 49
3.0
 49
-1.5
  0
LTYPE
  2
AMCONSTR
 70
     0
  3
_______________________
 72
    65
 73
     2
 40
9999.0
 49
9999.0
 49
0.0
  0
LTYPE
  2
AM_ISO08W050X2
 70
     0
  3
__ . __ . __ . __ . __ . __
 72
    65
 73
     4
 40
9.0
 49
6.0
 49
-0.75
 49
1.5
 49
-0.75
  0
LTYPE
  2
AM_ISO02W050X2
 70
     0
  3
 _ _ _ _ _ _ _ _ _ _ _ _
 72
    65
 73
     2
 40
3.75
 49
3.0
 49
-0.75
  0
LTYPE
  2
AMZIGZAG
 70
     0
  3
/\/-/\/-/\/-/\/-/\/-/\/
 72
    65
 73
     2
 40
11.0001
 49
0.0001
 49
-11.0
  0
LTYPE
  2
ACANSTGBM
 70
     0
  3
__ . . __ . .
 72
    65
 73
     6
 40
9.0
 49
4.0
 49
-1.0
 49
1.0
 49
-1.0
 49
1.0
 49
-1.0
  0
LTYPE
  2
ACANSTGLM
 70
     0
  3
_ _ _ _ _
 72
    65
 73
     2
 40
3.0
 49
2.0
 49
-1.0
  0
LTYPE
  2
ACISOWELD
 70
     0
  3
_ _ _ _ _
 72
    65
 73
     2
 40
2.0
 49
2.0
 49
-1.0
  0
LTYPE
  2
ACISOTGB
 70
     0
  3
__ . . __ . .
 72
    65
 73
     6
 40
9.0
 49
4.0
 49
-1.0
 49
1.0
 49
-1.0
 49
1.0
 49
-1.0
  0
LTYPE
  2
ACISOTGL
 70
     0
  3
_ _ _ _ _
 72
    65
 73
     2
 40
3.0
 49
2.0
 49
-1.0
  0
LTYPE
  2
ACJISTGB
 70
     0
  3
__ . . __ . .
 72
    65
 73
     6
 40
9.0
 49
4.0
 49
-1.0
 49
1.0
 49
-1.0
 49
1.0
 49
-1.0
  0
LTYPE
  2
ACJISTGL
 70
     0
  3
_ _ _ _ _
 72
    65
 73
     2
 40
3.0
 49
2.0
 49
-1.0
  0
LTYPE
  2
HIDDEN
 70
     0
  3
Hidden __ __ __ __ __ __ __ __ __ __ __ __ __ _
 72
    65
 73
     2
 40
9.5249999999999968
 49
6.349999999999997
 49
-3.174999999999998
  0
LTYPE
  2
PHANTOM2
 70
     0
  3
Phantom (.5x) ___ _ _ ___ _ _ ___ _ _ ___ _ _
 72
    65
 73
     6
 40
31.75
 49
15.875
 49
-3.174999999999998
 49
3.174999999999998
 49
-3.174999999999998
 49
3.174999999999998
 49
-3.174999999999998
  0
LTYPE
  2
CENTER2
 70
     0
  3
Center (.5x) ___ _ ___ _ ___ _ ___ _ ___ _ ___
 72
    65
 73
     4
 40
1.125
 49
0.75
 49
-0.125
 49
0.125
 49
-0.125
  0
LTYPE
  2
HIDDEN2
 70
     0
  3
Hidden (.5x) _ _ _ _ _ _ _ _ _ _ _ _ _ _ _ _ _
 72
    65
 73
     2
 40
0.1875
 49
0.125
 49
-0.0625
  0
LTYPE
  2
AMZIGZAG2
 70
     0
  3
/\/-/\/-/\/-/\/-/\/-/\/
 72
    65
 73
     2
 40
0.4401
 49
0.0001
 49
-0.4400000000000001
  0
LTYPE
  2
ACANSTGB
 70
     0
  3
__ . . __ . .
 72
    65
 73
     6
 40
0.35433070866
 49
0.15748031496
 49
-0.03937007874
 49
0.03937007874
 49
-0.03937007874
 49
0.03937007874
 49
-0.03937007874
  0
LTYPE
  2
ACANSTGL
 70
     0
  3
_ _ _ _ _
 72
    65
 73
     2
 40
0.11811023622
 49
0.07874015748
 49
-0.03937007874
  0
ENDTAB
  0
TABLE
  2
LAYER
 70
     4
  0
LAYER
  2
0
 70
     0
 62
     7
  6
CONTINUOUS
  0
LAYER
  2
DEFPOINTS
 70
     0
 62
     7
  6
CONTINUOUS
  0
LAYER
  2
AM_5
 70
     0
 62
     2
  6
CONTINUOUS
  0
LAYER
  2
AM_CL
 70
     0
 62
     1
  6
AMCONSTR
  0
ENDTAB
  0
TABLE
  2
STYLE
 70
    11
  0
STYLE
  2
STANDARD
 70
     0
 40
0.0
 41
0.7400000000000003
 50
0.0
 71
     0
 42
2.5
  3
txt.shx
  4
bigfont.shx
  0
STYLE
  2
ANNOTATIVE
 70
     0
 40
0.0
 41
1.0
 50
0.0
 71
     0
 42
0.2
  3
txt
  4

  0
STYLE
  2
USER1
 70
     0
 40
0.0
 41
1.0
 50
0.0
 71
     0
 42
12.5
  3
TXT.SHX
  4

  0
STYLE
  2

 70
     1
 40
0.0
 41
1.0
 50
0.0
 71
     0
 42
2.5
  3
ltypeshp.shx
  4

  0
STYLE
  2
ACANSTS
 70
     0
 40
1.0
 41
1.0
 50
0.0
 71
     0
 42
2.5
  3
romans.shx
  4
bigfont.shx
  0
STYLE
  2
ACANSGDT
 70
     0
 40
0.0
 41
1.0
 50
0.0
 71
     0
 42
2.5
  3
amgdt.shx
  4

  0
STYLE
  2
ACISOTS
 70
     0
 40
1.0
 41
1.0
 50
0.0
 71
     0
 42
2.5
  3
isocp.shx
  4
extfont.shx
  0
STYLE
  2
ACISOGDT
 70
     0
 40
0.0
 41
1.0
 50
0.0
 71
     0
 42
2.5
  3
amgdt.shx
  4

  0
STYLE
  2
ACJISGDT
 70
     0
 40
0.0
 41
1.0
 50
0.0
 71
     0
 42
2.5
  3
amgdt.shx
  4

  0
STYLE
  2
ACJISTS
 70
     0
 40
1.0
 41
1.0
 50
0.0
 71
     0
 42
2.5
  3
isocp.shx
  4
extfont.shx
  0
STYLE
  2

 70
     1
 40
0.0
 41
1.0
 50
0.0
 71
     0
 42
12.5
  3
genltshp.shx
  4

  0
ENDTAB
  0
TABLE
  2
VIEW
 70
     6
  0
VIEW
  2
AM_VIEW1
 70
     0
 40
462.5
 10
488.83452017294832
 20
693.74999940360874
 41
977.66903914590728
 11
0.0
 21
0.0
 31
1.0
 12
0.0
 22
0.0
 32
0.0
 42
50.0
 43
0.0
 44
0.0
 50
0.0
 71
     0
  0
VIEW
  2
AM_VIEW2
 70
     0
 40
462.5
 10
933.66548102704076
 20
693.74999940360874
 41
977.66903914590728
 11
0.0
 21
0.0
 31
1.0
 12
0.0
 22
0.0
 32
0.0
 42
50.0
 43
0.0
 44
0.0
 50
0.0
 71
     0
  0
VIEW
  2
AM_VIEW3
 70
     0
 40
462.5
 10
488.83452017294832
 20
231.24999940360871
 41
977.66903914590728
 11
0.0
 21
0.0
 31
1.0
 12
0.0
 22
0.0
 32
0.0
 42
50.0
 43
0.0
 44
0.0
 50
0.0
 71
     0
  0
VIEW
  2
AM_VIEW4
 70
     0
 40
462.5
 10
933.66548102704076
 20
231.24999940360871
 41
977.66903914590728
 11
0.0
 21
0.0
 31
1.0
 12
0.0
 22
0.0
 32
0.0
 42
50.0
 43
0.0
 44
0.0
 50
0.0
 71
     0
  0
VIEW
  2
AM_VIEW5
 70
     0
 40
462.5
 10
711.25000059999468
 20
462.49999940360868
 41
977.66903914590728
 11
0.0
 21
0.0
 31
1.0
 12
0.0
 22
0.0
 32
0.0
 42
50.0
 43
0.0
 44
0.0
 50
0.0
 71
     0
  0
VIEW
  2
AM_VIEW6
 70
     0
 40
924.99075000000005
 10
711.25000059999468
 20
462.49999940360868
 41
1955.318524911032
 11
0.0
 21
0.0
 31
1.0
 12
0.0
 22
0.0
 32
0.0
 42
50.0
 43
0.0
 44
0.0
 50
0.0
 71
     0
  0
ENDTAB
  0
TABLE
  2
UCS
 70
     0
  0
ENDTAB
  0
TABLE
  2
APPID
 70
   157
  0
APPID
  2
ACAD
 70
     0
  0
APPID
  2
ACADANNOTATIVE
 70
     0
  0
APPID
  2
ACAD_MLEADERVER
 70
     0
  0
APPID
  2
MCAD_NO_VIS
 70
     0
  0
APPID
  2
ACAD_TEMP_GRAPHIC
 70
     0
  0
APPID
  2
AD_DRAW
 70
     0
  0
APPID
  2
ACATTRIBSERVICES
 70
     0
  0
APPID
  2
DESIGNERASSEMBLIES
 70
     0
  0
APPID
  2
ACADM_DIM_EDIT
 70
     0
  0
APPID
  2
AMDT_DM_ADJ
 70
     0
  0
APPID
  2
GENIUS_GENDIMSH_14
 70
     0
  0
APPID
  2
GEVID1057795304
 70
     0
  0
APPID
  2
GEVDC
 70
     0
  0
APPID
  2
GEVCON
 70
     0
  0
APPID
  2
GENIUS_GENBH_13
 70
     0
  0
APPID
  2
GENIUS_GENOENT_13
 70
     0
  0
APPID
  2
GENIUS_GENOBJ-NBEHI-BHF_13
 70
     0
  0
APPID
  2
GENIUS_GENOLIS_13
 70
     0
  0
APPID
  2
GENIUS_GENODEF_13
 70
     0
  0
APPID
  2
GENIUS_GENOREF_13
 70
     0
  0
APPID
  2
GENIUS_GENOBJ-NBEHI-BHB_13
 70
     0
  0
APPID
  2
GENIUS_GENOBJ-F-SCPASSM_13
 70
     0
  0
APPID
  2
GENIUS_GENDTOL_13
 70
     0
  0
APPID
  2
GENIUS_GENTRA_14
 70
     0
  0
APPID
  2
ASURF_PCURVE_APPNAME
 70
     0
  0
APPID
  2
GENIUS_GENCFG_13
 70
     0
  0
APPID
  2
GENIUS_GE3CFG0_13
 70
     0
  0
APPID
  2
GENIUS_GENCFG0_13
 70
     0
  0
APPID
  2
GENIUS_GENCFG1_13
 70
     0
  0
APPID
  2
GENIUS_GENCFG2_13
 70
     0
  0
APPID
  2
GENIUS_GENCFG3_13
 70
     0
  0
APPID
  2
GENIUS_GENCFG4_13
 70
     0
  0
APPID
  2
GENIUS_GEVCFG0_13
 70
     0
  0
APPID
  2
GENIUS_GENOBJ-N-TIT_13
 70
     0
  0
APPID
  2
GENIUS_GENTITLE_13
 70
     0
  0
APPID
  2
GENIUS_GENSCREG_15
 70
     0
  0
APPID
  2
GENIUS_GENOBJ-N-SDF_13
 70
     0
  0
APPID
  2
GENIUS_GENFIL_13
 70
     0
  0
APPID
  2
GENIUS_GENOBJ-N-CHA_13
 70
     0
  0
APPID
  2
GENIUS_GEFSH_13
 70
     0
  0
APPID
  2
GENIUS_GENOBJ-F-SHS_13
 70
     0
  0
APPID
  2
GENIUS_GENOBJ-N-CEN_13
 70
     0
  0
APPID
  2
GENIUS_GENREC_14
 70
     0
  0
APPID
  2
GENIUS_GENOBJ-N-REC_13
 70
     0
  0
APPID
  2
GENIUS_GENOBJ-N-HTC_13
 70
     0
  0
APPID
  2
GENIUS_GENHATCH_13
 70
     0
  0
APPID
  2
ACAD_PSEXT
 70
     0
  0
APPID
  2
ACAD_EXEMPT_FROM_CAD_STANDARDS
 70
     0
  0
APPID
  2
ACAECLAYERSTANDARD
 70
     0
  0
APPID
  2
GENIUS_GENCEN_19
 70
     0
  0
APPID
  2
ACAD_DSTYLE_DIMINSPECT
 70
     0
  0
APPID
  2
ACAD_DSTYLE_DIMANGULAR_EXT
 70
     0
  0
APPID
  2
ACADANNOPO
 70
     0
  0
APPID
  2
ACAD_NAV_VCDISPLAY
 70
     0
  0
APPID
  2
GENIUS_GENOBJ-N-FIL_13
 70
     0
  0
APPID
  2
ACAD_DSTYLE_DIMBREAK
 70
     0
  0
APPID
  2
ACAD_DSTYLE_DIMJAG
 70
     0
  0
APPID
  2
ACAD_DSTYLE_DIMRADIAL_EXTENSION
 70
     0
  0
APPID
  2
GENIUS_GENHINW_13
 70
     0
  0
APPID
  2
GENIUS_FIRSTVISTXT_14
 70
     0
  0
APPID
  2
GENIUS_GENOBJ-N-LEADER_13
 70
     0
  0
APPID
  2
GENIUS_DUMCFG0_13
 70
     0
  0
APPID
  2
ACAD_DSTYLE_DIMTEXT_FILL
 70
     0
  0
APPID
  2
AMG_2DHIDE
 70
     0
  0
APPID
  2
GENIUS_GEFSHEP_13
 70
     0
  0
APPID
  2
GENIUS_GENOBJ-F-SHE_13
 70
     0
  0
APPID
  2
GENIUS_GEFSHE_13
 70
     0
  0
APPID
  2
ACAD_DIMASSOC_DIMLFAC
 70
     0
  0
APPID
  2
ACAD_DIMASSOC_CALC_DIMLFAC
 70
     0
  0
APPID
  2
ACAD_DIMASSOC_OVERRIDDEN_D
 70
     0
  0
APPID
  2
GENIUS_GENOBJ-F-SHSV_13
 70
     0
  0
APPID
  2
GENIUS_GEFWELD_13
 70
     0
  0
APPID
  2
GENIUS_GENOBJ-N-CRS_13
 70
     0
  0
APPID
  2
GENIUS_GENOBJ-N-RSBK_13
 70
     0
  0
APPID
  2
GENIUS_GENOBJ-N-LIB_13
 70
     0
  0
APPID
  2
GENIUS_GENSCALE_13
 70
     0
  0
APPID
  2
GENIUS_GENDREL_13
 70
     0
  0
APPID
  2
GEVPT
 70
     0
  0
APPID
  2
GEVIT
 70
     0
  0
APPID
  2
VCC
 70
     0
  0
APPID
  2
GENBH
 70
     0
  0
APPID
  2
GEVMK
 70
     0
  0
APPID
  2
GENIUS_GENOBJ-F-DESC_13
 70
     0
  0
APPID
  2
GENIUS_GEFDESC_14
 70
     0
  0
APPID
  2
GENIUS_GENOBJ-F-FEAT_13
 70
     0
  0
APPID
  2
GENIUS_GEFFEAT_14
 70
     0
  0
APPID
  2
GENIUS_GEFPARTINS_13
 70
     0
  0
APPID
  2
GENIUS_GENSCREG_13
 70
     0
  0
APPID
  2
GENIUS_GEFSHP_13
 70
     0
  0
APPID
  2
GEVID1025574798
 70
     0
  0
APPID
  2
GEVID1025574769
 70
     0
  0
APPID
  2
GEVID1025757451
 70
     0
  0
APPID
  2
GEVID1240528327
 70
     0
  0
APPID
  2
AMG_2DSTRUCT_BTR
 70
     0
  0
APPID
  2
ACADM_2DVIEW_IGN_NOTIFY
 70
     0
  0
APPID
  2
GEVID1240528328
 70
     0
  0
APPID
  2
GEVID1240528329
 70
     0
  0
APPID
  2
GEVRADREF
 70
     0
  0
APPID
  2
GEVID1240528330
 70
     0
  0
APPID
  2
GEVID1240528331
 70
     0
  0
APPID
  2
GEVID1240528332
 70
     0
  0
APPID
  2
GEVID1240791080
 70
     0
  0
APPID
  2
GEVID1240791081
 70
     0
  0
APPID
  2
GEVID1240791082
 70
     0
  0
APPID
  2
GEVID1240791083
 70
     0
  0
APPID
  2
GEVID1240791084
 70
     0
  0
APPID
  2
GEVID1240791085
 70
     0
  0
APPID
  2
GEVID1240791086
 70
     0
  0
APPID
  2
GEVID1240791087
 70
     0
  0
APPID
  2
GEVID1240791088
 70
     0
  0
APPID
  2
GEVID1240791089
 70
     0
  0
APPID
  2
GEVID1240791090
 70
     0
  0
APPID
  2
GEVID1240791091
 70
     0
  0
APPID
  2
GEVID1240791092
 70
     0
  0
APPID
  2
GEVID1240791093
 70
     0
  0
APPID
  2
GEVID1240791094
 70
     0
  0
APPID
  2
GEVID1240791095
 70
     0
  0
APPID
  2
GEVID1240791096
 70
     0
  0
APPID
  2
GEVID1240791097
 70
     0
  0
APPID
  2
GEVID1240791098
 70
     0
  0
APPID
  2
GEVID1240791099
 70
     0
  0
APPID
  2
GEVID1240791100
 70
     0
  0
APPID
  2
GEVID1240791101
 70
     0
  0
APPID
  2
GEVID1240791102
 70
     0
  0
APPID
  2
GEVID1240791103
 70
     0
  0
APPID
  2
GEVID1240791104
 70
     0
  0
APPID
  2
GEVID1240791105
 70
     0
  0
APPID
  2
GEVID1240875381
 70
     0
  0
APPID
  2
GEVID1240875382
 70
     0
  0
APPID
  2
GEVID1240875383
 70
     0
  0
APPID
  2
GEVID1240875384
 70
     0
  0
APPID
  2
GEVID1240875385
 70
     0
  0
APPID
  2
GEVID1240875386
 70
     0
  0
APPID
  2
GEVID1240875387
 70
     0
  0
APPID
  2
GEVID1240875388
 70
     0
  0
APPID
  2
GEVID1240875389
 70
     0
  0
APPID
  2
GEVID1240875390
 70
     0
  0
APPID
  2
GEVID1240875391
 70
     0
  0
APPID
  2
GEVID1240875392
 70
     0
  0
APPID
  2
GEVID1240875393
 70
     0
  0
APPID
  2
GEVID1240875394
 70
     0
  0
APPID
  2
GEVID1240875395
 70
     0
  0
APPID
  2
GEVID1240875396
 70
     0
  0
APPID
  2
GEVID1240875397
 70
     0
  0
APPID
  2
GEVID1240875398
 70
     0
  0
APPID
  2
GEVID1240875399
 70
     0
  0
APPID
  2
GEVID1240908996
 70
     0
  0
APPID
  2
GEVID1240908997
 70
     0
  0
APPID
  2
GEVID1240908998
 70
     0
  0
APPID
  2
GEVID1240908999
 70
     0
  0
APPID
  2
GEVID1240909000
 70
     0
  0
APPID
  2
GENIUS_GENOBJ-N-ZOO_13
 70
     0
  0
APPID
  2
GENIUS_GENZOO_17
 70
     0
  0
APPID
  2
GENIUS_GE3SECT_13
 70
     0
  0
APPID
  2
GEV_VCCNULL_SWITCH_OFF
 70
     0
  0
APPID
  2
ACAD_DSTYLE_DIMTALN
 70
     0
  0
APPID
  2
DCO15
 70
     0
  0
ENDTAB
  0
TABLE
  2
DIMSTYLE
 70
    23
  0
DIMSTYLE
  2
STANDARD
 70
     0
  3

  4

  5

  6

  7

 40
1.0
 41
0.18
 42
0.0625
 43
0.38
 44
0.18
 45
0.0
 46
0.0
 47
0.0
 48
0.0
140
0.18
141
0.09
142
0.0
143
25.399999999999999
144
1.0
145
0.0
146
1.0
147
0.09
 71
     0
 72
     0
 73
     1
 74
     1
 75
     0
 76
     0
 77
     0
 78
     0
170
     0
171
     2
172
     0
173
     0
174
     0
175
     0
176
     0
177
     0
178
     0
  0
DIMSTYLE
  2
ANNOTATIVE
 70
     0
  3

  4

  5

  6

  7

 40
1.0
 41
0.18
 42
0.0625
 43
0.38
 44
0.18
 45
0.0
 46
0.0
 47
0.0
 48
0.0
140
0.18
141
0.09
142
0.0
143
25.399999999999999
144
1.0
145
0.0
146
1.0
147
0.09
 71
     0
 72
     0
 73
     1
 74
     1
 75
     0
 76
     0
 77
     0
 78
     0
170
     0
171
     2
172
     0
173
     0
174
     0
175
     0
176
     0
177
     0
178
     0
  0
DIMSTYLE
  2
AM_ANSI
 70
     0
  3

  4
"
  5

  6

  7

 40
1.0
 41
2.5
 42
1.0
 43
10.0
 44
1.0
 45
0.0
 46
0.0
 47
0.1
 48
0.1
140
3.5
141
0.0
142
0.0
143
0.0393701
144
1.0
145
0.0
146
0.71
147
1.5
 71
     0
 72
     0
 73
     1
 74
     1
 75
     0
 76
     0
 77
     0
 78
     8
170
     0
171
     2
172
     0
173
     0
174
     0
175
     0
176
     2
177
     2
178
     4
  0
DIMSTYLE
  2
AM_ANSI$3
 70
     0
  3

  4
"
  5

  6

  7

 40
1.0
 41
2.5
 42
1.0
 43
10.0
 44
1.0
 45
0.0
 46
0.0
 47
0.1
 48
0.1
140
3.5
141
0.0
142
0.0
143
0.0393701
144
1.0
145
0.0
146
0.71
147
1.5
 71
     0
 72
     0
 73
     1
 74
     1
 75
     0
 76
     0
 77
     0
 78
     8
170
     0
171
     2
172
     0
173
     0
174
     0
175
     0
176
     2
177
     2
178
     4
  0
DIMSTYLE
  2
AM_ANSI$4
 70
     0
  3

  4
"
  5

  6

  7

 40
1.0
 41
2.5
 42
1.0
 43
10.0
 44
1.0
 45
0.0
 46
0.0
 47
0.1
 48
0.1
140
3.5
141
0.0
142
0.0
143
0.0393701
144
1.0
145
0.0
146
0.71
147
1.5
 71
     0
 72
     0
 73
     1
 74
     1
 75
     0
 76
     0
 77
     0
 78
     8
170
     0
171
     2
172
     0
173
     0
174
     0
175
     0
176
     2
177
     2
178
     4
  0
DIMSTYLE
  2
AM_ANSI$7
 70
     0
  3

  4
"
  5

  6

  7

 40
1.0
 41
2.5
 42
1.0
 43
10.0
 44
1.0
 45
0.0
 46
0.0
 47
0.1
 48
0.1
140
5.0
141
0.0
142
0.0
143
0.0393701
144
1.0
145
0.0
146
0.71
147
1.5
 71
     0
 72
     0
 73
     1
 74
     1
 75
     0
 76
     0
 77
     0
 78
     8
170
     0
171
     2
172
     0
173
     0
174
     0
175
     0
176
     2
177
     2
178
     4
  0
DIMSTYLE
  2
AM_ANSI$SF
 70
     0
  3

  4
"
  5

  6

  7

 40
1.0
 41
2.5
 42
1.0
 43
10.0
 44
1.0
 45
0.0
 46
0.0
 47
0.1
 48
0.1
140
3.5
141
0.0
142
0.0
143
0.0393701
144
1.0
145
0.0
146
0.71
147
1.5
 71
     0
 72
     0
 73
     1
 74
     1
 75
     1
 76
     1
 77
     0
 78
     8
170
     0
171
     2
172
     0
173
     0
174
     0
175
     0
176
     2
177
     2
178
     4
  0
DIMSTYLE
  2
AM_ANSI$SH
 70
     0
  3

  4
"
  5

  6

  7

 40
1.0
 41
2.5
 42
1.0
 43
10.0
 44
1.0
 45
0.0
 46
0.0
 47
0.1
 48
0.1
140
3.5
141
0.0
142
0.0
143
0.0393701
144
1.0
145
0.0
146
0.71
147
1.5
 71
     0
 72
     0
 73
     1
 74
     1
 75
     1
 76
     1
 77
     0
 78
     8
170
     0
171
     2
172
     0
173
     1
174
     0
175
     0
176
     2
177
     2
178
     4
  0
DIMSTYLE
  2
AM_ISO
 70
     0
  3

  4
"
  5

  6

  7

 40
1.0
 41
2.5
 42
1.0
 43
10.0
 44
1.0
 45
0.0
 46
0.0
 47
0.1
 48
0.1
140
3.5
141
0.0
142
0.0
143
0.0393701
144
1.0
145
0.0
146
0.71
147
1.5
 71
     0
 72
     0
 73
     0
 74
     0
 75
     0
 76
     0
 77
     1
 78
     8
170
     0
171
     2
172
     1
173
     0
174
     0
175
     0
176
   256
177
   256
178
     2
  0
DIMSTYLE
  2
AM_ISO$3
 70
     0
  3

  4
"
  5

  6

  7

 40
1.0
 41
2.5
 42
1.0
 43
10.0
 44
1.0
 45
0.0
 46
0.0
 47
0.1
 48
0.1
140
3.5
141
0.0
142
0.0
143
0.0393701
144
1.0
145
0.0
146
0.71
147
1.5
 71
     0
 72
     0
 73
     0
 74
     1
 75
     0
 76
     0
 77
     1
 78
     8
170
     0
171
     2
172
     0
173
     0
174
     0
175
     0
176
   256
177
   256
178
     2
  0
DIMSTYLE
  2
AM_ISO$4
 70
     0
  3

  4
"
  5

  6

  7

 40
1.0
 41
2.5
 42
1.0
 43
10.0
 44
1.0
 45
0.0
 46
0.0
 47
0.1
 48
0.1
140
3.5
141
0.0
142
0.0
143
0.0393701
144
1.0
145
0.0
146
0.71
147
1.5
 71
     0
 72
     0
 73
     0
 74
     1
 75
     0
 76
     0
 77
     1
 78
     8
170
     0
171
     2
172
     0
173
     0
174
     0
175
     0
176
   256
177
   256
178
     2
  0
DIMSTYLE
  2
AM_ISO$6
 70
     0
  3

  4
"
  5

  6

  7

 40
1.0
 41
2.5
 42
1.0
 43
10.0
 44
1.0
 45
0.0
 46
0.0
 47
0.1
 48
0.1
140
3.5
141
0.0
142
0.0
143
0.0393701
144
1.0
145
0.0
146
0.71
147
1.5
 71
     0
 72
     0
 73
     0
 74
     0
 75
     0
 76
     0
 77
     0
 78
     8
170
     0
171
     2
172
     1
173
     0
174
     0
175
     0
176
   256
177
   256
178
     2
  0
DIMSTYLE
  2
AM_ISO$7
 70
     0
  3

  4
"
  5

  6

  7

 40
1.0
 41
2.5
 42
1.0
 43
10.0
 44
1.0
 45
0.0
 46
0.0
 47
0.1
 48
0.1
140
5.0
141
0.0
142
0.0
143
0.0393701
144
1.0
145
0.0
146
0.71
147
1.5
 71
     0
 72
     0
 73
     0
 74
     0
 75
     0
 76
     0
 77
     1
 78
     8
170
     0
171
     2
172
     1
173
     0
174
     0
175
     0
176
   256
177
   256
178
     2
  0
DIMSTYLE
  2
AM_ISO$SF
 70
     0
  3

  4
"
  5

  6

  7

 40
1.0
 41
2.5
 42
1.0
 43
10.0
 44
1.0
 45
0.0
 46
0.0
 47
0.1
 48
0.1
140
3.5
141
0.0
142
0.0
143
0.0393701
144
1.0
145
0.0
146
0.71
147
1.5
 71
     0
 72
     0
 73
     0
 74
     0
 75
     1
 76
     1
 77
     1
 78
     8
170
     0
171
     2
172
     1
173
     0
174
     0
175
     0
176
   256
177
   256
178
     2
  0
DIMSTYLE
  2
AM_ISO$SH
 70
     0
  3

  4
"
  5

  6

  7

 40
1.0
 41
2.5
 42
1.0
 43
10.0
 44
1.0
 45
0.0
 46
0.0
 47
0.1
 48
0.1
140
3.5
141
0.0
142
0.0
143
0.0393701
144
2.0
145
0.0
146
0.71
147
1.5
 71
     0
 72
     0
 73
     0
 74
     0
 75
     1
 76
     1
 77
     1
 78
     8
170
     0
171
     2
172
     1
173
     1
174
     0
175
     0
176
   256
177
   256
178
     2
  0
DIMSTYLE
  2
AM_JIS
 70
     0
  3

  4
"
  5

  6

  7

 40
1.0
 41
2.0
 42
1.0
 43
8.0
 44
1.0
 45
0.0
 46
0.0
 47
0.1
 48
0.1
140
2.5
141
0.0
142
0.0
143
0.0393701
144
1.0
145
0.0
146
0.71
147
1.5
 71
     0
 72
     0
 73
     0
 74
     0
 75
     0
 76
     0
 77
     3
 78
     8
170
     0
171
     2
172
     1
173
     0
174
     0
175
     0
176
     2
177
     2
178
     4
  0
DIMSTYLE
  2
AM_JIS$3
 70
     0
  3

  4
"
  5

  6

  7

 40
1.0
 41
2.0
 42
1.0
 43
10.0
 44
1.0
 45
0.0
 46
0.0
 47
0.1
 48
0.1
140
2.5
141
0.0
142
0.0
143
0.0393701
144
1.0
145
0.0
146
0.71
147
1.5
 71
     0
 72
     0
 73
     0
 74
     1
 75
     0
 76
     0
 77
     3
 78
     8
170
     0
171
     2
172
     0
173
     0
174
     0
175
     0
176
     2
177
     2
178
     4
  0
DIMSTYLE
  2
AM_JIS$4
 70
     0
  3

  4
"
  5

  6

  7

 40
1.0
 41
2.0
 42
1.0
 43
10.0
 44
1.0
 45
0.0
 46
0.0
 47
0.1
 48
0.1
140
2.5
141
0.0
142
0.0
143
0.0393701
144
1.0
145
0.0
146
0.71
147
1.5
 71
     0
 72
     0
 73
     0
 74
     0
 75
     0
 76
     0
 77
     3
 78
     8
170
     0
171
     2
172
     0
173
     0
174
     0
175
     0
176
     2
177
     2
178
     4
  0
DIMSTYLE
  2
AM_JIS$6
 70
     0
  3

  4
"
  5

  6

  7

 40
1.0
 41
2.0
 42
1.0
 43
10.0
 44
1.0
 45
0.0
 46
0.0
 47
0.1
 48
0.1
140
2.5
141
0.0
142
0.0
143
0.0393701
144
1.0
145
0.0
146
0.71
147
1.5
 71
     0
 72
     0
 73
     0
 74
     0
 75
     0
 76
     0
 77
     0
 78
     8
170
     0
171
     2
172
     1
173
     0
174
     0
175
     0
176
     2
177
     2
178
     4
  0
DIMSTYLE
  2
AM_JIS$7
 70
     0
  3

  4
"
  5

  6

  7

 40
1.0
 41
2.0
 42
1.0
 43
10.0
 44
1.0
 45
0.0
 46
0.0
 47
0.1
 48
0.1
140
2.5
141
0.0
142
0.0
143
0.0393701
144
1.0
145
0.0
146
0.71
147
1.5
 71
     0
 72
     0
 73
     0
 74
     0
 75
     0
 76
     0
 77
     3
 78
     8
170
     0
171
     2
172
     1
173
     0
174
     0
175
     0
176
     2
177
     2
178
     4
  0
DIMSTYLE
  2
AM_JIS$SF
 70
     0
  3

  4
"
  5

  6

  7

 40
1.0
 41
2.0
 42
1.0
 43
10.0
 44
1.0
 45
0.0
 46
0.0
 47
0.1
 48
0.1
140
2.5
141
0.0
142
0.0
143
0.0393701
144
1.0
145
0.0
146
0.71
147
1.5
 71
     0
 72
     0
 73
     0
 74
     0
 75
     1
 76
     1
 77
     3
 78
     8
170
     0
171
     2
172
     1
173
     0
174
     0
175
     0
176
     2
177
     2
178
     4
  0
DIMSTYLE
  2
AM_JIS$SH
 70
     0
  3

  4
"
  5

  6

  7

 40
1.0
 41
2.0
 42
1.0
 43
10.0
 44
1.0
 45
0.0
 46
0.0
 47
0.1
 48
0.1
140
2.5
141
0.0
142
0.0
143
0.0393701
144
2.0
145
0.0
146
0.71
147
1.5
 71
     0
 72
     0
 73
     0
 74
     0
 75
     1
 76
     1
 77
     3
 78
     8
170
     0
171
     2
172
     1
173
     1
174
     0
175
     0
176
     2
177
     2
178
     4
  0
DIMSTYLE
  2
AM_JIS$0
 70
     0
  3

  4
"
  5

  6

  7

 40
1.0
 41
2.0
 42
1.0
 43
8.0
 44
1.0
 45
0.0
 46
0.0
 47
0.1
 48
0.1
140
2.5
141
0.0
142
0.0
143
0.0393701
144
1.0
145
0.0
146
0.71
147
1.5
 71
     0
 72
     0
 73
     0
 74
     0
 75
     0
 76
     0
 77
     3
 78
     8
170
     0
171
     2
172
     1
173
     0
174
     0
175
     0
176
     2
177
     2
178
     4
  0
ENDTAB
  0
ENDSEC
  0
SECTION
  2
BLOCKS
  0
BLOCK
  8
0
  2
$MODEL_SPACE
 70
     0
 10
0.0
 20
0.0
 30
0.0
  3
$MODEL_SPACE
  1

  0
ENDBLK
  5
BC4F
  8
0
  0
BLOCK
 67
     1
  8
0
  2
$PAPER_SPACE
 70
     0
 10
0.0
 20
0.0
 30
0.0
  3
$PAPER_SPACE
  1

  0
ENDBLK
  5
BC4B
 67
     1
  8
0
  0
BLOCK
  8
0
  2
GENAXEH
 70
     0
 10
0.0
 20
0.0
 30
0.0
  3
GENAXEH
  1

  0
LINE
  5
B5FF
  8
0
 10
-1.0
 20
0.0
 30
0.0
 11
1.0
 21
0.0
 31
0.0
  0
ENDBLK
  5
B600
  8
0
  0
BLOCK
  8
0
  2
_OPEN30
 70
     0
 10
0.0
 20
0.0
 30
0.0
  3
_OPEN30
  1

  0
LINE
  5
B646
  8
0
  6
BYBLOCK
 62
     0
 10
-1.0
 20
0.26794919
 30
0.0
 11
0.0
 21
0.0
 31
0.0
  0
LINE
  5
B647
  8
0
  6
BYBLOCK
 62
     0
 10
0.0
 20
0.0
 30
0.0
 11
-1.0
 21
-0.26794919
 31
0.0
  0
LINE
  5
B648
  8
0
  6
BYBLOCK
 62
     0
 10
0.0
 20
0.0
 30
0.0
 11
-1.0
 21
0.0
 31
0.0
  0
ENDBLK
  5
B649
  8
0
  0
BLOCK
  8
0
 62
     4
  2
*U4
 70
     1
 10
0.0
 20
0.0
 30
0.0
  3
*U4
  1

  0
TEXT
  5
B9D0
  8
0
 62
     0
 10
5.1211371559201639
 20
5.9826223594979648
 30
0.0
 40
15.0
  1
ＶＸ０８－００３ＥＭ～ＶＸ０８－０３０ＥＭ
 41
0.7400000000000003
  0
ENDBLK
  5
B9D2
  8
0
 62
     4
  0
BLOCK
  8
0
 62
     4
  2
*U5
 70
     1
 10
0.0
 20
0.0
 30
0.0
  3
*U5
  1

  0
TEXT
  5
B9D4
  8
0
 62
     0
 10
840.83203952066356
 20
884.38180166092241
 30
0.0
 40
15.0
  1
ＶＸ７５－００３ＥＭ～ＶＸ７５－０２０ＥＭ
 41
0.7400000000000003
  0
ENDBLK
  5
B9D6
  8
0
 62
     4
  0
BLOCK
  8
0
 62
     4
  2
_ACMFILLEDHALF
 70
     0
 10
0.0
 20
0.0
 30
0.0
  3
_ACMFILLEDHALF
  1

  0
TRACE
  5
BD89
  8
0
 62
     0
 10
-0.8
 20
0.0
 30
0.0
 11
-1.0
 21
0.166666666
 31
0.0
 12
0.0
 22
0.0
 32
0.0
 13
0.0
 23
0.0
 33
0.0
  0
LINE
  5
BD8A
  8
0
 62
     0
 10
-1.0
 20
0.0
 30
0.0
 11
-0.8
 21
0.0
 31
0.0
  0
ENDBLK
  5
BD88
  8
0
 62
     4
  0
ENDSEC
  0
SECTION
  2
ENTITIES
  0
LINE
  5
9CE5
  8
0
 62
     0
 10
983.55791575447631
 20
685.16652575960086
 30
0.0
 11
988.03597575447645
 21
684.27877575960065
 31
0.0
  0
LINE
  5
9CE6
  8
0
 62
     0
 10
969.07989075447631
 20
684.27867575960113
 30
0.0
 11
973.55791575447665
 21
685.16642575960077
 31
0.0
  0
LINE
  5
9CE7
  8
0
 62
     0
 10
965.91189075447642
 20
674.61272575960095
 30
0.0
 11
968.30840575447621
 21
683.55657575960072
 31
0.0
  0
LINE
  5
9CE8
  8
0
 62
     0
 10
991.20394575447642
 20
674.61272575960095
 30
0.0
 11
988.80746075447644
 21
683.55652575960085
 31
0.0
  0
LINE
  5
9CE9
  8
0
 62
     0
 10
983.55794575447646
 20
721.15767575960103
 30
0.0
 11
983.55794575447646
 21
679.15767575960103
 31
0.0
  0
LINE
  5
9CEA
  8
0
 62
     0
 10
973.55794575447635
 20
721.15767575960103
 30
0.0
 11
973.55794575447635
 21
679.15767575960103
 31
0.0
  0
LINE
  5
9CEB
  8
0
 62
     0
 10
669.19168167908515
 20
584.94042337927465
 30
0.0
 11
669.19168167908515
 21
580.94042337927465
 31
0.0
  0
LINE
  5
9CEC
  8
0
 62
     0
 10
669.19168167908515
 20
584.94042337927465
 30
0.0
 11
731.19168167908504
 21
584.94042337927465
 31
0.0
  0
LINE
  5
9CED
  8
0
 62
     0
 10
649.19168167908538
 20
525.94042337927465
 30
0.0
 11
731.19168167908504
 21
525.94042337927465
 31
0.0
  0
LINE
  5
9CEE
  8
0
 62
     0
 10
731.19168167908504
 20
584.94042337927465
 30
0.0
 11
731.19168167908504
 21
525.94042337927465
 31
0.0
  0
LINE
  5
9CEF
  8
0
 62
     0
 10
649.19168167908538
 20
583.44042337927465
 30
0.0
 11
649.19168167908538
 21
523.44042337927465
 31
0.0
  0
LINE
  5
9CF0
  8
0
 62
     0
 10
649.19168167908538
 20
580.94042337927465
 30
0.0
 11
731.19168167908504
 21
580.94042337927465
 31
0.0
  0
LINE
  5
9CF1
  8
0
 62
     0
 10
643.19168167908515
 20
583.44042337927465
 30
0.0
 11
649.19168167908538
 21
583.44042337927465
 31
0.0
  0
LINE
  5
9CF2
  8
0
 62
     0
 10
643.19168167908515
 20
523.44042337927465
 30
0.0
 11
649.19168167908538
 21
523.44042337927465
 31
0.0
  0
LINE
  5
9CF3
  8
0
 62
     0
 10
970.55791575447643
 20
574.657690759601
 30
0.0
 11
986.55791575447654
 21
574.657690759601
 31
0.0
  0
LINE
  5
9CF4
  8
0
 62
     0
 10
970.55791575447643
 20
584.65769075960111
 30
0.0
 11
986.55791575447654
 21
584.65769075960111
 31
0.0
  0
LINE
  5
9CF5
  8
0
 62
     0
 10
970.55791575447643
 20
574.657690759601
 30
0.0
 11
970.55791575447643
 21
584.65769075960111
 31
0.0
  0
LINE
  5
9CF6
  8
0
 62
     0
 10
986.55791575447654
 20
574.657690759601
 30
0.0
 11
986.55791575447654
 21
584.65769075960111
 31
0.0
  0
LINE
  5
9CF7
  8
0
 62
     0
 10
845.55791575447608
 20
561.6240907596009
 30
0.0
 11
845.55791575447608
 21
547.78339075960116
 31
0.0
  0
LINE
  5
9CF8
  8
0
 62
     0
 10
878.55794575447635
 20
395.15765575960108
 30
0.0
 11
878.55794575447635
 21
538.15769075960111
 31
0.0
  0
LINE
  5
9CF9
  8
0
 62
     0
 10
501.19168167908509
 20
545.54640837927434
 30
0.0
 11
521.19168167908538
 21
545.54640837927434
 31
0.0
  0
LINE
  5
9CFA
  8
0
 62
     0
 10
640.12193167908549
 20
613.54760837927438
 30
0.0
 11
641.26153167908615
 21
613.50785837927447
 31
0.0
  0
LINE
  5
9CFB
  8
0
 62
     0
 10
620.32018167908495
 20
640.00400837927452
 30
0.0
 11
633.62748167908535
 21
638.8397583792746
 31
0.0
  0
LINE
  5
9CFC
  8
0
 62
     0
 10
813.55792575447651
 20
383.15768575960089
 30
0.0
 11
813.55792575447651
 21
353.15768575960101
 31
0.0
  0
LINE
  5
9CFD
  8
0
 62
     0
 10
878.55794575447635
 20
383.15768575960089
 30
0.0
 11
818.55792575447697
 21
383.15768575960089
 31
0.0
  0
LINE
  5
9CFE
  8
0
 62
     0
 10
883.55794575447669
 20
353.15768575960101
 30
0.0
 11
813.55792575447651
 21
353.15768575960101
 31
0.0
  0
LINE
  5
9CFF
  8
0
 62
     0
 10
978.55794575447635
 20
360.15768575960101
 30
0.0
 11
888.55794575447612
 21
360.15768575960101
 31
0.0
  0
LINE
  5
9D00
  8
0
 62
     0
 10
638.19168167908526
 20
633.8587083792745
 30
0.0
 11
638.19168167908526
 21
387.10066837927462
 31
0.0
  0
LINE
  5
9D01
  8
0
 62
     0
 10
588.19168167908526
 20
383.44041837927477
 30
0.0
 11
638.19168167908526
 21
383.44041837927477
 31
0.0
  0
LINE
  5
9D02
  8
0
 62
     0
 10
643.19168167908515
 20
378.44041837927477
 30
0.0
 11
643.19168167908515
 21
353.44041837927477
 31
0.0
  0
LINE
  5
9D03
  8
0
 62
     0
 10
496.19168167908538
 20
675.44040837927457
 30
0.0
 11
516.36623167908601
 21
674.73590837927441
 31
0.0
  0
LINE
  5
9D04
  8
0
 62
     0
 10
643.19168167908515
 20
611.50905837927439
 30
0.0
 11
643.19168167908515
 21
495.37181837927432
 31
0.0
  0
LINE
  5
9D05
  8
0
 62
     0
 10
524.21993167908556
 20
670.46160837927471
 30
0.0
 11
601.54068167908542
 21
667.76155837927422
 31
0.0
  0
LINE
  5
9D06
  8
0
 62
     0
 10
413.19168167908532
 20
353.44041837927477
 30
0.0
 11
643.19168167908515
 21
353.44041837927477
 31
0.0
  0
LINE
  5
9D07
  8
0
 62
     0
 10
640.12188167908585
 20
493.33321337927441
 30
0.0
 11
641.2614316790856
 21
493.37300837927438
 31
0.0
  0
LINE
  5
9D08
  8
0
 62
     0
 10
413.19168167908532
 20
378.44041837927477
 30
0.0
 11
413.19168167908532
 21
353.44041837927477
 31
0.0
  0
LINE
  5
9D09
  8
0
 62
     0
 10
418.19168167908509
 20
383.44041837927477
 30
0.0
 11
465.0210816790858
 21
383.44041837927477
 31
0.0
  0
LINE
  5
9D0A
  8
0
 62
     0
 10
521.19168167908538
 20
669.73895837927455
 30
0.0
 11
521.19168167908538
 21
545.54640837927434
 31
0.0
  0
LINE
  5
9D0B
  8
0
 62
     0
 10
501.19168167908509
 20
545.54640837927434
 30
0.0
 11
501.19168167908509
 21
455.67940337927462
 31
0.0
  0
LINE
  5
9D0C
  8
0
 62
     0
 10
611.19168167908515
 20
657.76760837927441
 30
0.0
 11
611.19168167908515
 21
409.74742837927448
 31
0.0
  0
LINE
  5
9D0D
  8
0
 62
     0
 10
861.55791575447608
 20
460.12158575960092
 30
0.0
 11
861.55791575447608
 21
604.09147575960071
 31
0.0
  0
LINE
  5
9D0E
  8
0
 62
     0
 10
593.19168167908515
 20
605.3980583792744
 30
0.0
 11
611.19168167908515
 21
605.3980583792744
 31
0.0
  0
LINE
  5
9D0F
  8
0
 62
     0
 10
578.19168167908515
 20
399.74742837927482
 30
0.0
 11
601.19168167908515
 21
399.74742837927482
 31
0.0
  0
LINE
  5
9D10
  8
0
 62
     0
 10
578.19168167908515
 20
590.39805837927452
 30
0.0
 11
578.19168167908515
 21
393.44041837927477
 31
0.0
  0
LINE
  5
9D11
  8
0
 62
     0
 10
883.55794575447669
 20
378.15768575960089
 30
0.0
 11
883.55794575447669
 21
353.15768575960101
 31
0.0
  0
LINE
  5
9D12
  8
0
 62
     0
 10
813.55792575447651
 20
383.15768575960089
 30
0.0
 11
851.75527075447644
 21
579.66602075960077
 31
0.0
  0
LINE
  5
9D13
  8
0
 62
     0
 10
469.54368167908598
 20
386.30830837927459
 30
0.0
 11
500.23698167908572
 21
451.41521337927452
 31
0.0
  0
LINE
  5
9D14
  8
0
 62
     0
 10
978.55794575447635
 20
369.15768575960078
 30
0.0
 11
919.54860575447674
 21
369.15768575960078
 31
0.0
  0
LINE
  5
9D15
  8
0
 62
     0
 10
886.48687075447674
 20
366.08661075960089
 30
0.0
 11
894.67733075447654
 21
374.2771007596009
 31
0.0
  0
LINE
  5
9D16
  8
0
 62
     0
 10
913.81283075447664
 20
370.96615575960089
 30
0.0
 11
907.48415575447677
 21
375.39755575960112
 31
0.0
  0
LINE
  5
9D17
  8
0
 62
     0
 10
496.19168167908538
 20
675.44040837927457
 30
0.0
 11
496.19168167908538
 21
442.83433837927453
 31
0.0
  0
LINE
  5
9D18
  8
0
 62
     0
 10
1111.5579357544759
 20
561.6240907596009
 30
0.0
 11
1111.5579357544759
 21
547.78339075960116
 31
0.0
  0
LINE
  5
9D19
  8
0
 62
     0
 10
1078.557915754476
 20
395.15765575960108
 30
0.0
 11
1078.557915754476
 21
538.15769075960111
 31
0.0
  0
LINE
  5
9D1A
  8
0
 62
     0
 10
1143.5579207544761
 20
383.15768575960089
 30
0.0
 11
1143.5579207544761
 21
353.15768575960101
 31
0.0
  0
LINE
  5
9D1B
  8
0
 62
     0
 10
1078.557915754476
 20
383.15768575960089
 30
0.0
 11
1138.557920754477
 21
383.15768575960089
 31
0.0
  0
LINE
  5
9D1C
  8
0
 62
     0
 10
1073.557915754476
 20
353.15768575960101
 30
0.0
 11
1143.5579207544761
 21
353.15768575960101
 31
0.0
  0
LINE
  5
9D1D
  8
0
 62
     0
 10
978.55794575447635
 20
360.15768575960101
 30
0.0
 11
1068.557915754476
 21
360.15768575960101
 31
0.0
  0
LINE
  5
9D1E
  8
0
 62
     0
 10
1095.5579157544771
 20
460.12158575960092
 30
0.0
 11
1095.5579157544771
 21
604.09147575960071
 31
0.0
  0
LINE
  5
9D1F
  8
0
 62
     0
 10
1073.557915754476
 20
378.15768575960089
 30
0.0
 11
1073.557915754476
 21
353.15768575960101
 31
0.0
  0
LINE
  5
9D20
  8
0
 62
     0
 10
1143.5579207544761
 20
383.15771575960088
 30
0.0
 11
1105.360575754476
 21
579.66602075960077
 31
0.0
  0
LINE
  5
9D21
  8
0
 62
     0
 10
978.55794575447635
 20
369.15768575960078
 30
0.0
 11
1037.567255754476
 21
369.15768575960078
 31
0.0
  0
LINE
  5
9D22
  8
0
 62
     0
 10
1070.629010754476
 20
366.08661075960089
 30
0.0
 11
1062.4385307544769
 21
374.2770707596008
 31
0.0
  0
LINE
  5
9D23
  8
0
 62
     0
 10
1043.3030057544761
 20
370.96615575960089
 30
0.0
 11
1049.6316807544761
 21
375.39752575960091
 31
0.0
  0
LINE
  5
9D24
  8
0
 62
     0
 10
486.19168167908521
 20
673.15980837927452
 30
0.0
 11
486.19168167908521
 21
421.62224337927438
 31
0.0
  0
LINE
  5
9D25
  8
0
 62
     0
 10
463.19168167908532
 20
670.4404083792748
 30
0.0
 11
463.19168167908532
 21
622.44040837927446
 31
0.0
  0
LINE
  5
9D26
  8
0
 62
     0
 10
468.19168167908521
 20
675.44040837927457
 30
0.0
 11
495.8916816790861
 21
675.44040837927457
 31
0.0
  0
LINE
  5
9D27
  8
0
 62
     0
 10
488.12188167908607
 20
675.15860837927426
 30
0.0
 11
495.89163167908549
 21
675.42995837927424
 31
0.0
  0
LINE
  5
9D28
  8
0
 62
     0
 10
432.19173167908571
 20
396.44041837927477
 30
0.0
 11
474.32023167908551
 21
396.44041837927477
 31
0.0
  0
LINE
  5
9D2A
  8
0
 62
     0
 10
430.19168167908532
 20
626.44040837927446
 30
0.0
 11
430.19168167908532
 21
390.44038837927451
 31
0.0
  0
LINE
  5
9D2C
  8
0
 62
     0
 10
432.19173167908571
 20
620.4404083792748
 30
0.0
 11
461.19168167908521
 21
620.4404083792748
 31
0.0
  0
LINE
  5
9D2D
  8
0
 62
     0
 10
476.69168167908509
 20
637.99025837927456
 30
0.0
 11
476.69168167908509
 21
401.4707233792742
 31
0.0
  0
LINE
  5
9D2E
  8
0
 62
     0
 10
417.19173167908582
 20
388.44041837927477
 30
0.0
 11
428.19168167908521
 21
388.44041837927477
 31
0.0
  0
LINE
  5
9D2F
  8
0
 62
     0
 10
417.19173167908582
 20
628.44045837927456
 30
0.0
 11
428.19168167908521
 21
628.44045837927456
 31
0.0
  0
LINE
  5
9D30
  8
0
 62
     0
 10
461.19168167908521
 20
620.4404083792748
 30
0.0
 11
474.69173167908571
 21
620.4404083792748
 31
0.0
  0
LINE
  5
9D31
  8
0
 62
     0
 10
485.41578167908568
 20
653.21530837927457
 30
0.0
 11
477.46763167908563
 21
640.6655083792748
 31
0.0
  0
LINE
  5
9D32
  8
0
 62
     0
 10
430.19168167908532
 20
595.11530837927455
 30
0.0
 11
476.69168167908509
 21
595.11530837927455
 31
0.0
  0
LINE
  5
9D33
  8
0
 62
     0
 10
430.19168167908532
 20
579.3732533792745
 30
0.0
 11
476.69168167908509
 21
579.3732533792745
 31
0.0
  0
LINE
  5
9D34
  8
0
 62
     0
 10
430.19168167908532
 20
437.50761837927399
 30
0.0
 11
476.69168167908509
 21
437.50761837927399
 31
0.0
  0
LINE
  5
9D35
  8
0
 62
     0
 10
430.19168167908532
 20
421.76552337927433
 30
0.0
 11
476.69168167908509
 21
421.76552337927433
 31
0.0
  0
LINE
  5
9D36
  8
0
 62
     0
 10
468.3976316790858
 20
684.44040837927457
 30
0.0
 11
487.9856816790861
 21
684.44040837927457
 31
0.0
  0
LINE
  5
9D37
  8
0
 62
     0
 10
465.47703167908543
 20
674.63930837927455
 30
0.0
 11
467.94218167908548
 21
683.83935837927424
 31
0.0
  0
LINE
  5
9D38
  8
0
 62
     0
 10
490.69168167908521
 20
675.44040837927457
 30
0.0
 11
488.4411816790851
 21
683.83930837927437
 31
0.0
  0
LINE
  5
9D39
  8
0
 62
     0
 10
468.71363167908561
 20
684.56135837927445
 30
0.0
 11
478.19168167908521
 21
686.4404083792748
 31
0.0
  0
LINE
  5
9D3A
  8
0
 62
     0
 10
478.19173167908571
 20
686.4404083792748
 30
0.0
 11
487.669731679086
 21
684.56140837927478
 31
0.0
  0
LINE
  5
9D3B
  8
0
 62
     0
 10
495.8916816790861
 20
675.44040837927457
 30
0.0
 11
496.19168167908538
 21
675.44040837927457
 31
0.0
  0
LINE
  5
9D3C
  8
0
 62
     0
 10
418.1705816790851
 20
582.87737337927445
 30
0.0
 11
429.19948167908569
 21
582.87737337927445
 31
0.0
  0
LINE
  5
9D3D
  8
0
 62
     0
 10
417.19173167908582
 20
608.1676083792745
 30
0.0
 11
428.19168167908521
 21
608.1676083792745
 31
0.0
  0
LINE
  5
9D3E
  8
0
 62
     0
 10
417.19173167908582
 20
592.61125837927455
 30
0.0
 11
428.19168167908521
 21
592.61125837927455
 31
0.0
  0
LINE
  5
9D3F
  8
0
 62
     0
 10
417.19173167908582
 20
408.71321837927451
 30
0.0
 11
428.19168167908521
 21
408.71321837927451
 31
0.0
  0
LINE
  5
9D40
  8
0
 62
     0
 10
417.19173167908582
 20
424.26955337927461
 30
0.0
 11
428.19168167908521
 21
424.26955337927461
 31
0.0
  0
LINE
  5
9D41
  8
0
 62
     0
 10
418.1705816790851
 20
434.00346837927458
 30
0.0
 11
429.19948167908569
 21
434.00346837927458
 31
0.0
  0
LINE
  5
9D42
  8
0
 62
     0
 10
834.83693575447614
 20
566.79971575960064
 30
0.0
 11
816.1164257544765
 21
566.79978075960094
 31
0.0
  0
LINE
  5
9D43
  8
0
 62
     0
 10
838.85784075447646
 20
571.50366575960072
 30
0.0
 11
841.98351075447704
 21
569.94568575960102
 31
0.0
  0
LINE
  5
9D44
  8
0
 62
     0
 10
826.31789575447704
 20
448.80188075960092
 30
0.0
 11
793.10122575447633
 21
448.80161075960098
 31
0.0
  0
LINE
  5
9D45
  8
0
 62
     0
 10
793.10122575447633
 20
449.80157575960078
 30
0.0
 11
793.10122575447633
 21
448.80164075960039
 31
0.0
  0
LINE
  5
9D46
  8
0
 62
     0
 10
775.72232575447663
 20
448.21744075960089
 30
0.0
 11
836.84627575447666
 21
570.83035575960093
 31
0.0
  0
LINE
  5
9D47
  8
0
 62
     0
 10
782.58922575447662
 20
450.80151575960048
 30
0.0
 11
826.70662575447648
 21
450.80188075960098
 31
0.0
  0
LINE
  5
9D48
  8
0
 62
     0
 10
779.52097575447635
 20
444.6475257596008
 30
0.0
 11
841.99050075447644
 21
569.9421757596009
 31
0.0
  0
LINE
  5
9D49
  8
0
 62
     0
 10
776.39547575447614
 20
446.2058157596008
 30
0.0
 11
779.52097575447635
 21
444.6475257596008
 31
0.0
  0
LINE
  5
9D4A
  8
0
 62
     0
 10
777.73167575447678
 20
452.24811075960122
 30
0.0
 11
777.73167575447678
 21
528.82919575960068
 31
0.0
  0
LINE
  5
9D4B
  8
0
 62
     0
 10
806.92402575447613
 20
562.99216075960089
 30
0.0
 11
781.24637575447662
 21
537.31448575960087
 31
0.0
  0
LINE
  5
9D4C
  8
0
 62
     0
 10
845.69197575447652
 20
566.79968575960095
 30
0.0
 11
840.42373075447631
 21
566.79971575960064
 31
0.0
  0
ARC
  5
9D4D
  8
0
 62
     0
 10
971.5579157544762
 20
679.15767575960103
 30
0.0
 40
2.0000000500000001
 50
270.0
 51
0.0
  0
ARC
  5
9D4E
  8
0
 62
     0
 10
985.55791575447654
 20
679.15767575960103
 30
0.0
 40
2.0000000500000001
 50
179.999989999999
 51
270.0
  0
ARC
  5
9D4F
  8
0
 62
     0
 10
987.84148575447682
 20
683.29777575960111
 30
0.0
 40
1.0
 50
14.99999999999444
 51
78.786710000006536
  0
ARC
  5
9D50
  8
0
 62
     0
 10
969.27434575447614
 20
683.29777575960111
 30
0.0
 40
1.0
 50
101.21328999999341
 51
164.99998999999781
  0
ARC
  5
9D51
  8
0
 62
     0
 10
978.55794575447635
 20
721.15767575960103
 30
0.0
 40
5.0
 50
359.999989999999
 51
179.999989999999
  0
ARC
  5
9D52
  8
0
 62
     0
 10
978.55794575447635
 20
553.15769075960111
 30
0.0
 40
27.500000499999999
 50
106.9123900000052
 51
73.087596999986047
  0
ARC
  5
9D53
  8
0
 62
     0
 10
640.19168167908515
 20
491.33446337927433
 30
0.0
 40
2.0000000500000001
 50
91.999997999994264
 51
180.00001000000091
  0
ARC
  5
9D54
  8
0
 62
     0
 10
638.19168167908526
 20
378.44041837927477
 30
0.0
 40
5.0
 50
0.0
 51
90.000002999984659
  0
ARC
  5
9D55
  8
0
 62
     0
 10
465.0210816790858
 20
388.44041837927477
 30
0.0
 40
5.0
 50
270.0
 51
334.75946999998979
  0
ARC
  5
9D56
  8
0
 62
     0
 10
640.19168167908515
 20
615.54640837927423
 30
0.0
 40
2.0000000500000001
 50
179.999989999999
 51
268.00000999999241
  0
ARC
  5
9D57
  8
0
 62
     0
 10
601.19168167908515
 20
657.76760837927441
 30
0.0
 40
10.0
 50
0.0
 51
87.999999999996334
  0
ARC
  5
9D58
  8
0
 62
     0
 10
978.55794575447635
 20
538.15769075960111
 30
0.0
 40
100.0
 50
90.000002999984659
 51
180.00001000000091
  0
ARC
  5
9D59
  8
0
 62
     0
 10
633.19168167908538
 20
633.8587083792745
 30
0.0
 40
5.0
 50
0.0
 51
84.999997000011376
  0
ARC
  5
9D5A
  8
0
 62
     0
 10
641.19168167908538
 20
611.50905837927439
 30
0.0
 40
2.0000000500000001
 50
0.0
 51
87.999999999996334
  0
ARC
  5
9D5B
  8
0
 62
     0
 10
818.55792575447697
 20
378.15768575960089
 30
0.0
 40
5.0
 50
90.000002999984659
 51
180.00001000000091
  0
ARC
  5
9D5C
  8
0
 62
     0
 10
978.55794575447635
 20
528.15769075960111
 30
0.0
 40
147.0
 50
90.000002999984659
 51
134.59796000000421
  0
ARC
  5
9D5D
  8
0
 62
     0
 10
978.55794575447635
 20
528.15769075960111
 30
0.0
 40
142.0
 50
90.000002999984659
 51
136.44564000002109
  0
ARC
  5
9D5E
  8
0
 62
     0
 10
978.55794575447635
 20
553.15769075960111
 30
0.0
 40
60.0
 50
90.000002999984659
 51
270.0
  0
ARC
  5
9D5F
  8
0
 62
     0
 10
588.19168167908526
 20
393.44041837927477
 30
0.0
 40
10.0
 50
179.999989999999
 51
270.0
  0
ARC
  5
9D60
  8
0
 62
     0
 10
641.19168167908538
 20
495.37181837927432
 30
0.0
 40
2.0000000500000001
 50
272.00000000000341
 51
0.0
  0
ARC
  5
9D61
  8
0
 62
     0
 10
524.3944816790854
 20
675.45855837927456
 30
0.0
 40
5.0
 50
214.88734000000059
 51
267.99999999999642
  0
ARC
  5
9D62
  8
0
 62
     0
 10
516.19168167908538
 20
669.73895837927455
 30
0.0
 40
5.0
 50
34.887349999988331
 51
87.999999999996334
  0
ARC
  5
9D63
  8
0
 62
     0
 10
593.19168167908515
 20
590.39805837927452
 30
0.0
 40
15.0
 50
90.000002999984659
 51
180.00001000000091
  0
ARC
  5
9D64
  8
0
 62
     0
 10
978.55794575447635
 20
460.15765575960091
 30
0.0
 40
117.0
 50
179.999989999999
 51
211.27329999999699
  0
ARC
  5
9D65
  8
0
 62
     0
 10
866.55791575447643
 20
395.15765575960108
 30
0.0
 40
12.0
 50
270.0
 51
0.0
  0
ARC
  5
9D66
  8
0
 62
     0
 10
601.19168167908515
 20
409.74742837927448
 30
0.0
 40
10.0
 50
270.0
 51
0.0
  0
ARC
  5
9D67
  8
0
 62
     0
 10
943.04662575447605
 20
561.92078075960092
 30
0.0
 40
93.0
 50
136.44564000002109
 51
169.00000000000091
  0
ARC
  5
9D68
  8
0
 62
     0
 10
621.19168167908538
 20
649.96590837927442
 30
0.0
 40
10.0
 50
179.999989999999
 51
264.99999999999972
  0
ARC
  5
9D69
  8
0
 62
     0
 10
888.55794575447612
 20
355.15768575960101
 30
0.0
 40
5.0
 50
90.000002999984659
 51
180.00001000000091
  0
ARC
  5
9D6A
  8
0
 62
     0
 10
878.55794575447635
 20
378.15768575960089
 30
0.0
 40
5.0
 50
0.0
 51
90.000002999984659
  0
ARC
  5
9D6B
  8
0
 62
     0
 10
491.19168167908538
 20
455.67940337927462
 30
0.0
 40
10.0
 50
334.75946999998979
 51
0.0
  0
ARC
  5
9D6C
  8
0
 62
     0
 10
871.5579157544762
 20
604.09147575960071
 30
0.0
 40
10.0
 50
149.4639199999919
 51
180.00001000000091
  0
ARC
  5
9D6D
  8
0
 62
     0
 10
418.19168167908509
 20
378.44041837927477
 30
0.0
 40
5.0
 50
90.000002999984659
 51
180.00001000000091
  0
ARC
  5
9D6E
  8
0
 62
     0
 10
643.19168167908515
 20
387.10066837927462
 30
0.0
 40
5.0
 50
179.999989999999
 51
240.0000099999894
  0
ARC
  5
9D6F
  8
0
 62
     0
 10
945.55791575447643
 20
561.6240907596009
 30
0.0
 40
100.0
 50
134.59796000000421
 51
180.00001000000091
  0
ARC
  5
9D70
  8
0
 62
     0
 10
919.54860575447674
 20
379.15768575960078
 30
0.0
 40
10.0
 50
234.9999999999819
 51
270.0
  0
ARC
  5
9D71
  8
0
 62
     0
 10
893.55794575447646
 20
359.01553575960111
 30
0.0
 40
10.0
 50
135.0000000000087
 51
180.00001000000091
  0
ARC
  5
9D72
  8
0
 62
     0
 10
901.74840575447615
 20
367.20602575960112
 30
0.0
 40
10.0
 50
54.999998999998859
 51
135.0000000000087
  0
ARC
  5
9D73
  8
0
 62
     0
 10
978.55794575447635
 20
538.15769075960111
 30
0.0
 40
100.0
 50
0.0
 51
90.000002999984659
  0
ARC
  5
9D74
  8
0
 62
     0
 10
1138.557920754477
 20
378.15768575960089
 30
0.0
 40
5.0
 50
0.0
 51
90.000002999984659
  0
ARC
  5
9D75
  8
0
 62
     0
 10
978.55794575447635
 20
528.15769075960111
 30
0.0
 40
147.0
 50
45.402042999998763
 51
90.000002999984659
  0
ARC
  5
9D76
  8
0
 62
     0
 10
978.55794575447635
 20
528.15769075960111
 30
0.0
 40
142.0
 50
43.554364000005123
 51
90.000002999984659
  0
ARC
  5
9D77
  8
0
 62
     0
 10
978.55794575447635
 20
553.15769075960111
 30
0.0
 40
60.0
 50
270.0
 51
90.000002999984659
  0
ARC
  5
9D78
  8
0
 62
     0
 10
978.55794575447635
 20
460.15765575960091
 30
0.0
 40
117.0
 50
328.72670000000312
 51
0.0
  0
ARC
  5
9D79
  8
0
 62
     0
 10
1090.557915754476
 20
395.15765575960108
 30
0.0
 40
12.0
 50
180.00001000000091
 51
270.0
  0
ARC
  5
9D7A
  8
0
 62
     0
 10
1014.069240754476
 20
561.92078075960092
 30
0.0
 40
93.0
 50
10.999999999999041
 51
43.554364000005123
  0
ARC
  5
9D7B
  8
0
 62
     0
 10
1068.557915754476
 20
355.15768575960101
 30
0.0
 40
5.0
 50
0.0
 51
90.000002999984659
  0
ARC
  5
9D7C
  8
0
 62
     0
 10
1078.557915754476
 20
378.15768575960089
 30
0.0
 40
5.0
 50
90.000002999984659
 51
180.00001000000091
  0
ARC
  5
9D7D
  8
0
 62
     0
 10
1085.5579157544771
 20
604.09147575960071
 30
0.0
 40
10.0
 50
0.0
 51
30.536084999989409
  0
ARC
  5
9D7E
  8
0
 62
     0
 10
1011.557915754476
 20
561.6240907596009
 30
0.0
 40
100.0
 50
0.0
 51
45.402042999998763
  0
ARC
  5
9D7F
  8
0
 62
     0
 10
1037.567255754476
 20
379.15768575960078
 30
0.0
 40
10.0
 50
270.0
 51
305.00000000001802
  0
ARC
  5
9D80
  8
0
 62
     0
 10
1063.5579157544771
 20
359.01553575960111
 30
0.0
 40
10.0
 50
0.0
 51
45.000000999995002
  0
ARC
  5
9D81
  8
0
 62
     0
 10
1055.367425754476
 20
367.20602575960112
 30
0.0
 40
10.0
 50
45.000000999995002
 51
125.00000000001801
  0
CIRCLE
  5
9D82
  8
0
 62
     0
 10
978.55794575447635
 20
553.15769075960111
 30
0.0
 40
6.0
  0
CIRCLE
  5
9D83
  8
0
 62
     0
 10
978.55794575447635
 20
553.15769075960111
 30
0.0
 40
4.500000049999997
  0
ARC
  5
9D84
  8
0
 62
     0
 10
488.19168167908532
 20
673.15980837927452
 30
0.0
 40
2.0000000500000001
 50
91.999997999994264
 51
180.00001000000091
  0
ARC
  5
9D85
  8
0
 62
     0
 10
432.19173167908571
 20
622.44040837927446
 30
0.0
 40
2.0000000500000001
 50
179.999989999999
 51
270.0
  0
ARC
  5
9D86
  8
0
 62
     0
 10
428.19168167908521
 20
626.44040837927446
 30
0.0
 40
2.0000000500000001
 50
0.0
 51
90.000002999984659
  0
ARC
  5
9D87
  8
0
 62
     0
 10
468.19168167908521
 20
670.4404083792748
 30
0.0
 40
5.0
 50
90.000002999984659
 51
180.00001000000091
  0
ARC
  5
9D88
  8
0
 62
     0
 10
481.19168167908521
 20
655.89060837927411
 30
0.0
 40
5.0
 50
327.65255999999488
 51
0.0
  0
ARC
  5
9D89
  8
0
 62
     0
 10
481.69168167908521
 20
637.99025837927456
 30
0.0
 40
5.0
 50
147.65255999999479
 51
180.00001000000091
  0
ARC
  5
9D8A
  8
0
 62
     0
 10
428.19168167908521
 20
390.44038837927451
 30
0.0
 40
2.0000000500000001
 50
270.0
 51
0.0
  0
ARC
  5
9D8B
  8
0
 62
     0
 10
461.19168167908521
 20
622.44040837927446
 30
0.0
 40
2.0000000500000001
 50
270.0
 51
0.0
  0
ARC
  5
9D8C
  8
0
 62
     0
 10
432.19173167908571
 20
394.44041837927477
 30
0.0
 40
2.0000000500000001
 50
90.000002999984659
 51
180.00001000000091
  0
ARC
  5
9D8D
  8
0
 62
     0
 10
474.69173167908571
 20
622.44040837927446
 30
0.0
 40
2.0000000500000001
 50
270.0
 51
0.0
  0
CIRCLE
  5
9D8E
  8
0
 62
     0
 10
478.19168167908521
 20
701.44040837927446
 30
0.0
 40
15.0
  0
ARC
  5
9D8F
  8
0
 62
     0
 10
478.19168167908521
 20
701.44040837927446
 30
0.0
 40
25.000000499999999
 50
306.46671999999938
 51
233.5332899999847
  0
ARC
  5
9D90
  8
0
 62
     0
 10
468.90813167908601
 20
683.58050837927465
 30
0.0
 40
1.0
 50
101.21328999999329
 51
164.99998999999789
  0
ARC
  5
9D91
  8
0
 62
     0
 10
487.47533167908563
 20
683.58050837927465
 30
0.0
 40
1.0
 50
14.99999999999447
 51
78.786710000006536
  0
ARC
  5
9D92
  8
0
 62
     0
 10
459.76663167908561
 20
676.51015837927423
 30
0.0
 40
6.0
 50
349.72994999999918
 51
53.533291000006017
  0
ARC
  5
9D93
  8
0
 62
     0
 10
496.61668167908522
 20
676.51015837927423
 30
0.0
 40
6.0
 50
126.4666999999943
 51
190.2700600000054
  0
ARC
  5
9D94
  8
0
 62
     0
 10
428.19168167908521
 20
606.1676083792745
 30
0.0
 40
2.0000000500000001
 50
0.0
 51
90.000002999984659
  0
ARC
  5
9D95
  8
0
 62
     0
 10
428.19168167908521
 20
590.61125837927455
 30
0.0
 40
2.0000000500000001
 50
0.0
 51
90.000002999984659
  0
ARC
  5
9D96
  8
0
 62
     0
 10
428.19168167908521
 20
426.2695533792745
 30
0.0
 40
2.0000000500000001
 50
270.0
 51
0.0
  0
ARC
  5
9D97
  8
0
 62
     0
 10
428.19168167908521
 20
410.71318337927448
 30
0.0
 40
2.0000000500000001
 50
270.0
 51
0.0
  0
ARC
  5
9D98
  8
0
 62
     0
 10
777.06472575447674
 20
447.54822075960089
 30
0.0
 40
1.5
 50
153.5032300000112
 51
243.50012000000109
  0
ARC
  5
9D99
  8
0
 62
     0
 10
838.18868075447665
 20
570.16116575960098
 30
0.0
 40
1.5
 50
63.506334000000059
 51
153.5032300000112
  0
ARC
  5
9D9A
  8
0
 62
     0
 10
792.10122575447633
 20
449.80161075960098
 30
0.0
 40
1.0
 50
359.99976000000191
 51
90.000097999994225
  0
ARC
  5
9D9B
  8
0
 62
     0
 10
789.7316757544769
 20
528.82919575960068
 30
0.0
 40
12.0
 50
135.0000000000087
 51
180.00001000000091
  0
ARC
  5
9D9C
  8
0
 62
     0
 10
816.11637575447605
 20
553.79975075960056
 30
0.0
 40
12.999999000000001
 50
90.000002999984659
 51
135.0000000000087
  0
LINE
  5
9DA7
  8
0
  6
AM_ISO08W050
 62
     0
 10
978.55794575447817
 20
354.43071038543502
 30
0.0
 11
978.55794575447817
 21
729.15697575960144
 31
0.0
  0
LINE
  5
9DA8
  8
0
  6
AM_ISO08W050
 62
     0
 10
846.05794575447715
 20
387.81894075960122
 30
0.0
 11
846.05794575447715
 21
350.15768575960118
 31
0.0
  0
LINE
  5
9DA9
  8
0
  6
ACANSTGLM
 62
     0
 10
836.55791575447665
 20
383.15768575960118
 30
0.0
 11
836.55791575447665
 21
353.15768575960118
 31
0.0
  0
LINE
  5
9DAA
  8
0
  6
ACANSTGLM
 62
     0
 10
855.55791575447711
 20
383.15768575960118
 30
0.0
 11
855.55791575447711
 21
353.15768575960118
 31
0.0
  0
LINE
  5
9DAB
  8
0
  6
AM_ISO08W050
 62
     0
 10
1111.057920754477
 20
387.81894075960122
 30
0.0
 11
1111.057920754477
 21
350.15768575960118
 31
0.0
  0
LINE
  5
9DAC
  8
0
  6
ACANSTGLM
 62
     0
 10
1101.557935754478
 20
383.15768575960118
 30
0.0
 11
1101.557935754478
 21
353.15768575960118
 31
0.0
  0
LINE
  5
9DAD
  8
0
  6
ACANSTGLM
 62
     0
 10
1120.5579207544761
 20
383.15768575960118
 30
0.0
 11
1120.5579207544761
 21
353.15768575960118
 31
0.0
  0
LINE
  5
9DAE
  8
0
  6
AM_ISO08W050
 62
     0
 10
1066.682161519522
 20
553.15769075960111
 30
0.0
 11
890.43372998943039
 21
553.15769075960111
 31
0.0
  0
LINE
  5
9DBB
  8
0
  6
AM_ISO08W050
 62
     0
 10
451.26190464565832
 20
553.15769075960111
 30
0.0
 11
745.17911281926524
 21
553.15769075960111
 31
0.0
  0
LINE
  5
9DBC
  8
0
  6
AM_ISO08W050
 62
     0
 10
443.19168167908521
 20
387.0655557596013
 30
0.0
 11
443.19168167908521
 21
350.15768575960118
 31
0.0
  0
LINE
  5
9DBD
  8
0
  6
ACANSTGLM
 62
     0
 10
452.69168167908521
 20
383.44041837927477
 30
0.0
 11
452.69168167908521
 21
353.44041837927477
 31
0.0
  0
LINE
  5
9DBE
  8
0
  6
ACANSTGLM
 62
     0
 10
433.69168167908617
 20
383.44041837927477
 30
0.0
 11
433.69168167908617
 21
353.44041837927477
 31
0.0
  0
LINE
  5
9DBF
  8
0
  6
AM_ISO08W050
 62
     0
 10
613.19168167908526
 20
387.0655557596013
 30
0.0
 11
613.19168167908526
 21
350.15768575960118
 31
0.0
  0
LINE
  5
9DC0
  8
0
  6
ACANSTGLM
 62
     0
 10
603.69168167908538
 20
383.44041837927477
 30
0.0
 11
603.69168167908538
 21
353.44041837927477
 31
0.0
  0
LINE
  5
9DC1
  8
0
  6
ACANSTGLM
 62
     0
 10
622.69168167908515
 20
383.44041837927477
 30
0.0
 11
622.69168167908515
 21
353.44041837927477
 31
0.0
  0
LINE
  5
9DC2
  8
0
  6
AM_ISO08W050
 62
     0
 10
470.80575173689061
 20
508.15769325960088
 30
0.0
 11
56.470382656888411
 21
508.15769325960088
 31
0.0
  0
ARC
  5
ABE4
  8
0
 62
     0
 10
179.19171967908591
 20
639.70769725960099
 30
0.0
 40
2.0
 50
90.000002999984659
 51
159.5034000000031
  0
ARC
  5
ABE5
  8
0
 62
     0
 10
174.10707567908591
 20
620.16170625960103
 30
0.0
 40
10.0
 50
90.000002999984659
 51
98.136523000008793
  0
ARC
  5
ABE6
  8
0
 62
     0
 10
174.29462567908601
 20
630.40799925960096
 30
0.0
 40
10.0
 50
90.000002999984659
 51
99.223570000004045
  0
ARC
  5
ABE7
  8
0
 62
     0
 10
174.224373679086
 20
626.53420325960076
 30
0.0
 40
10.0
 50
89.999996999989278
 51
98.816015000012186
  0
ARC
  5
ABE8
  8
0
 62
     0
 10
173.94240267908589
 20
611.41449825960103
 30
0.0
 40
10.0
 50
90.000002999984659
 51
97.184508999991394
  0
ARC
  5
ABE9
  8
0
 62
     0
 10
173.73042767908601
 20
600.46293025960097
 30
0.0
 40
10.0
 50
90.000002999984659
 51
95.961922000009963
  0
LINE
  5
ABEA
  8
0
 62
     0
 10
172.69175267908551
 20
562.47736525960113
 30
0.0
 11
241.1750856790859
 21
562.47736525960113
 31
0.0
  0
ARC
  5
ABEB
  8
0
 62
     0
 10
190.1103106790861
 20
555.09971025960078
 30
0.0
 40
3.0
 50
89.999998999979056
 51
180.00000899999941
  0
ARC
  5
ABEC
  8
0
 62
     0
 10
184.11031067908601
 20
554.13923025960094
 30
0.0
 40
3.0
 50
0.0
 51
105.7135969999852
  0
LINE
  5
ABED
  8
0
 62
     0
 10
187.11027067908589
 20
558.09969125960106
 30
0.0
 11
172.69175267908551
 21
554.04313625960094
 31
0.0
  0
LINE
  5
ABEE
  8
0
 62
     0
 10
187.1103106790861
 20
558.0997102596009
 30
0.0
 11
234.32444367908599
 21
558.0997102596009
 31
0.0
  0
LINE
  5
ABEF
  8
0
 62
     0
 10
187.1103106790861
 20
508.15769325960088
 30
0.0
 11
187.1103106790861
 21
554.13923025960094
 31
0.0
  0
LINE
  5
ABF0
  8
0
 62
     0
 10
327.99856767908608
 20
437.46804125960091
 30
0.0
 11
396.31905167908599
 21
437.46804125960091
 31
0.0
  0
LINE
  5
ABF1
  8
0
 62
     0
 10
172.69175267908551
 20
372.15769325960088
 30
0.0
 11
172.69175267908551
 21
644.15769325960093
 31
0.0
  0
ARC
  5
ABF2
  8
0
 62
     0
 10
78.341752679085857
 20
468.08769325960083
 30
0.0
 40
3.0
 50
180.0
 51
270.0
  0
ARC
  5
ABF3
  8
0
 62
     0
 10
81.691752679085994
 20
393.92096325960091
 30
0.0
 40
11.0
 50
180.0
 51
199.9999999999994
  0
ARC
  5
ABF4
  8
0
 62
     0
 10
80.00760267908619
 20
375.1576932596011
 30
0.0
 40
3.0
 50
199.9999999999994
 51
270.0
  0
LINE
  5
ABF5
  8
0
 62
     0
 10
71.355134679085936
 20
390.1587412596009
 30
0.0
 11
77.188524679085944
 21
374.1316332596009
 31
0.0
  0
LINE
  5
ABF6
  8
0
 62
     0
 10
77.906979679085907
 20
377.2995112596011
 30
0.0
 11
77.906979679085907
 21
462.00006825960088
 31
0.0
  0
LINE
  5
ABF7
  8
0
 62
     0
 10
172.69175267908551
 20
465.087693259601
 30
0.0
 11
78.341752679085857
 21
465.087693259601
 31
0.0
  0
LINE
  5
ABF8
  8
0
 62
     0
 10
80.00760267908619
 20
372.15769325960088
 30
0.0
 11
172.69175267908551
 21
372.15769325960088
 31
0.0
  0
ARC
  5
ABF9
  8
0
 62
     0
 10
78.341752679085857
 20
548.22769325960087
 30
0.0
 40
3.0
 50
90.0
 51
180.0
  0
LINE
  5
ABFA
  8
0
 62
     0
 10
71.355134679085936
 20
626.15664525960074
 30
0.0
 11
77.188524679085944
 21
642.18375325960085
 31
0.0
  0
ARC
  5
ABFB
  8
0
 62
     0
 10
80.00760267908619
 20
641.15769325960093
 30
0.0
 40
3.0
 50
90.0
 51
160.00000000000051
  0
ARC
  5
ABFC
  8
0
 62
     0
 10
81.691752679085994
 20
622.39442325960101
 30
0.0
 40
11.0
 50
160.00000000000051
 51
180.0
  0
LINE
  5
ABFD
  8
0
 62
     0
 10
77.906979679085907
 20
639.01587525960088
 30
0.0
 11
77.906979679085907
 21
554.3153182596011
 31
0.0
  0
LINE
  5
ABFE
  8
0
 62
     0
 10
70.691752679085994
 20
393.92096325960091
 30
0.0
 11
70.691752679085994
 21
622.39442325960101
 31
0.0
  0
LINE
  5
ABFF
  8
0
 62
     0
 10
75.341752679085857
 20
468.08769325960083
 30
0.0
 11
75.341752679085857
 21
548.22769325960087
 31
0.0
  0
LINE
  5
AC00
  8
0
 62
     0
 10
172.69175267908551
 20
551.22769325960076
 30
0.0
 11
78.341752679085857
 21
551.22769325960076
 31
0.0
  0
LINE
  5
AC01
  8
0
 62
     0
 10
80.00760267908619
 20
644.15769325960093
 30
0.0
 11
172.69175267908551
 21
644.15769325960093
 31
0.0
  0
ARC
  5
AC02
  8
0
 62
     0
 10
173.94240267908589
 20
404.90088825960112
 30
0.0
 40
10.0
 50
262.81549099998227
 51
269.99999699998932
  0
ARC
  5
AC03
  8
0
 62
     0
 10
174.10707567908591
 20
396.15368025960112
 30
0.0
 40
10.0
 50
261.86347699999118
 51
269.99999699998932
  0
ARC
  5
AC04
  8
0
 62
     0
 10
184.11031067908601
 20
462.17615625960087
 30
0.0
 40
3.0
 50
254.28640300001479
 51
0.0
  0
ARC
  5
AC05
  8
0
 62
     0
 10
190.1103106790861
 20
461.21567625960091
 30
0.0
 40
3.0
 50
179.99999100000039
 51
270.00000099999488
  0
ARC
  5
AC06
  8
0
 62
     0
 10
173.73042767908601
 20
415.85245625960079
 30
0.0
 40
10.0
 50
264.03807799999009
 51
269.99999699998932
  0
LINE
  5
AC07
  8
0
 62
     0
 10
187.11027067908589
 20
458.21569525960092
 30
0.0
 11
172.69175267908551
 21
462.27225025960092
 31
0.0
  0
LINE
  5
AC08
  8
0
 62
     0
 10
187.1103106790861
 20
458.2156762596008
 30
0.0
 11
229.1917316790859
 21
458.2156762596008
 31
0.0
  0
LINE
  5
AC09
  8
0
 62
     0
 10
187.1103106790861
 20
508.15769325960088
 30
0.0
 11
187.1103106790861
 21
462.17615625960087
 31
0.0
  0
LINE
  5
AC0A
  8
0
 62
     0
 10
172.69175267908551
 20
449.31470625960071
 30
0.0
 11
229.95642767908589
 21
449.31470625960071
 31
0.0
  0
LINE
  5
AC0B
  8
0
 62
     0
 10
172.69175267908551
 20
453.83802125960108
 30
0.0
 11
229.20411167908611
 21
453.83802125960108
 31
0.0
  0
LINE
  5
AC0C
  8
0
 62
     0
 10
236.1917316790859
 20
455.12269725960078
 30
0.0
 11
236.1917316790859
 21
547.65770125960091
 31
0.0
  0
LINE
  5
AC0D
  8
0
 62
     0
 10
229.1917316790859
 20
545.51269625960094
 30
0.0
 11
229.1917316790859
 21
523.6396952596009
 31
0.0
  0
LINE
  5
AC0E
  8
0
 62
     0
 10
229.1917316790859
 20
485.39089325960077
 30
0.0
 11
229.1917316790859
 21
454.50549425960082
 31
0.0
  0
LINE
  5
AC0F
  8
0
 62
     0
 10
333.1912276790859
 20
455.12269725960078
 30
0.0
 11
333.1912276790859
 21
547.65770125960091
 31
0.0
  0
LINE
  5
AC10
  8
0
 62
     0
 10
340.19122767908573
 20
545.51269625960094
 30
0.0
 11
340.19122767908573
 21
523.67069325960085
 31
0.0
  0
LINE
  5
AC11
  8
0
 62
     0
 10
340.19122767908573
 20
485.39539425960078
 30
0.0
 11
340.19122767908573
 21
454.50549425960082
 31
0.0
  0
LINE
  5
AC12
  8
0
 62
     0
 10
322.19122767908573
 20
563.51269625960094
 30
0.0
 11
247.1917316790859
 21
563.51269625960094
 31
0.0
  0
LINE
  5
AC13
  8
0
 62
     0
 10
322.19122767908573
 20
558.6577012596008
 30
0.0
 11
247.1917316790859
 21
558.6577012596008
 31
0.0
  0
LINE
  5
AC14
  8
0
 62
     0
 10
322.19122767908573
 20
520.68769225960114
 30
0.0
 11
247.1917316790859
 21
520.68769225960114
 31
0.0
  0
LINE
  5
AC15
  8
0
 62
     0
 10
322.19122767908573
 20
444.12282725960108
 30
0.0
 11
247.1917316790859
 21
444.12282725960108
 31
0.0
  0
LINE
  5
AC16
  8
0
 62
     0
 10
322.19122767908573
 20
438.47269525960093
 30
0.0
 11
247.1917316790859
 21
438.47269525960093
 31
0.0
  0
LINE
  5
AC17
  8
0
 62
     0
 10
322.19122767908573
 20
436.50549425960088
 30
0.0
 11
247.1917316790859
 21
436.50549425960088
 31
0.0
  0
ARC
  5
AC18
  8
0
 62
     0
 10
247.1917316790859
 20
545.51269625960094
 30
0.0
 40
18.0
 50
90.0
 51
179.99998199999749
  0
ARC
  5
AC19
  8
0
 62
     0
 10
247.1917316790859
 20
547.65770125960091
 30
0.0
 40
11.0
 50
90.0
 51
179.99998199999749
  0
ARC
  5
AC1A
  8
0
 62
     0
 10
247.1917316790859
 20
455.12269725960078
 30
0.0
 40
11.0
 50
179.99998199999749
 51
269.99996400000163
  0
ARC
  5
AC1B
  8
0
 62
     0
 10
247.1917316790859
 20
454.50549425960082
 30
0.0
 40
18.0
 50
179.99998199999749
 51
269.99996400000163
  0
ARC
  5
AC1C
  8
0
 62
     0
 10
247.1917316790859
 20
456.47269525960093
 30
0.0
 40
18.0
 50
179.99998199999749
 51
269.99996400000163
  0
ARC
  5
AC1D
  8
0
 62
     0
 10
234.6917316790859
 20
504.51569525960088
 30
0.0
 40
15.000003
 50
127.16889200000681
 51
232.83097600000301
  0
ARC
  5
AC1E
  8
0
 62
     0
 10
322.19122767908573
 20
545.51269625960094
 30
0.0
 40
18.0
 50
359.99993599999812
 51
89.999950999989878
  0
ARC
  5
AC1F
  8
0
 62
     0
 10
322.19122767908573
 20
547.65770125960091
 30
0.0
 40
11.0
 50
0.0000179999992061
 51
89.999959999995966
  0
ARC
  5
AC20
  8
0
 62
     0
 10
322.19122767908573
 20
455.12269725960078
 30
0.0
 40
11.0
 50
269.9999949999995
 51
359.99994299999821
  0
ARC
  5
AC21
  8
0
 62
     0
 10
322.19122767908573
 20
454.50549425960082
 30
0.0
 40
18.0
 50
270.00000899998008
 51
359.99994299999821
  0
ARC
  5
AC22
  8
0
 62
     0
 10
322.19122767908573
 20
456.47269525960093
 30
0.0
 40
18.0
 50
270.00000899998008
 51
359.99994299999821
  0
ARC
  5
AC23
  8
0
 62
     0
 10
247.1917316790859
 20
509.68769225960091
 30
0.0
 40
11.0
 50
90.0
 51
179.99998199999749
  0
ARC
  5
AC24
  8
0
 62
     0
 10
322.19122767908573
 20
509.68769225960091
 30
0.0
 40
11.0
 50
359.99994299999821
 51
89.999959999995966
  0
ARC
  5
AC25
  8
0
 62
     0
 10
220.1917316790859
 20
523.6396952596009
 30
0.0
 40
9.000003999999997
 50
307.16898300000742
 51
359.99993599999812
  0
ARC
  5
AC26
  8
0
 62
     0
 10
220.1917316790859
 20
485.39089325960077
 30
0.0
 40
9.0
 50
359.99993599999812
 51
52.830968000003928
  0
ARC
  5
AC27
  8
0
 62
     0
 10
349.19122767908578
 20
523.6396952596009
 30
0.0
 40
9.0
 50
179.99998199999749
 51
232.83098999999589
  0
ARC
  5
AC28
  8
0
 62
     0
 10
334.69122767908573
 20
504.51569525960088
 30
0.0
 40
15.0
 50
307.16895599999509
 51
52.830964000003732
  0
ARC
  5
AC29
  8
0
 62
     0
 10
349.19122767908578
 20
485.39089325960077
 30
0.0
 40
9.0000009999999975
 50
127.16889600000439
 51
179.99998199999749
  0
LINE
  5
AC2A
  8
0
 62
     0
 10
174.29462567908601
 20
375.90738725960091
 30
0.0
 11
395.08881567908571
 21
375.90738725960091
 31
0.0
  0
LINE
  5
AC2B
  8
0
 62
     0
 10
179.19171967908591
 20
374.60768925960087
 30
0.0
 11
390.19171967908602
 21
374.60768925960087
 31
0.0
  0
ARC
  5
AC2C
  8
0
 62
     0
 10
179.19171967908591
 20
376.60768925960087
 30
0.0
 40
2.0
 50
200.4965999999969
 51
269.99999699998932
  0
ARC
  5
AC2D
  8
0
 62
     0
 10
174.29462567908601
 20
385.90738725960091
 30
0.0
 40
10.0
 50
260.77642999999591
 51
269.99999699998932
  0
LINE
  5
AC2E
  8
0
 62
     0
 10
417.19173167908582
 20
623.15770725960101
 30
0.0
 11
415.19175967908569
 21
623.17170525960114
 31
0.0
  0
LINE
  5
AC2F
  8
0
 62
     0
 10
415.19173167908571
 20
628.83135325960075
 30
0.0
 11
415.19173167908571
 21
612.712061259601
 31
0.0
  0
LINE
  5
AC30
  8
0
 62
     0
 10
399.35040967908623
 20
578.37686125960113
 30
0.0
 11
413.79805567908539
 21
573.78112125960104
 31
0.0
  0
LINE
  5
AC31
  8
0
 62
     0
 10
399.05569567908623
 20
562.18393725960095
 30
0.0
 11
413.67269567908562
 21
558.56264525960091
 31
0.0
  0
LINE
  5
AC32
  8
0
 62
     0
 10
398.6933436790859
 20
544.83098925960076
 30
0.0
 11
413.52286967908572
 21
542.34123125960093
 31
0.0
  0
LINE
  5
AC33
  8
0
 62
     0
 10
398.29279767908611
 20
526.7084932596008
 30
0.0
 11
413.36063967908598
 21
525.4311612596008
 31
0.0
  0
LINE
  5
AC34
  8
0
 62
     0
 10
340.19122767908573
 20
544.96903325960079
 30
0.0
 11
397.03755767908609
 21
544.96903325960079
 31
0.0
  0
LINE
  5
AC35
  8
0
 62
     0
 10
415.19173167908571
 20
567.00068125960104
 30
0.0
 11
415.19173167908571
 21
571.87519125960102
 31
0.0
  0
LINE
  5
AC36
  8
0
 62
     0
 10
415.19173167908571
 20
552.54755525960093
 30
0.0
 11
415.19173167908571
 21
556.6213172596008
 31
0.0
  0
LINE
  5
AC37
  8
0
 62
     0
 10
415.19173167908571
 20
537.23041725960093
 30
0.0
 11
415.19173167908571
 21
540.3688452596009
 31
0.0
  0
LINE
  5
AC38
  8
0
 62
     0
 10
340.19122767908573
 20
537.23041725960093
 30
0.0
 11
412.19173167908571
 21
537.23041725960093
 31
0.0
  0
LINE
  5
AC39
  8
0
 62
     0
 10
338.75959467908569
 20
552.54755525960093
 30
0.0
 11
412.19173167908571
 21
552.54755525960093
 31
0.0
  0
LINE
  5
AC3A
  8
0
 62
     0
 10
172.69175267908551
 20
567.00068125960104
 30
0.0
 11
412.19173167908571
 21
567.00068125960104
 31
0.0
  0
LINE
  5
AC3B
  8
0
 62
     0
 10
340.48804867908581
 20
521.34739125960095
 30
0.0
 11
412.19173167908571
 21
521.34739125960095
 31
0.0
  0
LINE
  5
AC3C
  8
0
 62
     0
 10
397.87124567908592
 20
510.22446525960089
 30
0.0
 11
413.74653367908581
 21
509.65670725960092
 31
0.0
  0
LINE
  5
AC3D
  8
0
 62
     0
 10
397.87117567908581
 20
510.22450525960107
 30
0.0
 11
348.23886567908579
 21
510.9547572596008
 31
0.0
  0
LINE
  5
AC3E
  8
0
 62
     0
 10
415.19173167908571
 20
521.34739125960095
 30
0.0
 11
415.19173167908571
 21
523.43833325960077
 31
0.0
  0
LINE
  5
AC3F
  8
0
 62
     0
 10
340.19122767908573
 20
526.74424125960093
 30
0.0
 11
397.44807967908571
 21
526.74424125960093
 31
0.0
  0
LINE
  5
AC40
  8
0
 62
     0
 10
299.69173167908599
 20
595.0019612596011
 30
0.0
 11
299.69173167908599
 21
609.46292925960086
 31
0.0
  0
LINE
  5
AC41
  8
0
 62
     0
 10
172.69175267908551
 20
580.30848125960097
 30
0.0
 11
417.19173167908582
 21
580.30848125960097
 31
0.0
  0
LINE
  5
AC42
  8
0
 62
     0
 10
172.69175267908551
 20
594.00196125960076
 30
0.0
 11
395.98341967908573
 21
594.00196125960076
 31
0.0
  0
LINE
  5
AC43
  8
0
 62
     0
 10
407.07240967908592
 20
590.39948325960074
 30
0.0
 11
417.19173167908582
 21
590.39948325960074
 31
0.0
  0
LINE
  5
AC44
  8
0
 62
     0
 10
407.07235967908571
 20
590.39948325960074
 30
0.0
 11
399.6291716790862
 21
593.31368125960103
 31
0.0
  0
LINE
  5
AC45
  8
0
 62
     0
 10
173.73042767908601
 20
610.46292925960074
 30
0.0
 11
395.6530356790858
 21
610.46292925960074
 31
0.0
  0
LINE
  5
AC46
  8
0
 62
     0
 10
407.07239767908578
 20
606.16968125960102
 30
0.0
 11
399.8814376790861
 21
609.52499925960103
 31
0.0
  0
LINE
  5
AC47
  8
0
 62
     0
 10
300.69173167908588
 20
606.16967125960093
 30
0.0
 11
417.19173167908582
 21
606.16967125960093
 31
0.0
  0
LINE
  5
AC48
  8
0
 62
     0
 10
173.94240267908589
 20
621.41449925960103
 30
0.0
 11
395.44106167908598
 21
621.41449925960103
 31
0.0
  0
LINE
  5
AC49
  8
0
 62
     0
 10
414.10959767908599
 20
613.02654325960111
 30
0.0
 11
400.03041567908571
 21
620.29916125960119
 31
0.0
  0
LINE
  5
AC4A
  8
0
 62
     0
 10
415.19173167908571
 20
611.24962725960086
 30
0.0
 11
415.19173167908571
 21
606.16967125960093
 31
0.0
  0
LINE
  5
AC4B
  8
0
 62
     0
 10
174.10707567908591
 20
630.16170725960114
 30
0.0
 11
395.27638767908587
 21
630.16170725960114
 31
0.0
  0
LINE
  5
AC4C
  8
0
 62
     0
 10
400.13875367908571
 20
628.89992925960098
 30
0.0
 11
414.16418567908602
 21
621.09551325960115
 31
0.0
  0
LINE
  5
AC4D
  8
0
 62
     0
 10
174.224373679086
 20
636.5342032596011
 30
0.0
 11
395.1590776790859
 21
636.5342032596011
 31
0.0
  0
LINE
  5
AC4E
  8
0
 62
     0
 10
414.202241679086
 20
626.97220325960097
 30
0.0
 11
400.2117476790857
 21
635.16379125960111
 31
0.0
  0
LINE
  5
AC4F
  8
0
 62
     0
 10
174.29462567908601
 20
640.40799925960096
 30
0.0
 11
395.08882767908608
 21
640.40799925960096
 31
0.0
  0
LINE
  5
AC50
  8
0
 62
     0
 10
414.2247176790861
 20
630.54396125960102
 30
0.0
 11
400.25380167908571
 21
638.97092725960101
 31
0.0
  0
LINE
  5
AC51
  8
0
 62
     0
 10
179.19171967908591
 20
641.70769725960065
 30
0.0
 11
390.19173167908571
 21
641.70769725960065
 31
0.0
  0
LINE
  5
AC52
  8
0
 62
     0
 10
268.69173167908588
 20
606.16967125960093
 30
0.0
 11
172.69175267908551
 21
606.16967125960093
 31
0.0
  0
LINE
  5
AC53
  8
0
 62
     0
 10
269.69173167908588
 20
595.0019612596011
 30
0.0
 11
269.69173167908588
 21
609.46292925960086
 31
0.0
  0
LINE
  5
AC54
  8
0
 62
     0
 10
273.19173167908588
 20
645.15769325960093
 30
0.0
 11
296.19173167908588
 21
645.15769325960093
 31
0.0
  0
LINE
  5
AC55
  8
0
 62
     0
 10
273.19173167908588
 20
645.15769325960093
 30
0.0
 11
273.19173167908588
 21
641.70769725960065
 31
0.0
  0
LINE
  5
AC56
  8
0
 62
     0
 10
296.19173167908588
 20
645.15769325960093
 30
0.0
 11
296.19173167908588
 21
641.70769725960065
 31
0.0
  0
ARC
  5
AC57
  8
0
 62
     0
 10
413.19173167908582
 20
523.43833325960077
 30
0.0
 40
2.0
 50
0.0
 51
85.15449600000494
  0
ARC
  5
AC58
  8
0
 62
     0
 10
413.19173167908582
 20
540.3688452596009
 30
0.0
 40
2.0
 50
0.0
 51
80.469389000002764
  0
ARC
  5
AC59
  8
0
 62
     0
 10
413.19173167908582
 20
556.6213172596008
 30
0.0
 40
2.0
 50
0.0
 51
76.085411000000192
  0
ARC
  5
AC5A
  8
0
 62
     0
 10
413.19173167908582
 20
571.87519125960102
 30
0.0
 40
2.0
 50
0.0
 51
72.354331999997086
  0
ARC
  5
AC5B
  8
0
 62
     0
 10
396.31905167908599
 20
568.84735925960103
 30
0.0
 40
10.0
 50
72.354331999997086
 51
90.000002999984659
  0
ARC
  5
AC5C
  8
0
 62
     0
 10
396.65096167908592
 20
552.47736525960113
 30
0.0
 40
10.0
 50
76.085411000000192
 51
90.000002999984659
  0
ARC
  5
AC5D
  8
0
 62
     0
 10
397.03755767908609
 20
534.96903325960091
 30
0.0
 40
10.0
 50
80.469389000002764
 51
90.000002999984659
  0
ARC
  5
AC5E
  8
0
 62
     0
 10
397.44807967908571
 20
516.74424125960093
 30
0.0
 40
10.0
 50
85.15449600000494
 51
90.000002999984659
  0
ARC
  5
AC5F
  8
0
 62
     0
 10
413.6929536790858
 20
508.15650325960092
 30
0.0
 40
1.498794
 50
0.0454979999978255
 51
90.000002999984659
  0
ARC
  5
AC60
  8
0
 62
     0
 10
395.98341967908573
 20
584.0019612596011
 30
0.0
 40
10.0
 50
68.618381999996089
 51
90.000002999984659
  0
ARC
  5
AC61
  8
0
 62
     0
 10
395.6530356790858
 20
600.46292925960097
 30
0.0
 40
10.0
 50
64.986141999999674
 51
90.000002999984659
  0
ARC
  5
AC62
  8
0
 62
     0
 10
395.44106167908598
 20
611.41449925960103
 30
0.0
 40
10.0
 50
62.681328999998208
 51
90.000002999984659
  0
ARC
  5
AC63
  8
0
 62
     0
 10
413.19173167908582
 20
611.24962725960086
 30
0.0
 40
2.0
 50
0.0
 51
62.681328999998208
  0
ARC
  5
AC64
  8
0
 62
     0
 10
395.27638767908587
 20
620.16170725960114
 30
0.0
 40
10.0
 50
60.90636100001155
 51
90.000002999984659
  0
ARC
  5
AC65
  8
0
 62
     0
 10
413.19173167908582
 20
619.34787925960086
 30
0.0
 40
2.0
 50
0.0
 51
60.90636100001155
  0
ARC
  5
AC66
  8
0
 62
     0
 10
395.1590776790859
 20
626.53420325960076
 30
0.0
 40
10.0
 50
59.650562000004939
 51
90.000002999984659
  0
ARC
  5
AC67
  8
0
 62
     0
 10
413.19173167908582
 20
625.24630125960095
 30
0.0
 40
2.0
 50
0.0
 51
59.650562000004939
  0
ARC
  5
AC68
  8
0
 62
     0
 10
413.19173167908582
 20
628.83135325960075
 30
0.0
 40
2.0
 50
0.0
 51
58.902493000011233
  0
ARC
  5
AC69
  8
0
 62
     0
 10
395.08882767908608
 20
630.40799925960096
 30
0.0
 40
10.0
 50
58.902493000011233
 51
90.000002999984659
  0
ARC
  5
AC6A
  8
0
 62
     0
 10
390.19173167908571
 20
639.70769725960099
 30
0.0
 40
2.0
 50
20.496599000003329
 51
90.000002999984659
  0
ARC
  5
AC6B
  8
0
 62
     0
 10
300.69173167908588
 20
595.0019612596011
 30
0.0
 40
1.0
 50
179.9999949999995
 51
269.99999699998932
  0
ARC
  5
AC6C
  8
0
 62
     0
 10
268.69173167908588
 20
595.0019612596011
 30
0.0
 40
1.0
 50
269.99999699998932
 51
0.0
  0
ARC
  5
AC6D
  8
0
 62
     0
 10
300.69173167908588
 20
605.16967125960093
 30
0.0
 40
1.0
 50
89.999998999979056
 51
180.00000899999941
  0
ARC
  5
AC6E
  8
0
 62
     0
 10
268.69173167908588
 20
605.16967125960093
 30
0.0
 40
1.0
 50
0.0
 51
90.000002999984659
  0
ARC
  5
AC6F
  8
0
 62
     0
 10
300.69173167908588
 20
609.46292925960086
 30
0.0
 40
1.0
 50
89.999998999979056
 51
180.00000899999941
  0
ARC
  5
AC70
  8
0
 62
     0
 10
268.69173167908588
 20
609.46292925960086
 30
0.0
 40
1.0
 50
0.0
 51
90.000002999984659
  0
LINE
  5
AC71
  8
0
 62
     0
 10
328.20787367908588
 20
562.47736525960113
 30
0.0
 11
396.65096167908592
 21
562.47736525960113
 31
0.0
  0
LINE
  5
AC72
  8
0
 62
     0
 10
172.69175267908551
 20
578.84734525960096
 30
0.0
 11
396.31905167908599
 21
578.84734525960096
 31
0.0
  0
LINE
  5
AC73
  8
0
 62
     0
 10
417.19173167908582
 20
393.15767925960091
 30
0.0
 11
415.19175967908569
 21
393.14368125960112
 31
0.0
  0
LINE
  5
AC74
  8
0
 62
     0
 10
415.19173167908571
 20
387.48403325960112
 30
0.0
 11
415.19173167908571
 21
403.60332525960092
 31
0.0
  0
LINE
  5
AC75
  8
0
 62
     0
 10
172.69175267908551
 20
437.46804125960091
 30
0.0
 11
241.38439267908601
 21
437.46804125960091
 31
0.0
  0
LINE
  5
AC76
  8
0
 62
     0
 10
399.35040967908623
 20
437.93852525960091
 30
0.0
 11
413.79805567908539
 21
442.53426525960077
 31
0.0
  0
LINE
  5
AC77
  8
0
 62
     0
 10
399.05569567908623
 20
454.13144925960091
 30
0.0
 11
413.67269567908562
 21
457.75274125960078
 31
0.0
  0
LINE
  5
AC78
  8
0
 62
     0
 10
398.6933436790859
 20
471.484397259601
 30
0.0
 11
413.52286967908572
 21
473.97415525960088
 31
0.0
  0
LINE
  5
AC79
  8
0
 62
     0
 10
398.29279767908611
 20
489.60689325960078
 30
0.0
 11
413.36063967908598
 21
490.88422525960078
 31
0.0
  0
LINE
  5
AC7A
  8
0
 62
     0
 10
340.19122767908573
 20
471.3463532596009
 30
0.0
 11
397.03755767908609
 21
471.3463532596009
 31
0.0
  0
LINE
  5
AC7B
  8
0
 62
     0
 10
415.19173167908571
 20
449.31470525960071
 30
0.0
 11
415.19173167908571
 21
444.44019525960113
 31
0.0
  0
LINE
  5
AC7C
  8
0
 62
     0
 10
415.19173167908571
 20
463.76783125960071
 30
0.0
 11
415.19173167908571
 21
459.69406925960089
 31
0.0
  0
LINE
  5
AC7D
  8
0
 62
     0
 10
415.19173167908571
 20
479.084969259601
 30
0.0
 11
415.19173167908571
 21
475.94654125960108
 31
0.0
  0
LINE
  5
AC7E
  8
0
 62
     0
 10
340.19122767908573
 20
479.084969259601
 30
0.0
 11
412.19173167908571
 21
479.084969259601
 31
0.0
  0
LINE
  5
AC7F
  8
0
 62
     0
 10
340.19122767908573
 20
463.76783125960071
 30
0.0
 11
412.19173167908571
 21
463.76783125960071
 31
0.0
  0
LINE
  5
AC80
  8
0
 62
     0
 10
346.26021367908618
 20
494.9679952596008
 30
0.0
 11
412.19173167908571
 21
494.9679952596008
 31
0.0
  0
LINE
  5
AC81
  8
0
 62
     0
 10
397.87124567908592
 20
506.0909212596008
 30
0.0
 11
413.74653367908581
 21
506.65867925960112
 31
0.0
  0
LINE
  5
AC82
  8
0
 62
     0
 10
397.87117567908581
 20
506.09088125960091
 30
0.0
 11
349.66621267908567
 21
505.38163025960091
 31
0.0
  0
LINE
  5
AC83
  8
0
 62
     0
 10
415.19173167908571
 20
494.9679952596008
 30
0.0
 11
415.19173167908571
 21
492.87705325960093
 31
0.0
  0
LINE
  5
AC84
  8
0
 62
     0
 10
341.22093867908598
 20
489.57114525960088
 30
0.0
 11
397.44807967908571
 21
489.57114525960088
 31
0.0
  0
LINE
  5
AC85
  8
0
 62
     0
 10
299.69173167908599
 20
421.31342525960088
 30
0.0
 11
299.69173167908599
 21
406.85245725960078
 31
0.0
  0
LINE
  5
AC86
  8
0
 62
     0
 10
172.69175267908551
 20
436.0069052596009
 30
0.0
 11
417.19173167908582
 21
436.0069052596009
 31
0.0
  0
LINE
  5
AC87
  8
0
 62
     0
 10
172.69175267908551
 20
422.31342525960088
 30
0.0
 11
395.98341967908573
 21
422.31342525960088
 31
0.0
  0
LINE
  5
AC88
  8
0
 62
     0
 10
407.07240967908592
 20
425.91590325960078
 30
0.0
 11
417.19173167908582
 21
425.91590325960078
 31
0.0
  0
LINE
  5
AC89
  8
0
 62
     0
 10
407.07235967908571
 20
425.91590325960078
 30
0.0
 11
399.6291716790862
 21
423.0017052596009
 31
0.0
  0
LINE
  5
AC8A
  8
0
 62
     0
 10
173.73042767908601
 20
405.8524572596009
 30
0.0
 11
395.6530356790858
 21
405.8524572596009
 31
0.0
  0
LINE
  5
AC8B
  8
0
 62
     0
 10
407.07239767908578
 20
410.14570525960107
 30
0.0
 11
399.8814376790861
 21
406.79038725960089
 31
0.0
  0
LINE
  5
AC8C
  8
0
 62
     0
 10
300.69173167908588
 20
410.14571525960088
 30
0.0
 11
417.19173167908582
 21
410.14571525960088
 31
0.0
  0
LINE
  5
AC8D
  8
0
 62
     0
 10
173.94240267908589
 20
394.90088725960089
 30
0.0
 11
395.44106167908598
 21
394.90088725960089
 31
0.0
  0
LINE
  5
AC8E
  8
0
 62
     0
 10
414.10959767908599
 20
403.28884325960092
 30
0.0
 11
400.03041567908571
 21
396.0162252596009
 31
0.0
  0
LINE
  5
AC8F
  8
0
 62
     0
 10
415.19173167908571
 20
405.06575925960078
 30
0.0
 11
415.19173167908571
 21
410.14571525960088
 31
0.0
  0
LINE
  5
AC90
  8
0
 62
     0
 10
174.10707567908591
 20
386.15367925960112
 30
0.0
 11
395.27638767908587
 21
386.15367925960112
 31
0.0
  0
LINE
  5
AC91
  8
0
 62
     0
 10
400.13875367908571
 20
387.415457259601
 30
0.0
 11
414.16418567908602
 21
395.21987325960112
 31
0.0
  0
LINE
  5
AC92
  8
0
 62
     0
 10
174.224373679086
 20
379.78118325960111
 30
0.0
 11
395.1590776790859
 21
379.78118325960111
 31
0.0
  0
LINE
  5
AC93
  8
0
 62
     0
 10
414.202241679086
 20
389.34318325960112
 30
0.0
 11
400.2117476790857
 21
381.15159525960092
 31
0.0
  0
LINE
  5
AC94
  8
0
 62
     0
 10
414.2247176790861
 20
385.77142525960107
 30
0.0
 11
400.25380167908571
 21
377.34445925960108
 31
0.0
  0
LINE
  5
AC95
  8
0
 62
     0
 10
268.69173167908588
 20
410.14571525960088
 30
0.0
 11
172.69175267908551
 21
410.14571525960088
 31
0.0
  0
LINE
  5
AC96
  8
0
 62
     0
 10
269.69173167908588
 20
421.31342525960088
 30
0.0
 11
269.69173167908588
 21
406.85245725960078
 31
0.0
  0
LINE
  5
AC97
  8
0
 62
     0
 10
273.19173167908588
 20
371.1576932596011
 30
0.0
 11
296.19173167908588
 21
371.1576932596011
 31
0.0
  0
LINE
  5
AC98
  8
0
 62
     0
 10
273.19173167908588
 20
371.1576932596011
 30
0.0
 11
273.19173167908588
 21
374.60768925960087
 31
0.0
  0
LINE
  5
AC99
  8
0
 62
     0
 10
296.19173167908588
 20
371.1576932596011
 30
0.0
 11
296.19173167908588
 21
374.60768925960087
 31
0.0
  0
ARC
  5
AC9A
  8
0
 62
     0
 10
413.19173167908582
 20
492.87705325960093
 30
0.0
 40
2.0
 50
274.84550399999512
 51
0.0
  0
ARC
  5
AC9B
  8
0
 62
     0
 10
413.19173167908582
 20
475.94654125960108
 30
0.0
 40
2.0
 50
279.53061099999741
 51
0.0
  0
ARC
  5
AC9C
  8
0
 62
     0
 10
413.19173167908582
 20
459.69406925960089
 30
0.0
 40
2.0
 50
283.91458899999981
 51
0.0
  0
ARC
  5
AC9D
  8
0
 62
     0
 10
413.19173167908582
 20
444.44019525960113
 30
0.0
 40
2.0
 50
287.64566800000279
 51
0.0
  0
ARC
  5
AC9E
  8
0
 62
     0
 10
396.31905167908599
 20
447.46802725960089
 30
0.0
 40
10.0
 50
269.99999699998932
 51
287.64566800000279
  0
ARC
  5
AC9F
  8
0
 62
     0
 10
396.65096167908592
 20
463.83802125960079
 30
0.0
 40
10.0
 50
269.99999699998932
 51
283.91458899999981
  0
ARC
  5
ACA0
  8
0
 62
     0
 10
397.03755767908609
 20
481.3463532596009
 30
0.0
 40
10.0
 50
269.99999699998932
 51
279.53061099999741
  0
ARC
  5
ACA1
  8
0
 62
     0
 10
397.44807967908571
 20
499.571145259601
 30
0.0
 40
10.0
 50
269.99999699998932
 51
274.84550399999512
  0
ARC
  5
ACA2
  8
0
 62
     0
 10
413.6929536790858
 20
508.15888325960088
 30
0.0
 40
1.498794
 50
272.04545799998698
 51
359.95450199999891
  0
ARC
  5
ACA3
  8
0
 62
     0
 10
395.98341967908573
 20
432.31342525960088
 30
0.0
 40
10.0
 50
269.99999699998932
 51
291.38161800000381
  0
ARC
  5
ACA4
  8
0
 62
     0
 10
395.6530356790858
 20
415.85245725960078
 30
0.0
 40
10.0
 50
269.99999699998932
 51
295.01385800000031
  0
ARC
  5
ACA5
  8
0
 62
     0
 10
395.44106167908598
 20
404.90088725960089
 30
0.0
 40
10.0
 50
269.99999699998932
 51
297.31867100000181
  0
ARC
  5
ACA6
  8
0
 62
     0
 10
413.19173167908582
 20
405.06575925960078
 30
0.0
 40
2.0
 50
297.31867100000181
 51
0.0
  0
ARC
  5
ACA7
  8
0
 62
     0
 10
395.27638767908587
 20
396.15367925960112
 30
0.0
 40
10.0
 50
269.99999699998932
 51
299.0936389999884
  0
ARC
  5
ACA8
  8
0
 62
     0
 10
413.19173167908582
 20
396.96750725960112
 30
0.0
 40
2.0
 50
299.0936389999884
 51
0.0
  0
ARC
  5
ACA9
  8
0
 62
     0
 10
395.1590776790859
 20
389.78118325960111
 30
0.0
 40
10.0
 50
269.99999699998932
 51
300.34943799999508
  0
ARC
  5
ACAA
  8
0
 62
     0
 10
413.19173167908582
 20
391.06908525960091
 30
0.0
 40
2.0
 50
300.34943799999508
 51
0.0
  0
ARC
  5
ACAB
  8
0
 62
     0
 10
413.19173167908582
 20
387.48403325960112
 30
0.0
 40
2.0
 50
301.0975069999887
 51
0.0
  0
ARC
  5
ACAC
  8
0
 62
     0
 10
395.08882767908608
 20
385.90738725960091
 30
0.0
 40
10.0
 50
269.99999699998932
 51
301.0975069999887
  0
ARC
  5
ACAD
  8
0
 62
     0
 10
390.19173167908571
 20
376.60768925960087
 30
0.0
 40
2.0
 50
269.99999699998932
 51
339.5034009999967
  0
ARC
  5
ACAE
  8
0
 62
     0
 10
300.69173167908588
 20
421.31342525960088
 30
0.0
 40
1.0
 50
90.000002999984659
 51
180.0000050000005
  0
ARC
  5
ACAF
  8
0
 62
     0
 10
268.69173167908588
 20
421.31342525960088
 30
0.0
 40
1.0
 50
0.0
 51
90.000002999984659
  0
ARC
  5
ACB0
  8
0
 62
     0
 10
300.69173167908588
 20
411.14571525960088
 30
0.0
 40
1.0
 50
179.99999100000039
 51
270.00000099999488
  0
ARC
  5
ACB1
  8
0
 62
     0
 10
268.69173167908588
 20
411.14571525960088
 30
0.0
 40
1.0
 50
269.99999699998932
 51
0.0
  0
ARC
  5
ACB2
  8
0
 62
     0
 10
300.69173167908588
 20
406.85245725960078
 30
0.0
 40
1.0
 50
179.99999100000039
 51
270.00000099999488
  0
ARC
  5
ACB3
  8
0
 62
     0
 10
268.69173167908588
 20
406.85245725960078
 30
0.0
 40
1.0
 50
269.99999699998932
 51
0.0
  0
LINE
  5
ACB4
  8
0
 62
     0
 10
340.17884867908612
 20
453.83802125960108
 30
0.0
 11
396.65096167908592
 21
453.83802125960108
 31
0.0
  0
LINE
  5
ACB5
  8
0
 62
     0
 10
339.42653267908599
 20
449.31470525960071
 30
0.0
 11
412.19173167908571
 21
449.31470525960071
 31
0.0
  0
LINE
  5
ACB6
  8
0
 62
     0
 10
417.19173167908582
 20
628.44045837927456
 30
0.0
 11
417.19173167908582
 21
388.44041837927477
 31
0.0
  0
ARC
  5
ACB7
  8
0
 62
     0
 10
174.224373679086
 20
389.78118325960111
 30
0.0
 40
10.0
 50
261.18398499998767
 51
270.00000299998447
  0
LINE
  5
B3F3
  8
0
  6
AM_ISO08W050
 62
     0
 10
32.369986665273132
 20
987.49543851899261
 30
0.0
 11
741.8089316790855
 21
987.49543851899261
 31
0.0
  0
LINE
  5
B3F4
  8
0
  6
CONTINUOUS
 62
     0
 10
643.19174167908523
 20
1017.495438518992
 30
0.0
 11
649.19168167908515
 21
1017.495438518992
 31
0.0
  0
LINE
  5
B3F5
  8
0
  6
CONTINUOUS
 62
     0
 10
643.19174167908523
 20
957.49543851899261
 30
0.0
 11
649.19168167908515
 21
957.49543851899261
 31
0.0
  0
LINE
  5
B3F6
  8
0
  6
CONTINUOUS
 62
     0
 10
669.19168167908515
 20
995.49543851899261
 30
0.0
 11
669.19168167908515
 21
979.49537851899277
 31
0.0
  0
LINE
  5
B3F7
  8
0
  6
CONTINUOUS
 62
     0
 10
649.19168167908515
 20
959.99543851899261
 30
0.0
 11
731.19168167908504
 21
959.99543851899261
 31
0.0
  0
LINE
  5
B3F8
  8
0
  6
CONTINUOUS
 62
     0
 10
731.19168167908504
 20
1014.995438518992
 30
0.0
 11
731.19168167908504
 21
959.99543851899261
 31
0.0
  0
LINE
  5
B3F9
  8
0
  6
CONTINUOUS
 62
     0
 10
649.19168167908515
 20
1017.495438518992
 30
0.0
 11
649.19168167908515
 21
957.49543851899261
 31
0.0
  0
LINE
  5
B3FA
  8
0
  6
CONTINUOUS
 62
     0
 10
649.19168167908515
 20
1014.995438518992
 30
0.0
 11
731.19168167908504
 21
1014.995438518992
 31
0.0
  0
LINE
  5
B3FB
  8
0
  6
CONTINUOUS
 62
     0
 10
578.19174167908557
 20
1144.628858518992
 30
0.0
 11
578.19174167908557
 21
1116.0836885189919
 31
0.0
  0
LINE
  5
B3FC
  8
0
  6
CONTINUOUS
 62
     0
 10
496.19174167908523
 20
1120.4954385189919
 30
0.0
 11
521.19168167908617
 21
1119.622388518992
 31
0.0
  0
LINE
  5
B3FD
  8
0
  6
CONTINUOUS
 62
     0
 10
521.19168167908617
 20
1119.622388518992
 30
0.0
 11
525.33645167908605
 21
1115.4776785189929
 31
0.0
  0
LINE
  5
B3FE
  8
0
  6
CONTINUOUS
 62
     0
 10
525.33645167908605
 20
1115.4776785189929
 30
0.0
 11
575.0316416790854
 21
1113.7422585189929
 31
0.0
  0
LINE
  5
B3FF
  8
0
  6
CONTINUOUS
 62
     0
 10
589.77291167908504
 20
1104.0910185189921
 30
0.0
 11
603.47091167908525
 21
1103.6126885189919
 31
0.0
  0
LINE
  5
B400
  8
0
  6
CONTINUOUS
 62
     0
 10
501.19174167908523
 20
1137.553968518992
 30
0.0
 11
501.19174167908523
 21
1120.3208185189931
 31
0.0
  0
LINE
  5
B401
  8
0
  6
CONTINUOUS
 62
     0
 10
618.91250167908561
 20
1087.225778518992
 30
0.0
 11
630.47091167908525
 21
1086.8221585189931
 31
0.0
  0
LINE
  5
B402
  8
0
  6
CENTER
 62
     0
 10
599.15860167908602
 20
1119.9954385189919
 30
0.0
 11
627.95993167908523
 21
1119.9954385189919
 31
0.0
  0
LINE
  5
B403
  8
0
  6
CONTINUOUS
 62
     0
 10
496.19174167908523
 20
1120.4954385189919
 30
0.0
 11
496.19174167908523
 21
992.49543851899205
 31
0.0
  0
LINE
  5
B404
  8
0
  6
CONTINUOUS
 62
     0
 10
643.19174167908523
 20
1142.7082085189929
 30
0.0
 11
643.19174167908523
 21
1092.282608518992
 31
0.0
  0
LINE
  5
B405
  8
0
  6
CONTINUOUS
 62
     0
 10
640.12191167908497
 20
1047.6026085189919
 30
0.0
 11
641.26150167908588
 21
1047.5628185189919
 31
0.0
  0
LINE
  5
B406
  8
0
  6
CONTINUOUS
 62
     0
 10
413.19174167908523
 20
1144.5939485189931
 30
0.0
 11
413.19174167908602
 21
1111.791751828473
 31
0.0
  0
LINE
  5
B407
  8
0
  6
CONTINUOUS
 62
     0
 10
643.19174167908523
 20
1045.564038518992
 30
0.0
 11
643.19174167908523
 21
929.42682851899235
 31
0.0
  0
LINE
  5
B408
  8
0
  6
CONTINUOUS
 62
     0
 10
638.19174167908523
 20
1084.8664085189921
 30
0.0
 11
638.19174167908523
 21
890.12446851899256
 31
0.0
  0
LINE
  5
B409
  8
0
  6
CONTINUOUS
 62
     0
 10
501.191681679086
 20
1152.495398518992
 30
0.0
 11
638.36618167908523
 21
1147.705198518993
 31
0.0
  0
LINE
  5
B40A
  8
0
  6
CONTINUOUS
 62
     0
 10
501.19174167908523
 20
1152.495398518992
 30
0.0
 11
418.01718167908513
 21
1149.5908985189919
 31
0.0
  0
LINE
  5
B40B
  8
0
  6
CENTER
 62
     0
 10
429.22378167908562
 20
1119.9954385189919
 30
0.0
 11
457.36685167908558
 21
1119.9954385189919
 31
0.0
  0
LINE
  5
B40C
  8
0
  6
CENTER
 62
     0
 10
443.19174167908511
 20
1134.4041885189929
 30
0.0
 11
443.19174167908511
 21
1105.2736985189929
 31
0.0
  0
LINE
  5
B40D
  8
0
  6
CENTER
 62
     0
 10
613.19174167908523
 20
1134.527658518992
 30
0.0
 11
613.19174167908523
 21
1105.726268518993
 31
0.0
  0
LINE
  5
B40E
  8
0
  6
CONTINUOUS
 62
     0
 10
472.191681679086
 20
1139.3220985189921
 30
0.0
 11
499.1918016790857
 21
1129.775708518993
 31
0.0
  0
LINE
  5
B40F
  8
0
  6
CONTINUOUS
 62
     0
 10
468.72793167908537
 20
1151.1533985189919
 30
0.0
 11
499.1917416790854
 21
1140.382338518993
 31
0.0
  0
LINE
  5
B410
  8
0
  6
CENTER
 62
     0
 10
613.19174167908523
 20
839.21491851899304
 30
0.0
 11
613.19174167908523
 21
870.30524851899281
 31
0.0
  0
LINE
  5
B411
  8
0
  6
CENTER
 62
     0
 10
443.19174167908511
 20
838.24329851899245
 30
0.0
 11
443.19174167908511
 21
869.81946851899272
 31
0.0
  0
LINE
  5
B412
  8
0
  6
CENTER
 62
     0
 10
429.3440216790857
 20
854.99543851899307
 30
0.0
 11
458.49124167908559
 21
854.99543851899307
 31
0.0
  0
LINE
  5
B413
  8
0
  6
CONTINUOUS
 62
     0
 10
501.191681679086
 20
822.49543851899284
 30
0.0
 11
418.01718167908513
 21
825.39991851899254
 31
0.0
  0
LINE
  5
B414
  8
0
  6
CONTINUOUS
 62
     0
 10
501.19174167908523
 20
822.49537851899265
 30
0.0
 11
638.36624167908565
 21
827.28565851899305
 31
0.0
  0
LINE
  5
B415
  8
0
  6
CONTINUOUS
 62
     0
 10
413.19174167908523
 20
830.39692851899235
 30
0.0
 11
413.19174167908523
 21
863.34072454422471
 31
0.0
  0
LINE
  5
B416
  8
0
  6
CONTINUOUS
 62
     0
 10
640.12191167908497
 20
927.3882585189923
 30
0.0
 11
641.26156167908607
 21
927.4280485189928
 31
0.0
  0
LINE
  5
B417
  8
0
  6
CONTINUOUS
 62
     0
 10
643.19174167908523
 20
832.28260851899233
 30
0.0
 11
643.19174167908523
 21
882.70820851899259
 31
0.0
  0
LINE
  5
B418
  8
0
  6
CENTER
 62
     0
 10
598.64059167908522
 20
854.99543851899307
 30
0.0
 11
627.78781167908505
 21
854.99543851899307
 31
0.0
  0
LINE
  5
B419
  8
0
  6
CONTINUOUS
 62
     0
 10
611.19174167908557
 20
879.37330851899253
 30
0.0
 11
611.19174167908557
 21
1095.6175085189921
 31
0.0
  0
LINE
  5
B41A
  8
0
  6
CONTINUOUS
 62
     0
 10
618.91256167908602
 20
887.76502851899249
 30
0.0
 11
630.47091167908525
 21
888.16864851899265
 31
0.0
  0
LINE
  5
B41B
  8
0
  6
CONTINUOUS
 62
     0
 10
589.77291167908504
 20
870.89985851899235
 30
0.0
 11
603.47097167908578
 21
871.37818851899249
 31
0.0
  0
LINE
  5
B41C
  8
0
  6
CONTINUOUS
 62
     0
 10
525.33645167908605
 20
859.51319851899279
 30
0.0
 11
575.03170167908581
 21
861.24854851899261
 31
0.0
  0
LINE
  5
B41D
  8
0
  6
CONTINUOUS
 62
     0
 10
521.19174167908523
 20
855.3684185189926
 30
0.0
 11
525.33651167908522
 21
859.51313851899283
 31
0.0
  0
LINE
  5
B41E
  8
0
  6
CONTINUOUS
 62
     0
 10
496.19168167908617
 20
854.49543851899296
 30
0.0
 11
521.19174167908523
 21
855.3684185189926
 31
0.0
  0
LINE
  5
B41F
  8
0
  6
CONTINUOUS
 62
     0
 10
468.72799167908539
 20
823.83741851899254
 30
0.0
 11
499.1917416790854
 21
834.60840851899252
 31
0.0
  0
LINE
  5
B420
  8
0
  6
CONTINUOUS
 62
     0
 10
472.19174167908511
 20
835.66871851899305
 30
0.0
 11
499.1917416790854
 21
845.21509851899305
 31
0.0
  0
LINE
  5
B421
  8
0
  6
CONTINUOUS
 62
     0
 10
501.19174167908523
 20
837.43683851899254
 30
0.0
 11
501.19174167908523
 21
854.66999851899266
 31
0.0
  0
LINE
  5
B422
  8
0
  6
CONTINUOUS
 62
     0
 10
578.19174167908557
 20
830.36194851899279
 30
0.0
 11
578.19174167908557
 21
858.90717851899262
 31
0.0
  0
LINE
  5
B423
  8
0
  6
CONTINUOUS
 62
     0
 10
521.19168167908617
 20
855.3684185189926
 30
0.0
 11
521.19168167908617
 21
1119.622388518992
 31
0.0
  0
LINE
  5
B424
  8
0
  6
CONTINUOUS
 62
     0
 10
669.19174167908557
 20
979.49537851899277
 30
0.0
 11
731.19168167908504
 21
979.49537851899277
 31
0.0
  0
LINE
  5
B425
  8
0
  6
CONTINUOUS
 62
     0
 10
669.19174167908557
 20
995.49543851899261
 30
0.0
 11
731.19168167908504
 21
995.49543851899261
 31
0.0
  0
LINE
  5
B426
  8
0
  6
CONTINUOUS
 62
     0
 10
496.19174167908523
 20
854.49543851899296
 30
0.0
 11
489.0870016790858
 21
854.74353851899264
 31
0.0
  0
LINE
  5
B427
  8
0
  6
CONTINUOUS
 62
     0
 10
496.19168167908617
 20
1120.4954385189919
 30
0.0
 11
489.0870016790858
 21
1120.2473285189919
 31
0.0
  0
LINE
  5
B428
  8
0
  6
CENTER
 62
     0
 10
478.19174167908562
 20
972.31513851899274
 30
0.0
 11
478.19174167908562
 21
1002.049998518993
 31
0.0
  0
LINE
  5
B429
  8
0
  6
CONTINUOUS
 62
     0
 10
458.1917416790854
 20
982.49543851899261
 30
0.0
 11
498.19174167908562
 21
982.49543851899261
 31
0.0
  0
LINE
  5
B42A
  8
0
  6
CONTINUOUS
 62
     0
 10
458.1917416790854
 20
992.49543851899205
 30
0.0
 11
498.19174167908562
 21
992.49543851899205
 31
0.0
  0
LINE
  5
B42B
  8
0
  6
CONTINUOUS
 62
     0
 10
496.19174167908523
 20
982.49543851899261
 30
0.0
 11
496.19174167908523
 21
854.49543851899296
 31
0.0
  0
LINE
  5
B42C
  8
0
  6
CONTINUOUS
 62
     0
 10
418.17062167908517
 20
913.05848851899293
 30
0.0
 11
429.19949167908601
 21
913.05848851899293
 31
0.0
  0
LINE
  5
B42D
  8
0
  6
CONTINUOUS
 62
     0
 10
417.19174167908523
 20
903.32453851899231
 30
0.0
 11
428.19174167908562
 21
903.32453851899231
 31
0.0
  0
LINE
  5
B42E
  8
0
  6
CONTINUOUS
 62
     0
 10
417.19174167908523
 20
887.76819851899279
 30
0.0
 11
428.19174167908562
 21
887.76819851899279
 31
0.0
  0
LINE
  5
B42F
  8
0
  6
CONTINUOUS
 62
     0
 10
417.19174167908523
 20
1071.666268518992
 30
0.0
 11
428.19174167908562
 21
1071.666268518992
 31
0.0
  0
LINE
  5
B430
  8
0
  6
CONTINUOUS
 62
     0
 10
417.19174167908523
 20
1087.222608518993
 30
0.0
 11
428.19174167908562
 21
1087.222608518993
 31
0.0
  0
LINE
  5
B431
  8
0
  6
CONTINUOUS
 62
     0
 10
418.17062167908517
 20
1061.9323885189931
 30
0.0
 11
429.19949167908601
 21
1061.9323885189931
 31
0.0
  0
LINE
  5
B432
  8
0
  6
CONTINUOUS
 62
     0
 10
432.19174167908562
 20
875.4954385189925
 30
0.0
 11
484.19168167908612
 21
875.4954385189925
 31
0.0
  0
LINE
  5
B433
  8
0
  6
CONTINUOUS
 62
     0
 10
430.19168167908612
 20
1105.4954385189931
 30
0.0
 11
430.19168167908612
 21
869.49543851899273
 31
0.0
  0
LINE
  5
B434
  8
0
  6
CONTINUOUS
 62
     0
 10
417.19174167908523
 20
1107.4954385189919
 30
0.0
 11
417.19174167908523
 21
867.4954385189925
 31
0.0
  0
LINE
  5
B435
  8
0
  6
CONTINUOUS
 62
     0
 10
432.19174167908562
 20
1099.495378518993
 30
0.0
 11
484.19168167908612
 21
1099.495378518993
 31
0.0
  0
LINE
  5
B436
  8
0
  6
CONTINUOUS
 62
     0
 10
417.19174167908523
 20
867.4954385189925
 30
0.0
 11
428.19174167908562
 21
867.4954385189925
 31
0.0
  0
LINE
  5
B437
  8
0
  6
CONTINUOUS
 62
     0
 10
417.19174167908523
 20
1107.4954385189919
 30
0.0
 11
428.19174167908562
 21
1107.4954385189919
 31
0.0
  0
LINE
  5
B438
  8
0
  6
CONTINUOUS
 62
     0
 10
430.19168167908612
 20
1074.1702985189929
 30
0.0
 11
476.69174167908523
 21
1074.1702985189929
 31
0.0
  0
LINE
  5
B439
  8
0
  6
CONTINUOUS
 62
     0
 10
430.19168167908612
 20
1058.428238518992
 30
0.0
 11
476.69174167908523
 21
1058.428238518992
 31
0.0
  0
LINE
  5
B43A
  8
0
  6
CONTINUOUS
 62
     0
 10
430.19168167908612
 20
916.56257851899204
 30
0.0
 11
476.69174167908523
 21
916.56257851899204
 31
0.0
  0
LINE
  5
B43B
  8
0
  6
CONTINUOUS
 62
     0
 10
430.19168167908612
 20
900.8205085189926
 30
0.0
 11
476.69174167908523
 21
900.8205085189926
 31
0.0
  0
LINE
  5
B43C
  8
0
  6
CONTINUOUS
 62
     0
 10
486.19168167908498
 20
857.7417085189926
 30
0.0
 11
486.19168167908498
 21
964.49543851899261
 31
0.0
  0
LINE
  5
B43D
  8
0
  6
CONTINUOUS
 62
     0
 10
484.7272616790857
 20
876.95984851899266
 30
0.0
 11
478.15622167908521
 21
883.53089851899244
 31
0.0
  0
LINE
  5
B43E
  8
0
  6
CONTINUOUS
 62
     0
 10
478.15615167908578
 20
1091.4599085189921
 30
0.0
 11
484.72720167908562
 21
1098.0309585189921
 31
0.0
  0
LINE
  5
B43F
  8
0
  6
CONTINUOUS
 62
     0
 10
476.69174167908523
 20
887.06647851899265
 30
0.0
 11
476.69174167908523
 21
968.58112851899261
 31
0.0
  0
LINE
  5
B440
  8
0
  6
CONTINUOUS
 62
     0
 10
486.19168167908498
 20
1010.495438518992
 30
0.0
 11
486.19168167908498
 21
1117.2491585189921
 31
0.0
  0
LINE
  5
B441
  8
0
  6
CONTINUOUS
 62
     0
 10
476.69174167908523
 20
1006.409678518993
 30
0.0
 11
476.69174167908523
 21
1087.9243885189919
 31
0.0
  0
ARC
  5
B442
  8
0
  6
CONTINUOUS
 62
     0
 10
603.19174167908557
 20
1095.6175085189921
 30
0.0
 40
8.0
 50
0.0
 51
87.999999999996248
  0
ARC
  5
B443
  8
0
  6
CONTINUOUS
 62
     0
 10
619.19174167908557
 20
1095.220898518992
 30
0.0
 40
8.0
 50
180.00001000000091
 51
267.99999999999608
  0
ARC
  5
B444
  8
0
  6
CONTINUOUS
 62
     0
 10
471.19174167908523
 20
1136.493668518993
 30
0.0
 40
3.0
 50
70.527972999999633
 51
180.00001000000091
  0
ARC
  5
B445
  8
0
  6
CONTINUOUS
 62
     0
 10
630.19174167908523
 20
1078.8270385189919
 30
0.0
 40
8.0
 50
0.0
 51
87.999999999996248
  0
ARC
  5
B446
  8
0
  6
CONTINUOUS
 62
     0
 10
583.19174167908523
 20
1144.628858518992
 30
0.0
 40
5.0
 50
87.999999999996248
 51
180.00001000000091
  0
CIRCLE
  5
B447
  8
0
  6
CONTINUOUS
 62
     0
 10
443.19174167908511
 20
1119.9954385189919
 30
0.0
 40
9.5
  0
ARC
  5
B448
  8
0
  6
CONTINUOUS
 62
     0
 10
641.19174167908545
 20
1045.564038518992
 30
0.0
 40
2.0
 50
0.0
 51
87.999999999996248
  0
ARC
  5
B449
  8
0
  6
CONTINUOUS
 62
     0
 10
640.19174167908557
 20
1049.6013885189921
 30
0.0
 40
2.0
 50
180.00001000000091
 51
267.99999999999608
  0
ARC
  5
B44A
  8
0
  6
CONTINUOUS
 62
     0
 10
418.19174167908511
 20
1144.5939485189931
 30
0.0
 40
5.0
 50
91.999997999994051
 51
180.00001000000091
  0
ARC
  5
B44B
  8
0
  6
CONTINUOUS
 62
     0
 10
638.19174167908523
 20
1142.7082085189929
 30
0.0
 40
5.0
 50
0.0
 51
87.999999999996248
  0
ARC
  5
B44C
  8
0
  6
CONTINUOUS
 62
     0
 10
638.19174167908523
 20
1092.282608518992
 30
0.0
 40
5.0
 50
292.0243100000078
 51
0.0
  0
CIRCLE
  5
B44D
  8
0
  6
CONTINUOUS
 62
     0
 10
613.19174167908523
 20
1119.9954385189919
 30
0.0
 40
9.5
  0
ARC
  5
B44E
  8
0
  6
CONTINUOUS
 62
     0
 10
498.19174167908562
 20
1126.947278518993
 30
0.0
 40
3.0
 50
0.0
 51
70.527972999999633
  0
ARC
  5
B44F
  8
0
  6
CONTINUOUS
 62
     0
 10
498.19174167908562
 20
1137.553968518992
 30
0.0
 40
3.0
 50
0.0
 51
70.527972999999633
  0
CIRCLE
  5
B450
  8
0
  6
CONTINUOUS
 62
     0
 10
613.19174167908523
 20
854.99543851899307
 30
0.0
 40
9.5
  0
ARC
  5
B451
  8
0
  6
CONTINUOUS
 62
     0
 10
638.19174167908523
 20
882.70820851899259
 30
0.0
 40
5.0
 50
0.0
 51
67.975688999975844
  0
ARC
  5
B452
  8
0
  6
CONTINUOUS
 62
     0
 10
638.19174167908523
 20
832.28260851899233
 30
0.0
 40
5.0
 50
272.00000000000369
 51
0.0
  0
ARC
  5
B453
  8
0
  6
CONTINUOUS
 62
     0
 10
418.19174167908511
 20
830.39692851899235
 30
0.0
 40
5.0
 50
180.00001000000091
 51
267.99999999999608
  0
ARC
  5
B454
  8
0
  6
CONTINUOUS
 62
     0
 10
640.19174167908557
 20
925.38947851899195
 30
0.0
 40
2.0
 50
91.999997999994051
 51
180.00001000000091
  0
ARC
  5
B455
  8
0
  6
CONTINUOUS
 62
     0
 10
641.19174167908545
 20
929.42682851899235
 30
0.0
 40
2.0
 50
272.00000000000369
 51
0.0
  0
CIRCLE
  5
B456
  8
0
  6
CONTINUOUS
 62
     0
 10
443.19174167908511
 20
854.99543851899307
 30
0.0
 40
9.5
  0
ARC
  5
B457
  8
0
  6
CONTINUOUS
 62
     0
 10
641.19174167908545
 20
1084.8664085189921
 30
0.0
 40
3.0
 50
112.0243100000078
 51
180.00001000000091
  0
ARC
  5
B458
  8
0
  6
CONTINUOUS
 62
     0
 10
641.19174167908545
 20
890.12446851899256
 30
0.0
 40
3.0
 50
180.00001000000091
 51
247.9756899999922
  0
ARC
  5
B459
  8
0
  6
CONTINUOUS
 62
     0
 10
630.19174167908523
 20
896.1637685189927
 30
0.0
 40
8.0
 50
272.00000000000369
 51
0.0
  0
ARC
  5
B45A
  8
0
  6
CONTINUOUS
 62
     0
 10
619.19174167908557
 20
879.76990851899245
 30
0.0
 40
8.0
 50
91.999997999994051
 51
180.00001000000091
  0
ARC
  5
B45B
  8
0
  6
CONTINUOUS
 62
     0
 10
603.19174167908557
 20
879.37330851899253
 30
0.0
 40
8.0
 50
272.00000000000369
 51
0.0
  0
ARC
  5
B45C
  8
0
  6
CONTINUOUS
 62
     0
 10
498.19174167908562
 20
837.43683851899254
 30
0.0
 40
3.0
 50
289.47201999997509
 51
0.0
  0
ARC
  5
B45D
  8
0
  6
CONTINUOUS
 62
     0
 10
498.19174167908562
 20
848.04352851899262
 30
0.0
 40
3.0
 50
289.47201999997509
 51
0.0
  0
ARC
  5
B45E
  8
0
  6
CONTINUOUS
 62
     0
 10
583.19174167908523
 20
830.36194851899279
 30
0.0
 40
5.0
 50
180.00001000000091
 51
271.99999000000798
  0
ARC
  5
B45F
  8
0
  6
CONTINUOUS
 62
     0
 10
471.19174167908523
 20
838.4971485189925
 30
0.0
 40
3.0
 50
180.00001000000091
 51
289.47202999997052
  0
ARC
  5
B460
  8
0
  6
CONTINUOUS
 62
     0
 10
590.19174167908557
 20
1116.0836885189919
 30
0.0
 40
12.0
 50
180.00001000000091
 51
267.99999999999608
  0
ARC
  5
B461
  8
0
  6
CONTINUOUS
 62
     0
 10
574.85714167908543
 20
1108.7453085189929
 30
0.0
 40
5.0
 50
25.573516999983941
 51
87.999999999996248
  0
ARC
  5
B462
  8
0
  6
CONTINUOUS
 62
     0
 10
590.19174167908557
 20
858.90717851899262
 30
0.0
 40
12.0
 50
91.999997999994051
 51
180.00001000000091
  0
ARC
  5
B463
  8
0
  6
CONTINUOUS
 62
     0
 10
574.85714167908543
 20
866.24555851899265
 30
0.0
 40
5.0
 50
272.00000000000369
 51
334.42647999998837
  0
ARC
  5
B464
  8
0
  6
CONTINUOUS
 62
     0
 10
669.19174167908557
 20
987.49537851899277
 30
0.0
 40
8.0000113999999982
 50
90.000002999984659
 51
270.0
  0
ARC
  5
B465
  8
0
  6
CONTINUOUS
 62
     0
 10
478.19174167908562
 20
987.49543851899261
 30
0.0
 40
15.0
 50
90.000145999983403
 51
160.5287699999848
  0
ARC
  5
B466
  8
0
  6
CONTINUOUS
 62
     0
 10
478.19174167908562
 20
987.49543851899261
 30
0.0
 40
12.5
 50
23.57818000000351
 51
156.4218199999965
  0
ARC
  5
B467
  8
0
  6
CONTINUOUS
 62
     0
 10
458.1917416790854
 20
987.49543851899261
 30
0.0
 40
5.0
 50
90.000002999984659
 51
270.0
  0
ARC
  5
B468
  8
0
  6
CONTINUOUS
 62
     0
 10
498.19174167908562
 20
987.49543851899261
 30
0.0
 40
5.0
 50
270.0
 51
90.000002999984659
  0
ARC
  5
B469
  8
0
  6
CONTINUOUS
 62
     0
 10
478.19174167908562
 20
987.49543851899261
 30
0.0
 40
12.5
 50
203.5781800000035
 51
336.42183000001518
  0
ARC
  5
B46A
  8
0
  6
CONTINUOUS
 62
     0
 10
478.19174167908562
 20
987.49543851899261
 30
0.0
 40
15.0
 50
199.47123000001511
 51
269.99984999998492
  0
ARC
  5
B46B
  8
0
  6
CONTINUOUS
 62
     0
 10
428.19174167908562
 20
889.7681385189926
 30
0.0
 40
2.0
 50
269.999989999999
 51
0.0000006832495047
  0
ARC
  5
B46C
  8
0
  6
CONTINUOUS
 62
     0
 10
428.19174167908562
 20
905.32453851899277
 30
0.0
 40
2.0
 50
269.999989999999
 51
0.0000006832495047
  0
ARC
  5
B46D
  8
0
  6
CONTINUOUS
 62
     0
 10
428.19174167908562
 20
1069.6662085189921
 30
0.0
 40
2.0
 50
0.0
 51
90.000002999984659
  0
ARC
  5
B46E
  8
0
  6
CONTINUOUS
 62
     0
 10
428.19174167908562
 20
1085.222608518993
 30
0.0
 40
2.0
 50
0.0
 51
90.000002999984659
  0
ARC
  5
B46F
  8
0
  6
CONTINUOUS
 62
     0
 10
432.19174167908562
 20
1101.4953785189921
 30
0.0
 40
2.0
 50
179.999989999999
 51
270.0
  0
ARC
  5
B470
  8
0
  6
CONTINUOUS
 62
     0
 10
428.19174167908562
 20
1105.4954385189931
 30
0.0
 40
2.0
 50
0.0
 51
90.000002999984659
  0
ARC
  5
B471
  8
0
  6
CONTINUOUS
 62
     0
 10
428.19174167908562
 20
869.49543851899273
 30
0.0
 40
2.0
 50
269.999989999999
 51
0.0000006832495047
  0
ARC
  5
B472
  8
0
  6
CONTINUOUS
 62
     0
 10
432.19174167908562
 20
873.49543851899261
 30
0.0
 40
2.0
 50
90.000002999984659
 51
180.00001000000091
  0
ARC
  5
B473
  8
0
  6
CONTINUOUS
 62
     0
 10
489.191681679086
 20
857.7417085189926
 30
0.0
 40
3.0
 50
180.00001000000091
 51
267.99999999999608
  0
ARC
  5
B474
  8
0
  6
CONTINUOUS
 62
     0
 10
489.191681679086
 20
1117.2491585189921
 30
0.0
 40
3.0
 50
91.999997999994051
 51
180.00001000000091
  0
ARC
  5
B475
  8
0
  6
CONTINUOUS
 62
     0
 10
481.69174167908562
 20
887.06647851899265
 30
0.0
 40
5.0
 50
180.00001000000091
 51
224.99999999999079
  0
ARC
  5
B476
  8
0
  6
CONTINUOUS
 62
     0
 10
481.69174167908562
 20
1087.9243885189919
 30
0.0
 40
5.0
 50
135.00000000000921
 51
180.00001000000091
  0
ARC
  5
B477
  8
0
  6
CONTINUOUS
 62
     0
 10
481.191681679086
 20
873.4243885189926
 30
0.0
 40
5.0
 50
0.0
 51
44.999997999987791
  0
ARC
  5
B478
  8
0
  6
CONTINUOUS
 62
     0
 10
481.191681679086
 20
1101.5664785189931
 30
0.0
 40
5.0
 50
315.00000000000921
 51
0.0
  0
ARC
  5
B479
  8
0
  6
CONTINUOUS
 62
     0
 10
478.19168167908498
 20
964.49543851899261
 30
0.0
 40
8.0
 50
0.0
 51
89.999858999991005
  0
ARC
  5
B47A
  8
0
  6
CONTINUOUS
 62
     0
 10
478.19168167908498
 20
1010.495438518992
 30
0.0
 40
8.0
 50
270.00015000001508
 51
0.0
  0
ARC
  5
B47B
  8
0
  6
CONTINUOUS
 62
     0
 10
471.69174167908523
 20
968.58112851899261
 30
0.0
 40
5.0
 50
0.0
 51
71.034342999971415
  0
ARC
  5
B47C
  8
0
  6
CONTINUOUS
 62
     0
 10
471.69174167908523
 20
1006.409678518993
 30
0.0
 40
5.0
 50
288.96565999997392
 51
0.0
  0
ARC
  5
B47D
  8
0
  6
CONTINUOUS
 62
     0
 10
484.19168167908612
 20
873.49543851899261
 30
0.0
 40
2.0
 50
0.0
 51
90.000002999984659
  0
ARC
  5
B47E
  8
0
  6
CONTINUOUS
 62
     0
 10
484.19168167908612
 20
1101.4953785189921
 30
0.0
 40
2.0
 50
270.0
 51
0.0
  0
LINE
  5
B47F
  8
0
  6
CONTINUOUS
 62
     0
 10
417.19174167908523
 20
871.49543851899261
 30
0.0
 11
415.27878468455179
 21
871.49543851899261
 31
0.0
  0
CIRCLE
  5
B480
  8
0
 62
     0
 10
284.69174167908551
 20
987.49538551899275
 30
0.0
 40
4.0
  0
CIRCLE
  5
B481
  8
0
 62
     0
 10
284.69174167908551
 20
987.49538551899275
 30
0.0
 40
5.0
  0
ARC
  5
B482
  8
0
 62
     0
 10
77.459820679085055
 20
861.49543851899273
 30
0.0
 40
3.0
 50
200.00000000000989
 51
270.0
  0
LINE
  5
B483
  8
0
 62
     0
 10
77.459820679085055
 20
858.4954385189925
 30
0.0
 11
172.6917626790854
 21
858.4954385189925
 31
0.0
  0
ARC
  5
B484
  8
0
 62
     0
 10
81.691762679085414
 20
873.25870851899265
 30
0.0
 40
11.0
 50
180.0
 51
200.00000000000989
  0
LINE
  5
B485
  8
0
 62
     0
 10
71.355144679085114
 20
869.49648651899304
 30
0.0
 11
74.640742679085506
 21
860.46937851899258
 31
0.0
  0
LINE
  5
B486
  8
0
 62
     0
 10
172.6917626790854
 20
858.4954385189925
 30
0.0
 11
172.6917626790854
 21
1123.4954385189919
 31
0.0
  0
ARC
  5
B487
  8
0
 62
     0
 10
81.691762679085414
 20
1101.732168518992
 30
0.0
 40
11.0
 50
159.99999999999011
 51
180.0
  0
ARC
  5
B488
  8
0
 62
     0
 10
80.007612679085355
 20
1120.4954385189919
 30
0.0
 40
3.0
 50
90.0
 51
159.99999999999011
  0
LINE
  5
B489
  8
0
 62
     0
 10
71.355144679085114
 20
1105.4943905189921
 30
0.0
 11
77.188534679085805
 21
1121.5214985189921
 31
0.0
  0
LINE
  5
B48A
  8
0
 62
     0
 10
77.906989679085996
 20
860.46937851899258
 30
0.0
 11
77.906989679085996
 21
1118.353620518993
 31
0.0
  0
LINE
  5
B48B
  8
0
 62
     0
 10
70.691762679085443
 20
873.25870851899265
 30
0.0
 11
70.691762679085443
 21
1101.732168518992
 31
0.0
  0
LINE
  5
B48C
  8
0
 62
     0
 10
80.007612679085355
 20
1123.4954385189919
 30
0.0
 11
172.6917626790854
 21
1123.4954385189919
 31
0.0
  0
ARC
  5
B48D
  8
0
 62
     0
 10
413.19174167908523
 20
869.33133351899266
 30
0.0
 40
2.0
 50
299.99999800001319
 51
0.0
  0
LINE
  5
B48E
  8
0
 62
     0
 10
414.19174267908579
 20
867.59930751899265
 30
0.0
 11
408.85202867908509
 21
864.5164215189925
 31
0.0
  0
ARC
  5
B48F
  8
0
 62
     0
 10
403.8520196790858
 20
873.17667051899264
 30
0.0
 40
10.0
 50
269.99999700001541
 51
299.99999800001319
  0
LINE
  5
B490
  8
0
 62
     0
 10
332.74995667908559
 20
863.17667051899264
 30
0.0
 11
403.8520196790858
 21
863.17667051899264
 31
0.0
  0
LINE
  5
B491
  8
0
 62
     0
 10
417.19172067908562
 20
1102.4954515189929
 30
0.0
 11
415.1918026790853
 21
1102.5094515189919
 31
0.0
  0
LINE
  5
B492
  8
0
 62
     0
 10
415.1918026790853
 20
1110.5653855189919
 30
0.0
 11
398.99703967908579
 21
1120.4954385189919
 31
0.0
  0
LINE
  5
B493
  8
0
 62
     0
 10
172.6917626790854
 20
1120.4954385189919
 30
0.0
 11
398.99691767908553
 21
1120.4954385189919
 31
0.0
  0
LINE
  5
B494
  8
0
  6
AM_ISO08W050
 62
     0
 10
284.69174167908551
 20
845.88366851899218
 30
0.0
 11
284.69174167908551
 21
860.3287005189926
 31
0.0
  0
ARC
  5
B495
  8
0
 62
     0
 10
349.66674767908518
 20
806.38941551899245
 30
0.0
 40
9.0
 50
117.9770600000161
 51
180.10395799999739
  0
ARC
  5
B496
  8
0
 62
     0
 10
349.6177516790857
 20
833.26441551899234
 30
0.0
 40
9.0
 50
180.10395799999739
 51
243.265312000026
  0
LINE
  5
B497
  8
0
 62
     0
 10
347.53832367908569
 20
828.57965451899258
 30
0.0
 11
345.56858167908553
 21
829.69674151899267
 31
0.0
  0
LINE
  5
B498
  8
0
 62
     0
 10
349.69174167908562
 20
821.40271851899274
 30
0.0
 11
349.69174167908562
 21
825.1506145189926
 31
0.0
  0
LINE
  5
B499
  8
0
  6
AM_ISO08W050
 62
     0
 10
345.14775067908522
 20
820.68043151899269
 30
0.0
 11
334.41474867908607
 21
820.68043151899269
 31
0.0
  0
LINE
  5
B49A
  8
0
  6
AM_ISO08W050
 62
     0
 10
339.69174167908562
 20
814.75742751899259
 30
0.0
 11
339.69174167908562
 21
827.24244251899233
 31
0.0
  0
LINE
  5
B49B
  8
0
 62
     0
 10
340.6667666790853
 20
806.37245151899265
 30
0.0
 11
340.66876567908542
 21
805.45247051899264
 31
0.0
  0
ARC
  5
B49C
  8
0
 62
     0
 10
341.69174167908562
 20
821.40271851899274
 30
0.0
 40
8.0
 50
297.97706000001608
 51
0.0
  0
ARC
  5
B49D
  8
0
 62
     0
 10
345.44174167908562
 20
824.88278551899259
 30
0.0
 40
4.25
 50
0.0
 51
60.441404999990397
  0
LINE
  5
B49E
  8
0
 62
     0
 10
347.53832367908569
 20
824.10965351899233
 30
0.0
 11
345.56858167908553
 21
825.22674051899219
 31
0.0
  0
ARC
  5
B49F
  8
0
 62
     0
 10
345.44174167908562
 20
820.41278351899246
 30
0.0
 40
4.25
 50
5.6335919999969351
 51
60.441404999990397
  0
ARC
  5
B4A0
  8
0
 62
     0
 10
323.19174167908562
 20
799.62645051899267
 30
0.0
 40
10.0
 50
270.00003599997228
 51
0.0000179999992061
  0
ARC
  5
B4A1
  8
0
 62
     0
 10
322.6687466790853
 20
805.45243451899273
 30
0.0
 40
18.0
 50
270.0
 51
0.0000179999992061
  0
ARC
  5
B4A2
  8
0
 62
     0
 10
323.19174167908562
 20
812.44642251899234
 30
0.0
 40
10.0
 50
0.0000179999992061
 51
90.0
  0
LINE
  5
B4A3
  8
0
 62
     0
 10
333.19174167908562
 20
835.53242051899258
 30
0.0
 11
333.19174167908562
 21
799.62645051899267
 31
0.0
  0
LINE
  5
B4A4
  8
0
 62
     0
 10
340.59975567908521
 20
843.03243251899266
 30
0.0
 11
340.61776067908602
 21
833.24845251899262
 31
0.0
  0
ARC
  5
B4A5
  8
0
 62
     0
 10
323.19174167908562
 20
835.53242051899258
 30
0.0
 40
10.0
 50
0.0000179999992061
 51
90.0
  0
ARC
  5
B4A6
  8
0
 62
     0
 10
349.6177516790857
 20
837.73441651899259
 30
0.0
 40
9.0
 50
180.10395799999739
 51
243.26223399999091
  0
POLYLINE
  5
B4A7
  8
0
 62
     0
 66
     1
 10
0.0
 20
0.0
 30
0.0
 70
     8
  0
VERTEX
  5
B9D7
  8
0
 62
     0
 10
340.60000000000002
 20
843.03200000000004
 30
0.0
 70
    32
  0
VERTEX
  5
B9D8
  8
0
 62
     0
 10
340.59800000000001
 20
843.16499999999985
 30
0.0
 70
    32
  0
VERTEX
  5
B9D9
  8
0
 62
     0
 10
340.59399999999999
 20
843.298
 30
0.0
 70
    32
  0
VERTEX
  5
B9DA
  8
0
 62
     0
 10
340.58699999999999
 20
843.42999999999995
 30
0.0
 70
    32
  0
VERTEX
  5
B9DB
  8
0
 62
     0
 10
340.57799999999997
 20
843.56299999999987
 30
0.0
 70
    32
  0
VERTEX
  5
B9DC
  8
0
 62
     0
 10
340.565
 20
843.69500000000005
 30
0.0
 70
    32
  0
VERTEX
  5
B9DD
  8
0
 62
     0
 10
340.55000000000001
 20
843.82699999999988
 30
0.0
 70
    32
  0
VERTEX
  5
B9DE
  8
0
 62
     0
 10
340.53199999999998
 20
843.95899999999995
 30
0.0
 70
    32
  0
VERTEX
  5
B9DF
  8
0
 62
     0
 10
340.51100000000002
 20
844.09100000000001
 30
0.0
 70
    32
  0
VERTEX
  5
B9E0
  8
0
 62
     0
 10
340.48800000000011
 20
844.22299999999996
 30
0.0
 70
    32
  0
VERTEX
  5
B9E1
  8
0
 62
     0
 10
340.46100000000001
 20
844.35500000000002
 30
0.0
 70
    32
  0
VERTEX
  5
B9E2
  8
0
 62
     0
 10
340.43200000000002
 20
844.48600000000022
 30
0.0
 70
    32
  0
VERTEX
  5
B9E3
  8
0
 62
     0
 10
340.39999999999998
 20
844.61800000000005
 30
0.0
 70
    32
  0
VERTEX
  5
B9E4
  8
0
 62
     0
 10
340.36599999999999
 20
844.7489999999998
 30
0.0
 70
    32
  0
VERTEX
  5
B9E5
  8
0
 62
     0
 10
340.32900000000001
 20
844.88
 30
0.0
 70
    32
  0
VERTEX
  5
B9E6
  8
0
 62
     0
 10
340.28899999999999
 20
845.00999999999999
 30
0.0
 70
    32
  0
VERTEX
  5
B9E7
  8
0
 62
     0
 10
340.24599999999998
 20
845.13999999999987
 30
0.0
 70
    32
  0
VERTEX
  5
B9E8
  8
0
 62
     0
 10
340.20100000000002
 20
845.26999999999998
 30
0.0
 70
    32
  0
VERTEX
  5
B9E9
  8
0
 62
     0
 10
340.15199999999999
 20
845.39999999999998
 30
0.0
 70
    32
  0
VERTEX
  5
B9EA
  8
0
 62
     0
 10
340.10199999999998
 20
845.52899999999988
 30
0.0
 70
    32
  0
VERTEX
  5
B9EB
  8
0
 62
     0
 10
340.048
 20
845.65800000000002
 30
0.0
 70
    32
  0
VERTEX
  5
B9EC
  8
0
 62
     0
 10
339.99200000000002
 20
845.78599999999994
 30
0.0
 70
    32
  0
VERTEX
  5
B9ED
  8
0
 62
     0
 10
339.93299999999999
 20
845.91399999999987
 30
0.0
 70
    32
  0
VERTEX
  5
B9EE
  8
0
 62
     0
 10
339.87099999999998
 20
846.04199999999992
 30
0.0
 70
    32
  0
VERTEX
  5
B9EF
  8
0
 62
     0
 10
339.80700000000002
 20
846.16899999999998
 30
0.0
 70
    32
  0
VERTEX
  5
B9F0
  8
0
 62
     0
 10
339.74000000000001
 20
846.29499999999985
 30
0.0
 70
    32
  0
VERTEX
  5
B9F1
  8
0
 62
     0
 10
339.67099999999999
 20
846.42100000000005
 30
0.0
 70
    32
  0
VERTEX
  5
B9F2
  8
0
 62
     0
 10
339.59800000000001
 20
846.54699999999991
 30
0.0
 70
    32
  0
VERTEX
  5
B9F3
  8
0
 62
     0
 10
339.524
 20
846.67200000000003
 30
0.0
 70
    32
  0
VERTEX
  5
B9F4
  8
0
 62
     0
 10
339.44600000000003
 20
846.79700000000014
 30
0.0
 70
    32
  0
VERTEX
  5
B9F5
  8
0
 62
     0
 10
339.36599999999999
 20
846.92100000000005
 30
0.0
 70
    32
  0
VERTEX
  5
B9F6
  8
0
 62
     0
 10
339.28399999999999
 20
847.04399999999987
 30
0.0
 70
    32
  0
VERTEX
  5
B9F7
  8
0
 62
     0
 10
339.19799999999998
 20
847.16699999999992
 30
0.0
 70
    32
  0
VERTEX
  5
B9F8
  8
0
 62
     0
 10
339.11099999999999
 20
847.28899999999987
 30
0.0
 70
    32
  0
VERTEX
  5
B9F9
  8
0
 62
     0
 10
339.01999999999998
 20
847.41100000000006
 30
0.0
 70
    32
  0
VERTEX
  5
B9FA
  8
0
 62
     0
 10
338.92800000000011
 20
847.53199999999993
 30
0.0
 70
    32
  0
VERTEX
  5
B9FB
  8
0
 62
     0
 10
338.83199999999999
 20
847.65199999999982
 30
0.0
 70
    32
  0
VERTEX
  5
B9FC
  8
0
 62
     0
 10
338.73500000000001
 20
847.77099999999996
 30
0.0
 70
    32
  0
VERTEX
  5
B9FD
  8
0
 62
     0
 10
338.63400000000001
 20
847.88999999999987
 30
0.0
 70
    32
  0
VERTEX
  5
B9FE
  8
0
 62
     0
 10
338.53100000000001
 20
848.00800000000004
 30
0.0
 70
    32
  0
VERTEX
  5
B9FF
  8
0
 62
     0
 10
338.42599999999999
 20
848.12499999999989
 30
0.0
 70
    32
  0
VERTEX
  5
BA00
  8
0
 62
     0
 10
338.31799999999998
 20
848.24199999999985
 30
0.0
 70
    32
  0
VERTEX
  5
BA01
  8
0
 62
     0
 10
338.20800000000003
 20
848.35799999999995
 30
0.0
 70
    32
  0
VERTEX
  5
BA02
  8
0
 62
     0
 10
338.096
 20
848.47299999999996
 30
0.0
 70
    32
  0
VERTEX
  5
BA03
  8
0
 62
     0
 10
337.98099999999999
 20
848.58699999999999
 30
0.0
 70
    32
  0
VERTEX
  5
BA04
  8
0
 62
     0
 10
337.86300000000011
 20
848.70000000000005
 30
0.0
 70
    32
  0
VERTEX
  5
BA05
  8
0
 62
     0
 10
337.74400000000003
 20
848.81299999999987
 30
0.0
 70
    32
  0
VERTEX
  5
BA06
  8
0
 62
     0
 10
337.6219999999999
 20
848.92399999999998
 30
0.0
 70
    32
  0
VERTEX
  5
BA07
  8
0
 62
     0
 10
337.49700000000001
 20
849.03499999999985
 30
0.0
 70
    32
  0
VERTEX
  5
BA08
  8
0
 62
     0
 10
337.37099999999998
 20
849.14499999999998
 30
0.0
 70
    32
  0
VERTEX
  5
BA09
  8
0
 62
     0
 10
337.2419999999999
 20
849.25300000000004
 30
0.0
 70
    32
  0
VERTEX
  5
BA0A
  8
0
 62
     0
 10
337.11099999999999
 20
849.36099999999999
 30
0.0
 70
    32
  0
VERTEX
  5
BA0B
  8
0
 62
     0
 10
336.97699999999998
 20
849.46799999999996
 30
0.0
 70
    32
  0
VERTEX
  5
BA0C
  8
0
 62
     0
 10
336.84100000000001
 20
849.57399999999996
 30
0.0
 70
    32
  0
VERTEX
  5
BA0D
  8
0
 62
     0
 10
336.70400000000001
 20
849.67899999999997
 30
0.0
 70
    32
  0
VERTEX
  5
BA0E
  8
0
 62
     0
 10
336.56400000000002
 20
849.78300000000002
 30
0.0
 70
    32
  0
VERTEX
  5
BA0F
  8
0
 62
     0
 10
336.42099999999999
 20
849.88599999999997
 30
0.0
 70
    32
  0
VERTEX
  5
BA10
  8
0
 62
     0
 10
336.27699999999999
 20
849.98800000000006
 30
0.0
 70
    32
  0
VERTEX
  5
BA11
  8
0
 62
     0
 10
336.13
 20
850.08900000000006
 30
0.0
 70
    32
  0
VERTEX
  5
BA12
  8
0
 62
     0
 10
335.98200000000003
 20
850.18899999999985
 30
0.0
 70
    32
  0
VERTEX
  5
BA13
  8
0
 62
     0
 10
335.8309999999999
 20
850.28800000000012
 30
0.0
 70
    32
  0
VERTEX
  5
BA14
  8
0
 62
     0
 10
335.678
 20
850.38600000000008
 30
0.0
 70
    32
  0
VERTEX
  5
BA15
  8
0
 62
     0
 10
335.524
 20
850.48199999999997
 30
0.0
 70
    32
  0
VERTEX
  5
BA16
  8
0
 62
     0
 10
335.36700000000002
 20
850.57799999999986
 30
0.0
 70
    32
  0
VERTEX
  5
BA17
  8
0
 62
     0
 10
335.20800000000003
 20
850.67199999999991
 30
0.0
 70
    32
  0
VERTEX
  5
BA18
  8
0
 62
     0
 10
335.04700000000003
 20
850.76499999999987
 30
0.0
 70
    32
  0
VERTEX
  5
BA19
  8
0
 62
     0
 10
334.88499999999999
 20
850.85699999999997
 30
0.0
 70
    32
  0
VERTEX
  5
BA1A
  8
0
 62
     0
 10
334.72000000000003
 20
850.94799999999987
 30
0.0
 70
    32
  0
VERTEX
  5
BA1B
  8
0
 62
     0
 10
334.55399999999997
 20
851.0379999999999
 30
0.0
 70
    32
  0
VERTEX
  5
BA1C
  8
0
 62
     0
 10
334.38499999999999
 20
851.12600000000009
 30
0.0
 70
    32
  0
VERTEX
  5
BA1D
  8
0
 62
     0
 10
334.21499999999997
 20
851.21299999999997
 30
0.0
 70
    32
  0
VERTEX
  5
BA1E
  8
0
 62
     0
 10
334.04300000000001
 20
851.29899999999998
 30
0.0
 70
    32
  0
VERTEX
  5
BA1F
  8
0
 62
     0
 10
333.87
 20
851.38399999999979
 30
0.0
 70
    32
  0
VERTEX
  5
BA20
  8
0
 62
     0
 10
333.69400000000002
 20
851.46799999999996
 30
0.0
 70
    32
  0
VERTEX
  5
BA21
  8
0
 62
     0
 10
333.517
 20
851.54999999999995
 30
0.0
 70
    32
  0
VERTEX
  5
BA22
  8
0
 62
     0
 10
333.33800000000002
 20
851.63099999999997
 30
0.0
 70
    32
  0
VERTEX
  5
BA23
  8
0
 62
     0
 10
333.15699999999998
 20
851.71000000000015
 30
0.0
 70
    32
  0
VERTEX
  5
BA24
  8
0
 62
     0
 10
332.97500000000002
 20
851.78899999999987
 30
0.0
 70
    32
  0
VERTEX
  5
BA25
  8
0
 62
     0
 10
332.791
 20
851.86599999999999
 30
0.0
 70
    32
  0
VERTEX
  5
BA26
  8
0
 62
     0
 10
332.60599999999999
 20
851.94100000000003
 30
0.0
 70
    32
  0
VERTEX
  5
BA27
  8
0
 62
     0
 10
332.4190000000001
 20
852.01599999999996
 30
0.0
 70
    32
  0
VERTEX
  5
BA28
  8
0
 62
     0
 10
332.23000000000002
 20
852.08899999999994
 30
0.0
 70
    32
  0
VERTEX
  5
BA29
  8
0
 62
     0
 10
332.04000000000002
 20
852.15999999999985
 30
0.0
 70
    32
  0
VERTEX
  5
BA2A
  8
0
 62
     0
 10
331.84800000000001
 20
852.2299999999999
 30
0.0
 70
    32
  0
VERTEX
  5
BA2B
  8
0
 62
     0
 10
331.65499999999997
 20
852.29899999999998
 30
0.0
 70
    32
  0
VERTEX
  5
BA2C
  8
0
 62
     0
 10
331.46100000000001
 20
852.36699999999985
 30
0.0
 70
    32
  0
VERTEX
  5
BA2D
  8
0
 62
     0
 10
331.26499999999999
 20
852.43299999999999
 30
0.0
 70
    32
  0
VERTEX
  5
BA2E
  8
0
 62
     0
 10
331.06799999999998
 20
852.49699999999984
 30
0.0
 70
    32
  0
VERTEX
  5
BA2F
  8
0
 62
     0
 10
330.86900000000003
 20
852.56100000000004
 30
0.0
 70
    32
  0
VERTEX
  5
BA30
  8
0
 62
     0
 10
330.6690000000001
 20
852.62199999999996
 30
0.0
 70
    32
  0
VERTEX
  5
BA31
  8
0
 62
     0
 10
330.46800000000002
 20
852.68299999999999
 30
0.0
 70
    32
  0
VERTEX
  5
BA32
  8
0
 62
     0
 10
330.26599999999991
 20
852.74199999999985
 30
0.0
 70
    32
  0
VERTEX
  5
BA33
  8
0
 62
     0
 10
330.0619999999999
 20
852.79899999999986
 30
0.0
 70
    32
  0
VERTEX
  5
BA34
  8
0
 62
     0
 10
329.85700000000003
 20
852.85500000000002
 30
0.0
 70
    32
  0
VERTEX
  5
BA35
  8
0
 62
     0
 10
329.65100000000001
 20
852.90999999999985
 30
0.0
 70
    32
  0
VERTEX
  5
BA36
  8
0
 62
     0
 10
329.44400000000002
 20
852.96299999999997
 30
0.0
 70
    32
  0
VERTEX
  5
BA37
  8
0
 62
     0
 10
329.23599999999999
 20
853.0139999999999
 30
0.0
 70
    32
  0
VERTEX
  5
BA38
  8
0
 62
     0
 10
329.02699999999999
 20
853.06399999999996
 30
0.0
 70
    32
  0
VERTEX
  5
BA39
  8
0
 62
     0
 10
328.81700000000001
 20
853.11199999999985
 30
0.0
 70
    32
  0
VERTEX
  5
BA3A
  8
0
 62
     0
 10
328.60500000000002
 20
853.15899999999988
 30
0.0
 70
    32
  0
VERTEX
  5
BA3B
  8
0
 62
     0
 10
328.39299999999997
 20
853.20499999999993
 30
0.0
 70
    32
  0
VERTEX
  5
BA3C
  8
0
 62
     0
 10
328.18000000000001
 20
853.24899999999991
 30
0.0
 70
    32
  0
VERTEX
  5
BA3D
  8
0
 62
     0
 10
327.96600000000001
 20
853.29100000000005
 30
0.0
 70
    32
  0
VERTEX
  5
BA3E
  8
0
 62
     0
 10
327.75099999999998
 20
853.33199999999988
 30
0.0
 70
    32
  0
VERTEX
  5
BA3F
  8
0
 62
     0
 10
327.53500000000003
 20
853.37100000000009
 30
0.0
 70
    32
  0
VERTEX
  5
BA40
  8
0
 62
     0
 10
327.31900000000002
 20
853.40899999999999
 30
0.0
 70
    32
  0
VERTEX
  5
BA41
  8
0
 62
     0
 10
327.101
 20
853.44500000000005
 30
0.0
 70
    32
  0
VERTEX
  5
BA42
  8
0
 62
     0
 10
326.88299999999998
 20
853.48000000000002
 30
0.0
 70
    32
  0
VERTEX
  5
BA43
  8
0
 62
     0
 10
326.66500000000002
 20
853.51300000000003
 30
0.0
 70
    32
  0
VERTEX
  5
BA44
  8
0
 62
     0
 10
326.44499999999999
 20
853.54399999999987
 30
0.0
 70
    32
  0
VERTEX
  5
BA45
  8
0
 62
     0
 10
326.22500000000002
 20
853.57399999999996
 30
0.0
 70
    32
  0
VERTEX
  5
BA46
  8
0
 62
     0
 10
326.00400000000002
 20
853.60199999999998
 30
0.0
 70
    32
  0
VERTEX
  5
BA47
  8
0
 62
     0
 10
325.78300000000002
 20
853.62899999999991
 30
0.0
 70
    32
  0
VERTEX
  5
BA48
  8
0
 62
     0
 10
325.56099999999998
 20
853.654
 30
0.0
 70
    32
  0
VERTEX
  5
BA49
  8
0
 62
     0
 10
325.339
 20
853.67700000000002
 30
0.0
 70
    32
  0
VERTEX
  5
BA4A
  8
0
 62
     0
 10
325.11599999999999
 20
853.69899999999996
 30
0.0
 70
    32
  0
VERTEX
  5
BA4B
  8
0
 62
     0
 10
324.89299999999997
 20
853.71899999999982
 30
0.0
 70
    32
  0
VERTEX
  5
BA4C
  8
0
 62
     0
 10
324.66899999999998
 20
853.73800000000006
 30
0.0
 70
    32
  0
VERTEX
  5
BA4D
  8
0
 62
     0
 10
324.44499999999999
 20
853.75499999999988
 30
0.0
 70
    32
  0
VERTEX
  5
BA4E
  8
0
 62
     0
 10
324.221
 20
853.77099999999996
 30
0.0
 70
    32
  0
VERTEX
  5
BA4F
  8
0
 62
     0
 10
323.99599999999998
 20
853.78399999999999
 30
0.0
 70
    32
  0
VERTEX
  5
BA50
  8
0
 62
     0
 10
323.77100000000002
 20
853.79699999999991
 30
0.0
 70
    32
  0
VERTEX
  5
BA51
  8
0
 62
     0
 10
323.54599999999999
 20
853.80700000000013
 30
0.0
 70
    32
  0
VERTEX
  5
BA52
  8
0
 62
     0
 10
323.32100000000003
 20
853.81600000000014
 30
0.0
 70
    32
  0
VERTEX
  5
BA53
  8
0
 62
     0
 10
323.09500000000003
 20
853.82299999999998
 30
0.0
 70
    32
  0
VERTEX
  5
BA54
  8
0
 62
     0
 10
322.86900000000003
 20
853.82899999999995
 30
0.0
 70
    32
  0
VERTEX
  5
BA55
  8
0
 62
     0
 10
322.64299999999997
 20
853.83299999999997
 30
0.0
 70
    32
  0
VERTEX
  5
BA56
  8
0
 62
     0
 10
322.41800000000001
 20
853.83600000000001
 30
0.0
 70
    32
  0
VERTEX
  5
BA57
  8
0
 62
     0
 10
322.19200000000001
 20
853.83600000000001
 30
0.0
 70
    32
  0
SEQEND
  5
BA58
  8
0
 62
     0
  0
POLYLINE
  5
B4A8
  8
0
 62
     0
 66
     1
 10
0.0
 20
0.0
 30
0.0
 70
     8
  0
VERTEX
  5
BA59
  8
0
 62
     0
 10
340.60399999999998
 20
840.48800000000006
 30
0.0
 70
    32
  0
VERTEX
  5
BA5A
  8
0
 62
     0
 10
340.60300000000001
 20
840.60500000000002
 30
0.0
 70
    32
  0
VERTEX
  5
BA5B
  8
0
 62
     0
 10
340.59899999999999
 20
840.72199999999998
 30
0.0
 70
    32
  0
VERTEX
  5
BA5C
  8
0
 62
     0
 10
340.59199999999998
 20
840.83899999999983
 30
0.0
 70
    32
  0
VERTEX
  5
BA5D
  8
0
 62
     0
 10
340.58199999999999
 20
840.95600000000002
 30
0.0
 70
    32
  0
VERTEX
  5
BA5E
  8
0
 62
     0
 10
340.56999999999999
 20
841.07299999999987
 30
0.0
 70
    32
  0
VERTEX
  5
BA5F
  8
0
 62
     0
 10
340.55500000000001
 20
841.19000000000005
 30
0.0
 70
    32
  0
VERTEX
  5
BA60
  8
0
 62
     0
 10
340.536
 20
841.30700000000013
 30
0.0
 70
    32
  0
VERTEX
  5
BA61
  8
0
 62
     0
 10
340.51599999999991
 20
841.42299999999989
 30
0.0
 70
    32
  0
VERTEX
  5
BA62
  8
0
 62
     0
 10
340.49200000000002
 20
841.53999999999985
 30
0.0
 70
    32
  0
VERTEX
  5
BA63
  8
0
 62
     0
 10
340.46600000000001
 20
841.65599999999995
 30
0.0
 70
    32
  0
VERTEX
  5
BA64
  8
0
 62
     0
 10
340.43700000000001
 20
841.77199999999993
 30
0.0
 70
    32
  0
VERTEX
  5
BA65
  8
0
 62
     0
 10
340.40499999999997
 20
841.88799999999992
 30
0.0
 70
    32
  0
VERTEX
  5
BA66
  8
0
 62
     0
 10
340.37099999999998
 20
842.00399999999979
 30
0.0
 70
    32
  0
VERTEX
  5
BA67
  8
0
 62
     0
 10
340.33300000000003
 20
842.12
 30
0.0
 70
    32
  0
VERTEX
  5
BA68
  8
0
 62
     0
 10
340.29300000000001
 20
842.2349999999999
 30
0.0
 70
    32
  0
VERTEX
  5
BA69
  8
0
 62
     0
 10
340.25099999999998
 20
842.35000000000002
 30
0.0
 70
    32
  0
VERTEX
  5
BA6A
  8
0
 62
     0
 10
340.20499999999998
 20
842.46499999999992
 30
0.0
 70
    32
  0
VERTEX
  5
BA6B
  8
0
 62
     0
 10
340.15699999999998
 20
842.57899999999995
 30
0.0
 70
    32
  0
VERTEX
  5
BA6C
  8
0
 62
     0
 10
340.10599999999999
 20
842.69299999999998
 30
0.0
 70
    32
  0
VERTEX
  5
BA6D
  8
0
 62
     0
 10
340.05200000000002
 20
842.8069999999999
 30
0.0
 70
    32
  0
VERTEX
  5
BA6E
  8
0
 62
     0
 10
339.99599999999998
 20
842.91999999999985
 30
0.0
 70
    32
  0
VERTEX
  5
BA6F
  8
0
 62
     0
 10
339.93700000000001
 20
843.03399999999988
 30
0.0
 70
    32
  0
VERTEX
  5
BA70
  8
0
 62
     0
 10
339.87599999999998
 20
843.14600000000007
 30
0.0
 70
    32
  0
VERTEX
  5
BA71
  8
0
 62
     0
 10
339.81099999999998
 20
843.2589999999999
 30
0.0
 70
    32
  0
VERTEX
  5
BA72
  8
0
 62
     0
 10
339.745
 20
843.36999999999989
 30
0.0
 70
    32
  0
VERTEX
  5
BA73
  8
0
 62
     0
 10
339.67500000000001
 20
843.48199999999997
 30
0.0
 70
    32
  0
VERTEX
  5
BA74
  8
0
 62
     0
 10
339.60300000000001
 20
843.59299999999996
 30
0.0
 70
    32
  0
VERTEX
  5
BA75
  8
0
 62
     0
 10
339.52800000000002
 20
843.70299999999997
 30
0.0
 70
    32
  0
VERTEX
  5
BA76
  8
0
 62
     0
 10
339.44999999999999
 20
843.81299999999987
 30
0.0
 70
    32
  0
VERTEX
  5
BA77
  8
0
 62
     0
 10
339.37
 20
843.923
 30
0.0
 70
    32
  0
VERTEX
  5
BA78
  8
0
 62
     0
 10
339.28800000000001
 20
844.03199999999993
 30
0.0
 70
    32
  0
VERTEX
  5
BA79
  8
0
 62
     0
 10
339.20299999999997
 20
844.13999999999987
 30
0.0
 70
    32
  0
VERTEX
  5
BA7A
  8
0
 62
     0
 10
339.11500000000001
 20
844.24799999999993
 30
0.0
 70
    32
  0
VERTEX
  5
BA7B
  8
0
 62
     0
 10
339.02499999999998
 20
844.35600000000011
 30
0.0
 70
    32
  0
VERTEX
  5
BA7C
  8
0
 62
     0
 10
338.93200000000002
 20
844.46299999999997
 30
0.0
 70
    32
  0
VERTEX
  5
BA7D
  8
0
 62
     0
 10
338.83600000000001
 20
844.56899999999985
 30
0.0
 70
    32
  0
VERTEX
  5
BA7E
  8
0
 62
     0
 10
338.73899999999998
 20
844.67399999999998
 30
0.0
 70
    32
  0
VERTEX
  5
BA7F
  8
0
 62
     0
 10
338.63799999999998
 20
844.77899999999988
 30
0.0
 70
    32
  0
VERTEX
  5
BA80
  8
0
 62
     0
 10
338.53500000000003
 20
844.88399999999979
 30
0.0
 70
    32
  0
VERTEX
  5
BA81
  8
0
 62
     0
 10
338.43000000000001
 20
844.98699999999997
 30
0.0
 70
    32
  0
VERTEX
  5
BA82
  8
0
 62
     0
 10
338.322
 20
845.09000000000003
 30
0.0
 70
    32
  0
VERTEX
  5
BA83
  8
0
 62
     0
 10
338.21199999999999
 20
845.19199999999989
 30
0.0
 70
    32
  0
VERTEX
  5
BA84
  8
0
 62
     0
 10
338.10000000000002
 20
845.29399999999987
 30
0.0
 70
    32
  0
VERTEX
  5
BA85
  8
0
 62
     0
 10
337.98500000000001
 20
845.39499999999998
 30
0.0
 70
    32
  0
VERTEX
  5
BA86
  8
0
 62
     0
 10
337.86700000000002
 20
845.495
 30
0.0
 70
    32
  0
VERTEX
  5
BA87
  8
0
 62
     0
 10
337.7480000000001
 20
845.59400000000005
 30
0.0
 70
    32
  0
VERTEX
  5
BA88
  8
0
 62
     0
 10
337.625
 20
845.69299999999987
 30
0.0
 70
    32
  0
VERTEX
  5
BA89
  8
0
 62
     0
 10
337.50099999999998
 20
845.79100000000005
 30
0.0
 70
    32
  0
VERTEX
  5
BA8A
  8
0
 62
     0
 10
337.37400000000002
 20
845.88800000000003
 30
0.0
 70
    32
  0
VERTEX
  5
BA8B
  8
0
 62
     0
 10
337.245
 20
845.98399999999992
 30
0.0
 70
    32
  0
VERTEX
  5
BA8C
  8
0
 62
     0
 10
337.11399999999998
 20
846.07899999999995
 30
0.0
 70
    32
  0
VERTEX
  5
BA8D
  8
0
 62
     0
 10
336.98099999999999
 20
846.17399999999998
 30
0.0
 70
    32
  0
VERTEX
  5
BA8E
  8
0
 62
     0
 10
336.84500000000003
 20
846.26699999999994
 30
0.0
 70
    32
  0
VERTEX
  5
BA8F
  8
0
 62
     0
 10
336.70699999999999
 20
846.3599999999999
 30
0.0
 70
    32
  0
VERTEX
  5
BA90
  8
0
 62
     0
 10
336.56700000000001
 20
846.452
 30
0.0
 70
    32
  0
VERTEX
  5
BA91
  8
0
 62
     0
 10
336.42500000000001
 20
846.54299999999989
 30
0.0
 70
    32
  0
VERTEX
  5
BA92
  8
0
 62
     0
 10
336.27999999999997
 20
846.63300000000015
 30
0.0
 70
    32
  0
VERTEX
  5
BA93
  8
0
 62
     0
 10
336.13400000000001
 20
846.72199999999987
 30
0.0
 70
    32
  0
VERTEX
  5
BA94
  8
0
 62
     0
 10
335.98500000000001
 20
846.80999999999995
 30
0.0
 70
    32
  0
VERTEX
  5
BA95
  8
0
 62
     0
 10
335.834
 20
846.89800000000002
 30
0.0
 70
    32
  0
VERTEX
  5
BA96
  8
0
 62
     0
 10
335.6819999999999
 20
846.98399999999992
 30
0.0
 70
    32
  0
VERTEX
  5
BA97
  8
0
 62
     0
 10
335.52699999999999
 20
847.06899999999985
 30
0.0
 70
    32
  0
VERTEX
  5
BA98
  8
0
 62
     0
 10
335.37
 20
847.154
 30
0.0
 70
    32
  0
VERTEX
  5
BA99
  8
0
 62
     0
 10
335.21100000000001
 20
847.23699999999985
 30
0.0
 70
    32
  0
VERTEX
  5
BA9A
  8
0
 62
     0
 10
335.05000000000001
 20
847.31899999999985
 30
0.0
 70
    32
  0
VERTEX
  5
BA9B
  8
0
 62
     0
 10
334.88799999999998
 20
847.39999999999998
 30
0.0
 70
    32
  0
VERTEX
  5
BA9C
  8
0
 62
     0
 10
334.72300000000001
 20
847.48100000000011
 30
0.0
 70
    32
  0
VERTEX
  5
BA9D
  8
0
 62
     0
 10
334.5569999999999
 20
847.55999999999995
 30
0.0
 70
    32
  0
VERTEX
  5
BA9E
  8
0
 62
     0
 10
334.38799999999998
 20
847.63800000000003
 30
0.0
 70
    32
  0
VERTEX
  5
BA9F
  8
0
 62
     0
 10
334.21800000000002
 20
847.71499999999992
 30
0.0
 70
    32
  0
VERTEX
  5
BAA0
  8
0
 62
     0
 10
334.04599999999999
 20
847.79100000000005
 30
0.0
 70
    32
  0
VERTEX
  5
BAA1
  8
0
 62
     0
 10
333.8719999999999
 20
847.8660000000001
 30
0.0
 70
    32
  0
VERTEX
  5
BAA2
  8
0
 62
     0
 10
333.69699999999989
 20
847.94000000000005
 30
0.0
 70
    32
  0
VERTEX
  5
BAA3
  8
0
 62
     0
 10
333.51999999999998
 20
848.01199999999994
 30
0.0
 70
    32
  0
VERTEX
  5
BAA4
  8
0
 62
     0
 10
333.34100000000001
 20
848.08399999999983
 30
0.0
 70
    32
  0
VERTEX
  5
BAA5
  8
0
 62
     0
 10
333.16000000000003
 20
848.154
 30
0.0
 70
    32
  0
VERTEX
  5
BAA6
  8
0
 62
     0
 10
332.97800000000001
 20
848.22300000000007
 30
0.0
 70
    32
  0
VERTEX
  5
BAA7
  8
0
 62
     0
 10
332.79399999999998
 20
848.29100000000005
 30
0.0
 70
    32
  0
VERTEX
  5
BAA8
  8
0
 62
     0
 10
332.608
 20
848.35799999999995
 30
0.0
 70
    32
  0
VERTEX
  5
BAA9
  8
0
 62
     0
 10
332.42099999999999
 20
848.42399999999986
 30
0.0
 70
    32
  0
VERTEX
  5
BAAA
  8
0
 62
     0
 10
332.23200000000003
 20
848.48800000000006
 30
0.0
 70
    32
  0
VERTEX
  5
BAAB
  8
0
 62
     0
 10
332.04199999999997
 20
848.55200000000013
 30
0.0
 70
    32
  0
VERTEX
  5
BAAC
  8
0
 62
     0
 10
331.851
 20
848.61399999999981
 30
0.0
 70
    32
  0
VERTEX
  5
BAAD
  8
0
 62
     0
 10
331.65800000000002
 20
848.67499999999984
 30
0.0
 70
    32
  0
VERTEX
  5
BAAE
  8
0
 62
     0
 10
331.46300000000002
 20
848.73399999999992
 30
0.0
 70
    32
  0
VERTEX
  5
BAAF
  8
0
 62
     0
 10
331.267
 20
848.79199999999992
 30
0.0
 70
    32
  0
VERTEX
  5
BAB0
  8
0
 62
     0
 10
331.06999999999999
 20
848.85000000000002
 30
0.0
 70
    32
  0
VERTEX
  5
BAB1
  8
0
 62
     0
 10
330.87099999999998
 20
848.90499999999997
 30
0.0
 70
    32
  0
VERTEX
  5
BAB2
  8
0
 62
     0
 10
330.67099999999999
 20
848.96000000000015
 30
0.0
 70
    32
  0
VERTEX
  5
BAB3
  8
0
 62
     0
 10
330.47000000000003
 20
849.01300000000003
 30
0.0
 70
    32
  0
VERTEX
  5
BAB4
  8
0
 62
     0
 10
330.26799999999997
 20
849.06500000000005
 30
0.0
 70
    32
  0
VERTEX
  5
BAB5
  8
0
 62
     0
 10
330.06400000000002
 20
849.11599999999999
 30
0.0
 70
    32
  0
VERTEX
  5
BAB6
  8
0
 62
     0
 10
329.85899999999998
 20
849.16499999999985
 30
0.0
 70
    32
  0
VERTEX
  5
BAB7
  8
0
 62
     0
 10
329.65300000000002
 20
849.21399999999994
 30
0.0
 70
    32
  0
VERTEX
  5
BAB8
  8
0
 62
     0
 10
329.44600000000003
 20
849.25999999999988
 30
0.0
 70
    32
  0
VERTEX
  5
BAB9
  8
0
 62
     0
 10
329.238
 20
849.30599999999993
 30
0.0
 70
    32
  0
VERTEX
  5
BABA
  8
0
 62
     0
 10
329.029
 20
849.35000000000002
 30
0.0
 70
    32
  0
VERTEX
  5
BABB
  8
0
 62
     0
 10
328.81799999999998
 20
849.39300000000003
 30
0.0
 70
    32
  0
VERTEX
  5
BABC
  8
0
 62
     0
 10
328.60700000000003
 20
849.43399999999986
 30
0.0
 70
    32
  0
VERTEX
  5
BABD
  8
0
 62
     0
 10
328.39499999999998
 20
849.47400000000005
 30
0.0
 70
    32
  0
VERTEX
  5
BABE
  8
0
 62
     0
 10
328.18099999999998
 20
849.51299999999992
 30
0.0
 70
    32
  0
VERTEX
  5
BABF
  8
0
 62
     0
 10
327.96699999999998
 20
849.55100000000004
 30
0.0
 70
    32
  0
VERTEX
  5
BAC0
  8
0
 62
     0
 10
327.7519999999999
 20
849.58699999999999
 30
0.0
 70
    32
  0
VERTEX
  5
BAC1
  8
0
 62
     0
 10
327.53700000000009
 20
849.62100000000009
 30
0.0
 70
    32
  0
VERTEX
  5
BAC2
  8
0
 62
     0
 10
327.31999999999999
 20
849.65499999999986
 30
0.0
 70
    32
  0
VERTEX
  5
BAC3
  8
0
 62
     0
 10
327.10300000000001
 20
849.6869999999999
 30
0.0
 70
    32
  0
VERTEX
  5
BAC4
  8
0
 62
     0
 10
326.88400000000001
 20
849.71699999999998
 30
0.0
 70
    32
  0
VERTEX
  5
BAC5
  8
0
 62
     0
 10
326.666
 20
849.74599999999998
 30
0.0
 70
    32
  0
VERTEX
  5
BAC6
  8
0
 62
     0
 10
326.44600000000003
 20
849.77399999999977
 30
0.0
 70
    32
  0
VERTEX
  5
BAC7
  8
0
 62
     0
 10
326.226
 20
849.80100000000004
 30
0.0
 70
    32
  0
VERTEX
  5
BAC8
  8
0
 62
     0
 10
326.005
 20
849.82500000000005
 30
0.0
 70
    32
  0
VERTEX
  5
BAC9
  8
0
 62
     0
 10
325.78399999999999
 20
849.84900000000005
 30
0.0
 70
    32
  0
VERTEX
  5
BACA
  8
0
 62
     0
 10
325.56200000000001
 20
849.87099999999998
 30
0.0
 70
    32
  0
VERTEX
  5
BACB
  8
0
 62
     0
 10
325.33999999999997
 20
849.89200000000005
 30
0.0
 70
    32
  0
VERTEX
  5
BACC
  8
0
 62
     0
 10
325.11700000000002
 20
849.91099999999994
 30
0.0
 70
    32
  0
VERTEX
  5
BACD
  8
0
 62
     0
 10
324.89299999999997
 20
849.92899999999997
 30
0.0
 70
    32
  0
VERTEX
  5
BACE
  8
0
 62
     0
 10
324.67000000000002
 20
849.94600000000003
 30
0.0
 70
    32
  0
VERTEX
  5
BACF
  8
0
 62
     0
 10
324.44600000000003
 20
849.96100000000001
 30
0.0
 70
    32
  0
VERTEX
  5
BAD0
  8
0
 62
     0
 10
324.221
 20
849.97399999999993
 30
0.0
 70
    32
  0
VERTEX
  5
BAD1
  8
0
 62
     0
 10
323.99599999999998
 20
849.9860000000001
 30
0.0
 70
    32
  0
VERTEX
  5
BAD2
  8
0
 62
     0
 10
323.77100000000002
 20
849.99699999999984
 30
0.0
 70
    32
  0
VERTEX
  5
BAD3
  8
0
 62
     0
 10
323.54599999999999
 20
850.00699999999995
 30
0.0
 70
    32
  0
VERTEX
  5
BAD4
  8
0
 62
     0
 10
323.32100000000003
 20
850.01399999999978
 30
0.0
 70
    32
  0
VERTEX
  5
BAD5
  8
0
 62
     0
 10
323.09500000000003
 20
850.02099999999996
 30
0.0
 70
    32
  0
VERTEX
  5
BAD6
  8
0
 62
     0
 10
322.86900000000003
 20
850.02599999999995
 30
0.0
 70
    32
  0
VERTEX
  5
BAD7
  8
0
 62
     0
 10
322.64400000000001
 20
850.02999999999986
 30
0.0
 70
    32
  0
VERTEX
  5
BAD8
  8
0
 62
     0
 10
322.41800000000001
 20
850.03199999999981
 30
0.0
 70
    32
  0
VERTEX
  5
BAD9
  8
0
 62
     0
 10
322.19200000000001
 20
850.03199999999981
 30
0.0
 70
    32
  0
SEQEND
  5
BADA
  8
0
 62
     0
  0
LINE
  5
B4A9
  8
0
 62
     0
 10
330.69174167908562
 20
853.99543851899261
 30
0.0
 11
330.69174167908562
 21
855.49543851899261
 31
0.0
  0
LINE
  5
B4AA
  8
0
 62
     0
 10
330.69174167908562
 20
853.99543851899261
 30
0.0
 11
238.6917416790856
 21
853.99543851899261
 31
0.0
  0
LINE
  5
B4AB
  8
0
 62
     0
 10
323.19174167908562
 20
789.62645051899244
 30
0.0
 11
246.1917416790856
 21
789.62645051899244
 31
0.0
  0
ARC
  5
B4AC
  8
0
 62
     0
 10
223.9417416790856
 20
820.41278351899246
 30
0.0
 40
4.25
 50
119.5585950000096
 51
174.36640800000299
  0
LINE
  5
B4AD
  8
0
 62
     0
 10
221.84515967908541
 20
824.10965351899233
 30
0.0
 11
223.81490167908569
 21
825.22674051899219
 31
0.0
  0
ARC
  5
B4AE
  8
0
 62
     0
 10
223.9417416790856
 20
824.88278551899259
 30
0.0
 40
4.25
 50
119.5585950000096
 51
180.0
  0
ARC
  5
B4AF
  8
0
 62
     0
 10
227.6917416790856
 20
821.40271851899274
 30
0.0
 40
8.0
 50
180.0
 51
242.02293999998381
  0
POLYLINE
  5
B4B0
  8
0
 62
     0
 66
     1
 10
0.0
 20
0.0
 30
0.0
 70
     8
  0
VERTEX
  5
BADB
  8
0
 62
     0
 10
247.19200000000001
 20
853.83600000000001
 30
0.0
 70
    32
  0
VERTEX
  5
BADC
  8
0
 62
     0
 10
246.96600000000001
 20
853.83600000000001
 30
0.0
 70
    32
  0
VERTEX
  5
BADD
  8
0
 62
     0
 10
246.74000000000001
 20
853.83299999999997
 30
0.0
 70
    32
  0
VERTEX
  5
BADE
  8
0
 62
     0
 10
246.51400000000001
 20
853.82899999999995
 30
0.0
 70
    32
  0
VERTEX
  5
BADF
  8
0
 62
     0
 10
246.28899999999999
 20
853.82299999999998
 30
0.0
 70
    32
  0
VERTEX
  5
BAE0
  8
0
 62
     0
 10
246.06299999999999
 20
853.81600000000014
 30
0.0
 70
    32
  0
VERTEX
  5
BAE1
  8
0
 62
     0
 10
245.83799999999999
 20
853.80700000000013
 30
0.0
 70
    32
  0
VERTEX
  5
BAE2
  8
0
 62
     0
 10
245.61199999999999
 20
853.79699999999991
 30
0.0
 70
    32
  0
VERTEX
  5
BAE3
  8
0
 62
     0
 10
245.387
 20
853.78399999999999
 30
0.0
 70
    32
  0
VERTEX
  5
BAE4
  8
0
 62
     0
 10
245.16300000000001
 20
853.77099999999996
 30
0.0
 70
    32
  0
VERTEX
  5
BAE5
  8
0
 62
     0
 10
244.93799999999999
 20
853.75499999999988
 30
0.0
 70
    32
  0
VERTEX
  5
BAE6
  8
0
 62
     0
 10
244.714
 20
853.73800000000006
 30
0.0
 70
    32
  0
VERTEX
  5
BAE7
  8
0
 62
     0
 10
244.49100000000001
 20
853.71899999999982
 30
0.0
 70
    32
  0
VERTEX
  5
BAE8
  8
0
 62
     0
 10
244.267
 20
853.69899999999996
 30
0.0
 70
    32
  0
VERTEX
  5
BAE9
  8
0
 62
     0
 10
244.04499999999999
 20
853.67700000000002
 30
0.0
 70
    32
  0
VERTEX
  5
BAEA
  8
0
 62
     0
 10
243.822
 20
853.654
 30
0.0
 70
    32
  0
VERTEX
  5
BAEB
  8
0
 62
     0
 10
243.601
 20
853.62899999999991
 30
0.0
 70
    32
  0
VERTEX
  5
BAEC
  8
0
 62
     0
 10
243.37899999999999
 20
853.60199999999998
 30
0.0
 70
    32
  0
VERTEX
  5
BAED
  8
0
 62
     0
 10
243.15899999999999
 20
853.57399999999996
 30
0.0
 70
    32
  0
VERTEX
  5
BAEE
  8
0
 62
     0
 10
242.93799999999999
 20
853.54399999999987
 30
0.0
 70
    32
  0
VERTEX
  5
BAEF
  8
0
 62
     0
 10
242.71899999999999
 20
853.51300000000003
 30
0.0
 70
    32
  0
VERTEX
  5
BAF0
  8
0
 62
     0
 10
242.5
 20
853.48000000000002
 30
0.0
 70
    32
  0
VERTEX
  5
BAF1
  8
0
 62
     0
 10
242.28200000000001
 20
853.44500000000005
 30
0.0
 70
    32
  0
VERTEX
  5
BAF2
  8
0
 62
     0
 10
242.065
 20
853.40899999999999
 30
0.0
 70
    32
  0
VERTEX
  5
BAF3
  8
0
 62
     0
 10
241.84800000000001
 20
853.37100000000009
 30
0.0
 70
    32
  0
VERTEX
  5
BAF4
  8
0
 62
     0
 10
241.63200000000001
 20
853.33199999999988
 30
0.0
 70
    32
  0
VERTEX
  5
BAF5
  8
0
 62
     0
 10
241.417
 20
853.29100000000005
 30
0.0
 70
    32
  0
VERTEX
  5
BAF6
  8
0
 62
     0
 10
241.203
 20
853.24899999999991
 30
0.0
 70
    32
  0
VERTEX
  5
BAF7
  8
0
 62
     0
 10
240.99000000000001
 20
853.20499999999993
 30
0.0
 70
    32
  0
VERTEX
  5
BAF8
  8
0
 62
     0
 10
240.77799999999999
 20
853.15899999999988
 30
0.0
 70
    32
  0
VERTEX
  5
BAF9
  8
0
 62
     0
 10
240.56700000000001
 20
853.11199999999985
 30
0.0
 70
    32
  0
VERTEX
  5
BAFA
  8
0
 62
     0
 10
240.357
 20
853.06399999999996
 30
0.0
 70
    32
  0
VERTEX
  5
BAFB
  8
0
 62
     0
 10
240.14699999999999
 20
853.0139999999999
 30
0.0
 70
    32
  0
VERTEX
  5
BAFC
  8
0
 62
     0
 10
239.93899999999999
 20
852.96299999999997
 30
0.0
 70
    32
  0
VERTEX
  5
BAFD
  8
0
 62
     0
 10
239.732
 20
852.90999999999985
 30
0.0
 70
    32
  0
VERTEX
  5
BAFE
  8
0
 62
     0
 10
239.52600000000001
 20
852.85500000000002
 30
0.0
 70
    32
  0
VERTEX
  5
BAFF
  8
0
 62
     0
 10
239.321
 20
852.79899999999986
 30
0.0
 70
    32
  0
VERTEX
  5
BB00
  8
0
 62
     0
 10
239.11799999999999
 20
852.74199999999985
 30
0.0
 70
    32
  0
VERTEX
  5
BB01
  8
0
 62
     0
 10
238.91499999999999
 20
852.68299999999999
 30
0.0
 70
    32
  0
VERTEX
  5
BB02
  8
0
 62
     0
 10
238.714
 20
852.62199999999996
 30
0.0
 70
    32
  0
VERTEX
  5
BB03
  8
0
 62
     0
 10
238.51400000000001
 20
852.56100000000004
 30
0.0
 70
    32
  0
VERTEX
  5
BB04
  8
0
 62
     0
 10
238.316
 20
852.49699999999984
 30
0.0
 70
    32
  0
VERTEX
  5
BB05
  8
0
 62
     0
 10
238.11799999999999
 20
852.43299999999999
 30
0.0
 70
    32
  0
VERTEX
  5
BB06
  8
0
 62
     0
 10
237.923
 20
852.36699999999985
 30
0.0
 70
    32
  0
VERTEX
  5
BB07
  8
0
 62
     0
 10
237.72800000000001
 20
852.29899999999998
 30
0.0
 70
    32
  0
VERTEX
  5
BB08
  8
0
 62
     0
 10
237.535
 20
852.2299999999999
 30
0.0
 70
    32
  0
VERTEX
  5
BB09
  8
0
 62
     0
 10
237.34399999999999
 20
852.15999999999985
 30
0.0
 70
    32
  0
VERTEX
  5
BB0A
  8
0
 62
     0
 10
237.15299999999999
 20
852.08899999999994
 30
0.0
 70
    32
  0
VERTEX
  5
BB0B
  8
0
 62
     0
 10
236.965
 20
852.01599999999996
 30
0.0
 70
    32
  0
VERTEX
  5
BB0C
  8
0
 62
     0
 10
236.77799999999999
 20
851.94100000000003
 30
0.0
 70
    32
  0
VERTEX
  5
BB0D
  8
0
 62
     0
 10
236.59200000000001
 20
851.86599999999999
 30
0.0
 70
    32
  0
VERTEX
  5
BB0E
  8
0
 62
     0
 10
236.40799999999999
 20
851.78899999999987
 30
0.0
 70
    32
  0
VERTEX
  5
BB0F
  8
0
 62
     0
 10
236.226
 20
851.71000000000015
 30
0.0
 70
    32
  0
VERTEX
  5
BB10
  8
0
 62
     0
 10
236.04599999999999
 20
851.63099999999997
 30
0.0
 70
    32
  0
VERTEX
  5
BB11
  8
0
 62
     0
 10
235.86699999999999
 20
851.54999999999995
 30
0.0
 70
    32
  0
VERTEX
  5
BB12
  8
0
 62
     0
 10
235.68899999999999
 20
851.46799999999996
 30
0.0
 70
    32
  0
VERTEX
  5
BB13
  8
0
 62
     0
 10
235.51400000000001
 20
851.38399999999979
 30
0.0
 70
    32
  0
VERTEX
  5
BB14
  8
0
 62
     0
 10
235.34
 20
851.29899999999998
 30
0.0
 70
    32
  0
VERTEX
  5
BB15
  8
0
 62
     0
 10
235.16800000000001
 20
851.21299999999997
 30
0.0
 70
    32
  0
VERTEX
  5
BB16
  8
0
 62
     0
 10
234.99799999999999
 20
851.12600000000009
 30
0.0
 70
    32
  0
VERTEX
  5
BB17
  8
0
 62
     0
 10
234.83000000000001
 20
851.0379999999999
 30
0.0
 70
    32
  0
VERTEX
  5
BB18
  8
0
 62
     0
 10
234.66300000000001
 20
850.94799999999987
 30
0.0
 70
    32
  0
VERTEX
  5
BB19
  8
0
 62
     0
 10
234.499
 20
850.85699999999997
 30
0.0
 70
    32
  0
VERTEX
  5
BB1A
  8
0
 62
     0
 10
234.33600000000001
 20
850.76499999999987
 30
0.0
 70
    32
  0
VERTEX
  5
BB1B
  8
0
 62
     0
 10
234.17500000000001
 20
850.67199999999991
 30
0.0
 70
    32
  0
VERTEX
  5
BB1C
  8
0
 62
     0
 10
234.017
 20
850.57799999999986
 30
0.0
 70
    32
  0
VERTEX
  5
BB1D
  8
0
 62
     0
 10
233.86000000000001
 20
850.48199999999997
 30
0.0
 70
    32
  0
VERTEX
  5
BB1E
  8
0
 62
     0
 10
233.70500000000001
 20
850.38600000000008
 30
0.0
 70
    32
  0
VERTEX
  5
BB1F
  8
0
 62
     0
 10
233.55199999999999
 20
850.28800000000012
 30
0.0
 70
    32
  0
VERTEX
  5
BB20
  8
0
 62
     0
 10
233.40199999999999
 20
850.18899999999985
 30
0.0
 70
    32
  0
VERTEX
  5
BB21
  8
0
 62
     0
 10
233.25299999999999
 20
850.08900000000006
 30
0.0
 70
    32
  0
VERTEX
  5
BB22
  8
0
 62
     0
 10
233.107
 20
849.98800000000006
 30
0.0
 70
    32
  0
VERTEX
  5
BB23
  8
0
 62
     0
 10
232.96199999999999
 20
849.88599999999997
 30
0.0
 70
    32
  0
VERTEX
  5
BB24
  8
0
 62
     0
 10
232.81999999999999
 20
849.78300000000002
 30
0.0
 70
    32
  0
VERTEX
  5
BB25
  8
0
 62
     0
 10
232.68000000000001
 20
849.67899999999997
 30
0.0
 70
    32
  0
VERTEX
  5
BB26
  8
0
 62
     0
 10
232.542
 20
849.57399999999996
 30
0.0
 70
    32
  0
VERTEX
  5
BB27
  8
0
 62
     0
 10
232.40600000000001
 20
849.46799999999996
 30
0.0
 70
    32
  0
VERTEX
  5
BB28
  8
0
 62
     0
 10
232.273
 20
849.36099999999999
 30
0.0
 70
    32
  0
VERTEX
  5
BB29
  8
0
 62
     0
 10
232.142
 20
849.25300000000004
 30
0.0
 70
    32
  0
VERTEX
  5
BB2A
  8
0
 62
     0
 10
232.01300000000001
 20
849.14499999999998
 30
0.0
 70
    32
  0
VERTEX
  5
BB2B
  8
0
 62
     0
 10
231.886
 20
849.03499999999985
 30
0.0
 70
    32
  0
VERTEX
  5
BB2C
  8
0
 62
     0
 10
231.762
 20
848.92399999999998
 30
0.0
 70
    32
  0
VERTEX
  5
BB2D
  8
0
 62
     0
 10
231.63999999999999
 20
848.81299999999987
 30
0.0
 70
    32
  0
VERTEX
  5
BB2E
  8
0
 62
     0
 10
231.52000000000001
 20
848.70000000000005
 30
0.0
 70
    32
  0
VERTEX
  5
BB2F
  8
0
 62
     0
 10
231.40299999999999
 20
848.58699999999999
 30
0.0
 70
    32
  0
VERTEX
  5
BB30
  8
0
 62
     0
 10
231.28800000000001
 20
848.47299999999996
 30
0.0
 70
    32
  0
VERTEX
  5
BB31
  8
0
 62
     0
 10
231.17500000000001
 20
848.35799999999995
 30
0.0
 70
    32
  0
VERTEX
  5
BB32
  8
0
 62
     0
 10
231.065
 20
848.24199999999985
 30
0.0
 70
    32
  0
VERTEX
  5
BB33
  8
0
 62
     0
 10
230.95699999999999
 20
848.12499999999989
 30
0.0
 70
    32
  0
VERTEX
  5
BB34
  8
0
 62
     0
 10
230.852
 20
848.00800000000004
 30
0.0
 70
    32
  0
VERTEX
  5
BB35
  8
0
 62
     0
 10
230.749
 20
847.88999999999987
 30
0.0
 70
    32
  0
VERTEX
  5
BB36
  8
0
 62
     0
 10
230.649
 20
847.77099999999996
 30
0.0
 70
    32
  0
VERTEX
  5
BB37
  8
0
 62
     0
 10
230.55099999999999
 20
847.65199999999982
 30
0.0
 70
    32
  0
VERTEX
  5
BB38
  8
0
 62
     0
 10
230.45599999999999
 20
847.53199999999993
 30
0.0
 70
    32
  0
VERTEX
  5
BB39
  8
0
 62
     0
 10
230.363
 20
847.41100000000006
 30
0.0
 70
    32
  0
VERTEX
  5
BB3A
  8
0
 62
     0
 10
230.273
 20
847.28899999999987
 30
0.0
 70
    32
  0
VERTEX
  5
BB3B
  8
0
 62
     0
 10
230.185
 20
847.16699999999992
 30
0.0
 70
    32
  0
VERTEX
  5
BB3C
  8
0
 62
     0
 10
230.09999999999999
 20
847.04399999999987
 30
0.0
 70
    32
  0
VERTEX
  5
BB3D
  8
0
 62
     0
 10
230.017
 20
846.92100000000005
 30
0.0
 70
    32
  0
VERTEX
  5
BB3E
  8
0
 62
     0
 10
229.93700000000001
 20
846.79700000000014
 30
0.0
 70
    32
  0
VERTEX
  5
BB3F
  8
0
 62
     0
 10
229.86000000000001
 20
846.67200000000003
 30
0.0
 70
    32
  0
VERTEX
  5
BB40
  8
0
 62
     0
 10
229.785
 20
846.54699999999991
 30
0.0
 70
    32
  0
VERTEX
  5
BB41
  8
0
 62
     0
 10
229.71299999999999
 20
846.42100000000005
 30
0.0
 70
    32
  0
VERTEX
  5
BB42
  8
0
 62
     0
 10
229.643
 20
846.29499999999985
 30
0.0
 70
    32
  0
VERTEX
  5
BB43
  8
0
 62
     0
 10
229.57599999999999
 20
846.16899999999998
 30
0.0
 70
    32
  0
VERTEX
  5
BB44
  8
0
 62
     0
 10
229.512
 20
846.04199999999992
 30
0.0
 70
    32
  0
VERTEX
  5
BB45
  8
0
 62
     0
 10
229.45099999999999
 20
845.91399999999987
 30
0.0
 70
    32
  0
VERTEX
  5
BB46
  8
0
 62
     0
 10
229.392
 20
845.78599999999994
 30
0.0
 70
    32
  0
VERTEX
  5
BB47
  8
0
 62
     0
 10
229.33500000000001
 20
845.65800000000002
 30
0.0
 70
    32
  0
VERTEX
  5
BB48
  8
0
 62
     0
 10
229.28200000000001
 20
845.52899999999988
 30
0.0
 70
    32
  0
VERTEX
  5
BB49
  8
0
 62
     0
 10
229.23099999999999
 20
845.39999999999998
 30
0.0
 70
    32
  0
VERTEX
  5
BB4A
  8
0
 62
     0
 10
229.18299999999999
 20
845.26999999999998
 30
0.0
 70
    32
  0
VERTEX
  5
BB4B
  8
0
 62
     0
 10
229.137
 20
845.13999999999987
 30
0.0
 70
    32
  0
VERTEX
  5
BB4C
  8
0
 62
     0
 10
229.095
 20
845.00999999999999
 30
0.0
 70
    32
  0
VERTEX
  5
BB4D
  8
0
 62
     0
 10
229.05500000000001
 20
844.88
 30
0.0
 70
    32
  0
VERTEX
  5
BB4E
  8
0
 62
     0
 10
229.018
 20
844.7489999999998
 30
0.0
 70
    32
  0
VERTEX
  5
BB4F
  8
0
 62
     0
 10
228.983
 20
844.61800000000005
 30
0.0
 70
    32
  0
VERTEX
  5
BB50
  8
0
 62
     0
 10
228.95099999999999
 20
844.48600000000022
 30
0.0
 70
    32
  0
VERTEX
  5
BB51
  8
0
 62
     0
 10
228.922
 20
844.35500000000002
 30
0.0
 70
    32
  0
VERTEX
  5
BB52
  8
0
 62
     0
 10
228.89599999999999
 20
844.22299999999996
 30
0.0
 70
    32
  0
VERTEX
  5
BB53
  8
0
 62
     0
 10
228.87200000000001
 20
844.09100000000001
 30
0.0
 70
    32
  0
VERTEX
  5
BB54
  8
0
 62
     0
 10
228.852
 20
843.95899999999995
 30
0.0
 70
    32
  0
VERTEX
  5
BB55
  8
0
 62
     0
 10
228.834
 20
843.82699999999988
 30
0.0
 70
    32
  0
VERTEX
  5
BB56
  8
0
 62
     0
 10
228.81800000000001
 20
843.69500000000005
 30
0.0
 70
    32
  0
VERTEX
  5
BB57
  8
0
 62
     0
 10
228.80600000000001
 20
843.56299999999987
 30
0.0
 70
    32
  0
VERTEX
  5
BB58
  8
0
 62
     0
 10
228.79599999999999
 20
843.42999999999995
 30
0.0
 70
    32
  0
VERTEX
  5
BB59
  8
0
 62
     0
 10
228.78899999999999
 20
843.298
 30
0.0
 70
    32
  0
VERTEX
  5
BB5A
  8
0
 62
     0
 10
228.785
 20
843.16499999999985
 30
0.0
 70
    32
  0
VERTEX
  5
BB5B
  8
0
 62
     0
 10
228.78399999999999
 20
843.03200000000004
 30
0.0
 70
    32
  0
SEQEND
  5
BB5C
  8
0
 62
     0
  0
POLYLINE
  5
B4B1
  8
0
 62
     0
 66
     1
 10
0.0
 20
0.0
 30
0.0
 70
     8
  0
VERTEX
  5
BB5D
  8
0
 62
     0
 10
247.19200000000001
 20
850.03199999999981
 30
0.0
 70
    32
  0
VERTEX
  5
BB5E
  8
0
 62
     0
 10
246.96600000000001
 20
850.03199999999981
 30
0.0
 70
    32
  0
VERTEX
  5
BB5F
  8
0
 62
     0
 10
246.74000000000001
 20
850.02999999999986
 30
0.0
 70
    32
  0
VERTEX
  5
BB60
  8
0
 62
     0
 10
246.51400000000001
 20
850.02599999999995
 30
0.0
 70
    32
  0
VERTEX
  5
BB61
  8
0
 62
     0
 10
246.28800000000001
 20
850.02099999999996
 30
0.0
 70
    32
  0
VERTEX
  5
BB62
  8
0
 62
     0
 10
246.06299999999999
 20
850.01399999999978
 30
0.0
 70
    32
  0
VERTEX
  5
BB63
  8
0
 62
     0
 10
245.83699999999999
 20
850.00699999999995
 30
0.0
 70
    32
  0
VERTEX
  5
BB64
  8
0
 62
     0
 10
245.61199999999999
 20
849.99699999999984
 30
0.0
 70
    32
  0
VERTEX
  5
BB65
  8
0
 62
     0
 10
245.387
 20
849.9860000000001
 30
0.0
 70
    32
  0
VERTEX
  5
BB66
  8
0
 62
     0
 10
245.16200000000001
 20
849.97399999999993
 30
0.0
 70
    32
  0
VERTEX
  5
BB67
  8
0
 62
     0
 10
244.93799999999999
 20
849.96100000000001
 30
0.0
 70
    32
  0
VERTEX
  5
BB68
  8
0
 62
     0
 10
244.714
 20
849.94600000000003
 30
0.0
 70
    32
  0
VERTEX
  5
BB69
  8
0
 62
     0
 10
244.49000000000001
 20
849.92899999999997
 30
0.0
 70
    32
  0
VERTEX
  5
BB6A
  8
0
 62
     0
 10
244.267
 20
849.91099999999994
 30
0.0
 70
    32
  0
VERTEX
  5
BB6B
  8
0
 62
     0
 10
244.04400000000001
 20
849.89200000000005
 30
0.0
 70
    32
  0
VERTEX
  5
BB6C
  8
0
 62
     0
 10
243.822
 20
849.87099999999998
 30
0.0
 70
    32
  0
VERTEX
  5
BB6D
  8
0
 62
     0
 10
243.59999999999999
 20
849.84900000000005
 30
0.0
 70
    32
  0
VERTEX
  5
BB6E
  8
0
 62
     0
 10
243.37799999999999
 20
849.82500000000005
 30
0.0
 70
    32
  0
VERTEX
  5
BB6F
  8
0
 62
     0
 10
243.15799999999999
 20
849.80100000000004
 30
0.0
 70
    32
  0
VERTEX
  5
BB70
  8
0
 62
     0
 10
242.93700000000001
 20
849.77399999999977
 30
0.0
 70
    32
  0
VERTEX
  5
BB71
  8
0
 62
     0
 10
242.71799999999999
 20
849.74599999999998
 30
0.0
 70
    32
  0
VERTEX
  5
BB72
  8
0
 62
     0
 10
242.499
 20
849.71699999999998
 30
0.0
 70
    32
  0
VERTEX
  5
BB73
  8
0
 62
     0
 10
242.28100000000001
 20
849.6869999999999
 30
0.0
 70
    32
  0
VERTEX
  5
BB74
  8
0
 62
     0
 10
242.06399999999999
 20
849.65499999999986
 30
0.0
 70
    32
  0
VERTEX
  5
BB75
  8
0
 62
     0
 10
241.84700000000001
 20
849.62100000000009
 30
0.0
 70
    32
  0
VERTEX
  5
BB76
  8
0
 62
     0
 10
241.631
 20
849.58699999999999
 30
0.0
 70
    32
  0
VERTEX
  5
BB77
  8
0
 62
     0
 10
241.416
 20
849.55100000000004
 30
0.0
 70
    32
  0
VERTEX
  5
BB78
  8
0
 62
     0
 10
241.202
 20
849.51299999999992
 30
0.0
 70
    32
  0
VERTEX
  5
BB79
  8
0
 62
     0
 10
240.989
 20
849.47400000000005
 30
0.0
 70
    32
  0
VERTEX
  5
BB7A
  8
0
 62
     0
 10
240.77699999999999
 20
849.43399999999986
 30
0.0
 70
    32
  0
VERTEX
  5
BB7B
  8
0
 62
     0
 10
240.565
 20
849.39300000000003
 30
0.0
 70
    32
  0
VERTEX
  5
BB7C
  8
0
 62
     0
 10
240.35499999999999
 20
849.35000000000002
 30
0.0
 70
    32
  0
VERTEX
  5
BB7D
  8
0
 62
     0
 10
240.14599999999999
 20
849.30599999999993
 30
0.0
 70
    32
  0
VERTEX
  5
BB7E
  8
0
 62
     0
 10
239.93700000000001
 20
849.25999999999988
 30
0.0
 70
    32
  0
VERTEX
  5
BB7F
  8
0
 62
     0
 10
239.72999999999999
 20
849.21399999999994
 30
0.0
 70
    32
  0
VERTEX
  5
BB80
  8
0
 62
     0
 10
239.524
 20
849.16499999999985
 30
0.0
 70
    32
  0
VERTEX
  5
BB81
  8
0
 62
     0
 10
239.31899999999999
 20
849.11599999999999
 30
0.0
 70
    32
  0
VERTEX
  5
BB82
  8
0
 62
     0
 10
239.11600000000001
 20
849.06500000000005
 30
0.0
 70
    32
  0
VERTEX
  5
BB83
  8
0
 62
     0
 10
238.91300000000001
 20
849.01300000000003
 30
0.0
 70
    32
  0
VERTEX
  5
BB84
  8
0
 62
     0
 10
238.71199999999999
 20
848.96000000000015
 30
0.0
 70
    32
  0
VERTEX
  5
BB85
  8
0
 62
     0
 10
238.512
 20
848.90499999999997
 30
0.0
 70
    32
  0
VERTEX
  5
BB86
  8
0
 62
     0
 10
238.31399999999999
 20
848.85000000000002
 30
0.0
 70
    32
  0
VERTEX
  5
BB87
  8
0
 62
     0
 10
238.11600000000001
 20
848.79199999999992
 30
0.0
 70
    32
  0
VERTEX
  5
BB88
  8
0
 62
     0
 10
237.91999999999999
 20
848.73399999999992
 30
0.0
 70
    32
  0
VERTEX
  5
BB89
  8
0
 62
     0
 10
237.726
 20
848.67499999999984
 30
0.0
 70
    32
  0
VERTEX
  5
BB8A
  8
0
 62
     0
 10
237.53299999999999
 20
848.61399999999981
 30
0.0
 70
    32
  0
VERTEX
  5
BB8B
  8
0
 62
     0
 10
237.34100000000001
 20
848.55200000000013
 30
0.0
 70
    32
  0
VERTEX
  5
BB8C
  8
0
 62
     0
 10
237.15100000000001
 20
848.48800000000006
 30
0.0
 70
    32
  0
VERTEX
  5
BB8D
  8
0
 62
     0
 10
236.96199999999999
 20
848.42399999999986
 30
0.0
 70
    32
  0
VERTEX
  5
BB8E
  8
0
 62
     0
 10
236.77500000000001
 20
848.35799999999995
 30
0.0
 70
    32
  0
VERTEX
  5
BB8F
  8
0
 62
     0
 10
236.59
 20
848.29100000000005
 30
0.0
 70
    32
  0
VERTEX
  5
BB90
  8
0
 62
     0
 10
236.40600000000001
 20
848.22300000000007
 30
0.0
 70
    32
  0
VERTEX
  5
BB91
  8
0
 62
     0
 10
236.22399999999999
 20
848.154
 30
0.0
 70
    32
  0
VERTEX
  5
BB92
  8
0
 62
     0
 10
236.04300000000001
 20
848.08399999999983
 30
0.0
 70
    32
  0
VERTEX
  5
BB93
  8
0
 62
     0
 10
235.864
 20
848.01199999999994
 30
0.0
 70
    32
  0
VERTEX
  5
BB94
  8
0
 62
     0
 10
235.68700000000001
 20
847.94000000000005
 30
0.0
 70
    32
  0
VERTEX
  5
BB95
  8
0
 62
     0
 10
235.511
 20
847.8660000000001
 30
0.0
 70
    32
  0
VERTEX
  5
BB96
  8
0
 62
     0
 10
235.33699999999999
 20
847.79100000000005
 30
0.0
 70
    32
  0
VERTEX
  5
BB97
  8
0
 62
     0
 10
235.16499999999999
 20
847.71499999999992
 30
0.0
 70
    32
  0
VERTEX
  5
BB98
  8
0
 62
     0
 10
234.995
 20
847.63800000000003
 30
0.0
 70
    32
  0
VERTEX
  5
BB99
  8
0
 62
     0
 10
234.827
 20
847.55999999999995
 30
0.0
 70
    32
  0
VERTEX
  5
BB9A
  8
0
 62
     0
 10
234.66
 20
847.48100000000011
 30
0.0
 70
    32
  0
VERTEX
  5
BB9B
  8
0
 62
     0
 10
234.49600000000001
 20
847.39999999999998
 30
0.0
 70
    32
  0
VERTEX
  5
BB9C
  8
0
 62
     0
 10
234.333
 20
847.31899999999985
 30
0.0
 70
    32
  0
VERTEX
  5
BB9D
  8
0
 62
     0
 10
234.172
 20
847.23699999999985
 30
0.0
 70
    32
  0
VERTEX
  5
BB9E
  8
0
 62
     0
 10
234.01300000000001
 20
847.154
 30
0.0
 70
    32
  0
VERTEX
  5
BB9F
  8
0
 62
     0
 10
233.857
 20
847.06899999999985
 30
0.0
 70
    32
  0
VERTEX
  5
BBA0
  8
0
 62
     0
 10
233.702
 20
846.98399999999992
 30
0.0
 70
    32
  0
VERTEX
  5
BBA1
  8
0
 62
     0
 10
233.54900000000001
 20
846.89800000000002
 30
0.0
 70
    32
  0
VERTEX
  5
BBA2
  8
0
 62
     0
 10
233.398
 20
846.80999999999995
 30
0.0
 70
    32
  0
VERTEX
  5
BBA3
  8
0
 62
     0
 10
233.25
 20
846.72199999999987
 30
0.0
 70
    32
  0
VERTEX
  5
BBA4
  8
0
 62
     0
 10
233.10300000000001
 20
846.63300000000015
 30
0.0
 70
    32
  0
VERTEX
  5
BBA5
  8
0
 62
     0
 10
232.959
 20
846.54299999999989
 30
0.0
 70
    32
  0
VERTEX
  5
BBA6
  8
0
 62
     0
 10
232.81700000000001
 20
846.452
 30
0.0
 70
    32
  0
VERTEX
  5
BBA7
  8
0
 62
     0
 10
232.67599999999999
 20
846.3599999999999
 30
0.0
 70
    32
  0
VERTEX
  5
BBA8
  8
0
 62
     0
 10
232.53800000000001
 20
846.26699999999994
 30
0.0
 70
    32
  0
VERTEX
  5
BBA9
  8
0
 62
     0
 10
232.40299999999999
 20
846.17399999999998
 30
0.0
 70
    32
  0
VERTEX
  5
BBAA
  8
0
 62
     0
 10
232.26900000000001
 20
846.07899999999995
 30
0.0
 70
    32
  0
VERTEX
  5
BBAB
  8
0
 62
     0
 10
232.13800000000001
 20
845.98399999999992
 30
0.0
 70
    32
  0
VERTEX
  5
BBAC
  8
0
 62
     0
 10
232.00899999999999
 20
845.88800000000003
 30
0.0
 70
    32
  0
VERTEX
  5
BBAD
  8
0
 62
     0
 10
231.88200000000001
 20
845.79100000000005
 30
0.0
 70
    32
  0
VERTEX
  5
BBAE
  8
0
 62
     0
 10
231.75800000000001
 20
845.69299999999987
 30
0.0
 70
    32
  0
VERTEX
  5
BBAF
  8
0
 62
     0
 10
231.636
 20
845.59400000000005
 30
0.0
 70
    32
  0
VERTEX
  5
BBB0
  8
0
 62
     0
 10
231.51599999999999
 20
845.495
 30
0.0
 70
    32
  0
VERTEX
  5
BBB1
  8
0
 62
     0
 10
231.399
 20
845.39499999999998
 30
0.0
 70
    32
  0
VERTEX
  5
BBB2
  8
0
 62
     0
 10
231.28399999999999
 20
845.29399999999987
 30
0.0
 70
    32
  0
VERTEX
  5
BBB3
  8
0
 62
     0
 10
231.17099999999999
 20
845.19199999999989
 30
0.0
 70
    32
  0
VERTEX
  5
BBB4
  8
0
 62
     0
 10
231.06100000000001
 20
845.09000000000003
 30
0.0
 70
    32
  0
VERTEX
  5
BBB5
  8
0
 62
     0
 10
230.953
 20
844.98699999999997
 30
0.0
 70
    32
  0
VERTEX
  5
BBB6
  8
0
 62
     0
 10
230.84800000000001
 20
844.88399999999979
 30
0.0
 70
    32
  0
VERTEX
  5
BBB7
  8
0
 62
     0
 10
230.745
 20
844.77899999999988
 30
0.0
 70
    32
  0
VERTEX
  5
BBB8
  8
0
 62
     0
 10
230.64500000000001
 20
844.67399999999998
 30
0.0
 70
    32
  0
VERTEX
  5
BBB9
  8
0
 62
     0
 10
230.547
 20
844.56899999999985
 30
0.0
 70
    32
  0
VERTEX
  5
BBBA
  8
0
 62
     0
 10
230.452
 20
844.46299999999997
 30
0.0
 70
    32
  0
VERTEX
  5
BBBB
  8
0
 62
     0
 10
230.35900000000001
 20
844.35600000000011
 30
0.0
 70
    32
  0
VERTEX
  5
BBBC
  8
0
 62
     0
 10
230.26900000000001
 20
844.24799999999993
 30
0.0
 70
    32
  0
VERTEX
  5
BBBD
  8
0
 62
     0
 10
230.18100000000001
 20
844.13999999999987
 30
0.0
 70
    32
  0
VERTEX
  5
BBBE
  8
0
 62
     0
 10
230.096
 20
844.03199999999993
 30
0.0
 70
    32
  0
VERTEX
  5
BBBF
  8
0
 62
     0
 10
230.01300000000001
 20
843.923
 30
0.0
 70
    32
  0
VERTEX
  5
BBC0
  8
0
 62
     0
 10
229.93299999999999
 20
843.81299999999987
 30
0.0
 70
    32
  0
VERTEX
  5
BBC1
  8
0
 62
     0
 10
229.85599999999999
 20
843.70299999999997
 30
0.0
 70
    32
  0
VERTEX
  5
BBC2
  8
0
 62
     0
 10
229.78100000000001
 20
843.59299999999996
 30
0.0
 70
    32
  0
VERTEX
  5
BBC3
  8
0
 62
     0
 10
229.709
 20
843.48199999999997
 30
0.0
 70
    32
  0
VERTEX
  5
BBC4
  8
0
 62
     0
 10
229.63900000000001
 20
843.36999999999989
 30
0.0
 70
    32
  0
VERTEX
  5
BBC5
  8
0
 62
     0
 10
229.572
 20
843.2589999999999
 30
0.0
 70
    32
  0
VERTEX
  5
BBC6
  8
0
 62
     0
 10
229.50800000000001
 20
843.14600000000007
 30
0.0
 70
    32
  0
VERTEX
  5
BBC7
  8
0
 62
     0
 10
229.446
 20
843.03399999999988
 30
0.0
 70
    32
  0
VERTEX
  5
BBC8
  8
0
 62
     0
 10
229.387
 20
842.91999999999985
 30
0.0
 70
    32
  0
VERTEX
  5
BBC9
  8
0
 62
     0
 10
229.33099999999999
 20
842.8069999999999
 30
0.0
 70
    32
  0
VERTEX
  5
BBCA
  8
0
 62
     0
 10
229.27699999999999
 20
842.69299999999998
 30
0.0
 70
    32
  0
VERTEX
  5
BBCB
  8
0
 62
     0
 10
229.227
 20
842.57899999999995
 30
0.0
 70
    32
  0
VERTEX
  5
BBCC
  8
0
 62
     0
 10
229.178
 20
842.46499999999992
 30
0.0
 70
    32
  0
VERTEX
  5
BBCD
  8
0
 62
     0
 10
229.13300000000001
 20
842.35000000000002
 30
0.0
 70
    32
  0
VERTEX
  5
BBCE
  8
0
 62
     0
 10
229.09
 20
842.2349999999999
 30
0.0
 70
    32
  0
VERTEX
  5
BBCF
  8
0
 62
     0
 10
229.05000000000001
 20
842.12
 30
0.0
 70
    32
  0
VERTEX
  5
BBD0
  8
0
 62
     0
 10
229.01300000000001
 20
842.00399999999979
 30
0.0
 70
    32
  0
VERTEX
  5
BBD1
  8
0
 62
     0
 10
228.97800000000001
 20
841.88799999999992
 30
0.0
 70
    32
  0
VERTEX
  5
BBD2
  8
0
 62
     0
 10
228.947
 20
841.77199999999993
 30
0.0
 70
    32
  0
VERTEX
  5
BBD3
  8
0
 62
     0
 10
228.91800000000001
 20
841.65599999999995
 30
0.0
 70
    32
  0
VERTEX
  5
BBD4
  8
0
 62
     0
 10
228.89099999999999
 20
841.53999999999985
 30
0.0
 70
    32
  0
VERTEX
  5
BBD5
  8
0
 62
     0
 10
228.86799999999999
 20
841.42299999999989
 30
0.0
 70
    32
  0
VERTEX
  5
BBD6
  8
0
 62
     0
 10
228.84700000000001
 20
841.30700000000013
 30
0.0
 70
    32
  0
VERTEX
  5
BBD7
  8
0
 62
     0
 10
228.82900000000001
 20
841.19000000000005
 30
0.0
 70
    32
  0
VERTEX
  5
BBD8
  8
0
 62
     0
 10
228.81399999999999
 20
841.07299999999987
 30
0.0
 70
    32
  0
VERTEX
  5
BBD9
  8
0
 62
     0
 10
228.80099999999999
 20
840.95600000000002
 30
0.0
 70
    32
  0
VERTEX
  5
BBDA
  8
0
 62
     0
 10
228.792
 20
840.83899999999983
 30
0.0
 70
    32
  0
VERTEX
  5
BBDB
  8
0
 62
     0
 10
228.785
 20
840.72199999999998
 30
0.0
 70
    32
  0
VERTEX
  5
BBDC
  8
0
 62
     0
 10
228.78
 20
840.60500000000002
 30
0.0
 70
    32
  0
VERTEX
  5
BBDD
  8
0
 62
     0
 10
228.779
 20
840.48800000000006
 30
0.0
 70
    32
  0
SEQEND
  5
BBDE
  8
0
 62
     0
  0
LINE
  5
B4B2
  8
0
 62
     0
 10
322.6687466790853
 20
787.45243451899262
 30
0.0
 11
246.7147366790858
 21
787.45243451899262
 31
0.0
  0
LINE
  5
B4B3
  8
0
 62
     0
 10
322.19174167908551
 20
850.03242051899258
 30
0.0
 11
247.19174167908551
 21
850.03242051899258
 31
0.0
  0
LINE
  5
B4B4
  8
0
 62
     0
 10
322.19174167908551
 20
853.83643751899262
 30
0.0
 11
247.19174167908551
 21
853.83643751899262
 31
0.0
  0
LINE
  5
B4B5
  8
0
 62
     0
 10
284.69174167908551
 20
853.83643751899262
 30
0.0
 11
285.1677396790854
 21
853.83643751899262
 31
0.0
  0
LINE
  5
B4B6
  8
0
 62
     0
 10
238.6917416790856
 20
855.49543851899261
 30
0.0
 11
330.69123767908587
 21
855.49543851899261
 31
0.0
  0
LINE
  5
B4B7
  8
0
 62
     0
 10
236.1917416790856
 20
835.53242051899258
 30
0.0
 11
236.1917416790856
 21
799.62645051899267
 31
0.0
  0
LINE
  5
B4B8
  8
0
 62
     0
 10
238.6917416790856
 20
853.99543851899261
 30
0.0
 11
238.6917416790856
 21
855.49543851899261
 31
0.0
  0
LINE
  5
B4B9
  8
0
 62
     0
 10
228.7837276790859
 20
843.03243251899266
 30
0.0
 11
228.76572267908509
 21
833.24845251899262
 31
0.0
  0
LINE
  5
B4BA
  8
0
 62
     0
 10
228.71671667908581
 20
806.37245151899265
 30
0.0
 11
228.71471767908571
 21
805.45247051899264
 31
0.0
  0
LINE
  5
B4BB
  8
0
  6
AM_ISO08W050
 62
     0
 10
229.6917416790856
 20
814.75742751899259
 30
0.0
 11
229.6917416790856
 21
827.24244251899233
 31
0.0
  0
LINE
  5
B4BC
  8
0
  6
AM_ISO08W050
 62
     0
 10
224.235732679086
 20
820.68043151899269
 30
0.0
 11
234.96873467908509
 21
820.68043151899269
 31
0.0
  0
LINE
  5
B4BD
  8
0
 62
     0
 10
284.69174167908551
 20
853.83643751899262
 30
0.0
 11
284.21473667908572
 21
853.83643751899262
 31
0.0
  0
LINE
  5
B4BE
  8
0
 62
     0
 10
246.1917416790856
 20
822.44642251899245
 30
0.0
 11
323.19174167908562
 21
822.44642251899245
 31
0.0
  0
LINE
  5
B4BF
  8
0
 62
     0
 10
323.19174167908562
 20
845.53242051899258
 30
0.0
 11
246.1917416790856
 21
845.53242051899258
 31
0.0
  0
LINE
  5
B4C0
  8
0
 62
     0
 10
219.6917416790856
 20
821.40271851899274
 30
0.0
 11
219.6917416790856
 21
825.1506145189926
 31
0.0
  0
LINE
  5
B4C1
  8
0
 62
     0
 10
221.84515967908541
 20
828.57965451899258
 30
0.0
 11
223.81490167908569
 21
829.69674151899267
 31
0.0
  0
ARC
  5
B4C2
  8
0
 62
     0
 10
246.1917416790856
 20
799.62645051899267
 30
0.0
 40
10.0
 50
179.99998200000081
 51
269.99996399997548
  0
ARC
  5
B4C3
  8
0
 62
     0
 10
246.7147366790858
 20
805.45243451899273
 30
0.0
 40
18.0
 50
179.99998200000081
 51
270.0
  0
ARC
  5
B4C4
  8
0
 62
     0
 10
246.1917416790856
 20
835.53242051899258
 30
0.0
 40
10.0
 50
90.0
 51
179.99998200000081
  0
ARC
  5
B4C5
  8
0
 62
     0
 10
246.1917416790856
 20
812.44642251899234
 30
0.0
 40
10.0
 50
90.0
 51
179.99998200000081
  0
ARC
  5
B4C6
  8
0
 62
     0
 10
219.76573167908541
 20
833.26441551899234
 30
0.0
 40
9.0
 50
296.73468799997408
 51
359.89604200000252
  0
ARC
  5
B4C7
  8
0
 62
     0
 10
219.7167356790859
 20
806.38941551899245
 30
0.0
 40
9.0
 50
359.89604200000252
 51
62.02293999998389
  0
ARC
  5
B4C8
  8
0
 62
     0
 10
219.76573167908541
 20
837.73441651899259
 30
0.0
 40
9.0
 50
296.737766000009
 51
359.89604200000252
  0
LINE
  5
B4C9
  8
0
 62
     0
 10
417.19172067908562
 20
872.49542551899265
 30
0.0
 11
410.2415076790856
 21
872.44677351899225
 31
0.0
  0
ARC
  5
B4CA
  8
0
 62
     0
 10
403.8520196790858
 20
869.49543851899273
 30
0.0
 40
10.0
 50
269.99999700001541
 51
299.99999800001319
  0
ARC
  5
B4CB
  8
0
 62
     0
 10
416.6917416790854
 20
870.99189851899257
 30
0.0
 40
1.5
 50
90.401064000021833
 51
180.0000050000005
  0
ARC
  5
B4CC
  8
0
 62
     0
 10
413.19174167908523
 20
865.65010151899264
 30
0.0
 40
2.0
 50
299.99999800001319
 51
0.0
  0
LINE
  5
B4CD
  8
0
 62
     0
 10
414.19174267908579
 20
863.91807551899285
 30
0.0
 11
408.85202867908509
 21
860.83518951899259
 31
0.0
  0
LINE
  5
B4CE
  8
0
 62
     0
 10
415.19174167908562
 20
865.65010151899264
 30
0.0
 11
415.19174167908562
 21
870.99189851899257
 31
0.0
  0
LINE
  5
B4CF
  8
0
 62
     0
 10
331.76351867908568
 20
859.4954385189925
 30
0.0
 11
403.8520196790858
 21
859.4954385189925
 31
0.0
  0
LINE
  5
B4D0
  8
0
 62
     0
 10
330.6917756790852
 20
855.49543651899262
 30
0.0
 11
333.46972067908598
 21
865.86286851899263
 31
0.0
  0
ARC
  5
B4D1
  8
0
 62
     0
 10
234.9160456790859
 20
857.99543851899261
 30
0.0
 40
3.0
 50
15.000000000000741
 51
90.000002999984659
  0
ARC
  5
B4D2
  8
0
 62
     0
 10
188.45004267908541
 20
865.99543851899261
 30
0.0
 40
5.0
 50
239.99999700001851
 51
269.99999700001541
  0
LINE
  5
B4D3
  8
0
 62
     0
 10
238.69173067908551
 20
855.49548651899249
 30
0.0
 11
237.81380867908581
 21
858.77193451899245
 31
0.0
  0
LINE
  5
B4D4
  8
0
 62
     0
 10
188.45004267908541
 20
860.99543851899261
 30
0.0
 11
234.9160456790859
 21
860.99543851899261
 31
0.0
  0
LINE
  5
B4D5
  8
0
 62
     0
 10
178.67970867908559
 20
865.86286851899263
 30
0.0
 11
185.95008367908551
 21
861.66531551899266
 31
0.0
  0
LINE
  5
B4D7
  8
0
 62
     0
 10
403.15322867908583
 20
917.90657351899222
 30
0.0
 11
417.19174167908523
 21
917.90657351899222
 31
0.0
  0
LINE
  5
B4D8
  8
0
 62
     0
 10
415.1918026790853
 20
888.29329151899242
 30
0.0
 11
398.99703967908579
 21
885.45491251899261
 31
0.0
  0
LINE
  5
B4D9
  8
0
 62
     0
 10
398.99710067908552
 20
902.0139945189926
 30
0.0
 11
415.1918026790853
 21
905.04524451899204
 31
0.0
  0
LINE
  5
B4DA
  8
0
 62
     0
 10
415.1918026790853
 20
921.79402451899273
 30
0.0
 11
398.99703967908579
 21
916.56453251899256
 31
0.0
  0
LINE
  5
B4DB
  8
0
 62
     0
 10
415.1918026790853
 20
937.72908251899275
 30
0.0
 11
398.99703967908579
 21
934.72310151899285
 31
0.0
  0
LINE
  5
B4DC
  8
0
 62
     0
 10
415.1918026790853
 20
953.10237351899264
 30
0.0
 11
398.99703967908579
 21
951.37251551899271
 31
0.0
  0
LINE
  5
B4DD
  8
0
 62
     0
 10
415.1918026790853
 20
970.31624151899246
 30
0.0
 11
398.99703967908579
 21
969.08503951899274
 31
0.0
  0
LINE
  5
B4DE
  8
0
 62
     0
 10
403.15322867908583
 20
1057.084307518993
 30
0.0
 11
417.19174167908523
 21
1057.084307518993
 31
0.0
  0
LINE
  5
B4DF
  8
0
 62
     0
 10
415.1918026790853
 20
1004.674639518992
 30
0.0
 11
398.99703967908579
 21
1005.905840518992
 31
0.0
  0
LINE
  5
B4E0
  8
0
 62
     0
 10
415.1918026790853
 20
1021.888506518992
 30
0.0
 11
398.99703967908579
 21
1023.6183655189921
 31
0.0
  0
LINE
  5
B4E1
  8
0
 62
     0
 10
415.1918026790853
 20
1037.2617975189919
 30
0.0
 11
398.99703967908579
 21
1040.267779518992
 31
0.0
  0
LINE
  5
B4E2
  8
0
 62
     0
 10
415.1918026790853
 20
1053.1968565189929
 30
0.0
 11
398.99703967908579
 21
1058.4263485189931
 31
0.0
  0
LINE
  5
B4E3
  8
0
 62
     0
 10
398.99710067908552
 20
1072.976885518992
 30
0.0
 11
415.1918026790853
 21
1069.945635518992
 31
0.0
  0
LINE
  5
B4E4
  8
0
 62
     0
 10
415.1918026790853
 20
1086.697588518992
 30
0.0
 11
398.99703967908579
 21
1089.5359675189929
 31
0.0
  0
LINE
  5
B4E5
  8
0
 62
     0
 10
415.1918026790853
 20
1091.5335265189919
 30
0.0
 11
398.99703967908579
 21
1100.3855765189919
 31
0.0
  0
LINE
  5
B4E6
  8
0
 62
     0
 10
415.1918026790853
 20
1099.645586518993
 30
0.0
 11
398.99703967908579
 21
1109.1280085189919
 31
0.0
  0
LINE
  5
B4E7
  8
0
 62
     0
 10
415.1918026790853
 20
1105.699785518992
 30
0.0
 11
398.99703967908579
 21
1115.3407775189919
 31
0.0
  0
LINE
  5
B4E8
  8
0
 62
     0
 10
415.1918026790853
 20
1109.2710755189919
 30
0.0
 11
398.99703967908579
 21
1119.2011285189919
 31
0.0
  0
LINE
  5
B4E9
  8
0
 62
     0
 10
172.6917626790854
 20
1119.2011285189919
 30
0.0
 11
398.99691767908553
 21
1119.2011285189919
 31
0.0
  0
LINE
  5
B4EA
  8
0
 62
     0
 10
172.6917626790854
 20
1115.3407775189919
 30
0.0
 11
398.99703967908579
 21
1115.3407775189919
 31
0.0
  0
LINE
  5
B4EB
  8
0
 62
     0
 10
172.6917626790854
 20
1109.1280085189919
 30
0.0
 11
398.99710067908552
 21
1109.1280085189919
 31
0.0
  0
LINE
  5
B4EC
  8
0
 62
     0
 10
172.6917626790854
 20
1100.3855765189919
 30
0.0
 11
398.99710067908552
 21
1100.3855765189919
 31
0.0
  0
LINE
  5
B4ED
  8
0
 62
     0
 10
172.6917626790854
 20
1089.5357085189919
 30
0.0
 11
398.9965516790852
 21
1089.5359675189929
 31
0.0
  0
LINE
  5
B4EE
  8
0
 62
     0
 10
172.6917626790854
 20
1072.976885518992
 30
0.0
 11
398.99679567908589
 21
1072.976885518992
 31
0.0
  0
LINE
  5
B4EF
  8
0
 62
     0
 10
172.6917626790854
 20
1058.4263485189931
 30
0.0
 11
398.99710067908552
 21
1058.4263485189931
 31
0.0
  0
LINE
  5
B4F0
  8
0
 62
     0
 10
172.6917626790854
 20
1040.267657518993
 30
0.0
 11
398.99722267908578
 21
1040.267657518993
 31
0.0
  0
LINE
  5
B4F1
  8
0
 62
     0
 10
172.6917626790854
 20
1023.619198518992
 30
0.0
 11
398.99697867908628
 21
1023.6183655189921
 31
0.0
  0
LINE
  5
B4F2
  8
0
 62
     0
 10
172.6917626790854
 20
1005.905840518992
 30
0.0
 11
398.99771067908563
 21
1005.905840518992
 31
0.0
  0
LINE
  5
B4F4
  8
0
 62
     0
 10
172.6917626790854
 20
902.0139945189926
 30
0.0
 11
398.99679567908589
 21
902.0139945189926
 31
0.0
  0
LINE
  5
B4F5
  8
0
 62
     0
 10
172.6917626790854
 20
916.56453251899256
 30
0.0
 11
398.99710067908552
 21
916.56453251899256
 31
0.0
  0
LINE
  5
B4F6
  8
0
 62
     0
 10
172.6917626790854
 20
934.72322351899265
 30
0.0
 11
398.99722267908578
 21
934.72322351899265
 31
0.0
  0
LINE
  5
B4F7
  8
0
 62
     0
 10
172.6917626790854
 20
951.37168251899266
 30
0.0
 11
398.99697867908628
 21
951.37251551899271
 31
0.0
  0
LINE
  5
B4F8
  8
0
 62
     0
 10
172.6917626790854
 20
969.08503951899274
 30
0.0
 11
398.99771067908563
 21
969.08503951899274
 31
0.0
  0
CIRCLE
  5
B4F9
  8
0
 62
     0
 10
284.69174167908551
 20
987.49538551899275
 30
0.0
 40
11.5
  0
LINE
  5
B4FA
  8
0
 62
     0
 10
172.6917626790854
 20
885.45517151899253
 30
0.0
 11
398.99703967908579
 21
885.45491251899261
 31
0.0
  0
LINE
  5
B4FB
  8
0
 62
     0
 10
415.1918026790853
 20
1086.697588518992
 30
0.0
 11
415.1918026790853
 21
1110.5653855189919
 31
0.0
  0
LINE
  5
B4FC
  8
0
 62
     0
 10
415.19192467908562
 20
1069.945391518992
 30
0.0
 11
417.19174167908523
 21
1069.945391518992
 31
0.0
  0
LINE
  5
B4FD
  8
0
 62
     0
 10
415.1918026790853
 20
1033.948321518993
 30
0.0
 11
415.19186367908492
 21
1037.2617975189919
 31
0.0
  0
LINE
  5
B4FE
  8
0
 62
     0
 10
415.19186367908492
 20
1048.689409518993
 30
0.0
 11
415.1918026790853
 21
1053.1968565189929
 31
0.0
  0
LINE
  5
B4FF
  8
0
 62
     0
 10
415.1918026790853
 20
1021.888506518992
 30
0.0
 11
415.1918026790853
 21
1018.967364518992
 31
0.0
  0
LINE
  5
B500
  8
0
 62
     0
 10
415.1918026790853
 20
1004.674639518992
 30
0.0
 11
415.1918026790853
 21
1003.672686518993
 31
0.0
  0
LINE
  5
B501
  8
0
 62
     0
 10
415.19192467908562
 20
905.04548951899244
 30
0.0
 11
417.19174167908523
 21
905.04548951899244
 31
0.0
  0
LINE
  5
B502
  8
0
 62
     0
 10
415.19186367908492
 20
926.30147051899269
 30
0.0
 11
415.1918026790853
 21
921.79402451899273
 31
0.0
  0
LINE
  5
B503
  8
0
 62
     0
 10
415.1918026790853
 20
941.04255951899245
 30
0.0
 11
415.19186367908492
 21
937.72908251899275
 31
0.0
  0
LINE
  5
B504
  8
0
 62
     0
 10
415.1918026790853
 20
953.10237351899264
 30
0.0
 11
415.1918026790853
 21
956.02351651899221
 31
0.0
  0
LINE
  5
B505
  8
0
 62
     0
 10
415.1918026790853
 20
970.31624151899246
 30
0.0
 11
415.1918026790853
 21
971.31819451899264
 31
0.0
  0
LINE
  5
B506
  8
0
 62
     0
 10
415.1918026790853
 20
883.4573505189926
 30
0.0
 11
398.99703967908579
 21
874.60530051899264
 31
0.0
  0
LINE
  5
B507
  8
0
 62
     0
 10
172.6917626790854
 20
874.60530051899264
 30
0.0
 11
398.99710067908552
 21
874.60530051899264
 31
0.0
  0
LINE
  5
B508
  8
0
 62
     0
 10
415.1918026790853
 20
888.29329151899242
 30
0.0
 11
415.1918026790853
 21
875.34529051899267
 31
0.0
  0
LINE
  5
B509
  8
0
 62
     0
 10
415.1918026790853
 20
875.34529051899267
 30
0.0
 11
398.99703967908579
 21
865.86286851899263
 31
0.0
  0
LINE
  5
B50A
  8
0
 62
     0
 10
172.6917626790854
 20
865.86286851899263
 30
0.0
 11
398.99710067908552
 21
865.86286851899263
 31
0.0
  0
LINE
  5
B50B
  8
0
 62
     0
 10
417.19174167908523
 20
1102.4954515189929
 30
0.0
 11
417.19174167908523
 21
872.49543851899261
 31
0.0
  0
TEXT
  5
BDAE
  8
0
  6
CONTINUOUS
 62
     0
 10
847.01269960631612
 20
970.93785397435852
 30
0.0
 40
15.0
  1
VX75-003EM~VX75-020EM
  0
ENDSEC
  0
EOF
