  0
SECTION
  2
HEADER
  9
$ACADVER
  1
AC1009
  9
$INSBASE
 10
0.0
 20
0.0
 30
0.0
  9
$EXTMIN
 10
137.86546799174579
 20
427.34104336815011
 30
-0.000000000000013
  9
$EXTMAX
 10
1308.0158427329809
 20
1252.664691272746
 30
0.0000000000000023
  9
$LIMMIN
 10
0.0000005999945643
 20
-0.0000005963913736
  9
$LIMMAX
 10
1707.000000599995
 20
1109.9999994036091
  9
$ORTHOMODE
 70
     0
  9
$REGENMODE
 70
     1
  9
$FILLMODE
 70
     1
  9
$QTEXTMODE
 70
     0
  9
$MIRRTEXT
 70
     0
  9
$DRAGMODE
 70
     2
  9
$LTSCALE
 40
1.0
  9
$OSMODE
 70
   551
  9
$ATTMODE
 70
     1
  9
$TEXTSIZE
 40
2.5
  9
$TRACEWID
 40
1.0
  9
$TEXTSTYLE
  7
STANDARD
  9
$CLAYER
  8
0
  9
$CELTYPE
  6
BYLAYER
  9
$CECOLOR
 62
   256
  9
$DIMSCALE
 40
1.0
  9
$DIMASZ
 40
2.0
  9
$DIMEXO
 40
1.0
  9
$DIMDLI
 40
8.0
  9
$DIMRND
 40
0.0
  9
$DIMDLE
 40
0.0
  9
$DIMEXE
 40
1.0
  9
$DIMTP
 40
-0.025
  9
$DIMTM
 40
0.043
  9
$DIMTXT
 40
2.5
  9
$DIMCEN
 40
0.0
  9
$DIMTSZ
 40
0.0
  9
$DIMTOL
 70
     0
  9
$DIMLIM
 70
     0
  9
$DIMTIH
 70
     0
  9
$DIMTOH
 70
     0
  9
$DIMSE1
 70
     0
  9
$DIMSE2
 70
     0
  9
$DIMTAD
 70
     3
  9
$DIMZIN
 70
     8
  9
$DIMBLK
  1

  9
$DIMASO
 70
     1
  9
$DIMSHO
 70
     1
  9
$DIMPOST
  1

  9
$DIMAPOST
  1
"
  9
$DIMALT
 70
     0
  9
$DIMALTD
 70
     2
  9
$DIMALTF
 40
0.0393701
  9
$DIMLFAC
 40
1.0
  9
$DIMTOFL
 70
     1
  9
$DIMTVP
 40
0.0
  9
$DIMTIX
 70
     0
  9
$DIMSOXD
 70
     0
  9
$DIMSAH
 70
     0
  9
$DIMBLK1
  1

  9
$DIMBLK2
  1

  9
$DIMSTYLE
  2
AM_JIS
  9
$DIMCLRD
 70
     2
  9
$DIMCLRE
 70
     2
  9
$DIMCLRT
 70
     4
  9
$DIMTFAC
 40
0.71
  9
$DIMGAP
 40
1.5
  9
$LUNITS
 70
     2
  9
$LUPREC
 70
     2
  9
$SKETCHINC
 40
1.0
  9
$FILLETRAD
 40
0.0
  9
$AUNITS
 70
     0
  9
$AUPREC
 70
     0
  9
$MENU
  1
.
  9
$ELEVATION
 40
0.0
  9
$PELEVATION
 40
0.0
  9
$THICKNESS
 40
0.0
  9
$LIMCHECK
 70
     0
  9
$BLIPMODE
 70
     0
  9
$CHAMFERA
 40
3.0
  9
$CHAMFERB
 40
3.0
  9
$SKPOLY
 70
     0
  9
$TDCREATE
 40
2456829.3841110538
  9
$TDUPDATE
 40
2458540.691157511
  9
$TDINDWG
 40
0.6020770833
  9
$TDUSRTIMER
 40
0.6020767014
  9
$USRTIMER
 70
     1
  9
$ANGBASE
 50
0.0
  9
$ANGDIR
 70
     0
  9
$PDMODE
 70
     0
  9
$PDSIZE
 40
0.0
  9
$PLINEWID
 40
0.0
  9
$COORDS
 70
     1
  9
$SPLFRAME
 70
     0
  9
$SPLINETYPE
 70
     6
  9
$SPLINESEGS
 70
     8
  9
$ATTDIA
 70
     1
  9
$ATTREQ
 70
     1
  9
$HANDLING
 70
     1
  9
$HANDSEED
  5
C599
  9
$SURFTAB1
 70
     6
  9
$SURFTAB2
 70
     6
  9
$SURFTYPE
 70
     6
  9
$SURFU
 70
     6
  9
$SURFV
 70
     6
  9
$UCSNAME
  2

  9
$UCSORG
 10
0.0
 20
0.0
 30
0.0
  9
$UCSXDIR
 10
1.0
 20
0.0
 30
0.0
  9
$UCSYDIR
 10
0.0
 20
1.0
 30
0.0
  9
$PUCSNAME
  2

  9
$PUCSORG
 10
0.0
 20
0.0
 30
0.0
  9
$PUCSXDIR
 10
1.0
 20
0.0
 30
0.0
  9
$PUCSYDIR
 10
0.0
 20
1.0
 30
0.0
  9
$USERI1
 70
     0
  9
$USERI2
 70
     0
  9
$USERI3
 70
     0
  9
$USERI4
 70
     0
  9
$USERI5
 70
     0
  9
$USERR1
 40
0.0
  9
$USERR2
 40
0.0
  9
$USERR3
 40
0.0
  9
$USERR4
 40
0.0
  9
$USERR5
 40
0.0
  9
$WORLDVIEW
 70
     1
  9
$SHADEDGE
 70
     3
  9
$SHADEDIF
 70
    70
  9
$TILEMODE
 70
     1
  9
$MAXACTVP
 70
    64
  9
$PLIMCHECK
 70
     0
  9
$PEXTMIN
 10
1.0000000000000000E+020
 20
1.0000000000000000E+020
 30
1.0000000000000000E+020
  9
$PEXTMAX
 10
-1.0000000000000000E+020
 20
-1.0000000000000000E+020
 30
-1.0000000000000000E+020
  9
$PLIMMIN
 10
0.0
 20
0.0
  9
$PLIMMAX
 10
420.0
 20
297.0
  9
$UNITMODE
 70
     0
  9
$VISRETAIN
 70
     1
  9
$PLINEGEN
 70
     0
  9
$PSLTSCALE
 70
     1
  0
ENDSEC
  0
SECTION
  2
TABLES
  0
TABLE
  2
VPORT
 70
     1
  0
VPORT
  2
*ACTIVE
 70
     0
 10
0.0
 20
0.0
 11
1.0
 21
1.0
 12
722.94065536236349
 22
840.00286732044833
 13
0.0
 23
0.0
 14
15.0
 24
15.0
 15
60.0
 25
60.0
 16
0.0
 26
0.0
 36
1.0
 17
0.0
 27
0.0
 37
0.0
 40
830.98948530439895
 41
1.7571592210767459
 42
50.0
 43
0.0
 44
0.0
 50
0.0
 51
0.0
 71
     0
 72
  1000
 73
     1
 74
     3
 75
     0
 76
     0
 77
     0
 78
     0
  0
ENDTAB
  0
TABLE
  2
LTYPE
 70
    24
  0
LTYPE
  2
CONTINUOUS
 70
     0
  3
Solid line
 72
    65
 73
     0
 40
0.0
  0
LTYPE
  2
CENTER
 70
     0
  3
Center ____ _ ____ _ ____ _ ____ _ ____ _ ____
 72
    65
 73
     4
 40
50.799999999999997
 49
31.75
 49
-6.349999999999997
 49
6.349999999999997
 49
-6.349999999999997
  0
LTYPE
  2
AM_ISO02W050
 70
     0
  3
__ __ __ __ __ __ __ __ __ __ __ __ __ __ __
 72
    65
 73
     2
 40
7.5
 49
6.0
 49
-1.5
  0
LTYPE
  2
AM_ISO08W050
 70
     0
  3
____ . ____ . ____ . ____ . ____ . ____ . ____
 72
    65
 73
     4
 40
18.0
 49
12.0
 49
-1.5
 49
3.0
 49
-1.5
  0
LTYPE
  2
AM_ISO09W050
 70
     0
  3
_____ . . _____ . . _____ . . ____ .. ____
 72
    65
 73
     6
 40
22.5
 49
12.0
 49
-1.5
 49
3.0
 49
-1.5
 49
3.0
 49
-1.5
  0
LTYPE
  2
AMCONSTR
 70
     0
  3
_______________________
 72
    65
 73
     2
 40
9999.0
 49
9999.0
 49
0.0
  0
LTYPE
  2
AM_ISO08W050X2
 70
     0
  3
__ . __ . __ . __ . __ . __
 72
    65
 73
     4
 40
9.0
 49
6.0
 49
-0.75
 49
1.5
 49
-0.75
  0
LTYPE
  2
AM_ISO02W050X2
 70
     0
  3
 _ _ _ _ _ _ _ _ _ _ _ _
 72
    65
 73
     2
 40
3.75
 49
3.0
 49
-0.75
  0
LTYPE
  2
AMZIGZAG
 70
     0
  3
/\/-/\/-/\/-/\/-/\/-/\/
 72
    65
 73
     2
 40
11.0001
 49
0.0001
 49
-11.0
  0
LTYPE
  2
ACANSTGBM
 70
     0
  3
__ . . __ . .
 72
    65
 73
     6
 40
9.0
 49
4.0
 49
-1.0
 49
1.0
 49
-1.0
 49
1.0
 49
-1.0
  0
LTYPE
  2
ACANSTGLM
 70
     0
  3
_ _ _ _ _
 72
    65
 73
     2
 40
3.0
 49
2.0
 49
-1.0
  0
LTYPE
  2
ACISOWELD
 70
     0
  3
_ _ _ _ _
 72
    65
 73
     2
 40
2.0
 49
2.0
 49
-1.0
  0
LTYPE
  2
ACISOTGB
 70
     0
  3
__ . . __ . .
 72
    65
 73
     6
 40
9.0
 49
4.0
 49
-1.0
 49
1.0
 49
-1.0
 49
1.0
 49
-1.0
  0
LTYPE
  2
ACISOTGL
 70
     0
  3
_ _ _ _ _
 72
    65
 73
     2
 40
3.0
 49
2.0
 49
-1.0
  0
LTYPE
  2
ACJISTGB
 70
     0
  3
__ . . __ . .
 72
    65
 73
     6
 40
9.0
 49
4.0
 49
-1.0
 49
1.0
 49
-1.0
 49
1.0
 49
-1.0
  0
LTYPE
  2
ACJISTGL
 70
     0
  3
_ _ _ _ _
 72
    65
 73
     2
 40
3.0
 49
2.0
 49
-1.0
  0
LTYPE
  2
HIDDEN
 70
     0
  3
Hidden __ __ __ __ __ __ __ __ __ __ __ __ __ _
 72
    65
 73
     2
 40
9.5249999999999968
 49
6.349999999999997
 49
-3.174999999999998
  0
LTYPE
  2
PHANTOM2
 70
     0
  3
Phantom (.5x) ___ _ _ ___ _ _ ___ _ _ ___ _ _
 72
    65
 73
     6
 40
31.75
 49
15.875
 49
-3.174999999999998
 49
3.174999999999998
 49
-3.174999999999998
 49
3.174999999999998
 49
-3.174999999999998
  0
LTYPE
  2
CENTER2
 70
     0
  3
Center (.5x) ___ _ ___ _ ___ _ ___ _ ___ _ ___
 72
    65
 73
     4
 40
1.125
 49
0.75
 49
-0.125
 49
0.125
 49
-0.125
  0
LTYPE
  2
HIDDEN2
 70
     0
  3
Hidden (.5x) _ _ _ _ _ _ _ _ _ _ _ _ _ _ _ _ _
 72
    65
 73
     2
 40
0.1875
 49
0.125
 49
-0.0625
  0
LTYPE
  2
AMZIGZAG2
 70
     0
  3
/\/-/\/-/\/-/\/-/\/-/\/
 72
    65
 73
     2
 40
0.4401
 49
0.0001
 49
-0.4400000000000001
  0
LTYPE
  2
ACANSTGB
 70
     0
  3
__ . . __ . .
 72
    65
 73
     6
 40
0.35433070866
 49
0.15748031496
 49
-0.03937007874
 49
0.03937007874
 49
-0.03937007874
 49
0.03937007874
 49
-0.03937007874
  0
LTYPE
  2
ACANSTGL
 70
     0
  3
_ _ _ _ _
 72
    65
 73
     2
 40
0.11811023622
 49
0.07874015748
 49
-0.03937007874
  0
ENDTAB
  0
TABLE
  2
LAYER
 70
     4
  0
LAYER
  2
0
 70
     0
 62
     7
  6
CONTINUOUS
  0
LAYER
  2
DEFPOINTS
 70
     0
 62
     7
  6
CONTINUOUS
  0
LAYER
  2
AM_5
 70
     0
 62
     2
  6
CONTINUOUS
  0
LAYER
  2
AM_CL
 70
     0
 62
     1
  6
AMCONSTR
  0
ENDTAB
  0
TABLE
  2
STYLE
 70
    10
  0
STYLE
  2
STANDARD
 70
     0
 40
0.0
 41
0.7400000000000003
 50
0.0
 71
     0
 42
2.5
  3
txt.shx
  4
bigfont.shx
  0
STYLE
  2
ANNOTATIVE
 70
     0
 40
0.0
 41
1.0
 50
0.0
 71
     0
 42
0.2
  3
txt
  4

  0
STYLE
  2

 70
     1
 40
0.0
 41
1.0
 50
0.0
 71
     0
 42
2.5
  3
ltypeshp.shx
  4

  0
STYLE
  2
ACANSTS
 70
     0
 40
1.0
 41
1.0
 50
0.0
 71
     0
 42
2.5
  3
romans.shx
  4
bigfont.shx
  0
STYLE
  2
ACANSGDT
 70
     0
 40
0.0
 41
1.0
 50
0.0
 71
     0
 42
2.5
  3
amgdt.shx
  4

  0
STYLE
  2
ACISOTS
 70
     0
 40
1.0
 41
1.0
 50
0.0
 71
     0
 42
2.5
  3
isocp.shx
  4
extfont.shx
  0
STYLE
  2
ACISOGDT
 70
     0
 40
0.0
 41
1.0
 50
0.0
 71
     0
 42
2.5
  3
amgdt.shx
  4

  0
STYLE
  2
ACJISGDT
 70
     0
 40
0.0
 41
1.0
 50
0.0
 71
     0
 42
2.5
  3
amgdt.shx
  4

  0
STYLE
  2
ACJISTS
 70
     0
 40
1.0
 41
1.0
 50
0.0
 71
     0
 42
2.5
  3
isocp.shx
  4
extfont.shx
  0
STYLE
  2

 70
     1
 40
0.0
 41
1.0
 50
0.0
 71
     0
 42
2.5
  3
genltshp.shx
  4

  0
ENDTAB
  0
TABLE
  2
VIEW
 70
     6
  0
VIEW
  2
AM_VIEW1
 70
     0
 40
555.00000000000011
 10
586.60142408753893
 20
832.49999940360874
 41
1173.202846975089
 11
0.0
 21
0.0
 31
1.0
 12
0.0
 22
0.0
 32
0.0
 42
50.0
 43
0.0
 44
0.0
 50
0.0
 71
     0
  0
VIEW
  2
AM_VIEW2
 70
     0
 40
555.00000000000011
 10
1120.3985771124501
 20
832.49999940360874
 41
1173.202846975089
 11
0.0
 21
0.0
 31
1.0
 12
0.0
 22
0.0
 32
0.0
 42
50.0
 43
0.0
 44
0.0
 50
0.0
 71
     0
  0
VIEW
  2
AM_VIEW3
 70
     0
 40
555.00000000000011
 10
586.60142408753893
 20
277.49999940360868
 41
1173.202846975089
 11
0.0
 21
0.0
 31
1.0
 12
0.0
 22
0.0
 32
0.0
 42
50.0
 43
0.0
 44
0.0
 50
0.0
 71
     0
  0
VIEW
  2
AM_VIEW4
 70
     0
 40
555.00000000000011
 10
1120.3985771124501
 20
277.49999940360868
 41
1173.202846975089
 11
0.0
 21
0.0
 31
1.0
 12
0.0
 22
0.0
 32
0.0
 42
50.0
 43
0.0
 44
0.0
 50
0.0
 71
     0
  0
VIEW
  2
AM_VIEW5
 70
     0
 40
555.00000000000011
 10
853.50000059999434
 20
554.99999940360874
 41
1173.202846975089
 11
0.0
 21
0.0
 31
1.0
 12
0.0
 22
0.0
 32
0.0
 42
50.0
 43
0.0
 44
0.0
 50
0.0
 71
     0
  0
VIEW
  2
AM_VIEW6
 70
     0
 40
1109.9889000000001
 10
853.50000059999434
 20
554.99999940360874
 41
2346.3822298932391
 11
0.0
 21
0.0
 31
1.0
 12
0.0
 22
0.0
 32
0.0
 42
50.0
 43
0.0
 44
0.0
 50
0.0
 71
     0
  0
ENDTAB
  0
TABLE
  2
UCS
 70
     0
  0
ENDTAB
  0
TABLE
  2
APPID
 70
   157
  0
APPID
  2
ACAD
 70
     0
  0
APPID
  2
ACADANNOTATIVE
 70
     0
  0
APPID
  2
ACAD_MLEADERVER
 70
     0
  0
APPID
  2
MCAD_NO_VIS
 70
     0
  0
APPID
  2
ACAD_TEMP_GRAPHIC
 70
     0
  0
APPID
  2
AD_DRAW
 70
     0
  0
APPID
  2
ACATTRIBSERVICES
 70
     0
  0
APPID
  2
DESIGNERASSEMBLIES
 70
     0
  0
APPID
  2
ACADM_DIM_EDIT
 70
     0
  0
APPID
  2
AMDT_DM_ADJ
 70
     0
  0
APPID
  2
GENIUS_GENDIMSH_14
 70
     0
  0
APPID
  2
GEVID1057795304
 70
     0
  0
APPID
  2
GEVDC
 70
     0
  0
APPID
  2
GEVCON
 70
     0
  0
APPID
  2
GENIUS_GENBH_13
 70
     0
  0
APPID
  2
GENIUS_GENOENT_13
 70
     0
  0
APPID
  2
GENIUS_GENOBJ-NBEHI-BHF_13
 70
     0
  0
APPID
  2
GENIUS_GENOLIS_13
 70
     0
  0
APPID
  2
GENIUS_GENODEF_13
 70
     0
  0
APPID
  2
GENIUS_GENOREF_13
 70
     0
  0
APPID
  2
GENIUS_GENOBJ-NBEHI-BHB_13
 70
     0
  0
APPID
  2
GENIUS_GENOBJ-F-SCPASSM_13
 70
     0
  0
APPID
  2
GENIUS_GENDTOL_13
 70
     0
  0
APPID
  2
GENIUS_GENTRA_14
 70
     0
  0
APPID
  2
ASURF_PCURVE_APPNAME
 70
     0
  0
APPID
  2
GENIUS_GENCFG_13
 70
     0
  0
APPID
  2
GENIUS_GE3CFG0_13
 70
     0
  0
APPID
  2
GENIUS_GENCFG0_13
 70
     0
  0
APPID
  2
GENIUS_GENCFG1_13
 70
     0
  0
APPID
  2
GENIUS_GENCFG2_13
 70
     0
  0
APPID
  2
GENIUS_GENCFG3_13
 70
     0
  0
APPID
  2
GENIUS_GENCFG4_13
 70
     0
  0
APPID
  2
GENIUS_GEVCFG0_13
 70
     0
  0
APPID
  2
GENIUS_GENOBJ-N-TIT_13
 70
     0
  0
APPID
  2
GENIUS_GENTITLE_13
 70
     0
  0
APPID
  2
GENIUS_GENSCREG_15
 70
     0
  0
APPID
  2
GENIUS_GENOBJ-N-SDF_13
 70
     0
  0
APPID
  2
GENIUS_GENFIL_13
 70
     0
  0
APPID
  2
GENIUS_GENOBJ-N-CHA_13
 70
     0
  0
APPID
  2
GENIUS_GEFSH_13
 70
     0
  0
APPID
  2
GENIUS_GENOBJ-F-SHS_13
 70
     0
  0
APPID
  2
GENIUS_GENOBJ-N-CEN_13
 70
     0
  0
APPID
  2
GENIUS_GENREC_14
 70
     0
  0
APPID
  2
GENIUS_GENOBJ-N-REC_13
 70
     0
  0
APPID
  2
GENIUS_GENOBJ-N-HTC_13
 70
     0
  0
APPID
  2
GENIUS_GENHATCH_13
 70
     0
  0
APPID
  2
ACAD_PSEXT
 70
     0
  0
APPID
  2
ACAD_EXEMPT_FROM_CAD_STANDARDS
 70
     0
  0
APPID
  2
ACAECLAYERSTANDARD
 70
     0
  0
APPID
  2
GENIUS_GENCEN_19
 70
     0
  0
APPID
  2
ACAD_DSTYLE_DIMINSPECT
 70
     0
  0
APPID
  2
ACAD_DSTYLE_DIMANGULAR_EXT
 70
     0
  0
APPID
  2
ACADANNOPO
 70
     0
  0
APPID
  2
ACAD_NAV_VCDISPLAY
 70
     0
  0
APPID
  2
GENIUS_GENOBJ-N-FIL_13
 70
     0
  0
APPID
  2
ACAD_DSTYLE_DIMBREAK
 70
     0
  0
APPID
  2
ACAD_DSTYLE_DIMJAG
 70
     0
  0
APPID
  2
ACAD_DSTYLE_DIMRADIAL_EXTENSION
 70
     0
  0
APPID
  2
GENIUS_GENHINW_13
 70
     0
  0
APPID
  2
GENIUS_FIRSTVISTXT_14
 70
     0
  0
APPID
  2
GENIUS_GENOBJ-N-LEADER_13
 70
     0
  0
APPID
  2
GENIUS_DUMCFG0_13
 70
     0
  0
APPID
  2
ACAD_DSTYLE_DIMTEXT_FILL
 70
     0
  0
APPID
  2
AMG_2DHIDE
 70
     0
  0
APPID
  2
GENIUS_GEFSHEP_13
 70
     0
  0
APPID
  2
GENIUS_GENOBJ-F-SHE_13
 70
     0
  0
APPID
  2
GENIUS_GEFSHE_13
 70
     0
  0
APPID
  2
ACAD_DIMASSOC_DIMLFAC
 70
     0
  0
APPID
  2
ACAD_DIMASSOC_CALC_DIMLFAC
 70
     0
  0
APPID
  2
ACAD_DIMASSOC_OVERRIDDEN_D
 70
     0
  0
APPID
  2
GENIUS_GENOBJ-F-SHSV_13
 70
     0
  0
APPID
  2
GENIUS_GEFWELD_13
 70
     0
  0
APPID
  2
GENIUS_GENOBJ-N-CRS_13
 70
     0
  0
APPID
  2
GENIUS_GENOBJ-N-RSBK_13
 70
     0
  0
APPID
  2
GENIUS_GENOBJ-N-LIB_13
 70
     0
  0
APPID
  2
GENIUS_GENSCALE_13
 70
     0
  0
APPID
  2
GENIUS_GENDREL_13
 70
     0
  0
APPID
  2
GEVPT
 70
     0
  0
APPID
  2
GEVIT
 70
     0
  0
APPID
  2
VCC
 70
     0
  0
APPID
  2
GENBH
 70
     0
  0
APPID
  2
GEVMK
 70
     0
  0
APPID
  2
GENIUS_GENOBJ-F-DESC_13
 70
     0
  0
APPID
  2
GENIUS_GEFDESC_14
 70
     0
  0
APPID
  2
GENIUS_GENOBJ-F-FEAT_13
 70
     0
  0
APPID
  2
GENIUS_GEFFEAT_14
 70
     0
  0
APPID
  2
GENIUS_GEFPARTINS_13
 70
     0
  0
APPID
  2
GENIUS_GENSCREG_13
 70
     0
  0
APPID
  2
GENIUS_GEFSHP_13
 70
     0
  0
APPID
  2
GEVID1025574798
 70
     0
  0
APPID
  2
GEVID1025574769
 70
     0
  0
APPID
  2
GEVID1025757451
 70
     0
  0
APPID
  2
GEVID1240528327
 70
     0
  0
APPID
  2
AMG_2DSTRUCT_BTR
 70
     0
  0
APPID
  2
ACADM_2DVIEW_IGN_NOTIFY
 70
     0
  0
APPID
  2
GEVID1240528328
 70
     0
  0
APPID
  2
GEVID1240528329
 70
     0
  0
APPID
  2
GEVRADREF
 70
     0
  0
APPID
  2
GEVID1240528330
 70
     0
  0
APPID
  2
GEVID1240528331
 70
     0
  0
APPID
  2
GEVID1240528332
 70
     0
  0
APPID
  2
GEVID1240791080
 70
     0
  0
APPID
  2
GEVID1240791081
 70
     0
  0
APPID
  2
GEVID1240791082
 70
     0
  0
APPID
  2
GEVID1240791083
 70
     0
  0
APPID
  2
GEVID1240791084
 70
     0
  0
APPID
  2
GEVID1240791085
 70
     0
  0
APPID
  2
GEVID1240791086
 70
     0
  0
APPID
  2
GEVID1240791087
 70
     0
  0
APPID
  2
GEVID1240791088
 70
     0
  0
APPID
  2
GEVID1240791089
 70
     0
  0
APPID
  2
GEVID1240791090
 70
     0
  0
APPID
  2
GEVID1240791091
 70
     0
  0
APPID
  2
GEVID1240791092
 70
     0
  0
APPID
  2
GEVID1240791093
 70
     0
  0
APPID
  2
GEVID1240791094
 70
     0
  0
APPID
  2
GEVID1240791095
 70
     0
  0
APPID
  2
GEVID1240791096
 70
     0
  0
APPID
  2
GEVID1240791097
 70
     0
  0
APPID
  2
GEVID1240791098
 70
     0
  0
APPID
  2
GEVID1240791099
 70
     0
  0
APPID
  2
GEVID1240791100
 70
     0
  0
APPID
  2
GEVID1240791101
 70
     0
  0
APPID
  2
GEVID1240791102
 70
     0
  0
APPID
  2
GEVID1240791103
 70
     0
  0
APPID
  2
GEVID1240791104
 70
     0
  0
APPID
  2
GEVID1240791105
 70
     0
  0
APPID
  2
GEVID1240875381
 70
     0
  0
APPID
  2
GEVID1240875382
 70
     0
  0
APPID
  2
GEVID1240875383
 70
     0
  0
APPID
  2
GEVID1240875384
 70
     0
  0
APPID
  2
GEVID1240875385
 70
     0
  0
APPID
  2
GEVID1240875386
 70
     0
  0
APPID
  2
GEVID1240875387
 70
     0
  0
APPID
  2
GEVID1240875388
 70
     0
  0
APPID
  2
GEVID1240875389
 70
     0
  0
APPID
  2
GEVID1240875390
 70
     0
  0
APPID
  2
GEVID1240875391
 70
     0
  0
APPID
  2
GEVID1240875392
 70
     0
  0
APPID
  2
GEVID1240875393
 70
     0
  0
APPID
  2
GEVID1240875394
 70
     0
  0
APPID
  2
GEVID1240875395
 70
     0
  0
APPID
  2
GEVID1240875396
 70
     0
  0
APPID
  2
GEVID1240875397
 70
     0
  0
APPID
  2
GEVID1240875398
 70
     0
  0
APPID
  2
GEVID1240875399
 70
     0
  0
APPID
  2
GEVID1240908996
 70
     0
  0
APPID
  2
GEVID1240908997
 70
     0
  0
APPID
  2
GEVID1240908998
 70
     0
  0
APPID
  2
GEVID1240908999
 70
     0
  0
APPID
  2
GEVID1240909000
 70
     0
  0
APPID
  2
GENIUS_GENOBJ-N-ZOO_13
 70
     0
  0
APPID
  2
GENIUS_GENZOO_17
 70
     0
  0
APPID
  2
GENIUS_GE3SECT_13
 70
     0
  0
APPID
  2
GEV_VCCNULL_SWITCH_OFF
 70
     0
  0
APPID
  2
ACAD_DSTYLE_DIMTALN
 70
     0
  0
APPID
  2
DCO15
 70
     0
  0
ENDTAB
  0
TABLE
  2
DIMSTYLE
 70
    23
  0
DIMSTYLE
  2
STANDARD
 70
     0
  3

  4

  5

  6

  7

 40
1.0
 41
0.18
 42
0.0625
 43
0.38
 44
0.18
 45
0.0
 46
0.0
 47
0.0
 48
0.0
140
0.18
141
0.09
142
0.0
143
25.399999999999999
144
1.0
145
0.0
146
1.0
147
0.09
 71
     0
 72
     0
 73
     1
 74
     1
 75
     0
 76
     0
 77
     0
 78
     0
170
     0
171
     2
172
     0
173
     0
174
     0
175
     0
176
     0
177
     0
178
     0
  0
DIMSTYLE
  2
ANNOTATIVE
 70
     0
  3

  4

  5

  6

  7

 40
1.0
 41
0.18
 42
0.0625
 43
0.38
 44
0.18
 45
0.0
 46
0.0
 47
0.0
 48
0.0
140
0.18
141
0.09
142
0.0
143
25.399999999999999
144
1.0
145
0.0
146
1.0
147
0.09
 71
     0
 72
     0
 73
     1
 74
     1
 75
     0
 76
     0
 77
     0
 78
     0
170
     0
171
     2
172
     0
173
     0
174
     0
175
     0
176
     0
177
     0
178
     0
  0
DIMSTYLE
  2
AM_ANSI
 70
     0
  3

  4
"
  5

  6

  7

 40
1.0
 41
2.5
 42
1.0
 43
10.0
 44
1.0
 45
0.0
 46
0.0
 47
0.1
 48
0.1
140
3.5
141
0.0
142
0.0
143
0.0393701
144
1.0
145
0.0
146
0.71
147
1.5
 71
     0
 72
     0
 73
     1
 74
     1
 75
     0
 76
     0
 77
     0
 78
     8
170
     0
171
     2
172
     0
173
     0
174
     0
175
     0
176
     2
177
     2
178
     4
  0
DIMSTYLE
  2
AM_ANSI$3
 70
     0
  3

  4
"
  5

  6

  7

 40
1.0
 41
2.5
 42
1.0
 43
10.0
 44
1.0
 45
0.0
 46
0.0
 47
0.1
 48
0.1
140
3.5
141
0.0
142
0.0
143
0.0393701
144
1.0
145
0.0
146
0.71
147
1.5
 71
     0
 72
     0
 73
     1
 74
     1
 75
     0
 76
     0
 77
     0
 78
     8
170
     0
171
     2
172
     0
173
     0
174
     0
175
     0
176
     2
177
     2
178
     4
  0
DIMSTYLE
  2
AM_ANSI$4
 70
     0
  3

  4
"
  5

  6

  7

 40
1.0
 41
2.5
 42
1.0
 43
10.0
 44
1.0
 45
0.0
 46
0.0
 47
0.1
 48
0.1
140
3.5
141
0.0
142
0.0
143
0.0393701
144
1.0
145
0.0
146
0.71
147
1.5
 71
     0
 72
     0
 73
     1
 74
     1
 75
     0
 76
     0
 77
     0
 78
     8
170
     0
171
     2
172
     0
173
     0
174
     0
175
     0
176
     2
177
     2
178
     4
  0
DIMSTYLE
  2
AM_ANSI$7
 70
     0
  3

  4
"
  5

  6

  7

 40
1.0
 41
2.5
 42
1.0
 43
10.0
 44
1.0
 45
0.0
 46
0.0
 47
0.1
 48
0.1
140
5.0
141
0.0
142
0.0
143
0.0393701
144
1.0
145
0.0
146
0.71
147
1.5
 71
     0
 72
     0
 73
     1
 74
     1
 75
     0
 76
     0
 77
     0
 78
     8
170
     0
171
     2
172
     0
173
     0
174
     0
175
     0
176
     2
177
     2
178
     4
  0
DIMSTYLE
  2
AM_ANSI$SF
 70
     0
  3

  4
"
  5

  6

  7

 40
1.0
 41
2.5
 42
1.0
 43
10.0
 44
1.0
 45
0.0
 46
0.0
 47
0.1
 48
0.1
140
3.5
141
0.0
142
0.0
143
0.0393701
144
1.0
145
0.0
146
0.71
147
1.5
 71
     0
 72
     0
 73
     1
 74
     1
 75
     1
 76
     1
 77
     0
 78
     8
170
     0
171
     2
172
     0
173
     0
174
     0
175
     0
176
     2
177
     2
178
     4
  0
DIMSTYLE
  2
AM_ANSI$SH
 70
     0
  3

  4
"
  5

  6

  7

 40
1.0
 41
2.5
 42
1.0
 43
10.0
 44
1.0
 45
0.0
 46
0.0
 47
0.1
 48
0.1
140
3.5
141
0.0
142
0.0
143
0.0393701
144
1.0
145
0.0
146
0.71
147
1.5
 71
     0
 72
     0
 73
     1
 74
     1
 75
     1
 76
     1
 77
     0
 78
     8
170
     0
171
     2
172
     0
173
     1
174
     0
175
     0
176
     2
177
     2
178
     4
  0
DIMSTYLE
  2
AM_ISO
 70
     0
  3

  4
"
  5

  6

  7

 40
1.0
 41
2.5
 42
1.0
 43
10.0
 44
1.0
 45
0.0
 46
0.0
 47
0.1
 48
0.1
140
3.5
141
0.0
142
0.0
143
0.0393701
144
1.0
145
0.0
146
0.71
147
1.5
 71
     0
 72
     0
 73
     0
 74
     0
 75
     0
 76
     0
 77
     1
 78
     8
170
     0
171
     2
172
     1
173
     0
174
     0
175
     0
176
   256
177
   256
178
     2
  0
DIMSTYLE
  2
AM_ISO$3
 70
     0
  3

  4
"
  5

  6

  7

 40
1.0
 41
2.5
 42
1.0
 43
10.0
 44
1.0
 45
0.0
 46
0.0
 47
0.1
 48
0.1
140
3.5
141
0.0
142
0.0
143
0.0393701
144
1.0
145
0.0
146
0.71
147
1.5
 71
     0
 72
     0
 73
     0
 74
     1
 75
     0
 76
     0
 77
     1
 78
     8
170
     0
171
     2
172
     0
173
     0
174
     0
175
     0
176
   256
177
   256
178
     2
  0
DIMSTYLE
  2
AM_ISO$4
 70
     0
  3

  4
"
  5

  6

  7

 40
1.0
 41
2.5
 42
1.0
 43
10.0
 44
1.0
 45
0.0
 46
0.0
 47
0.1
 48
0.1
140
3.5
141
0.0
142
0.0
143
0.0393701
144
1.0
145
0.0
146
0.71
147
1.5
 71
     0
 72
     0
 73
     0
 74
     1
 75
     0
 76
     0
 77
     1
 78
     8
170
     0
171
     2
172
     0
173
     0
174
     0
175
     0
176
   256
177
   256
178
     2
  0
DIMSTYLE
  2
AM_ISO$6
 70
     0
  3

  4
"
  5

  6

  7

 40
1.0
 41
2.5
 42
1.0
 43
10.0
 44
1.0
 45
0.0
 46
0.0
 47
0.1
 48
0.1
140
3.5
141
0.0
142
0.0
143
0.0393701
144
1.0
145
0.0
146
0.71
147
1.5
 71
     0
 72
     0
 73
     0
 74
     0
 75
     0
 76
     0
 77
     0
 78
     8
170
     0
171
     2
172
     1
173
     0
174
     0
175
     0
176
   256
177
   256
178
     2
  0
DIMSTYLE
  2
AM_ISO$7
 70
     0
  3

  4
"
  5

  6

  7

 40
1.0
 41
2.5
 42
1.0
 43
10.0
 44
1.0
 45
0.0
 46
0.0
 47
0.1
 48
0.1
140
5.0
141
0.0
142
0.0
143
0.0393701
144
1.0
145
0.0
146
0.71
147
1.5
 71
     0
 72
     0
 73
     0
 74
     0
 75
     0
 76
     0
 77
     1
 78
     8
170
     0
171
     2
172
     1
173
     0
174
     0
175
     0
176
   256
177
   256
178
     2
  0
DIMSTYLE
  2
AM_ISO$SF
 70
     0
  3

  4
"
  5

  6

  7

 40
1.0
 41
2.5
 42
1.0
 43
10.0
 44
1.0
 45
0.0
 46
0.0
 47
0.1
 48
0.1
140
3.5
141
0.0
142
0.0
143
0.0393701
144
1.0
145
0.0
146
0.71
147
1.5
 71
     0
 72
     0
 73
     0
 74
     0
 75
     1
 76
     1
 77
     1
 78
     8
170
     0
171
     2
172
     1
173
     0
174
     0
175
     0
176
   256
177
   256
178
     2
  0
DIMSTYLE
  2
AM_ISO$SH
 70
     0
  3

  4
"
  5

  6

  7

 40
1.0
 41
2.5
 42
1.0
 43
10.0
 44
1.0
 45
0.0
 46
0.0
 47
0.1
 48
0.1
140
3.5
141
0.0
142
0.0
143
0.0393701
144
2.0
145
0.0
146
0.71
147
1.5
 71
     0
 72
     0
 73
     0
 74
     0
 75
     1
 76
     1
 77
     1
 78
     8
170
     0
171
     2
172
     1
173
     1
174
     0
175
     0
176
   256
177
   256
178
     2
  0
DIMSTYLE
  2
AM_JIS
 70
     0
  3

  4
"
  5

  6

  7

 40
1.0
 41
2.0
 42
1.0
 43
8.0
 44
1.0
 45
0.0
 46
0.0
 47
0.1
 48
0.1
140
2.5
141
0.0
142
0.0
143
0.0393701
144
1.0
145
0.0
146
0.71
147
1.5
 71
     0
 72
     0
 73
     0
 74
     0
 75
     0
 76
     0
 77
     3
 78
     8
170
     0
171
     2
172
     1
173
     0
174
     0
175
     0
176
     2
177
     2
178
     4
  0
DIMSTYLE
  2
AM_JIS$3
 70
     0
  3

  4
"
  5

  6

  7

 40
1.0
 41
2.0
 42
1.0
 43
10.0
 44
1.0
 45
0.0
 46
0.0
 47
0.1
 48
0.1
140
2.5
141
0.0
142
0.0
143
0.0393701
144
1.0
145
0.0
146
0.71
147
1.5
 71
     0
 72
     0
 73
     0
 74
     1
 75
     0
 76
     0
 77
     3
 78
     8
170
     0
171
     2
172
     0
173
     0
174
     0
175
     0
176
     2
177
     2
178
     4
  0
DIMSTYLE
  2
AM_JIS$4
 70
     0
  3

  4
"
  5

  6

  7

 40
1.0
 41
2.0
 42
1.0
 43
10.0
 44
1.0
 45
0.0
 46
0.0
 47
0.1
 48
0.1
140
2.5
141
0.0
142
0.0
143
0.0393701
144
1.0
145
0.0
146
0.71
147
1.5
 71
     0
 72
     0
 73
     0
 74
     0
 75
     0
 76
     0
 77
     3
 78
     8
170
     0
171
     2
172
     0
173
     0
174
     0
175
     0
176
     2
177
     2
178
     4
  0
DIMSTYLE
  2
AM_JIS$6
 70
     0
  3

  4
"
  5

  6

  7

 40
1.0
 41
2.0
 42
1.0
 43
10.0
 44
1.0
 45
0.0
 46
0.0
 47
0.1
 48
0.1
140
2.5
141
0.0
142
0.0
143
0.0393701
144
1.0
145
0.0
146
0.71
147
1.5
 71
     0
 72
     0
 73
     0
 74
     0
 75
     0
 76
     0
 77
     0
 78
     8
170
     0
171
     2
172
     1
173
     0
174
     0
175
     0
176
     2
177
     2
178
     4
  0
DIMSTYLE
  2
AM_JIS$7
 70
     0
  3

  4
"
  5

  6

  7

 40
1.0
 41
2.0
 42
1.0
 43
10.0
 44
1.0
 45
0.0
 46
0.0
 47
0.1
 48
0.1
140
2.5
141
0.0
142
0.0
143
0.0393701
144
1.0
145
0.0
146
0.71
147
1.5
 71
     0
 72
     0
 73
     0
 74
     0
 75
     0
 76
     0
 77
     3
 78
     8
170
     0
171
     2
172
     1
173
     0
174
     0
175
     0
176
     2
177
     2
178
     4
  0
DIMSTYLE
  2
AM_JIS$SF
 70
     0
  3

  4
"
  5

  6

  7

 40
1.0
 41
2.0
 42
1.0
 43
10.0
 44
1.0
 45
0.0
 46
0.0
 47
0.1
 48
0.1
140
2.5
141
0.0
142
0.0
143
0.0393701
144
1.0
145
0.0
146
0.71
147
1.5
 71
     0
 72
     0
 73
     0
 74
     0
 75
     1
 76
     1
 77
     3
 78
     8
170
     0
171
     2
172
     1
173
     0
174
     0
175
     0
176
     2
177
     2
178
     4
  0
DIMSTYLE
  2
AM_JIS$SH
 70
     0
  3

  4
"
  5

  6

  7

 40
1.0
 41
2.0
 42
1.0
 43
10.0
 44
1.0
 45
0.0
 46
0.0
 47
0.1
 48
0.1
140
2.5
141
0.0
142
0.0
143
0.0393701
144
2.0
145
0.0
146
0.71
147
1.5
 71
     0
 72
     0
 73
     0
 74
     0
 75
     1
 76
     1
 77
     3
 78
     8
170
     0
171
     2
172
     1
173
     1
174
     0
175
     0
176
     2
177
     2
178
     4
  0
DIMSTYLE
  2
AM_JIS$0
 70
     0
  3

  4
"
  5

  6

  7

 40
1.0
 41
2.0
 42
1.0
 43
8.0
 44
1.0
 45
0.0
 46
0.0
 47
0.1
 48
0.1
140
2.5
141
0.0
142
0.0
143
0.0393701
144
1.0
145
0.0
146
0.71
147
1.5
 71
     0
 72
     0
 73
     0
 74
     0
 75
     0
 76
     0
 77
     3
 78
     8
170
     0
171
     2
172
     1
173
     0
174
     0
175
     0
176
     2
177
     2
178
     4
  0
ENDTAB
  0
ENDSEC
  0
SECTION
  2
BLOCKS
  0
BLOCK
  8
0
  2
$MODEL_SPACE
 70
     0
 10
0.0
 20
0.0
 30
0.0
  3
$MODEL_SPACE
  1

  0
ENDBLK
  5
C3E5
  8
0
  0
BLOCK
 67
     1
  8
0
  2
$PAPER_SPACE
 70
     0
 10
0.0
 20
0.0
 30
0.0
  3
$PAPER_SPACE
  1

  0
ENDBLK
  5
C3E1
 67
     1
  8
0
  0
BLOCK
  8
0
  2
GENAXEH
 70
     0
 10
0.0
 20
0.0
 30
0.0
  3
GENAXEH
  1

  0
LINE
  5
BD89
  8
0
 10
-1.0
 20
0.0
 30
0.0
 11
1.0
 21
0.0
 31
0.0
  0
ENDBLK
  5
BD8A
  8
0
  0
BLOCK
  8
0
  2
_OPEN30
 70
     0
 10
0.0
 20
0.0
 30
0.0
  3
_OPEN30
  1

  0
LINE
  5
BDD0
  8
0
  6
BYBLOCK
 62
     0
 10
-1.0
 20
0.26794919
 30
0.0
 11
0.0
 21
0.0
 31
0.0
  0
LINE
  5
BDD1
  8
0
  6
BYBLOCK
 62
     0
 10
0.0
 20
0.0
 30
0.0
 11
-1.0
 21
-0.26794919
 31
0.0
  0
LINE
  5
BDD2
  8
0
  6
BYBLOCK
 62
     0
 10
0.0
 20
0.0
 30
0.0
 11
-1.0
 21
0.0
 31
0.0
  0
ENDBLK
  5
BDD3
  8
0
  0
BLOCK
  8
0
  2
*U4
 70
     1
 10
0.0
 20
0.0
 30
0.0
  3
*U4
  1

  0
TEXT
  5
C166
  8
0
 62
     0
 10
5.1211371559201639
 20
5.9826223594979648
 30
0.0
 40
15.0
  1
ＶＸ０８－００３ＥＭ～ＶＸ０８－０３０ＥＭ
 41
0.7400000000000003
  0
ENDBLK
  5
C168
  8
0
  0
BLOCK
  8
0
  2
*U5
 70
     1
 10
0.0
 20
0.0
 30
0.0
  3
*U5
  1

  0
TEXT
  5
C16A
  8
0
 62
     0
 10
978.34485020623765
 20
987.58037357264425
 30
0.0
 40
15.0
  1
ＶＸ７５－０２５ＥＭ～ＶＸ７５－０３０ＥＭ
 41
0.7400000000000003
  0
ENDBLK
  5
C16C
  8
0
  0
BLOCK
  8
0
  2
_ACMFILLEDHALF
 70
     0
 10
0.0
 20
0.0
 30
0.0
  3
_ACMFILLEDHALF
  1

  0
TRACE
  5
C51E
  8
0
 62
     0
 10
-0.8
 20
0.0
 30
0.0
 11
-1.0
 21
0.166666666
 31
0.0
 12
0.0
 22
0.0
 32
0.0
 13
0.0
 23
0.0
 33
0.0
  0
LINE
  5
C51F
  8
0
 62
     0
 10
-1.0
 20
0.0
 30
0.0
 11
-0.8
 21
0.0
 31
0.0
  0
ENDBLK
  5
C51D
  8
0
  0
ENDSEC
  0
SECTION
  2
ENTITIES
  0
LINE
  5
A649
  8
0
 62
     0
 10
792.22546958511134
 20
692.66968848455349
 30
0.0
 11
873.22551958511156
 21
692.66968848455349
 31
0.0
  0
LINE
  5
A64A
  8
0
 62
     0
 10
792.22546958511134
 20
692.66968848455349
 30
0.0
 11
792.22546958511134
 21
688.66968848455349
 31
0.0
  0
LINE
  5
A64B
  8
0
 62
     0
 10
768.22546958511134
 20
628.66966848455365
 30
0.0
 11
873.22551958511156
 21
628.66966848455365
 31
0.0
  0
LINE
  5
A64C
  8
0
 62
     0
 10
768.22546958511134
 20
688.66968848455349
 30
0.0
 11
873.22551958511156
 21
688.66968848455349
 31
0.0
  0
LINE
  5
A64D
  8
0
 62
     0
 10
873.22551958511156
 20
692.66968848455349
 30
0.0
 11
873.22551958511156
 21
628.66966848455365
 31
0.0
  0
LINE
  5
A64E
  8
0
 62
     0
 10
768.22546958511134
 20
691.16968848455315
 30
0.0
 11
768.22546958511134
 21
626.16966848455365
 31
0.0
  0
LINE
  5
A64F
  8
0
 62
     0
 10
762.22546958511168
 20
626.16966848455365
 30
0.0
 11
768.22546958511134
 21
626.16966848455365
 31
0.0
  0
LINE
  5
A650
  8
0
 62
     0
 10
762.22546958511168
 20
691.16968848455315
 30
0.0
 11
768.22546958511134
 21
691.16968848455315
 31
0.0
  0
LINE
  5
A651
  8
0
 62
     0
 10
1136.888692626472
 20
692.66968848455349
 30
0.0
 11
1136.888692626472
 21
681.66966848455365
 31
0.0
  0
LINE
  5
A652
  8
0
 62
     0
 10
1118.888692626472
 20
681.66966848455365
 30
0.0
 11
1136.888692626472
 21
681.66966848455365
 31
0.0
  0
LINE
  5
A653
  8
0
 62
     0
 10
1118.888692626472
 20
692.66968848455349
 30
0.0
 11
1136.888692626472
 21
692.66968848455349
 31
0.0
  0
LINE
  5
A654
  8
0
 62
     0
 10
1118.888692626472
 20
692.66968848455349
 30
0.0
 11
1118.888692626472
 21
681.66966848455365
 31
0.0
  0
LINE
  5
A655
  8
0
 62
     0
 10
1122.8887226264719
 20
836.66968848455315
 30
0.0
 11
1122.8887226264719
 21
794.66968848455326
 31
0.0
  0
LINE
  5
A656
  8
0
 62
     0
 10
1132.8887226264719
 20
836.66968848455315
 30
0.0
 11
1132.8887226264719
 21
794.66968848455326
 31
0.0
  0
LINE
  5
A657
  8
0
 62
     0
 10
1140.5073426264721
 20
790.22678848455371
 30
0.0
 11
1138.138202626471
 21
799.06858848455363
 31
0.0
  0
LINE
  5
A658
  8
0
 62
     0
 10
1115.2700376264711
 20
790.22678848455371
 30
0.0
 11
1117.639212626472
 21
799.06858848455363
 31
0.0
  0
LINE
  5
A659
  8
0
 62
     0
 10
1118.4106626264711
 20
799.79063848455371
 30
0.0
 11
1122.8887226264719
 21
800.67838848455347
 31
0.0
  0
LINE
  5
A65A
  8
0
 62
     0
 10
1132.888692626472
 20
800.67843848455323
 30
0.0
 11
1137.366747626472
 21
799.79063848455371
 31
0.0
  0
LINE
  5
A65B
  8
0
 62
     0
 10
619.72546958511123
 20
790.66968848455326
 30
0.0
 11
619.72546958511123
 21
510.90776348455319
 31
0.0
  0
LINE
  5
A65C
  8
0
 62
     0
 10
759.12081958511158
 20
723.77808848455345
 30
0.0
 11
759.330169585112
 21
723.7707384845537
 31
0.0
  0
LINE
  5
A65D
  8
0
 62
     0
 10
575.1220695851116
 20
468.4282384845535
 30
0.0
 11
621.6220695851116
 21
512.71394848455338
 31
0.0
  0
LINE
  5
A65E
  8
0
 62
     0
 10
1027.8887226264719
 20
460.66966348455321
 30
0.0
 11
1027.8887226264719
 21
433.66966348455321
 31
0.0
  0
LINE
  5
A65F
  8
0
 62
     0
 10
947.88870762647116
 20
433.66966348455321
 30
0.0
 11
1027.8887226264719
 21
433.66966348455321
 31
0.0
  0
LINE
  5
A660
  8
0
 62
     0
 10
952.88870762647116
 20
465.6696634845531
 30
0.0
 11
1022.888722626472
 21
465.6696634845531
 31
0.0
  0
LINE
  5
A661
  8
0
 62
     0
 10
1030.888692626472
 20
436.6696634845531
 30
0.0
 11
1127.8887226264719
 21
436.6696634845531
 31
0.0
  0
LINE
  5
A662
  8
0
 62
     0
 10
991.07029762647142
 20
690.47123848455374
 30
0.0
 11
947.88870762647116
 21
468.32118348455339
 31
0.0
  0
LINE
  5
A663
  8
0
 62
     0
 10
947.88870762647116
 20
468.32118348455339
 30
0.0
 11
947.88870762647116
 21
433.66966348455321
 31
0.0
  0
LINE
  5
A664
  8
0
 62
     0
 10
502.22546958511123
 20
460.66966348455321
 30
0.0
 11
502.22546958511123
 21
433.66966348455338
 31
0.0
  0
LINE
  5
A665
  8
0
 62
     0
 10
507.22546958511123
 20
465.6696634845531
 30
0.0
 11
568.22546958511123
 21
465.6696634845531
 31
0.0
  0
LINE
  5
A666
  8
0
 62
     0
 10
762.22546958511168
 20
460.66966348455321
 30
0.0
 11
762.22546958511168
 21
433.66966348455338
 31
0.0
  0
LINE
  5
A667
  8
0
 62
     0
 10
711.22546958511145
 20
465.6696634845531
 30
0.0
 11
757.22546958511134
 21
465.6696634845531
 31
0.0
  0
LINE
  5
A668
  8
0
 62
     0
 10
696.22546958511157
 20
504.32164348455348
 30
0.0
 11
716.22546958511168
 21
504.32164348455348
 31
0.0
  0
LINE
  5
A669
  8
0
 62
     0
 10
502.22546958511123
 20
433.66966348455338
 30
0.0
 11
762.22546958511168
 21
433.66966348455338
 31
0.0
  0
LINE
  5
A66A
  8
0
 62
     0
 10
735.35396958511171
 20
752.49573848455373
 30
0.0
 11
748.92266958511175
 21
751.30858848455318
 31
0.0
  0
LINE
  5
A66B
  8
0
 62
     0
 10
762.22546958511168
 20
720.77258848455369
 30
0.0
 11
762.22546958511168
 21
596.56673348455354
 31
0.0
  0
LINE
  5
A66C
  8
0
 62
     0
 10
756.22546958511134
 20
743.33898848455351
 30
0.0
 11
756.22546958511134
 21
465.6696634845531
 31
0.0
  0
LINE
  5
A66D
  8
0
 62
     0
 10
624.72546958511157
 20
587.97188348455325
 30
0.0
 11
624.72546958511157
 21
519.95537348455355
 31
0.0
  0
LINE
  5
A66E
  8
0
 62
     0
 10
759.12081958511158
 20
593.56126848455347
 30
0.0
 11
759.33021958511154
 21
593.56856348455347
 31
0.0
  0
LINE
  5
A66F
  8
0
 62
     0
 10
726.22546958511134
 20
772.29063848455371
 30
0.0
 11
726.22546958511134
 21
514.32164348455353
 31
0.0
  0
LINE
  5
A670
  8
0
 62
     0
 10
696.22546958511157
 20
694.59663848455352
 30
0.0
 11
696.22546958511157
 21
480.66966348455321
 31
0.0
  0
LINE
  5
A671
  8
0
 62
     0
 10
661.44061958511122
 20
784.20988848455363
 30
0.0
 11
716.57446958511116
 21
782.28453848455365
 31
0.0
  0
LINE
  5
A672
  8
0
 62
     0
 10
711.22546958511145
 20
709.59658848455354
 30
0.0
 11
726.22546958511134
 21
709.59658848455354
 31
0.0
  0
LINE
  5
A673
  8
0
 62
     0
 10
997.88872262647237
 20
707.97168848455362
 30
0.0
 11
997.88872262647237
 21
570.66966848455365
 31
0.0
  0
LINE
  5
A674
  8
0
 62
     0
 10
619.72551958511156
 20
790.66968848455326
 30
0.0
 11
644.74196958511175
 21
789.79608848455325
 31
0.0
  0
LINE
  5
A675
  8
0
 62
     0
 10
654.04396958511143
 20
787.12878848455352
 30
0.0
 11
656.78966958511182
 21
785.54358848455354
 31
0.0
  0
LINE
  5
A676
  8
0
 62
     0
 10
1020.888692626471
 20
643.66966848455365
 30
0.0
 11
1020.888692626471
 21
480.66966348455321
 31
0.0
  0
LINE
  5
A677
  8
0
 62
     0
 10
619.72546958511123
 20
587.97188348455325
 30
0.0
 11
649.72546958511157
 21
587.97188348455325
 31
0.0
  0
LINE
  5
A678
  8
0
 62
     0
 10
649.72546958511157
 20
788.98428848455364
 30
0.0
 11
649.72546958511157
 21
587.97188348455325
 31
0.0
  0
LINE
  5
A679
  8
0
 62
     0
 10
1062.0657226264709
 20
448.34919848455348
 30
0.0
 11
1051.89064262647
 21
455.74180848455347
 31
0.0
  0
LINE
  5
A67A
  8
0
 62
     0
 10
1067.943562626471
 20
446.43937848455317
 30
0.0
 11
1127.8887226264719
 21
446.43937848455317
 31
0.0
  0
LINE
  5
A67B
  8
0
 62
     0
 10
1030.8176126264721
 20
446.59861848455319
 30
0.0
 11
1038.941727626471
 21
454.72273348455349
 31
0.0
  0
LINE
  5
A67C
  8
0
 62
     0
 10
1224.9597676264709
 20
446.59858848455349
 30
0.0
 11
1216.835652626472
 21
454.72270348455322
 31
0.0
  0
LINE
  5
A67D
  8
0
 62
     0
 10
1187.833852626472
 20
446.43937848455317
 30
0.0
 11
1127.8887226264719
 21
446.43937848455317
 31
0.0
  0
LINE
  5
A67E
  8
0
 62
     0
 10
1193.7116926264721
 20
448.34919848455348
 30
0.0
 11
1203.886772626473
 21
455.74180848455347
 31
0.0
  0
LINE
  5
A67F
  8
0
 62
     0
 10
1234.888692626472
 20
643.66966848455365
 30
0.0
 11
1234.888692626472
 21
480.66966348455321
 31
0.0
  0
LINE
  5
A680
  8
0
 62
     0
 10
1257.8887076264721
 20
707.97168848455362
 30
0.0
 11
1257.8887076264721
 21
570.66966848455365
 31
0.0
  0
LINE
  5
A681
  8
0
 62
     0
 10
1307.8887076264721
 20
468.32118348455339
 30
0.0
 11
1307.8887076264721
 21
433.66966348455321
 31
0.0
  0
LINE
  5
A682
  8
0
 62
     0
 10
1264.707097626472
 20
690.47123848455374
 30
0.0
 11
1307.8887076264721
 21
468.32115348455318
 31
0.0
  0
LINE
  5
A683
  8
0
 62
     0
 10
1224.888692626472
 20
436.6696634845531
 30
0.0
 11
1127.8887226264719
 21
436.6696634845531
 31
0.0
  0
LINE
  5
A684
  8
0
 62
     0
 10
1302.8887076264721
 20
465.6696634845531
 30
0.0
 11
1232.8887076264721
 21
465.6696634845531
 31
0.0
  0
LINE
  5
A685
  8
0
 62
     0
 10
1307.8887076264721
 20
433.66966348455321
 30
0.0
 11
1227.8887076264721
 21
433.66966348455321
 31
0.0
  0
LINE
  5
A686
  8
0
 62
     0
 10
1227.8887076264721
 20
460.66966348455321
 30
0.0
 11
1227.8887076264721
 21
433.66966348455321
 31
0.0
  0
LINE
  5
A687
  8
0
 62
     0
 10
601.65571958511123
 20
790.0491884845535
 30
0.0
 11
619.42546958511139
 21
790.6697384845537
 31
0.0
  0
LINE
  5
A688
  8
0
 62
     0
 10
586.72551958511156
 20
788.6696884845536
 30
0.0
 11
586.72551958511156
 21
751.67278848455373
 31
0.0
  0
LINE
  5
A689
  8
0
 62
     0
 10
599.72546958511157
 20
788.05033848455355
 30
0.0
 11
599.72546958511157
 21
492.14586348455322
 31
0.0
  0
LINE
  5
A68A
  8
0
 62
     0
 10
579.72546958511145
 20
738.86338848455352
 30
0.0
 11
579.72546958511145
 21
478.57026848455308
 31
0.0
  0
LINE
  5
A68B
  8
0
 62
     0
 10
588.72546958511123
 20
790.66968848455326
 30
0.0
 11
619.42546958511139
 21
790.66968848455326
 31
0.0
  0
LINE
  5
A68C
  8
0
 62
     0
 10
537.72551958511156
 20
498.6696634845531
 30
0.0
 11
574.72546958511157
 21
498.6696634845531
 31
0.0
  0
LINE
  5
A68E
  8
0
 62
     0
 10
535.72546958511134
 20
728.66968848455303
 30
0.0
 11
535.72546958511134
 21
492.66969348455348
 31
0.0
  0
LINE
  5
A68F
  8
0
 62
     0
 10
537.72551958511156
 20
722.66968848455372
 30
0.0
 11
574.72546958511157
 21
722.66968848455372
 31
0.0
  0
LINE
  5
A690
  8
0
 62
     0
 10
522.72551958511167
 20
490.6696634845531
 30
0.0
 11
533.72546958511157
 21
490.6696634845531
 31
0.0
  0
LINE
  5
A691
  8
0
 62
     0
 10
522.72551958511167
 20
730.6696884845536
 30
0.0
 11
533.72546958511157
 21
730.6696884845536
 31
0.0
  0
LINE
  5
A692
  8
0
 62
     0
 10
598.59961958511155
 20
758.76888848455371
 30
0.0
 11
584.84901958511125
 21
747.76848848455325
 31
0.0
  0
LINE
  5
A693
  8
0
 62
     0
 10
585.14891958511123
 20
747.76848848455325
 30
0.0
 11
583.77856958511165
 21
746.67218848455354
 31
0.0
  0
LINE
  5
A694
  8
0
 62
     0
 10
591.93146958511124
 20
799.66968848455303
 30
0.0
 11
611.51956958511164
 21
799.66968848455303
 31
0.0
  0
LINE
  5
A695
  8
0
 62
     0
 10
589.22551958511178
 20
790.66968848455326
 30
0.0
 11
591.47601958511154
 21
799.06858848455363
 31
0.0
  0
LINE
  5
A696
  8
0
 62
     0
 10
614.22546958511123
 20
790.66968848455326
 30
0.0
 11
611.97496958511147
 21
799.06858848455363
 31
0.0
  0
LINE
  5
A697
  8
0
 62
     0
 10
592.24746958511116
 20
799.79063848455371
 30
0.0
 11
601.72551958511178
 21
801.66958848455351
 31
0.0
  0
LINE
  5
A698
  8
0
 62
     0
 10
601.72551958511178
 20
801.6696884845536
 30
0.0
 11
611.20356958511138
 21
799.79068848455347
 31
0.0
  0
LINE
  5
A699
  8
0
 62
     0
 10
522.72551958511167
 20
710.39688848455353
 30
0.0
 11
535.72546958511134
 21
710.39688848455353
 31
0.0
  0
LINE
  5
A69A
  8
0
 62
     0
 10
522.72551958511167
 20
694.8404884845537
 30
0.0
 11
535.72546958511134
 21
694.8404884845537
 31
0.0
  0
LINE
  5
A69B
  8
0
 62
     0
 10
522.72551958511167
 20
686.68633848455352
 30
0.0
 11
535.72546958511134
 21
686.68633848455352
 31
0.0
  0
LINE
  5
A69C
  8
0
 62
     0
 10
522.72551958511167
 20
534.6529734845534
 30
0.0
 11
535.72546958511134
 21
534.6529734845534
 31
0.0
  0
LINE
  5
A69D
  8
0
 62
     0
 10
522.72551958511167
 20
526.49879848455362
 30
0.0
 11
535.72546958511134
 21
526.49879848455362
 31
0.0
  0
LINE
  5
A69E
  8
0
 62
     0
 10
522.72551958511167
 20
510.94246348455363
 30
0.0
 11
535.72546958511134
 21
510.94246348455363
 31
0.0
  0
LINE
  5
A69F
  8
0
 62
     0
 10
535.72546958511134
 20
697.34453848455337
 30
0.0
 11
579.72546958511145
 21
697.34453848455337
 31
0.0
  0
LINE
  5
A6A0
  8
0
 62
     0
 10
535.72546958511134
 20
681.60249848455351
 30
0.0
 11
579.72546958511145
 21
681.60249848455351
 31
0.0
  0
LINE
  5
A6A1
  8
0
 62
     0
 10
535.72546958511134
 20
539.73686348455362
 30
0.0
 11
579.72546958511145
 21
539.73686348455362
 31
0.0
  0
LINE
  5
A6A2
  8
0
 62
     0
 10
535.72546958511134
 20
523.99479848455326
 30
0.0
 11
579.72546958511145
 21
523.99479848455326
 31
0.0
  0
LINE
  5
A6A3
  8
0
 62
     0
 10
619.42546958511139
 20
790.66968848455326
 30
0.0
 11
619.72546958511123
 21
790.66968848455326
 31
0.0
  0
LINE
  5
A6A4
  8
0
 62
     0
 10
984.16768262647133
 20
669.31169848455352
 30
0.0
 11
965.44720762647125
 21
669.31175848455359
 31
0.0
  0
LINE
  5
A6A5
  8
0
 62
     0
 10
964.02080762647233
 20
551.31379848455322
 30
0.0
 11
942.43200762647109
 21
551.31361848455322
 31
0.0
  0
LINE
  5
A6A6
  8
0
 62
     0
 10
942.43200762647109
 20
552.31358848455352
 30
0.0
 11
942.43200762647109
 21
551.3136484845536
 31
0.0
  0
LINE
  5
A6A7
  8
0
 62
     0
 10
925.0531076264723
 20
550.72944848455359
 30
0.0
 11
986.17698762647228
 21
673.34236848455339
 31
0.0
  0
LINE
  5
A6A8
  8
0
 62
     0
 10
931.92000762647206
 20
553.31352848455322
 30
0.0
 11
964.40960762647228
 21
553.31379848455322
 31
0.0
  0
LINE
  5
A6A9
  8
0
 62
     0
 10
928.85175762647214
 20
547.1595034845534
 30
0.0
 11
985.16997262647237
 21
660.11653848455353
 31
0.0
  0
LINE
  5
A6AA
  8
0
 62
     0
 10
925.72625762647135
 20
548.71782348455349
 30
0.0
 11
928.85170762647215
 21
547.15953348455355
 31
0.0
  0
LINE
  5
A6AB
  8
0
 62
     0
 10
927.06245762647222
 20
554.76011848455312
 30
0.0
 11
927.06245762647222
 21
631.34117848455321
 31
0.0
  0
LINE
  5
A6AC
  8
0
 62
     0
 10
956.25475762647216
 20
665.50417348455358
 30
0.0
 11
930.57715762647229
 21
639.82649848455321
 31
0.0
  0
ARC
  5
A6AD
  8
0
 62
     0
 10
1127.8887226264719
 20
658.66966848455365
 30
0.0
 40
30.000000499999999
 50
107.4575999999803
 51
72.5423840000186
  0
ARC
  5
A6AE
  8
0
 62
     0
 10
1127.8887226264719
 20
836.66968848455315
 30
0.0
 40
5.0
 50
0.0
 51
179.999989999999
  0
ARC
  5
A6AF
  8
0
 62
     0
 10
1118.605122626471
 20
798.80978848455368
 30
0.0
 40
1.0
 50
101.2132899999926
 51
164.99998999999801
  0
ARC
  5
A6B0
  8
0
 62
     0
 10
1137.1723226264719
 20
798.80978848455368
 30
0.0
 40
1.0
 50
14.99999999999444
 51
78.786710000007389
  0
ARC
  5
A6B1
  8
0
 62
     0
 10
1134.8887226264719
 20
794.66968848455326
 30
0.0
 40
2.0000000500000001
 50
179.999989999999
 51
270.0
  0
ARC
  5
A6B2
  8
0
 62
     0
 10
1120.888692626472
 20
794.66968848455326
 30
0.0
 40
2.0000000500000001
 50
270.0
 51
0.0
  0
CIRCLE
  5
A6B3
  8
0
 62
     0
 10
1127.8887226264719
 20
658.66966848455365
 30
0.0
 40
6.0
  0
CIRCLE
  5
A6B4
  8
0
 62
     0
 10
1127.8887226264719
 20
658.66966848455365
 30
0.0
 40
4.500000049999997
  0
CIRCLE
  5
A6B5
  8
0
 62
     0
 10
1127.8887226264719
 20
658.66966848455365
 30
0.0
 40
65.0
  0
ARC
  5
A6B6
  8
0
 62
     0
 10
952.88870762647116
 20
460.66966348455321
 30
0.0
 40
5.0
 50
90.000002999984659
 51
180.00001000000091
  0
ARC
  5
A6B7
  8
0
 62
     0
 10
716.22546958511168
 20
514.32164348455353
 30
0.0
 40
10.0
 50
270.0
 51
0.0
  0
ARC
  5
A6B8
  8
0
 62
     0
 10
1030.888692626472
 20
433.66966348455321
 30
0.0
 40
3.0000000500000001
 50
90.000002999984659
 51
180.00001000000091
  0
ARC
  5
A6B9
  8
0
 62
     0
 10
1127.8887226264719
 20
610.66966848455365
 30
0.0
 40
180.00000499999999
 50
90.000002999984659
 51
108.4847600000204
  0
ARC
  5
A6BA
  8
0
 62
     0
 10
1022.888722626472
 20
460.66966348455321
 30
0.0
 40
5.0
 50
0.0
 51
90.000002999984659
  0
ARC
  5
A6BB
  8
0
 62
     0
 10
1108.8655876264711
 20
667.57417848455316
 30
0.0
 40
120.0
 50
108.4847600000204
 51
169.00000000000091
  0
ARC
  5
A6BC
  8
0
 62
     0
 10
507.22546958511123
 20
460.66966348455321
 30
0.0
 40
5.0
 50
90.000002999984659
 51
180.00001000000091
  0
ARC
  5
A6BD
  8
0
 62
     0
 10
711.22546958511145
 20
480.66966348455321
 30
0.0
 40
15.0
 50
179.999989999999
 51
270.0
  0
ARC
  5
A6BE
  8
0
 62
     0
 10
711.22546958511145
 20
694.59663848455352
 30
0.0
 40
15.0
 50
90.000002999984659
 51
180.00001000000091
  0
ARC
  5
A6BF
  8
0
 62
     0
 10
736.22546958511134
 20
762.45763848455363
 30
0.0
 40
10.0
 50
179.999989999999
 51
264.99999999997442
  0
ARC
  5
A6C0
  8
0
 62
     0
 10
757.22546958511134
 20
460.66966348455321
 30
0.0
 40
5.0
 50
0.0
 51
90.000002999984659
  0
ARC
  5
A6C1
  8
0
 62
     0
 10
759.22551958511156
 20
596.56673348455354
 30
0.0
 40
3.0000000500000001
 50
272.00000000000369
 51
0.0
  0
ARC
  5
A6C2
  8
0
 62
     0
 10
748.22546958511134
 20
743.33898848455351
 30
0.0
 40
8.0
 50
0.0
 51
84.999997000038206
  0
ARC
  5
A6C3
  8
0
 62
     0
 10
759.22551958511156
 20
726.77623848455323
 30
0.0
 40
3.0000000500000001
 50
179.999989999999
 51
268.00000999999253
  0
ARC
  5
A6C4
  8
0
 62
     0
 10
1127.8887226264719
 20
610.66966848455365
 30
0.0
 40
175.00000499999999
 50
90.000002999984659
 51
111.4753499999604
  0
ARC
  5
A6C5
  8
0
 62
     0
 10
1127.8887226264719
 20
570.66966848455365
 30
0.0
 40
130.0
 50
179.999989999999
 51
214.6059900000003
  0
ARC
  5
A6C6
  8
0
 62
     0
 10
716.22546958511168
 20
772.29063848455371
 30
0.0
 40
10.0
 50
0.0
 51
87.999999999996248
  0
ARC
  5
A6C7
  8
0
 62
     0
 10
1007.888722626472
 20
707.97168848455362
 30
0.0
 40
10.0
 50
155.21108999998859
 51
180.00001000000091
  0
ARC
  5
A6C8
  8
0
 62
     0
 10
1127.8887226264719
 20
643.66966848455365
 30
0.0
 40
107.0
 50
90.000002999984659
 51
180.00001000000091
  0
ARC
  5
A6C9
  8
0
 62
     0
 10
568.22546958511123
 20
475.66966348455338
 30
0.0
 40
10.0
 50
270.0
 51
313.6028199999655
  0
ARC
  5
A6CA
  8
0
 62
     0
 10
614.72546958511123
 20
519.95537348455355
 30
0.0
 40
10.0
 50
313.6028199999655
 51
0.0
  0
ARC
  5
A6CB
  8
0
 62
     0
 10
759.22551958511156
 20
590.56309848455362
 30
0.0
 40
3.0000000500000001
 50
91.999997999994434
 51
180.00001000000091
  0
ARC
  5
A6CC
  8
0
 62
     0
 10
759.22551958511156
 20
720.77258848455369
 30
0.0
 40
3.0000000500000001
 50
0.0
 51
87.999999999996248
  0
ARC
  5
A6CD
  8
0
 62
     0
 10
1107.7531326264721
 20
661.85130848455356
 30
0.0
 40
120.0
 50
111.4753499999604
 51
169.00000000000091
  0
ARC
  5
A6CE
  8
0
 62
     0
 10
1005.888687626472
 20
480.66966348455321
 30
0.0
 40
15.0
 50
270.0
 51
0.0
  0
ARC
  5
A6CF
  8
0
 62
     0
 10
644.04396958511143
 20
769.80823848455373
 30
0.0
 40
20.000000499999999
 50
60.00000199998464
 51
87.999999999996248
  0
ARC
  5
A6D0
  8
0
 62
     0
 10
661.78966958511182
 20
794.20378848455346
 30
0.0
 40
10.0
 50
240.00000000000159
 51
267.99999999999631
  0
ARC
  5
A6D1
  8
0
 62
     0
 10
1067.943562626471
 20
456.43937848455357
 30
0.0
 40
10.0
 50
233.99999999998769
 51
270.0
  0
ARC
  5
A6D2
  8
0
 62
     0
 10
1046.0128076264721
 20
447.6516284845535
 30
0.0
 40
10.0
 50
54.000001999977911
 51
135.0000000000087
  0
ARC
  5
A6D3
  8
0
 62
     0
 10
1037.8887226264719
 20
439.52754348455318
 30
0.0
 40
10.0
 50
135.0000000000087
 51
180.00001000000091
  0
ARC
  5
A6D4
  8
0
 62
     0
 10
1217.8887226264719
 20
439.52754348455318
 30
0.0
 40
10.0
 50
0.0
 51
45.000001000030771
  0
ARC
  5
A6D5
  8
0
 62
     0
 10
1209.7645776264719
 20
447.6516284845535
 30
0.0
 40
10.0
 50
45.000001000030771
 51
126.00000000001231
  0
ARC
  5
A6D6
  8
0
 62
     0
 10
1187.833852626472
 20
456.43937848455357
 30
0.0
 40
10.0
 50
270.0
 51
306.00000000001222
  0
ARC
  5
A6D7
  8
0
 62
     0
 10
1249.888692626472
 20
480.66966348455321
 30
0.0
 40
15.0
 50
179.999989999999
 51
270.0
  0
ARC
  5
A6D8
  8
0
 62
     0
 10
1148.024252626471
 20
661.85130848455356
 30
0.0
 40
120.0
 50
10.999999999999
 51
68.524650999994932
  0
ARC
  5
A6D9
  8
0
 62
     0
 10
1127.8887226264719
 20
643.66966848455365
 30
0.0
 40
107.0
 50
0.0
 51
90.000002999984659
  0
ARC
  5
A6DA
  8
0
 62
     0
 10
1247.8887076264721
 20
707.97168848455362
 30
0.0
 40
10.0
 50
0.0
 51
24.78891100001772
  0
ARC
  5
A6DB
  8
0
 62
     0
 10
1127.8887226264719
 20
610.66966848455365
 30
0.0
 40
175.00000499999999
 50
68.524644999994109
 51
90.000002999984659
  0
ARC
  5
A6DC
  8
0
 62
     0
 10
1127.8887226264719
 20
570.66966848455365
 30
0.0
 40
130.0
 50
325.39400000000001
 51
0.0
  0
ARC
  5
A6DD
  8
0
 62
     0
 10
1146.911852626471
 20
667.57417848455316
 30
0.0
 40
120.0
 50
10.999999999999
 51
71.515242999972415
  0
ARC
  5
A6DE
  8
0
 62
     0
 10
1224.888692626472
 20
433.66966348455321
 30
0.0
 40
3.0000000500000001
 50
0.0
 51
90.000002999984659
  0
ARC
  5
A6DF
  8
0
 62
     0
 10
1232.8887076264721
 20
460.66966348455321
 30
0.0
 40
5.0
 50
90.000002999984659
 51
180.00001000000091
  0
ARC
  5
A6E0
  8
0
 62
     0
 10
1127.8887226264719
 20
610.66966848455365
 30
0.0
 40
180.00000499999999
 50
71.515242999972415
 51
90.000002999984659
  0
ARC
  5
A6E1
  8
0
 62
     0
 10
1302.8887076264721
 20
460.66966348455321
 30
0.0
 40
5.0
 50
0.0
 51
90.000002999984659
  0
ARC
  5
A6E2
  8
0
 62
     0
 10
589.72546958511123
 20
738.86338848455352
 30
0.0
 40
10.0
 50
128.65980999999769
 51
180.00001000000091
  0
ARC
  5
A6E3
  8
0
 62
     0
 10
588.72546958511123
 20
788.6696884845536
 30
0.0
 40
2.0000000500000001
 50
90.000002999984659
 51
180.00001000000091
  0
ARC
  5
A6E4
  8
0
 62
     0
 10
596.72551958511156
 20
761.11148848455355
 30
0.0
 40
3.0000000500000001
 50
308.65980999999772
 51
0.0
  0
ARC
  5
A6E5
  8
0
 62
     0
 10
533.72546958511157
 20
728.66968848455303
 30
0.0
 40
2.0000000500000001
 50
0.0
 51
90.000002999984659
  0
ARC
  5
A6E6
  8
0
 62
     0
 10
533.72546958511157
 20
492.66969348455348
 30
0.0
 40
2.0000000500000001
 50
270.0
 51
0.0
  0
ARC
  5
A6E7
  8
0
 62
     0
 10
581.72551958511156
 20
751.67278848455373
 30
0.0
 40
5.0
 50
308.65980999999772
 51
0.0
  0
ARC
  5
A6E8
  8
0
 62
     0
 10
574.72546958511157
 20
493.66966348455321
 30
0.0
 40
5.0
 50
0.0
 51
90.000002999984659
  0
ARC
  5
A6E9
  8
0
 62
     0
 10
574.72546958511157
 20
727.66968848455326
 30
0.0
 40
5.0
 50
270.0
 51
0.0
  0
ARC
  5
A6EA
  8
0
 62
     0
 10
589.72546958511123
 20
478.57026848455308
 30
0.0
 40
10.0
 50
179.999989999999
 51
206.54091999998849
  0
ARC
  5
A6EB
  8
0
 62
     0
 10
537.72551958511156
 20
496.66966348455338
 30
0.0
 40
2.0000000500000001
 50
90.000002999984659
 51
180.00001000000091
  0
ARC
  5
A6EC
  8
0
 62
     0
 10
537.72551958511156
 20
724.66968848455303
 30
0.0
 40
2.0000000500000001
 50
179.999989999999
 51
270.0
  0
ARC
  5
A6ED
  8
0
 62
     0
 10
601.72551958511178
 20
788.05033848455355
 30
0.0
 40
2.0000000500000001
 50
91.999997999994434
 51
180.00001000000091
  0
CIRCLE
  5
A6EE
  8
0
 62
     0
 10
601.72551958511178
 20
816.66968848455372
 30
0.0
 40
15.0
  0
ARC
  5
A6EF
  8
0
 62
     0
 10
601.72551958511178
 20
816.66968848455372
 30
0.0
 40
25.000000499999999
 50
306.46671999997352
 51
233.533290000025
  0
ARC
  5
A6F0
  8
0
 62
     0
 10
592.44191958511124
 20
798.80978848455368
 30
0.0
 40
1.0
 50
101.2132899999928
 51
164.99998999999801
  0
ARC
  5
A6F1
  8
0
 62
     0
 10
611.00906958511155
 20
798.80978848455368
 30
0.0
 40
1.0
 50
14.99999999999446
 51
78.786710000007204
  0
ARC
  5
A6F2
  8
0
 62
     0
 10
583.30046958511139
 20
791.7393884845535
 30
0.0
 40
6.0
 50
349.72994999999918
 51
53.533291000031909
  0
ARC
  5
A6F3
  8
0
 62
     0
 10
620.1505195851114
 20
791.7393884845535
 30
0.0
 40
6.0
 50
126.4666999999896
 51
190.2700600000054
  0
ARC
  5
A6F4
  8
0
 62
     0
 10
926.39560762647125
 20
550.06022848455359
 30
0.0
 40
1.5
 50
153.503230000011
 51
243.50012000000191
  0
ARC
  5
A6F5
  8
0
 62
     0
 10
987.51948762647123
 20
672.67314848455362
 30
0.0
 40
1.5
 50
75.576985999997774
 51
153.503230000011
  0
ARC
  5
A6F6
  8
0
 62
     0
 10
941.43200762647109
 20
552.31361848455322
 30
0.0
 40
1.0
 50
359.99975999998878
 51
90.000098000020287
  0
ARC
  5
A6F7
  8
0
 62
     0
 10
939.06245762647234
 20
631.34117848455321
 30
0.0
 40
12.0
 50
135.0000000000087
 51
180.00001000000091
  0
ARC
  5
A6F8
  8
0
 62
     0
 10
965.44720762647125
 20
656.31172848455321
 30
0.0
 40
12.999999000000001
 50
90.000002999984659
 51
135.0000000000087
  0
LINE
  5
A703
  8
0
  6
AM_ISO08W050
 62
     0
 10
881.99947733563874
 20
658.66966848455365
 30
0.0
 11
563.51529594030819
 21
658.66966848455365
 31
0.0
  0
LINE
  5
A704
  8
0
  6
AM_ISO08W050
 62
     0
 10
532.22546958511202
 20
469.96943848455351
 30
0.0
 11
532.22546958511202
 21
428.35650848455322
 31
0.0
  0
LINE
  5
A705
  8
0
  6
AM_ISO08W050
 62
     0
 10
732.22546958511202
 20
469.96943848455351
 30
0.0
 11
732.22546958511202
 21
428.35650848455322
 31
0.0
  0
LINE
  5
A706
  8
0
  6
ACANSTGLM
 62
     0
 10
720.22551958511235
 20
465.66966348455372
 30
0.0
 11
720.22551958511235
 21
433.66966348455361
 31
0.0
  0
LINE
  5
A707
  8
0
  6
ACANSTGLM
 62
     0
 10
744.22551958511235
 20
465.66966348455372
 30
0.0
 11
744.22551958511235
 21
433.66966348455361
 31
0.0
  0
LINE
  5
A708
  8
0
  6
ACANSTGLM
 62
     0
 10
520.22551958511247
 20
465.66966348455372
 30
0.0
 11
520.22551958511247
 21
433.66966348455361
 31
0.0
  0
LINE
  5
A709
  8
0
  6
ACANSTGLM
 62
     0
 10
544.22551958511247
 20
465.66966348455372
 30
0.0
 11
544.22551958511247
 21
433.66966348455361
 31
0.0
  0
LINE
  5
A70A
  8
0
  6
AM_ISO08W050
 62
     0
 10
572.70991694513452
 20
610.66967598455324
 30
0.0
 11
157.5631122765848
 21
610.66967598455324
 31
0.0
  0
LINE
  5
A71D
  8
0
  6
AM_ISO08W050
 62
     0
 10
1127.888722626471
 20
847.66004315768464
 30
0.0
 11
1127.888722626471
 21
429.5745884845532
 31
0.0
  0
LINE
  5
A71E
  8
0
  6
AM_ISO08W050
 62
     0
 10
982.88870762647036
 20
470.50807348455339
 30
0.0
 11
982.88870762647036
 21
427.43010348455317
 31
0.0
  0
LINE
  5
A71F
  8
0
  6
AM_ISO08W050
 62
     0
 10
1033.008159038638
 20
658.66966848455365
 30
0.0
 11
1222.7692862143051
 21
658.66966848455365
 31
0.0
  0
LINE
  5
A720
  8
0
  6
ACANSTGLM
 62
     0
 10
994.88872262647124
 20
465.66966348455361
 30
0.0
 11
994.88872262647124
 21
433.66966348455361
 31
0.0
  0
LINE
  5
A721
  8
0
  6
ACANSTGLM
 62
     0
 10
970.88870762647014
 20
465.66966348455361
 30
0.0
 11
970.88870762647014
 21
433.66966348455361
 31
0.0
  0
LINE
  5
A722
  8
0
  6
ACANSTGLM
 62
     0
 10
1284.8886926264711
 20
465.66966348455361
 30
0.0
 11
1284.8886926264711
 21
433.66966348455361
 31
0.0
  0
LINE
  5
A723
  8
0
  6
ACANSTGLM
 62
     0
 10
1260.8887076264691
 20
465.66966348455361
 30
0.0
 11
1260.8887076264691
 21
433.66966348455361
 31
0.0
  0
LINE
  5
A724
  8
0
  6
AM_ISO08W050
 62
     0
 10
1272.8887076264691
 20
470.50807348455339
 30
0.0
 11
1272.8887076264691
 21
427.43010348455317
 31
0.0
  0
ARC
  5
B359
  8
0
 62
     0
 10
284.7255075851117
 20
742.21967998455295
 30
0.0
 40
2.0
 50
90.000002999984659
 51
159.503400000005
  0
ARC
  5
B35A
  8
0
 62
     0
 10
279.64086358511167
 20
722.67368898455322
 30
0.0
 40
10.0
 50
90.000002999984659
 51
98.136523000008793
  0
ARC
  5
B35B
  8
0
 62
     0
 10
279.82841358511189
 20
732.91998198455303
 30
0.0
 40
10.0
 50
90.000002999984659
 51
99.223570000003505
  0
ARC
  5
B35C
  8
0
 62
     0
 10
279.75816158511168
 20
729.04618598455318
 30
0.0
 40
10.0
 50
89.999996999989278
 51
98.816015000012186
  0
ARC
  5
B35D
  8
0
 62
     0
 10
279.47619058511168
 20
713.92648098455322
 30
0.0
 40
10.0
 50
90.000002999984659
 51
97.184508999990982
  0
ARC
  5
B35E
  8
0
 62
     0
 10
279.2642155851118
 20
702.97491298455338
 30
0.0
 40
10.0
 50
90.000002999984659
 51
95.961922000009963
  0
LINE
  5
B35F
  8
0
 62
     0
 10
278.2255405851115
 20
664.98934798455298
 30
0.0
 11
346.70887358511158
 21
664.98934798455298
 31
0.0
  0
ARC
  5
B360
  8
0
 62
     0
 10
295.64409858511181
 20
657.61169298455297
 30
0.0
 40
3.0
 50
89.999998999979056
 51
180.00000899999941
  0
ARC
  5
B361
  8
0
 62
     0
 10
289.64409858511181
 20
656.65121298455324
 30
0.0
 40
3.0
 50
0.0
 51
105.7135969999852
  0
LINE
  5
B362
  8
0
 62
     0
 10
292.64405858511168
 20
660.61167398455325
 30
0.0
 11
278.2255405851115
 21
656.55511898455336
 31
0.0
  0
LINE
  5
B363
  8
0
 62
     0
 10
292.64409858511181
 20
660.6116929845532
 30
0.0
 11
339.8582315851117
 21
660.6116929845532
 31
0.0
  0
LINE
  5
B364
  8
0
 62
     0
 10
292.64409858511181
 20
610.66967598455324
 30
0.0
 11
292.64409858511181
 21
656.65121298455324
 31
0.0
  0
LINE
  5
B365
  8
0
 62
     0
 10
433.53235558511182
 20
539.9800239845531
 30
0.0
 11
501.85283958511172
 21
539.9800239845531
 31
0.0
  0
LINE
  5
B366
  8
0
 62
     0
 10
278.2255405851115
 20
474.66967598455318
 30
0.0
 11
278.2255405851115
 21
746.66967598455324
 31
0.0
  0
ARC
  5
B367
  8
0
 62
     0
 10
183.87554058511159
 20
570.59967598455319
 30
0.0
 40
3.0
 50
180.0
 51
270.0
  0
ARC
  5
B368
  8
0
 62
     0
 10
187.2255405851117
 20
496.43294598455321
 30
0.0
 40
11.0
 50
180.0
 51
199.9999999999975
  0
ARC
  5
B369
  8
0
 62
     0
 10
185.54139058511191
 20
477.66967598455318
 30
0.0
 40
3.0
 50
199.9999999999975
 51
270.0
  0
LINE
  5
B36A
  8
0
 62
     0
 10
176.88892258511169
 20
492.67072398455321
 30
0.0
 11
182.72231258511169
 21
476.64361598455321
 31
0.0
  0
LINE
  5
B36B
  8
0
 62
     0
 10
183.44076758511159
 20
479.81149398455318
 30
0.0
 11
183.44076758511159
 21
564.51205098455318
 31
0.0
  0
LINE
  5
B36C
  8
0
 62
     0
 10
278.2255405851115
 20
567.59967598455353
 30
0.0
 11
183.87554058511159
 21
567.59967598455353
 31
0.0
  0
LINE
  5
B36D
  8
0
 62
     0
 10
185.54139058511191
 20
474.66967598455318
 30
0.0
 11
278.2255405851115
 21
474.66967598455318
 31
0.0
  0
ARC
  5
B36E
  8
0
 62
     0
 10
183.87554058511159
 20
650.73967598455317
 30
0.0
 40
3.0
 50
90.0
 51
180.0
  0
LINE
  5
B36F
  8
0
 62
     0
 10
176.88892258511169
 20
728.66862798455304
 30
0.0
 11
182.72231258511169
 21
744.69573598455327
 31
0.0
  0
ARC
  5
B370
  8
0
 62
     0
 10
185.54139058511191
 20
743.66967598455324
 30
0.0
 40
3.0
 50
90.0
 51
160.00000000000239
  0
ARC
  5
B371
  8
0
 62
     0
 10
187.2255405851117
 20
724.90640598455298
 30
0.0
 40
11.0
 50
160.00000000000239
 51
180.0
  0
LINE
  5
B372
  8
0
 62
     0
 10
183.44076758511159
 20
741.52785798455318
 30
0.0
 11
183.44076758511159
 21
656.82730098455295
 31
0.0
  0
LINE
  5
B373
  8
0
 62
     0
 10
176.2255405851117
 20
496.43294598455321
 30
0.0
 11
176.2255405851117
 21
724.90640598455298
 31
0.0
  0
LINE
  5
B374
  8
0
 62
     0
 10
180.87554058511159
 20
570.59967598455319
 30
0.0
 11
180.87554058511159
 21
650.73967598455317
 31
0.0
  0
LINE
  5
B375
  8
0
 62
     0
 10
278.2255405851115
 20
653.73967598455295
 30
0.0
 11
183.87554058511159
 21
653.73967598455295
 31
0.0
  0
LINE
  5
B376
  8
0
 62
     0
 10
185.54139058511191
 20
746.66967598455324
 30
0.0
 11
278.2255405851115
 21
746.66967598455324
 31
0.0
  0
ARC
  5
B377
  8
0
 62
     0
 10
279.47619058511168
 20
507.41287098455308
 30
0.0
 40
10.0
 50
262.81549099998227
 51
269.99999699998932
  0
ARC
  5
B378
  8
0
 62
     0
 10
279.64086358511167
 20
498.66566298455331
 30
0.0
 40
10.0
 50
261.86347699999118
 51
269.99999699998932
  0
ARC
  5
B379
  8
0
 62
     0
 10
289.64409858511181
 20
564.68813898455323
 30
0.0
 40
3.0
 50
254.28640300001479
 51
0.0
  0
ARC
  5
B37A
  8
0
 62
     0
 10
295.64409858511181
 20
563.72765898455339
 30
0.0
 40
3.0
 50
179.99999100000039
 51
270.00000099999488
  0
ARC
  5
B37B
  8
0
 62
     0
 10
279.2642155851118
 20
518.36443898455309
 30
0.0
 40
10.0
 50
264.03807799999009
 51
269.99999699998932
  0
LINE
  5
B37C
  8
0
 62
     0
 10
292.64405858511168
 20
560.72767798455322
 30
0.0
 11
278.2255405851115
 21
564.78423298455323
 31
0.0
  0
LINE
  5
B37D
  8
0
 62
     0
 10
292.64409858511181
 20
560.72765898455327
 30
0.0
 11
334.72551958511173
 21
560.72765898455327
 31
0.0
  0
LINE
  5
B37E
  8
0
 62
     0
 10
292.64409858511181
 20
610.66967598455324
 30
0.0
 11
292.64409858511181
 21
564.68813898455323
 31
0.0
  0
LINE
  5
B37F
  8
0
 62
     0
 10
278.2255405851115
 20
551.82668898455324
 30
0.0
 11
335.49021558511163
 21
551.82668898455324
 31
0.0
  0
LINE
  5
B380
  8
0
 62
     0
 10
278.2255405851115
 20
556.35000398455338
 30
0.0
 11
334.73789958511168
 21
556.35000398455338
 31
0.0
  0
LINE
  5
B381
  8
0
 62
     0
 10
341.72551958511173
 20
557.63467998455315
 30
0.0
 11
341.72551958511173
 21
650.16968398455322
 31
0.0
  0
LINE
  5
B382
  8
0
 62
     0
 10
334.72551958511173
 20
648.02467898455336
 30
0.0
 11
334.72551958511173
 21
626.1516779845532
 31
0.0
  0
LINE
  5
B383
  8
0
 62
     0
 10
334.72551958511173
 20
587.90287598455325
 30
0.0
 11
334.72551958511173
 21
557.01747698455335
 31
0.0
  0
LINE
  5
B384
  8
0
 62
     0
 10
438.72501558511141
 20
557.63467998455315
 30
0.0
 11
438.72501558511141
 21
650.16968398455322
 31
0.0
  0
LINE
  5
B385
  8
0
 62
     0
 10
445.72501558511158
 20
648.02467898455336
 30
0.0
 11
445.72501558511158
 21
626.18267598455338
 31
0.0
  0
LINE
  5
B386
  8
0
 62
     0
 10
445.72501558511158
 20
587.90737698455325
 30
0.0
 11
445.72501558511158
 21
557.01747698455335
 31
0.0
  0
LINE
  5
B387
  8
0
 62
     0
 10
427.72501558511118
 20
666.02467898455325
 30
0.0
 11
352.72551958511178
 21
666.02467898455325
 31
0.0
  0
LINE
  5
B388
  8
0
 62
     0
 10
427.72501558511118
 20
661.16968398455322
 30
0.0
 11
352.72551958511178
 21
661.16968398455322
 31
0.0
  0
LINE
  5
B389
  8
0
 62
     0
 10
427.72501558511118
 20
623.1996749845531
 30
0.0
 11
352.72551958511178
 21
623.1996749845531
 31
0.0
  0
LINE
  5
B38A
  8
0
 62
     0
 10
427.72501558511118
 20
546.63480998455316
 30
0.0
 11
352.72551958511178
 21
546.63480998455316
 31
0.0
  0
LINE
  5
B38B
  8
0
 62
     0
 10
427.72501558511118
 20
540.98467798455317
 30
0.0
 11
352.72551958511178
 21
540.98467798455317
 31
0.0
  0
LINE
  5
B38C
  8
0
 62
     0
 10
427.72501558511118
 20
539.01747698455335
 30
0.0
 11
352.72551958511178
 21
539.01747698455335
 31
0.0
  0
ARC
  5
B38D
  8
0
 62
     0
 10
352.72551958511178
 20
648.02467898455336
 30
0.0
 40
18.0
 50
90.0
 51
179.9999819999943
  0
ARC
  5
B38E
  8
0
 62
     0
 10
352.72551958511178
 20
650.16968398455322
 30
0.0
 40
11.0
 50
90.0
 51
179.9999819999943
  0
ARC
  5
B38F
  8
0
 62
     0
 10
352.72551958511178
 20
557.63467998455315
 30
0.0
 40
11.0
 50
179.9999819999943
 51
269.99996400000163
  0
ARC
  5
B390
  8
0
 62
     0
 10
352.72551958511178
 20
557.01747698455335
 30
0.0
 40
18.0
 50
179.9999819999943
 51
269.99996400000163
  0
ARC
  5
B391
  8
0
 62
     0
 10
352.72551958511178
 20
558.9846779845534
 30
0.0
 40
18.0
 50
179.9999819999943
 51
269.99996400000163
  0
ARC
  5
B392
  8
0
 62
     0
 10
340.22551958511173
 20
607.02767798455295
 30
0.0
 40
15.000003
 50
127.16889200000681
 51
232.83097600000301
  0
ARC
  5
B393
  8
0
 62
     0
 10
427.72501558511118
 20
648.02467898455336
 30
0.0
 40
18.0
 50
359.99993599999488
 51
89.999950999989878
  0
ARC
  5
B394
  8
0
 62
     0
 10
427.72501558511118
 20
650.16968398455322
 30
0.0
 40
11.0
 50
0.0000179999992061
 51
89.999959999995966
  0
ARC
  5
B395
  8
0
 62
     0
 10
427.72501558511118
 20
557.63467998455315
 30
0.0
 40
11.0
 50
269.9999949999995
 51
359.99994299999821
  0
ARC
  5
B396
  8
0
 62
     0
 10
427.72501558511118
 20
557.01747698455335
 30
0.0
 40
18.0
 50
270.00000899998008
 51
359.99994299999821
  0
ARC
  5
B397
  8
0
 62
     0
 10
427.72501558511118
 20
558.9846779845534
 30
0.0
 40
18.0
 50
270.00000899998008
 51
359.99994299999821
  0
ARC
  5
B398
  8
0
 62
     0
 10
352.72551958511178
 20
612.19967498455321
 30
0.0
 40
11.0
 50
90.0
 51
179.9999819999943
  0
ARC
  5
B399
  8
0
 62
     0
 10
427.72501558511118
 20
612.19967498455321
 30
0.0
 40
11.0
 50
359.99994299999821
 51
89.999959999995966
  0
ARC
  5
B39A
  8
0
 62
     0
 10
325.72551958511173
 20
626.1516779845532
 30
0.0
 40
9.000003999999997
 50
307.1689830000048
 51
359.99993599999488
  0
ARC
  5
B39B
  8
0
 62
     0
 10
325.72551958511173
 20
587.90287598455325
 30
0.0
 40
9.0
 50
359.99993599999488
 51
52.830968000006543
  0
ARC
  5
B39C
  8
0
 62
     0
 10
454.72501558511158
 20
626.1516779845532
 30
0.0
 40
9.0
 50
179.9999819999943
 51
232.83098999999589
  0
ARC
  5
B39D
  8
0
 62
     0
 10
440.22501558511118
 20
607.02767798455295
 30
0.0
 40
15.0
 50
307.16895599999509
 51
52.830964000001131
  0
ARC
  5
B39E
  8
0
 62
     0
 10
454.72501558511158
 20
587.90287598455325
 30
0.0
 40
9.0000009999999975
 50
127.16889600000439
 51
179.9999819999943
  0
LINE
  5
B39F
  8
0
 62
     0
 10
279.82841358511189
 20
478.4193699845531
 30
0.0
 11
500.62260358511122
 21
478.4193699845531
 31
0.0
  0
LINE
  5
B3A0
  8
0
 62
     0
 10
284.7255075851117
 20
477.11967198455318
 30
0.0
 11
495.7255075851117
 21
477.11967198455318
 31
0.0
  0
ARC
  5
B3A1
  8
0
 62
     0
 10
284.7255075851117
 20
479.11967198455318
 30
0.0
 40
2.0
 50
200.496599999995
 51
269.99999699998932
  0
ARC
  5
B3A2
  8
0
 62
     0
 10
279.82841358511189
 20
488.41936998455321
 30
0.0
 40
10.0
 50
260.77642999999648
 51
269.99999699998932
  0
LINE
  5
B3A3
  8
0
 62
     0
 10
522.72551958511167
 20
725.6696899845532
 30
0.0
 11
520.72554758511137
 21
725.68368798455322
 31
0.0
  0
LINE
  5
B3A4
  8
0
 62
     0
 10
520.72551958511156
 20
731.34333598455305
 30
0.0
 11
520.72551958511156
 21
715.22404398455353
 31
0.0
  0
LINE
  5
B3A5
  8
0
 62
     0
 10
504.88419758511168
 20
680.8888439845532
 30
0.0
 11
519.3318435851113
 21
676.29310398455323
 31
0.0
  0
LINE
  5
B3A6
  8
0
 62
     0
 10
504.5894835851114
 20
664.69591998455326
 30
0.0
 11
519.2064835851113
 21
661.07462798455322
 31
0.0
  0
LINE
  5
B3A7
  8
0
 62
     0
 10
504.22713158511169
 20
647.34297198455295
 30
0.0
 11
519.05665758511134
 21
644.85321398455324
 31
0.0
  0
LINE
  5
B3A8
  8
0
 62
     0
 10
503.82658558511167
 20
629.22047598455322
 30
0.0
 11
518.89442758511188
 21
627.94314398455322
 31
0.0
  0
LINE
  5
B3A9
  8
0
 62
     0
 10
445.72501558511158
 20
647.48101598455321
 30
0.0
 11
502.57134558511183
 21
647.48101598455321
 31
0.0
  0
LINE
  5
B3AA
  8
0
 62
     0
 10
520.72551958511156
 20
669.51266398455323
 30
0.0
 11
520.72551958511156
 21
674.3871739845531
 31
0.0
  0
LINE
  5
B3AB
  8
0
 62
     0
 10
520.72551958511156
 20
655.05953798455323
 30
0.0
 11
520.72551958511156
 21
659.13329998455322
 31
0.0
  0
LINE
  5
B3AC
  8
0
 62
     0
 10
520.72551958511156
 20
639.74239998455323
 30
0.0
 11
520.72551958511156
 21
642.88082798455321
 31
0.0
  0
LINE
  5
B3AD
  8
0
 62
     0
 10
445.72501558511158
 20
639.74239998455323
 30
0.0
 11
517.72551958511156
 21
639.74239998455323
 31
0.0
  0
LINE
  5
B3AE
  8
0
 62
     0
 10
444.29338258511109
 20
655.05953798455323
 30
0.0
 11
517.72551958511156
 21
655.05953798455323
 31
0.0
  0
LINE
  5
B3AF
  8
0
 62
     0
 10
278.2255405851115
 20
669.51266398455323
 30
0.0
 11
517.72551958511156
 21
669.51266398455323
 31
0.0
  0
LINE
  5
B3B0
  8
0
 62
     0
 10
446.02183658511137
 20
623.85937398455337
 30
0.0
 11
517.72551958511156
 21
623.85937398455337
 31
0.0
  0
LINE
  5
B3B1
  8
0
 62
     0
 10
503.4050335851116
 20
612.73644798455337
 30
0.0
 11
519.28032158511166
 21
612.16868998455323
 31
0.0
  0
LINE
  5
B3B2
  8
0
 62
     0
 10
503.40496358511149
 20
612.73648798455338
 30
0.0
 11
453.77265358511119
 21
613.46673998455321
 31
0.0
  0
LINE
  5
B3B3
  8
0
 62
     0
 10
520.72551958511156
 20
623.85937398455337
 30
0.0
 11
520.72551958511156
 21
625.95031598455284
 31
0.0
  0
LINE
  5
B3B4
  8
0
 62
     0
 10
445.72501558511158
 20
629.25622398455323
 30
0.0
 11
502.98186758511162
 21
629.25622398455323
 31
0.0
  0
LINE
  5
B3B5
  8
0
 62
     0
 10
405.22551958511161
 20
697.51394398455352
 30
0.0
 11
405.22551958511161
 21
711.97491198455327
 31
0.0
  0
LINE
  5
B3B6
  8
0
 62
     0
 10
278.2255405851115
 20
682.82046398455316
 30
0.0
 11
522.72551958511167
 21
682.82046398455316
 31
0.0
  0
LINE
  5
B3B7
  8
0
 62
     0
 10
278.2255405851115
 20
696.51394398455318
 30
0.0
 11
501.51720758511141
 21
696.51394398455318
 31
0.0
  0
LINE
  5
B3B8
  8
0
 62
     0
 10
512.60619758511143
 20
692.91146598455327
 30
0.0
 11
522.72551958511167
 21
692.91146598455327
 31
0.0
  0
LINE
  5
B3B9
  8
0
 62
     0
 10
512.60614758511144
 20
692.91146598455327
 30
0.0
 11
505.16295958511171
 21
695.82566398455322
 31
0.0
  0
LINE
  5
B3BA
  8
0
 62
     0
 10
279.2642155851118
 20
712.97491198455316
 30
0.0
 11
501.1868235851116
 21
712.97491198455316
 31
0.0
  0
LINE
  5
B3BB
  8
0
 62
     0
 10
512.60618558511169
 20
708.6816639845531
 30
0.0
 11
505.41522558511178
 21
712.03698198455322
 31
0.0
  0
LINE
  5
B3BC
  8
0
 62
     0
 10
406.22551958511173
 20
708.68165398455324
 30
0.0
 11
522.72551958511167
 21
708.68165398455324
 31
0.0
  0
LINE
  5
B3BD
  8
0
 62
     0
 10
279.47619058511168
 20
723.92648198455322
 30
0.0
 11
500.97484958511171
 21
723.92648198455322
 31
0.0
  0
LINE
  5
B3BE
  8
0
 62
     0
 10
519.64338558511167
 20
715.53852598455353
 30
0.0
 11
505.56420358511122
 21
722.81114398455315
 31
0.0
  0
LINE
  5
B3BF
  8
0
 62
     0
 10
520.72551958511156
 20
713.76160998455339
 30
0.0
 11
520.72551958511156
 21
708.68165398455324
 31
0.0
  0
LINE
  5
B3C0
  8
0
 62
     0
 10
279.64086358511167
 20
732.67368998455322
 30
0.0
 11
500.81017558511138
 21
732.67368998455322
 31
0.0
  0
LINE
  5
B3C1
  8
0
 62
     0
 10
505.67254158511111
 20
731.4119119845534
 30
0.0
 11
519.69797358511175
 21
723.60749598455322
 31
0.0
  0
LINE
  5
B3C2
  8
0
 62
     0
 10
279.75816158511168
 20
739.0461859845534
 30
0.0
 11
500.69286558511152
 21
739.0461859845534
 31
0.0
  0
LINE
  5
B3C3
  8
0
 62
     0
 10
519.73602958511174
 20
729.48418598455328
 30
0.0
 11
505.74553558511161
 21
737.67577398455353
 31
0.0
  0
LINE
  5
B3C4
  8
0
 62
     0
 10
279.82841358511189
 20
742.91998198455315
 30
0.0
 11
500.62261558511182
 21
742.91998198455315
 31
0.0
  0
LINE
  5
B3C5
  8
0
 62
     0
 10
519.75850558511183
 20
733.05594398455321
 30
0.0
 11
505.78758958511162
 21
741.48290998455309
 31
0.0
  0
LINE
  5
B3C6
  8
0
 62
     0
 10
284.7255075851117
 20
744.21967998455318
 30
0.0
 11
495.72551958511161
 21
744.21967998455318
 31
0.0
  0
LINE
  5
B3C7
  8
0
 62
     0
 10
374.22551958511173
 20
708.68165398455324
 30
0.0
 11
278.2255405851115
 21
708.68165398455324
 31
0.0
  0
LINE
  5
B3C8
  8
0
 62
     0
 10
375.22551958511161
 20
697.51394398455352
 30
0.0
 11
375.22551958511161
 21
711.97491198455327
 31
0.0
  0
LINE
  5
B3C9
  8
0
 62
     0
 10
378.72551958511173
 20
747.66967598455324
 30
0.0
 11
401.72551958511173
 21
747.66967598455324
 31
0.0
  0
LINE
  5
B3CA
  8
0
 62
     0
 10
378.72551958511173
 20
747.66967598455324
 30
0.0
 11
378.72551958511173
 21
744.21967998455318
 31
0.0
  0
LINE
  5
B3CB
  8
0
 62
     0
 10
401.72551958511173
 20
747.66967598455324
 30
0.0
 11
401.72551958511173
 21
744.21967998455318
 31
0.0
  0
ARC
  5
B3CC
  8
0
 62
     0
 10
518.72551958511167
 20
625.95031598455284
 30
0.0
 40
2.0
 50
0.0
 51
85.154496000005182
  0
ARC
  5
B3CD
  8
0
 62
     0
 10
518.72551958511167
 20
642.88082798455321
 30
0.0
 40
2.0
 50
0.0
 51
80.469389000002764
  0
ARC
  5
B3CE
  8
0
 62
     0
 10
518.72551958511167
 20
659.13329998455322
 30
0.0
 40
2.0
 50
0.0
 51
76.085411000000192
  0
ARC
  5
B3CF
  8
0
 62
     0
 10
518.72551958511167
 20
674.3871739845531
 30
0.0
 40
2.0
 50
0.0
 51
72.354331999996134
  0
ARC
  5
B3D0
  8
0
 62
     0
 10
501.85283958511172
 20
671.35934198455323
 30
0.0
 40
10.0
 50
72.354331999996134
 51
90.000002999984659
  0
ARC
  5
B3D1
  8
0
 62
     0
 10
502.18474958511149
 20
654.98934798455321
 30
0.0
 40
10.0
 50
76.085411000000192
 51
90.000002999984659
  0
ARC
  5
B3D2
  8
0
 62
     0
 10
502.57134558511183
 20
637.48101598455321
 30
0.0
 40
10.0
 50
80.469389000002764
 51
90.000002999984659
  0
ARC
  5
B3D3
  8
0
 62
     0
 10
502.98186758511162
 20
619.25622398455323
 30
0.0
 40
10.0
 50
85.154496000005182
 51
90.000002999984659
  0
ARC
  5
B3D4
  8
0
 62
     0
 10
519.22674158511143
 20
610.66848598455317
 30
0.0
 40
1.498794
 50
0.0454979999978281
 51
90.000002999984659
  0
ARC
  5
B3D5
  8
0
 62
     0
 10
501.51720758511141
 20
686.51394398455352
 30
0.0
 40
10.0
 50
68.618381999994895
 51
90.000002999984659
  0
ARC
  5
B3D6
  8
0
 62
     0
 10
501.1868235851116
 20
702.97491198455327
 30
0.0
 40
10.0
 50
64.986142000001053
 51
90.000002999984659
  0
ARC
  5
B3D7
  8
0
 62
     0
 10
500.97484958511171
 20
713.92648198455322
 30
0.0
 40
10.0
 50
62.681328999998208
 51
90.000002999984659
  0
ARC
  5
B3D8
  8
0
 62
     0
 10
518.72551958511167
 20
713.76160998455339
 30
0.0
 40
2.0
 50
0.0
 51
62.681328999998208
  0
ARC
  5
B3D9
  8
0
 62
     0
 10
500.81017558511138
 20
722.67368998455322
 30
0.0
 40
10.0
 50
60.906361000012808
 51
90.000002999984659
  0
ARC
  5
B3DA
  8
0
 62
     0
 10
518.72551958511167
 20
721.85986198455339
 30
0.0
 40
2.0
 50
0.0
 51
60.906361000012808
  0
ARC
  5
B3DB
  8
0
 62
     0
 10
500.69286558511152
 20
729.04618598455318
 30
0.0
 40
10.0
 50
59.650562000004939
 51
90.000002999984659
  0
ARC
  5
B3DC
  8
0
 62
     0
 10
518.72551958511167
 20
727.75828398455315
 30
0.0
 40
2.0
 50
0.0
 51
59.650562000004939
  0
ARC
  5
B3DD
  8
0
 62
     0
 10
518.72551958511167
 20
731.34333598455305
 30
0.0
 40
2.0
 50
0.0
 51
58.902493000008448
  0
ARC
  5
B3DE
  8
0
 62
     0
 10
500.62261558511182
 20
732.91998198455303
 30
0.0
 40
10.0
 50
58.902493000008448
 51
90.000002999984659
  0
ARC
  5
B3DF
  8
0
 62
     0
 10
495.72551958511161
 20
742.21967998455295
 30
0.0
 40
2.0
 50
20.49659900000524
 51
90.000002999984659
  0
ARC
  5
B3E0
  8
0
 62
     0
 10
406.22551958511173
 20
697.51394398455352
 30
0.0
 40
1.0
 50
179.9999949999995
 51
269.99999699998932
  0
ARC
  5
B3E1
  8
0
 62
     0
 10
374.22551958511173
 20
697.51394398455352
 30
0.0
 40
1.0
 50
269.99999699998932
 51
0.0
  0
ARC
  5
B3E2
  8
0
 62
     0
 10
406.22551958511173
 20
707.68165398455324
 30
0.0
 40
1.0
 50
89.999998999979056
 51
180.00000899999941
  0
ARC
  5
B3E3
  8
0
 62
     0
 10
374.22551958511173
 20
707.68165398455324
 30
0.0
 40
1.0
 50
0.0
 51
90.000002999984659
  0
ARC
  5
B3E4
  8
0
 62
     0
 10
406.22551958511173
 20
711.97491198455327
 30
0.0
 40
1.0
 50
89.999998999979056
 51
180.00000899999941
  0
ARC
  5
B3E5
  8
0
 62
     0
 10
374.22551958511173
 20
711.97491198455327
 30
0.0
 40
1.0
 50
0.0
 51
90.000002999984659
  0
LINE
  5
B3E6
  8
0
 62
     0
 10
433.74166158511161
 20
664.98934798455298
 30
0.0
 11
502.18474958511149
 21
664.98934798455298
 31
0.0
  0
LINE
  5
B3E7
  8
0
 62
     0
 10
278.2255405851115
 20
681.35932798455337
 30
0.0
 11
501.85283958511172
 21
681.35932798455337
 31
0.0
  0
LINE
  5
B3E8
  8
0
 62
     0
 10
522.72551958511167
 20
495.66966198455322
 30
0.0
 11
520.72554758511137
 21
495.6556639845532
 31
0.0
  0
LINE
  5
B3E9
  8
0
 62
     0
 10
520.72551958511156
 20
489.9960159845532
 30
0.0
 11
520.72551958511156
 21
506.11530798455311
 31
0.0
  0
LINE
  5
B3EA
  8
0
 62
     0
 10
278.2255405851115
 20
539.9800239845531
 30
0.0
 11
346.91818058511171
 21
539.9800239845531
 31
0.0
  0
LINE
  5
B3EB
  8
0
 62
     0
 10
504.88419758511168
 20
540.45050798455338
 30
0.0
 11
519.3318435851113
 21
545.04624798455325
 31
0.0
  0
LINE
  5
B3EC
  8
0
 62
     0
 10
504.5894835851114
 20
556.64343198455322
 30
0.0
 11
519.2064835851113
 21
560.26472398455326
 31
0.0
  0
LINE
  5
B3ED
  8
0
 62
     0
 10
504.22713158511169
 20
573.99637998455353
 30
0.0
 11
519.05665758511134
 21
576.48613798455324
 31
0.0
  0
LINE
  5
B3EE
  8
0
 62
     0
 10
503.82658558511167
 20
592.11887598455326
 30
0.0
 11
518.89442758511188
 21
593.39620798455326
 31
0.0
  0
LINE
  5
B3EF
  8
0
 62
     0
 10
445.72501558511158
 20
573.85833598455338
 30
0.0
 11
502.57134558511183
 21
573.85833598455338
 31
0.0
  0
LINE
  5
B3F0
  8
0
 62
     0
 10
520.72551958511156
 20
551.82668798455325
 30
0.0
 11
520.72551958511156
 21
546.95217798455337
 31
0.0
  0
LINE
  5
B3F1
  8
0
 62
     0
 10
520.72551958511156
 20
566.27981398455324
 30
0.0
 11
520.72551958511156
 21
562.20605198455337
 31
0.0
  0
LINE
  5
B3F2
  8
0
 62
     0
 10
520.72551958511156
 20
581.59695198455324
 30
0.0
 11
520.72551958511156
 21
578.45852398455315
 31
0.0
  0
LINE
  5
B3F3
  8
0
 62
     0
 10
445.72501558511158
 20
581.59695198455324
 30
0.0
 11
517.72551958511156
 21
581.59695198455324
 31
0.0
  0
LINE
  5
B3F4
  8
0
 62
     0
 10
445.72501558511158
 20
566.27981398455324
 30
0.0
 11
517.72551958511156
 21
566.27981398455324
 31
0.0
  0
LINE
  5
B3F5
  8
0
 62
     0
 10
451.7940015851118
 20
597.47997798455322
 30
0.0
 11
517.72551958511156
 21
597.47997798455322
 31
0.0
  0
LINE
  5
B3F6
  8
0
 62
     0
 10
503.4050335851116
 20
608.60290398455322
 30
0.0
 11
519.28032158511166
 21
609.17066198455325
 31
0.0
  0
LINE
  5
B3F7
  8
0
 62
     0
 10
503.40496358511149
 20
608.60286398455298
 30
0.0
 11
455.20000058511118
 21
607.89361298455322
 31
0.0
  0
LINE
  5
B3F8
  8
0
 62
     0
 10
520.72551958511156
 20
597.47997798455322
 30
0.0
 11
520.72551958511156
 21
595.3890359845534
 31
0.0
  0
LINE
  5
B3F9
  8
0
 62
     0
 10
446.75472658511148
 20
592.08312798455336
 30
0.0
 11
502.98186758511162
 21
592.08312798455336
 31
0.0
  0
LINE
  5
B3FA
  8
0
 62
     0
 10
405.22551958511161
 20
523.82540798455307
 30
0.0
 11
405.22551958511161
 21
509.3644399845532
 31
0.0
  0
LINE
  5
B3FB
  8
0
 62
     0
 10
278.2255405851115
 20
538.51888798455343
 30
0.0
 11
522.72551958511167
 21
538.51888798455343
 31
0.0
  0
LINE
  5
B3FC
  8
0
 62
     0
 10
278.2255405851115
 20
524.82540798455318
 30
0.0
 11
501.51720758511141
 21
524.82540798455318
 31
0.0
  0
LINE
  5
B3FD
  8
0
 62
     0
 10
512.60619758511143
 20
528.4278859845532
 30
0.0
 11
522.72551958511167
 21
528.4278859845532
 31
0.0
  0
LINE
  5
B3FE
  8
0
 62
     0
 10
512.60614758511144
 20
528.4278859845532
 30
0.0
 11
505.16295958511171
 21
525.51368798455314
 31
0.0
  0
LINE
  5
B3FF
  8
0
 62
     0
 10
279.2642155851118
 20
508.36443998455343
 30
0.0
 11
501.1868235851116
 21
508.36443998455343
 31
0.0
  0
LINE
  5
B400
  8
0
 62
     0
 10
512.60618558511169
 20
512.65768798455338
 30
0.0
 11
505.41522558511178
 21
509.30236998455342
 31
0.0
  0
LINE
  5
B401
  8
0
 62
     0
 10
406.22551958511173
 20
512.65769798455335
 30
0.0
 11
522.72551958511167
 21
512.65769798455335
 31
0.0
  0
LINE
  5
B402
  8
0
 62
     0
 10
279.47619058511168
 20
497.4128699845532
 30
0.0
 11
500.97484958511171
 21
497.4128699845532
 31
0.0
  0
LINE
  5
B403
  8
0
 62
     0
 10
519.64338558511167
 20
505.80082598455323
 30
0.0
 11
505.56420358511122
 21
498.52820798455309
 31
0.0
  0
LINE
  5
B404
  8
0
 62
     0
 10
520.72551958511156
 20
507.5777419845532
 30
0.0
 11
520.72551958511156
 21
512.65769798455335
 31
0.0
  0
LINE
  5
B405
  8
0
 62
     0
 10
279.64086358511167
 20
488.66566198455308
 30
0.0
 11
500.81017558511138
 21
488.66566198455308
 31
0.0
  0
LINE
  5
B406
  8
0
 62
     0
 10
505.67254158511111
 20
489.92743998455319
 30
0.0
 11
519.69797358511175
 21
497.73185598455319
 31
0.0
  0
LINE
  5
B407
  8
0
 62
     0
 10
279.75816158511168
 20
482.2931659845533
 30
0.0
 11
500.69286558511152
 21
482.2931659845533
 31
0.0
  0
LINE
  5
B408
  8
0
 62
     0
 10
519.73602958511174
 20
491.85516598455303
 30
0.0
 11
505.74553558511161
 21
483.66357798455323
 31
0.0
  0
LINE
  5
B409
  8
0
 62
     0
 10
519.75850558511183
 20
488.28340798455309
 30
0.0
 11
505.78758958511162
 21
479.85644198455338
 31
0.0
  0
LINE
  5
B40A
  8
0
 62
     0
 10
374.22551958511173
 20
512.65769798455335
 30
0.0
 11
278.2255405851115
 21
512.65769798455335
 31
0.0
  0
LINE
  5
B40B
  8
0
 62
     0
 10
375.22551958511161
 20
523.82540798455307
 30
0.0
 11
375.22551958511161
 21
509.3644399845532
 31
0.0
  0
LINE
  5
B40C
  8
0
 62
     0
 10
378.72551958511173
 20
473.66967598455318
 30
0.0
 11
401.72551958511173
 21
473.66967598455318
 31
0.0
  0
LINE
  5
B40D
  8
0
 62
     0
 10
378.72551958511173
 20
473.66967598455318
 30
0.0
 11
378.72551958511173
 21
477.11967198455318
 31
0.0
  0
LINE
  5
B40E
  8
0
 62
     0
 10
401.72551958511173
 20
473.66967598455318
 30
0.0
 11
401.72551958511173
 21
477.11967198455318
 31
0.0
  0
ARC
  5
B40F
  8
0
 62
     0
 10
518.72551958511167
 20
595.3890359845534
 30
0.0
 40
2.0
 50
274.84550399999489
 51
0.0
  0
ARC
  5
B410
  8
0
 62
     0
 10
518.72551958511167
 20
578.45852398455315
 30
0.0
 40
2.0
 50
279.53061099999741
 51
0.0
  0
ARC
  5
B411
  8
0
 62
     0
 10
518.72551958511167
 20
562.20605198455337
 30
0.0
 40
2.0
 50
283.91458899999981
 51
0.0
  0
ARC
  5
B412
  8
0
 62
     0
 10
518.72551958511167
 20
546.95217798455337
 30
0.0
 40
2.0
 50
287.64566800000392
 51
0.0
  0
ARC
  5
B413
  8
0
 62
     0
 10
501.85283958511172
 20
549.98000998455336
 30
0.0
 40
10.0
 50
269.99999699998932
 51
287.64566800000392
  0
ARC
  5
B414
  8
0
 62
     0
 10
502.18474958511149
 20
566.35000398455327
 30
0.0
 40
10.0
 50
269.99999699998932
 51
283.91458899999981
  0
ARC
  5
B415
  8
0
 62
     0
 10
502.57134558511183
 20
583.85833598455315
 30
0.0
 40
10.0
 50
269.99999699998932
 51
279.53061099999741
  0
ARC
  5
B416
  8
0
 62
     0
 10
502.98186758511162
 20
602.08312798455324
 30
0.0
 40
10.0
 50
269.99999699998932
 51
274.84550399999489
  0
ARC
  5
B417
  8
0
 62
     0
 10
519.22674158511143
 20
610.67086598455319
 30
0.0
 40
1.498794
 50
272.04545799998709
 51
359.95450199999573
  0
ARC
  5
B418
  8
0
 62
     0
 10
501.51720758511141
 20
534.82540798455295
 30
0.0
 40
10.0
 50
269.99999699998932
 51
291.38161800000512
  0
ARC
  5
B419
  8
0
 62
     0
 10
501.1868235851116
 20
518.36443998455309
 30
0.0
 40
10.0
 50
269.99999699998932
 51
295.013857999999
  0
ARC
  5
B41A
  8
0
 62
     0
 10
500.97484958511171
 20
507.41286998455308
 30
0.0
 40
10.0
 50
269.99999699998932
 51
297.31867100000181
  0
ARC
  5
B41B
  8
0
 62
     0
 10
518.72551958511167
 20
507.5777419845532
 30
0.0
 40
2.0
 50
297.31867100000181
 51
0.0
  0
ARC
  5
B41C
  8
0
 62
     0
 10
500.81017558511138
 20
498.6656619845532
 30
0.0
 40
10.0
 50
269.99999699998932
 51
299.09363899998721
  0
ARC
  5
B41D
  8
0
 62
     0
 10
518.72551958511167
 20
499.4794899845532
 30
0.0
 40
2.0
 50
299.09363899998721
 51
0.0
  0
ARC
  5
B41E
  8
0
 62
     0
 10
500.69286558511152
 20
492.2931659845533
 30
0.0
 40
10.0
 50
269.99999699998932
 51
300.34943799999508
  0
ARC
  5
B41F
  8
0
 62
     0
 10
518.72551958511167
 20
493.5810679845531
 30
0.0
 40
2.0
 50
300.34943799999508
 51
0.0
  0
ARC
  5
B420
  8
0
 62
     0
 10
518.72551958511167
 20
489.9960159845532
 30
0.0
 40
2.0
 50
301.09750699999148
 51
0.0
  0
ARC
  5
B421
  8
0
 62
     0
 10
500.62261558511182
 20
488.41936998455321
 30
0.0
 40
10.0
 50
269.99999699998932
 51
301.09750699999148
  0
ARC
  5
B422
  8
0
 62
     0
 10
495.72551958511161
 20
479.11967198455318
 30
0.0
 40
2.0
 50
269.99999699998932
 51
339.50340099999482
  0
ARC
  5
B423
  8
0
 62
     0
 10
406.22551958511173
 20
523.82540798455307
 30
0.0
 40
1.0
 50
90.000002999984659
 51
180.0000050000005
  0
ARC
  5
B424
  8
0
 62
     0
 10
374.22551958511173
 20
523.82540798455307
 30
0.0
 40
1.0
 50
0.0
 51
90.000002999984659
  0
ARC
  5
B425
  8
0
 62
     0
 10
406.22551958511173
 20
513.65769798455335
 30
0.0
 40
1.0
 50
179.99999100000039
 51
270.00000099999488
  0
ARC
  5
B426
  8
0
 62
     0
 10
374.22551958511173
 20
513.65769798455335
 30
0.0
 40
1.0
 50
269.99999699998932
 51
0.0
  0
ARC
  5
B427
  8
0
 62
     0
 10
406.22551958511173
 20
509.3644399845532
 30
0.0
 40
1.0
 50
179.99999100000039
 51
270.00000099999488
  0
ARC
  5
B428
  8
0
 62
     0
 10
374.22551958511173
 20
509.3644399845532
 30
0.0
 40
1.0
 50
269.99999699998932
 51
0.0
  0
LINE
  5
B429
  8
0
 62
     0
 10
445.71263658511168
 20
556.35000398455338
 30
0.0
 11
502.18474958511149
 21
556.35000398455338
 31
0.0
  0
LINE
  5
B42A
  8
0
 62
     0
 10
444.96032058511167
 20
551.82668798455325
 30
0.0
 11
517.72551958511156
 21
551.82668798455325
 31
0.0
  0
LINE
  5
B42B
  8
0
 62
     0
 10
522.72551958511167
 20
730.6696884845536
 30
0.0
 11
522.72551958511167
 21
490.6696634845531
 31
0.0
  0
ARC
  5
B42C
  8
0
 62
     0
 10
279.75816158511168
 20
492.2931659845533
 30
0.0
 40
10.0
 50
261.18398499998767
 51
270.00000299998447
  0
LINE
  5
BB8C
  8
0
  6
CONTINUOUS
 62
     0
 10
792.22551958511156
 20
1081.609109938099
 30
0.0
 11
873.22551958511156
 21
1081.609109938099
 31
0.0
  0
LINE
  5
BB8D
  8
0
  6
CONTINUOUS
 62
     0
 10
792.22551958511156
 20
1063.6091499380991
 30
0.0
 11
873.22551958511156
 21
1063.6091499380991
 31
0.0
  0
LINE
  5
BB8E
  8
0
  6
CONTINUOUS
 62
     0
 10
768.22551958511167
 20
1042.6091499380991
 30
0.0
 11
873.22551958511156
 21
1042.6091499380991
 31
0.0
  0
LINE
  5
BB8F
  8
0
  6
CONTINUOUS
 62
     0
 10
768.22551958511167
 20
1102.609109938099
 30
0.0
 11
873.22551958511156
 21
1102.609109938099
 31
0.0
  0
LINE
  5
BB90
  8
0
  6
AM_ISO08W050
 62
     0
 10
137.90376457129921
 20
1072.609109938099
 30
0.0
 11
889.04845958511044
 21
1072.609109938099
 31
0.0
  0
LINE
  5
BB91
  8
0
  6
CONTINUOUS
 62
     0
 10
649.72545958511137
 20
1230.5086099380981
 30
0.0
 11
649.72545958511137
 21
914.70979993809885
 31
0.0
  0
LINE
  5
BB92
  8
0
  6
CONTINUOUS
 62
     0
 10
522.72551958511167
 20
1192.609109938096
 30
0.0
 11
522.72551958511167
 21
952.60914993809899
 31
0.0
  0
LINE
  5
BB93
  8
0
  6
CONTINUOUS
 62
     0
 10
535.72541958511147
 20
1190.6091099380969
 30
0.0
 11
535.72541958511147
 21
954.60914993809899
 31
0.0
  0
LINE
  5
BB94
  8
0
  6
CONTINUOUS
 62
     0
 10
726.22551958511167
 20
952.2660099380987
 30
0.0
 11
726.22551958511167
 21
1192.9523099380981
 31
0.0
  0
LINE
  5
BB95
  8
0
  6
CONTINUOUS
 62
     0
 10
619.72551958511156
 20
1231.5562099380991
 30
0.0
 11
619.72551958511156
 21
1077.6091099380981
 31
0.0
  0
LINE
  5
BB96
  8
0
  6
CONTINUOUS
 62
     0
 10
762.22551958511156
 20
1134.7120099380991
 30
0.0
 11
762.22551958511156
 21
1010.506239938099
 31
0.0
  0
LINE
  5
BB97
  8
0
  6
CONTINUOUS
 62
     0
 10
756.22551958511167
 20
1173.074009938098
 30
0.0
 11
756.22551958511167
 21
972.14423993809839
 31
0.0
  0
LINE
  5
BB98
  8
0
  6
CONTINUOUS
 62
     0
 10
688.50469958511121
 20
916.06397993809844
 30
0.0
 11
619.72551958511156
 21
913.66218993809832
 31
0.0
  0
LINE
  5
BB99
  8
0
  6
CONTINUOUS
 62
     0
 10
624.72551958511156
 20
892.60914993809888
 30
0.0
 11
757.40001958511175
 21
897.2422699380985
 31
0.0
  0
CIRCLE
  5
BB9A
  8
0
  6
CONTINUOUS
 62
     0
 10
532.22551958511156
 20
927.60914993809899
 30
0.0
 40
12.0
  0
LINE
  5
BB9B
  8
0
  6
CONTINUOUS
 62
     0
 10
535.72541958511147
 20
985.93427993809894
 30
0.0
 11
579.72551958511156
 21
985.93427993809894
 31
0.0
  0
LINE
  5
BB9C
  8
0
  6
CONTINUOUS
 62
     0
 10
535.72541958511147
 20
1001.676349938099
 30
0.0
 11
579.72551958511156
 21
1001.676349938099
 31
0.0
  0
LINE
  5
BB9D
  8
0
  6
CONTINUOUS
 62
     0
 10
537.72551958511258
 20
960.60914993809899
 30
0.0
 11
574.72551958511156
 21
960.60914993809899
 31
0.0
  0
LINE
  5
BB9E
  8
0
  6
CONTINUOUS
 62
     0
 10
507.05085958511103
 20
896.7184599380987
 30
0.0
 11
624.72551958511156
 21
892.6092099380985
 31
0.0
  0
LINE
  5
BB9F
  8
0
  6
CENTER
 62
     0
 10
512.21215958511254
 20
927.60914993809899
 30
0.0
 11
550.97899958511084
 21
927.60914993809899
 31
0.0
  0
LINE
  5
BBA0
  8
0
  6
CONTINUOUS
 62
     0
 10
502.22555958511248
 20
901.71540993809901
 30
0.0
 11
502.22555958511248
 21
944.6091099380991
 31
0.0
  0
ARC
  5
BBA1
  8
0
  6
CONTINUOUS
 62
     0
 10
507.22555958511163
 20
901.71540993809901
 30
0.0
 40
5.0
 50
180.00001000000091
 51
267.99999999999648
  0
LINE
  5
BBA2
  8
0
  6
CONTINUOUS
 62
     0
 10
522.72551958511167
 20
972.8819099380986
 30
0.0
 11
535.72541958511147
 21
972.8819099380986
 31
0.0
  0
LINE
  5
BBA3
  8
0
  6
CONTINUOUS
 62
     0
 10
522.72551958511167
 20
952.60914993809899
 30
0.0
 11
533.72551958511258
 21
952.60914993809899
 31
0.0
  0
ARC
  5
BBA4
  8
0
  6
CONTINUOUS
 62
     0
 10
537.72551958511258
 20
958.60914993809843
 30
0.0
 40
2.0
 50
90.000002999984659
 51
180.00001000000091
  0
ARC
  5
BBA5
  8
0
  6
CONTINUOUS
 62
     0
 10
533.72551958511258
 20
954.60914993809899
 30
0.0
 40
2.0
 50
270.0
 51
0.0
  0
LINE
  5
BBA6
  8
0
  6
CONTINUOUS
 62
     0
 10
522.72551958511167
 20
988.43824993809881
 30
0.0
 11
535.72541958511147
 21
988.43824993809881
 31
0.0
  0
LINE
  5
BBA7
  8
0
  6
CONTINUOUS
 62
     0
 10
522.72551958511167
 20
996.61243993809921
 30
0.0
 11
535.72541958511147
 21
996.61243993809921
 31
0.0
  0
LINE
  5
BBA8
  8
0
  6
CENTER
 62
     0
 10
532.22551958511156
 20
907.50440993809855
 30
0.0
 11
532.22551958511156
 21
947.17286993809887
 31
0.0
  0
ARC
  5
BBA9
  8
0
  6
CONTINUOUS
 62
     0
 10
577.22551958511167
 20
908.17249993809889
 30
0.0
 40
5.0
 50
180.00001000000091
 51
279.3598500000158
  0
LINE
  5
BBAA
  8
0
  6
CONTINUOUS
 62
     0
 10
619.72551958511156
 20
913.66218993809832
 30
0.0
 11
601.65572076057151
 21
914.29319968914501
 31
0.0
  0
LINE
  5
BBAB
  8
0
  6
CONTINUOUS
 62
     0
 10
573.0108595851118
 20
894.53962993809876
 30
0.0
 11
615.95268958511178
 21
899.84962993809859
 31
0.0
  0
LINE
  5
BBAC
  8
0
  6
CONTINUOUS
 62
     0
 10
620.53868958511111
 20
910.24433993809885
 30
0.0
 11
578.03868958511111
 21
903.2390899380988
 31
0.0
  0
ARC
  5
BBAD
  8
0
  6
CONTINUOUS
 62
     0
 10
614.72551958511167
 20
909.77406993809848
 30
0.0
 40
10.0
 50
277.04920000001749
 51
0.0
  0
ARC
  5
BBAE
  8
0
  6
CONTINUOUS
 62
     0
 10
619.72551958511156
 20
915.17774993809894
 30
0.0
 40
5.0
 50
279.35986000001168
 51
344.36583000000542
  0
LINE
  5
BBAF
  8
0
  6
CONTINUOUS
 62
     0
 10
624.72551958511156
 20
909.77406993809848
 30
0.0
 11
624.72551958511156
 21
913.83674993809848
 31
0.0
  0
CIRCLE
  5
BBB0
  8
0
  6
CONTINUOUS
 62
     0
 10
732.22551958511156
 20
927.60914993809899
 30
0.0
 40
12.0
  0
LINE
  5
BBB1
  8
0
  6
CONTINUOUS
 62
     0
 10
748.50469958511121
 20
965.33948993809895
 30
0.0
 11
735.87651958511128
 21
964.89851993809884
 31
0.0
  0
LINE
  5
BBB2
  8
0
  6
CENTER
 62
     0
 10
712.95171958511173
 20
927.60914993809899
 30
0.0
 11
752.39220958511169
 21
927.60914993809899
 31
0.0
  0
ARC
  5
BBB3
  8
0
  6
CONTINUOUS
 62
     0
 10
711.22551958511156
 20
927.07618993809842
 30
0.0
 40
15.0
 50
91.999997999994306
 51
180.00001000000091
  0
LINE
  5
BBB4
  8
0
  6
CENTER
 62
     0
 10
732.22551958511156
 20
906.48835993809894
 30
0.0
 11
732.22551958511156
 21
946.93153993809881
 31
0.0
  0
LINE
  5
BBB5
  8
0
  6
CONTINUOUS
 62
     0
 10
696.22551958511156
 20
905.46125993809892
 30
0.0
 11
696.22551958511156
 21
927.07618993809842
 31
0.0
  0
ARC
  5
BBB6
  8
0
  6
CONTINUOUS
 62
     0
 10
706.22551958511167
 20
905.46125993809892
 30
0.0
 40
10.0
 50
180.00001000000091
 51
271.99999000000759
  0
ARC
  5
BBB7
  8
0
  6
CONTINUOUS
 62
     0
 10
688.22551958511156
 20
924.05909993809894
 30
0.0
 40
8.0
 50
272.00000000000352
 51
0.0
  0
ARC
  5
BBB8
  8
0
  6
CONTINUOUS
 62
     0
 10
736.22551958511156
 20
954.90461993809902
 30
0.0
 40
10.0
 50
91.999997999994306
 51
180.00001000000091
  0
ARC
  5
BBB9
  8
0
  6
CONTINUOUS
 62
     0
 10
716.22551958511156
 20
952.2660099380987
 30
0.0
 40
10.0
 50
272.00000000000352
 51
0.0
  0
LINE
  5
BBBA
  8
0
  6
CONTINUOUS
 62
     0
 10
716.57445958511153
 20
942.27216993809895
 30
0.0
 11
710.70201958511143
 21
942.06709993809875
 31
0.0
  0
LINE
  5
BBBB
  8
0
  6
CONTINUOUS
 62
     0
 10
762.22551958511156
 20
902.2392099380985
 30
0.0
 11
762.22551958511156
 21
962.97907993809895
 31
0.0
  0
ARC
  5
BBBC
  8
0
  6
CONTINUOUS
 62
     0
 10
757.22551958511156
 20
902.2392099380985
 30
0.0
 40
5.0
 50
272.00000000000352
 51
0.0
  0
ARC
  5
BBBD
  8
0
  6
CONTINUOUS
 62
     0
 10
748.22551958511156
 20
973.33466993809895
 30
0.0
 40
8.0
 50
272.00000000000352
 51
0.0
  0
ARC
  5
BBBE
  8
0
  6
CONTINUOUS
 62
     0
 10
757.22551958511156
 20
962.97907993809895
 30
0.0
 40
5.0
 50
0.0
 51
66.421820999986366
  0
ARC
  5
BBBF
  8
0
  6
CONTINUOUS
 62
     0
 10
761.22551958511156
 20
972.14423993809839
 30
0.0
 40
5.0
 50
180.00001000000091
 51
246.42181999998789
  0
ARC
  5
BBC0
  8
0
  6
CONTINUOUS
 62
     0
 10
759.22551958511156
 20
1010.506239938099
 30
0.0
 40
3.0
 50
272.00000000000352
 51
0.0
  0
ARC
  5
BBC1
  8
0
  6
CONTINUOUS
 62
     0
 10
759.22551958511156
 20
1004.5025799380981
 30
0.0
 40
3.0
 50
91.999997999994306
 51
180.00001000000091
  0
LINE
  5
BBC2
  8
0
  6
CONTINUOUS
 62
     0
 10
759.12084958511093
 20
1007.500689938099
 30
0.0
 11
759.33025958511143
 21
1007.508009938099
 31
0.0
  0
LINE
  5
BBC3
  8
0
  6
CONTINUOUS
 62
     0
 10
688.50469958511121
 20
1229.1544099380969
 30
0.0
 11
619.72551958511156
 21
1231.5562099380991
 31
0.0
  0
LINE
  5
BBC4
  8
0
  6
CONTINUOUS
 62
     0
 10
624.72545958511137
 20
1252.609109938099
 30
0.0
 11
757.39995958511122
 21
1247.9760099380981
 31
0.0
  0
CIRCLE
  5
BBC5
  8
0
  6
CONTINUOUS
 62
     0
 10
532.22551958511156
 20
1217.609109938099
 30
0.0
 40
12.0
  0
LINE
  5
BBC6
  8
0
  6
CENTER
 62
     0
 10
532.22551958511156
 20
1236.1401099380971
 30
0.0
 11
532.22551958511156
 21
1198.538009938097
 31
0.0
  0
LINE
  5
BBC7
  8
0
  6
CONTINUOUS
 62
     0
 10
502.22555958511248
 20
1243.5029099380979
 30
0.0
 11
502.22555958511248
 21
1205.609109938099
 31
0.0
  0
LINE
  5
BBC8
  8
0
  6
CONTINUOUS
 62
     0
 10
535.72541958511147
 20
1159.284109938098
 30
0.0
 11
579.72551958511156
 21
1159.284109938098
 31
0.0
  0
LINE
  5
BBC9
  8
0
  6
CONTINUOUS
 62
     0
 10
535.72541958511147
 20
1143.541909938099
 30
0.0
 11
579.72551958511156
 21
1143.541909938099
 31
0.0
  0
LINE
  5
BBCA
  8
0
  6
CONTINUOUS
 62
     0
 10
537.72551958511258
 20
1184.609109938096
 30
0.0
 11
574.72551958511156
 21
1184.609109938096
 31
0.0
  0
LINE
  5
BBCB
  8
0
  6
CONTINUOUS
 62
     0
 10
522.72551958511167
 20
1148.605709938098
 30
0.0
 11
535.72541958511147
 21
1148.605709938098
 31
0.0
  0
LINE
  5
BBCC
  8
0
  6
CONTINUOUS
 62
     0
 10
522.72551958511167
 20
1156.7799099380991
 30
0.0
 11
535.72541958511147
 21
1156.7799099380991
 31
0.0
  0
LINE
  5
BBCD
  8
0
  6
CONTINUOUS
 62
     0
 10
522.72551958511167
 20
1172.3363099380981
 30
0.0
 11
535.72541958511147
 21
1172.3363099380981
 31
0.0
  0
LINE
  5
BBCE
  8
0
  6
CONTINUOUS
 62
     0
 10
522.72551958511167
 20
1192.609109938096
 30
0.0
 11
533.72551958511258
 21
1192.609109938096
 31
0.0
  0
ARC
  5
BBCF
  8
0
  6
CONTINUOUS
 62
     0
 10
533.72551958511258
 20
1190.6091099380969
 30
0.0
 40
2.0
 50
0.0
 51
90.000002999984659
  0
ARC
  5
BBD0
  8
0
  6
CONTINUOUS
 62
     0
 10
537.72551958511258
 20
1186.609109938096
 30
0.0
 40
2.0
 50
179.999989999999
 51
270.0
  0
ARC
  5
BBD1
  8
0
  6
CONTINUOUS
 62
     0
 10
601.72551958511178
 20
1072.609109938099
 30
0.0
 40
12.5
 50
203.57817999999739
 51
336.42182999998022
  0
ARC
  5
BBD2
  8
0
  6
CONTINUOUS
 62
     0
 10
601.72551958511178
 20
1072.609109938099
 30
0.0
 40
12.5
 50
23.578179999997541
 51
156.42182000000241
  0
LINE
  5
BBD3
  8
0
  6
CONTINUOUS
 62
     0
 10
581.72551958511156
 20
1077.6091099380981
 30
0.0
 11
621.72551958511156
 21
1077.6091099380981
 31
0.0
  0
LINE
  5
BBD4
  8
0
  6
CONTINUOUS
 62
     0
 10
581.72551958511156
 20
1067.6091099380981
 30
0.0
 11
621.72551958511156
 21
1067.6091099380981
 31
0.0
  0
ARC
  5
BBD5
  8
0
  6
CONTINUOUS
 62
     0
 10
581.72551958511156
 20
1072.609109938099
 30
0.0
 40
5.0
 50
90.000002999984659
 51
270.0
  0
ARC
  5
BBD6
  8
0
  6
CONTINUOUS
 62
     0
 10
621.72551958511156
 20
1072.609109938099
 30
0.0
 40
5.0
 50
270.0
 51
90.000002999984659
  0
LINE
  5
BBD7
  8
0
  6
CENTER
 62
     0
 10
601.72551958511178
 20
1055.4742599380979
 30
0.0
 11
601.72551958511178
 21
1088.5225099380989
 31
0.0
  0
LINE
  5
BBD8
  8
0
  6
CENTER
 62
     0
 10
512.90815958511246
 20
1217.609109938099
 30
0.0
 11
551.42741958511078
 21
1217.609109938099
 31
0.0
  0
LINE
  5
BBD9
  8
0
  6
CONTINUOUS
 62
     0
 10
507.05095958511112
 20
1248.4999099380971
 30
0.0
 11
624.72551958511156
 21
1252.609109938099
 31
0.0
  0
ARC
  5
BBDA
  8
0
  6
CONTINUOUS
 62
     0
 10
507.22555958511163
 20
1243.5029099380979
 30
0.0
 40
5.0
 50
91.999997999994306
 51
180.00001000000091
  0
ARC
  5
BBDB
  8
0
  6
CONTINUOUS
 62
     0
 10
577.22551958511167
 20
1237.045809938098
 30
0.0
 40
5.0
 50
80.640142999995817
 51
180.00001000000091
  0
LINE
  5
BBDC
  8
0
  6
CONTINUOUS
 62
     0
 10
619.72551958511156
 20
1231.5562099380991
 30
0.0
 11
601.65571797540849
 21
1230.9251748800821
 31
0.0
  0
LINE
  5
BBDD
  8
0
  6
CONTINUOUS
 62
     0
 10
573.01091958511142
 20
1250.6787099380981
 30
0.0
 11
615.95268958511178
 21
1245.3687099380979
 31
0.0
  0
LINE
  5
BBDE
  8
0
  6
CONTINUOUS
 62
     0
 10
620.53868958511111
 20
1234.974009938099
 30
0.0
 11
578.03868958511111
 21
1241.9793099380979
 31
0.0
  0
ARC
  5
BBDF
  8
0
  6
CONTINUOUS
 62
     0
 10
614.72551958511167
 20
1235.444209938099
 30
0.0
 40
10.0
 50
0.0
 51
82.950795999992309
  0
ARC
  5
BBE0
  8
0
  6
CONTINUOUS
 62
     0
 10
619.72551958511156
 20
1230.0405099380971
 30
0.0
 40
5.0
 50
15.634171999984501
 51
80.640142999995817
  0
LINE
  5
BBE1
  8
0
  6
CONTINUOUS
 62
     0
 10
624.72551958511156
 20
1235.444209938099
 30
0.0
 11
624.72551958511156
 21
1231.3815099380979
 31
0.0
  0
ARC
  5
BBE2
  8
0
  6
CONTINUOUS
 62
     0
 10
711.22551958511156
 20
1218.1421099380971
 30
0.0
 40
15.0
 50
180.00001000000091
 51
267.99999999999648
  0
CIRCLE
  5
BBE3
  8
0
  6
CONTINUOUS
 62
     0
 10
732.22551958511156
 20
1217.609109938099
 30
0.0
 40
12.0
  0
LINE
  5
BBE4
  8
0
  6
CONTINUOUS
 62
     0
 10
762.22551958511156
 20
1242.9791099380971
 30
0.0
 11
762.22551958511156
 21
1182.239109938098
 31
0.0
  0
LINE
  5
BBE5
  8
0
  6
CENTER
 62
     0
 10
732.22551958511156
 20
1235.7448099380979
 30
0.0
 11
732.22551958511156
 21
1196.4673099380971
 31
0.0
  0
LINE
  5
BBE6
  8
0
  6
CONTINUOUS
 62
     0
 10
748.50469958511121
 20
1179.8788099380979
 30
0.0
 11
735.87651958511128
 21
1180.319709938097
 31
0.0
  0
ARC
  5
BBE7
  8
0
  6
CONTINUOUS
 62
     0
 10
736.22551958511156
 20
1190.3136099380979
 30
0.0
 40
10.0
 50
180.00001000000091
 51
267.99999999999648
  0
ARC
  5
BBE8
  8
0
  6
CONTINUOUS
 62
     0
 10
716.22551958511156
 20
1192.9523099380981
 30
0.0
 40
10.0
 50
0.0
 51
87.999999999996447
  0
LINE
  5
BBE9
  8
0
  6
CONTINUOUS
 62
     0
 10
716.57445958511153
 20
1202.946209938098
 30
0.0
 11
710.70201958511143
 21
1203.151309938097
 31
0.0
  0
ARC
  5
BBEA
  8
0
  6
CONTINUOUS
 62
     0
 10
792.22551958511156
 20
1072.609109938099
 30
0.0
 40
8.9999962
 50
90.000002999984659
 51
270.0
  0
LINE
  5
BBEB
  8
0
  6
CONTINUOUS
 62
     0
 10
768.22551958511167
 20
1105.109109938099
 30
0.0
 11
768.22551958511167
 21
1040.1091499380991
 31
0.0
  0
LINE
  5
BBEC
  8
0
  6
CONTINUOUS
 62
     0
 10
762.22551958511156
 20
1040.1091499380991
 30
0.0
 11
768.22551958511167
 21
1040.1091499380991
 31
0.0
  0
LINE
  5
BBED
  8
0
  6
CONTINUOUS
 62
     0
 10
762.22551958511156
 20
1105.109109938099
 30
0.0
 11
768.22551958511167
 21
1105.109109938099
 31
0.0
  0
LINE
  5
BBEE
  8
0
  6
CONTINUOUS
 62
     0
 10
792.22551958511156
 20
1081.609109938099
 30
0.0
 11
792.22551958511156
 21
1063.6091499380991
 31
0.0
  0
ARC
  5
BBEF
  8
0
  6
CONTINUOUS
 62
     0
 10
759.22551958511156
 20
1140.7157099380991
 30
0.0
 40
3.0
 50
180.00001000000091
 51
267.99999999999648
  0
ARC
  5
BBF0
  8
0
  6
CONTINUOUS
 62
     0
 10
759.22551958511156
 20
1134.7120099380991
 30
0.0
 40
3.0
 50
0.0
 51
87.999999999996447
  0
LINE
  5
BBF1
  8
0
  6
CONTINUOUS
 62
     0
 10
759.12084958511093
 20
1137.7175099380991
 30
0.0
 11
759.33019958511204
 21
1137.7102099380991
 31
0.0
  0
ARC
  5
BBF2
  8
0
  6
CONTINUOUS
 62
     0
 10
748.22551958511156
 20
1171.883709938098
 30
0.0
 40
8.0
 50
0.0
 51
87.999999999996447
  0
ARC
  5
BBF3
  8
0
  6
CONTINUOUS
 62
     0
 10
761.22551958511156
 20
1173.074009938098
 30
0.0
 40
5.0
 50
113.578180000012
 51
180.00001000000091
  0
ARC
  5
BBF4
  8
0
  6
CONTINUOUS
 62
     0
 10
757.22551958511156
 20
1182.239109938098
 30
0.0
 40
5.0
 50
293.57818000001208
 51
0.0
  0
LINE
  5
BBF5
  8
0
  6
CENTER
 62
     0
 10
712.85796958511173
 20
1217.609109938099
 30
0.0
 11
752.13542958511096
 21
1217.609109938099
 31
0.0
  0
LINE
  5
BBF6
  8
0
  6
CONTINUOUS
 62
     0
 10
696.22551958511156
 20
1239.757009938098
 30
0.0
 11
696.22551958511156
 21
1218.1421099380971
 31
0.0
  0
ARC
  5
BBF7
  8
0
  6
CONTINUOUS
 62
     0
 10
688.22551958511156
 20
1221.159209938098
 30
0.0
 40
8.0
 50
0.0
 51
87.999999999996447
  0
ARC
  5
BBF8
  8
0
  6
CONTINUOUS
 62
     0
 10
706.22551958511167
 20
1239.757009938098
 30
0.0
 40
10.0
 50
87.999999999996447
 51
180.00001000000091
  0
ARC
  5
BBF9
  8
0
  6
CONTINUOUS
 62
     0
 10
757.22551958511156
 20
1242.9791099380971
 30
0.0
 40
5.0
 50
0.0
 51
87.999999999996447
  0
LINE
  5
BBFA
  8
0
  6
CONTINUOUS
 62
     0
 10
873.22551958511156
 20
1102.609109938099
 30
0.0
 11
873.22551958511156
 21
1042.6091499380991
 31
0.0
  0
LINE
  5
BBFB
  8
0
  6
CONTINUOUS
 62
     0
 10
599.72551958511156
 20
1228.9263933174079
 30
0.0
 11
599.72551958511156
 21
1084.948072617352
 31
0.0
  0
ARC
  5
BBFC
  8
0
  6
CONTINUOUS
 62
     0
 10
601.72551958511178
 20
1228.9263933174079
 30
0.0
 40
2.0
 50
92.000074997106424
 51
180.0
1001
GENIUS_GENODEF_13
1002
{
1000
HIER
1070
     0
1002
}
1002
{
1000
MANEDIT
1070
     0
1002
}
1002
{
1000
NOSEL
1070
     0
1002
}
1002
{
1000
BEHIND
1070
     0
1002
}
1002
{
1000
OTHER
1070
     0
1002
}
1002
{
1000
REACTOR
1002
}
1001
GENIUS_GENOBJ-N-FIL_13
1002
{
1000
OWNER
1000
GEN
1002
}
  0
ARC
  5
BBFD
  8
0
  6
CONTINUOUS
 62
     0
 10
601.72551958511178
 20
916.29198134907995
 30
0.0
 40
2.0
 50
180.0
 51
268.00000484054408
1001
GENIUS_GENOBJ-N-FIL_13
1002
{
1000
OWNER
1000
GEN
1002
}
1001
GENIUS_GENODEF_13
1002
{
1000
HIER
1070
     0
1002
}
1002
{
1000
MANEDIT
1070
     0
1002
}
1002
{
1000
NOSEL
1070
     0
1002
}
1002
{
1000
BEHIND
1070
     0
1002
}
1002
{
1000
OTHER
1070
     0
1002
}
1002
{
1000
REACTOR
1002
}
  0
LINE
  5
BBFE
  8
0
 62
     0
 10
579.72551958511156
 20
1200.802829938099
 30
0.0
 11
579.72551958511156
 21
1077.1916856330549
 31
0.0
  0
ARC
  5
BBFF
  8
0
 62
     0
 10
589.72551958511167
 20
1200.802829938099
 30
0.0
 40
10.0
 50
128.6598100000289
 51
180.00001000000091
  0
LINE
  5
BC00
  8
0
 62
     0
 10
598.59966958511109
 20
1220.708329938099
 30
0.0
 11
584.84906958511101
 21
1209.7079299380989
 31
0.0
  0
ARC
  5
BC01
  8
0
 62
     0
 10
596.7255695851112
 20
1223.0509299380981
 30
0.0
 40
3.0000000500000001
 50
308.65981000002893
 51
0.0
  0
ARC
  5
BC02
  8
0
 62
     0
 10
589.72551958511167
 20
944.41538993809831
 30
0.0
 40
10.0
 50
179.999989999999
 51
231.3401899999711
  0
LINE
  5
BC03
  8
0
 62
     0
 10
598.59966958511109
 20
924.50988993809869
 30
0.0
 11
584.84906958511101
 21
935.51028993809894
 31
0.0
  0
ARC
  5
BC04
  8
0
 62
     0
 10
596.7255695851112
 20
922.16728993809886
 30
0.0
 40
3.0000000500000001
 50
0.0
 51
51.340189999971031
  0
LINE
  5
BC05
  8
0
 62
     0
 10
579.72551958511156
 20
1068.026534243143
 30
0.0
 11
579.72551958511156
 21
944.41539168342842
 31
0.0
  0
LINE
  5
BC06
  8
0
  6
CONTINUOUS
 62
     0
 10
619.72551958511156
 20
1067.6091099380981
 30
0.0
 11
619.72551958511156
 21
913.6621299380987
 31
0.0
  0
LINE
  5
BC07
  8
0
  6
CONTINUOUS
 62
     0
 10
599.72551958511156
 20
1060.2701472588451
 30
0.0
 11
599.72551958511156
 21
916.29198134907995
 31
0.0
  0
ARC
  5
BC08
  8
0
  6
CONTINUOUS
 62
     0
 10
574.72551958511156
 20
1189.609109938096
 30
0.0
 40
5.0
 50
270.0
 51
0.0
1001
GENIUS_GENODEF_13
1002
{
1000
HIER
1070
     0
1002
}
1002
{
1000
MANEDIT
1070
     0
1002
}
1002
{
1000
NOSEL
1070
     0
1002
}
1002
{
1000
BEHIND
1070
     0
1002
}
1002
{
1000
OTHER
1070
     0
1002
}
1002
{
1000
REACTOR
1002
}
1001
GENIUS_GENOBJ-N-FIL_13
1002
{
1000
OWNER
1000
GEN
1002
}
  0
ARC
  5
BC09
  8
0
  6
CONTINUOUS
 62
     0
 10
574.72551958511156
 20
955.60914993809922
 30
0.0
 40
5.0
 50
0.0
 51
90.0
1001
GENIUS_GENOBJ-N-FIL_13
1002
{
1000
OWNER
1000
GEN
1002
}
1001
GENIUS_GENODEF_13
1002
{
1000
HIER
1070
     0
1002
}
1002
{
1000
MANEDIT
1070
     0
1002
}
1002
{
1000
NOSEL
1070
     0
1002
}
1002
{
1000
BEHIND
1070
     0
1002
}
1002
{
1000
OTHER
1070
     0
1002
}
1002
{
1000
REACTOR
1002
}
  0
CIRCLE
  5
BC0A
  8
0
 62
     0
 10
390.22551958511173
 20
1072.609056938099
 30
0.0
 40
4.0
  0
CIRCLE
  5
BC0B
  8
0
 62
     0
 10
390.22551958511173
 20
1072.609056938099
 30
0.0
 40
5.0
  0
ARC
  5
BC0C
  8
0
 62
     0
 10
182.9935985851111
 20
946.60910993809921
 30
0.0
 40
3.0
 50
200.00000000000369
 51
270.0
  0
LINE
  5
BC0D
  8
0
 62
     0
 10
182.9935985851111
 20
943.6091099380991
 30
0.0
 11
278.2255405851115
 21
943.6091099380991
 31
0.0
  0
ARC
  5
BC0E
  8
0
 62
     0
 10
187.2255405851115
 20
958.37237993809924
 30
0.0
 40
11.0
 50
180.0
 51
200.00000000000369
  0
LINE
  5
BC0F
  8
0
 62
     0
 10
176.8889225851112
 20
954.61015793809906
 30
0.0
 11
180.17452058511159
 21
945.58304993809918
 31
0.0
  0
LINE
  5
BC10
  8
0
 62
     0
 10
278.2255405851115
 20
943.6091099380991
 30
0.0
 11
278.2255405851115
 21
1208.609109938099
 31
0.0
  0
ARC
  5
BC11
  8
0
 62
     0
 10
187.2255405851115
 20
1186.8458399380991
 30
0.0
 40
11.0
 50
159.99999999999631
 51
180.0
  0
ARC
  5
BC12
  8
0
 62
     0
 10
185.5413905851114
 20
1205.609109938099
 30
0.0
 40
3.0
 50
90.0
 51
159.99999999999631
  0
LINE
  5
BC13
  8
0
 62
     0
 10
176.8889225851112
 20
1190.608061938098
 30
0.0
 11
182.72231258511189
 21
1206.6351699380989
 31
0.0
  0
LINE
  5
BC14
  8
0
 62
     0
 10
183.4407675851121
 20
945.58304993809918
 30
0.0
 11
183.4407675851121
 21
1203.4672919380989
 31
0.0
  0
LINE
  5
BC15
  8
0
 62
     0
 10
176.2255405851115
 20
958.37237993809924
 30
0.0
 11
176.2255405851115
 21
1186.8458399380991
 31
0.0
  0
LINE
  5
BC16
  8
0
 62
     0
 10
185.5413905851114
 20
1208.609109938099
 30
0.0
 11
278.2255405851115
 21
1208.609109938099
 31
0.0
  0
ARC
  5
BC17
  8
0
 62
     0
 10
518.72551958511167
 20
954.44500493809915
 30
0.0
 40
2.0
 50
299.99999800001649
 51
0.0
  0
LINE
  5
BC18
  8
0
 62
     0
 10
519.72552058511201
 20
952.71297893809924
 30
0.0
 11
514.38580658511125
 21
949.6300929380991
 31
0.0
  0
ARC
  5
BC19
  8
0
 62
     0
 10
509.38579758511167
 20
958.29034193809923
 30
0.0
 40
10.0
 50
269.99999700001541
 51
299.99999800001649
  0
LINE
  5
BC1A
  8
0
 62
     0
 10
438.28373458511157
 20
948.29034193809923
 30
0.0
 11
509.38579758511167
 21
948.29034193809923
 31
0.0
  0
LINE
  5
BC1B
  8
0
 62
     0
 10
522.72549858511184
 20
1187.6091229380991
 30
0.0
 11
520.72558058511117
 21
1187.623122938099
 31
0.0
  0
LINE
  5
BC1C
  8
0
 62
     0
 10
520.72558058511117
 20
1195.679056938098
 30
0.0
 11
504.53081758511178
 21
1205.609109938099
 31
0.0
  0
LINE
  5
BC1D
  8
0
 62
     0
 10
278.2255405851115
 20
1205.609109938099
 30
0.0
 11
504.53069558511118
 21
1205.609109938099
 31
0.0
  0
LINE
  5
BC1E
  8
0
  6
AM_ISO08W050
 62
     0
 10
390.22551958511173
 20
930.99733993809912
 30
0.0
 11
390.22551958511173
 21
945.4423719380992
 31
0.0
  0
ARC
  5
BC1F
  8
0
 62
     0
 10
455.20052558511122
 20
891.50308693809905
 30
0.0
 40
9.0
 50
117.977060000013
 51
180.10395799999091
  0
ARC
  5
BC20
  8
0
 62
     0
 10
455.1515295851118
 20
918.37808693809916
 30
0.0
 40
9.0
 50
180.10395799999091
 51
243.26531200002881
  0
LINE
  5
BC21
  8
0
 62
     0
 10
453.0721015851118
 20
913.69332593809918
 30
0.0
 11
451.1023595851114
 21
914.81041293809926
 31
0.0
  0
LINE
  5
BC22
  8
0
 62
     0
 10
455.22551958511161
 20
906.51638993809922
 30
0.0
 11
455.22551958511161
 21
910.26428593809942
 31
0.0
  0
LINE
  5
BC23
  8
0
  6
AM_ISO08W050
 62
     0
 10
450.6815285851111
 20
905.79410293809906
 30
0.0
 11
439.94852658511201
 21
905.79410293809906
 31
0.0
  0
LINE
  5
BC24
  8
0
  6
AM_ISO08W050
 62
     0
 10
445.22551958511139
 20
899.87109893809918
 30
0.0
 11
445.22551958511139
 21
912.35611393809916
 31
0.0
  0
LINE
  5
BC25
  8
0
 62
     0
 10
446.20054458511117
 20
891.48612293809924
 30
0.0
 11
446.2025435851113
 21
890.56614193809924
 31
0.0
  0
ARC
  5
BC26
  8
0
 62
     0
 10
447.22551958511173
 20
906.51638993809922
 30
0.0
 40
8.0
 50
297.97706000001318
 51
0.0
  0
ARC
  5
BC27
  8
0
 62
     0
 10
450.97551958511139
 20
909.9964569380993
 30
0.0
 40
4.25
 50
0.0
 51
60.441404999993601
  0
LINE
  5
BC28
  8
0
 62
     0
 10
453.0721015851118
 20
909.22332493809915
 30
0.0
 11
451.1023595851114
 21
910.34041193809935
 31
0.0
  0
ARC
  5
BC29
  8
0
 62
     0
 10
450.97551958511139
 20
905.52645493809905
 30
0.0
 40
4.25
 50
5.6335919999969351
 51
60.441404999993601
  0
ARC
  5
BC2A
  8
0
 62
     0
 10
428.72551958511139
 20
884.74012193809915
 30
0.0
 40
10.0
 50
270.00003599997228
 51
0.0000179999992061
  0
ARC
  5
BC2B
  8
0
 62
     0
 10
428.20252458511141
 20
890.56610593809921
 30
0.0
 40
18.0
 50
270.0
 51
0.0000179999992061
  0
ARC
  5
BC2C
  8
0
 62
     0
 10
428.72551958511139
 20
897.56009393809904
 30
0.0
 40
10.0
 50
0.0000179999992061
 51
90.0
  0
LINE
  5
BC2D
  8
0
 62
     0
 10
438.72551958511173
 20
920.64609193809918
 30
0.0
 11
438.72551958511173
 21
884.74012193809915
 31
0.0
  0
LINE
  5
BC2E
  8
0
 62
     0
 10
446.13353358511119
 20
928.14610393809915
 30
0.0
 11
446.15153858511218
 21
918.3621239380991
 31
0.0
  0
ARC
  5
BC2F
  8
0
 62
     0
 10
428.72551958511139
 20
920.64609193809918
 30
0.0
 40
10.0
 50
0.0000179999992061
 51
90.0
  0
ARC
  5
BC30
  8
0
 62
     0
 10
455.1515295851118
 20
922.84808793809941
 30
0.0
 40
9.0
 50
180.10395799999091
 51
243.2622339999939
  0
POLYLINE
  5
BC31
  8
0
 62
     0
 66
     1
 10
0.0
 20
0.0
 30
0.0
 70
     8
  0
VERTEX
  5
C16D
  8
0
 62
     0
 10
446.13299999999998
 20
928.14599999999996
 30
0.0
 70
    32
  0
VERTEX
  5
C16E
  8
0
 62
     0
 10
446.13199999999989
 20
928.279
 30
0.0
 70
    32
  0
VERTEX
  5
C16F
  8
0
 62
     0
 10
446.12799999999999
 20
928.41099999999994
 30
0.0
 70
    32
  0
VERTEX
  5
C170
  8
0
 62
     0
 10
446.12099999999998
 20
928.54399999999987
 30
0.0
 70
    32
  0
VERTEX
  5
C171
  8
0
 62
     0
 10
446.11099999999988
 20
928.67600000000004
 30
0.0
 70
    32
  0
VERTEX
  5
C172
  8
0
 62
     0
 10
446.09899999999988
 20
928.80899999999997
 30
0.0
 70
    32
  0
VERTEX
  5
C173
  8
0
 62
     0
 10
446.084
 20
928.94100000000003
 30
0.0
 70
    32
  0
VERTEX
  5
C174
  8
0
 62
     0
 10
446.06599999999992
 20
929.07299999999987
 30
0.0
 70
    32
  0
VERTEX
  5
C175
  8
0
 62
     0
 10
446.04500000000002
 20
929.20500000000015
 30
0.0
 70
    32
  0
VERTEX
  5
C176
  8
0
 62
     0
 10
446.02100000000002
 20
929.33699999999988
 30
0.0
 70
    32
  0
VERTEX
  5
C177
  8
0
 62
     0
 10
445.995
 20
929.46899999999994
 30
0.0
 70
    32
  0
VERTEX
  5
C178
  8
0
 62
     0
 10
445.96600000000001
 20
929.60000000000014
 30
0.0
 70
    32
  0
VERTEX
  5
C179
  8
0
 62
     0
 10
445.93400000000003
 20
929.73100000000011
 30
0.0
 70
    32
  0
VERTEX
  5
C17A
  8
0
 62
     0
 10
445.89999999999992
 20
929.86199999999985
 30
0.0
 70
    32
  0
VERTEX
  5
C17B
  8
0
 62
     0
 10
445.86199999999991
 20
929.99300000000005
 30
0.0
 70
    32
  0
VERTEX
  5
C17C
  8
0
 62
     0
 10
445.82299999999998
 20
930.12399999999991
 30
0.0
 70
    32
  0
VERTEX
  5
C17D
  8
0
 62
     0
 10
445.77999999999992
 20
930.25399999999979
 30
0.0
 70
    32
  0
VERTEX
  5
C17E
  8
0
 62
     0
 10
445.73399999999998
 20
930.3839999999999
 30
0.0
 70
    32
  0
VERTEX
  5
C17F
  8
0
 62
     0
 10
445.68599999999992
 20
930.51300000000003
 30
0.0
 70
    32
  0
VERTEX
  5
C180
  8
0
 62
     0
 10
445.63499999999988
 20
930.64199999999994
 30
0.0
 70
    32
  0
VERTEX
  5
C181
  8
0
 62
     0
 10
445.58199999999999
 20
930.77099999999996
 30
0.0
 70
    32
  0
VERTEX
  5
C182
  8
0
 62
     0
 10
445.5259999999999
 20
930.89999999999986
 30
0.0
 70
    32
  0
VERTEX
  5
C183
  8
0
 62
     0
 10
445.46699999999998
 20
931.02800000000002
 30
0.0
 70
    32
  0
VERTEX
  5
C184
  8
0
 62
     0
 10
445.40499999999992
 20
931.15499999999997
 30
0.0
 70
    32
  0
VERTEX
  5
C185
  8
0
 62
     0
 10
445.34099999999989
 20
931.28200000000004
 30
0.0
 70
    32
  0
VERTEX
  5
C186
  8
0
 62
     0
 10
445.274
 20
931.40899999999999
 30
0.0
 70
    32
  0
VERTEX
  5
C187
  8
0
 62
     0
 10
445.20400000000001
 20
931.53499999999997
 30
0.0
 70
    32
  0
VERTEX
  5
C188
  8
0
 62
     0
 10
445.13199999999989
 20
931.66099999999994
 30
0.0
 70
    32
  0
VERTEX
  5
C189
  8
0
 62
     0
 10
445.0569999999999
 20
931.78600000000006
 30
0.0
 70
    32
  0
VERTEX
  5
C18A
  8
0
 62
     0
 10
444.98000000000002
 20
931.90999999999997
 30
0.0
 70
    32
  0
VERTEX
  5
C18B
  8
0
 62
     0
 10
444.89999999999992
 20
932.03399999999988
 30
0.0
 70
    32
  0
VERTEX
  5
C18C
  8
0
 62
     0
 10
444.81699999999989
 20
932.15800000000002
 30
0.0
 70
    32
  0
VERTEX
  5
C18D
  8
0
 62
     0
 10
444.73199999999991
 20
932.28099999999995
 30
0.0
 70
    32
  0
VERTEX
  5
C18E
  8
0
 62
     0
 10
444.64499999999992
 20
932.40300000000002
 30
0.0
 70
    32
  0
VERTEX
  5
C18F
  8
0
 62
     0
 10
444.55399999999997
 20
932.52399999999989
 30
0.0
 70
    32
  0
VERTEX
  5
C190
  8
0
 62
     0
 10
444.4609999999999
 20
932.64499999999987
 30
0.0
 70
    32
  0
VERTEX
  5
C191
  8
0
 62
     0
 10
444.36599999999999
 20
932.76499999999999
 30
0.0
 70
    32
  0
VERTEX
  5
C192
  8
0
 62
     0
 10
444.26799999999997
 20
932.88499999999999
 30
0.0
 70
    32
  0
VERTEX
  5
C193
  8
0
 62
     0
 10
444.16799999999989
 20
933.00399999999979
 30
0.0
 70
    32
  0
VERTEX
  5
C194
  8
0
 62
     0
 10
444.06499999999988
 20
933.12199999999996
 30
0.0
 70
    32
  0
VERTEX
  5
C195
  8
0
 62
     0
 10
443.95999999999992
 20
933.23900000000003
 30
0.0
 70
    32
  0
VERTEX
  5
C196
  8
0
 62
     0
 10
443.85199999999992
 20
933.35600000000022
 30
0.0
 70
    32
  0
VERTEX
  5
C197
  8
0
 62
     0
 10
443.7419999999999
 20
933.47099999999989
 30
0.0
 70
    32
  0
VERTEX
  5
C198
  8
0
 62
     0
 10
443.63
 20
933.58600000000001
 30
0.0
 70
    32
  0
VERTEX
  5
C199
  8
0
 62
     0
 10
443.51499999999999
 20
933.70000000000005
 30
0.0
 70
    32
  0
VERTEX
  5
C19A
  8
0
 62
     0
 10
443.39699999999999
 20
933.81399999999985
 30
0.0
 70
    32
  0
VERTEX
  5
C19B
  8
0
 62
     0
 10
443.27800000000002
 20
933.92600000000004
 30
0.0
 70
    32
  0
VERTEX
  5
C19C
  8
0
 62
     0
 10
443.15600000000001
 20
934.0379999999999
 30
0.0
 70
    32
  0
VERTEX
  5
C19D
  8
0
 62
     0
 10
443.03100000000001
 20
934.14800000000002
 30
0.0
 70
    32
  0
VERTEX
  5
C19E
  8
0
 62
     0
 10
442.90499999999997
 20
934.25799999999992
 30
0.0
 70
    32
  0
VERTEX
  5
C19F
  8
0
 62
     0
 10
442.77600000000001
 20
934.36699999999985
 30
0.0
 70
    32
  0
VERTEX
  5
C1A0
  8
0
 62
     0
 10
442.64400000000001
 20
934.47500000000014
 30
0.0
 70
    32
  0
VERTEX
  5
C1A1
  8
0
 62
     0
 10
442.51100000000002
 20
934.58199999999988
 30
0.0
 70
    32
  0
VERTEX
  5
C1A2
  8
0
 62
     0
 10
442.375
 20
934.68799999999999
 30
0.0
 70
    32
  0
VERTEX
  5
C1A3
  8
0
 62
     0
 10
442.23699999999991
 20
934.79299999999989
 30
0.0
 70
    32
  0
VERTEX
  5
C1A4
  8
0
 62
     0
 10
442.09699999999992
 20
934.89699999999993
 30
0.0
 70
    32
  0
VERTEX
  5
C1A5
  8
0
 62
     0
 10
441.95499999999998
 20
935.0
 30
0.0
 70
    32
  0
VERTEX
  5
C1A6
  8
0
 62
     0
 10
441.81099999999992
 20
935.10199999999998
 30
0.0
 70
    32
  0
VERTEX
  5
C1A7
  8
0
 62
     0
 10
441.66399999999999
 20
935.20299999999986
 30
0.0
 70
    32
  0
VERTEX
  5
C1A8
  8
0
 62
     0
 10
441.51599999999991
 20
935.303
 30
0.0
 70
    32
  0
VERTEX
  5
C1A9
  8
0
 62
     0
 10
441.36500000000001
 20
935.40200000000004
 30
0.0
 70
    32
  0
VERTEX
  5
C1AA
  8
0
 62
     0
 10
441.21199999999988
 20
935.49899999999991
 30
0.0
 70
    32
  0
VERTEX
  5
C1AB
  8
0
 62
     0
 10
441.0569999999999
 20
935.59599999999989
 30
0.0
 70
    32
  0
VERTEX
  5
C1AC
  8
0
 62
     0
 10
440.90100000000001
 20
935.69100000000003
 30
0.0
 70
    32
  0
VERTEX
  5
C1AD
  8
0
 62
     0
 10
440.74200000000002
 20
935.78599999999994
 30
0.0
 70
    32
  0
VERTEX
  5
C1AE
  8
0
 62
     0
 10
440.5809999999999
 20
935.87899999999991
 30
0.0
 70
    32
  0
VERTEX
  5
C1AF
  8
0
 62
     0
 10
440.41899999999998
 20
935.97099999999989
 30
0.0
 70
    32
  0
VERTEX
  5
C1B0
  8
0
 62
     0
 10
440.25400000000002
 20
936.06200000000001
 30
0.0
 70
    32
  0
VERTEX
  5
C1B1
  8
0
 62
     0
 10
440.08799999999991
 20
936.15099999999995
 30
0.0
 70
    32
  0
VERTEX
  5
C1B2
  8
0
 62
     0
 10
439.91899999999998
 20
936.24000000000001
 30
0.0
 70
    32
  0
VERTEX
  5
C1B3
  8
0
 62
     0
 10
439.74900000000002
 20
936.32699999999988
 30
0.0
 70
    32
  0
VERTEX
  5
C1B4
  8
0
 62
     0
 10
439.57699999999988
 20
936.41300000000012
 30
0.0
 70
    32
  0
VERTEX
  5
C1B5
  8
0
 62
     0
 10
439.40299999999991
 20
936.49800000000005
 30
0.0
 70
    32
  0
VERTEX
  5
C1B6
  8
0
 62
     0
 10
439.22800000000001
 20
936.5809999999999
 30
0.0
 70
    32
  0
VERTEX
  5
C1B7
  8
0
 62
     0
 10
439.05099999999987
 20
936.66300000000001
 30
0.0
 70
    32
  0
VERTEX
  5
C1B8
  8
0
 62
     0
 10
438.8719999999999
 20
936.74400000000003
 30
0.0
 70
    32
  0
VERTEX
  5
C1B9
  8
0
 62
     0
 10
438.69099999999992
 20
936.82399999999996
 30
0.0
 70
    32
  0
VERTEX
  5
C1BA
  8
0
 62
     0
 10
438.5089999999999
 20
936.90199999999993
 30
0.0
 70
    32
  0
VERTEX
  5
C1BB
  8
0
 62
     0
 10
438.32499999999999
 20
936.97900000000004
 30
0.0
 70
    32
  0
VERTEX
  5
C1BC
  8
0
 62
     0
 10
438.13900000000001
 20
937.05499999999995
 30
0.0
 70
    32
  0
VERTEX
  5
C1BD
  8
0
 62
     0
 10
437.952
 20
937.12900000000002
 30
0.0
 70
    32
  0
VERTEX
  5
C1BE
  8
0
 62
     0
 10
437.76400000000001
 20
937.202
 30
0.0
 70
    32
  0
VERTEX
  5
C1BF
  8
0
 62
     0
 10
437.57400000000001
 20
937.27399999999977
 30
0.0
 70
    32
  0
VERTEX
  5
C1C0
  8
0
 62
     0
 10
437.38199999999989
 20
937.34400000000005
 30
0.0
 70
    32
  0
VERTEX
  5
C1C1
  8
0
 62
     0
 10
437.18900000000002
 20
937.41300000000001
 30
0.0
 70
    32
  0
VERTEX
  5
C1C2
  8
0
 62
     0
 10
436.995
 20
937.48000000000002
 30
0.0
 70
    32
  0
VERTEX
  5
C1C3
  8
0
 62
     0
 10
436.79899999999998
 20
937.54699999999991
 30
0.0
 70
    32
  0
VERTEX
  5
C1C4
  8
0
 62
     0
 10
436.60199999999992
 20
937.61099999999999
 30
0.0
 70
    32
  0
VERTEX
  5
C1C5
  8
0
 62
     0
 10
436.40300000000002
 20
937.67399999999986
 30
0.0
 70
    32
  0
VERTEX
  5
C1C6
  8
0
 62
     0
 10
436.20299999999997
 20
937.7360000000001
 30
0.0
 70
    32
  0
VERTEX
  5
C1C7
  8
0
 62
     0
 10
436.0019999999999
 20
937.79599999999994
 30
0.0
 70
    32
  0
VERTEX
  5
C1C8
  8
0
 62
     0
 10
435.80000000000001
 20
937.85500000000002
 30
0.0
 70
    32
  0
VERTEX
  5
C1C9
  8
0
 62
     0
 10
435.596
 20
937.9129999999999
 30
0.0
 70
    32
  0
VERTEX
  5
C1CA
  8
0
 62
     0
 10
435.39099999999991
 20
937.96900000000005
 30
0.0
 70
    32
  0
VERTEX
  5
C1CB
  8
0
 62
     0
 10
435.18499999999989
 20
938.02300000000002
 30
0.0
 70
    32
  0
VERTEX
  5
C1CC
  8
0
 62
     0
 10
434.97799999999989
 20
938.07600000000002
 30
0.0
 70
    32
  0
VERTEX
  5
C1CD
  8
0
 62
     0
 10
434.76999999999992
 20
938.12800000000004
 30
0.0
 70
    32
  0
VERTEX
  5
C1CE
  8
0
 62
     0
 10
434.56099999999992
 20
938.178
 30
0.0
 70
    32
  0
VERTEX
  5
C1CF
  8
0
 62
     0
 10
434.35000000000002
 20
938.226
 30
0.0
 70
    32
  0
VERTEX
  5
C1D0
  8
0
 62
     0
 10
434.13900000000001
 20
938.27300000000002
 30
0.0
 70
    32
  0
VERTEX
  5
C1D1
  8
0
 62
     0
 10
433.92699999999991
 20
938.31899999999985
 30
0.0
 70
    32
  0
VERTEX
  5
C1D2
  8
0
 62
     0
 10
433.71399999999988
 20
938.36199999999997
 30
0.0
 70
    32
  0
VERTEX
  5
C1D3
  8
0
 62
     0
 10
433.49999999999989
 20
938.40499999999997
 30
0.0
 70
    32
  0
VERTEX
  5
C1D4
  8
0
 62
     0
 10
433.28500000000003
 20
938.44600000000003
 30
0.0
 70
    32
  0
VERTEX
  5
C1D5
  8
0
 62
     0
 10
433.06900000000002
 20
938.48500000000001
 30
0.0
 70
    32
  0
VERTEX
  5
C1D6
  8
0
 62
     0
 10
432.85299999999989
 20
938.52299999999991
 30
0.0
 70
    32
  0
VERTEX
  5
C1D7
  8
0
 62
     0
 10
432.63499999999988
 20
938.55899999999997
 30
0.0
 70
    32
  0
VERTEX
  5
C1D8
  8
0
 62
     0
 10
432.41699999999992
 20
938.59299999999996
 30
0.0
 70
    32
  0
VERTEX
  5
C1D9
  8
0
 62
     0
 10
432.19799999999998
 20
938.62600000000009
 30
0.0
 70
    32
  0
VERTEX
  5
C1DA
  8
0
 62
     0
 10
431.97899999999998
 20
938.65800000000002
 30
0.0
 70
    32
  0
VERTEX
  5
C1DB
  8
0
 62
     0
 10
431.75900000000001
 20
938.68799999999987
 30
0.0
 70
    32
  0
VERTEX
  5
C1DC
  8
0
 62
     0
 10
431.53800000000001
 20
938.71599999999989
 30
0.0
 70
    32
  0
VERTEX
  5
C1DD
  8
0
 62
     0
 10
431.31699999999989
 20
938.74300000000005
 30
0.0
 70
    32
  0
VERTEX
  5
C1DE
  8
0
 62
     0
 10
431.09500000000003
 20
938.76800000000014
 30
0.0
 70
    32
  0
VERTEX
  5
C1DF
  8
0
 62
     0
 10
430.87299999999999
 20
938.79100000000005
 30
0.0
 70
    32
  0
VERTEX
  5
C1E0
  8
0
 62
     0
 10
430.64999999999992
 20
938.81299999999999
 30
0.0
 70
    32
  0
VERTEX
  5
C1E1
  8
0
 62
     0
 10
430.42699999999991
 20
938.83300000000008
 30
0.0
 70
    32
  0
VERTEX
  5
C1E2
  8
0
 62
     0
 10
430.20299999999997
 20
938.85199999999986
 30
0.0
 70
    32
  0
VERTEX
  5
C1E3
  8
0
 62
     0
 10
429.97899999999998
 20
938.8689999999998
 30
0.0
 70
    32
  0
VERTEX
  5
C1E4
  8
0
 62
     0
 10
429.75400000000002
 20
938.88400000000001
 30
0.0
 70
    32
  0
VERTEX
  5
C1E5
  8
0
 62
     0
 10
429.52999999999997
 20
938.89800000000002
 30
0.0
 70
    32
  0
VERTEX
  5
C1E6
  8
0
 62
     0
 10
429.30500000000001
 20
938.90999999999985
 30
0.0
 70
    32
  0
VERTEX
  5
C1E7
  8
0
 62
     0
 10
429.07999999999993
 20
938.92100000000005
 30
0.0
 70
    32
  0
VERTEX
  5
C1E8
  8
0
 62
     0
 10
428.85399999999998
 20
938.92999999999995
 30
0.0
 70
    32
  0
VERTEX
  5
C1E9
  8
0
 62
     0
 10
428.62900000000002
 20
938.9369999999999
 30
0.0
 70
    32
  0
VERTEX
  5
C1EA
  8
0
 62
     0
 10
428.40300000000002
 20
938.94299999999998
 30
0.0
 70
    32
  0
VERTEX
  5
C1EB
  8
0
 62
     0
 10
428.17699999999991
 20
938.94700000000012
 30
0.0
 70
    32
  0
VERTEX
  5
C1EC
  8
0
 62
     0
 10
427.95100000000002
 20
938.94899999999996
 30
0.0
 70
    32
  0
VERTEX
  5
C1ED
  8
0
 62
     0
 10
427.726
 20
938.94999999999993
 30
0.0
 70
    32
  0
SEQEND
  5
C1EE
  8
0
 62
     0
  0
POLYLINE
  5
BC32
  8
0
 62
     0
 66
     1
 10
0.0
 20
0.0
 30
0.0
 70
     8
  0
VERTEX
  5
C1EF
  8
0
 62
     0
 10
446.13799999999998
 20
925.60199999999986
 30
0.0
 70
    32
  0
VERTEX
  5
C1F0
  8
0
 62
     0
 10
446.13699999999989
 20
925.71899999999994
 30
0.0
 70
    32
  0
VERTEX
  5
C1F1
  8
0
 62
     0
 10
446.13299999999998
 20
925.8359999999999
 30
0.0
 70
    32
  0
VERTEX
  5
C1F2
  8
0
 62
     0
 10
446.12599999999998
 20
925.95299999999986
 30
0.0
 70
    32
  0
VERTEX
  5
C1F3
  8
0
 62
     0
 10
446.11599999999987
 20
926.06999999999994
 30
0.0
 70
    32
  0
VERTEX
  5
C1F4
  8
0
 62
     0
 10
446.10399999999998
 20
926.18700000000001
 30
0.0
 70
    32
  0
VERTEX
  5
C1F5
  8
0
 62
     0
 10
446.08800000000002
 20
926.30399999999997
 30
0.0
 70
    32
  0
VERTEX
  5
C1F6
  8
0
 62
     0
 10
446.06999999999999
 20
926.41999999999996
 30
0.0
 70
    32
  0
VERTEX
  5
C1F7
  8
0
 62
     0
 10
446.04899999999998
 20
926.53699999999981
 30
0.0
 70
    32
  0
VERTEX
  5
C1F8
  8
0
 62
     0
 10
446.0259999999999
 20
926.654
 30
0.0
 70
    32
  0
VERTEX
  5
C1F9
  8
0
 62
     0
 10
446.0
 20
926.76999999999987
 30
0.0
 70
    32
  0
VERTEX
  5
C1FA
  8
0
 62
     0
 10
445.971
 20
926.88600000000008
 30
0.0
 70
    32
  0
VERTEX
  5
C1FB
  8
0
 62
     0
 10
445.93899999999991
 20
927.00199999999995
 30
0.0
 70
    32
  0
VERTEX
  5
C1FC
  8
0
 62
     0
 10
445.90399999999988
 20
927.11800000000005
 30
0.0
 70
    32
  0
VERTEX
  5
C1FD
  8
0
 62
     0
 10
445.8669999999999
 20
927.23299999999995
 30
0.0
 70
    32
  0
VERTEX
  5
C1FE
  8
0
 62
     0
 10
445.82699999999988
 20
927.34899999999982
 30
0.0
 70
    32
  0
VERTEX
  5
C1FF
  8
0
 62
     0
 10
445.78399999999999
 20
927.46399999999994
 30
0.0
 70
    32
  0
VERTEX
  5
C200
  8
0
 62
     0
 10
445.73899999999998
 20
927.57799999999986
 30
0.0
 70
    32
  0
VERTEX
  5
C201
  8
0
 62
     0
 10
445.69099999999992
 20
927.69299999999998
 30
0.0
 70
    32
  0
VERTEX
  5
C202
  8
0
 62
     0
 10
445.63999999999999
 20
927.8069999999999
 30
0.0
 70
    32
  0
VERTEX
  5
C203
  8
0
 62
     0
 10
445.58600000000001
 20
927.92100000000005
 30
0.0
 70
    32
  0
VERTEX
  5
C204
  8
0
 62
     0
 10
445.52999999999997
 20
928.03399999999999
 30
0.0
 70
    32
  0
VERTEX
  5
C205
  8
0
 62
     0
 10
445.471
 20
928.14699999999982
 30
0.0
 70
    32
  0
VERTEX
  5
C206
  8
0
 62
     0
 10
445.40899999999988
 20
928.25999999999999
 30
0.0
 70
    32
  0
VERTEX
  5
C207
  8
0
 62
     0
 10
445.34500000000003
 20
928.37199999999996
 30
0.0
 70
    32
  0
VERTEX
  5
C208
  8
0
 62
     0
 10
445.27800000000002
 20
928.48399999999992
 30
0.0
 70
    32
  0
VERTEX
  5
C209
  8
0
 62
     0
 10
445.209
 20
928.59600000000012
 30
0.0
 70
    32
  0
VERTEX
  5
C20A
  8
0
 62
     0
 10
445.13699999999989
 20
928.70699999999988
 30
0.0
 70
    32
  0
VERTEX
  5
C20B
  8
0
 62
     0
 10
445.0619999999999
 20
928.81700000000001
 30
0.0
 70
    32
  0
VERTEX
  5
C20C
  8
0
 62
     0
 10
444.98399999999998
 20
928.92700000000002
 30
0.0
 70
    32
  0
VERTEX
  5
C20D
  8
0
 62
     0
 10
444.904
 20
929.03699999999992
 30
0.0
 70
    32
  0
VERTEX
  5
C20E
  8
0
 62
     0
 10
444.82199999999989
 20
929.14599999999996
 30
0.0
 70
    32
  0
VERTEX
  5
C20F
  8
0
 62
     0
 10
444.73599999999988
 20
929.25399999999979
 30
0.0
 70
    32
  0
VERTEX
  5
C210
  8
0
 62
     0
 10
444.64899999999989
 20
929.36199999999997
 30
0.0
 70
    32
  0
VERTEX
  5
C211
  8
0
 62
     0
 10
444.55799999999999
 20
929.46899999999994
 30
0.0
 70
    32
  0
VERTEX
  5
C212
  8
0
 62
     0
 10
444.46599999999989
 20
929.57599999999991
 30
0.0
 70
    32
  0
VERTEX
  5
C213
  8
0
 62
     0
 10
444.36999999999989
 20
929.68200000000002
 30
0.0
 70
    32
  0
VERTEX
  5
C214
  8
0
 62
     0
 10
444.27199999999999
 20
929.78800000000012
 30
0.0
 70
    32
  0
VERTEX
  5
C215
  8
0
 62
     0
 10
444.17200000000003
 20
929.89300000000003
 30
0.0
 70
    32
  0
VERTEX
  5
C216
  8
0
 62
     0
 10
444.06900000000002
 20
929.99699999999996
 30
0.0
 70
    32
  0
VERTEX
  5
C217
  8
0
 62
     0
 10
443.96399999999988
 20
930.10100000000011
 30
0.0
 70
    32
  0
VERTEX
  5
C218
  8
0
 62
     0
 10
443.85599999999988
 20
930.20399999999995
 30
0.0
 70
    32
  0
VERTEX
  5
C219
  8
0
 62
     0
 10
443.74599999999992
 20
930.30600000000004
 30
0.0
 70
    32
  0
VERTEX
  5
C21A
  8
0
 62
     0
 10
443.63299999999998
 20
930.40800000000002
 30
0.0
 70
    32
  0
VERTEX
  5
C21B
  8
0
 62
     0
 10
443.51799999999997
 20
930.50800000000004
 30
0.0
 70
    32
  0
VERTEX
  5
C21C
  8
0
 62
     0
 10
443.4009999999999
 20
930.60899999999992
 30
0.0
 70
    32
  0
VERTEX
  5
C21D
  8
0
 62
     0
 10
443.28099999999989
 20
930.70799999999997
 30
0.0
 70
    32
  0
VERTEX
  5
C21E
  8
0
 62
     0
 10
443.15899999999988
 20
930.80600000000015
 30
0.0
 70
    32
  0
VERTEX
  5
C21F
  8
0
 62
     0
 10
443.03500000000003
 20
930.90399999999988
 30
0.0
 70
    32
  0
VERTEX
  5
C220
  8
0
 62
     0
 10
442.9079999999999
 20
931.00100000000009
 30
0.0
 70
    32
  0
VERTEX
  5
C221
  8
0
 62
     0
 10
442.77899999999988
 20
931.09699999999987
 30
0.0
 70
    32
  0
VERTEX
  5
C222
  8
0
 62
     0
 10
442.64800000000002
 20
931.19299999999998
 30
0.0
 70
    32
  0
VERTEX
  5
C223
  8
0
 62
     0
 10
442.5139999999999
 20
931.28700000000003
 30
0.0
 70
    32
  0
VERTEX
  5
C224
  8
0
 62
     0
 10
442.37900000000002
 20
931.38100000000009
 30
0.0
 70
    32
  0
VERTEX
  5
C225
  8
0
 62
     0
 10
442.24099999999999
 20
931.47399999999982
 30
0.0
 70
    32
  0
VERTEX
  5
C226
  8
0
 62
     0
 10
442.10099999999989
 20
931.56600000000014
 30
0.0
 70
    32
  0
VERTEX
  5
C227
  8
0
 62
     0
 10
441.95800000000003
 20
931.65699999999981
 30
0.0
 70
    32
  0
VERTEX
  5
C228
  8
0
 62
     0
 10
441.81400000000002
 20
931.74699999999996
 30
0.0
 70
    32
  0
VERTEX
  5
C229
  8
0
 62
     0
 10
441.66800000000001
 20
931.83600000000001
 30
0.0
 70
    32
  0
VERTEX
  5
C22A
  8
0
 62
     0
 10
441.51899999999989
 20
931.92399999999998
 30
0.0
 70
    32
  0
VERTEX
  5
C22B
  8
0
 62
     0
 10
441.36799999999999
 20
932.01100000000008
 30
0.0
 70
    32
  0
VERTEX
  5
C22C
  8
0
 62
     0
 10
441.21499999999992
 20
932.09799999999996
 30
0.0
 70
    32
  0
VERTEX
  5
C22D
  8
0
 62
     0
 10
441.06099999999998
 20
932.18299999999999
 30
0.0
 70
    32
  0
VERTEX
  5
C22E
  8
0
 62
     0
 10
440.904
 20
932.26700000000005
 30
0.0
 70
    32
  0
VERTEX
  5
C22F
  8
0
 62
     0
 10
440.74499999999989
 20
932.351
 30
0.0
 70
    32
  0
VERTEX
  5
C230
  8
0
 62
     0
 10
440.584
 20
932.43299999999988
 30
0.0
 70
    32
  0
VERTEX
  5
C231
  8
0
 62
     0
 10
440.42199999999991
 20
932.5139999999999
 30
0.0
 70
    32
  0
VERTEX
  5
C232
  8
0
 62
     0
 10
440.25699999999989
 20
932.59399999999994
 30
0.0
 70
    32
  0
VERTEX
  5
C233
  8
0
 62
     0
 10
440.08999999999997
 20
932.67399999999986
 30
0.0
 70
    32
  0
VERTEX
  5
C234
  8
0
 62
     0
 10
439.92199999999991
 20
932.75199999999995
 30
0.0
 70
    32
  0
VERTEX
  5
C235
  8
0
 62
     0
 10
439.7519999999999
 20
932.82899999999995
 30
0.0
 70
    32
  0
VERTEX
  5
C236
  8
0
 62
     0
 10
439.57999999999998
 20
932.90499999999997
 30
0.0
 70
    32
  0
VERTEX
  5
C237
  8
0
 62
     0
 10
439.40600000000001
 20
932.98000000000002
 30
0.0
 70
    32
  0
VERTEX
  5
C238
  8
0
 62
     0
 10
439.23099999999999
 20
933.05299999999988
 30
0.0
 70
    32
  0
VERTEX
  5
C239
  8
0
 62
     0
 10
439.053
 20
933.12599999999998
 30
0.0
 70
    32
  0
VERTEX
  5
C23A
  8
0
 62
     0
 10
438.87400000000002
 20
933.197
 30
0.0
 70
    32
  0
VERTEX
  5
C23B
  8
0
 62
     0
 10
438.69400000000002
 20
933.26799999999992
 30
0.0
 70
    32
  0
VERTEX
  5
C23C
  8
0
 62
     0
 10
438.51100000000002
 20
933.33699999999999
 30
0.0
 70
    32
  0
VERTEX
  5
C23D
  8
0
 62
     0
 10
438.327
 20
933.40499999999986
 30
0.0
 70
    32
  0
VERTEX
  5
C23E
  8
0
 62
     0
 10
438.142
 20
933.47199999999998
 30
0.0
 70
    32
  0
VERTEX
  5
C23F
  8
0
 62
     0
 10
437.95499999999998
 20
933.53800000000001
 30
0.0
 70
    32
  0
VERTEX
  5
C240
  8
0
 62
     0
 10
437.76599999999991
 20
933.60199999999986
 30
0.0
 70
    32
  0
VERTEX
  5
C241
  8
0
 62
     0
 10
437.57599999999991
 20
933.66499999999996
 30
0.0
 70
    32
  0
VERTEX
  5
C242
  8
0
 62
     0
 10
437.38400000000001
 20
933.72699999999998
 30
0.0
 70
    32
  0
VERTEX
  5
C243
  8
0
 62
     0
 10
437.19099999999992
 20
933.78800000000001
 30
0.0
 70
    32
  0
VERTEX
  5
C244
  8
0
 62
     0
 10
436.9969999999999
 20
933.84799999999996
 30
0.0
 70
    32
  0
VERTEX
  5
C245
  8
0
 62
     0
 10
436.80099999999987
 20
933.90600000000006
 30
0.0
 70
    32
  0
VERTEX
  5
C246
  8
0
 62
     0
 10
436.60399999999998
 20
933.96300000000008
 30
0.0
 70
    32
  0
VERTEX
  5
C247
  8
0
 62
     0
 10
436.40499999999992
 20
934.01899999999989
 30
0.0
 70
    32
  0
VERTEX
  5
C248
  8
0
 62
     0
 10
436.20499999999993
 20
934.07399999999996
 30
0.0
 70
    32
  0
VERTEX
  5
C249
  8
0
 62
     0
 10
436.00400000000002
 20
934.12699999999995
 30
0.0
 70
    32
  0
VERTEX
  5
C24A
  8
0
 62
     0
 10
435.80099999999999
 20
934.17899999999986
 30
0.0
 70
    32
  0
VERTEX
  5
C24B
  8
0
 62
     0
 10
435.59800000000001
 20
934.2299999999999
 30
0.0
 70
    32
  0
VERTEX
  5
C24C
  8
0
 62
     0
 10
435.39299999999997
 20
934.279
 30
0.0
 70
    32
  0
VERTEX
  5
C24D
  8
0
 62
     0
 10
435.1869999999999
 20
934.327
 30
0.0
 70
    32
  0
VERTEX
  5
C24E
  8
0
 62
     0
 10
434.98000000000002
 20
934.3739999999998
 30
0.0
 70
    32
  0
VERTEX
  5
C24F
  8
0
 62
     0
 10
434.77199999999988
 20
934.41999999999985
 30
0.0
 70
    32
  0
VERTEX
  5
C250
  8
0
 62
     0
 10
434.5619999999999
 20
934.46400000000006
 30
0.0
 70
    32
  0
VERTEX
  5
C251
  8
0
 62
     0
 10
434.35199999999992
 20
934.50699999999995
 30
0.0
 70
    32
  0
VERTEX
  5
C252
  8
0
 62
     0
 10
434.14099999999991
 20
934.548
 30
0.0
 70
    32
  0
VERTEX
  5
C253
  8
0
 62
     0
 10
433.928
 20
934.58800000000008
 30
0.0
 70
    32
  0
VERTEX
  5
C254
  8
0
 62
     0
 10
433.71499999999997
 20
934.62699999999995
 30
0.0
 70
    32
  0
VERTEX
  5
C255
  8
0
 62
     0
 10
433.50099999999992
 20
934.66399999999999
 30
0.0
 70
    32
  0
VERTEX
  5
C256
  8
0
 62
     0
 10
433.286
 20
934.70000000000005
 30
0.0
 70
    32
  0
VERTEX
  5
C257
  8
0
 62
     0
 10
433.06999999999999
 20
934.73500000000001
 30
0.0
 70
    32
  0
VERTEX
  5
C258
  8
0
 62
     0
 10
432.85399999999998
 20
934.76800000000003
 30
0.0
 70
    32
  0
VERTEX
  5
C259
  8
0
 62
     0
 10
432.63600000000002
 20
934.79999999999984
 30
0.0
 70
    32
  0
VERTEX
  5
C25A
  8
0
 62
     0
 10
432.41800000000001
 20
934.8309999999999
 30
0.0
 70
    32
  0
VERTEX
  5
C25B
  8
0
 62
     0
 10
432.19900000000001
 20
934.86000000000013
 30
0.0
 70
    32
  0
VERTEX
  5
C25C
  8
0
 62
     0
 10
431.9799999999999
 20
934.88800000000015
 30
0.0
 70
    32
  0
VERTEX
  5
C25D
  8
0
 62
     0
 10
431.75999999999988
 20
934.91399999999999
 30
0.0
 70
    32
  0
VERTEX
  5
C25E
  8
0
 62
     0
 10
431.53899999999987
 20
934.93899999999985
 30
0.0
 70
    32
  0
VERTEX
  5
C25F
  8
0
 62
     0
 10
431.31799999999998
 20
934.96300000000008
 30
0.0
 70
    32
  0
VERTEX
  5
C260
  8
0
 62
     0
 10
431.096
 20
934.9849999999999
 30
0.0
 70
    32
  0
VERTEX
  5
C261
  8
0
 62
     0
 10
430.87299999999999
 20
935.00599999999997
 30
0.0
 70
    32
  0
VERTEX
  5
C262
  8
0
 62
     0
 10
430.64999999999992
 20
935.02499999999998
 30
0.0
 70
    32
  0
VERTEX
  5
C263
  8
0
 62
     0
 10
430.42699999999991
 20
935.04300000000012
 30
0.0
 70
    32
  0
VERTEX
  5
C264
  8
0
 62
     0
 10
430.20299999999997
 20
935.05899999999997
 30
0.0
 70
    32
  0
VERTEX
  5
C265
  8
0
 62
     0
 10
429.97899999999998
 20
935.07399999999996
 30
0.0
 70
    32
  0
VERTEX
  5
C266
  8
0
 62
     0
 10
429.755
 20
935.08800000000008
 30
0.0
 70
    32
  0
VERTEX
  5
C267
  8
0
 62
     0
 10
429.52999999999997
 20
935.10000000000002
 30
0.0
 70
    32
  0
VERTEX
  5
C268
  8
0
 62
     0
 10
429.30500000000001
 20
935.11100000000022
 30
0.0
 70
    32
  0
VERTEX
  5
C269
  8
0
 62
     0
 10
429.07999999999993
 20
935.12
 30
0.0
 70
    32
  0
VERTEX
  5
C26A
  8
0
 62
     0
 10
428.8549999999999
 20
935.12800000000004
 30
0.0
 70
    32
  0
VERTEX
  5
C26B
  8
0
 62
     0
 10
428.62900000000002
 20
935.13499999999999
 30
0.0
 70
    32
  0
VERTEX
  5
C26C
  8
0
 62
     0
 10
428.40300000000002
 20
935.13999999999987
 30
0.0
 70
    32
  0
VERTEX
  5
C26D
  8
0
 62
     0
 10
428.17699999999991
 20
935.14300000000003
 30
0.0
 70
    32
  0
VERTEX
  5
C26E
  8
0
 62
     0
 10
427.95100000000002
 20
935.14499999999987
 30
0.0
 70
    32
  0
VERTEX
  5
C26F
  8
0
 62
     0
 10
427.726
 20
935.14600000000007
 30
0.0
 70
    32
  0
SEQEND
  5
C270
  8
0
 62
     0
  0
LINE
  5
BC33
  8
0
 62
     0
 10
436.22551958511139
 20
939.1091099380991
 30
0.0
 11
436.22551958511139
 21
940.60910993809921
 31
0.0
  0
LINE
  5
BC34
  8
0
 62
     0
 10
436.22551958511139
 20
939.1091099380991
 30
0.0
 11
344.22551958511178
 21
939.1091099380991
 31
0.0
  0
LINE
  5
BC35
  8
0
 62
     0
 10
428.72551958511139
 20
874.74012193809926
 30
0.0
 11
351.72551958511178
 21
874.74012193809926
 31
0.0
  0
ARC
  5
BC36
  8
0
 62
     0
 10
329.47551958511173
 20
905.52645493809905
 30
0.0
 40
4.25
 50
119.55859500000641
 51
174.36640800000299
  0
LINE
  5
BC37
  8
0
 62
     0
 10
327.37893758511149
 20
909.22332493809915
 30
0.0
 11
329.34867958511182
 21
910.34041193809935
 31
0.0
  0
ARC
  5
BC38
  8
0
 62
     0
 10
329.47551958511173
 20
909.9964569380993
 30
0.0
 40
4.25
 50
119.55859500000641
 51
180.0
  0
ARC
  5
BC39
  8
0
 62
     0
 10
333.22551958511173
 20
906.51638993809922
 30
0.0
 40
8.0
 50
180.0
 51
242.02293999998699
  0
POLYLINE
  5
BC3A
  8
0
 62
     0
 66
     1
 10
0.0
 20
0.0
 30
0.0
 70
     8
  0
VERTEX
  5
C271
  8
0
 62
     0
 10
352.726
 20
938.94999999999993
 30
0.0
 70
    32
  0
VERTEX
  5
C272
  8
0
 62
     0
 10
352.5
 20
938.94899999999996
 30
0.0
 70
    32
  0
VERTEX
  5
C273
  8
0
 62
     0
 10
352.274
 20
938.94700000000012
 30
0.0
 70
    32
  0
VERTEX
  5
C274
  8
0
 62
     0
 10
352.048
 20
938.94299999999998
 30
0.0
 70
    32
  0
VERTEX
  5
C275
  8
0
 62
     0
 10
351.82199999999989
 20
938.9369999999999
 30
0.0
 70
    32
  0
VERTEX
  5
C276
  8
0
 62
     0
 10
351.59699999999998
 20
938.92999999999995
 30
0.0
 70
    32
  0
VERTEX
  5
C277
  8
0
 62
     0
 10
351.37099999999998
 20
938.92100000000005
 30
0.0
 70
    32
  0
VERTEX
  5
C278
  8
0
 62
     0
 10
351.14600000000002
 20
938.90999999999985
 30
0.0
 70
    32
  0
VERTEX
  5
C279
  8
0
 62
     0
 10
350.92099999999999
 20
938.89800000000002
 30
0.0
 70
    32
  0
VERTEX
  5
C27A
  8
0
 62
     0
 10
350.69699999999989
 20
938.88400000000001
 30
0.0
 70
    32
  0
VERTEX
  5
C27B
  8
0
 62
     0
 10
350.47199999999998
 20
938.8689999999998
 30
0.0
 70
    32
  0
VERTEX
  5
C27C
  8
0
 62
     0
 10
350.2480000000001
 20
938.85199999999986
 30
0.0
 70
    32
  0
VERTEX
  5
C27D
  8
0
 62
     0
 10
350.02499999999998
 20
938.83300000000008
 30
0.0
 70
    32
  0
VERTEX
  5
C27E
  8
0
 62
     0
 10
349.80099999999999
 20
938.81299999999999
 30
0.0
 70
    32
  0
VERTEX
  5
C27F
  8
0
 62
     0
 10
349.57799999999997
 20
938.79100000000005
 30
0.0
 70
    32
  0
VERTEX
  5
C280
  8
0
 62
     0
 10
349.35599999999999
 20
938.76800000000014
 30
0.0
 70
    32
  0
VERTEX
  5
C281
  8
0
 62
     0
 10
349.13400000000001
 20
938.74300000000005
 30
0.0
 70
    32
  0
VERTEX
  5
C282
  8
0
 62
     0
 10
348.91300000000001
 20
938.71599999999989
 30
0.0
 70
    32
  0
VERTEX
  5
C283
  8
0
 62
     0
 10
348.69200000000001
 20
938.68799999999987
 30
0.0
 70
    32
  0
VERTEX
  5
C284
  8
0
 62
     0
 10
348.47199999999998
 20
938.65800000000002
 30
0.0
 70
    32
  0
VERTEX
  5
C285
  8
0
 62
     0
 10
348.2530000000001
 20
938.62600000000009
 30
0.0
 70
    32
  0
VERTEX
  5
C286
  8
0
 62
     0
 10
348.03399999999999
 20
938.59299999999996
 30
0.0
 70
    32
  0
VERTEX
  5
C287
  8
0
 62
     0
 10
347.81599999999997
 20
938.55899999999997
 30
0.0
 70
    32
  0
VERTEX
  5
C288
  8
0
 62
     0
 10
347.59899999999999
 20
938.52299999999991
 30
0.0
 70
    32
  0
VERTEX
  5
C289
  8
0
 62
     0
 10
347.38199999999989
 20
938.48500000000001
 30
0.0
 70
    32
  0
VERTEX
  5
C28A
  8
0
 62
     0
 10
347.166
 20
938.44600000000003
 30
0.0
 70
    32
  0
VERTEX
  5
C28B
  8
0
 62
     0
 10
346.95100000000002
 20
938.40499999999997
 30
0.0
 70
    32
  0
VERTEX
  5
C28C
  8
0
 62
     0
 10
346.73700000000002
 20
938.36199999999997
 30
0.0
 70
    32
  0
VERTEX
  5
C28D
  8
0
 62
     0
 10
346.524
 20
938.31899999999985
 30
0.0
 70
    32
  0
VERTEX
  5
C28E
  8
0
 62
     0
 10
346.3119999999999
 20
938.27300000000002
 30
0.0
 70
    32
  0
VERTEX
  5
C28F
  8
0
 62
     0
 10
346.101
 20
938.226
 30
0.0
 70
    32
  0
VERTEX
  5
C290
  8
0
 62
     0
 10
345.88999999999999
 20
938.178
 30
0.0
 70
    32
  0
VERTEX
  5
C291
  8
0
 62
     0
 10
345.68099999999998
 20
938.12800000000004
 30
0.0
 70
    32
  0
VERTEX
  5
C292
  8
0
 62
     0
 10
345.47300000000001
 20
938.07600000000002
 30
0.0
 70
    32
  0
VERTEX
  5
C293
  8
0
 62
     0
 10
345.26600000000002
 20
938.02300000000002
 30
0.0
 70
    32
  0
VERTEX
  5
C294
  8
0
 62
     0
 10
345.06
 20
937.96900000000005
 30
0.0
 70
    32
  0
VERTEX
  5
C295
  8
0
 62
     0
 10
344.85500000000002
 20
937.9129999999999
 30
0.0
 70
    32
  0
VERTEX
  5
C296
  8
0
 62
     0
 10
344.65100000000001
 20
937.85500000000002
 30
0.0
 70
    32
  0
VERTEX
  5
C297
  8
0
 62
     0
 10
344.44900000000001
 20
937.79599999999994
 30
0.0
 70
    32
  0
VERTEX
  5
C298
  8
0
 62
     0
 10
344.2480000000001
 20
937.7360000000001
 30
0.0
 70
    32
  0
VERTEX
  5
C299
  8
0
 62
     0
 10
344.048
 20
937.67399999999986
 30
0.0
 70
    32
  0
VERTEX
  5
C29A
  8
0
 62
     0
 10
343.84899999999999
 20
937.61099999999999
 30
0.0
 70
    32
  0
VERTEX
  5
C29B
  8
0
 62
     0
 10
343.65199999999999
 20
937.54699999999991
 30
0.0
 70
    32
  0
VERTEX
  5
C29C
  8
0
 62
     0
 10
343.45600000000002
 20
937.48000000000002
 30
0.0
 70
    32
  0
VERTEX
  5
C29D
  8
0
 62
     0
 10
343.262
 20
937.41300000000001
 30
0.0
 70
    32
  0
VERTEX
  5
C29E
  8
0
 62
     0
 10
343.06900000000002
 20
937.34400000000005
 30
0.0
 70
    32
  0
VERTEX
  5
C29F
  8
0
 62
     0
 10
342.87700000000001
 20
937.27399999999977
 30
0.0
 70
    32
  0
VERTEX
  5
C2A0
  8
0
 62
     0
 10
342.68700000000001
 20
937.202
 30
0.0
 70
    32
  0
VERTEX
  5
C2A1
  8
0
 62
     0
 10
342.49900000000002
 20
937.12900000000002
 30
0.0
 70
    32
  0
VERTEX
  5
C2A2
  8
0
 62
     0
 10
342.3119999999999
 20
937.05499999999995
 30
0.0
 70
    32
  0
VERTEX
  5
C2A3
  8
0
 62
     0
 10
342.12599999999998
 20
936.97900000000004
 30
0.0
 70
    32
  0
VERTEX
  5
C2A4
  8
0
 62
     0
 10
341.94200000000001
 20
936.90199999999993
 30
0.0
 70
    32
  0
VERTEX
  5
C2A5
  8
0
 62
     0
 10
341.75999999999999
 20
936.82399999999996
 30
0.0
 70
    32
  0
VERTEX
  5
C2A6
  8
0
 62
     0
 10
341.57900000000001
 20
936.74400000000003
 30
0.0
 70
    32
  0
VERTEX
  5
C2A7
  8
0
 62
     0
 10
341.39999999999998
 20
936.66300000000001
 30
0.0
 70
    32
  0
VERTEX
  5
C2A8
  8
0
 62
     0
 10
341.22300000000001
 20
936.5809999999999
 30
0.0
 70
    32
  0
VERTEX
  5
C2A9
  8
0
 62
     0
 10
341.048
 20
936.49800000000005
 30
0.0
 70
    32
  0
VERTEX
  5
C2AA
  8
0
 62
     0
 10
340.87400000000002
 20
936.41300000000012
 30
0.0
 70
    32
  0
VERTEX
  5
C2AB
  8
0
 62
     0
 10
340.702
 20
936.32699999999988
 30
0.0
 70
    32
  0
VERTEX
  5
C2AC
  8
0
 62
     0
 10
340.53199999999998
 20
936.24000000000001
 30
0.0
 70
    32
  0
VERTEX
  5
C2AD
  8
0
 62
     0
 10
340.36300000000011
 20
936.15099999999995
 30
0.0
 70
    32
  0
VERTEX
  5
C2AE
  8
0
 62
     0
 10
340.19699999999989
 20
936.06200000000001
 30
0.0
 70
    32
  0
VERTEX
  5
C2AF
  8
0
 62
     0
 10
340.03199999999998
 20
935.97099999999989
 30
0.0
 70
    32
  0
VERTEX
  5
C2B0
  8
0
 62
     0
 10
339.87
 20
935.87899999999991
 30
0.0
 70
    32
  0
VERTEX
  5
C2B1
  8
0
 62
     0
 10
339.709
 20
935.78599999999994
 30
0.0
 70
    32
  0
VERTEX
  5
C2B2
  8
0
 62
     0
 10
339.55000000000001
 20
935.69100000000003
 30
0.0
 70
    32
  0
VERTEX
  5
C2B3
  8
0
 62
     0
 10
339.39400000000001
 20
935.59599999999989
 30
0.0
 70
    32
  0
VERTEX
  5
C2B4
  8
0
 62
     0
 10
339.23899999999998
 20
935.49899999999991
 30
0.0
 70
    32
  0
VERTEX
  5
C2B5
  8
0
 62
     0
 10
339.08600000000001
 20
935.40200000000004
 30
0.0
 70
    32
  0
VERTEX
  5
C2B6
  8
0
 62
     0
 10
338.935
 20
935.303
 30
0.0
 70
    32
  0
VERTEX
  5
C2B7
  8
0
 62
     0
 10
338.78699999999998
 20
935.20299999999986
 30
0.0
 70
    32
  0
VERTEX
  5
C2B8
  8
0
 62
     0
 10
338.63999999999999
 20
935.10199999999998
 30
0.0
 70
    32
  0
VERTEX
  5
C2B9
  8
0
 62
     0
 10
338.49599999999998
 20
935.0
 30
0.0
 70
    32
  0
VERTEX
  5
C2BA
  8
0
 62
     0
 10
338.35399999999998
 20
934.89699999999993
 30
0.0
 70
    32
  0
VERTEX
  5
C2BB
  8
0
 62
     0
 10
338.214
 20
934.79299999999989
 30
0.0
 70
    32
  0
VERTEX
  5
C2BC
  8
0
 62
     0
 10
338.07599999999991
 20
934.68799999999999
 30
0.0
 70
    32
  0
VERTEX
  5
C2BD
  8
0
 62
     0
 10
337.94
 20
934.58199999999988
 30
0.0
 70
    32
  0
VERTEX
  5
C2BE
  8
0
 62
     0
 10
337.80700000000002
 20
934.47500000000014
 30
0.0
 70
    32
  0
VERTEX
  5
C2BF
  8
0
 62
     0
 10
337.67500000000001
 20
934.36699999999985
 30
0.0
 70
    32
  0
VERTEX
  5
C2C0
  8
0
 62
     0
 10
337.54700000000003
 20
934.25799999999992
 30
0.0
 70
    32
  0
VERTEX
  5
C2C1
  8
0
 62
     0
 10
337.42000000000002
 20
934.14800000000002
 30
0.0
 70
    32
  0
VERTEX
  5
C2C2
  8
0
 62
     0
 10
337.29599999999999
 20
934.0379999999999
 30
0.0
 70
    32
  0
VERTEX
  5
C2C3
  8
0
 62
     0
 10
337.173
 20
933.92600000000004
 30
0.0
 70
    32
  0
VERTEX
  5
C2C4
  8
0
 62
     0
 10
337.05399999999997
 20
933.81399999999985
 30
0.0
 70
    32
  0
VERTEX
  5
C2C5
  8
0
 62
     0
 10
336.93599999999998
 20
933.70000000000005
 30
0.0
 70
    32
  0
VERTEX
  5
C2C6
  8
0
 62
     0
 10
336.82199999999989
 20
933.58600000000001
 30
0.0
 70
    32
  0
VERTEX
  5
C2C7
  8
0
 62
     0
 10
336.709
 20
933.47099999999989
 30
0.0
 70
    32
  0
VERTEX
  5
C2C8
  8
0
 62
     0
 10
336.59899999999999
 20
933.35600000000022
 30
0.0
 70
    32
  0
VERTEX
  5
C2C9
  8
0
 62
     0
 10
336.49099999999999
 20
933.23900000000003
 30
0.0
 70
    32
  0
VERTEX
  5
C2CA
  8
0
 62
     0
 10
336.38600000000002
 20
933.12199999999996
 30
0.0
 70
    32
  0
VERTEX
  5
C2CB
  8
0
 62
     0
 10
336.28300000000002
 20
933.00399999999979
 30
0.0
 70
    32
  0
VERTEX
  5
C2CC
  8
0
 62
     0
 10
336.18300000000011
 20
932.88499999999999
 30
0.0
 70
    32
  0
VERTEX
  5
C2CD
  8
0
 62
     0
 10
336.08499999999998
 20
932.76499999999999
 30
0.0
 70
    32
  0
VERTEX
  5
C2CE
  8
0
 62
     0
 10
335.99000000000001
 20
932.64499999999987
 30
0.0
 70
    32
  0
VERTEX
  5
C2CF
  8
0
 62
     0
 10
335.89699999999999
 20
932.52399999999989
 30
0.0
 70
    32
  0
VERTEX
  5
C2D0
  8
0
 62
     0
 10
335.80599999999998
 20
932.40300000000002
 30
0.0
 70
    32
  0
VERTEX
  5
C2D1
  8
0
 62
     0
 10
335.71899999999999
 20
932.28099999999995
 30
0.0
 70
    32
  0
VERTEX
  5
C2D2
  8
0
 62
     0
 10
335.63400000000001
 20
932.15800000000002
 30
0.0
 70
    32
  0
VERTEX
  5
C2D3
  8
0
 62
     0
 10
335.55099999999999
 20
932.03399999999988
 30
0.0
 70
    32
  0
VERTEX
  5
C2D4
  8
0
 62
     0
 10
335.471
 20
931.90999999999997
 30
0.0
 70
    32
  0
VERTEX
  5
C2D5
  8
0
 62
     0
 10
335.39400000000001
 20
931.78600000000006
 30
0.0
 70
    32
  0
VERTEX
  5
C2D6
  8
0
 62
     0
 10
335.31900000000002
 20
931.66099999999994
 30
0.0
 70
    32
  0
VERTEX
  5
C2D7
  8
0
 62
     0
 10
335.24700000000001
 20
931.53499999999997
 30
0.0
 70
    32
  0
VERTEX
  5
C2D8
  8
0
 62
     0
 10
335.17700000000002
 20
931.40899999999999
 30
0.0
 70
    32
  0
VERTEX
  5
C2D9
  8
0
 62
     0
 10
335.11000000000001
 20
931.28200000000004
 30
0.0
 70
    32
  0
VERTEX
  5
C2DA
  8
0
 62
     0
 10
335.04599999999999
 20
931.15499999999997
 30
0.0
 70
    32
  0
VERTEX
  5
C2DB
  8
0
 62
     0
 10
334.98399999999998
 20
931.02800000000002
 30
0.0
 70
    32
  0
VERTEX
  5
C2DC
  8
0
 62
     0
 10
334.92500000000001
 20
930.89999999999986
 30
0.0
 70
    32
  0
VERTEX
  5
C2DD
  8
0
 62
     0
 10
334.86900000000003
 20
930.77099999999996
 30
0.0
 70
    32
  0
VERTEX
  5
C2DE
  8
0
 62
     0
 10
334.81599999999997
 20
930.64199999999994
 30
0.0
 70
    32
  0
VERTEX
  5
C2DF
  8
0
 62
     0
 10
334.76499999999999
 20
930.51300000000003
 30
0.0
 70
    32
  0
VERTEX
  5
C2E0
  8
0
 62
     0
 10
334.71699999999998
 20
930.3839999999999
 30
0.0
 70
    32
  0
VERTEX
  5
C2E1
  8
0
 62
     0
 10
334.67099999999999
 20
930.25399999999979
 30
0.0
 70
    32
  0
VERTEX
  5
C2E2
  8
0
 62
     0
 10
334.62900000000002
 20
930.12399999999991
 30
0.0
 70
    32
  0
VERTEX
  5
C2E3
  8
0
 62
     0
 10
334.589
 20
929.99300000000005
 30
0.0
 70
    32
  0
VERTEX
  5
C2E4
  8
0
 62
     0
 10
334.55099999999999
 20
929.86199999999985
 30
0.0
 70
    32
  0
VERTEX
  5
C2E5
  8
0
 62
     0
 10
334.517
 20
929.73100000000011
 30
0.0
 70
    32
  0
VERTEX
  5
C2E6
  8
0
 62
     0
 10
334.48500000000001
 20
929.60000000000014
 30
0.0
 70
    32
  0
VERTEX
  5
C2E7
  8
0
 62
     0
 10
334.4559999999999
 20
929.46899999999994
 30
0.0
 70
    32
  0
VERTEX
  5
C2E8
  8
0
 62
     0
 10
334.43000000000001
 20
929.33699999999988
 30
0.0
 70
    32
  0
VERTEX
  5
C2E9
  8
0
 62
     0
 10
334.40600000000001
 20
929.20500000000015
 30
0.0
 70
    32
  0
VERTEX
  5
C2EA
  8
0
 62
     0
 10
334.38499999999999
 20
929.07299999999987
 30
0.0
 70
    32
  0
VERTEX
  5
C2EB
  8
0
 62
     0
 10
334.3669999999999
 20
928.94100000000003
 30
0.0
 70
    32
  0
VERTEX
  5
C2EC
  8
0
 62
     0
 10
334.35199999999998
 20
928.80899999999997
 30
0.0
 70
    32
  0
VERTEX
  5
C2ED
  8
0
 62
     0
 10
334.33999999999997
 20
928.67600000000004
 30
0.0
 70
    32
  0
VERTEX
  5
C2EE
  8
0
 62
     0
 10
334.32999999999998
 20
928.54399999999987
 30
0.0
 70
    32
  0
VERTEX
  5
C2EF
  8
0
 62
     0
 10
334.32300000000009
 20
928.41099999999994
 30
0.0
 70
    32
  0
VERTEX
  5
C2F0
  8
0
 62
     0
 10
334.31900000000002
 20
928.279
 30
0.0
 70
    32
  0
VERTEX
  5
C2F1
  8
0
 62
     0
 10
334.31799999999998
 20
928.14599999999996
 30
0.0
 70
    32
  0
SEQEND
  5
C2F2
  8
0
 62
     0
  0
POLYLINE
  5
BC3B
  8
0
 62
     0
 66
     1
 10
0.0
 20
0.0
 30
0.0
 70
     8
  0
VERTEX
  5
C2F3
  8
0
 62
     0
 10
352.726
 20
935.14600000000007
 30
0.0
 70
    32
  0
VERTEX
  5
C2F4
  8
0
 62
     0
 10
352.5
 20
935.14499999999987
 30
0.0
 70
    32
  0
VERTEX
  5
C2F5
  8
0
 62
     0
 10
352.274
 20
935.14300000000003
 30
0.0
 70
    32
  0
VERTEX
  5
C2F6
  8
0
 62
     0
 10
352.048
 20
935.13999999999987
 30
0.0
 70
    32
  0
VERTEX
  5
C2F7
  8
0
 62
     0
 10
351.82199999999989
 20
935.13499999999999
 30
0.0
 70
    32
  0
VERTEX
  5
C2F8
  8
0
 62
     0
 10
351.596
 20
935.12800000000004
 30
0.0
 70
    32
  0
VERTEX
  5
C2F9
  8
0
 62
     0
 10
351.37099999999998
 20
935.12
 30
0.0
 70
    32
  0
VERTEX
  5
C2FA
  8
0
 62
     0
 10
351.14600000000002
 20
935.11100000000022
 30
0.0
 70
    32
  0
VERTEX
  5
C2FB
  8
0
 62
     0
 10
350.92099999999999
 20
935.10000000000002
 30
0.0
 70
    32
  0
VERTEX
  5
C2FC
  8
0
 62
     0
 10
350.69600000000003
 20
935.08800000000008
 30
0.0
 70
    32
  0
VERTEX
  5
C2FD
  8
0
 62
     0
 10
350.47199999999998
 20
935.07399999999996
 30
0.0
 70
    32
  0
VERTEX
  5
C2FE
  8
0
 62
     0
 10
350.2480000000001
 20
935.05899999999997
 30
0.0
 70
    32
  0
VERTEX
  5
C2FF
  8
0
 62
     0
 10
350.024
 20
935.04300000000012
 30
0.0
 70
    32
  0
VERTEX
  5
C300
  8
0
 62
     0
 10
349.80099999999999
 20
935.02499999999998
 30
0.0
 70
    32
  0
VERTEX
  5
C301
  8
0
 62
     0
 10
349.57799999999997
 20
935.00599999999997
 30
0.0
 70
    32
  0
VERTEX
  5
C302
  8
0
 62
     0
 10
349.35500000000002
 20
934.9849999999999
 30
0.0
 70
    32
  0
VERTEX
  5
C303
  8
0
 62
     0
 10
349.13299999999998
 20
934.96300000000008
 30
0.0
 70
    32
  0
VERTEX
  5
C304
  8
0
 62
     0
 10
348.91199999999998
 20
934.93899999999985
 30
0.0
 70
    32
  0
VERTEX
  5
C305
  8
0
 62
     0
 10
348.69099999999997
 20
934.91399999999999
 30
0.0
 70
    32
  0
VERTEX
  5
C306
  8
0
 62
     0
 10
348.471
 20
934.88800000000015
 30
0.0
 70
    32
  0
VERTEX
  5
C307
  8
0
 62
     0
 10
348.25200000000001
 20
934.86000000000013
 30
0.0
 70
    32
  0
VERTEX
  5
C308
  8
0
 62
     0
 10
348.03300000000002
 20
934.8309999999999
 30
0.0
 70
    32
  0
VERTEX
  5
C309
  8
0
 62
     0
 10
347.815
 20
934.79999999999984
 30
0.0
 70
    32
  0
VERTEX
  5
C30A
  8
0
 62
     0
 10
347.59699999999998
 20
934.76800000000003
 30
0.0
 70
    32
  0
VERTEX
  5
C30B
  8
0
 62
     0
 10
347.38099999999997
 20
934.73500000000001
 30
0.0
 70
    32
  0
VERTEX
  5
C30C
  8
0
 62
     0
 10
347.16500000000002
 20
934.70000000000005
 30
0.0
 70
    32
  0
VERTEX
  5
C30D
  8
0
 62
     0
 10
346.94999999999999
 20
934.66399999999999
 30
0.0
 70
    32
  0
VERTEX
  5
C30E
  8
0
 62
     0
 10
346.73599999999999
 20
934.62699999999995
 30
0.0
 70
    32
  0
VERTEX
  5
C30F
  8
0
 62
     0
 10
346.52300000000002
 20
934.58800000000008
 30
0.0
 70
    32
  0
VERTEX
  5
C310
  8
0
 62
     0
 10
346.31
 20
934.548
 30
0.0
 70
    32
  0
VERTEX
  5
C311
  8
0
 62
     0
 10
346.09899999999999
 20
934.50699999999995
 30
0.0
 70
    32
  0
VERTEX
  5
C312
  8
0
 62
     0
 10
345.88900000000001
 20
934.46400000000006
 30
0.0
 70
    32
  0
VERTEX
  5
C313
  8
0
 62
     0
 10
345.67899999999997
 20
934.41999999999985
 30
0.0
 70
    32
  0
VERTEX
  5
C314
  8
0
 62
     0
 10
345.471
 20
934.3739999999998
 30
0.0
 70
    32
  0
VERTEX
  5
C315
  8
0
 62
     0
 10
345.26400000000001
 20
934.327
 30
0.0
 70
    32
  0
VERTEX
  5
C316
  8
0
 62
     0
 10
345.05799999999999
 20
934.279
 30
0.0
 70
    32
  0
VERTEX
  5
C317
  8
0
 62
     0
 10
344.85300000000001
 20
934.2299999999999
 30
0.0
 70
    32
  0
VERTEX
  5
C318
  8
0
 62
     0
 10
344.64999999999998
 20
934.17899999999986
 30
0.0
 70
    32
  0
VERTEX
  5
C319
  8
0
 62
     0
 10
344.44699999999989
 20
934.12699999999995
 30
0.0
 70
    32
  0
VERTEX
  5
C31A
  8
0
 62
     0
 10
344.24599999999998
 20
934.07399999999996
 30
0.0
 70
    32
  0
VERTEX
  5
C31B
  8
0
 62
     0
 10
344.04599999999999
 20
934.01899999999989
 30
0.0
 70
    32
  0
VERTEX
  5
C31C
  8
0
 62
     0
 10
343.84699999999998
 20
933.96300000000008
 30
0.0
 70
    32
  0
VERTEX
  5
C31D
  8
0
 62
     0
 10
343.64999999999998
 20
933.90600000000006
 30
0.0
 70
    32
  0
VERTEX
  5
C31E
  8
0
 62
     0
 10
343.45400000000001
 20
933.84799999999996
 30
0.0
 70
    32
  0
VERTEX
  5
C31F
  8
0
 62
     0
 10
343.25999999999999
 20
933.78800000000001
 30
0.0
 70
    32
  0
VERTEX
  5
C320
  8
0
 62
     0
 10
343.06700000000001
 20
933.72699999999998
 30
0.0
 70
    32
  0
VERTEX
  5
C321
  8
0
 62
     0
 10
342.875
 20
933.66499999999996
 30
0.0
 70
    32
  0
VERTEX
  5
C322
  8
0
 62
     0
 10
342.685
 20
933.60199999999986
 30
0.0
 70
    32
  0
VERTEX
  5
C323
  8
0
 62
     0
 10
342.49599999999998
 20
933.53800000000001
 30
0.0
 70
    32
  0
VERTEX
  5
C324
  8
0
 62
     0
 10
342.30900000000003
 20
933.47199999999998
 30
0.0
 70
    32
  0
VERTEX
  5
C325
  8
0
 62
     0
 10
342.12400000000002
 20
933.40499999999986
 30
0.0
 70
    32
  0
VERTEX
  5
C326
  8
0
 62
     0
 10
341.94
 20
933.33699999999999
 30
0.0
 70
    32
  0
VERTEX
  5
C327
  8
0
 62
     0
 10
341.75699999999989
 20
933.26799999999992
 30
0.0
 70
    32
  0
VERTEX
  5
C328
  8
0
 62
     0
 10
341.577
 20
933.197
 30
0.0
 70
    32
  0
VERTEX
  5
C329
  8
0
 62
     0
 10
341.39800000000002
 20
933.12599999999998
 30
0.0
 70
    32
  0
VERTEX
  5
C32A
  8
0
 62
     0
 10
341.22000000000003
 20
933.05299999999988
 30
0.0
 70
    32
  0
VERTEX
  5
C32B
  8
0
 62
     0
 10
341.04500000000002
 20
932.98000000000002
 30
0.0
 70
    32
  0
VERTEX
  5
C32C
  8
0
 62
     0
 10
340.87099999999998
 20
932.90499999999997
 30
0.0
 70
    32
  0
VERTEX
  5
C32D
  8
0
 62
     0
 10
340.69900000000001
 20
932.82899999999995
 30
0.0
 70
    32
  0
VERTEX
  5
C32E
  8
0
 62
     0
 10
340.529
 20
932.75199999999995
 30
0.0
 70
    32
  0
VERTEX
  5
C32F
  8
0
 62
     0
 10
340.36099999999999
 20
932.67399999999986
 30
0.0
 70
    32
  0
VERTEX
  5
C330
  8
0
 62
     0
 10
340.19400000000002
 20
932.59399999999994
 30
0.0
 70
    32
  0
VERTEX
  5
C331
  8
0
 62
     0
 10
340.029
 20
932.5139999999999
 30
0.0
 70
    32
  0
VERTEX
  5
C332
  8
0
 62
     0
 10
339.86700000000002
 20
932.43299999999988
 30
0.0
 70
    32
  0
VERTEX
  5
C333
  8
0
 62
     0
 10
339.70600000000002
 20
932.351
 30
0.0
 70
    32
  0
VERTEX
  5
C334
  8
0
 62
     0
 10
339.54699999999991
 20
932.26700000000005
 30
0.0
 70
    32
  0
VERTEX
  5
C335
  8
0
 62
     0
 10
339.38999999999999
 20
932.18299999999999
 30
0.0
 70
    32
  0
VERTEX
  5
C336
  8
0
 62
     0
 10
339.23599999999999
 20
932.09799999999996
 30
0.0
 70
    32
  0
VERTEX
  5
C337
  8
0
 62
     0
 10
339.08300000000003
 20
932.01100000000008
 30
0.0
 70
    32
  0
VERTEX
  5
C338
  8
0
 62
     0
 10
338.93200000000002
 20
931.92399999999998
 30
0.0
 70
    32
  0
VERTEX
  5
C339
  8
0
 62
     0
 10
338.78399999999999
 20
931.83600000000001
 30
0.0
 70
    32
  0
VERTEX
  5
C33A
  8
0
 62
     0
 10
338.63699999999989
 20
931.74699999999996
 30
0.0
 70
    32
  0
VERTEX
  5
C33B
  8
0
 62
     0
 10
338.49300000000011
 20
931.65699999999981
 30
0.0
 70
    32
  0
VERTEX
  5
C33C
  8
0
 62
     0
 10
338.35000000000002
 20
931.56600000000014
 30
0.0
 70
    32
  0
VERTEX
  5
C33D
  8
0
 62
     0
 10
338.20999999999998
 20
931.47399999999982
 30
0.0
 70
    32
  0
VERTEX
  5
C33E
  8
0
 62
     0
 10
338.072
 20
931.38100000000009
 30
0.0
 70
    32
  0
VERTEX
  5
C33F
  8
0
 62
     0
 10
337.93700000000001
 20
931.28700000000003
 30
0.0
 70
    32
  0
VERTEX
  5
C340
  8
0
 62
     0
 10
337.80300000000011
 20
931.19299999999998
 30
0.0
 70
    32
  0
VERTEX
  5
C341
  8
0
 62
     0
 10
337.67200000000003
 20
931.09699999999987
 30
0.0
 70
    32
  0
VERTEX
  5
C342
  8
0
 62
     0
 10
337.54300000000001
 20
931.00100000000009
 30
0.0
 70
    32
  0
VERTEX
  5
C343
  8
0
 62
     0
 10
337.416
 20
930.90399999999988
 30
0.0
 70
    32
  0
VERTEX
  5
C344
  8
0
 62
     0
 10
337.29199999999997
 20
930.80600000000015
 30
0.0
 70
    32
  0
VERTEX
  5
C345
  8
0
 62
     0
 10
337.17000000000002
 20
930.70799999999997
 30
0.0
 70
    32
  0
VERTEX
  5
C346
  8
0
 62
     0
 10
337.05000000000001
 20
930.60899999999992
 30
0.0
 70
    32
  0
VERTEX
  5
C347
  8
0
 62
     0
 10
336.93300000000011
 20
930.50800000000004
 30
0.0
 70
    32
  0
VERTEX
  5
C348
  8
0
 62
     0
 10
336.8180000000001
 20
930.40800000000002
 30
0.0
 70
    32
  0
VERTEX
  5
C349
  8
0
 62
     0
 10
336.70499999999998
 20
930.30600000000004
 30
0.0
 70
    32
  0
VERTEX
  5
C34A
  8
0
 62
     0
 10
336.59500000000003
 20
930.20399999999995
 30
0.0
 70
    32
  0
VERTEX
  5
C34B
  8
0
 62
     0
 10
336.48700000000002
 20
930.10100000000011
 30
0.0
 70
    32
  0
VERTEX
  5
C34C
  8
0
 62
     0
 10
336.38200000000001
 20
929.99699999999996
 30
0.0
 70
    32
  0
VERTEX
  5
C34D
  8
0
 62
     0
 10
336.279
 20
929.89300000000003
 30
0.0
 70
    32
  0
VERTEX
  5
C34E
  8
0
 62
     0
 10
336.17899999999997
 20
929.78800000000012
 30
0.0
 70
    32
  0
VERTEX
  5
C34F
  8
0
 62
     0
 10
336.08100000000002
 20
929.68200000000002
 30
0.0
 70
    32
  0
VERTEX
  5
C350
  8
0
 62
     0
 10
335.98500000000001
 20
929.57599999999991
 30
0.0
 70
    32
  0
VERTEX
  5
C351
  8
0
 62
     0
 10
335.89299999999997
 20
929.46899999999994
 30
0.0
 70
    32
  0
VERTEX
  5
C352
  8
0
 62
     0
 10
335.80200000000002
 20
929.36199999999997
 30
0.0
 70
    32
  0
VERTEX
  5
C353
  8
0
 62
     0
 10
335.71499999999997
 20
929.25399999999979
 30
0.0
 70
    32
  0
VERTEX
  5
C354
  8
0
 62
     0
 10
335.62900000000002
 20
929.14599999999996
 30
0.0
 70
    32
  0
VERTEX
  5
C355
  8
0
 62
     0
 10
335.54700000000003
 20
929.03699999999992
 30
0.0
 70
    32
  0
VERTEX
  5
C356
  8
0
 62
     0
 10
335.46699999999998
 20
928.92700000000002
 30
0.0
 70
    32
  0
VERTEX
  5
C357
  8
0
 62
     0
 10
335.38900000000001
 20
928.81700000000001
 30
0.0
 70
    32
  0
VERTEX
  5
C358
  8
0
 62
     0
 10
335.315
 20
928.70699999999988
 30
0.0
 70
    32
  0
VERTEX
  5
C359
  8
0
 62
     0
 10
335.2419999999999
 20
928.59600000000012
 30
0.0
 70
    32
  0
VERTEX
  5
C35A
  8
0
 62
     0
 10
335.173
 20
928.48399999999992
 30
0.0
 70
    32
  0
VERTEX
  5
C35B
  8
0
 62
     0
 10
335.10599999999999
 20
928.37199999999996
 30
0.0
 70
    32
  0
VERTEX
  5
C35C
  8
0
 62
     0
 10
335.04199999999997
 20
928.25999999999999
 30
0.0
 70
    32
  0
VERTEX
  5
C35D
  8
0
 62
     0
 10
334.98000000000002
 20
928.14699999999982
 30
0.0
 70
    32
  0
VERTEX
  5
C35E
  8
0
 62
     0
 10
334.92099999999999
 20
928.03399999999999
 30
0.0
 70
    32
  0
VERTEX
  5
C35F
  8
0
 62
     0
 10
334.86500000000001
 20
927.92100000000005
 30
0.0
 70
    32
  0
VERTEX
  5
C360
  8
0
 62
     0
 10
334.81099999999998
 20
927.8069999999999
 30
0.0
 70
    32
  0
VERTEX
  5
C361
  8
0
 62
     0
 10
334.75999999999999
 20
927.69299999999998
 30
0.0
 70
    32
  0
VERTEX
  5
C362
  8
0
 62
     0
 10
334.71199999999999
 20
927.57799999999986
 30
0.0
 70
    32
  0
VERTEX
  5
C363
  8
0
 62
     0
 10
334.66699999999997
 20
927.46399999999994
 30
0.0
 70
    32
  0
VERTEX
  5
C364
  8
0
 62
     0
 10
334.62400000000002
 20
927.34899999999982
 30
0.0
 70
    32
  0
VERTEX
  5
C365
  8
0
 62
     0
 10
334.584
 20
927.23299999999995
 30
0.0
 70
    32
  0
VERTEX
  5
C366
  8
0
 62
     0
 10
334.54700000000003
 20
927.11800000000005
 30
0.0
 70
    32
  0
VERTEX
  5
C367
  8
0
 62
     0
 10
334.512
 20
927.00199999999995
 30
0.0
 70
    32
  0
VERTEX
  5
C368
  8
0
 62
     0
 10
334.48000000000002
 20
926.88600000000008
 30
0.0
 70
    32
  0
VERTEX
  5
C369
  8
0
 62
     0
 10
334.45100000000002
 20
926.76999999999987
 30
0.0
 70
    32
  0
VERTEX
  5
C36A
  8
0
 62
     0
 10
334.42500000000001
 20
926.654
 30
0.0
 70
    32
  0
VERTEX
  5
C36B
  8
0
 62
     0
 10
334.40199999999999
 20
926.53699999999981
 30
0.0
 70
    32
  0
VERTEX
  5
C36C
  8
0
 62
     0
 10
334.38099999999997
 20
926.41999999999996
 30
0.0
 70
    32
  0
VERTEX
  5
C36D
  8
0
 62
     0
 10
334.363
 20
926.30399999999997
 30
0.0
 70
    32
  0
VERTEX
  5
C36E
  8
0
 62
     0
 10
334.34800000000001
 20
926.18700000000001
 30
0.0
 70
    32
  0
VERTEX
  5
C36F
  8
0
 62
     0
 10
334.33499999999998
 20
926.06999999999994
 30
0.0
 70
    32
  0
VERTEX
  5
C370
  8
0
 62
     0
 10
334.32499999999999
 20
925.95299999999986
 30
0.0
 70
    32
  0
VERTEX
  5
C371
  8
0
 62
     0
 10
334.31799999999998
 20
925.8359999999999
 30
0.0
 70
    32
  0
VERTEX
  5
C372
  8
0
 62
     0
 10
334.31400000000002
 20
925.71899999999994
 30
0.0
 70
    32
  0
VERTEX
  5
C373
  8
0
 62
     0
 10
334.31299999999999
 20
925.60199999999986
 30
0.0
 70
    32
  0
SEQEND
  5
C374
  8
0
 62
     0
  0
LINE
  5
BC3C
  8
0
 62
     0
 10
428.20252458511141
 20
872.56610593809933
 30
0.0
 11
352.24851458511182
 21
872.56610593809933
 31
0.0
  0
LINE
  5
BC3D
  8
0
 62
     0
 10
427.72551958511161
 20
935.14609193809918
 30
0.0
 11
352.72551958511178
 21
935.14609193809918
 31
0.0
  0
LINE
  5
BC3E
  8
0
 62
     0
 10
427.72551958511161
 20
938.95010893809922
 30
0.0
 11
352.72551958511178
 21
938.95010893809922
 31
0.0
  0
LINE
  5
BC3F
  8
0
 62
     0
 10
390.22551958511173
 20
938.95010893809922
 30
0.0
 11
390.70151758511162
 21
938.95010893809922
 31
0.0
  0
LINE
  5
BC40
  8
0
 62
     0
 10
344.22551958511178
 20
940.60910993809921
 30
0.0
 11
436.22501558511192
 21
940.60910993809921
 31
0.0
  0
LINE
  5
BC41
  8
0
 62
     0
 10
341.72551958511173
 20
920.64609193809918
 30
0.0
 11
341.72551958511173
 21
884.74012193809915
 31
0.0
  0
LINE
  5
BC42
  8
0
 62
     0
 10
344.22551958511178
 20
939.1091099380991
 30
0.0
 11
344.22551958511178
 21
940.60910993809921
 31
0.0
  0
LINE
  5
BC43
  8
0
 62
     0
 10
334.31750558511197
 20
928.14610393809915
 30
0.0
 11
334.29950058511122
 21
918.3621239380991
 31
0.0
  0
LINE
  5
BC44
  8
0
 62
     0
 10
334.25049458511199
 20
891.48612293809924
 30
0.0
 11
334.24849558511193
 21
890.56614193809924
 31
0.0
  0
LINE
  5
BC45
  8
0
  6
AM_ISO08W050
 62
     0
 10
335.22551958511173
 20
899.87109893809918
 30
0.0
 11
335.22551958511173
 21
912.35611393809916
 31
0.0
  0
LINE
  5
BC46
  8
0
  6
AM_ISO08W050
 62
     0
 10
329.76951058511207
 20
905.79410293809906
 30
0.0
 11
340.50251258511111
 21
905.79410293809906
 31
0.0
  0
LINE
  5
BC47
  8
0
 62
     0
 10
390.22551958511173
 20
938.95010893809922
 30
0.0
 11
389.74851458511182
 21
938.95010893809922
 31
0.0
  0
LINE
  5
BC48
  8
0
 62
     0
 10
351.72551958511178
 20
907.56009393809916
 30
0.0
 11
428.72551958511139
 21
907.56009393809916
 31
0.0
  0
LINE
  5
BC49
  8
0
 62
     0
 10
428.72551958511139
 20
930.64609193809918
 30
0.0
 11
351.72551958511178
 21
930.64609193809918
 31
0.0
  0
LINE
  5
BC4A
  8
0
 62
     0
 10
325.22551958511161
 20
906.51638993809922
 30
0.0
 11
325.22551958511161
 21
910.26428593809942
 31
0.0
  0
LINE
  5
BC4B
  8
0
 62
     0
 10
327.37893758511149
 20
913.69332593809918
 30
0.0
 11
329.34867958511182
 21
914.81041293809926
 31
0.0
  0
ARC
  5
BC4C
  8
0
 62
     0
 10
351.72551958511178
 20
884.74012193809915
 30
0.0
 40
10.0
 50
179.99998200000081
 51
269.99996399997548
  0
ARC
  5
BC4D
  8
0
 62
     0
 10
352.24851458511182
 20
890.56610593809921
 30
0.0
 40
18.0
 50
179.99998200000081
 51
270.0
  0
ARC
  5
BC4E
  8
0
 62
     0
 10
351.72551958511178
 20
920.64609193809918
 30
0.0
 40
10.0
 50
90.0
 51
179.99998200000081
  0
ARC
  5
BC4F
  8
0
 62
     0
 10
351.72551958511178
 20
897.56009393809904
 30
0.0
 40
10.0
 50
90.0
 51
179.99998200000081
  0
ARC
  5
BC50
  8
0
 62
     0
 10
325.29950958511148
 20
918.37808693809916
 30
0.0
 40
9.0
 50
296.73468799997107
 51
359.89604200000917
  0
ARC
  5
BC51
  8
0
 62
     0
 10
325.250513585112
 20
891.50308693809905
 30
0.0
 40
9.0
 50
359.89604200000917
 51
62.022939999986953
  0
ARC
  5
BC52
  8
0
 62
     0
 10
325.29950958511148
 20
922.84808793809941
 30
0.0
 40
9.0
 50
296.73776600000627
 51
359.89604200000917
  0
LINE
  5
BC53
  8
0
 62
     0
 10
522.72549858511184
 20
957.60909693809924
 30
0.0
 11
515.77528558511165
 21
957.56044493809907
 31
0.0
  0
ARC
  5
BC54
  8
0
 62
     0
 10
509.38579758511167
 20
954.60910993809921
 30
0.0
 40
10.0
 50
269.99999700001541
 51
299.99999800001649
  0
ARC
  5
BC55
  8
0
 62
     0
 10
522.22551958511167
 20
956.10556993809905
 30
0.0
 40
1.5
 50
90.401064000021776
 51
180.0000050000005
  0
ARC
  5
BC56
  8
0
 62
     0
 10
518.72551958511167
 20
950.76377293809912
 30
0.0
 40
2.0
 50
299.99999800001649
 51
0.0
  0
LINE
  5
BC57
  8
0
 62
     0
 10
519.72552058511201
 20
949.0317469380991
 30
0.0
 11
514.38580658511125
 21
945.94886093809941
 31
0.0
  0
LINE
  5
BC58
  8
0
 62
     0
 10
520.72551958511156
 20
950.76377293809912
 30
0.0
 11
520.72551958511156
 21
956.10556993809905
 31
0.0
  0
LINE
  5
BC59
  8
0
 62
     0
 10
437.29729658511178
 20
944.6091099380991
 30
0.0
 11
509.38579758511167
 21
944.6091099380991
 31
0.0
  0
LINE
  5
BC5A
  8
0
 62
     0
 10
436.2255535851113
 20
940.60910793809921
 30
0.0
 11
439.00349858511203
 21
950.97653993809922
 31
0.0
  0
ARC
  5
BC5B
  8
0
 62
     0
 10
340.44982358511197
 20
943.10910993809921
 30
0.0
 40
3.0
 50
14.999999999994451
 51
90.000002999984659
  0
ARC
  5
BC5C
  8
0
 62
     0
 10
293.98382058511152
 20
951.10910993809921
 30
0.0
 40
5.0
 50
239.99999700002189
 51
269.99999700001541
  0
LINE
  5
BC5D
  8
0
 62
     0
 10
344.22550858511158
 20
940.6091579380992
 30
0.0
 11
343.34758658511191
 21
943.88560593809916
 31
0.0
  0
LINE
  5
BC5E
  8
0
 62
     0
 10
293.98382058511152
 20
946.10910993809921
 30
0.0
 11
340.44982358511197
 21
946.10910993809921
 31
0.0
  0
LINE
  5
BC5F
  8
0
 62
     0
 10
284.2134865851117
 20
950.97653993809922
 30
0.0
 11
291.48386158511181
 21
946.77898693809914
 31
0.0
  0
LINE
  5
BC61
  8
0
 62
     0
 10
508.68700658511221
 20
1003.020244938099
 30
0.0
 11
522.72551958511167
 21
1003.020244938099
 31
0.0
  0
LINE
  5
BC62
  8
0
 62
     0
 10
520.72558058511117
 20
973.40696293809935
 30
0.0
 11
504.53081758511178
 21
970.56858393809921
 31
0.0
  0
LINE
  5
BC63
  8
0
 62
     0
 10
504.53087858511162
 20
987.1276659380992
 30
0.0
 11
520.72558058511117
 21
990.15891593809908
 31
0.0
  0
LINE
  5
BC64
  8
0
 62
     0
 10
520.72558058511117
 20
1006.907695938099
 30
0.0
 11
504.53081758511178
 21
1001.678203938099
 31
0.0
  0
LINE
  5
BC65
  8
0
 62
     0
 10
520.72558058511117
 20
1022.842753938099
 30
0.0
 11
504.53081758511178
 21
1019.836772938099
 31
0.0
  0
LINE
  5
BC66
  8
0
 62
     0
 10
520.72558058511117
 20
1038.216044938099
 30
0.0
 11
504.53081758511178
 21
1036.4861869380991
 31
0.0
  0
LINE
  5
BC67
  8
0
 62
     0
 10
520.72558058511117
 20
1055.4299129380991
 30
0.0
 11
504.53081758511178
 21
1054.1987109380991
 31
0.0
  0
LINE
  5
BC68
  8
0
 62
     0
 10
508.68700658511221
 20
1142.197978938098
 30
0.0
 11
522.72551958511167
 21
1142.197978938098
 31
0.0
  0
LINE
  5
BC69
  8
0
 62
     0
 10
520.72558058511117
 20
1089.788310938098
 30
0.0
 11
504.53081758511178
 21
1091.019511938099
 31
0.0
  0
LINE
  5
BC6A
  8
0
 62
     0
 10
520.72558058511117
 20
1107.0021779380991
 30
0.0
 11
504.53081758511178
 21
1108.7320369380991
 31
0.0
  0
LINE
  5
BC6B
  8
0
 62
     0
 10
520.72558058511117
 20
1122.375468938098
 30
0.0
 11
504.53081758511178
 21
1125.3814509380991
 31
0.0
  0
LINE
  5
BC6C
  8
0
 62
     0
 10
520.72558058511117
 20
1138.3105279380991
 30
0.0
 11
504.53081758511178
 21
1143.540019938099
 31
0.0
  0
LINE
  5
BC6D
  8
0
 62
     0
 10
504.53087858511162
 20
1158.0905569380991
 30
0.0
 11
520.72558058511117
 21
1155.0593069380991
 31
0.0
  0
LINE
  5
BC6E
  8
0
 62
     0
 10
520.72558058511117
 20
1171.8112599380991
 30
0.0
 11
504.53081758511178
 21
1174.6496389380991
 31
0.0
  0
LINE
  5
BC6F
  8
0
 62
     0
 10
520.72558058511117
 20
1176.647197938099
 30
0.0
 11
504.53081758511178
 21
1185.499247938099
 31
0.0
  0
LINE
  5
BC70
  8
0
 62
     0
 10
520.72558058511117
 20
1184.759257938098
 30
0.0
 11
504.53081758511178
 21
1194.241679938099
 31
0.0
  0
LINE
  5
BC71
  8
0
 62
     0
 10
520.72558058511117
 20
1190.8134569380991
 30
0.0
 11
504.53081758511178
 21
1200.4544489380989
 31
0.0
  0
LINE
  5
BC72
  8
0
 62
     0
 10
520.72558058511117
 20
1194.3847469380989
 30
0.0
 11
504.53081758511178
 21
1204.314799938099
 31
0.0
  0
LINE
  5
BC73
  8
0
 62
     0
 10
278.2255405851115
 20
1204.314799938099
 30
0.0
 11
504.53069558511118
 21
1204.314799938099
 31
0.0
  0
LINE
  5
BC74
  8
0
 62
     0
 10
278.2255405851115
 20
1200.4544489380989
 30
0.0
 11
504.53081758511178
 21
1200.4544489380989
 31
0.0
  0
LINE
  5
BC75
  8
0
 62
     0
 10
278.2255405851115
 20
1194.241679938099
 30
0.0
 11
504.53087858511162
 21
1194.241679938099
 31
0.0
  0
LINE
  5
BC76
  8
0
 62
     0
 10
278.2255405851115
 20
1185.499247938099
 30
0.0
 11
504.53087858511162
 21
1185.499247938099
 31
0.0
  0
LINE
  5
BC77
  8
0
 62
     0
 10
278.2255405851115
 20
1174.6493799380989
 30
0.0
 11
504.5303295851113
 21
1174.6496389380991
 31
0.0
  0
LINE
  5
BC78
  8
0
 62
     0
 10
278.2255405851115
 20
1158.0905569380991
 30
0.0
 11
504.53057358511199
 21
1158.0905569380991
 31
0.0
  0
LINE
  5
BC79
  8
0
 62
     0
 10
278.2255405851115
 20
1143.540019938099
 30
0.0
 11
504.53087858511162
 21
1143.540019938099
 31
0.0
  0
LINE
  5
BC7A
  8
0
 62
     0
 10
278.2255405851115
 20
1125.381328938098
 30
0.0
 11
504.531000585112
 21
1125.381328938098
 31
0.0
  0
LINE
  5
BC7B
  8
0
 62
     0
 10
278.2255405851115
 20
1108.7328699380989
 30
0.0
 11
504.5307565851121
 21
1108.7320369380991
 31
0.0
  0
LINE
  5
BC7C
  8
0
 62
     0
 10
278.2255405851115
 20
1091.019511938099
 30
0.0
 11
504.53148858511167
 21
1091.019511938099
 31
0.0
  0
LINE
  5
BC7E
  8
0
 62
     0
 10
278.2255405851115
 20
987.1276659380992
 30
0.0
 11
504.53057358511199
 21
987.1276659380992
 31
0.0
  0
LINE
  5
BC7F
  8
0
 62
     0
 10
278.2255405851115
 20
1001.678203938099
 30
0.0
 11
504.53087858511162
 21
1001.678203938099
 31
0.0
  0
LINE
  5
BC80
  8
0
 62
     0
 10
278.2255405851115
 20
1019.836894938099
 30
0.0
 11
504.531000585112
 21
1019.836894938099
 31
0.0
  0
LINE
  5
BC81
  8
0
 62
     0
 10
278.2255405851115
 20
1036.485353938099
 30
0.0
 11
504.5307565851121
 21
1036.4861869380991
 31
0.0
  0
LINE
  5
BC82
  8
0
 62
     0
 10
278.2255405851115
 20
1054.1987109380991
 30
0.0
 11
504.53148858511167
 21
1054.1987109380991
 31
0.0
  0
CIRCLE
  5
BC83
  8
0
 62
     0
 10
390.22551958511173
 20
1072.609056938099
 30
0.0
 40
11.5
  0
LINE
  5
BC84
  8
0
 62
     0
 10
278.2255405851115
 20
970.56884293809935
 30
0.0
 11
504.53081758511178
 21
970.56858393809921
 31
0.0
  0
LINE
  5
BC85
  8
0
 62
     0
 10
520.72558058511117
 20
1171.8112599380991
 30
0.0
 11
520.72558058511117
 21
1195.679056938098
 31
0.0
  0
LINE
  5
BC86
  8
0
 62
     0
 10
520.72570258511166
 20
1155.059062938099
 30
0.0
 11
522.72551958511167
 21
1155.059062938099
 31
0.0
  0
LINE
  5
BC87
  8
0
 62
     0
 10
520.72558058511117
 20
1119.061992938098
 30
0.0
 11
520.72564158511113
 21
1122.375468938098
 31
0.0
  0
LINE
  5
BC88
  8
0
 62
     0
 10
520.72564158511113
 20
1133.8030809380989
 30
0.0
 11
520.72558058511117
 21
1138.3105279380991
 31
0.0
  0
LINE
  5
BC89
  8
0
 62
     0
 10
520.72558058511117
 20
1107.0021779380991
 30
0.0
 11
520.72558058511117
 21
1104.0810359380989
 31
0.0
  0
LINE
  5
BC8A
  8
0
 62
     0
 10
520.72558058511117
 20
1089.788310938098
 30
0.0
 11
520.72558058511117
 21
1088.786357938098
 31
0.0
  0
LINE
  5
BC8B
  8
0
 62
     0
 10
520.72570258511166
 20
990.15916093809926
 30
0.0
 11
522.72551958511167
 21
990.15916093809926
 31
0.0
  0
LINE
  5
BC8C
  8
0
 62
     0
 10
520.72564158511113
 20
1011.4151419380991
 30
0.0
 11
520.72558058511117
 21
1006.907695938099
 31
0.0
  0
LINE
  5
BC8D
  8
0
 62
     0
 10
520.72558058511117
 20
1026.156230938099
 30
0.0
 11
520.72564158511113
 21
1022.842753938099
 31
0.0
  0
LINE
  5
BC8E
  8
0
 62
     0
 10
520.72558058511117
 20
1038.216044938099
 30
0.0
 11
520.72558058511117
 21
1041.137187938099
 31
0.0
  0
LINE
  5
BC8F
  8
0
 62
     0
 10
520.72558058511117
 20
1055.4299129380991
 30
0.0
 11
520.72558058511117
 21
1056.431865938099
 31
0.0
  0
LINE
  5
BC90
  8
0
 62
     0
 10
520.72558058511117
 20
968.57102193809908
 30
0.0
 11
504.53081758511178
 21
959.71897193809923
 31
0.0
  0
LINE
  5
BC91
  8
0
 62
     0
 10
278.2255405851115
 20
959.71897193809923
 30
0.0
 11
504.53087858511162
 21
959.71897193809923
 31
0.0
  0
LINE
  5
BC92
  8
0
 62
     0
 10
520.72558058511117
 20
973.40696293809935
 30
0.0
 11
520.72558058511117
 21
960.45896193809926
 31
0.0
  0
LINE
  5
BC93
  8
0
 62
     0
 10
520.72558058511117
 20
960.45896193809926
 30
0.0
 11
504.53081758511178
 21
950.97653993809922
 31
0.0
  0
LINE
  5
BC94
  8
0
 62
     0
 10
278.2255405851115
 20
950.97653993809922
 30
0.0
 11
504.53087858511162
 21
950.97653993809922
 31
0.0
  0
LINE
  5
BC95
  8
0
 62
     0
 10
522.72551958511167
 20
1187.6091229380991
 30
0.0
 11
522.72551958511167
 21
957.60910993809921
 31
0.0
  0
TEXT
  5
C543
  8
0
  6
CONTINUOUS
 62
     0
 10
971.3883119361218
 20
1077.3771701253991
 30
0.0
 40
15.0
  1
VX75-025EM~VX75-030EM
  0
ENDSEC
  0
EOF
