  0
SECTION
  2
HEADER
  9
$ACADVER
  1
AC1009
  9
$INSBASE
 10
0.0
 20
0.0
 30
0.0
  9
$EXTMIN
 10
223.13819671972811
 20
502.08667821634481
 30
-0.000000000000013
  9
$EXTMAX
 10
1596.8222398847729
 20
1539.5946543145601
 30
0.0000000000000023
  9
$LIMMIN
 10
0.0000005999945643
 20
-0.0000005963913736
  9
$LIMMAX
 10
1991.5000005999941
 20
1294.9999994036091
  9
$ORTHOMODE
 70
     0
  9
$REGENMODE
 70
     1
  9
$FILLMODE
 70
     1
  9
$QTEXTMODE
 70
     0
  9
$MIRRTEXT
 70
     0
  9
$DRAGMODE
 70
     2
  9
$LTSCALE
 40
1.0
  9
$OSMODE
 70
   551
  9
$ATTMODE
 70
     1
  9
$TEXTSIZE
 40
2.5
  9
$TRACEWID
 40
1.0
  9
$TEXTSTYLE
  7
STANDARD
  9
$CLAYER
  8
0
  9
$CELTYPE
  6
BYLAYER
  9
$CECOLOR
 62
   256
  9
$DIMSCALE
 40
1.0
  9
$DIMASZ
 40
2.0
  9
$DIMEXO
 40
1.0
  9
$DIMDLI
 40
8.0
  9
$DIMRND
 40
0.0
  9
$DIMDLE
 40
0.0
  9
$DIMEXE
 40
1.0
  9
$DIMTP
 40
-0.025
  9
$DIMTM
 40
0.043
  9
$DIMTXT
 40
2.5
  9
$DIMCEN
 40
0.0
  9
$DIMTSZ
 40
0.0
  9
$DIMTOL
 70
     0
  9
$DIMLIM
 70
     0
  9
$DIMTIH
 70
     0
  9
$DIMTOH
 70
     0
  9
$DIMSE1
 70
     0
  9
$DIMSE2
 70
     0
  9
$DIMTAD
 70
     3
  9
$DIMZIN
 70
     8
  9
$DIMBLK
  1

  9
$DIMASO
 70
     1
  9
$DIMSHO
 70
     1
  9
$DIMPOST
  1

  9
$DIMAPOST
  1
"
  9
$DIMALT
 70
     0
  9
$DIMALTD
 70
     2
  9
$DIMALTF
 40
0.0393701
  9
$DIMLFAC
 40
1.0
  9
$DIMTOFL
 70
     1
  9
$DIMTVP
 40
0.0
  9
$DIMTIX
 70
     0
  9
$DIMSOXD
 70
     0
  9
$DIMSAH
 70
     0
  9
$DIMBLK1
  1

  9
$DIMBLK2
  1

  9
$DIMSTYLE
  2
AM_JIS
  9
$DIMCLRD
 70
     2
  9
$DIMCLRE
 70
     2
  9
$DIMCLRT
 70
     4
  9
$DIMTFAC
 40
0.71
  9
$DIMGAP
 40
1.5
  9
$LUNITS
 70
     2
  9
$LUPREC
 70
     2
  9
$SKETCHINC
 40
1.0
  9
$FILLETRAD
 40
0.0
  9
$AUNITS
 70
     0
  9
$AUPREC
 70
     0
  9
$MENU
  1
.
  9
$ELEVATION
 40
0.0
  9
$PELEVATION
 40
0.0
  9
$THICKNESS
 40
0.0
  9
$LIMCHECK
 70
     0
  9
$BLIPMODE
 70
     0
  9
$CHAMFERA
 40
3.5
  9
$CHAMFERB
 40
3.5
  9
$SKPOLY
 70
     0
  9
$TDCREATE
 40
2456829.3841110538
  9
$TDUPDATE
 40
2458540.6916498728
  9
$TDINDWG
 40
0.6519009259
  9
$TDUSRTIMER
 40
0.6519005093
  9
$USRTIMER
 70
     1
  9
$ANGBASE
 50
0.0
  9
$ANGDIR
 70
     0
  9
$PDMODE
 70
     0
  9
$PDSIZE
 40
0.0
  9
$PLINEWID
 40
0.0
  9
$COORDS
 70
     1
  9
$SPLFRAME
 70
     0
  9
$SPLINETYPE
 70
     6
  9
$SPLINESEGS
 70
     8
  9
$ATTDIA
 70
     1
  9
$ATTREQ
 70
     1
  9
$HANDLING
 70
     1
  9
$HANDSEED
  5
EC99
  9
$SURFTAB1
 70
     6
  9
$SURFTAB2
 70
     6
  9
$SURFTYPE
 70
     6
  9
$SURFU
 70
     6
  9
$SURFV
 70
     6
  9
$UCSNAME
  2

  9
$UCSORG
 10
0.0
 20
0.0
 30
0.0
  9
$UCSXDIR
 10
1.0
 20
0.0
 30
0.0
  9
$UCSYDIR
 10
0.0
 20
1.0
 30
0.0
  9
$PUCSNAME
  2

  9
$PUCSORG
 10
0.0
 20
0.0
 30
0.0
  9
$PUCSXDIR
 10
1.0
 20
0.0
 30
0.0
  9
$PUCSYDIR
 10
0.0
 20
1.0
 30
0.0
  9
$USERI1
 70
     0
  9
$USERI2
 70
     0
  9
$USERI3
 70
     0
  9
$USERI4
 70
     0
  9
$USERI5
 70
     0
  9
$USERR1
 40
0.0
  9
$USERR2
 40
0.0
  9
$USERR3
 40
0.0
  9
$USERR4
 40
0.0
  9
$USERR5
 40
0.0
  9
$WORLDVIEW
 70
     1
  9
$SHADEDGE
 70
     3
  9
$SHADEDIF
 70
    70
  9
$TILEMODE
 70
     1
  9
$MAXACTVP
 70
    64
  9
$PLIMCHECK
 70
     0
  9
$PEXTMIN
 10
1.0000000000000000E+020
 20
1.0000000000000000E+020
 30
1.0000000000000000E+020
  9
$PEXTMAX
 10
-1.0000000000000000E+020
 20
-1.0000000000000000E+020
 30
-1.0000000000000000E+020
  9
$PLIMMIN
 10
0.0
 20
0.0
  9
$PLIMMAX
 10
420.0
 20
297.0
  9
$UNITMODE
 70
     0
  9
$VISRETAIN
 70
     1
  9
$PLINEGEN
 70
     0
  9
$PSLTSCALE
 70
     1
  0
ENDSEC
  0
SECTION
  2
TABLES
  0
TABLE
  2
VPORT
 70
     1
  0
VPORT
  2
*ACTIVE
 70
     0
 10
0.0
 20
0.0
 11
1.0
 21
1.0
 12
909.98021830225093
 22
1020.840666265453
 13
0.0
 23
0.0
 14
17.5
 24
17.5
 15
70.0
 25
70.0
 16
0.0
 26
0.0
 36
1.0
 17
0.0
 27
0.0
 37
0.0
 40
1044.630456483329
 41
1.7571592210767459
 42
50.0
 43
0.0
 44
0.0
 50
0.0
 51
0.0
 71
     0
 72
  1000
 73
     1
 74
     3
 75
     0
 76
     0
 77
     0
 78
     0
  0
ENDTAB
  0
TABLE
  2
LTYPE
 70
    25
  0
LTYPE
  2
CONTINUOUS
 70
     0
  3
Solid line
 72
    65
 73
     0
 40
0.0
  0
LTYPE
  2
CENTER
 70
     0
  3
Center ____ _ ____ _ ____ _ ____ _ ____ _ ____
 72
    65
 73
     4
 40
50.799999999999997
 49
31.75
 49
-6.349999999999997
 49
6.349999999999997
 49
-6.349999999999997
  0
LTYPE
  2
AM_ISO02W050
 70
     0
  3
__ __ __ __ __ __ __ __ __ __ __ __ __ __ __
 72
    65
 73
     2
 40
7.5
 49
6.0
 49
-1.5
  0
LTYPE
  2
AM_ISO08W050
 70
     0
  3
____ . ____ . ____ . ____ . ____ . ____ . ____
 72
    65
 73
     4
 40
18.0
 49
12.0
 49
-1.5
 49
3.0
 49
-1.5
  0
LTYPE
  2
AM_ISO09W050
 70
     0
  3
_____ . . _____ . . _____ . . ____ .. ____
 72
    65
 73
     6
 40
22.5
 49
12.0
 49
-1.5
 49
3.0
 49
-1.5
 49
3.0
 49
-1.5
  0
LTYPE
  2
AMCONSTR
 70
     0
  3
_______________________
 72
    65
 73
     2
 40
9999.0
 49
9999.0
 49
0.0
  0
LTYPE
  2
AM_ISO08W050X2
 70
     0
  3
__ . __ . __ . __ . __ . __
 72
    65
 73
     4
 40
9.0
 49
6.0
 49
-0.75
 49
1.5
 49
-0.75
  0
LTYPE
  2
AM_ISO02W050X2
 70
     0
  3
 _ _ _ _ _ _ _ _ _ _ _ _
 72
    65
 73
     2
 40
3.75
 49
3.0
 49
-0.75
  0
LTYPE
  2
AMZIGZAG
 70
     0
  3
/\/-/\/-/\/-/\/-/\/-/\/
 72
    65
 73
     2
 40
11.0001
 49
0.0001
 49
-11.0
  0
LTYPE
  2
ACANSTGBM
 70
     0
  3
__ . . __ . .
 72
    65
 73
     6
 40
9.0
 49
4.0
 49
-1.0
 49
1.0
 49
-1.0
 49
1.0
 49
-1.0
  0
LTYPE
  2
ACANSTGLM
 70
     0
  3
_ _ _ _ _
 72
    65
 73
     2
 40
3.0
 49
2.0
 49
-1.0
  0
LTYPE
  2
ACISOWELD
 70
     0
  3
_ _ _ _ _
 72
    65
 73
     2
 40
2.0
 49
2.0
 49
-1.0
  0
LTYPE
  2
ACISOTGB
 70
     0
  3
__ . . __ . .
 72
    65
 73
     6
 40
9.0
 49
4.0
 49
-1.0
 49
1.0
 49
-1.0
 49
1.0
 49
-1.0
  0
LTYPE
  2
ACISOTGL
 70
     0
  3
_ _ _ _ _
 72
    65
 73
     2
 40
3.0
 49
2.0
 49
-1.0
  0
LTYPE
  2
ACJISWELD
 70
     0
  3
_ _ _ _ _
 72
    65
 73
     2
 40
2.0
 49
2.0
 49
-1.0
  0
LTYPE
  2
ACJISTGB
 70
     0
  3
__ . . __ . .
 72
    65
 73
     6
 40
9.0
 49
4.0
 49
-1.0
 49
1.0
 49
-1.0
 49
1.0
 49
-1.0
  0
LTYPE
  2
ACJISTGL
 70
     0
  3
_ _ _ _ _
 72
    65
 73
     2
 40
3.0
 49
2.0
 49
-1.0
  0
LTYPE
  2
HIDDEN
 70
     0
  3
Hidden __ __ __ __ __ __ __ __ __ __ __ __ __ _
 72
    65
 73
     2
 40
0.375
 49
0.25
 49
-0.125
  0
LTYPE
  2
PHANTOM2
 70
     0
  3
Phantom (.5x) ___ _ _ ___ _ _ ___ _ _ ___ _ _
 72
    65
 73
     6
 40
1.25
 49
0.625
 49
-0.125
 49
0.125
 49
-0.125
 49
0.125
 49
-0.125
  0
LTYPE
  2
CENTER2
 70
     0
  3
Center (.5x) ___ _ ___ _ ___ _ ___ _ ___ _ ___
 72
    65
 73
     4
 40
1.125
 49
0.75
 49
-0.125
 49
0.125
 49
-0.125
  0
LTYPE
  2
HIDDEN2
 70
     0
  3
Hidden (.5x) _ _ _ _ _ _ _ _ _ _ _ _ _ _ _ _ _
 72
    65
 73
     2
 40
0.1875
 49
0.125
 49
-0.0625
  0
LTYPE
  2
AMZIGZAG2
 70
     0
  3
/\/-/\/-/\/-/\/-/\/-/\/
 72
    65
 73
     2
 40
0.4401
 49
0.0001
 49
-0.4400000000000003
  0
LTYPE
  2
ACANSTGB
 70
     0
  3
__ . . __ . .
 72
    65
 73
     6
 40
0.35433070866
 49
0.15748031496
 49
-0.03937007874
 49
0.03937007874
 49
-0.03937007874
 49
0.03937007874
 49
-0.03937007874
  0
LTYPE
  2
ACANSTGL
 70
     0
  3
_ _ _ _ _
 72
    65
 73
     2
 40
0.11811023622
 49
0.07874015748
 49
-0.03937007874
  0
ENDTAB
  0
TABLE
  2
LAYER
 70
     6
  0
LAYER
  2
0
 70
     0
 62
     7
  6
CONTINUOUS
  0
LAYER
  2
DEFPOINTS
 70
     0
 62
     7
  6
CONTINUOUS
  0
LAYER
  2
AM_CL
 70
     0
 62
     1
  6
AMCONSTR
  0
LAYER
  2
LY_1
 70
     0
 62
     7
  6
CONTINUOUS
  0
LAYER
  2
AM_7
 70
     0
 62
     4
  6
CENTER
  0
LAYER
  2
AM_5
 70
     0
 62
     3
  6
CONTINUOUS
  0
ENDTAB
  0
TABLE
  2
STYLE
 70
    11
  0
STYLE
  2
STANDARD
 70
     0
 40
0.0
 41
0.7400000000000003
 50
0.0
 71
     0
 42
2.5
  3
txt.shx
  4
bigfont.shx
  0
STYLE
  2
ANNOTATIVE
 70
     0
 40
0.0
 41
1.0
 50
0.0
 71
     0
 42
0.2
  3
txt
  4

  0
STYLE
  2

 70
     1
 40
0.0
 41
1.0
 50
0.0
 71
     0
 42
2.5
  3
ltypeshp.shx
  4

  0
STYLE
  2
ACANSTS
 70
     0
 40
1.0
 41
1.0
 50
0.0
 71
     0
 42
2.5
  3
romans.shx
  4
bigfont.shx
  0
STYLE
  2
ACANSGDT
 70
     0
 40
0.0
 41
1.0
 50
0.0
 71
     0
 42
2.5
  3
amgdt.shx
  4

  0
STYLE
  2
ACISOTS
 70
     0
 40
1.0
 41
1.0
 50
0.0
 71
     0
 42
2.5
  3
isocp.shx
  4
extfont.shx
  0
STYLE
  2
ACISOGDT
 70
     0
 40
0.0
 41
1.0
 50
0.0
 71
     0
 42
2.5
  3
amgdt.shx
  4

  0
STYLE
  2
ACJISGDT
 70
     0
 40
0.0
 41
1.0
 50
0.0
 71
     0
 42
2.5
  3
amgdt.shx
  4

  0
STYLE
  2
ACJISTS
 70
     0
 40
1.0
 41
1.0
 50
0.0
 71
     0
 42
2.5
  3
isocp.shx
  4
extfont.shx
  0
STYLE
  2

 70
     1
 40
0.0
 41
1.0
 50
0.0
 71
     0
 42
2.5
  3
genltshp.shx
  4

  0
STYLE
  2
MX_NOTE_STANDARD
 70
     0
 40
0.0
 41
1.0
 50
0.0
 71
     0
 42
3.2000000000000002
  3
txt.shx
  4
extfont.shx
  0
ENDTAB
  0
TABLE
  2
VIEW
 70
     6
  0
VIEW
  2
AM_VIEW1
 70
     0
 40
647.50000000000011
 10
684.36832800212994
 20
971.24999940360885
 41
1368.7366548042701
 11
0.0
 21
0.0
 31
1.0
 12
0.0
 22
0.0
 32
0.0
 42
50.0
 43
0.0
 44
0.0
 50
0.0
 71
     0
  0
VIEW
  2
AM_VIEW2
 70
     0
 40
647.50000000000011
 10
1307.1316731978591
 20
971.24999940360885
 41
1368.7366548042701
 11
0.0
 21
0.0
 31
1.0
 12
0.0
 22
0.0
 32
0.0
 42
50.0
 43
0.0
 44
0.0
 50
0.0
 71
     0
  0
VIEW
  2
AM_VIEW3
 70
     0
 40
647.50000000000011
 10
684.36832800212994
 20
323.74999940360868
 41
1368.7366548042701
 11
0.0
 21
0.0
 31
1.0
 12
0.0
 22
0.0
 32
0.0
 42
50.0
 43
0.0
 44
0.0
 50
0.0
 71
     0
  0
VIEW
  2
AM_VIEW4
 70
     0
 40
647.50000000000011
 10
1307.1316731978591
 20
323.74999940360868
 41
1368.7366548042701
 11
0.0
 21
0.0
 31
1.0
 12
0.0
 22
0.0
 32
0.0
 42
50.0
 43
0.0
 44
0.0
 50
0.0
 71
     0
  0
VIEW
  2
AM_VIEW5
 70
     0
 40
647.50000000000011
 10
995.75000059999434
 20
647.49999940360874
 41
1368.736654804271
 11
0.0
 21
0.0
 31
1.0
 12
0.0
 22
0.0
 32
0.0
 42
50.0
 43
0.0
 44
0.0
 50
0.0
 71
     0
  0
VIEW
  2
AM_VIEW6
 70
     0
 40
1294.98705
 10
995.75000059999434
 20
647.49999940360863
 41
2737.4459348754458
 11
0.0
 21
0.0
 31
1.0
 12
0.0
 22
0.0
 32
0.0
 42
50.0
 43
0.0
 44
0.0
 50
0.0
 71
     0
  0
ENDTAB
  0
TABLE
  2
UCS
 70
     0
  0
ENDTAB
  0
TABLE
  2
APPID
 70
   158
  0
APPID
  2
ACAD
 70
     0
  0
APPID
  2
ACADANNOTATIVE
 70
     0
  0
APPID
  2
ACAD_MLEADERVER
 70
     0
  0
APPID
  2
MCAD_NO_VIS
 70
     0
  0
APPID
  2
ACAD_TEMP_GRAPHIC
 70
     0
  0
APPID
  2
AD_DRAW
 70
     0
  0
APPID
  2
ACATTRIBSERVICES
 70
     0
  0
APPID
  2
DESIGNERASSEMBLIES
 70
     0
  0
APPID
  2
ACADM_DIM_EDIT
 70
     0
  0
APPID
  2
AMDT_DM_ADJ
 70
     0
  0
APPID
  2
GENIUS_GENDIMSH_14
 70
     0
  0
APPID
  2
GEVID1057795304
 70
     0
  0
APPID
  2
GEVDC
 70
     0
  0
APPID
  2
GEVCON
 70
     0
  0
APPID
  2
GENIUS_GENBH_13
 70
     0
  0
APPID
  2
GENIUS_GENOENT_13
 70
     0
  0
APPID
  2
GENIUS_GENOBJ-NBEHI-BHF_13
 70
     0
  0
APPID
  2
GENIUS_GENOLIS_13
 70
     0
  0
APPID
  2
GENIUS_GENODEF_13
 70
     0
  0
APPID
  2
GENIUS_GENOREF_13
 70
     0
  0
APPID
  2
GENIUS_GENOBJ-NBEHI-BHB_13
 70
     0
  0
APPID
  2
GENIUS_GENOBJ-F-SCPASSM_13
 70
     0
  0
APPID
  2
GENIUS_GENDTOL_13
 70
     0
  0
APPID
  2
GENIUS_GENTRA_14
 70
     0
  0
APPID
  2
ASURF_PCURVE_APPNAME
 70
     0
  0
APPID
  2
GENIUS_GENCFG_13
 70
     0
  0
APPID
  2
GENIUS_GE3CFG0_13
 70
     0
  0
APPID
  2
GENIUS_GENCFG0_13
 70
     0
  0
APPID
  2
GENIUS_GENCFG1_13
 70
     0
  0
APPID
  2
GENIUS_GENCFG2_13
 70
     0
  0
APPID
  2
GENIUS_GENCFG3_13
 70
     0
  0
APPID
  2
GENIUS_GENCFG4_13
 70
     0
  0
APPID
  2
GENIUS_GEVCFG0_13
 70
     0
  0
APPID
  2
GENIUS_GENOBJ-N-TIT_13
 70
     0
  0
APPID
  2
GENIUS_GENTITLE_13
 70
     0
  0
APPID
  2
GENIUS_GENSCREG_15
 70
     0
  0
APPID
  2
GENIUS_GENOBJ-N-SDF_13
 70
     0
  0
APPID
  2
GENIUS_GENFIL_13
 70
     0
  0
APPID
  2
GENIUS_GENOBJ-N-CHA_13
 70
     0
  0
APPID
  2
GENIUS_GEFSH_13
 70
     0
  0
APPID
  2
GENIUS_GENOBJ-F-SHS_13
 70
     0
  0
APPID
  2
GENIUS_GENOBJ-N-CEN_13
 70
     0
  0
APPID
  2
GENIUS_GENREC_14
 70
     0
  0
APPID
  2
GENIUS_GENOBJ-N-REC_13
 70
     0
  0
APPID
  2
GENIUS_GENOBJ-N-HTC_13
 70
     0
  0
APPID
  2
GENIUS_GENHATCH_13
 70
     0
  0
APPID
  2
ACAD_PSEXT
 70
     0
  0
APPID
  2
ACAD_EXEMPT_FROM_CAD_STANDARDS
 70
     0
  0
APPID
  2
ACAECLAYERSTANDARD
 70
     0
  0
APPID
  2
GENIUS_GENCEN_19
 70
     0
  0
APPID
  2
ACAD_DSTYLE_DIMINSPECT
 70
     0
  0
APPID
  2
ACAD_DSTYLE_DIMANGULAR_EXT
 70
     0
  0
APPID
  2
ACADANNOPO
 70
     0
  0
APPID
  2
ACAD_NAV_VCDISPLAY
 70
     0
  0
APPID
  2
GENIUS_GENOBJ-N-FIL_13
 70
     0
  0
APPID
  2
ACAD_DSTYLE_DIMBREAK
 70
     0
  0
APPID
  2
ACAD_DSTYLE_DIMJAG
 70
     0
  0
APPID
  2
ACAD_DSTYLE_DIMRADIAL_EXTENSION
 70
     0
  0
APPID
  2
GENIUS_GENHINW_13
 70
     0
  0
APPID
  2
GENIUS_FIRSTVISTXT_14
 70
     0
  0
APPID
  2
GENIUS_GENOBJ-N-LEADER_13
 70
     0
  0
APPID
  2
GENIUS_DUMCFG0_13
 70
     0
  0
APPID
  2
ACAD_DSTYLE_DIMTEXT_FILL
 70
     0
  0
APPID
  2
AMG_2DHIDE
 70
     0
  0
APPID
  2
GENIUS_GEFSHEP_13
 70
     0
  0
APPID
  2
GENIUS_GENOBJ-F-SHE_13
 70
     0
  0
APPID
  2
GENIUS_GEFSHE_13
 70
     0
  0
APPID
  2
ACAD_DIMASSOC_DIMLFAC
 70
     0
  0
APPID
  2
ACAD_DIMASSOC_CALC_DIMLFAC
 70
     0
  0
APPID
  2
ACAD_DIMASSOC_OVERRIDDEN_D
 70
     0
  0
APPID
  2
GENIUS_GENOBJ-F-SHSV_13
 70
     0
  0
APPID
  2
GENIUS_GEFWELD_13
 70
     0
  0
APPID
  2
GENIUS_GENOBJ-N-CRS_13
 70
     0
  0
APPID
  2
GENIUS_GENOBJ-N-RSBK_13
 70
     0
  0
APPID
  2
GENIUS_GENOBJ-N-LIB_13
 70
     0
  0
APPID
  2
GENIUS_GENSCALE_13
 70
     0
  0
APPID
  2
GENIUS_GENDREL_13
 70
     0
  0
APPID
  2
GEVPT
 70
     0
  0
APPID
  2
GEVIT
 70
     0
  0
APPID
  2
VCC
 70
     0
  0
APPID
  2
GENBH
 70
     0
  0
APPID
  2
GEVMK
 70
     0
  0
APPID
  2
GENIUS_GENOBJ-F-DESC_13
 70
     0
  0
APPID
  2
GENIUS_GEFDESC_14
 70
     0
  0
APPID
  2
GENIUS_GENOBJ-F-FEAT_13
 70
     0
  0
APPID
  2
GENIUS_GEFFEAT_14
 70
     0
  0
APPID
  2
GENIUS_GEFPARTINS_13
 70
     0
  0
APPID
  2
GENIUS_GENSCREG_13
 70
     0
  0
APPID
  2
GENIUS_GEFSHP_13
 70
     0
  0
APPID
  2
GEVID1025574798
 70
     0
  0
APPID
  2
GEVID1025574769
 70
     0
  0
APPID
  2
GEVID1025757451
 70
     0
  0
APPID
  2
GEVID1240528327
 70
     0
  0
APPID
  2
AMG_2DSTRUCT_BTR
 70
     0
  0
APPID
  2
ACADM_2DVIEW_IGN_NOTIFY
 70
     0
  0
APPID
  2
GEVID1240528328
 70
     0
  0
APPID
  2
GEVID1240528329
 70
     0
  0
APPID
  2
GEVRADREF
 70
     0
  0
APPID
  2
GEVID1240528330
 70
     0
  0
APPID
  2
GEVID1240528331
 70
     0
  0
APPID
  2
GEVID1240528332
 70
     0
  0
APPID
  2
GEVID1240791080
 70
     0
  0
APPID
  2
GEVID1240791081
 70
     0
  0
APPID
  2
GEVID1240791082
 70
     0
  0
APPID
  2
GEVID1240791083
 70
     0
  0
APPID
  2
GEVID1240791084
 70
     0
  0
APPID
  2
GEVID1240791085
 70
     0
  0
APPID
  2
GEVID1240791086
 70
     0
  0
APPID
  2
GEVID1240791087
 70
     0
  0
APPID
  2
GEVID1240791088
 70
     0
  0
APPID
  2
GEVID1240791089
 70
     0
  0
APPID
  2
GEVID1240791090
 70
     0
  0
APPID
  2
GEVID1240791091
 70
     0
  0
APPID
  2
GEVID1240791092
 70
     0
  0
APPID
  2
GEVID1240791093
 70
     0
  0
APPID
  2
GEVID1240791094
 70
     0
  0
APPID
  2
GEVID1240791095
 70
     0
  0
APPID
  2
GEVID1240791096
 70
     0
  0
APPID
  2
GEVID1240791097
 70
     0
  0
APPID
  2
GEVID1240791098
 70
     0
  0
APPID
  2
GEVID1240791099
 70
     0
  0
APPID
  2
GEVID1240791100
 70
     0
  0
APPID
  2
GEVID1240791101
 70
     0
  0
APPID
  2
GEVID1240791102
 70
     0
  0
APPID
  2
GEVID1240791103
 70
     0
  0
APPID
  2
GEVID1240791104
 70
     0
  0
APPID
  2
GEVID1240791105
 70
     0
  0
APPID
  2
GEVID1240875381
 70
     0
  0
APPID
  2
GEVID1240875382
 70
     0
  0
APPID
  2
GEVID1240875383
 70
     0
  0
APPID
  2
GEVID1240875384
 70
     0
  0
APPID
  2
GEVID1240875385
 70
     0
  0
APPID
  2
GEVID1240875386
 70
     0
  0
APPID
  2
GEVID1240875387
 70
     0
  0
APPID
  2
GEVID1240875388
 70
     0
  0
APPID
  2
GEVID1240875389
 70
     0
  0
APPID
  2
GEVID1240875390
 70
     0
  0
APPID
  2
GEVID1240875391
 70
     0
  0
APPID
  2
GEVID1240875392
 70
     0
  0
APPID
  2
GEVID1240875393
 70
     0
  0
APPID
  2
GEVID1240875394
 70
     0
  0
APPID
  2
GEVID1240875395
 70
     0
  0
APPID
  2
GEVID1240875396
 70
     0
  0
APPID
  2
GEVID1240875397
 70
     0
  0
APPID
  2
GEVID1240875398
 70
     0
  0
APPID
  2
GEVID1240875399
 70
     0
  0
APPID
  2
GEVID1240908996
 70
     0
  0
APPID
  2
GEVID1240908997
 70
     0
  0
APPID
  2
GEVID1240908998
 70
     0
  0
APPID
  2
GEVID1240908999
 70
     0
  0
APPID
  2
GEVID1240909000
 70
     0
  0
APPID
  2
GENIUS_GENOBJ-N-ZOO_13
 70
     0
  0
APPID
  2
GENIUS_GENZOO_17
 70
     0
  0
APPID
  2
GENIUS_GE3SECT_13
 70
     0
  0
APPID
  2
GEV_VCCNULL_SWITCH_OFF
 70
     0
  0
APPID
  2
ACAD_DSTYLE_DIMTALN
 70
     0
  0
APPID
  2
DCO15
 70
     0
  0
APPID
  2
CONTENTBLOCKDESCRIPTION
 70
     0
  0
ENDTAB
  0
TABLE
  2
DIMSTYLE
 70
    25
  0
DIMSTYLE
  2
STANDARD
 70
     0
  3

  4

  5

  6

  7

 40
1.0
 41
0.18
 42
0.0625
 43
0.38
 44
0.18
 45
0.0
 46
0.0
 47
0.0
 48
0.0
140
0.18
141
0.09
142
0.0
143
25.399999999999999
144
1.0
145
0.0
146
1.0
147
0.09
 71
     0
 72
     0
 73
     1
 74
     1
 75
     0
 76
     0
 77
     0
 78
     0
170
     0
171
     2
172
     0
173
     0
174
     0
175
     0
176
     0
177
     0
178
     0
  0
DIMSTYLE
  2
ANNOTATIVE
 70
     0
  3

  4

  5

  6

  7

 40
1.0
 41
0.18
 42
0.0625
 43
0.38
 44
0.18
 45
0.0
 46
0.0
 47
0.0
 48
0.0
140
0.18
141
0.09
142
0.0
143
25.399999999999999
144
1.0
145
0.0
146
1.0
147
0.09
 71
     0
 72
     0
 73
     1
 74
     1
 75
     0
 76
     0
 77
     0
 78
     0
170
     0
171
     2
172
     0
173
     0
174
     0
175
     0
176
     0
177
     0
178
     0
  0
DIMSTYLE
  2
AM_ANSI
 70
     0
  3

  4
"
  5

  6

  7

 40
1.0
 41
2.5
 42
1.0
 43
10.0
 44
1.0
 45
0.0
 46
0.0
 47
0.1
 48
0.1
140
3.5
141
0.0
142
0.0
143
0.0393701
144
1.0
145
0.0
146
0.71
147
1.5
 71
     0
 72
     0
 73
     1
 74
     1
 75
     0
 76
     0
 77
     0
 78
     8
170
     0
171
     2
172
     0
173
     0
174
     0
175
     0
176
     2
177
     2
178
     4
  0
DIMSTYLE
  2
AM_ANSI$3
 70
     0
  3

  4
"
  5

  6

  7

 40
1.0
 41
2.5
 42
1.0
 43
10.0
 44
1.0
 45
0.0
 46
0.0
 47
0.1
 48
0.1
140
3.5
141
0.0
142
0.0
143
0.0393701
144
1.0
145
0.0
146
0.71
147
1.5
 71
     0
 72
     0
 73
     1
 74
     1
 75
     0
 76
     0
 77
     0
 78
     8
170
     0
171
     2
172
     0
173
     0
174
     0
175
     0
176
     2
177
     2
178
     4
  0
DIMSTYLE
  2
AM_ANSI$4
 70
     0
  3

  4
"
  5

  6

  7

 40
1.0
 41
2.5
 42
1.0
 43
10.0
 44
1.0
 45
0.0
 46
0.0
 47
0.1
 48
0.1
140
3.5
141
0.0
142
0.0
143
0.0393701
144
1.0
145
0.0
146
0.71
147
1.5
 71
     0
 72
     0
 73
     1
 74
     1
 75
     0
 76
     0
 77
     0
 78
     8
170
     0
171
     2
172
     0
173
     0
174
     0
175
     0
176
     2
177
     2
178
     4
  0
DIMSTYLE
  2
AM_ANSI$7
 70
     0
  3

  4
"
  5

  6

  7

 40
1.0
 41
2.5
 42
1.0
 43
10.0
 44
1.0
 45
0.0
 46
0.0
 47
0.1
 48
0.1
140
5.0
141
0.0
142
0.0
143
0.0393701
144
1.0
145
0.0
146
0.71
147
1.5
 71
     0
 72
     0
 73
     1
 74
     1
 75
     0
 76
     0
 77
     0
 78
     8
170
     0
171
     2
172
     0
173
     0
174
     0
175
     0
176
     2
177
     2
178
     4
  0
DIMSTYLE
  2
AM_ANSI$SF
 70
     0
  3

  4
"
  5

  6

  7

 40
1.0
 41
2.5
 42
1.0
 43
10.0
 44
1.0
 45
0.0
 46
0.0
 47
0.1
 48
0.1
140
3.5
141
0.0
142
0.0
143
0.0393701
144
1.0
145
0.0
146
0.71
147
1.5
 71
     0
 72
     0
 73
     1
 74
     1
 75
     1
 76
     1
 77
     0
 78
     8
170
     0
171
     2
172
     0
173
     0
174
     0
175
     0
176
     2
177
     2
178
     4
  0
DIMSTYLE
  2
AM_ANSI$SH
 70
     0
  3

  4
"
  5

  6

  7

 40
1.0
 41
2.5
 42
1.0
 43
10.0
 44
1.0
 45
0.0
 46
0.0
 47
0.1
 48
0.1
140
3.5
141
0.0
142
0.0
143
0.0393701
144
1.0
145
0.0
146
0.71
147
1.5
 71
     0
 72
     0
 73
     1
 74
     1
 75
     1
 76
     1
 77
     0
 78
     8
170
     0
171
     2
172
     0
173
     1
174
     0
175
     0
176
     2
177
     2
178
     4
  0
DIMSTYLE
  2
AM_ISO
 70
     0
  3

  4
"
  5

  6

  7

 40
1.0
 41
2.5
 42
1.0
 43
10.0
 44
1.0
 45
0.0
 46
0.0
 47
0.1
 48
0.1
140
3.5
141
0.0
142
0.0
143
0.0393701
144
1.0
145
0.0
146
0.71
147
1.5
 71
     0
 72
     0
 73
     0
 74
     0
 75
     0
 76
     0
 77
     1
 78
     8
170
     0
171
     2
172
     1
173
     0
174
     0
175
     0
176
   256
177
   256
178
     2
  0
DIMSTYLE
  2
AM_ISO$3
 70
     0
  3

  4
"
  5

  6

  7

 40
1.0
 41
2.5
 42
1.0
 43
10.0
 44
1.0
 45
0.0
 46
0.0
 47
0.1
 48
0.1
140
3.5
141
0.0
142
0.0
143
0.0393701
144
1.0
145
0.0
146
0.71
147
1.5
 71
     0
 72
     0
 73
     0
 74
     1
 75
     0
 76
     0
 77
     1
 78
     8
170
     0
171
     2
172
     0
173
     0
174
     0
175
     0
176
   256
177
   256
178
     2
  0
DIMSTYLE
  2
AM_ISO$4
 70
     0
  3

  4
"
  5

  6

  7

 40
1.0
 41
2.5
 42
1.0
 43
10.0
 44
1.0
 45
0.0
 46
0.0
 47
0.1
 48
0.1
140
3.5
141
0.0
142
0.0
143
0.0393701
144
1.0
145
0.0
146
0.71
147
1.5
 71
     0
 72
     0
 73
     0
 74
     1
 75
     0
 76
     0
 77
     1
 78
     8
170
     0
171
     2
172
     0
173
     0
174
     0
175
     0
176
   256
177
   256
178
     2
  0
DIMSTYLE
  2
AM_ISO$6
 70
     0
  3

  4
"
  5

  6

  7

 40
1.0
 41
2.5
 42
1.0
 43
10.0
 44
1.0
 45
0.0
 46
0.0
 47
0.1
 48
0.1
140
3.5
141
0.0
142
0.0
143
0.0393701
144
1.0
145
0.0
146
0.71
147
1.5
 71
     0
 72
     0
 73
     0
 74
     0
 75
     0
 76
     0
 77
     0
 78
     8
170
     0
171
     2
172
     1
173
     0
174
     0
175
     0
176
   256
177
   256
178
     2
  0
DIMSTYLE
  2
AM_ISO$7
 70
     0
  3

  4
"
  5

  6

  7

 40
1.0
 41
2.5
 42
1.0
 43
10.0
 44
1.0
 45
0.0
 46
0.0
 47
0.1
 48
0.1
140
5.0
141
0.0
142
0.0
143
0.0393701
144
1.0
145
0.0
146
0.71
147
1.5
 71
     0
 72
     0
 73
     0
 74
     0
 75
     0
 76
     0
 77
     1
 78
     8
170
     0
171
     2
172
     1
173
     0
174
     0
175
     0
176
   256
177
   256
178
     2
  0
DIMSTYLE
  2
AM_ISO$SF
 70
     0
  3

  4
"
  5

  6

  7

 40
1.0
 41
2.5
 42
1.0
 43
10.0
 44
1.0
 45
0.0
 46
0.0
 47
0.1
 48
0.1
140
3.5
141
0.0
142
0.0
143
0.0393701
144
1.0
145
0.0
146
0.71
147
1.5
 71
     0
 72
     0
 73
     0
 74
     0
 75
     1
 76
     1
 77
     1
 78
     8
170
     0
171
     2
172
     1
173
     0
174
     0
175
     0
176
   256
177
   256
178
     2
  0
DIMSTYLE
  2
AM_ISO$SH
 70
     0
  3

  4
"
  5

  6

  7

 40
1.0
 41
2.5
 42
1.0
 43
10.0
 44
1.0
 45
0.0
 46
0.0
 47
0.1
 48
0.1
140
3.5
141
0.0
142
0.0
143
0.0393701
144
2.0
145
0.0
146
0.71
147
1.5
 71
     0
 72
     0
 73
     0
 74
     0
 75
     1
 76
     1
 77
     1
 78
     8
170
     0
171
     2
172
     1
173
     1
174
     0
175
     0
176
   256
177
   256
178
     2
  0
DIMSTYLE
  2
AM_JIS
 70
     0
  3

  4
"
  5

  6

  7

 40
1.0
 41
2.0
 42
1.0
 43
8.0
 44
1.0
 45
0.0
 46
0.0
 47
0.1
 48
0.1
140
2.5
141
0.0
142
0.0
143
0.0393701
144
1.0
145
0.0
146
0.71
147
1.5
 71
     0
 72
     0
 73
     0
 74
     0
 75
     0
 76
     0
 77
     3
 78
     8
170
     0
171
     2
172
     1
173
     0
174
     0
175
     0
176
     2
177
     2
178
     4
  0
DIMSTYLE
  2
AM_JIS$3
 70
     0
  3

  4
"
  5

  6

  7

 40
1.0
 41
2.0
 42
1.0
 43
10.0
 44
1.0
 45
0.0
 46
0.0
 47
0.1
 48
0.1
140
2.5
141
0.0
142
0.0
143
0.0393701
144
1.0
145
0.0
146
0.71
147
1.5
 71
     0
 72
     0
 73
     0
 74
     1
 75
     0
 76
     0
 77
     3
 78
     8
170
     0
171
     2
172
     0
173
     0
174
     0
175
     0
176
     2
177
     2
178
     4
  0
DIMSTYLE
  2
AM_JIS$4
 70
     0
  3

  4
"
  5

  6

  7

 40
1.0
 41
2.0
 42
1.0
 43
10.0
 44
1.0
 45
0.0
 46
0.0
 47
0.1
 48
0.1
140
2.5
141
0.0
142
0.0
143
0.0393701
144
1.0
145
0.0
146
0.71
147
1.5
 71
     0
 72
     0
 73
     0
 74
     0
 75
     0
 76
     0
 77
     3
 78
     8
170
     0
171
     2
172
     0
173
     0
174
     0
175
     0
176
     2
177
     2
178
     4
  0
DIMSTYLE
  2
AM_JIS$6
 70
     0
  3

  4
"
  5

  6

  7

 40
1.0
 41
2.0
 42
1.0
 43
10.0
 44
1.0
 45
0.0
 46
0.0
 47
0.1
 48
0.1
140
2.5
141
0.0
142
0.0
143
0.0393701
144
1.0
145
0.0
146
0.71
147
1.5
 71
     0
 72
     0
 73
     0
 74
     0
 75
     0
 76
     0
 77
     0
 78
     8
170
     0
171
     2
172
     1
173
     0
174
     0
175
     0
176
     2
177
     2
178
     4
  0
DIMSTYLE
  2
AM_JIS$7
 70
     0
  3

  4
"
  5

  6

  7

 40
1.0
 41
2.0
 42
1.0
 43
10.0
 44
1.0
 45
0.0
 46
0.0
 47
0.1
 48
0.1
140
2.5
141
0.0
142
0.0
143
0.0393701
144
1.0
145
0.0
146
0.71
147
1.5
 71
     0
 72
     0
 73
     0
 74
     0
 75
     0
 76
     0
 77
     3
 78
     8
170
     0
171
     2
172
     1
173
     0
174
     0
175
     0
176
     2
177
     2
178
     4
  0
DIMSTYLE
  2
AM_JIS$SF
 70
     0
  3

  4
"
  5

  6

  7

 40
1.0
 41
2.0
 42
1.0
 43
10.0
 44
1.0
 45
0.0
 46
0.0
 47
0.1
 48
0.1
140
2.5
141
0.0
142
0.0
143
0.0393701
144
1.0
145
0.0
146
0.71
147
1.5
 71
     0
 72
     0
 73
     0
 74
     0
 75
     1
 76
     1
 77
     3
 78
     8
170
     0
171
     2
172
     1
173
     0
174
     0
175
     0
176
     2
177
     2
178
     4
  0
DIMSTYLE
  2
AM_JIS$SH
 70
     0
  3

  4
"
  5

  6

  7

 40
1.0
 41
2.0
 42
1.0
 43
10.0
 44
1.0
 45
0.0
 46
0.0
 47
0.1
 48
0.1
140
2.5
141
0.0
142
0.0
143
0.0393701
144
2.0
145
0.0
146
0.71
147
1.5
 71
     0
 72
     0
 73
     0
 74
     0
 75
     1
 76
     1
 77
     3
 78
     8
170
     0
171
     2
172
     1
173
     1
174
     0
175
     0
176
     2
177
     2
178
     4
  0
DIMSTYLE
  2
AM_JIS$0
 70
     0
  3

  4
"
  5

  6

  7

 40
1.0
 41
2.0
 42
1.0
 43
8.0
 44
1.0
 45
0.0
 46
0.0
 47
0.1
 48
0.1
140
2.5
141
0.0
142
0.0
143
0.0393701
144
1.0
145
0.0
146
0.71
147
1.5
 71
     0
 72
     0
 73
     0
 74
     0
 75
     0
 76
     0
 77
     3
 78
     8
170
     0
171
     2
172
     1
173
     0
174
     0
175
     0
176
     2
177
     2
178
     4
  0
DIMSTYLE
  2
AM_JIS$2
 70
     0
  3

  4
"
  5

  6

  7

 40
1.0
 41
2.0
 42
1.0
 43
8.0
 44
1.0
 45
0.0
 46
0.0
 47
0.1
 48
0.1
140
2.5
141
0.0
142
0.0
143
0.0393701
144
1.0
145
0.0
146
0.71
147
1.5
 71
     0
 72
     0
 73
     0
 74
     0
 75
     0
 76
     0
 77
     3
 78
     8
170
     0
171
     2
172
     1
173
     0
174
     0
175
     0
176
     2
177
     2
178
     4
  0
DIMSTYLE
  2
MXDIMSTYLE
 70
     0
  3

  4

  5

  6

  7

 40
1.0
 41
2.5
 42
0.5
 43
3.75
 44
0.5
 45
0.0
 46
0.0
 47
0.0
 48
0.0
140
3.2000000000000002
141
2.5
142
0.0
143
0.03937
144
1.0
145
0.0
146
1.0
147
0.8
 71
     0
 72
     0
 73
     0
 74
     0
 75
     0
 76
     0
 77
     1
 78
     8
170
     0
171
     4
172
     1
173
     1
174
     0
175
     0
176
     0
177
     0
178
     0
  0
ENDTAB
  0
ENDSEC
  0
SECTION
  2
BLOCKS
  0
BLOCK
  8
0
  2
$MODEL_SPACE
 70
     0
 10
0.0
 20
0.0
 30
0.0
  3
$MODEL_SPACE
  1

  0
ENDBLK
  5
EAC8
  8
0
  0
BLOCK
 67
     1
  8
0
  2
$PAPER_SPACE
 70
     0
 10
0.0
 20
0.0
 30
0.0
  3
$PAPER_SPACE
  1

  0
ENDBLK
  5
EAC4
 67
     1
  8
0
  0
BLOCK
  8
0
  2
GENAXEH
 70
     0
 10
0.0
 20
0.0
 30
0.0
  3
GENAXEH
  1

  0
LINE
  5
121
  8
0
 10
-1.0
 20
0.0
 30
0.0
 11
1.0
 21
0.0
 31
0.0
  0
ENDBLK
  5
122
  8
0
  0
BLOCK
  8
0
  2
_OPEN30
 70
     0
 10
0.0
 20
0.0
 30
0.0
  3
_OPEN30
  1

  0
LINE
  5
165
  8
0
  6
BYBLOCK
 62
     0
 10
-1.0
 20
0.26794919
 30
0.0
 11
0.0
 21
0.0
 31
0.0
  0
LINE
  5
166
  8
0
  6
BYBLOCK
 62
     0
 10
0.0
 20
0.0
 30
0.0
 11
-1.0
 21
-0.26794919
 31
0.0
  0
LINE
  5
167
  8
0
  6
BYBLOCK
 62
     0
 10
0.0
 20
0.0
 30
0.0
 11
-1.0
 21
0.0
 31
0.0
  0
ENDBLK
  5
168
  8
0
  0
BLOCK
  8
0
  2
_ACMOPEN15
 70
     0
 10
0.0
 20
0.0
 30
0.0
  3
_ACMOPEN15
  1

  0
LINE
  5
BF87
  8
0
 62
     0
 10
-1.0
 20
0.0
 30
0.0
 11
0.0
 21
0.0
 31
0.0
  0
LINE
  5
BF88
  8
0
 62
     0
 10
-1.0
 20
-0.131652497
 30
0.0
 11
0.0
 21
0.0
 31
0.0
  0
LINE
  5
BF89
  8
0
 62
     0
 10
0.0
 20
0.0
 30
0.0
 11
-1.0
 21
0.131652497
 31
0.0
  0
ENDBLK
  5
BF86
  8
0
  0
BLOCK
  8
0
  2
_ACMFILLEDHALF
 70
     0
 10
0.0
 20
0.0
 30
0.0
  3
_ACMFILLEDHALF
  1

  0
TRACE
  5
DDDF
  8
0
 62
     0
 10
-0.8
 20
0.0
 30
0.0
 11
-1.0
 21
0.166666666
 31
0.0
 12
0.0
 22
0.0
 32
0.0
 13
0.0
 23
0.0
 33
0.0
  0
LINE
  5
DDE0
  8
0
 62
     0
 10
-1.0
 20
0.0
 30
0.0
 11
-0.8
 21
0.0
 31
0.0
  0
ENDBLK
  5
DDDE
  8
0
  0
BLOCK
  8
0
  2
A$C3E2C1669
 70
     0
 10
0.0
 20
0.0
 30
0.0
  3
A$C3E2C1669
  1

  0
INSERT
  5
DE0B
  8
0
  2
*U7
 10
0.0
 20
0.0
 30
0.0
  0
ENDBLK
  5
DE0F
  8
0
  0
BLOCK
  8
0
  2
*U7
 70
     1
 10
0.0
 20
0.0
 30
0.0
  3
*U7
  1

  0
TEXT
  5
E836
  8
0
 10
-0.7400010480775932
 20
-0.9999996580810378
 30
0.0
 40
15.0
  1
ＶＸ５５－ＥＭ～ＥＭ
 41
0.7400000000000003
  0
ENDBLK
  5
E838
  8
0
  0
BLOCK
  8
0
  6
BYBLOCK
 62
     0
  2
$6-45
 70
     0
 10
0.0
 20
0.0
 30
0.0
  3
$6-45
  1

  0
ARC
  5
DEF7
  8
0
  6
CONTINUOUS
 62
     3
 10
-2.6499939999999991
 20
2.8002009999999982
 30
0.0
 40
2.600398999999999
 50
89.99998199999996
 51
179.999978
  0
ARC
  5
DEF8
  8
0
  6
CONTINUOUS
 62
     3
 10
2.6499939999999991
 20
2.8002009999999982
 30
0.0
 40
2.600403
 50
0.0
 51
89.99998199999996
  0
LINE
  5
DEF9
  8
0
  6
CONTINUOUS
 62
     0
 10
0.066025
 20
0.0
 30
0.0
 11
-0.8
 21
1.5
 31
0.0
  0
LINE
  5
DEFA
  8
0
  6
CONTINUOUS
 62
     0
 10
1.066025
 20
0.0
 30
0.0
 11
0.2
 21
1.5
 31
0.0
  0
LINE
  5
DEFB
  8
0
  6
CONTINUOUS
 62
     0
 10
6.099999999999997
 20
0.0
 30
0.0
 11
-6.099999999999997
 21
0.0
 31
0.0
  0
LINE
  5
DEFC
  8
0
  6
CONTINUOUS
 62
     0
 10
6.099999999999997
 20
1.5
 30
0.0
 11
6.099999999999997
 21
0.0
 31
0.0
  0
LINE
  5
DEFD
  8
0
  6
CONTINUOUS
 62
     0
 10
-6.099999999999997
 20
1.5
 30
0.0
 11
-6.099999999999997
 21
0.0
 31
0.0
  0
LINE
  5
DEFE
  8
0
  6
CONTINUOUS
 62
     3
 10
2.6499939999999991
 20
5.3999940000000004
 30
0.0
 11
-2.6499939999999991
 21
5.3999940000000004
 31
0.0
  0
LINE
  5
DEFF
  8
0
  6
CONTINUOUS
 62
     3
 10
6.099999999999997
 20
1.5
 30
0.0
 11
-6.099999999999997
 21
1.5
 31
0.0
  0
LINE
  5
DF00
  8
0
  6
CONTINUOUS
 62
     3
 10
-5.25
 20
1.5
 30
0.0
 11
-5.25
 21
2.8002009999999982
 31
0.0
  0
LINE
  5
DF01
  8
0
  6
CONTINUOUS
 62
     3
 10
5.25
 20
1.5
 30
0.0
 11
5.25
 21
2.8002009999999982
 31
0.0
  0
ENDBLK
  5
DF02
  8
0
  6
BYBLOCK
 62
     0
  0
BLOCK
  8
0
  2
_ACMFILLED
 70
     0
 10
0.0
 20
0.0
 30
0.0
  3
_ACMFILLED
  1

  0
TRACE
  5
DF05
  8
LY_1
  6
CONTINUOUS
 62
     0
 10
-1.0
 20
-0.166666666
 30
0.0
 11
-1.0
 21
0.166666666
 31
0.0
 12
0.0
 22
0.0
 32
0.0
 13
0.0
 23
0.0
 33
0.0
  0
ENDBLK
  5
DF06
  8
0
  0
BLOCK
  8
0
  2
_ACMFILLED15
 70
     0
 10
0.0
 20
0.0
 30
0.0
  3
_ACMFILLED15
  1

  0
TRACE
  5
DF09
  8
LY_1
  6
CONTINUOUS
 62
     0
 10
-1.0
 20
-0.131652497
 30
0.0
 11
-1.0
 21
0.131652497
 31
0.0
 12
0.0
 22
0.0
 32
0.0
 13
0.0
 23
0.0
 33
0.0
  0
ENDBLK
  5
DF0A
  8
0
  0
BLOCK
  8
0
  2
A$C432E1E0F
 70
     0
 10
0.0
 20
0.0
 30
0.0
  3
A$C432E1E0F
  1

  0
ARC
  5
DF3D
  8
0
 10
-278.10000000000002
 20
-85.497374000000036
 30
0.0
 40
2.399999999999999
 50
180.0
 51
199.9999999999994
  0
ARC
  5
DF3E
  8
0
 10
-273.50553600000001
 20
-98.120558999999972
 30
0.0
 40
2.399999999999999
 50
199.9999999999994
 51
270.0
  0
LINE
  5
DF3F
  8
0
 10
-275.76079900000002
 20
-98.941406999999955
 30
0.0
 11
-280.3552620000001
 21
-86.318222000000034
 31
0.0
  0
LINE
  5
DF40
  8
0
 10
-207.5
 20
-100.52055900000001
 30
0.0
 11
-273.50553600000001
 21
-100.52055900000001
 31
0.0
  0
LINE
  5
DF41
  8
0
 10
-207.5
 20
100.52055899999991
 30
0.0
 11
-207.5
 21
-100.52055900000001
 31
0.0
  0
LINE
  5
DF42
  8
0
 10
-275.76079900000002
 20
98.941407000000041
 30
0.0
 11
-280.3552620000001
 21
86.318222000000006
 31
0.0
  0
ARC
  5
DF43
  8
0
 10
-273.50553600000001
 20
98.120558999999972
 30
0.0
 40
2.399999999999999
 50
90.0
 51
160.00000000000051
  0
ARC
  5
DF44
  8
0
 10
-278.10000000000002
 20
85.497374000000036
 30
0.0
 40
2.399999999999999
 50
160.00000000000051
 51
180.0
  0
LINE
  5
DF45
  8
0
 10
-275.18603499999989
 20
99.834013000000041
 30
0.0
 11
-275.18603499999989
 21
-100.52055900000001
 31
0.0
  0
LINE
  5
DF46
  8
0
 10
-280.5
 20
85.497374000000036
 30
0.0
 11
-280.5
 21
-85.27944100000002
 31
0.0
  0
LINE
  5
DF47
  8
0
 10
-207.5
 20
100.52055899999991
 30
0.0
 11
-273.50553600000001
 21
100.52055899999991
 31
0.0
  0
LINE
  5
DF48
  8
0
 10
-73.5
 20
-102.0
 30
0.0
 11
-73.5
 21
-105.0
 31
0.0
  0
LINE
  5
DF49
  8
0
 10
-140.5
 20
-102.0
 30
0.0
 11
-140.5
 21
-105.0
 31
0.0
  0
LINE
  5
DF4A
  8
0
 10
-63.749874999999967
 20
-103.371015
 30
0.0
 11
-152.567994
 21
-144.787024
 31
0.0
  0
LINE
  5
DF4B
  8
0
 10
-62.10187999999993
 20
-106.9049799999999
 30
0.0
 11
-63.749874999999967
 21
-103.371015
 31
0.0
  0
LINE
  5
DF4C
  8
0
 10
-140.8999980000001
 20
-105.0
 30
0.0
 11
-71.156898000000069
 21
-105.0
 31
0.0
  0
LINE
  5
DF4D
  8
0
 10
-150.91980100000001
 20
-148.32199600000001
 30
0.0
 11
-152.567994
 21
-144.787024
 31
0.0
  0
LINE
  5
DF4E
  8
0
 10
-143.36679599999999
 20
-147.95599100000001
 30
0.0
 11
-143.688198
 21
-147.266999
 31
0.0
  0
LINE
  5
DF4F
  8
0
 10
-67.074898000000076
 20
-132.08599899999999
 30
0.0
 11
-67.074898000000076
 21
-111.71199
 31
0.0
  0
LINE
  5
DF50
  8
0
 10
-149.452406
 20
-148.850998
 30
0.0
 11
-62.626900999999961
 21
-108.363995
 31
0.0
  0
LINE
  5
DF51
  8
0
 10
-144.49999600000001
 20
-141.02499399999999
 30
0.0
 11
-144.49999600000001
 21
-108.599991
 31
0.0
  0
LINE
  5
DF52
  8
AM_7
 62
     1
 10
-149.676197
 20
-125.0
 30
0.0
 11
-141.08589599999999
 21
-125.0
 31
0.0
  0
LINE
  5
DF53
  8
0
 10
-146.49999600000001
 20
-113.39999400000001
 30
0.0
 11
-146.49999600000001
 21
-136.59999099999999
 31
0.0
  0
LINE
  5
DF54
  8
0
 10
-146.49999600000001
 20
-113.39999400000001
 30
0.0
 11
-145.49999600000001
 21
-113.39999400000001
 31
0.0
  0
LINE
  5
DF55
  8
0
 10
-146.49999600000001
 20
-136.59999099999999
 30
0.0
 11
-145.49999600000001
 21
-136.59999099999999
 31
0.0
  0
ARC
  5
DF56
  8
0
 10
-140.8999980000001
 20
-108.599991
 30
0.0
 40
3.5999979999999989
 50
90.000061000000898
 51
179.99998200000081
  0
ARC
  5
DF57
  8
0
 10
-63.098899999999951
 20
-107.369995
 30
0.0
 40
1.100006
 50
294.9998260000001
 51
24.999513999998751
  0
ARC
  5
DF58
  8
0
 10
-149.92289699999981
 20
-147.8569949999999
 30
0.0
 40
1.0999959999999971
 50
204.99980300000141
 51
295.00019500000002
  0
ARC
  5
DF59
  8
0
 10
-74.674895999999976
 20
-132.08599899999999
 30
0.0
 40
7.5999979999999958
 50
288.9000159999996
 51
0.0000179999992061
  0
ARC
  5
DF5A
  8
0
 10
-140.104095
 20
-146.43499800000001
 30
0.0
 40
3.5999979999999989
 50
204.9991569999998
 51
269.09402099999909
  0
ARC
  5
DF5B
  8
0
 10
-136.9975969999999
 20
49.940994000000039
 30
0.0
 40
200.0
 50
269.09405199999981
 51
288.90000299999889
  0
ARC
  5
DF5C
  8
0
 10
-144.59449799999999
 20
-147.68899500000001
 30
0.0
 40
0.9999979999999998
 50
24.999268000001958
 51
114.99935799999879
  0
ARC
  5
DF5D
  8
0
 10
-65.074898000000076
 20
-111.71199
 30
0.0
 40
2.0
 50
115.0001499999988
 51
179.99998200000081
  0
ARC
  5
DF5E
  8
0
 10
-71.156898000000069
 20
-107.599991
 30
0.0
 40
2.600006
 50
40.686130000000617
 51
90.0
  0
ARC
  5
DF5F
  8
0
 10
-145.49999600000001
 20
-112.39999400000001
 30
0.0
 40
1.0
 50
269.99894299999841
 51
0.0000179999992061
  0
ARC
  5
DF60
  8
0
 10
-145.49999600000001
 20
-137.59999099999999
 30
0.0
 40
1.0
 50
0.0000179999992061
 51
90.0
  0
ARC
  5
DF61
  8
0
 10
-199.05635599999991
 20
-82.400679999999966
 30
0.0
 40
2.0
 50
189.99999999999861
 51
270.0
  0
LINE
  5
DF62
  8
0
 10
-201.025971
 20
-82.747975999999966
 30
0.0
 11
-204.0
 21
-65.881422000000043
 31
0.0
  0
LINE
  5
DF63
  8
0
 10
-204.0
 20
-65.881422000000043
 30
0.0
 11
-202.93826100000001
 21
-65.881422000000043
 31
0.0
  0
LINE
  5
DF64
  8
0
 10
-5.5358589999999586
 20
86.172307000000032
 30
0.0
 11
-5.0
 21
86.172307000000032
 31
0.0
  0
LINE
  5
DF65
  8
0
 10
-5.2754679999999867
 20
87.734563999999963
 30
0.0
 11
-5.0
 21
87.734563999999963
 31
0.0
  0
LINE
  5
DF66
  8
0
 10
-3.3218009999999918
 20
-87.999849000000026
 30
0.0
 11
-3.0
 21
-87.999849000000026
 31
0.0
  0
LINE
  5
DF67
  8
0
 10
-7.179394999999996
 20
-83.151985999999951
 30
0.0
 11
-5.0
 21
-83.151985999999951
 31
0.0
  0
LINE
  5
DF68
  8
0
 10
-6.1733120000000081
 20
-71.046416000000022
 30
0.0
 11
-5.0
 21
-71.046416000000022
 31
0.0
  0
LINE
  5
DF69
  8
AM_7
 62
     1
 10
-107.0
 20
-107.65596499999999
 30
0.0
 11
-107.0
 21
-98.474249000000043
 31
0.0
  0
LINE
  5
DF6A
  8
AM_7
 62
     1
 10
-300.5
 20
0.0
 30
0.0
 11
20.0
 21
0.0
 31
0.0
  0
ARC
  5
DF6B
  8
0
 10
-8.7571200000000431
 20
89.008248000000094
 30
0.0
 40
2.0
 50
9.9999999999986073
 51
90.0
  0
ARC
  5
DF6C
  8
0
 10
-8.6911029999999982
 20
92.549046999999945
 30
0.0
 40
2.0
 50
9.9999999999986073
 51
90.0
  0
ARC
  5
DF6D
  8
0
 10
-8.605184999999949
 20
95.100783999999948
 30
0.0
 40
2.0
 50
9.9999999999986073
 51
90.0
  0
ARC
  5
DF6E
  8
0
 10
-8.5764360000000561
 20
96.5
 30
0.0
 40
2.0
 50
9.9999999999986073
 51
90.0
  0
LINE
  5
DF6F
  8
0
 10
0.0000030000000493
 20
85.0
 30
0.0
 11
-2.9999969999999481
 21
88.0
 31
0.0
  0
LINE
  5
DF70
  8
0
 10
-5.0468040000000061
 20
88.0
 30
0.0
 11
-3.0
 21
88.0
 31
0.0
  0
LINE
  5
DF71
  8
0
 10
0.0
 20
-85.0
 30
0.0
 11
-3.0
 21
-88.0
 31
0.0
  0
LINE
  5
DF72
  8
0
 10
-3.0
 20
-88.0
 30
0.0
 11
-3.0
 21
-62.379613999999989
 31
0.0
  0
LINE
  5
DF73
  8
0
 10
0.0
 20
-85.0
 30
0.0
 11
0.0
 21
85.0
 31
0.0
  0
CIRCLE
  5
DF74
  8
0
 10
-107.0
 20
0.0
 30
0.0
 40
11.0
  0
LINE
  5
DF75
  8
0
 10
-199.71387999999999
 20
98.500000000000014
 30
0.0
 11
-148.0
 21
98.500000000000014
 31
0.0
  0
LINE
  5
DF76
  8
0
 10
-68.0
 20
91.00824800000008
 30
0.0
 11
-68.0
 21
96.5
 31
0.0
  0
LINE
  5
DF77
  8
0
 10
-146.0
 20
91.00824800000008
 30
0.0
 11
-146.0
 21
96.5
 31
0.0
  0
ARC
  5
DF78
  8
0
 10
-148.0
 20
96.5
 30
0.0
 40
2.0
 50
0.0
 51
90.0
  0
ARC
  5
DF79
  8
0
 10
-66.0
 20
96.5
 30
0.0
 40
2.0
 50
90.0
 51
180.0
  0
LINE
  5
DF7A
  8
0
 10
-66.0
 20
98.500000000000014
 30
0.0
 11
-8.5764360000000561
 21
98.500000000000014
 31
0.0
  0
LINE
  5
DF7B
  8
0
 10
-8.605184999999949
 20
97.100783999999962
 30
0.0
 11
-66.0
 21
97.100783999999962
 31
0.0
  0
LINE
  5
DF7C
  8
0
 10
-5.0
 20
86.172307000000032
 30
0.0
 11
-6.6355690000000322
 21
95.448080000000004
 31
0.0
  0
LINE
  5
DF7D
  8
0
 10
-5.0
 20
87.734563999999963
 30
0.0
 11
-6.6068209999999681
 21
96.847296000000043
 31
0.0
  0
LINE
  5
DF7E
  8
0
 10
-204.0
 20
83.709745999999981
 30
0.0
 11
-201.68349499999999
 21
96.847296000000043
 31
0.0
  0
ARC
  5
DF7F
  8
0
 10
-199.71387999999999
 20
96.5
 30
0.0
 40
2.0
 50
90.0
 51
170.00000000000139
  0
LINE
  5
DF80
  8
0
 10
-204.0
 20
82.050684999999945
 30
0.0
 11
-201.63767800000011
 21
95.448080000000004
 31
0.0
  0
ARC
  5
DF81
  8
0
 10
-199.66806199999991
 20
95.100783999999948
 30
0.0
 40
2.0
 50
90.0
 51
170.00000000000139
  0
ARC
  5
DF82
  8
0
 10
-148.0
 20
95.100783999999948
 30
0.0
 40
2.0
 50
0.0
 51
90.0
  0
ARC
  5
DF83
  8
0
 10
-66.0
 20
95.100783999999948
 30
0.0
 40
2.0
 50
90.0
 51
180.0
  0
LINE
  5
DF84
  8
0
 10
-148.0
 20
97.100783999999962
 30
0.0
 11
-199.66806199999991
 21
97.100783999999962
 31
0.0
  0
LINE
  5
DF85
  8
0
 10
-8.6911029999999982
 20
94.549046999999959
 30
0.0
 11
-66.0
 21
94.549046999999959
 31
0.0
  0
LINE
  5
DF86
  8
0
 10
-5.1287800000000061
 20
83.863649000000024
 30
0.0
 11
-6.7214879999999644
 21
92.896344000000013
 31
0.0
  0
LINE
  5
DF87
  8
0
 10
-204.0
 20
78.829894000000081
 30
0.0
 11
-201.5197049999999
 21
92.896344000000013
 31
0.0
  0
ARC
  5
DF88
  8
0
 10
-199.5500900000001
 20
92.549046999999945
 30
0.0
 40
2.0
 50
90.0
 51
170.00000000000139
  0
ARC
  5
DF89
  8
0
 10
-148.0
 20
92.549046999999945
 30
0.0
 40
2.0
 50
0.0
 51
90.0
  0
ARC
  5
DF8A
  8
0
 10
-66.0
 20
92.549046999999945
 30
0.0
 40
2.0
 50
90.0
 51
180.0
  0
LINE
  5
DF8B
  8
0
 10
-148.0
 20
94.549046999999959
 30
0.0
 11
-199.5500900000001
 21
94.549046999999959
 31
0.0
  0
LINE
  5
DF8C
  8
0
 10
-8.7571200000000431
 20
91.00824800000008
 30
0.0
 11
-199.3885809999999
 21
91.00824800000008
 31
0.0
  0
LINE
  5
DF8D
  8
0
 10
-5.8191349999999593
 20
83.863649000000024
 30
0.0
 11
-6.7875040000000118
 21
89.355543999999995
 31
0.0
  0
LINE
  5
DF8E
  8
0
 10
-204.0
 20
74.373133999999936
 30
0.0
 11
-201.35819699999999
 21
89.355543999999995
 31
0.0
  0
ARC
  5
DF8F
  8
0
 10
-199.3885809999999
 20
89.008248000000094
 30
0.0
 40
2.0
 50
90.0
 51
170.00000000000139
  0
LINE
  5
DF90
  8
0
 10
-74.943644000000063
 20
84.400679999999937
 30
0.0
 11
-199.05635599999991
 21
84.400679999999937
 31
0.0
  0
LINE
  5
DF91
  8
0
 10
-70.0
 20
65.881421999999915
 30
0.0
 11
-72.974028999999973
 21
82.747975999999966
 31
0.0
  0
ARC
  5
DF92
  8
0
 10
-74.943644000000063
 20
82.400679999999966
 30
0.0
 40
2.0
 50
9.9999999999986073
 51
90.0
  0
LINE
  5
DF93
  8
0
 10
-204.0
 20
65.881421999999915
 30
0.0
 11
-201.025971
 21
82.747975999999966
 31
0.0
  0
ARC
  5
DF94
  8
0
 10
-199.05635599999991
 20
82.400679999999966
 30
0.0
 40
2.0
 50
90.0
 51
170.00000000000139
  0
LINE
  5
DF95
  8
0
 10
-75.273907999999977
 20
78.998636000000033
 30
0.0
 11
-198.72609199999999
 21
78.998636000000033
 31
0.0
  0
LINE
  5
DF96
  8
0
 10
-70.221050999999989
 20
59.859999999999999
 30
0.0
 11
-73.304292000000032
 21
77.345933000000073
 31
0.0
  0
ARC
  5
DF97
  8
0
 10
-75.273907999999977
 20
76.998636000000033
 30
0.0
 40
2.0
 50
9.9999999999986073
 51
90.0
  0
LINE
  5
DF98
  8
0
 10
-203.72300599999991
 20
60.17726799999997
 30
0.0
 11
-200.695708
 21
77.345933000000073
 31
0.0
  0
ARC
  5
DF99
  8
0
 10
-198.72609199999999
 20
76.998636000000033
 30
0.0
 40
2.0
 50
90.0
 51
170.00000000000139
  0
LINE
  5
DF9A
  8
0
 10
-5.0
 20
5.03015199999993
 30
0.0
 11
-5.0
 21
7.9778440000000623
 31
0.0
  0
LINE
  5
DF9B
  8
0
 10
-5.0
 20
15.029628000000001
 30
0.0
 11
-5.0
 21
17.991107000000049
 31
0.0
  0
LINE
  5
DF9C
  8
0
 10
-5.0
 20
26.021808000000021
 30
0.0
 11
-5.0
 21
29.014434999999938
 31
0.0
  0
LINE
  5
DF9D
  8
0
 10
-5.0
 20
37.004603000000031
 30
0.0
 11
-5.0
 21
40.050308999999963
 31
0.0
  0
LINE
  5
DF9E
  8
0
 10
-5.0
 20
47.974482000000002
 30
0.0
 11
-5.0
 21
51.105395000000051
 31
0.0
  0
LINE
  5
DF9F
  8
0
 10
-5.0
 20
56.932957999999971
 30
0.0
 11
-5.0
 21
60.17726799999997
 31
0.0
  0
LINE
  5
DFA0
  8
0
 10
-55.0
 20
74.373133999999936
 30
0.0
 11
-71.49731799999995
 21
74.373133999999936
 31
0.0
  0
LINE
  5
DFA1
  8
0
 10
-23.213223000000092
 20
79.218101999999931
 30
0.0
 11
-39.0
 21
79.218101999999931
 31
0.0
  0
LINE
  5
DFA2
  8
0
 10
-55.0
 20
74.373133999999936
 30
0.0
 11
-39.0
 21
79.218101999999931
 31
0.0
  0
LINE
  5
DFA3
  8
0
 10
-39.0
 20
79.218101999999931
 30
0.0
 11
-39.0
 21
75.852787000000035
 31
0.0
  0
LINE
  5
DFA4
  8
0
 10
-55.0
 20
74.373133999999936
 30
0.0
 11
-55.0
 21
60.17726799999997
 31
0.0
  0
LINE
  5
DFA5
  8
0
 10
-19.5
 20
63.065962000000013
 30
0.0
 11
-19.5
 21
81.863648999999995
 31
0.0
  0
ARC
  5
DFA6
  8
0
 10
-17.5
 20
81.863648999999995
 30
0.0
 40
2.0
 50
90.0
 51
180.0
  0
LINE
  5
DFA7
  8
0
 10
-19.5
 20
67.456059999999979
 30
0.0
 11
-39.0
 21
67.456059999999979
 31
0.0
  0
LINE
  5
DFA8
  8
0
 10
-24.899993999999989
 20
75.852787000000035
 30
0.0
 11
-39.0
 21
75.852787000000035
 31
0.0
  0
LINE
  5
DFA9
  8
0
 10
-39.0
 20
67.456059999999979
 30
0.0
 11
-39.0
 21
60.17726799999997
 31
0.0
  0
INSERT
  5
DFAA
  8
0
  2
$6-45
 10
-19.5
 20
74.13325999999995
 30
0.0
 50
90.0
  0
LINE
  5
DFAB
  8
0
 10
0.0
 20
83.863649000000024
 30
0.0
 11
-17.5
 21
83.863649000000024
 31
0.0
  0
LINE
  5
DFAC
  8
0
 10
0.0
 20
62.065961999999992
 30
0.0
 11
-20.5
 21
62.065961999999992
 31
0.0
  0
ARC
  5
DFAD
  8
0
 10
-20.5
 20
63.065962000000013
 30
0.0
 40
1.0
 50
270.0
 51
0.0
  0
LINE
  5
DFAE
  8
0
 10
0.0
 20
75.739643999999998
 30
0.0
 11
-17.5
 21
75.739643999999998
 31
0.0
  0
LINE
  5
DFAF
  8
0
 10
-207.5
 20
84.0
 30
0.0
 11
-204.0
 21
84.0
 31
0.0
  0
ARC
  5
DFB0
  8
0
 10
-3.3218009999999918
 20
-90.0
 30
0.0
 40
2.0
 50
90.0
 51
170.00000000000139
  0
ARC
  5
DFB1
  8
0
 10
-67.257357999999954
 20
-94.993656999999985
 30
0.0
 40
1.9936590000000001
 50
90.075931000000267
 51
178.17025399999841
  0
LINE
  5
DFB2
  8
0
 10
-67.259999999999991
 20
-93.0
 30
0.0
 11
-7.5598339999999657
 21
-93.0
 31
0.0
  0
LINE
  5
DFB3
  8
0
 10
-69.5
 20
-102.0
 30
0.0
 11
-68.883970999999974
 21
-84.400679999999937
 31
0.0
  0
LINE
  5
DFB4
  8
0
 10
-5.2914160000000248
 20
-89.652704000000043
 30
0.0
 11
-5.5902190000000447
 21
-91.347295999999986
 31
0.0
  0
ARC
  5
DFB5
  8
0
 10
-7.5598339999999657
 20
-91.0
 30
0.0
 40
2.0
 50
270.0
 51
350.00000000000148
  0
LINE
  5
DFB6
  8
0
 10
-203.42265
 20
-85.0
 30
0.0
 11
-196.205771
 21
-97.5
 31
0.0
  0
LINE
  5
DFB7
  8
0
 10
-194.4737209999999
 20
-98.500000000000014
 30
0.0
 11
-146.55502899999999
 21
-98.500000000000014
 31
0.0
  0
LINE
  5
DFB8
  8
0
 10
-144.5
 20
-102.0
 30
0.0
 11
-144.55631199999999
 21
-100.42838500000001
 31
0.0
  0
ARC
  5
DFB9
  8
0
 10
-205.1547009999999
 20
-86.0
 30
0.0
 40
2.0
 50
30.000000000000551
 51
90.0
  0
ARC
  5
DFBA
  8
0
 10
-194.4737209999999
 20
-96.5
 30
0.0
 40
2.0
 50
210.0000000000004
 51
270.0
  0
ARC
  5
DFBB
  8
0
 10
-146.55502899999999
 20
-100.5
 30
0.0
 40
2.0
 50
2.052064999998533
 51
90.0
  0
LINE
  5
DFBC
  8
0
 10
-144.5
 20
-102.0
 30
0.0
 11
-69.5
 21
-102.0
 31
0.0
  0
LINE
  5
DFBD
  8
0
 10
-195.4737209999999
 20
-98.232050999999956
 30
0.0
 11
-195.4737209999999
 21
-84.400679999999937
 31
0.0
  0
LINE
  5
DFBE
  8
0
 10
-9.0329160000000002
 20
-84.400679999999937
 30
0.0
 11
-199.05635599999991
 21
-84.400679999999937
 31
0.0
  0
LINE
  5
DFBF
  8
0
 10
-9.2537019999999757
 20
-78.998635999999976
 30
0.0
 11
-198.94714300000001
 21
-78.998635999999976
 31
0.0
  0
LINE
  5
DFC0
  8
0
 10
-5.0
 20
-64.392233999999974
 30
0.0
 11
-39.0
 21
-64.392233999999974
 31
0.0
  0
LINE
  5
DFC1
  8
0
 10
-5.0
 20
-64.392233999999974
 30
0.0
 11
-7.2840869999999978
 21
-77.345933000000002
 31
0.0
  0
ARC
  5
DFC2
  8
0
 10
-9.2537019999999757
 20
-76.998635999999976
 30
0.0
 40
2.0
 50
270.0
 51
350.00000000000148
  0
LINE
  5
DFC3
  8
0
 10
-5.0
 20
-71.046416000000022
 30
0.0
 11
-7.0633009999999681
 21
-82.747975999999966
 31
0.0
  0
ARC
  5
DFC4
  8
0
 10
-9.0329160000000002
 20
-82.400679999999966
 30
0.0
 40
2.0
 50
270.0
 51
350.00000000000148
  0
LINE
  5
DFC5
  8
0
 10
-200.257262
 20
-84.0
 30
0.0
 11
-207.5
 21
-84.0
 31
0.0
  0
LINE
  5
DFC6
  8
0
 10
-5.0
 20
-83.151985999999951
 30
0.0
 11
-6.4450540000000274
 21
-91.347295999999986
 31
0.0
  0
ARC
  5
DFC7
  8
0
 10
-8.4146699999999992
 20
-91.0
 30
0.0
 40
2.0
 50
270.0
 51
350.00000000000148
  0
LINE
  5
DFC8
  8
0
 10
-70.0
 20
-48.160000000000018
 30
0.0
 11
-70.0
 21
-50.860000000000021
 31
0.0
  0
LINE
  5
DFC9
  8
0
 10
0.0
 20
-62.209636999999979
 30
0.0
 11
-17.5
 21
-62.209636999999979
 31
0.0
  0
LINE
  5
DFCA
  8
0
 10
0.0
 20
-49.901997999999992
 30
0.0
 11
-17.5
 21
-49.901997999999992
 31
0.0
  0
LINE
  5
DFCB
  8
0
 10
0.0
 20
-39.722706000000031
 30
0.0
 11
-5.0
 21
-39.722706000000031
 31
0.0
  0
LINE
  5
DFCC
  8
0
 10
-19.5
 20
-40.722706000000017
 30
0.0
 11
-19.5
 21
-60.209636999999987
 31
0.0
  0
ARC
  5
DFCD
  8
0
 10
-20.5
 20
-40.722706000000017
 30
0.0
 40
1.0
 50
0.0
 51
42.252323999999703
  0
ARC
  5
DFCE
  8
0
 10
-17.5
 20
-60.209636999999987
 30
0.0
 40
2.0
 50
180.0
 51
270.0
  0
LINE
  5
DFCF
  8
0
 10
-55.0
 20
56.932957999999971
 30
0.0
 11
-55.0
 21
51.105395000000051
 31
0.0
  0
LINE
  5
DFD0
  8
0
 10
-39.0
 20
56.932957999999971
 30
0.0
 11
-39.0
 21
51.105395000000051
 31
0.0
  0
LINE
  5
DFD1
  8
0
 10
-55.0
 20
47.974482000000002
 30
0.0
 11
-55.0
 21
40.050308999999963
 31
0.0
  0
LINE
  5
DFD2
  8
0
 10
-55.0
 20
37.004603000000031
 30
0.0
 11
-55.0
 21
29.014434999999938
 31
0.0
  0
LINE
  5
DFD3
  8
0
 10
-55.0
 20
26.021808000000021
 30
0.0
 11
-55.0
 21
17.991107000000049
 31
0.0
  0
LINE
  5
DFD4
  8
0
 10
-55.0
 20
15.029628000000001
 30
0.0
 11
-55.0
 21
7.9778440000000623
 31
0.0
  0
LINE
  5
DFD5
  8
0
 10
-55.0
 20
5.160000000000025
 30
0.0
 11
-55.0
 21
-5.03015199999993
 31
0.0
  0
LINE
  5
DFD6
  8
0
 10
-39.0
 20
5.160000000000025
 30
0.0
 11
-39.0
 21
-5.03015199999993
 31
0.0
  0
LINE
  5
DFD7
  8
0
 10
-39.0
 20
15.029628000000001
 30
0.0
 11
-39.0
 21
7.9778440000000623
 31
0.0
  0
LINE
  5
DFD8
  8
0
 10
-39.0
 20
26.021808000000021
 30
0.0
 11
-39.0
 21
17.991107000000049
 31
0.0
  0
LINE
  5
DFD9
  8
0
 10
-39.0
 20
37.004603000000031
 30
0.0
 11
-39.0
 21
29.014434999999938
 31
0.0
  0
LINE
  5
DFDA
  8
0
 10
-39.0
 20
47.974482000000002
 30
0.0
 11
-39.0
 21
40.050308999999963
 31
0.0
  0
LINE
  5
DFDB
  8
0
 10
-55.0
 20
-7.9778440000000623
 30
0.0
 11
-55.0
 21
-15.029628000000001
 31
0.0
  0
LINE
  5
DFDC
  8
0
 10
-39.0
 20
-7.9778440000000623
 30
0.0
 11
-39.0
 21
-15.029628000000001
 31
0.0
  0
LINE
  5
DFDD
  8
0
 10
-39.0
 20
-17.991107000000049
 30
0.0
 11
-39.0
 21
-26.021808000000021
 31
0.0
  0
LINE
  5
DFDE
  8
0
 10
-55.0
 20
-17.991107000000049
 30
0.0
 11
-55.0
 21
-26.021808000000021
 31
0.0
  0
LINE
  5
DFDF
  8
0
 10
-55.0
 20
-29.014434999999938
 30
0.0
 11
-55.0
 21
-37.004602999999989
 31
0.0
  0
LINE
  5
DFE0
  8
0
 10
-39.0
 20
-29.014434999999938
 30
0.0
 11
-39.0
 21
-37.004602999999989
 31
0.0
  0
LINE
  5
DFE1
  8
0
 10
-24.450604999999999
 20
-56.020796000000018
 30
0.0
 11
-39.000000999999997
 21
-56.020796000000018
 31
0.0
  0
LINE
  5
DFE2
  8
0
 10
-19.5
 20
-44.608446000000001
 30
0.0
 11
-39.000000999999997
 21
-44.608446000000001
 31
0.0
  0
LINE
  5
DFE3
  8
0
 10
-55.0
 20
-40.050308999999963
 30
0.0
 11
-55.0
 21
-60.05030899999997
 31
0.0
  0
LINE
  5
DFE4
  8
0
 10
-3.0
 20
83.863649000000024
 30
0.0
 11
-3.0
 21
88.0
 31
0.0
  0
LINE
  5
DFE5
  8
0
 10
-5.0
 20
-86.201744000000005
 30
0.0
 11
-5.9073000000000171
 21
-91.347295999999986
 31
0.0
  0
ARC
  5
DFE6
  8
0
 10
-7.8769150000000501
 20
-91.0
 30
0.0
 40
2.0
 50
270.0
 51
350.00000000000148
  0
LINE
  5
DFE7
  8
0
 10
-39.0
 20
-40.050308999999963
 30
0.0
 11
-39.0
 21
-44.608446000000001
 31
0.0
  0
LINE
  5
DFE8
  8
0
 10
-3.0
 20
-39.722706000000031
 30
0.0
 11
-3.0
 21
62.065961999999992
 31
0.0
  0
LINE
  5
DFE9
  8
0
 10
-204.0
 20
-59.859999999999999
 30
0.0
 11
-200.91675799999999
 21
-77.345933000000002
 31
0.0
  0
ARC
  5
DFEA
  8
0
 10
-198.94714300000001
 20
-76.998635999999976
 30
0.0
 40
2.0
 50
189.99999999999861
 51
270.0
  0
LINE
  5
DFEB
  8
0
 10
-54.294603000000052
 20
-51.305705999999979
 30
0.0
 11
-39.0
 21
-56.020796000000018
 31
0.0
  0
LINE
  5
DFEC
  8
0
 10
-39.0
 20
-44.608446000000001
 30
0.0
 11
-54.03594099999998
 21
-45.149196999999987
 31
0.0
  0
LINE
  5
DFED
  8
0
 10
-39.0
 20
-56.020796000000018
 30
0.0
 11
-39.0
 21
-64.392233999999974
 31
0.0
  0
ARC
  5
DFEE
  8
0
 10
-54.0
 20
-46.148550999999983
 30
0.0
 40
1.0
 50
92.059691000000456
 51
180.0
  0
ARC
  5
DFEF
  8
0
 10
-54.0
 20
-50.350085999999969
 30
0.0
 40
1.0
 50
180.0
 51
252.86627499999909
  0
LINE
  5
DFF0
  8
0
 10
-39.0
 20
75.852787000000035
 30
0.0
 11
-54.300458999999933
 21
71.032920999999988
 31
0.0
  0
LINE
  5
DFF1
  8
0
 10
-53.951445000000042
 20
66.729240000000004
 30
0.0
 11
-39.0
 21
67.456059999999979
 31
0.0
  0
ARC
  5
DFF2
  8
0
 10
-54.0
 20
70.079125999999974
 30
0.0
 40
1.0
 50
107.485179
 51
180.0
  0
ARC
  5
DFF3
  8
0
 10
-54.0
 20
67.728061000000025
 30
0.0
 40
1.0
 50
180.0
 51
270.0
  0
INSERT
  5
DFF4
  8
0
  2
$6-45
 10
-19.5
 20
-51.90866699999998
 30
0.0
 50
90.0
  0
LINE
  5
DFF5
  8
0
 10
-5.0
 20
60.17726799999997
 30
0.0
 11
-204.0
 21
60.17726799999997
 31
0.0
  0
LINE
  5
DFF6
  8
0
 10
-5.0
 20
56.932957999999971
 30
0.0
 11
-204.0
 21
56.932957999999971
 31
0.0
  0
LINE
  5
DFF7
  8
0
 10
-5.0
 20
51.105395000000051
 30
0.0
 11
-204.0
 21
51.105395000000051
 31
0.0
  0
LINE
  5
DFF8
  8
0
 10
-5.0
 20
47.974482000000002
 30
0.0
 11
-204.0
 21
47.974482000000002
 31
0.0
  0
LINE
  5
DFF9
  8
0
 10
-5.0
 20
40.050308999999963
 30
0.0
 11
-204.0
 21
40.050308999999963
 31
0.0
  0
LINE
  5
DFFA
  8
0
 10
-5.0
 20
37.004603000000031
 30
0.0
 11
-204.0
 21
37.004603000000031
 31
0.0
  0
LINE
  5
DFFB
  8
0
 10
-5.0
 20
29.014434999999938
 30
0.0
 11
-204.0
 21
29.014434999999938
 31
0.0
  0
LINE
  5
DFFC
  8
0
 10
-5.0
 20
26.021808000000021
 30
0.0
 11
-204.0
 21
26.021808000000021
 31
0.0
  0
LINE
  5
DFFD
  8
0
 10
-5.0
 20
17.991107000000049
 30
0.0
 11
-204.0
 21
17.991107000000049
 31
0.0
  0
LINE
  5
DFFE
  8
0
 10
-5.0
 20
15.029628000000001
 30
0.0
 11
-204.0
 21
15.029628000000001
 31
0.0
  0
LINE
  5
DFFF
  8
0
 10
-5.0
 20
7.9778440000000623
 30
0.0
 11
-99.426757000000094
 21
7.9778440000000623
 31
0.0
  0
LINE
  5
E000
  8
0
 10
-5.0
 20
5.03015199999993
 30
0.0
 11
-92.614353000000037
 21
5.03015199999993
 31
0.0
  0
LINE
  5
E001
  8
0
 10
-7.0789209999999771
 20
59.5
 30
0.0
 11
-7.0789209999999771
 21
57.5
 31
0.0
  0
LINE
  5
E002
  8
0
 10
-201.92107899999999
 20
57.5
 30
0.0
 11
-7.0789209999999771
 21
57.5
 31
0.0
  0
LINE
  5
E003
  8
0
 10
-201.92107899999999
 20
59.5
 30
0.0
 11
-7.0789209999999771
 21
59.5
 31
0.0
  0
LINE
  5
E004
  8
0
 10
-201.92107899999999
 20
48.5
 30
0.0
 11
-7.0789209999999771
 21
48.5
 31
0.0
  0
LINE
  5
E005
  8
0
 10
-201.92107899999999
 20
50.5
 30
0.0
 11
-7.0789209999999771
 21
50.5
 31
0.0
  0
LINE
  5
E006
  8
0
 10
-201.92107899999999
 20
37.5
 30
0.0
 11
-7.0789209999999771
 21
37.5
 31
0.0
  0
LINE
  5
E007
  8
0
 10
-201.92107899999999
 20
39.5
 30
0.0
 11
-7.0789209999999771
 21
39.5
 31
0.0
  0
LINE
  5
E008
  8
0
 10
-201.92107899999999
 20
26.5
 30
0.0
 11
-7.0789209999999771
 21
26.5
 31
0.0
  0
LINE
  5
E009
  8
0
 10
-201.92107899999999
 20
28.5
 30
0.0
 11
-7.0789209999999771
 21
28.5
 31
0.0
  0
LINE
  5
E00A
  8
0
 10
-201.92107899999999
 20
15.5
 30
0.0
 11
-7.0789209999999771
 21
15.5
 31
0.0
  0
LINE
  5
E00B
  8
0
 10
-201.92107899999999
 20
17.5
 30
0.0
 11
-7.0789209999999771
 21
17.5
 31
0.0
  0
LINE
  5
E00C
  8
0
 10
-93.225023000000078
 20
5.5
 30
0.0
 11
-7.0789209999999771
 21
5.5
 31
0.0
  0
LINE
  5
E00D
  8
0
 10
-98.953261999999995
 20
7.5
 30
0.0
 11
-7.0789209999999771
 21
7.5
 31
0.0
  0
LINE
  5
E00E
  8
0
 10
-7.0789209999999771
 20
59.5
 30
0.0
 11
-5.0
 21
60.17726799999997
 31
0.0
  0
LINE
  5
E00F
  8
0
 10
-7.0789209999999771
 20
57.5
 30
0.0
 11
-5.0
 21
56.932957999999971
 31
0.0
  0
LINE
  5
E010
  8
0
 10
-7.0789209999999771
 20
50.5
 30
0.0
 11
-5.0
 21
51.105395000000051
 31
0.0
  0
LINE
  5
E011
  8
0
 10
-7.0789209999999771
 20
48.5
 30
0.0
 11
-5.0
 21
47.974482000000002
 31
0.0
  0
LINE
  5
E012
  8
0
 10
-7.0789209999999771
 20
39.5
 30
0.0
 11
-5.0
 21
40.050308999999963
 31
0.0
  0
LINE
  5
E013
  8
0
 10
-7.0789209999999771
 20
37.5
 30
0.0
 11
-5.0
 21
37.004603000000031
 31
0.0
  0
LINE
  5
E014
  8
0
 10
-7.0789209999999771
 20
28.5
 30
0.0
 11
-5.0
 21
29.014434999999938
 31
0.0
  0
LINE
  5
E015
  8
0
 10
-7.0789209999999771
 20
26.5
 30
0.0
 11
-5.0
 21
26.021808000000021
 31
0.0
  0
LINE
  5
E016
  8
0
 10
-7.0789209999999771
 20
17.5
 30
0.0
 11
-5.0
 21
17.991107000000049
 31
0.0
  0
LINE
  5
E017
  8
0
 10
-7.0789209999999771
 20
15.5
 30
0.0
 11
-5.0
 21
15.029628000000001
 31
0.0
  0
LINE
  5
E018
  8
0
 10
-7.0789209999999771
 20
7.5
 30
0.0
 11
-5.0
 21
7.9778440000000623
 31
0.0
  0
LINE
  5
E019
  8
0
 10
-7.0789209999999771
 20
5.5
 30
0.0
 11
-5.0
 21
5.03015199999993
 31
0.0
  0
LINE
  5
E01A
  8
0
 10
-7.0789209999999771
 20
50.5
 30
0.0
 11
-7.0789209999999771
 21
48.5
 31
0.0
  0
LINE
  5
E01B
  8
0
 10
-7.0789209999999771
 20
39.5
 30
0.0
 11
-7.0789209999999771
 21
37.5
 31
0.0
  0
LINE
  5
E01C
  8
0
 10
-7.0789209999999771
 20
28.5
 30
0.0
 11
-7.0789209999999771
 21
26.5
 31
0.0
  0
LINE
  5
E01D
  8
0
 10
-7.0789209999999771
 20
17.5
 30
0.0
 11
-7.0789209999999771
 21
15.5
 31
0.0
  0
LINE
  5
E01E
  8
0
 10
-7.0789209999999771
 20
7.5
 30
0.0
 11
-7.0789209999999771
 21
5.5
 31
0.0
  0
ARC
  5
E01F
  8
0
 10
-93.225023000000078
 20
2.5
 30
0.0
 40
3.0
 50
90.0
 51
190.28656100000109
  0
ARC
  5
E020
  8
0
 10
-92.614353000000037
 20
1.560151999999956
 30
0.0
 40
3.4700000000000002
 50
90.0
 51
186.1896490000004
  0
LINE
  5
E021
  8
0
 10
-186.92107899999991
 20
7.5
 30
0.0
 11
-186.92107899999991
 21
5.5
 31
0.0
  0
LINE
  5
E022
  8
0
 10
-201.92107899999999
 20
17.5
 30
0.0
 11
-201.92107899999999
 21
15.5
 31
0.0
  0
LINE
  5
E023
  8
0
 10
-201.92107899999999
 20
28.5
 30
0.0
 11
-201.92107899999999
 21
26.5
 31
0.0
  0
LINE
  5
E024
  8
0
 10
-201.92107899999999
 20
39.5
 30
0.0
 11
-201.92107899999999
 21
37.5
 31
0.0
  0
LINE
  5
E025
  8
0
 10
-201.92107899999999
 20
50.5
 30
0.0
 11
-201.92107899999999
 21
48.5
 31
0.0
  0
LINE
  5
E026
  8
0
 10
-186.92107899999991
 20
5.5
 30
0.0
 11
-189.0
 21
5.03015199999993
 31
0.0
  0
LINE
  5
E027
  8
0
 10
-186.92107899999991
 20
7.5
 30
0.0
 11
-189.0
 21
7.9778440000000623
 31
0.0
  0
LINE
  5
E028
  8
0
 10
-201.92107899999999
 20
15.5
 30
0.0
 11
-204.0
 21
15.029628000000001
 31
0.0
  0
LINE
  5
E029
  8
0
 10
-201.92107899999999
 20
17.5
 30
0.0
 11
-204.0
 21
17.991107000000049
 31
0.0
  0
LINE
  5
E02A
  8
0
 10
-201.92107899999999
 20
26.5
 30
0.0
 11
-204.0
 21
26.021808000000021
 31
0.0
  0
LINE
  5
E02B
  8
0
 10
-201.92107899999999
 20
28.5
 30
0.0
 11
-204.0
 21
29.014434999999938
 31
0.0
  0
LINE
  5
E02C
  8
0
 10
-201.92107899999999
 20
37.5
 30
0.0
 11
-204.0
 21
37.004603000000031
 31
0.0
  0
LINE
  5
E02D
  8
0
 10
-201.92107899999999
 20
39.5
 30
0.0
 11
-204.0
 21
40.050308999999963
 31
0.0
  0
LINE
  5
E02E
  8
0
 10
-201.92107899999999
 20
48.5
 30
0.0
 11
-204.0
 21
47.974482000000002
 31
0.0
  0
LINE
  5
E02F
  8
0
 10
-201.92107899999999
 20
50.5
 30
0.0
 11
-204.0
 21
51.105395000000051
 31
0.0
  0
LINE
  5
E030
  8
0
 10
-201.92107899999999
 20
57.5
 30
0.0
 11
-204.0
 21
56.932957999999971
 31
0.0
  0
LINE
  5
E031
  8
0
 10
-201.92107899999999
 20
59.5
 30
0.0
 11
-204.0
 21
60.17726799999997
 31
0.0
  0
LINE
  5
E032
  8
0
 10
-201.92107899999999
 20
59.5
 30
0.0
 11
-201.92107899999999
 21
57.5
 31
0.0
  0
LINE
  5
E033
  8
0
 10
-204.0
 20
56.932957999999971
 30
0.0
 11
-204.0
 21
60.17726799999997
 31
0.0
  0
LINE
  5
E034
  8
0
 10
-204.0
 20
47.974482000000002
 30
0.0
 11
-204.0
 21
51.105395000000051
 31
0.0
  0
LINE
  5
E035
  8
0
 10
-204.0
 20
37.004603000000031
 30
0.0
 11
-204.0
 21
40.050308999999963
 31
0.0
  0
LINE
  5
E036
  8
0
 10
-204.0
 20
26.021808000000021
 30
0.0
 11
-204.0
 21
29.014434999999938
 31
0.0
  0
LINE
  5
E037
  8
0
 10
-204.0
 20
15.029628000000001
 30
0.0
 11
-204.0
 21
17.991107000000049
 31
0.0
  0
LINE
  5
E038
  8
0
 10
-189.0
 20
5.03015199999993
 30
0.0
 11
-189.0
 21
7.9778440000000623
 31
0.0
  0
LINE
  5
E039
  8
0
 10
-189.0
 20
7.9778440000000623
 30
0.0
 11
-114.57324299999991
 21
7.9778440000000623
 31
0.0
  0
LINE
  5
E03A
  8
0
 10
-189.0
 20
5.03015199999993
 30
0.0
 11
-121.38564699999991
 21
5.03015199999993
 31
0.0
  0
LINE
  5
E03B
  8
0
 10
-120.77497699999979
 20
5.5
 30
0.0
 11
-186.92107899999991
 21
5.5
 31
0.0
  0
LINE
  5
E03C
  8
0
 10
-115.046738
 20
7.5
 30
0.0
 11
-186.92107899999991
 21
7.5
 31
0.0
  0
ARC
  5
E03D
  8
0
 10
-120.77497699999979
 20
2.5
 30
0.0
 40
3.0
 50
349.71343899999869
 51
90.0
  0
ARC
  5
E03E
  8
0
 10
-121.38564699999991
 20
1.560151999999956
 30
0.0
 40
3.4700000000000002
 50
353.81035099999951
 51
90.0
  0
LINE
  5
E03F
  8
0
 10
-5.0
 20
-40.050308999999963
 30
0.0
 11
-204.0
 21
-40.050308999999963
 31
0.0
  0
LINE
  5
E040
  8
0
 10
-5.0
 20
-37.004602999999989
 30
0.0
 11
-204.0
 21
-37.004602999999989
 31
0.0
  0
LINE
  5
E041
  8
0
 10
-5.0
 20
-29.014434999999938
 30
0.0
 11
-204.0
 21
-29.014434999999938
 31
0.0
  0
LINE
  5
E042
  8
0
 10
-5.0
 20
-26.021808000000021
 30
0.0
 11
-204.0
 21
-26.021808000000021
 31
0.0
  0
LINE
  5
E043
  8
0
 10
-5.0
 20
-17.991107000000049
 30
0.0
 11
-204.0
 21
-17.991107000000049
 31
0.0
  0
LINE
  5
E044
  8
0
 10
-5.0
 20
-15.029628000000001
 30
0.0
 11
-204.0
 21
-15.029628000000001
 31
0.0
  0
LINE
  5
E045
  8
0
 10
-201.92107899999999
 20
-37.5
 30
0.0
 11
-7.0789209999999771
 21
-37.5
 31
0.0
  0
LINE
  5
E046
  8
0
 10
-201.92107899999999
 20
-39.5
 30
0.0
 11
-7.0789209999999771
 21
-39.5
 31
0.0
  0
LINE
  5
E047
  8
0
 10
-201.92107899999999
 20
-26.5
 30
0.0
 11
-7.0789209999999771
 21
-26.5
 31
0.0
  0
LINE
  5
E048
  8
0
 10
-201.92107899999999
 20
-28.5
 30
0.0
 11
-7.0789209999999771
 21
-28.5
 31
0.0
  0
LINE
  5
E049
  8
0
 10
-201.92107899999999
 20
-15.5
 30
0.0
 11
-7.0789209999999771
 21
-15.5
 31
0.0
  0
LINE
  5
E04A
  8
0
 10
-201.92107899999999
 20
-17.5
 30
0.0
 11
-7.0789209999999771
 21
-17.5
 31
0.0
  0
LINE
  5
E04B
  8
0
 10
-189.0
 20
-7.9778440000000623
 30
0.0
 11
-114.57324299999991
 21
-7.9778440000000623
 31
0.0
  0
LINE
  5
E04C
  8
0
 10
-189.0
 20
-5.03015199999993
 30
0.0
 11
-121.38564699999991
 21
-5.03015199999993
 31
0.0
  0
LINE
  5
E04D
  8
0
 10
-120.77497699999979
 20
-5.5
 30
0.0
 11
-186.92107899999991
 21
-5.5
 31
0.0
  0
LINE
  5
E04E
  8
0
 10
-115.046738
 20
-7.5
 30
0.0
 11
-186.92107899999991
 21
-7.5
 31
0.0
  0
LINE
  5
E04F
  8
0
 10
-189.0
 20
-5.03015199999993
 30
0.0
 11
-189.0
 21
-7.9778440000000623
 31
0.0
  0
LINE
  5
E050
  8
0
 10
-204.0
 20
-15.029628000000001
 30
0.0
 11
-204.0
 21
-17.991107000000049
 31
0.0
  0
LINE
  5
E051
  8
0
 10
-204.0
 20
-26.021808000000021
 30
0.0
 11
-204.0
 21
-29.014434999999938
 31
0.0
  0
LINE
  5
E052
  8
0
 10
-204.0
 20
-37.004602999999989
 30
0.0
 11
-204.0
 21
-40.050308999999963
 31
0.0
  0
LINE
  5
E053
  8
0
 10
-201.92107899999999
 20
-39.5
 30
0.0
 11
-204.0
 21
-40.050308999999963
 31
0.0
  0
LINE
  5
E054
  8
0
 10
-201.92107899999999
 20
-37.5
 30
0.0
 11
-204.0
 21
-37.004602999999989
 31
0.0
  0
LINE
  5
E055
  8
0
 10
-201.92107899999999
 20
-28.5
 30
0.0
 11
-204.0
 21
-29.014434999999938
 31
0.0
  0
LINE
  5
E056
  8
0
 10
-201.92107899999999
 20
-26.5
 30
0.0
 11
-204.0
 21
-26.021808000000021
 31
0.0
  0
LINE
  5
E057
  8
0
 10
-201.92107899999999
 20
-17.5
 30
0.0
 11
-204.0
 21
-17.991107000000049
 31
0.0
  0
LINE
  5
E058
  8
0
 10
-201.92107899999999
 20
-15.5
 30
0.0
 11
-204.0
 21
-15.029628000000001
 31
0.0
  0
LINE
  5
E059
  8
0
 10
-186.92107899999991
 20
-7.5
 30
0.0
 11
-189.0
 21
-7.9778440000000623
 31
0.0
  0
LINE
  5
E05A
  8
0
 10
-186.92107899999991
 20
-5.5
 30
0.0
 11
-189.0
 21
-5.03015199999993
 31
0.0
  0
LINE
  5
E05B
  8
0
 10
-201.92107899999999
 20
-39.5
 30
0.0
 11
-201.92107899999999
 21
-37.5
 31
0.0
  0
LINE
  5
E05C
  8
0
 10
-201.92107899999999
 20
-28.5
 30
0.0
 11
-201.92107899999999
 21
-26.5
 31
0.0
  0
LINE
  5
E05D
  8
0
 10
-201.92107899999999
 20
-17.5
 30
0.0
 11
-201.92107899999999
 21
-15.5
 31
0.0
  0
LINE
  5
E05E
  8
0
 10
-186.92107899999991
 20
-7.5
 30
0.0
 11
-186.92107899999991
 21
-5.5
 31
0.0
  0
ARC
  5
E05F
  8
0
 10
-120.77497699999979
 20
-2.5
 30
0.0
 40
3.0
 50
270.0
 51
10.28656100000123
  0
ARC
  5
E060
  8
0
 10
-121.38564699999991
 20
-1.560151999999956
 30
0.0
 40
3.4700000000000002
 50
270.0
 51
6.1896490000005366
  0
LINE
  5
E061
  8
0
 10
-5.0
 20
-7.9778440000000623
 30
0.0
 11
-99.426757000000094
 21
-7.9778440000000623
 31
0.0
  0
LINE
  5
E062
  8
0
 10
-5.0
 20
-5.03015199999993
 30
0.0
 11
-92.614353000000037
 21
-5.03015199999993
 31
0.0
  0
LINE
  5
E063
  8
0
 10
-93.225023000000078
 20
-5.5
 30
0.0
 11
-7.0789209999999771
 21
-5.5
 31
0.0
  0
LINE
  5
E064
  8
0
 10
-98.953261999999995
 20
-7.5
 30
0.0
 11
-7.0789209999999771
 21
-7.5
 31
0.0
  0
ARC
  5
E065
  8
0
 10
-93.225023000000078
 20
-2.5
 30
0.0
 40
3.0
 50
169.7134389999988
 51
270.0
  0
ARC
  5
E066
  8
0
 10
-92.614353000000037
 20
-1.560151999999956
 30
0.0
 40
3.4700000000000002
 50
173.8103509999994
 51
270.0
  0
LINE
  5
E067
  8
0
 10
-7.0789209999999771
 20
-7.5
 30
0.0
 11
-7.0789209999999771
 21
-5.5
 31
0.0
  0
LINE
  5
E068
  8
0
 10
-7.0789209999999771
 20
-17.5
 30
0.0
 11
-7.0789209999999771
 21
-15.5
 31
0.0
  0
LINE
  5
E069
  8
0
 10
-7.0789209999999771
 20
-28.5
 30
0.0
 11
-7.0789209999999771
 21
-26.5
 31
0.0
  0
LINE
  5
E06A
  8
0
 10
-7.0789209999999771
 20
-39.5
 30
0.0
 11
-7.0789209999999771
 21
-37.5
 31
0.0
  0
LINE
  5
E06B
  8
0
 10
-7.0789209999999771
 20
-5.5
 30
0.0
 11
-5.0
 21
-5.03015199999993
 31
0.0
  0
LINE
  5
E06C
  8
0
 10
-7.0789209999999771
 20
-7.5
 30
0.0
 11
-5.0
 21
-7.9778440000000623
 31
0.0
  0
LINE
  5
E06D
  8
0
 10
-7.0789209999999771
 20
-15.5
 30
0.0
 11
-5.0
 21
-15.029628000000001
 31
0.0
  0
LINE
  5
E06E
  8
0
 10
-7.0789209999999771
 20
-17.5
 30
0.0
 11
-5.0
 21
-17.991107000000049
 31
0.0
  0
LINE
  5
E06F
  8
0
 10
-7.0789209999999771
 20
-26.5
 30
0.0
 11
-5.0
 21
-26.021808000000021
 31
0.0
  0
LINE
  5
E070
  8
0
 10
-7.0789209999999771
 20
-28.5
 30
0.0
 11
-5.0
 21
-29.014434999999938
 31
0.0
  0
LINE
  5
E071
  8
0
 10
-7.0789209999999771
 20
-37.5
 30
0.0
 11
-5.0
 21
-37.004602999999989
 31
0.0
  0
LINE
  5
E072
  8
0
 10
-7.0789209999999771
 20
-39.5
 30
0.0
 11
-5.0
 21
-40.050308999999963
 31
0.0
  0
LINE
  5
E073
  8
0
 10
-5.0
 20
-37.004602999999989
 30
0.0
 11
-5.0
 21
-40.050308999999963
 31
0.0
  0
LINE
  5
E074
  8
0
 10
-5.0
 20
-26.021808000000021
 30
0.0
 11
-5.0
 21
-29.014434999999938
 31
0.0
  0
LINE
  5
E075
  8
0
 10
-5.0
 20
-15.029628000000001
 30
0.0
 11
-5.0
 21
-17.991107000000049
 31
0.0
  0
LINE
  5
E076
  8
0
 10
-5.0
 20
-5.03015199999993
 30
0.0
 11
-5.0
 21
-7.9778440000000623
 31
0.0
  0
LINE
  5
E077
  8
0
 10
-72.078921000000051
 20
-48.5
 30
0.0
 11
-70.0
 21
-48.004602999999967
 31
0.0
  0
LINE
  5
E078
  8
0
 10
-70.0
 20
-48.004602999999967
 30
0.0
 11
-204.0
 21
-48.004602999999967
 31
0.0
  0
LINE
  5
E079
  8
0
 10
-201.92107899999999
 20
-48.5
 30
0.0
 11
-72.078921000000051
 21
-48.5
 31
0.0
  0
LINE
  5
E07A
  8
0
 10
-72.078921000000051
 20
-50.5
 30
0.0
 11
-72.078921000000051
 21
-48.5
 31
0.0
  0
LINE
  5
E07B
  8
0
 10
-70.0
 20
-51.05030899999997
 30
0.0
 11
-204.0
 21
-51.05030899999997
 31
0.0
  0
LINE
  5
E07C
  8
0
 10
-201.92107899999999
 20
-50.5
 30
0.0
 11
-72.078921000000051
 21
-50.5
 31
0.0
  0
LINE
  5
E07D
  8
0
 10
-72.078921000000051
 20
-50.5
 30
0.0
 11
-70.0
 21
-51.05030899999997
 31
0.0
  0
LINE
  5
E07E
  8
0
 10
-70.0
 20
-57.004602999999967
 30
0.0
 11
-204.0
 21
-57.004602999999967
 31
0.0
  0
LINE
  5
E07F
  8
0
 10
-201.92107899999999
 20
-57.5
 30
0.0
 11
-72.078921000000051
 21
-57.5
 31
0.0
  0
LINE
  5
E080
  8
0
 10
-70.0
 20
-60.05030899999997
 30
0.0
 11
-203.966443
 21
-60.05030899999997
 31
0.0
  0
LINE
  5
E081
  8
0
 10
-201.92107899999999
 20
-59.5
 30
0.0
 11
-72.078921000000051
 21
-59.5
 31
0.0
  0
LINE
  5
E082
  8
0
 10
-72.078921000000051
 20
-59.5
 30
0.0
 11
-70.0
 21
-60.05030899999997
 31
0.0
  0
LINE
  5
E083
  8
0
 10
-70.0
 20
-57.004602999999967
 30
0.0
 11
-70.0
 21
-60.05030899999997
 31
0.0
  0
LINE
  5
E084
  8
0
 10
-72.078921000000051
 20
-59.5
 30
0.0
 11
-72.078921000000051
 21
-57.5
 31
0.0
  0
LINE
  5
E085
  8
0
 10
-72.078921000000051
 20
-57.5
 30
0.0
 11
-70.0
 21
-57.004602999999967
 31
0.0
  0
LINE
  5
E086
  8
0
 10
-70.0
 20
-60.05030899999997
 30
0.0
 11
-55.0
 21
-60.05030899999997
 31
0.0
  0
LINE
  5
E087
  8
0
 10
-55.0
 20
-60.05030899999997
 30
0.0
 11
-39.0
 21
-64.392233999999974
 31
0.0
  0
LINE
  5
E088
  8
0
 10
-204.0
 20
-48.004602999999967
 30
0.0
 11
-204.0
 21
-51.05030899999997
 31
0.0
  0
LINE
  5
E089
  8
0
 10
-204.0
 20
-57.004602999999967
 30
0.0
 11
-204.0
 21
-60.05030899999997
 31
0.0
  0
LINE
  5
E08A
  8
0
 10
-201.92107899999999
 20
-50.5
 30
0.0
 11
-201.92107899999999
 21
-48.5
 31
0.0
  0
LINE
  5
E08B
  8
0
 10
-201.92107899999999
 20
-48.5
 30
0.0
 11
-204.0
 21
-48.004602999999967
 31
0.0
  0
LINE
  5
E08C
  8
0
 10
-201.92107899999999
 20
-50.5
 30
0.0
 11
-204.0
 21
-51.05030899999997
 31
0.0
  0
LINE
  5
E08D
  8
0
 10
-201.92107899999999
 20
-57.5
 30
0.0
 11
-204.0
 21
-57.004602999999967
 31
0.0
  0
LINE
  5
E08E
  8
0
 10
-201.92107899999999
 20
-59.5
 30
0.0
 11
-201.92107899999999
 21
-57.5
 31
0.0
  0
LINE
  5
E08F
  8
0
 10
-201.92107899999999
 20
-59.5
 30
0.0
 11
-204.0
 21
-60.05030899999997
 31
0.0
  0
LINE
  5
E090
  8
0
 10
-207.5
 20
7.6437710000000116
 30
0.0
 11
-201.0
 21
7.6437710000000116
 31
0.0
  0
LINE
  5
E091
  8
0
 10
-207.5
 20
7.977849000000047
 30
0.0
 11
-200.31999999999999
 21
7.977849000000047
 31
0.0
  0
LINE
  5
E092
  8
0
 10
-199.0
 20
5.6437710000000116
 30
0.0
 11
-199.0
 21
0.0000039999999899
 31
0.0
  0
LINE
  5
E093
  8
0
 10
-197.31999999999999
 20
10.977849000000051
 30
0.0
 11
-197.31999999999999
 21
0.0000039999999899
 31
0.0
  0
ARC
  5
E094
  8
0
 10
-200.31999999999999
 20
10.977849000000051
 30
0.0
 40
3.0
 50
270.0
 51
0.0
  0
LINE
  5
E095
  8
0
 10
-207.5
 20
-7.643763999999976
 30
0.0
 11
-201.0
 21
-7.643763999999976
 31
0.0
  0
LINE
  5
E096
  8
0
 10
-207.5
 20
-7.977842000000007
 30
0.0
 11
-200.31999999999999
 21
-7.977842000000007
 31
0.0
  0
LINE
  5
E097
  8
0
 10
-199.0
 20
-5.643763999999976
 30
0.0
 11
-199.0
 21
0.0000039999999899
 31
0.0
  0
LINE
  5
E098
  8
0
 10
-197.31999999999999
 20
-10.97784200000001
 30
0.0
 11
-197.31999999999999
 21
0.0000039999999899
 31
0.0
  0
ARC
  5
E099
  8
0
 10
-200.31999999999999
 20
-10.97784200000001
 30
0.0
 40
3.0
 50
359.99999800000052
 51
89.999998000000446
  0
ENDBLK
  5
E09B
  8
0
  0
BLOCK
  8
0
  2
*D12
 70
     1
 10
0.0
 20
0.0
 30
0.0
  3
*D12
  1

  0
LINE
  5
E767
  8
AM_5
 62
     2
 10
1512.5394414996381
 20
512.44438547619518
 30
0.0
 11
1614.433323439162
 21
512.44438547619518
 31
0.0
  0
LINE
  5
E768
  8
AM_5
 62
     2
 10
1301.124592030834
 20
1003.4443454761951
 30
0.0
 11
1614.433323439162
 21
1003.4443454761951
 31
0.0
  0
LINE
  5
E769
  8
AM_5
 62
     2
 10
1613.433323439162
 20
514.44438547619507
 30
0.0
 11
1613.433323439162
 21
1001.4443454761951
 31
0.0
  0
SOLID
  5
E76A
  8
AM_5
 62
     2
 10
1613.099990105829
 20
514.44438547619507
 30
0.0
 11
1613.766656772495
 21
514.44438547619507
 31
0.0
 12
1613.433323439162
 22
512.44438547619518
 32
0.0
 13
1613.433323439162
 23
512.44438547619518
 33
0.0
  0
SOLID
  5
E76B
  8
AM_5
 62
     2
 10
1613.099990105829
 20
1001.4443454761951
 30
0.0
 11
1613.766656772495
 21
1001.4443454761951
 31
0.0
 12
1613.433323439162
 22
1003.4443454761951
 32
0.0
 13
1613.433323439162
 23
1003.4443454761951
 33
0.0
  0
INSERT
  5
E76C
  8
0
  2
*U13
 10
0.0
 20
0.0
 30
0.0
  0
POINT
  5
E76D
  8
DEFPOINTS
 62
     0
 10
1511.5394414996381
 20
512.44438547619518
 30
0.0
  0
POINT
  5
E76E
  8
DEFPOINTS
 62
     0
 10
1300.1245920308349
 20
1003.4443454761951
 30
0.0
  0
POINT
  5
E76F
  8
DEFPOINTS
 62
     0
 10
1613.433323439162
 20
1003.4443454761951
 30
0.0
  0
ENDBLK
  5
E74B
  8
0
  0
BLOCK
  8
0
  2
*U13
 70
     1
 10
0.0
 20
0.0
 30
0.0
  3
*U13
  1

  0
TEXT
  5
E849
  8
AM_5
 62
     4
 10
1611.933323439162
 20
755.78603214286204
 30
0.0
 40
2.5
  1
491
 50
90.0
 41
0.7400000000000003
  0
ENDBLK
  5
E84B
  8
0
  0
BLOCK
  8
0
  2
A$C447D20F7
 70
     0
 10
0.0
 20
0.0
 30
0.0
  3
A$C447D20F7
  1

  0
INSERT
  5
E7EA
  8
0
  2
*U15
 10
0.0
 20
0.0
 30
0.0
  0
ENDBLK
  5
E7EE
  8
0
  0
BLOCK
  8
0
  2
*U15
 70
     1
 10
0.0
 20
0.0
 30
0.0
  3
*U15
  1

  0
TEXT
  5
E84D
  8
0
 62
     0
 10
5.1211371559201639
 20
5.9826223594979648
 30
0.0
 40
15.0
  1
ＶＸ０８－００３ＥＭ～ＶＸ０８－０３０ＥＭ
 41
0.7400000000000003
  0
ENDBLK
  5
E84F
  8
0
  0
BLOCK
  8
0
  2
*U16
 70
     1
 10
0.0
 20
0.0
 30
0.0
  3
*U16
  1

  0
TEXT
  5
E841
  8
0
 62
     0
 10
5.1211371559201639
 20
5.9826223594979648
 30
0.0
 40
15.0
  1
ＶＸ０８－００３ＥＭ～ＶＸ０８－０３０ＥＭ
 41
0.7400000000000003
  0
ENDBLK
  5
E843
  8
0
  0
BLOCK
  8
0
  2
*U17
 70
     1
 10
0.0
 20
0.0
 30
0.0
  3
*U17
  1

  0
TEXT
  5
E845
  8
0
 62
     0
 10
1090.458936453452
 20
1140.4925576435969
 30
0.0
 40
20.0
  1
ＶＸ７５－０４０ＥＭ～ＶＸ７５－０８０ＥＭ
 41
0.7400000000000003
  0
ENDBLK
  5
E847
  8
0
  0
ENDSEC
  0
SECTION
  2
ENTITIES
  0
ARC
  5
AFD0
  8
0
 62
     0
 10
1300.1245925762501
 20
782.44439547619572
 30
0.0
 40
147.23598000000001
 50
351.58611999999738
 51
188.41388000000251
  0
ARC
  5
AFD1
  8
0
 62
     0
 10
1300.1245925762501
 20
782.44439547619572
 30
0.0
 40
122.828835
 50
356.91788999999602
 51
183.08211000000401
  0
CIRCLE
  5
AFD2
  8
0
 62
     0
 10
1300.1245925762501
 20
792.44434547619574
 30
0.0
 40
60.0
  0
LINE
  5
AFD3
  8
0
 62
     0
 10
1099.29834257625
 20
673.93483547619564
 30
0.0
 11
1099.29824257625
 21
750.51589047619552
 31
0.0
  0
LINE
  5
AFD4
  8
0
 62
     0
 10
1099.2983925762501
 20
673.93480547619515
 30
0.0
 11
1132.873842576251
 21
741.28633547619518
 31
0.0
  0
LINE
  5
AFD5
  8
0
 62
     0
 10
1414.0842325762501
 20
670.22234047619509
 30
0.0
 11
1377.613392576251
 21
812.33114547619527
 31
0.0
  0
LINE
  5
AFD6
  8
0
 62
     0
 10
1422.7757475762501
 20
775.84024547619504
 30
0.0
 11
1417.21297257625
 21
672.52922547619562
 31
0.0
  0
LINE
  5
AFD7
  8
0
 62
     0
 10
1428.28506757625
 20
642.65123547619521
 30
0.0
 11
1445.7758525762511
 21
760.90044047619551
 31
0.0
  0
LINE
  5
AFD8
  8
0
 62
     0
 10
1469.324252576251
 20
725.38860047619505
 30
0.0
 11
1460.2739025762521
 21
799.21534547619569
 31
0.0
  0
LINE
  5
AFD9
  8
0
 62
     0
 10
1454.31528257625
 20
772.44439047619551
 30
0.0
 11
1525.1245725762501
 21
550.44438547619518
 31
0.0
  0
LINE
  5
AFDA
  8
0
 62
     0
 10
1454.3152975762509
 20
762.48906547619504
 30
0.0
 11
1454.3152975762509
 21
717.3362004761957
 31
0.0
  0
LINE
  5
AFDB
  8
0
 62
     0
 10
1145.9338225762499
 20
762.48906547619504
 30
0.0
 11
1145.9338225762499
 21
717.3362004761957
 31
0.0
  0
LINE
  5
AFDC
  8
0
 62
     0
 10
1145.93385257625
 20
772.44439047619551
 30
0.0
 11
1075.12454257625
 21
550.44438547619518
 31
0.0
  0
LINE
  5
AFDD
  8
0
 62
     0
 10
1130.9248925762511
 20
725.3886304761952
 30
0.0
 11
1139.975242576251
 21
799.21534547619569
 31
0.0
  0
LINE
  5
AFDE
  8
0
 62
     0
 10
1171.964067576251
 20
642.65123547619521
 30
0.0
 11
1154.4732825762501
 21
760.90044047619551
 31
0.0
  0
LINE
  5
AFDF
  8
0
 62
     0
 10
1177.47343757625
 20
775.84029547619548
 30
0.0
 11
1183.036212576251
 21
672.52919547619558
 31
0.0
  0
LINE
  5
AFE0
  8
0
 62
     0
 10
1186.1649025762511
 20
670.22240047619562
 30
0.0
 11
1222.6357275762521
 21
812.33114547619527
 31
0.0
  0
ARC
  5
AFE1
  8
0
 62
     0
 10
1472.94696757625
 20
621.88826547619556
 30
0.0
 40
10.0
 50
17.690641000004149
 51
165.2047200000022
  0
LINE
  5
AFE2
  8
0
 62
     0
 10
1454.756627576251
 20
711.82634547619557
 30
0.0
 11
1490.339317576251
 21
600.26814547619563
 31
0.0
  0
LINE
  5
AFE3
  8
0
 62
     0
 10
1445.51686757625
 20
550.44438547619518
 30
0.0
 11
1525.1245725762501
 21
550.44438547619518
 31
0.0
  0
LINE
  5
AFE4
  8
0
 62
     0
 10
1525.1245725762501
 20
512.44438547619518
 30
0.0
 11
1435.1245625762519
 21
512.44438547619518
 31
0.0
  0
ARC
  5
AFE5
  8
0
 62
     0
 10
1183.12458757625
 20
517.44438547619518
 30
0.0
 40
18.000000499999999
 50
90.000002999984659
 51
180.00001000000091
  0
ARC
  5
AFE6
  8
0
 62
     0
 10
1174.597002576251
 20
532.85115547619534
 30
0.0
 40
8.0
 50
51.603335999994179
 51
149.99999999999969
  0
LINE
  5
AFE7
  8
0
 62
     0
 10
1153.2888975762501
 20
557.94438547619518
 30
0.0
 11
1188.10322757625
 21
618.24461547619546
 31
0.0
  0
LINE
  5
AFE8
  8
0
 62
     0
 10
1165.12458757625
 20
532.44438547619507
 30
0.0
 11
1198.8169425762501
 21
590.80126047619581
 31
0.0
  0
LINE
  5
AFE9
  8
0
 62
     0
 10
1075.1246425762499
 20
550.44438547619518
 30
0.0
 11
1075.1246425762499
 21
512.44438547619518
 31
0.0
  0
LINE
  5
AFEA
  8
0
 62
     0
 10
1160.12458757625
 20
541.10463047619521
 30
0.0
 11
1160.12458757625
 21
512.44438547619518
 31
0.0
  0
LINE
  5
AFEB
  8
0
 62
     0
 10
1165.12458757625
 20
532.44438547619507
 30
0.0
 11
1154.73228757625
 21
550.44438547619518
 31
0.0
  0
LINE
  5
AFEC
  8
0
 62
     0
 10
1075.1246425762499
 20
512.44438547619518
 30
0.0
 11
1165.12458757625
 21
512.44438547619518
 31
0.0
  0
LINE
  5
AFED
  8
0
 62
     0
 10
1165.12458757625
 20
512.44438547619518
 30
0.0
 11
1165.12458757625
 21
532.44438547619507
 31
0.0
  0
ARC
  5
AFEE
  8
0
 62
     0
 10
1249.1245575762509
 20
654.06441047619546
 30
0.0
 40
116.0
 50
173.44021999999541
 51
221.41017000000801
  0
LINE
  5
AFEF
  8
0
 62
     0
 10
1145.49253757625
 20
711.82634547619557
 30
0.0
 11
1109.90984257625
 21
600.26817547619555
 31
0.0
  0
LINE
  5
AFF0
  8
0
 62
     0
 10
1154.73228757625
 20
550.44438547619518
 30
0.0
 11
1075.1246425762499
 21
550.44438547619518
 31
0.0
  0
LINE
  5
AFF1
  8
0
 62
     0
 10
1104.2287425762499
 20
568.04912047619575
 30
0.0
 11
1109.90984257625
 21
600.26817547619555
 31
0.0
  0
ARC
  5
AFF2
  8
0
 62
     0
 10
1119.00089257625
 20
565.44438547619507
 30
0.0
 40
15.0
 50
169.99998999999841
 51
270.0
  0
ARC
  5
AFF3
  8
0
 62
     0
 10
1140.298492576251
 20
565.44438547619507
 30
0.0
 40
15.0
 50
270.0
 51
329.9999999999996
  0
ARC
  5
AFF4
  8
0
 62
     0
 10
1159.8753225762509
 20
575.35243547619507
 30
0.0
 40
3.0000000500000001
 50
329.9999999999996
 51
41.41017299996652
  0
ARC
  5
AFF5
  8
0
 62
     0
 10
1127.30219257625
 20
621.88826547619556
 30
0.0
 40
10.0
 50
14.795276999998711
 51
162.30936000000301
  0
LINE
  5
AFF6
  8
0
 62
     0
 10
1101.087642576251
 20
666.33425047619539
 30
0.0
 11
1131.62444257625
 21
727.58168547619573
 31
0.0
  0
LINE
  5
AFF7
  8
0
 62
     0
 10
1104.1558925762499
 20
672.48821047619515
 30
0.0
 11
1114.051792576251
 21
672.4883004761956
 31
0.0
  0
ARC
  5
AFF8
  8
0
 62
     0
 10
1098.62454257625
 20
669.23833047619576
 30
0.0
 40
1.5
 50
153.50009999999369
 51
243.5001200000047
  0
LINE
  5
AFF9
  8
0
 62
     0
 10
1097.95529257625
 20
667.89592547619498
 30
0.0
 11
1101.08759257625
 21
666.33425047619539
 31
0.0
  0
LINE
  5
AFFA
  8
0
 62
     0
 10
1099.29834257625
 20
673.93483547619564
 30
0.0
 11
1097.2821925762501
 21
669.90761547619547
 31
0.0
  0
ARC
  5
AFFB
  8
0
 62
     0
 10
1149.30336257625
 20
710.61086047619494
 30
0.0
 40
4.000000049999997
 50
122.3994100000012
 51
162.30936000000301
  0
LINE
  5
AFFC
  8
0
 62
     0
 10
1147.16011257625
 20
713.98815047619564
 30
0.0
 11
1152.35383757625
 21
717.28411047619568
 31
0.0
  0
ARC
  5
AFFD
  8
0
 62
     0
 10
1351.124562576251
 20
654.06441047619546
 30
0.0
 40
126.0
 50
270.0
 51
293.20093000000668
  0
ARC
  5
AFFE
  8
0
 62
     0
 10
1351.124562576251
 20
654.06441047619546
 30
0.0
 40
116.0
 50
270.0
 51
304.30660000002541
  0
ARC
  5
AFFF
  8
0
 62
     0
 10
1410.1245625762519
 20
552.44438547619507
 30
0.0
 40
17.000000499999999
 50
219.37899000001889
 51
308.3966600000299
  0
ARC
  5
B000
  8
0
 62
     0
 10
1417.12457757625
 20
517.44438547619518
 30
0.0
 40
18.000000499999999
 50
0.0
 51
90.000002999984659
  0
ARC
  5
B001
  8
0
 62
     0
 10
1325.04445257625
 20
530.0643804761952
 30
0.0
 40
8.0
 50
90.000002999984659
 51
184.5885700000004
  0
ARC
  5
B002
  8
0
 62
     0
 10
1275.204697576251
 20
530.0643804761952
 30
0.0
 40
8.0
 50
355.41142999999948
 51
90.000002999984659
  0
ARC
  5
B003
  8
0
 62
     0
 10
1190.12458757625
 20
552.44438547619507
 30
0.0
 40
17.000000499999999
 50
231.60332999999989
 51
320.62100999998108
  0
ARC
  5
B004
  8
0
 62
     0
 10
1249.1245575762509
 20
654.06441047619546
 30
0.0
 40
116.0
 50
235.69339999997459
 51
270.0
  0
ARC
  5
B005
  8
0
 62
     0
 10
1249.1245575762509
 20
654.06441047619546
 30
0.0
 40
126.0
 50
246.79906999999329
 51
270.0
  0
LINE
  5
B006
  8
0
 62
     0
 10
1435.12457757625
 20
532.44438547619507
 30
0.0
 11
1401.4322425762521
 21
590.80122547619555
 31
0.0
  0
LINE
  5
B007
  8
0
 62
     0
 10
1435.1245625762519
 20
532.44438547619507
 30
0.0
 11
1445.51686757625
 21
550.44438547619518
 31
0.0
  0
LINE
  5
B008
  8
0
 62
     0
 10
1440.1245625762519
 20
541.10463047619521
 30
0.0
 11
1440.1245625762519
 21
512.44438547619518
 31
0.0
  0
ARC
  5
B009
  8
0
 62
     0
 10
1323.8100175762499
 20
520.0643954761955
 30
0.0
 40
8.0
 50
90.000002999984659
 51
161.33707000001991
  0
LINE
  5
B00A
  8
0
 62
     0
 10
1190.12458757625
 20
535.44438547619507
 30
0.0
 11
1183.12458757625
 21
535.44438547619507
 31
0.0
  0
ARC
  5
B00B
  8
0
 62
     0
 10
1276.43913757625
 20
520.0643954761955
 30
0.0
 40
8.0
 50
18.6629250000036
 51
90.000002999984659
  0
ARC
  5
B00C
  8
0
 62
     0
 10
1300.1245925762501
 20
528.06438047619508
 30
0.0
 40
17.000000499999999
 50
175.4114299999994
 51
235.43968000000879
  0
LINE
  5
B00D
  8
0
 62
     0
 10
1249.1245575762509
 20
528.06438047619508
 30
0.0
 11
1276.43913757625
 21
528.06438047619508
 31
0.0
  0
LINE
  5
B00E
  8
0
 62
     0
 10
1290.4809125762511
 20
514.06439547619516
 30
0.0
 11
1309.76820757625
 21
514.06439547619516
 31
0.0
  0
ARC
  5
B00F
  8
0
 62
     0
 10
1300.1245925762501
 20
528.06438047619508
 30
0.0
 40
17.000000499999999
 50
304.56031999999038
 51
4.5885658999991721
  0
LINE
  5
B010
  8
0
 62
     0
 10
1351.124562576251
 20
528.06438047619508
 30
0.0
 11
1323.8100175762499
 21
528.06438047619508
 31
0.0
  0
LINE
  5
B011
  8
0
 62
     0
 10
1410.1245625762519
 20
535.44438547619507
 30
0.0
 11
1417.12457757625
 21
535.44438547619507
 31
0.0
  0
LINE
  5
B012
  8
0
 62
     0
 10
1435.1245625762519
 20
512.44438547619518
 30
0.0
 11
1435.1245625762519
 21
532.44438547619507
 31
0.0
  0
ARC
  5
B013
  8
0
 62
     0
 10
1324.00627257625
 20
570.06438047619508
 30
0.0
 40
6.0
 50
90.000002999984659
 51
174.308819999999
  0
LINE
  5
B014
  8
0
 62
     0
 10
1249.1245575762509
 20
538.0643804761952
 30
0.0
 11
1351.124562576251
 21
538.0643804761952
 31
0.0
  0
LINE
  5
B015
  8
0
 62
     0
 10
1249.1245575762509
 20
589.06441047619523
 30
0.0
 11
1351.124562576251
 21
589.06441047619523
 31
0.0
  0
ARC
  5
B016
  8
0
 62
     0
 10
1249.1245575762509
 20
654.06441047619546
 30
0.0
 40
78.0
 50
188.41387000000441
 51
211.232729999985
  0
ARC
  5
B017
  8
0
 62
     0
 10
1249.1245575762509
 20
654.06441047619546
 30
0.0
 40
65.0
 50
165.60622999999481
 51
202.07962000000759
  0
ARC
  5
B018
  8
0
 62
     0
 10
1249.1245575762509
 20
654.06441047619546
 30
0.0
 40
78.0
 50
233.1528099999681
 51
270.0
  0
ARC
  5
B019
  8
0
 62
     0
 10
1249.1245575762509
 20
654.06441047619546
 30
0.0
 40
65.0
 50
242.19486000000961
 51
270.0
  0
ARC
  5
B01A
  8
0
 62
     0
 10
1209.4487475762501
 20
536.58321047619518
 30
0.0
 40
8.0
 50
71.339098999988309
 51
140.621009999981
  0
ARC
  5
B01B
  8
0
 62
     0
 10
1182.053637576251
 20
555.76640547619536
 30
0.0
 40
3.0000000500000001
 50
55.693403000036561
 51
149.99999999999969
  0
ARC
  5
B01C
  8
0
 62
     0
 10
1211.80729757625
 20
583.30125547619525
 30
0.0
 40
15.0
 50
62.1948689999805
 51
149.99999999999969
  0
ARC
  5
B01D
  8
0
 62
     0
 10
1249.1245575762509
 20
654.06441047619546
 30
0.0
 40
65.0
 50
207.4878199999965
 51
229.418569999965
  0
ARC
  5
B01E
  8
0
 62
     0
 10
1176.844897576251
 20
624.74461547619558
 30
0.0
 40
12.999999000000001
 50
329.9999999999996
 51
22.079620999979628
  0
ARC
  5
B01F
  8
0
 62
     0
 10
1300.1245925762501
 20
572.44438547619507
 30
0.0
 40
18.000000499999999
 50
185.6911800000008
 51
354.30881000000272
  0
LINE
  5
B020
  8
0
 62
     0
 10
1249.1245575762509
 20
576.0643804761952
 30
0.0
 11
1276.2428775762501
 21
576.0643804761952
 31
0.0
  0
ARC
  5
B021
  8
0
 62
     0
 10
1276.2428775762501
 20
570.06438047619508
 30
0.0
 40
6.0
 50
5.6911850999964253
 51
90.000002999984659
  0
POLYLINE
  5
B022
  8
0
 62
     0
 66
     1
 10
0.0
 20
0.0
 30
0.0
  0
VERTEX
  5
B023
  8
0
 62
     0
 10
1295.1245925762501
 20
569.55763547619563
 30
0.0
  0
VERTEX
  5
B024
  8
0
 62
     0
 10
1300.1245925762501
 20
566.67088547619562
 30
0.0
  0
VERTEX
  5
B025
  8
0
 62
     0
 10
1305.1245925762501
 20
569.55763547619563
 30
0.0
  0
VERTEX
  5
B026
  8
0
 62
     0
 10
1305.1245925762501
 20
575.33113547619541
 30
0.0
  0
VERTEX
  5
B027
  8
0
 62
     0
 10
1300.1245925762501
 20
578.21788547619565
 30
0.0
  0
VERTEX
  5
B028
  8
0
 62
     0
 10
1295.1245925762501
 20
575.33113547619541
 30
0.0
  0
VERTEX
  5
B029
  8
0
 62
     0
 10
1295.1245925762501
 20
569.55763547619563
 30
0.0
  0
SEQEND
  5
B02A
  8
0
 62
     0
  0
CIRCLE
  5
B02B
  8
0
 62
     0
 10
1300.1245925762501
 20
572.44438547619507
 30
0.0
 40
9.6974994999999993
  0
CIRCLE
  5
B02C
  8
0
 62
     0
 10
1300.1245925762501
 20
572.44438547619507
 30
0.0
 40
10.4974995
  0
ARC
  5
B02D
  8
0
 62
     0
 10
1351.124562576251
 20
654.06441047619546
 30
0.0
 40
65.0
 50
337.92037999999241
 51
14.393764999998259
  0
ARC
  5
B02E
  8
0
 62
     0
 10
1351.124562576251
 20
654.06441047619546
 30
0.0
 40
78.0
 50
328.76728000000452
 51
351.58611999999738
  0
ARC
  5
B02F
  8
0
 62
     0
 10
1351.124562576251
 20
654.06441047619546
 30
0.0
 40
116.0
 50
318.58982999999199
 51
6.5597828000044389
  0
ARC
  5
B030
  8
0
 62
     0
 10
1388.4418525762501
 20
583.30125547619525
 30
0.0
 40
15.0
 50
30.000000999993741
 51
117.8051399999903
  0
ARC
  5
B031
  8
0
 62
     0
 10
1351.124562576251
 20
654.06441047619546
 30
0.0
 40
65.0
 50
310.58143000003491
 51
332.51218999998378
  0
ARC
  5
B032
  8
0
 62
     0
 10
1351.124562576251
 20
654.06441047619546
 30
0.0
 40
78.0
 50
270.0
 51
306.84719000003167
  0
LINE
  5
B033
  8
0
 62
     0
 10
1351.124562576251
 20
576.0643804761952
 30
0.0
 11
1324.00627257625
 21
576.0643804761952
 31
0.0
  0
ARC
  5
B034
  8
0
 62
     0
 10
1390.800417576251
 20
536.58321047619518
 30
0.0
 40
8.0
 50
39.378995000018961
 51
108.66089999997661
  0
ARC
  5
B035
  8
0
 62
     0
 10
1351.124562576251
 20
654.06441047619546
 30
0.0
 40
65.0
 50
270.0
 51
297.80512999998763
  0
LINE
  5
B036
  8
0
 62
     0
 10
1446.960257576251
 20
557.94438547619518
 30
0.0
 11
1412.14590757625
 21
618.24458547619554
 31
0.0
  0
ARC
  5
B037
  8
0
 62
     0
 10
1425.65211757625
 20
532.85115547619534
 30
0.0
 40
8.0
 50
30.000000999993741
 51
128.39667
  0
ARC
  5
B038
  8
0
 62
     0
 10
1418.19550257625
 20
555.76640547619536
 30
0.0
 40
3.0000000500000001
 50
30.000000999993741
 51
124.3066000000254
  0
ARC
  5
B039
  8
0
 62
     0
 10
1440.37381257625
 20
575.35243547619507
 30
0.0
 40
3.0000000500000001
 50
138.58981999999239
 51
210.00000000000031
  0
ARC
  5
B03A
  8
0
 62
     0
 10
1459.9506425762511
 20
565.44438547619507
 30
0.0
 40
15.0
 50
210.00000000000031
 51
270.0
  0
ARC
  5
B03B
  8
0
 62
     0
 10
1423.40424257625
 20
624.74461547619558
 30
0.0
 40
12.999999000000001
 50
157.92037999999241
 51
210.00000000000031
  0
ARC
  5
B03C
  8
0
 62
     0
 10
1450.9457775762521
 20
710.61086047619494
 30
0.0
 40
4.000000049999997
 50
17.690641000004149
 51
57.600596999984212
  0
LINE
  5
B03D
  8
0
 62
     0
 10
1453.0890575762501
 20
713.98815047619564
 30
0.0
 11
1447.895327576251
 21
717.28411047619568
 31
0.0
  0
LINE
  5
B03E
  8
0
 62
     0
 10
1525.1245725762501
 20
550.44438547619518
 30
0.0
 11
1525.1245725762501
 21
512.44438547619518
 31
0.0
  0
LINE
  5
B03F
  8
0
 62
     0
 10
1496.02037757625
 20
568.04912047619575
 30
0.0
 11
1490.339282576251
 21
600.26814547619563
 31
0.0
  0
ARC
  5
B040
  8
0
 62
     0
 10
1481.248267576251
 20
565.44438547619507
 30
0.0
 40
15.0
 50
270.0
 51
9.9999996999954472
  0
ARC
  5
B041
  8
0
 62
     0
 10
1300.1245925762501
 20
782.44439547619572
 30
0.0
 40
161.0
 50
123.30124000001329
 51
159.75120000001931
  0
ARC
  5
B042
  8
0
 62
     0
 10
1300.1245925762501
 20
782.44439547619572
 30
0.0
 40
152.0
 50
125.0894600000145
 51
157.99684000000221
  0
LINE
  5
B043
  8
0
 62
     0
 10
1148.54548757625
 20
793.74824547619505
 30
0.0
 11
1145.93388257625
 21
772.44439047619551
 31
0.0
  0
ARC
  5
B044
  8
0
 62
     0
 10
1137.68304257625
 20
775.48644547619551
 30
0.0
 40
12.999999000000001
 50
90.000002999984659
 51
135.00000000000861
  0
LINE
  5
B045
  8
0
 62
     0
 10
1128.490642576251
 20
784.67889547619552
 30
0.0
 11
1102.8130425762511
 21
759.00121047619552
 31
0.0
  0
ARC
  5
B046
  8
0
 62
     0
 10
1111.29834257625
 20
750.51589047619552
 30
0.0
 40
12.0
 50
135.00000000000861
 51
180.00001000000091
  0
LINE
  5
B047
  8
0
 62
     0
 10
1138.6599925762509
 20
788.48649547619573
 30
0.0
 11
1137.68304257625
 21
788.48649547619573
 31
0.0
  0
ARC
  5
B048
  8
0
 62
     0
 10
1300.1245925762501
 20
782.44439547619572
 30
0.0
 40
152.0
 50
160.5425600000016
 51
173.18940000000339
  0
ARC
  5
B049
  8
0
 62
     0
 10
1150.12458757625
 20
817.44434547619574
 30
0.0
 40
17.000000499999999
 50
86.206794999982719
 51
247.52514999997109
  0
ARC
  5
B04A
  8
0
 62
     0
 10
1140.5675925762509
 20
794.34314547619522
 30
0.0
 40
8.0
 50
355.73511000000371
 51
67.525155999999768
  0
ARC
  5
B04B
  8
0
 62
     0
 10
1132.034692576251
 20
800.18874547619521
 30
0.0
 40
8.0
 50
353.01103000000597
 51
43.647921000032468
  0
ARC
  5
B04C
  8
0
 62
     0
 10
1141.568992576251
 20
840.93484547619585
 30
0.0
 40
8.0
 50
290.01232000003398
 51
339.75120000001948
  0
ARC
  5
B04D
  8
0
 62
     0
 10
1151.77845757625
 20
842.38959547619538
 30
0.0
 40
8.0
 50
266.2068000000196
 51
337.99684000000241
  0
ARC
  5
B04E
  8
0
 62
     0
 10
1300.1245925762501
 20
782.44439547619572
 30
0.0
 40
161.0
 50
70.837367000006452
 51
82.759510000020342
  0
ARC
  5
B04F
  8
0
 62
     0
 10
1368.1245925762501
 20
920.4444454761956
 30
0.0
 40
17.000000499999999
 50
343.55078000000248
 51
143.98535000001829
  0
ARC
  5
B050
  8
0
 62
     0
 10
1232.12455757625
 20
920.4444454761956
 30
0.0
 40
17.000000499999999
 50
36.014659000008187
 51
196.44921999999721
  0
ARC
  5
B051
  8
0
 62
     0
 10
1300.1245925762501
 20
782.44439547619572
 30
0.0
 40
161.0
 50
97.240495000014405
 51
109.1626400000181
  0
LINE
  5
B052
  8
0
 62
     0
 10
1320.1245925762501
 20
943.44434547619562
 30
0.0
 11
1322.0948975762519
 21
934.76764547619553
 31
0.0
  0
LINE
  5
B053
  8
0
 62
     0
 10
1280.1245625762519
 20
943.44434547619562
 30
0.0
 11
1278.154282576251
 21
934.76764547619553
 31
0.0
  0
ARC
  5
B054
  8
0
 62
     0
 10
1325.02040257625
 20
935.43194547619521
 30
0.0
 40
3.0000000500000001
 50
192.7936600000057
 51
260.75722000000201
  0
ARC
  5
B055
  8
0
 62
     0
 10
1300.1245925762501
 20
782.44439547619572
 30
0.0
 40
152.0
 50
72.625585999989354
 51
107.3744100000164
  0
ARC
  5
B056
  8
0
 62
     0
 10
1300.1245925762501
 20
792.44434547619574
 30
0.0
 40
80.0
 50
14.393764999998259
 51
165.60622999999481
  0
ARC
  5
B057
  8
0
 62
     0
 10
1300.1245925762501
 20
792.44434547619574
 30
0.0
 40
35.000000499999992
 50
106.60155000001561
 51
73.398452000021024
  0
CIRCLE
  5
B058
  8
0
 62
     0
 10
1300.1245925762501
 20
792.44434547619574
 30
0.0
 40
5.0
  0
CIRCLE
  5
B059
  8
0
 62
     0
 10
1300.1245925762501
 20
792.44434547619574
 30
0.0
 40
6.0
  0
LINE
  5
B05A
  8
0
 62
     0
 10
1310.1245925762501
 20
831.94434547619551
 30
0.0
 11
1290.1245925762501
 21
831.94434547619551
 31
0.0
  0
LINE
  5
B05B
  8
0
 62
     0
 10
1290.1245925762501
 20
819.94434547619585
 30
0.0
 11
1310.1245925762501
 21
819.94434547619585
 31
0.0
  0
LINE
  5
B05C
  8
0
 62
     0
 10
1290.1245925762501
 20
831.94434547619551
 30
0.0
 11
1290.1245925762501
 21
819.94434547619585
 31
0.0
  0
LINE
  5
B05D
  8
0
 62
     0
 10
1310.1245925762501
 20
819.94434547619585
 30
0.0
 11
1310.1245925762501
 21
831.94434547619551
 31
0.0
  0
ARC
  5
B05E
  8
0
 62
     0
 10
1244.650192576252
 20
942.08024547619539
 30
0.0
 40
8.0
 50
239.93214999999611
 51
289.16263000001692
  0
ARC
  5
B05F
  8
0
 62
     0
 10
1300.1245925762501
 20
782.44439547619572
 30
0.0
 40
152.0
 50
109.89673999999719
 51
122.56714000000009
  0
ARC
  5
B060
  8
0
 62
     0
 10
1252.346237576251
 20
935.14419547619525
 30
0.0
 40
8.0
 50
216.01464999998171
 51
287.37441000001638
  0
ARC
  5
B061
  8
0
 62
     0
 10
1208.1478125762501
 20
913.3652454761957
 30
0.0
 40
8.0
 50
305.08947000001518
 51
16.44921999999745
  0
ARC
  5
B062
  8
0
 62
     0
 10
1207.336657576252
 20
923.69389547619505
 30
0.0
 40
8.0
 50
303.30124000001342
 51
352.5317299999997
  0
ARC
  5
B063
  8
0
 62
     0
 10
1275.22877757625
 20
935.43194547619521
 30
0.0
 40
3.0000000500000001
 50
279.2427799999972
 51
347.20632999999771
  0
ARC
  5
B064
  8
0
 62
     0
 10
1300.1245925762501
 20
782.44439547619572
 30
0.0
 40
152.0
 50
22.00315900000367
 51
54.910531000024783
  0
ARC
  5
B065
  8
0
 62
     0
 10
1300.1245925762501
 20
782.44439547619572
 30
0.0
 40
161.0
 50
20.248803999994461
 51
56.698756000006362
  0
LINE
  5
B066
  8
0
 62
     0
 10
1451.703677576251
 20
793.74824547619505
 30
0.0
 11
1454.3152975762509
 21
772.44439047619551
 31
0.0
  0
ARC
  5
B067
  8
0
 62
     0
 10
1448.4706925762521
 20
842.38959547619538
 30
0.0
 40
8.0
 50
202.00315999999759
 51
273.7931999999804
  0
ARC
  5
B068
  8
0
 62
     0
 10
1450.1245625762519
 20
817.44434547619574
 30
0.0
 40
17.000000499999999
 50
292.47483999995251
 51
93.793202999970362
  0
ARC
  5
B069
  8
0
 62
     0
 10
1300.1245925762501
 20
782.44439547619572
 30
0.0
 40
152.0
 50
6.81059589999448
 51
19.457447999993931
  0
ARC
  5
B06A
  8
0
 62
     0
 10
1468.21443757625
 20
800.18874547619521
 30
0.0
 40
8.0
 50
136.35208000001239
 51
186.9889699999938
  0
ARC
  5
B06B
  8
0
 62
     0
 10
1459.6815075762499
 20
794.34314547619522
 30
0.0
 40
8.0
 50
112.47483999995249
 51
184.2648800000008
  0
ARC
  5
B06C
  8
0
 62
     0
 10
1458.68013757625
 20
840.93484547619585
 30
0.0
 40
8.0
 50
200.24879999998049
 51
249.987679999965
  0
ARC
  5
B06D
  8
0
 62
     0
 10
1300.1245925762501
 20
782.44439547619572
 30
0.0
 40
152.0
 50
57.432861000019329
 51
70.103258000010399
  0
ARC
  5
B06E
  8
0
 62
     0
 10
1347.9029125762499
 20
935.14419547619525
 30
0.0
 40
8.0
 50
252.6255899999835
 51
323.98534000000598
  0
ARC
  5
B06F
  8
0
 62
     0
 10
1355.598957576251
 20
942.08024547619539
 30
0.0
 40
8.0
 50
250.83735999998191
 51
300.06785000000389
  0
ARC
  5
B070
  8
0
 62
     0
 10
1392.10133757625
 20
913.3652454761957
 30
0.0
 40
8.0
 50
163.5507800000025
 51
234.9105299999847
  0
ARC
  5
B071
  8
0
 62
     0
 10
1392.91249757625
 20
923.69389547619505
 30
0.0
 40
8.0
 50
187.4682700000003
 51
236.69875999998661
  0
ARC
  5
B072
  8
0
 62
     0
 10
1300.1245925762501
 20
997.19434547619517
 30
0.0
 40
6.25
 50
0.0
 51
180.00001000000091
  0
LINE
  5
B073
  8
0
 62
     0
 10
1293.8745925762501
 20
997.19434547619517
 30
0.0
 11
1293.8745925762501
 21
949.44444547619526
 31
0.0
  0
LINE
  5
B074
  8
0
 62
     0
 10
1306.3745925762501
 20
997.19434547619517
 30
0.0
 11
1306.3745925762501
 21
949.44444547619526
 31
0.0
  0
LINE
  5
B075
  8
0
 62
     0
 10
1320.1245925762501
 20
943.44434547619562
 30
0.0
 11
1280.1245925762501
 21
943.44434547619562
 31
0.0
  0
ARC
  5
B076
  8
0
 62
     0
 10
1291.1486375762511
 20
949.9680454761957
 30
0.0
 40
4.949999899999999
 50
101.68763000001999
 51
165.76742999999399
  0
ARC
  5
B077
  8
0
 62
     0
 10
1288.8745925762501
 20
949.44444547619526
 30
0.0
 40
5.0
 50
302.97255999998839
 51
0.0
  0
LINE
  5
B078
  8
0
 62
     0
 10
1286.35057257625
 20
951.18504547619534
 30
0.0
 11
1285.1245625762519
 21
943.44444547619548
 31
0.0
  0
LINE
  5
B079
  8
0
 62
     0
 10
1293.8745925762501
 20
955.2372454761952
 30
0.0
 11
1290.1458925762511
 21
954.8153954761957
 31
0.0
  0
ARC
  5
B07A
  8
0
 62
     0
 10
1309.1005425762501
 20
949.9680454761957
 30
0.0
 40
4.949999899999999
 50
14.232568000000221
 51
78.312367000019506
  0
ARC
  5
B07B
  8
0
 62
     0
 10
1311.3745925762501
 20
949.44444547619526
 30
0.0
 40
5.0
 50
179.999989999999
 51
237.02745000002241
  0
LINE
  5
B07C
  8
0
 62
     0
 10
1315.1245925762501
 20
943.44434547619562
 30
0.0
 11
1313.898577576251
 21
951.18504547619534
 31
0.0
  0
LINE
  5
B07D
  8
0
 62
     0
 10
1310.103287576251
 20
954.81534547619549
 30
0.0
 11
1306.3745625762519
 21
955.23719547619555
 31
0.0
  0
LINE
  5
B07E
  8
0
 62
     0
 10
944.582997836961
 20
831.94434547619551
 30
0.0
 11
1029.5829978369611
 21
831.94434547619551
 31
0.0
  0
LINE
  5
B07F
  8
0
 62
     0
 10
1029.5829978369611
 20
757.44439047619551
 30
0.0
 11
919.582997836961
 21
757.44439047619551
 31
0.0
  0
LINE
  5
B080
  8
0
 62
     0
 10
919.582997836961
 20
827.44434547619551
 30
0.0
 11
1029.5829978369611
 21
827.44434547619551
 31
0.0
  0
ARC
  5
B081
  8
0
 62
     0
 10
3118.8275978369611
 20
814.51084547619541
 30
0.0
 40
2256.3525500000001
 50
180.56033999999499
 51
186.00566000000569
  0
LINE
  5
B082
  8
0
 62
     0
 10
754.58299783696111
 20
801.53864547619503
 30
0.0
 11
754.58299783696111
 21
732.57140047619521
 31
0.0
  0
LINE
  5
B083
  8
0
 62
     0
 10
757.58299783696111
 20
798.53864547619526
 30
0.0
 11
757.58299783696111
 21
736.44438547619541
 31
0.0
  0
LINE
  5
B084
  8
0
 62
     0
 10
832.67909783696109
 20
770.61077047619494
 30
0.0
 11
843.22424783696124
 21
569.3976604761956
 31
0.0
  0
LINE
  5
B085
  8
0
 62
     0
 10
912.58299783696066
 20
851.61599547619539
 30
0.0
 11
912.58299783696066
 21
733.27281547619521
 31
0.0
  0
LINE
  5
B086
  8
0
 62
     0
 10
908.58299783696043
 20
864.44434547619505
 30
0.0
 11
908.58299783696043
 21
589.06441047619523
 31
0.0
  0
LINE
  5
B087
  8
0
 62
     0
 10
887.58299783696066
 20
899.15029547619508
 30
0.0
 11
887.58299783696066
 21
615.88307547619524
 31
0.0
  0
LINE
  5
B089
  8
0
 62
     0
 10
666.08299783696111
 20
846.59854547619545
 30
0.0
 11
666.08299783696111
 21
615.65892547619524
 31
0.0
  0
LINE
  5
B08A
  8
0
 62
     0
 10
716.58304783696121
 20
939.44444547619503
 30
0.0
 11
716.58304783696121
 21
599.44438547619518
 31
0.0
  0
LINE
  5
B08B
  8
0
 62
     0
 10
621.08299783696111
 20
846.84439547619502
 30
0.0
 11
621.08299783696111
 21
729.84441047619555
 31
0.0
  0
LINE
  5
B08C
  8
0
 62
     0
 10
732.58299783696111
 20
943.44434547619539
 30
0.0
 11
732.58299783696111
 21
615.44438547619507
 31
0.0
  0
LINE
  5
B08D
  8
0
 62
     0
 10
736.72514783696124
 20
619.58653547619542
 30
0.0
 11
674.90534783696103
 21
557.76674047619554
 31
0.0
  0
LINE
  5
B08E
  8
0
 62
     0
 10
612.58299783696111
 20
512.44438547619518
 30
0.0
 11
912.58299783696066
 21
512.44438547619518
 31
0.0
  0
LINE
  5
B08F
  8
0
 62
     0
 10
690.12169783696095
 20
572.98311047619563
 30
0.0
 11
670.92804783696101
 21
584.52968047619561
 31
0.0
  0
LINE
  5
B090
  8
0
 62
     0
 10
612.58299783696111
 20
546.44438547619518
 30
0.0
 11
612.58299783696111
 21
512.44438547619518
 31
0.0
  0
LINE
  5
B091
  8
0
 62
     0
 10
621.08299783696111
 20
612.84438047619551
 30
0.0
 11
621.08299783696111
 21
729.84441047619555
 31
0.0
  0
ARC
  5
B092
  8
0
 62
     0
 10
676.08299783696111
 20
593.09859047619545
 30
0.0
 40
10.0
 50
179.999989999999
 51
238.9695499999869
  0
LINE
  5
B093
  8
0
 62
     0
 10
616.58304783696121
 20
550.44438547619518
 30
0.0
 11
657.22764783696073
 21
550.44438547619518
 31
0.0
  0
ARC
  5
B094
  8
0
 62
     0
 10
616.58304783696121
 20
546.44438547619518
 30
0.0
 40
4.000000049999997
 50
90.000002999984659
 51
180.00001000000091
  0
ARC
  5
B095
  8
0
 62
     0
 10
657.22764783696073
 20
575.44438547619518
 30
0.0
 40
25.000000499999999
 50
270.0
 51
315.0000000000087
  0
LINE
  5
B096
  8
0
 62
     0
 10
621.59179783696118
 20
613.83550047619565
 30
0.0
 11
662.15284783696097
 21
613.12749047619525
 31
0.0
  0
ARC
  5
B097
  8
0
 62
     0
 10
620.08299783696111
 20
612.84438047619551
 30
0.0
 40
1.0
 50
270.0
 51
0.0
  0
LINE
  5
B098
  8
0
 62
     0
 10
607.58299783696111
 20
611.84441047619521
 30
0.0
 11
620.08299783696111
 21
611.84441047619521
 31
0.0
  0
ARC
  5
B099
  8
0
 62
     0
 10
621.5830478369611
 20
613.3355604761955
 30
0.0
 40
0.5
 50
89.000001000015246
 51
180.00001000000091
  0
ARC
  5
B09A
  8
0
 62
     0
 10
619.08304783696121
 20
632.11720547619552
 30
0.0
 40
2.0000000500000001
 50
270.0
 51
0.0
  0
LINE
  5
B09B
  8
0
 62
     0
 10
607.58299783696111
 20
630.11717547619514
 30
0.0
 11
619.08304783696121
 21
630.11717547619514
 31
0.0
  0
ARC
  5
B09C
  8
0
 62
     0
 10
662.08299783696111
 20
609.12810047619519
 30
0.0
 40
4.000000049999997
 50
0.0
 51
89.000001000015246
  0
LINE
  5
B09D
  8
0
 62
     0
 10
666.08299783696111
 20
609.12810047619519
 30
0.0
 11
666.08299783696111
 21
593.09859047619545
 31
0.0
  0
LINE
  5
B09E
  8
0
 62
     0
 10
621.08299783696111
 20
658.01198047619516
 30
0.0
 11
666.08299783696111
 21
658.01198047619516
 31
0.0
  0
LINE
  5
B09F
  8
0
 62
     0
 10
621.08299783696111
 20
638.7614354761954
 30
0.0
 11
666.08299783696111
 21
638.7614354761954
 31
0.0
  0
ARC
  5
B0A0
  8
0
 62
     0
 10
619.08304783696121
 20
647.67354047619506
 30
0.0
 40
2.0000000500000001
 50
270.0
 51
0.0
  0
LINE
  5
B0A1
  8
0
 62
     0
 10
609.06189783696118
 20
655.40746047619541
 30
0.0
 11
620.09079783696097
 21
655.40746047619541
 31
0.0
  0
LINE
  5
B0A2
  8
0
 62
     0
 10
607.58299783696111
 20
645.67351047619525
 30
0.0
 11
619.08304783696121
 21
645.67351047619525
 31
0.0
  0
LINE
  5
B0A3
  8
0
 62
     0
 10
912.58299783696066
 20
512.44438547619518
 30
0.0
 11
912.58299783696066
 21
546.44438547619518
 31
0.0
  0
LINE
  5
B0A4
  8
0
 62
     0
 10
742.58299783696111
 20
728.44442047619509
 30
0.0
 11
742.58299783696111
 21
633.72868547619555
 31
0.0
  0
ARC
  5
B0A5
  8
0
 62
     0
 10
722.58299783696111
 20
633.72868547619555
 30
0.0
 40
20.000000499999999
 50
315.0000000000087
 51
0.0
  0
LINE
  5
B0A6
  8
0
 62
     0
 10
716.58304783696121
 20
676.44438547619507
 30
0.0
 11
732.58299783696111
 21
676.44438547619507
 31
0.0
  0
LINE
  5
B0A7
  8
0
 62
     0
 10
716.58304783696121
 20
642.44438547619518
 30
0.0
 11
732.58299783696111
 21
642.44438547619518
 31
0.0
  0
LINE
  5
B0A8
  8
0
 62
     0
 10
732.58299783696111
 20
642.44438547619518
 30
0.0
 11
742.58299783696111
 21
642.44438547619518
 31
0.0
  0
LINE
  5
B0A9
  8
0
 62
     0
 10
732.58299783696111
 20
676.44438547619507
 30
0.0
 11
742.58299783696111
 21
676.44438547619507
 31
0.0
  0
ARC
  5
B0AA
  8
0
 62
     0
 10
753.58299783696111
 20
736.44438547619541
 30
0.0
 40
4.000000049999997
 50
270.0
 51
0.0
  0
ARC
  5
B0AB
  8
0
 62
     0
 10
746.5830478369611
 20
728.44442047619509
 30
0.0
 40
4.000000049999997
 50
90.000002999984659
 51
180.00001000000091
  0
LINE
  5
B0AC
  8
0
 62
     0
 10
746.5830478369611
 20
732.44438547619541
 30
0.0
 11
753.58299783696111
 21
732.44438547619541
 31
0.0
  0
LINE
  5
B0AD
  8
0
 62
     0
 10
887.58299783696066
 20
609.03746547619505
 30
0.0
 11
887.58299783696066
 21
585.29366047619521
 31
0.0
  0
LINE
  5
B0AE
  8
0
 62
     0
 10
908.58299783696043
 20
550.44438547619518
 30
0.0
 11
905.99884783696075
 21
624.44612547619545
 31
0.0
  0
ARC
  5
B0AF
  8
0
 62
     0
 10
873.22214783696063
 20
583.94893047619553
 30
0.0
 40
8.0
 50
274.12897999995772
 51
292.7977800000379
  0
LINE
  5
B0B0
  8
0
 62
     0
 10
863.19684783696118
 20
550.44438547619518
 30
0.0
 11
908.58299783696043
 21
550.44438547619518
 31
0.0
  0
ARC
  5
B0B1
  8
0
 62
     0
 10
863.19684783696118
 20
570.44438547619518
 30
0.0
 40
20.000000499999999
 50
183.00001000000631
 51
270.0
  0
LINE
  5
B0B2
  8
0
 62
     0
 10
842.99634783696115
 20
573.74614547619547
 30
0.0
 11
873.79814783696111
 21
575.96968547619554
 31
0.0
  0
ARC
  5
B0B3
  8
0
 62
     0
 10
908.58299783696043
 20
546.44438547619518
 30
0.0
 40
4.000000049999997
 50
0.0
 51
90.000002999984659
  0
ARC
  5
B0B4
  8
0
 62
     0
 10
881.58304783696121
 20
585.29366047619521
 30
0.0
 40
6.0
 50
292.7977800000379
 51
0.0
  0
LINE
  5
B0B5
  8
0
 62
     0
 10
876.32199783696103
 20
576.57393047619553
 30
0.0
 11
883.90789783696107
 21
579.7624104761951
 31
0.0
  0
ARC
  5
B0B6
  8
0
 62
     0
 10
893.58299783696066
 20
609.03746547619505
 30
0.0
 40
6.0
 50
121.9807299999982
 51
180.00001000000091
  0
LINE
  5
B0B7
  8
0
 62
     0
 10
908.58299783696043
 20
589.06441047619523
 30
0.0
 11
907.23439783696142
 21
589.06441047619523
 31
0.0
  0
LINE
  5
B0B8
  8
0
 62
     0
 10
890.40519783696095
 20
614.1268804761952
 30
0.0
 11
904.13049783696135
 21
622.69698047619522
 31
0.0
  0
LINE
  5
B0B9
  8
0
 62
     0
 10
905.99884783696075
 20
624.44609547619518
 30
0.0
 11
907.04639783696132
 21
626.62459047619518
 31
0.0
  0
ARC
  5
B0BA
  8
0
 62
     0
 10
910.58299783696066
 20
733.27281547619521
 30
0.0
 40
2.0000000500000001
 50
315.0000000000087
 51
0.0
  0
LINE
  5
B0BB
  8
0
 62
     0
 10
911.99719783696071
 20
731.85860047619553
 30
0.0
 11
908.58299783696043
 21
728.44438547619541
 31
0.0
  0
ARC
  5
B0BC
  8
0
 62
     0
 10
710.58299783696111
 20
973.44434547619539
 30
0.0
 40
30.000000499999999
 50
304.59870999998333
 51
235.4012900000167
  0
LINE
  5
B0BD
  8
0
 62
     0
 10
715.06664783696124
 20
916.24324547619551
 30
0.0
 11
669.87399783696071
 21
880.4470954761955
 31
0.0
  0
LINE
  5
B0BE
  8
0
 62
     0
 10
621.08299783696111
 20
820.92734547619523
 30
0.0
 11
666.08299783696111
 21
820.92734547619523
 31
0.0
  0
LINE
  5
B0BF
  8
0
 62
     0
 10
621.08299783696111
 20
801.67679547619537
 30
0.0
 11
666.08299783696111
 21
801.67679547619537
 31
0.0
  0
ARC
  5
B0C0
  8
0
 62
     0
 10
619.08304783696121
 20
812.01529547619521
 30
0.0
 40
2.0000000500000001
 50
0.0
 51
90.000002999984659
  0
LINE
  5
B0C1
  8
0
 62
     0
 10
607.58299783696111
 20
814.01519547619534
 30
0.0
 11
619.08304783696121
 21
814.01519547619534
 31
0.0
  0
LINE
  5
B0C2
  8
0
 62
     0
 10
609.06189783696118
 20
804.28134547619527
 30
0.0
 11
620.09079783696097
 21
804.28134547619527
 31
0.0
  0
ARC
  5
B0C3
  8
0
 62
     0
 10
619.08304783696121
 20
827.5715954761954
 30
0.0
 40
2.0000000500000001
 50
0.0
 51
90.000002999984659
  0
LINE
  5
B0C4
  8
0
 62
     0
 10
607.58299783696111
 20
829.5715954761954
 30
0.0
 11
619.08304783696121
 21
829.5715954761954
 31
0.0
  0
LINE
  5
B0C5
  8
0
 62
     0
 10
621.59174783696085
 20
845.8532954761954
 30
0.0
 11
661.17019783696094
 21
846.54409547619525
 31
0.0
  0
ARC
  5
B0C6
  8
0
 62
     0
 10
620.08299783696111
 20
846.84439547619502
 30
0.0
 40
1.0
 50
0.0
 51
90.000002999984659
  0
ARC
  5
B0C7
  8
0
 62
     0
 10
621.5830478369611
 20
846.35319547619565
 30
0.0
 40
0.5
 50
179.999989999999
 51
270.99999999997573
  0
LINE
  5
B0C8
  8
0
 62
     0
 10
607.58299783696111
 20
847.8443954761949
 30
0.0
 11
620.08299783696111
 21
847.8443954761949
 31
0.0
  0
LINE
  5
B0C9
  8
0
 62
     0
 10
666.08299783696111
 20
872.60824547619541
 30
0.0
 11
666.08299783696111
 21
851.54334547619555
 31
0.0
  0
ARC
  5
B0CA
  8
0
 62
     0
 10
661.082997836961
 20
851.54334547619555
 30
0.0
 40
5.0
 50
270.99999999997573
 51
0.0
  0
ARC
  5
B0CB
  8
0
 62
     0
 10
676.08299783696111
 20
872.60824547619541
 30
0.0
 40
10.0
 50
128.38200999996559
 51
180.00001000000091
  0
ARC
  5
B0CC
  8
0
 62
     0
 10
720.58299783696111
 20
939.44444547619503
 30
0.0
 40
4.000000049999997
 50
90.000002999984659
 51
180.00001000000091
  0
LINE
  5
B0CD
  8
0
 62
     0
 10
754.58299783696111
 20
941.48974547619525
 30
0.0
 11
754.58299783696111
 21
937.44434547619505
 31
0.0
  0
LINE
  5
B0CE
  8
0
 62
     0
 10
782.97984783696063
 20
941.96144547619508
 30
0.0
 11
784.18864783696108
 21
937.44444547619526
 31
0.0
  0
LINE
  5
B0CF
  8
0
 62
     0
 10
755.26679783696125
 20
941.39304547619543
 30
0.0
 11
756.58299783696043
 21
937.44434547619505
 31
0.0
  0
LINE
  5
B0D0
  8
0
 62
     0
 10
690.582997836961
 20
943.44434547619539
 30
0.0
 11
690.582997836961
 21
898.78479547619554
 31
0.0
  0
LINE
  5
B0D1
  8
0
 62
     0
 10
791.77709783696105
 20
933.25034547619555
 30
0.0
 11
856.28429783696095
 21
930.99764547619554
 31
0.0
  0
LINE
  5
B0D2
  8
0
 62
     0
 10
754.58299783696111
 20
913.73029547619535
 30
0.0
 11
754.58299783696111
 21
834.13104547619503
 31
0.0
  0
LINE
  5
B0D3
  8
0
 62
     0
 10
757.58299783696111
 20
910.73029547619512
 30
0.0
 11
757.58299783696111
 21
837.13104547619503
 31
0.0
  0
LINE
  5
B0D4
  8
0
 62
     0
 10
757.58299783696111
 20
798.53864547619526
 30
0.0
 11
785.92614783696104
 21
798.53864547619526
 31
0.0
  0
LINE
  5
B0D5
  8
0
 62
     0
 10
757.58299783696111
 20
837.13104547619503
 30
0.0
 11
785.92614783696104
 21
837.13104547619503
 31
0.0
  0
LINE
  5
B0D6
  8
0
 62
     0
 10
732.58299783696111
 20
834.13104547619503
 30
0.0
 11
716.58304783696121
 21
834.13104547619503
 31
0.0
  0
LINE
  5
B0D7
  8
0
 62
     0
 10
732.58299783696111
 20
801.53864547619503
 30
0.0
 11
716.58304783696121
 21
801.53864547619503
 31
0.0
  0
LINE
  5
B0D8
  8
0
 62
     0
 10
754.58299783696111
 20
801.53864547619503
 30
0.0
 11
732.58299783696111
 21
801.53864547619503
 31
0.0
  0
LINE
  5
B0D9
  8
0
 62
     0
 10
757.58299783696111
 20
798.53864547619526
 30
0.0
 11
754.58299783696111
 21
801.53864547619503
 31
0.0
  0
LINE
  5
B0DA
  8
0
 62
     0
 10
754.58299783696111
 20
834.13104547619503
 30
0.0
 11
732.58299783696111
 21
834.13104547619503
 31
0.0
  0
LINE
  5
B0DB
  8
0
 62
     0
 10
757.58304783696121
 20
837.13104547619503
 30
0.0
 11
754.5830478369611
 21
834.13104547619503
 31
0.0
  0
LINE
  5
B0DC
  8
0
 62
     0
 10
761.61174783696094
 20
772.44439047619551
 30
0.0
 11
829.13874783696099
 21
772.44439047619551
 31
0.0
  0
ARC
  5
B0DD
  8
0
 62
     0
 10
836.67359783696111
 20
770.82009047619522
 30
0.0
 40
4.000000049999997
 50
133.68573999999231
 51
183.0000000000056
  0
LINE
  5
B0DE
  8
0
 62
     0
 10
833.91089783696066
 20
773.71259547619525
 30
0.0
 11
836.890047836961
 21
776.55819547619535
 31
0.0
  0
LINE
  5
B0DF
  8
0
 62
     0
 10
788.75459783696124
 20
835.95949547619557
 30
0.0
 11
804.05079783696101
 21
820.66329547619523
 31
0.0
  0
LINE
  5
B0E0
  8
0
 62
     0
 10
788.75459783696124
 20
799.7102454761955
 30
0.0
 11
804.05079783696101
 21
815.00649547619548
 31
0.0
  0
LINE
  5
B0E1
  8
0
 62
     0
 10
787.58299783696111
 20
834.58964547619553
 30
0.0
 11
787.58299783696111
 21
801.47554547619495
 31
0.0
  0
ARC
  5
B0E2
  8
0
 62
     0
 10
785.92614783696104
 20
802.53864547619526
 30
0.0
 40
4.000000049999997
 50
270.0
 51
315.0000000000087
  0
ARC
  5
B0E3
  8
0
 62
     0
 10
785.92614783696104
 20
833.13114547619523
 30
0.0
 40
4.000000049999997
 50
45.000001000030757
 51
90.000002999984659
  0
ARC
  5
B0E4
  8
0
 62
     0
 10
801.22239783696091
 20
817.83484547619537
 30
0.0
 40
4.000000049999997
 50
315.0000000000087
 51
45.000001000030757
  0
LINE
  5
B0E5
  8
0
 62
     0
 10
757.58299783696111
 20
910.73029547619512
 30
0.0
 11
785.92614783696104
 21
910.73029547619512
 31
0.0
  0
LINE
  5
B0E6
  8
0
 62
     0
 10
732.58299783696111
 20
937.44434547619505
 30
0.0
 11
785.92614783696104
 21
937.44434547619505
 31
0.0
  0
LINE
  5
B0E7
  8
0
 62
     0
 10
732.58299783696111
 20
913.73029547619535
 30
0.0
 11
716.58304783696121
 21
913.73029547619535
 31
0.0
  0
LINE
  5
B0E8
  8
0
 62
     0
 10
716.58304783696121
 20
937.44434547619505
 30
0.0
 11
732.58299783696111
 21
937.44434547619505
 31
0.0
  0
ARC
  5
B0E9
  8
0
 62
     0
 10
686.58304783696121
 20
898.78479547619554
 30
0.0
 40
4.000000049999997
 50
308.38200999996559
 51
0.0
  0
ARC
  5
B0EA
  8
0
 62
     0
 10
712.58299783696111
 20
919.37879547619559
 30
0.0
 40
4.000000049999997
 50
308.38200999996559
 51
0.0
  0
LINE
  5
B0EB
  8
0
 62
     0
 10
754.58299783696111
 20
913.73029547619535
 30
0.0
 11
732.58299783696111
 21
913.73029547619535
 31
0.0
  0
LINE
  5
B0EC
  8
0
 62
     0
 10
757.58299783696111
 20
910.73029547619512
 30
0.0
 11
754.58299783696111
 21
913.73029547619535
 31
0.0
  0
LINE
  5
B0ED
  8
0
 62
     0
 10
788.75459783696124
 20
936.27284547619524
 30
0.0
 11
798.11164783696086
 21
926.91574547619518
 31
0.0
  0
LINE
  5
B0EE
  8
0
 62
     0
 10
788.75459783696124
 20
911.90179547619562
 30
0.0
 11
798.11164783696086
 21
921.25889547619533
 31
0.0
  0
LINE
  5
B0EF
  8
0
 62
     0
 10
787.58299783696111
 20
934.65229547619526
 30
0.0
 11
787.58299783696111
 21
914.11209547619524
 31
0.0
  0
ARC
  5
B0F0
  8
0
 62
     0
 10
785.92614783696104
 20
914.73029547619524
 30
0.0
 40
4.000000049999997
 50
270.0
 51
315.0000000000087
  0
ARC
  5
B0F1
  8
0
 62
     0
 10
785.92614783696104
 20
933.44434547619539
 30
0.0
 40
4.000000049999997
 50
45.000001000030757
 51
90.000002999984659
  0
ARC
  5
B0F2
  8
0
 62
     0
 10
795.28319783696099
 20
924.08734547619542
 30
0.0
 40
4.000000049999997
 50
315.0000000000087
 51
45.000001000030757
  0
LINE
  5
B0F3
  8
0
 62
     0
 10
862.58299783696066
 20
923.27949547619539
 30
0.0
 11
862.58299783696066
 21
792.44434547619551
 31
0.0
  0
LINE
  5
B0F4
  8
0
 62
     0
 10
919.582997836961
 20
754.94438547619518
 30
0.0
 11
912.58299783696066
 21
754.94438547619518
 31
0.0
  0
LINE
  5
B0F5
  8
0
 62
     0
 10
912.58299783696066
 20
829.94434547619539
 30
0.0
 11
919.582997836961
 21
829.94434547619539
 31
0.0
  0
LINE
  5
B0F6
  8
0
 62
     0
 10
919.582997836961
 20
829.94434547619539
 30
0.0
 11
919.582997836961
 21
754.94438547619518
 31
0.0
  0
LINE
  5
B0F7
  8
0
 62
     0
 10
944.582997836961
 20
827.44434547619551
 30
0.0
 11
944.582997836961
 21
831.94434547619551
 31
0.0
  0
ARC
  5
B0F8
  8
0
 62
     0
 10
900.58299783696043
 20
864.44434547619505
 30
0.0
 40
8.0
 50
0.0
 51
90.000002999984659
  0
ARC
  5
B0F9
  8
0
 62
     0
 10
910.58299783696066
 20
851.61599547619539
 30
0.0
 40
2.0000000500000001
 50
0.0
 51
45.000001000030757
  0
LINE
  5
B0FA
  8
0
 62
     0
 10
911.9972478369607
 20
853.03019547619522
 30
0.0
 11
908.58299783696043
 21
856.44434547619551
 31
0.0
  0
ARC
  5
B0FB
  8
0
 62
     0
 10
895.58299783696066
 20
880.44434547619494
 30
0.0
 40
8.0
 50
179.999989999999
 51
270.0
  0
LINE
  5
B0FC
  8
0
 62
     0
 10
895.58299783696066
 20
872.44434547619505
 30
0.0
 11
900.58299783696043
 21
872.44434547619505
 31
0.0
  0
LINE
  5
B0FD
  8
0
 62
     0
 10
867.03959783696098
 20
926.32104547619554
 30
0.0
 11
882.89674783696114
 21
910.46399547619512
 31
0.0
  0
ARC
  5
B0FE
  8
0
 62
     0
 10
855.72589783696105
 20
915.00739547619548
 30
0.0
 40
16.0
 50
45.000001000030757
 51
87.999999999996447
  0
ARC
  5
B0FF
  8
0
 62
     0
 10
871.58304783696121
 20
899.15029547619508
 30
0.0
 40
16.0
 50
0.0
 51
45.000001000030757
  0
LINE
  5
B100
  8
0
 62
     0
 10
781.04784783696107
 20
943.44434547619539
 30
0.0
 11
732.58299783696111
 21
943.44434547619539
 31
0.0
  0
CIRCLE
  5
B101
  8
0
 62
     0
 10
710.58299783696111
 20
973.44434547619539
 30
0.0
 40
17.500000499999999
  0
LINE
  5
B102
  8
0
 62
     0
 10
720.56169783696123
 20
954.8153954761957
 30
0.0
 11
710.58299783696111
 21
955.94434547619539
 31
0.0
  0
LINE
  5
B103
  8
0
 62
     0
 10
721.67199783696105
 20
954.44444547619526
 30
0.0
 11
699.49399783696072
 21
954.44444547619526
 31
0.0
  0
LINE
  5
B104
  8
0
 62
     0
 10
732.58299783696111
 20
943.44434547619539
 30
0.0
 11
690.582997836961
 21
943.44434547619539
 31
0.0
  0
LINE
  5
B105
  8
0
 62
     0
 10
710.58299783696111
 20
955.94429547619495
 30
0.0
 11
700.604297836961
 21
954.81534547619549
 31
0.0
  0
ARC
  5
B106
  8
0
 62
     0
 10
701.6070478369611
 20
949.96804547619524
 30
0.0
 40
4.949999899999999
 50
101.687630000021
 51
165.76742999999399
  0
ARC
  5
B107
  8
0
 62
     0
 10
690.70909783696095
 20
944.6341954761956
 30
0.0
 40
5.0
 50
350.99999999999483
 51
55.401290000016623
  0
LINE
  5
B108
  8
0
 62
     0
 10
696.80894783696101
 20
951.18504547619534
 30
0.0
 11
695.58299783696111
 21
943.44444547619548
 31
0.0
  0
ARC
  5
B109
  8
0
 62
     0
 10
719.55894783696101
 20
949.96804547619524
 30
0.0
 40
4.949999899999999
 50
14.232568000000301
 51
78.312367000019805
  0
ARC
  5
B10A
  8
0
 62
     0
 10
730.45684783696095
 20
944.6341954761956
 30
0.0
 40
5.0
 50
124.59872000003389
 51
189.0000000000052
  0
LINE
  5
B10B
  8
0
 62
     0
 10
725.58299783696111
 20
943.44444547619548
 30
0.0
 11
724.35699783696111
 21
951.18504547619534
 31
0.0
  0
ARC
  5
B10C
  8
0
 62
     0
 10
752.42074783696125
 20
940.44444547619548
 30
0.0
 40
3.0000000500000001
 50
18.434949000005052
 51
90.000002999984659
  0
ARC
  5
B10D
  8
0
 62
     0
 10
781.04784783696107
 20
941.44444547619548
 30
0.0
 40
2.0000000500000001
 50
14.981597999997341
 51
90.000002999984659
  0
LINE
  5
B10E
  8
0
 62
     0
 10
1029.5829978369611
 20
827.44434547619551
 30
0.0
 11
1029.5829978369611
 21
757.44439047619551
 31
0.0
  0
LINE
  5
B10F
  8
0
 62
     0
 10
1029.5829978369611
 20
831.94434547619551
 30
0.0
 11
1029.5829978369611
 21
827.44434547619551
 31
0.0
  0
LINE
  5
B119
  8
0
  6
CENTER
 62
     0
 10
694.67969783696071
 20
792.19408730335283
 30
0.0
 11
1034.58299783696
 21
792.19408730335283
 31
0.0
  0
LINE
  5
B11B
  8
0
  6
CENTER
 62
     0
 10
244.72327825356251
 20
729.59406730335263
 30
0.0
 11
725.55063832292751
 21
729.59406730335263
 31
0.0
  0
LINE
  5
B11E
  8
0
  6
ACANSTGLM
 62
     0
 10
635.58301283696017
 20
550.19407230335264
 30
0.0
 11
635.58301283696017
 21
512.19408730335272
 31
0.0
  0
LINE
  5
B11F
  8
0
  6
AM_ISO08W050
 62
     0
 10
647.58299783696054
 20
560.19407230335264
 30
0.0
 11
647.58299783696054
 21
502.19408730335272
 31
0.0
  0
LINE
  5
B120
  8
0
  6
ACANSTGLM
 62
     0
 10
659.58299783696054
 20
550.19407230335264
 30
0.0
 11
659.58299783696054
 21
512.19408730335272
 31
0.0
  0
LINE
  5
B121
  8
0
  6
ACANSTGLM
 62
     0
 10
865.58301283695994
 20
550.19407230335264
 30
0.0
 11
865.58301283695994
 21
512.19408730335272
 31
0.0
  0
LINE
  5
B122
  8
0
  6
ACANSTGLM
 62
     0
 10
889.58299783696043
 20
550.19407230335264
 30
0.0
 11
889.58299783696043
 21
512.19408730335272
 31
0.0
  0
LINE
  5
B123
  8
0
  6
AM_ISO08W050
 62
     0
 10
877.58299783696066
 20
560.19407230335264
 30
0.0
 11
877.58299783696066
 21
502.19408730335272
 31
0.0
  0
LINE
  5
B12C
  8
0
  6
CENTER
 62
     0
 10
1300.124617576251
 20
1008.444295476195
 30
0.0
 11
1300.124617576251
 21
506.32152547619518
 31
0.0
  0
LINE
  5
B12F
  8
0
  6
ACANSTGLM
 62
     0
 10
1108.12462257625
 20
550.44433047619509
 30
0.0
 11
1108.12462257625
 21
512.44434547619505
 31
0.0
  0
LINE
  5
B130
  8
0
  6
ACANSTGLM
 62
     0
 10
1132.124607576251
 20
550.44433047619509
 30
0.0
 11
1132.124607576251
 21
512.44434547619505
 31
0.0
  0
LINE
  5
B131
  8
0
  6
AM_ISO08W050
 62
     0
 10
1120.124607576251
 20
560.4443304761952
 30
0.0
 11
1120.124607576251
 21
502.44434547619539
 31
0.0
  0
LINE
  5
B134
  8
0
  6
ACANSTGLM
 62
     0
 10
1468.124607576251
 20
550.44433047619509
 30
0.0
 11
1468.124607576251
 21
512.44434547619505
 31
0.0
  0
LINE
  5
B135
  8
0
  6
AM_ISO08W050
 62
     0
 10
1480.124592576251
 20
560.4443304761952
 30
0.0
 11
1480.124592576251
 21
502.44434547619539
 31
0.0
  0
LINE
  5
B136
  8
0
  6
ACANSTGLM
 62
     0
 10
1492.124592576251
 20
550.44433047619509
 30
0.0
 11
1492.124592576251
 21
512.44434547619505
 31
0.0
  0
LINE
  5
B137
  8
0
  6
CENTER
 62
     0
 10
1134.10780757625
 20
792.44434547619574
 30
0.0
 11
1466.141377576251
 21
792.44434547619574
 31
0.0
  0
ARC
  5
C0AB
  8
0
 62
     0
 10
369.5829858369612
 20
861.14407130335292
 30
0.0
 40
2.0
 50
90.000002999984659
 51
159.5034000000048
  0
ARC
  5
C0AC
  8
0
 62
     0
 10
364.49834183696112
 20
841.59808030335284
 30
0.0
 40
10.0
 50
90.000002999984659
 51
98.136523000008779
  0
ARC
  5
C0AD
  8
0
 62
     0
 10
364.68589183696122
 20
851.84437330335265
 30
0.0
 40
10.0
 50
90.000002999984659
 51
99.223570000003505
  0
ARC
  5
C0AE
  8
0
 62
     0
 10
364.61563983696118
 20
847.97057730335257
 30
0.0
 40
10.0
 50
89.999996999989278
 51
98.816015000012243
  0
ARC
  5
C0AF
  8
0
 62
     0
 10
364.33366883696112
 20
832.85087230335284
 30
0.0
 40
10.0
 50
90.000002999984659
 51
97.184508999990996
  0
ARC
  5
C0B0
  8
0
 62
     0
 10
364.12169383696119
 20
821.89930430335255
 30
0.0
 40
10.0
 50
90.000002999984659
 51
95.961922000009963
  0
LINE
  5
C0B1
  8
0
 62
     0
 10
363.083018836961
 20
783.91373930335283
 30
0.0
 11
431.56635183696108
 21
783.91373930335283
 31
0.0
  0
ARC
  5
C0B2
  8
0
 62
     0
 10
380.50157683696119
 20
776.53608430335282
 30
0.0
 40
3.0
 50
89.999998999979056
 51
180.00000899999941
  0
ARC
  5
C0B3
  8
0
 62
     0
 10
374.50157683696119
 20
775.57560430335263
 30
0.0
 40
3.0
 50
0.0
 51
105.7135969999852
  0
LINE
  5
C0B4
  8
0
 62
     0
 10
377.50153683696112
 20
779.53606530335264
 30
0.0
 11
363.083018836961
 21
775.47951030335264
 31
0.0
  0
LINE
  5
C0B5
  8
0
 62
     0
 10
377.50157683696119
 20
779.53608430335282
 30
0.0
 11
424.7157098369608
 21
779.53608430335282
 31
0.0
  0
LINE
  5
C0B6
  8
0
 62
     0
 10
377.50157683696119
 20
729.59406730335263
 30
0.0
 11
377.50157683696119
 21
775.57560430335263
 31
0.0
  0
LINE
  5
C0B7
  8
0
 62
     0
 10
518.3898338369612
 20
658.90441530335272
 30
0.0
 11
586.71031783696094
 21
658.90441530335272
 31
0.0
  0
LINE
  5
C0B8
  8
0
 62
     0
 10
363.083018836961
 20
593.59406730335274
 30
0.0
 11
363.083018836961
 21
865.59406730335263
 31
0.0
  0
ARC
  5
C0B9
  8
0
 62
     0
 10
268.73301883696098
 20
689.52406730335269
 30
0.0
 40
3.0
 50
180.0
 51
270.0
  0
ARC
  5
C0BA
  8
0
 62
     0
 10
272.08301883696117
 20
615.35733730335278
 30
0.0
 40
11.0
 50
180.0
 51
199.99999999999741
  0
ARC
  5
C0BB
  8
0
 62
     0
 10
270.39886883696141
 20
596.59406730335274
 30
0.0
 40
3.0
 50
199.99999999999741
 51
270.0
  0
LINE
  5
C0BC
  8
0
 62
     0
 10
261.74640083696107
 20
611.59511530335271
 30
0.0
 11
267.57979083696108
 21
595.5680073033526
 31
0.0
  0
LINE
  5
C0BD
  8
0
 62
     0
 10
268.29824583696109
 20
598.73588530335292
 30
0.0
 11
268.29824583696109
 21
683.43644230335269
 31
0.0
  0
LINE
  5
C0BE
  8
0
 62
     0
 10
363.083018836961
 20
686.52406730335292
 30
0.0
 11
268.82196183696118
 21
686.52406730335292
 31
0.0
  0
LINE
  5
C0BF
  8
0
 62
     0
 10
270.39886883696141
 20
593.59406730335274
 30
0.0
 11
363.083018836961
 21
593.59406730335274
 31
0.0
  0
ARC
  5
C0C0
  8
0
 62
     0
 10
268.73301883696098
 20
769.66406730335268
 30
0.0
 40
3.0
 50
90.0
 51
180.0
  0
LINE
  5
C0C1
  8
0
 62
     0
 10
261.74640083696107
 20
847.59301930335255
 30
0.0
 11
267.57979083696108
 21
863.62012730335255
 31
0.0
  0
ARC
  5
C0C2
  8
0
 62
     0
 10
270.39886883696141
 20
862.59406730335286
 30
0.0
 40
3.0
 50
90.0
 51
160.0000000000025
  0
ARC
  5
C0C3
  8
0
 62
     0
 10
272.08301883696117
 20
843.83079730335271
 30
0.0
 40
11.0
 50
160.0000000000025
 51
180.0
  0
LINE
  5
C0C4
  8
0
 62
     0
 10
268.29824583696109
 20
860.4522493033528
 30
0.0
 11
268.29824583696109
 21
775.7516923033528
 31
0.0
  0
LINE
  5
C0C5
  8
0
 62
     0
 10
261.08301883696117
 20
615.35733730335278
 30
0.0
 11
261.08301883696117
 21
843.83079730335271
 31
0.0
  0
LINE
  5
C0C6
  8
0
 62
     0
 10
265.73301883696098
 20
689.52406730335269
 30
0.0
 11
265.73301883696098
 21
769.66406730335268
 31
0.0
  0
LINE
  5
C0C7
  8
0
 62
     0
 10
363.083018836961
 20
772.66406730335279
 30
0.0
 11
268.73301883696098
 21
772.66406730335279
 31
0.0
  0
LINE
  5
C0C8
  8
0
 62
     0
 10
270.39886883696141
 20
865.59406730335263
 30
0.0
 11
363.083018836961
 21
865.59406730335263
 31
0.0
  0
ARC
  5
C0C9
  8
0
 62
     0
 10
364.33366883696112
 20
626.33726230335287
 30
0.0
 40
10.0
 50
262.81549099998227
 51
269.99999699998932
  0
ARC
  5
C0CA
  8
0
 62
     0
 10
364.49834183696112
 20
617.59005430335264
 30
0.0
 40
10.0
 50
261.86347699999118
 51
269.99999699998932
  0
ARC
  5
C0CB
  8
0
 62
     0
 10
374.50157683696119
 20
683.61253030335274
 30
0.0
 40
3.0
 50
254.28640300001479
 51
0.0
  0
ARC
  5
C0CC
  8
0
 62
     0
 10
380.50157683696119
 20
682.65205030335278
 30
0.0
 40
3.0
 50
179.99999100000039
 51
270.00000099999488
  0
ARC
  5
C0CD
  8
0
 62
     0
 10
364.12169383696119
 20
637.2888303033526
 30
0.0
 40
10.0
 50
264.03807799998998
 51
269.99999699998932
  0
LINE
  5
C0CE
  8
0
 62
     0
 10
377.50153683696112
 20
679.65206930335273
 30
0.0
 11
363.083018836961
 21
683.70862430335274
 31
0.0
  0
LINE
  5
C0CF
  8
0
 62
     0
 10
377.50157683696119
 20
679.65205030335267
 30
0.0
 11
419.582997836961
 21
679.65205030335267
 31
0.0
  0
LINE
  5
C0D0
  8
0
 62
     0
 10
377.50157683696119
 20
729.59406730335263
 30
0.0
 11
377.50157683696119
 21
683.61253030335274
 31
0.0
  0
LINE
  5
C0D1
  8
0
 62
     0
 10
363.083018836961
 20
670.75108030335275
 30
0.0
 11
420.34769383696079
 21
670.75108030335275
 31
0.0
  0
LINE
  5
C0D2
  8
0
 62
     0
 10
363.083018836961
 20
675.27439530335289
 30
0.0
 11
419.59537783696118
 21
675.27439530335289
 31
0.0
  0
LINE
  5
C0D3
  8
0
 62
     0
 10
426.58299783696111
 20
676.55907130335265
 30
0.0
 11
426.58299783696111
 21
769.09407530335284
 31
0.0
  0
LINE
  5
C0D4
  8
0
 62
     0
 10
419.582997836961
 20
766.94907030335264
 30
0.0
 11
419.582997836961
 21
745.07606930335282
 31
0.0
  0
LINE
  5
C0D5
  8
0
 62
     0
 10
419.582997836961
 20
706.82726730335276
 30
0.0
 11
419.582997836961
 21
675.94186830335275
 31
0.0
  0
LINE
  5
C0D6
  8
0
 62
     0
 10
523.58249383696091
 20
676.55907130335265
 30
0.0
 11
523.58249383696091
 21
769.09407530335284
 31
0.0
  0
LINE
  5
C0D7
  8
0
 62
     0
 10
530.58249383696091
 20
766.94907030335264
 30
0.0
 11
530.58249383696091
 21
745.10706730335266
 31
0.0
  0
LINE
  5
C0D8
  8
0
 62
     0
 10
530.58249383696091
 20
706.83176830335265
 30
0.0
 11
530.58249383696091
 21
675.94186830335275
 31
0.0
  0
LINE
  5
C0D9
  8
0
 62
     0
 10
512.58249383696091
 20
784.94907030335264
 30
0.0
 11
437.58299783696111
 21
784.94907030335264
 31
0.0
  0
LINE
  5
C0DA
  8
0
 62
     0
 10
512.58249383696091
 20
780.09407530335284
 30
0.0
 11
437.58299783696111
 21
780.09407530335284
 31
0.0
  0
LINE
  5
C0DB
  8
0
 62
     0
 10
512.58249383696091
 20
742.12406630335283
 30
0.0
 11
437.58299783696111
 21
742.12406630335283
 31
0.0
  0
LINE
  5
C0DC
  8
0
 62
     0
 10
512.58249383696091
 20
665.55920130335289
 30
0.0
 11
437.58299783696111
 21
665.55920130335289
 31
0.0
  0
LINE
  5
C0DD
  8
0
 62
     0
 10
512.58249383696091
 20
659.90906930335291
 30
0.0
 11
437.58299783696111
 21
659.90906930335291
 31
0.0
  0
LINE
  5
C0DE
  8
0
 62
     0
 10
512.58249383696091
 20
657.94186830335275
 30
0.0
 11
437.58299783696111
 21
657.94186830335275
 31
0.0
  0
ARC
  5
C0DF
  8
0
 62
     0
 10
437.58299783696111
 20
766.94907030335264
 30
0.0
 40
18.0
 50
90.0
 51
179.9999819999943
  0
ARC
  5
C0E0
  8
0
 62
     0
 10
437.58299783696111
 20
769.09407530335284
 30
0.0
 40
11.0
 50
90.0
 51
179.9999819999943
  0
ARC
  5
C0E1
  8
0
 62
     0
 10
437.58299783696111
 20
676.55907130335265
 30
0.0
 40
11.0
 50
179.9999819999943
 51
269.99996400000163
  0
ARC
  5
C0E2
  8
0
 62
     0
 10
437.58299783696111
 20
675.94186830335275
 30
0.0
 40
18.0
 50
179.9999819999943
 51
269.99996400000163
  0
ARC
  5
C0E3
  8
0
 62
     0
 10
437.58299783696111
 20
677.90906930335291
 30
0.0
 40
18.0
 50
179.9999819999943
 51
269.99996400000163
  0
ARC
  5
C0E4
  8
0
 62
     0
 10
425.08299783696111
 20
725.9520693033528
 30
0.0
 40
15.000003
 50
127.16889200000669
 51
232.83097600000301
  0
ARC
  5
C0E5
  8
0
 62
     0
 10
512.58249383696091
 20
766.94907030335264
 30
0.0
 40
18.0
 50
359.99993599999488
 51
89.999950999989849
  0
ARC
  5
C0E6
  8
0
 62
     0
 10
512.58249383696091
 20
769.09407530335284
 30
0.0
 40
11.0
 50
0.0000179999992061
 51
89.999959999995966
  0
ARC
  5
C0E7
  8
0
 62
     0
 10
512.58249383696091
 20
676.55907130335265
 30
0.0
 40
11.0
 50
269.9999949999995
 51
359.99994299999821
  0
ARC
  5
C0E8
  8
0
 62
     0
 10
512.58249383696091
 20
675.94186830335275
 30
0.0
 40
18.0
 50
270.00000899998008
 51
359.99994299999821
  0
ARC
  5
C0E9
  8
0
 62
     0
 10
512.58249383696091
 20
677.90906930335291
 30
0.0
 40
18.0
 50
270.00000899998008
 51
359.99994299999821
  0
ARC
  5
C0EA
  8
0
 62
     0
 10
437.58299783696111
 20
731.12406630335283
 30
0.0
 40
11.0
 50
90.0
 51
179.9999819999943
  0
ARC
  5
C0EB
  8
0
 62
     0
 10
512.58249383696091
 20
731.12406630335283
 30
0.0
 40
11.0
 50
359.99994299999821
 51
89.999959999995966
  0
ARC
  5
C0EC
  8
0
 62
     0
 10
410.58299783696111
 20
745.07606930335282
 30
0.0
 40
9.000003999999997
 50
307.16898300000469
 51
359.99993599999488
  0
ARC
  5
C0ED
  8
0
 62
     0
 10
410.58299783696111
 20
706.82726730335276
 30
0.0
 40
9.0
 50
359.99993599999488
 51
52.83096800000645
  0
ARC
  5
C0EE
  8
0
 62
     0
 10
539.58249383696068
 20
745.07606930335282
 30
0.0
 40
9.0
 50
179.9999819999943
 51
232.83098999999581
  0
ARC
  5
C0EF
  8
0
 62
     0
 10
525.08249383696091
 20
725.9520693033528
 30
0.0
 40
15.0
 50
307.16895599999492
 51
52.830964000001153
  0
ARC
  5
C0F0
  8
0
 62
     0
 10
539.58249383696068
 20
706.82726730335276
 30
0.0
 40
9.0000009999999975
 50
127.16889600000439
 51
179.9999819999943
  0
LINE
  5
C0F1
  8
0
 62
     0
 10
364.68589183696122
 20
597.34376130335272
 30
0.0
 11
585.48008183696072
 21
597.34376130335272
 31
0.0
  0
LINE
  5
C0F2
  8
0
 62
     0
 10
369.5829858369612
 20
596.04406330335269
 30
0.0
 11
580.58298583696114
 21
596.04406330335269
 31
0.0
  0
ARC
  5
C0F3
  8
0
 62
     0
 10
369.5829858369612
 20
598.04406330335291
 30
0.0
 40
2.0
 50
200.49659999999491
 51
269.99999699998932
  0
ARC
  5
C0F4
  8
0
 62
     0
 10
364.68589183696122
 20
607.34376130335272
 30
0.0
 40
10.0
 50
260.77642999999648
 51
269.99999699998932
  0
LINE
  5
C0F5
  8
0
 62
     0
 10
607.58299783696111
 20
844.59408130335282
 30
0.0
 11
605.58302583696093
 21
844.60807930335284
 31
0.0
  0
LINE
  5
C0F6
  8
0
 62
     0
 10
605.58299783696111
 20
850.26772730335279
 30
0.0
 11
605.58299783696111
 21
834.14843530335281
 31
0.0
  0
LINE
  5
C0F7
  8
0
 62
     0
 10
589.74167583696124
 20
799.81323530335283
 30
0.0
 11
604.18932183696074
 21
795.21749530335285
 31
0.0
  0
LINE
  5
C0F8
  8
0
 62
     0
 10
589.44696183696124
 20
783.62031130335265
 30
0.0
 11
604.06396183696097
 21
779.99901930335284
 31
0.0
  0
LINE
  5
C0F9
  8
0
 62
     0
 10
589.08460983696114
 20
766.26736330335245
 30
0.0
 11
603.91413583696112
 21
763.77760530335263
 31
0.0
  0
LINE
  5
C0FA
  8
0
 62
     0
 10
588.68406383696095
 20
748.14486730335284
 30
0.0
 11
603.7519058369611
 21
746.86753530335284
 31
0.0
  0
LINE
  5
C0FB
  8
0
 62
     0
 10
530.58249383696091
 20
766.40540730335283
 30
0.0
 11
587.42882383696121
 21
766.40540730335283
 31
0.0
  0
LINE
  5
C0FC
  8
0
 62
     0
 10
605.58299783696111
 20
788.43705530335285
 30
0.0
 11
605.58299783696111
 21
793.31156530335284
 31
0.0
  0
LINE
  5
C0FD
  8
0
 62
     0
 10
605.58299783696111
 20
773.98392930335285
 30
0.0
 11
605.58299783696111
 21
778.05769130335284
 31
0.0
  0
LINE
  5
C0FE
  8
0
 62
     0
 10
605.58299783696111
 20
758.66679130335285
 30
0.0
 11
605.58299783696111
 21
761.80521930335283
 31
0.0
  0
LINE
  5
C0FF
  8
0
 62
     0
 10
530.58249383696091
 20
758.66679130335285
 30
0.0
 11
602.582997836961
 21
758.66679130335285
 31
0.0
  0
LINE
  5
C100
  8
0
 62
     0
 10
529.15086083696087
 20
773.98392930335285
 30
0.0
 11
602.582997836961
 21
773.98392930335285
 31
0.0
  0
LINE
  5
C101
  8
0
 62
     0
 10
363.083018836961
 20
788.43705530335285
 30
0.0
 11
602.582997836961
 21
788.43705530335285
 31
0.0
  0
LINE
  5
C102
  8
0
 62
     0
 10
530.87931483696093
 20
742.78376530335265
 30
0.0
 11
602.582997836961
 21
742.78376530335265
 31
0.0
  0
LINE
  5
C103
  8
0
 62
     0
 10
588.26251183696104
 20
731.66083930335265
 30
0.0
 11
604.13779983696122
 21
731.09308130335285
 31
0.0
  0
LINE
  5
C104
  8
0
 62
     0
 10
588.26244183696087
 20
731.66087930335254
 30
0.0
 11
538.63013183696091
 21
732.39113130335284
 31
0.0
  0
LINE
  5
C105
  8
0
 62
     0
 10
605.58299783696111
 20
742.78376530335265
 30
0.0
 11
605.58299783696111
 21
744.87470730335281
 31
0.0
  0
LINE
  5
C106
  8
0
 62
     0
 10
530.58249383696091
 20
748.18061530335285
 30
0.0
 11
587.83934583696077
 21
748.18061530335285
 31
0.0
  0
LINE
  5
C107
  8
0
 62
     0
 10
490.082997836961
 20
816.4383353033528
 30
0.0
 11
490.082997836961
 21
830.89930330335267
 31
0.0
  0
LINE
  5
C108
  8
0
 62
     0
 10
363.083018836961
 20
801.74485530335255
 30
0.0
 11
607.58299783696111
 21
801.74485530335255
 31
0.0
  0
LINE
  5
C109
  8
0
 62
     0
 10
363.083018836961
 20
815.4383353033528
 30
0.0
 11
586.37468583696091
 21
815.4383353033528
 31
0.0
  0
LINE
  5
C10A
  8
0
 62
     0
 10
597.46367583696099
 20
811.83585730335267
 30
0.0
 11
607.58299783696111
 21
811.83585730335267
 31
0.0
  0
LINE
  5
C10B
  8
0
 62
     0
 10
597.463625836961
 20
811.83585730335267
 30
0.0
 11
590.02043783696115
 21
814.75005530335295
 31
0.0
  0
LINE
  5
C10C
  8
0
 62
     0
 10
364.12169383696119
 20
831.89930330335255
 30
0.0
 11
586.04430183696104
 21
831.89930330335255
 31
0.0
  0
LINE
  5
C10D
  8
0
 62
     0
 10
597.46366383696113
 20
827.60605530335249
 30
0.0
 11
590.27270383696111
 21
830.96137330335262
 31
0.0
  0
LINE
  5
C10E
  8
0
 62
     0
 10
491.08299783696111
 20
827.60604530335263
 30
0.0
 11
607.58299783696111
 21
827.60604530335263
 31
0.0
  0
LINE
  5
C10F
  8
0
 62
     0
 10
364.33366883696112
 20
842.85087330335261
 30
0.0
 11
585.83232783696121
 21
842.85087330335261
 31
0.0
  0
LINE
  5
C110
  8
0
 62
     0
 10
604.50086383696123
 20
834.46291730335304
 30
0.0
 11
590.42168183696094
 21
841.73553530335244
 31
0.0
  0
LINE
  5
C111
  8
0
 62
     0
 10
605.58299783696111
 20
832.68600130335255
 30
0.0
 11
605.58299783696111
 21
827.60604530335263
 31
0.0
  0
LINE
  5
C112
  8
0
 62
     0
 10
364.49834183696112
 20
851.59808130335296
 30
0.0
 11
585.66765383696111
 21
851.59808130335296
 31
0.0
  0
LINE
  5
C113
  8
0
 62
     0
 10
590.53001983696095
 20
850.33630330335279
 30
0.0
 11
604.5554518369612
 21
842.53188730335285
 31
0.0
  0
LINE
  5
C114
  8
0
 62
     0
 10
364.61563983696118
 20
857.97057730335268
 30
0.0
 11
585.55034383696102
 21
857.97057730335268
 31
0.0
  0
LINE
  5
C115
  8
0
 62
     0
 10
604.59350783696118
 20
848.40857730335267
 30
0.0
 11
590.60301383696094
 21
856.6001653033527
 31
0.0
  0
LINE
  5
C116
  8
0
 62
     0
 10
364.68589183696122
 20
861.84437330335265
 30
0.0
 11
585.48009383696126
 21
861.84437330335265
 31
0.0
  0
LINE
  5
C117
  8
0
 62
     0
 10
604.61598383696094
 20
851.98033530335294
 30
0.0
 11
590.64506783696095
 21
860.40730130335271
 31
0.0
  0
LINE
  5
C118
  8
0
 62
     0
 10
369.5829858369612
 20
863.1440713033528
 30
0.0
 11
580.58299783696111
 21
863.1440713033528
 31
0.0
  0
LINE
  5
C119
  8
0
 62
     0
 10
459.08299783696111
 20
827.60604530335263
 30
0.0
 11
363.083018836961
 21
827.60604530335263
 31
0.0
  0
LINE
  5
C11A
  8
0
 62
     0
 10
460.08299783696111
 20
816.4383353033528
 30
0.0
 11
460.08299783696111
 21
830.89930330335267
 31
0.0
  0
LINE
  5
C11B
  8
0
 62
     0
 10
463.58299783696111
 20
866.59406730335263
 30
0.0
 11
486.58299783696089
 21
866.59406730335263
 31
0.0
  0
LINE
  5
C11C
  8
0
 62
     0
 10
463.58299783696111
 20
866.59406730335263
 30
0.0
 11
463.58299783696111
 21
863.1440713033528
 31
0.0
  0
LINE
  5
C11D
  8
0
 62
     0
 10
486.58299783696089
 20
866.59406730335263
 30
0.0
 11
486.58299783696089
 21
863.1440713033528
 31
0.0
  0
ARC
  5
C11E
  8
0
 62
     0
 10
603.58299783696111
 20
744.87470730335281
 30
0.0
 40
2.0
 50
0.0
 51
85.154496000005182
  0
ARC
  5
C11F
  8
0
 62
     0
 10
603.58299783696111
 20
761.80521930335283
 30
0.0
 40
2.0
 50
0.0
 51
80.469389000002721
  0
ARC
  5
C120
  8
0
 62
     0
 10
603.58299783696111
 20
778.05769130335284
 30
0.0
 40
2.0
 50
0.0
 51
76.085411000000221
  0
ARC
  5
C121
  8
0
 62
     0
 10
603.58299783696111
 20
793.31156530335284
 30
0.0
 40
2.0
 50
0.0
 51
72.354331999996091
  0
ARC
  5
C122
  8
0
 62
     0
 10
586.71031783696094
 20
790.28373330335285
 30
0.0
 40
10.0
 50
72.354331999996091
 51
90.000002999984659
  0
ARC
  5
C123
  8
0
 62
     0
 10
587.04222783696093
 20
773.91373930335283
 30
0.0
 40
10.0
 50
76.085411000000221
 51
90.000002999984659
  0
ARC
  5
C124
  8
0
 62
     0
 10
587.42882383696121
 20
756.40540730335283
 30
0.0
 40
10.0
 50
80.469389000002721
 51
90.000002999984659
  0
ARC
  5
C125
  8
0
 62
     0
 10
587.83934583696077
 20
738.18061530335285
 30
0.0
 40
10.0
 50
85.154496000005182
 51
90.000002999984659
  0
ARC
  5
C126
  8
0
 62
     0
 10
604.08421983696098
 20
729.59287730335302
 30
0.0
 40
1.498794
 50
0.0454979999978262
 51
90.000002999984659
  0
ARC
  5
C127
  8
0
 62
     0
 10
586.37468583696091
 20
805.43833530335269
 30
0.0
 40
10.0
 50
68.618381999994952
 51
90.000002999984659
  0
ARC
  5
C128
  8
0
 62
     0
 10
586.04430183696104
 20
821.89930330335267
 30
0.0
 40
10.0
 50
64.986142000000967
 51
90.000002999984659
  0
ARC
  5
C129
  8
0
 62
     0
 10
585.83232783696121
 20
832.85087330335284
 30
0.0
 40
10.0
 50
62.681328999998122
 51
90.000002999984659
  0
ARC
  5
C12A
  8
0
 62
     0
 10
603.58299783696111
 20
832.68600130335255
 30
0.0
 40
2.0
 50
0.0
 51
62.681328999998122
  0
ARC
  5
C12B
  8
0
 62
     0
 10
585.66765383696111
 20
841.59808130335261
 30
0.0
 40
10.0
 50
60.906361000012808
 51
90.000002999984659
  0
ARC
  5
C12C
  8
0
 62
     0
 10
603.58299783696111
 20
840.78425330335267
 30
0.0
 40
2.0
 50
0.0
 51
60.906361000012808
  0
ARC
  5
C12D
  8
0
 62
     0
 10
585.55034383696102
 20
847.97057730335257
 30
0.0
 40
10.0
 50
59.65056200000496
 51
90.000002999984659
  0
ARC
  5
C12E
  8
0
 62
     0
 10
603.58299783696111
 20
846.68267530335265
 30
0.0
 40
2.0
 50
0.0
 51
59.65056200000496
  0
ARC
  5
C12F
  8
0
 62
     0
 10
603.58299783696111
 20
850.26772730335279
 30
0.0
 40
2.0
 50
0.0
 51
58.902493000008462
  0
ARC
  5
C130
  8
0
 62
     0
 10
585.48009383696126
 20
851.84437330335265
 30
0.0
 40
10.0
 50
58.902493000008462
 51
90.000002999984659
  0
ARC
  5
C131
  8
0
 62
     0
 10
580.58299783696111
 20
861.14407130335292
 30
0.0
 40
2.0
 50
20.496599000005361
 51
90.000002999984659
  0
ARC
  5
C132
  8
0
 62
     0
 10
491.08299783696111
 20
816.4383353033528
 30
0.0
 40
1.0
 50
179.9999949999995
 51
269.99999699998932
  0
ARC
  5
C133
  8
0
 62
     0
 10
459.08299783696111
 20
816.4383353033528
 30
0.0
 40
1.0
 50
269.99999699998932
 51
0.0
  0
ARC
  5
C134
  8
0
 62
     0
 10
491.08299783696111
 20
826.60604530335263
 30
0.0
 40
1.0
 50
89.999998999979056
 51
180.00000899999941
  0
ARC
  5
C135
  8
0
 62
     0
 10
459.08299783696111
 20
826.60604530335263
 30
0.0
 40
1.0
 50
0.0
 51
90.000002999984659
  0
ARC
  5
C136
  8
0
 62
     0
 10
491.08299783696111
 20
830.89930330335267
 30
0.0
 40
1.0
 50
89.999998999979056
 51
180.00000899999941
  0
ARC
  5
C137
  8
0
 62
     0
 10
459.08299783696111
 20
830.89930330335267
 30
0.0
 40
1.0
 50
0.0
 51
90.000002999984659
  0
LINE
  5
C138
  8
0
 62
     0
 10
518.59913983696094
 20
783.91373930335283
 30
0.0
 11
587.04222783696093
 21
783.91373930335283
 31
0.0
  0
LINE
  5
C139
  8
0
 62
     0
 10
363.083018836961
 20
800.28371930335265
 30
0.0
 11
586.71031783696094
 21
800.28371930335265
 31
0.0
  0
LINE
  5
C13A
  8
0
 62
     0
 10
607.58299783696111
 20
614.59405330335267
 30
0.0
 11
605.58302583696093
 21
614.58005530335265
 31
0.0
  0
LINE
  5
C13B
  8
0
 62
     0
 10
605.58299783696111
 20
608.92040730335293
 30
0.0
 11
605.58299783696111
 21
625.03969930335268
 31
0.0
  0
LINE
  5
C13C
  8
0
 62
     0
 10
363.083018836961
 20
658.90441530335272
 30
0.0
 11
431.7756588369611
 21
658.90441530335272
 31
0.0
  0
LINE
  5
C13D
  8
0
 62
     0
 10
589.74167583696124
 20
659.37489930335278
 30
0.0
 11
604.18932183696074
 21
663.97063930335275
 31
0.0
  0
LINE
  5
C13E
  8
0
 62
     0
 10
589.44696183696124
 20
675.56782330335272
 30
0.0
 11
604.06396183696097
 21
679.18911530335265
 31
0.0
  0
LINE
  5
C13F
  8
0
 62
     0
 10
589.08460983696114
 20
692.92077130335281
 30
0.0
 11
603.91413583696112
 21
695.41052930335275
 31
0.0
  0
LINE
  5
C140
  8
0
 62
     0
 10
588.68406383696095
 20
711.04326730335265
 30
0.0
 11
603.7519058369611
 21
712.32059930335265
 31
0.0
  0
LINE
  5
C141
  8
0
 62
     0
 10
530.58249383696091
 20
692.78272730335266
 30
0.0
 11
587.42882383696121
 21
692.78272730335266
 31
0.0
  0
LINE
  5
C142
  8
0
 62
     0
 10
605.58299783696111
 20
670.75107930335275
 30
0.0
 11
605.58299783696111
 21
665.87656930335288
 31
0.0
  0
LINE
  5
C143
  8
0
 62
     0
 10
605.58299783696111
 20
685.20420530335275
 30
0.0
 11
605.58299783696111
 21
681.13044330335265
 31
0.0
  0
LINE
  5
C144
  8
0
 62
     0
 10
605.58299783696111
 20
700.52134330335275
 30
0.0
 11
605.58299783696111
 21
697.38291530335266
 31
0.0
  0
LINE
  5
C145
  8
0
 62
     0
 10
530.58249383696091
 20
700.52134330335275
 30
0.0
 11
602.582997836961
 21
700.52134330335275
 31
0.0
  0
LINE
  5
C146
  8
0
 62
     0
 10
530.58249383696091
 20
685.20420530335275
 30
0.0
 11
602.582997836961
 21
685.20420530335275
 31
0.0
  0
LINE
  5
C147
  8
0
 62
     0
 10
536.65147983696124
 20
716.40436930335284
 30
0.0
 11
602.582997836961
 21
716.40436930335284
 31
0.0
  0
LINE
  5
C148
  8
0
 62
     0
 10
588.26251183696104
 20
727.52729530335284
 30
0.0
 11
604.13779983696122
 21
728.09505330335287
 31
0.0
  0
LINE
  5
C149
  8
0
 62
     0
 10
588.26244183696087
 20
727.52725530335283
 30
0.0
 11
540.05747883696085
 21
726.81800430335284
 31
0.0
  0
LINE
  5
C14A
  8
0
 62
     0
 10
605.58299783696111
 20
716.40436930335284
 30
0.0
 11
605.58299783696111
 21
714.3134273033528
 31
0.0
  0
LINE
  5
C14B
  8
0
 62
     0
 10
531.61220483696127
 20
711.00751930335275
 30
0.0
 11
587.83934583696077
 21
711.00751930335275
 31
0.0
  0
LINE
  5
C14C
  8
0
 62
     0
 10
490.082997836961
 20
642.74979930335269
 30
0.0
 11
490.082997836961
 21
628.28883130335294
 31
0.0
  0
LINE
  5
C14D
  8
0
 62
     0
 10
363.083018836961
 20
657.44327930335294
 30
0.0
 11
607.58299783696111
 21
657.44327930335294
 31
0.0
  0
LINE
  5
C14E
  8
0
 62
     0
 10
363.083018836961
 20
643.74979930335235
 30
0.0
 11
586.37468583696091
 21
643.74979930335235
 31
0.0
  0
LINE
  5
C14F
  8
0
 62
     0
 10
597.46367583696099
 20
647.35227730335248
 30
0.0
 11
607.58299783696111
 21
647.35227730335248
 31
0.0
  0
LINE
  5
C150
  8
0
 62
     0
 10
597.463625836961
 20
647.35227730335248
 30
0.0
 11
590.02043783696115
 21
644.43807930335288
 31
0.0
  0
LINE
  5
C151
  8
0
 62
     0
 10
364.12169383696119
 20
627.28883130335294
 30
0.0
 11
586.04430183696104
 21
627.28883130335294
 31
0.0
  0
LINE
  5
C152
  8
0
 62
     0
 10
597.46366383696113
 20
631.58207930335288
 30
0.0
 11
590.27270383696111
 21
628.22676130335265
 31
0.0
  0
LINE
  5
C153
  8
0
 62
     0
 10
491.08299783696111
 20
631.58208930335275
 30
0.0
 11
607.58299783696111
 21
631.58208930335275
 31
0.0
  0
LINE
  5
C154
  8
0
 62
     0
 10
364.33366883696112
 20
616.33726130335265
 30
0.0
 11
585.83232783696121
 21
616.33726130335265
 31
0.0
  0
LINE
  5
C155
  8
0
 62
     0
 10
604.50086383696123
 20
624.72521730335279
 30
0.0
 11
590.42168183696094
 21
617.45259930335271
 31
0.0
  0
LINE
  5
C156
  8
0
 62
     0
 10
605.58299783696111
 20
626.50213330335248
 30
0.0
 11
605.58299783696111
 21
631.58208930335275
 31
0.0
  0
LINE
  5
C157
  8
0
 62
     0
 10
364.49834183696112
 20
607.59005330335287
 30
0.0
 11
585.66765383696111
 21
607.59005330335287
 31
0.0
  0
LINE
  5
C158
  8
0
 62
     0
 10
590.53001983696095
 20
608.85183130335236
 30
0.0
 11
604.5554518369612
 21
616.65624730335276
 31
0.0
  0
LINE
  5
C159
  8
0
 62
     0
 10
364.61563983696118
 20
601.21755730335269
 30
0.0
 11
585.55034383696102
 21
601.21755730335269
 31
0.0
  0
LINE
  5
C15A
  8
0
 62
     0
 10
604.59350783696118
 20
610.77955730335293
 30
0.0
 11
590.60301383696094
 21
602.58796930335279
 31
0.0
  0
LINE
  5
C15B
  8
0
 62
     0
 10
604.61598383696094
 20
607.20779930335289
 30
0.0
 11
590.64506783696095
 21
598.78083330335278
 31
0.0
  0
LINE
  5
C15C
  8
0
 62
     0
 10
459.08299783696111
 20
631.58208930335275
 30
0.0
 11
363.083018836961
 21
631.58208930335275
 31
0.0
  0
LINE
  5
C15D
  8
0
 62
     0
 10
460.08299783696111
 20
642.74979930335269
 30
0.0
 11
460.08299783696111
 21
628.28883130335294
 31
0.0
  0
LINE
  5
C15E
  8
0
 62
     0
 10
463.58299783696111
 20
592.59406730335286
 30
0.0
 11
486.58299783696089
 21
592.59406730335286
 31
0.0
  0
LINE
  5
C15F
  8
0
 62
     0
 10
463.58299783696111
 20
592.59406730335286
 30
0.0
 11
463.58299783696111
 21
596.04406330335269
 31
0.0
  0
LINE
  5
C160
  8
0
 62
     0
 10
486.58299783696089
 20
592.59406730335286
 30
0.0
 11
486.58299783696089
 21
596.04406330335269
 31
0.0
  0
ARC
  5
C161
  8
0
 62
     0
 10
603.58299783696111
 20
714.3134273033528
 30
0.0
 40
2.0
 50
274.84550399999489
 51
0.0
  0
ARC
  5
C162
  8
0
 62
     0
 10
603.58299783696111
 20
697.38291530335266
 30
0.0
 40
2.0
 50
279.53061099999718
 51
0.0
  0
ARC
  5
C163
  8
0
 62
     0
 10
603.58299783696111
 20
681.13044330335265
 30
0.0
 40
2.0
 50
283.91458899999981
 51
0.0
  0
ARC
  5
C164
  8
0
 62
     0
 10
603.58299783696111
 20
665.87656930335288
 30
0.0
 40
2.0
 50
287.64566800000381
 51
0.0
  0
ARC
  5
C165
  8
0
 62
     0
 10
586.71031783696094
 20
668.90440130335276
 30
0.0
 40
10.0
 50
269.99999699998932
 51
287.64566800000381
  0
ARC
  5
C166
  8
0
 62
     0
 10
587.04222783696093
 20
685.27439530335266
 30
0.0
 40
10.0
 50
269.99999699998932
 51
283.91458899999981
  0
ARC
  5
C167
  8
0
 62
     0
 10
587.42882383696121
 20
702.78272730335266
 30
0.0
 40
10.0
 50
269.99999699998932
 51
279.53061099999718
  0
ARC
  5
C168
  8
0
 62
     0
 10
587.83934583696077
 20
721.00751930335264
 30
0.0
 40
10.0
 50
269.99999699998932
 51
274.84550399999489
  0
ARC
  5
C169
  8
0
 62
     0
 10
604.08421983696098
 20
729.5952573033527
 30
0.0
 40
1.498794
 50
272.04545799998709
 51
359.95450199999573
  0
ARC
  5
C16A
  8
0
 62
     0
 10
586.37468583696091
 20
653.74979930335235
 30
0.0
 40
10.0
 50
269.99999699998932
 51
291.38161800000512
  0
ARC
  5
C16B
  8
0
 62
     0
 10
586.04430183696104
 20
637.28883130335271
 30
0.0
 40
10.0
 50
269.99999699998932
 51
295.01385799999889
  0
ARC
  5
C16C
  8
0
 62
     0
 10
585.83232783696121
 20
626.33726130335288
 30
0.0
 40
10.0
 50
269.99999699998932
 51
297.31867100000181
  0
ARC
  5
C16D
  8
0
 62
     0
 10
603.58299783696111
 20
626.50213330335248
 30
0.0
 40
2.0
 50
297.31867100000181
 51
0.0
  0
ARC
  5
C16E
  8
0
 62
     0
 10
585.66765383696111
 20
617.59005330335265
 30
0.0
 40
10.0
 50
269.99999699998932
 51
299.09363899998721
  0
ARC
  5
C16F
  8
0
 62
     0
 10
603.58299783696111
 20
618.40388130335248
 30
0.0
 40
2.0
 50
299.09363899998721
 51
0.0
  0
ARC
  5
C170
  8
0
 62
     0
 10
585.55034383696102
 20
611.21755730335246
 30
0.0
 40
10.0
 50
269.99999699998932
 51
300.34943799999508
  0
ARC
  5
C171
  8
0
 62
     0
 10
603.58299783696111
 20
612.50545930335272
 30
0.0
 40
2.0
 50
300.34943799999508
 51
0.0
  0
ARC
  5
C172
  8
0
 62
     0
 10
603.58299783696111
 20
608.92040730335293
 30
0.0
 40
2.0
 50
301.09750699999148
 51
0.0
  0
ARC
  5
C173
  8
0
 62
     0
 10
585.48009383696126
 20
607.34376130335272
 30
0.0
 40
10.0
 50
269.99999699998932
 51
301.09750699999148
  0
ARC
  5
C174
  8
0
 62
     0
 10
580.58299783696111
 20
598.04406330335291
 30
0.0
 40
2.0
 50
269.99999699998932
 51
339.5034009999946
  0
ARC
  5
C175
  8
0
 62
     0
 10
491.08299783696111
 20
642.74979930335269
 30
0.0
 40
1.0
 50
90.000002999984659
 51
180.0000050000005
  0
ARC
  5
C176
  8
0
 62
     0
 10
459.08299783696111
 20
642.74979930335269
 30
0.0
 40
1.0
 50
0.0
 51
90.000002999984659
  0
ARC
  5
C177
  8
0
 62
     0
 10
491.08299783696111
 20
632.58208930335286
 30
0.0
 40
1.0
 50
179.99999100000039
 51
270.00000099999488
  0
ARC
  5
C178
  8
0
 62
     0
 10
459.08299783696111
 20
632.58208930335286
 30
0.0
 40
1.0
 50
269.99999699998932
 51
0.0
  0
ARC
  5
C179
  8
0
 62
     0
 10
491.08299783696111
 20
628.28883130335294
 30
0.0
 40
1.0
 50
179.99999100000039
 51
270.00000099999488
  0
ARC
  5
C17A
  8
0
 62
     0
 10
459.08299783696111
 20
628.28883130335294
 30
0.0
 40
1.0
 50
269.99999699998932
 51
0.0
  0
LINE
  5
C17B
  8
0
 62
     0
 10
530.57011483696124
 20
675.27439530335289
 30
0.0
 11
587.04222783696093
 21
675.27439530335289
 31
0.0
  0
LINE
  5
C17C
  8
0
 62
     0
 10
529.81779883696095
 20
670.75107930335275
 30
0.0
 11
602.582997836961
 21
670.75107930335275
 31
0.0
  0
LINE
  5
C17D
  8
0
 62
     0
 10
607.58299783696111
 20
847.8443954761949
 30
0.0
 11
607.58299783696111
 21
611.84441047619521
 31
0.0
  0
ARC
  5
C17E
  8
0
 62
     0
 10
364.61563983696118
 20
611.21755730335246
 30
0.0
 40
10.0
 50
261.18398499998767
 51
270.00000299998447
  0
LINE
  5
E219
  8
0
  6
CONTINUOUS
 62
     0
 10
712.58298783696125
 20
1449.501865728995
 30
0.0
 11
676.08298783696125
 21
1449.501865728995
 31
0.0
  0
LINE
  5
E21A
  8
0
  6
CONTINUOUS
 62
     0
 10
676.08298783696125
 20
1179.5018657289961
 30
0.0
 11
712.58298783696125
 21
1179.5018657289961
 31
0.0
  0
LINE
  5
E21B
  8
0
  6
CONTINUOUS
 62
     0
 10
666.08298783696137
 20
1439.501865728995
 30
0.0
 11
666.08298783696137
 21
1189.5018657289961
 31
0.0
  0
LINE
  5
E21C
  8
0
  6
CONTINUOUS
 62
     0
 10
719.58298783696137
 20
1466.932665728996
 30
0.0
 11
752.76238783696124
 21
1466.932665728996
 31
0.0
  0
LINE
  5
E21D
  8
0
  6
CENTER
 62
     0
 10
1034.290277836961
 20
1314.501865728995
 30
0.0
 11
223.26123282315069
 21
1314.501865728995
 31
0.0
  0
LINE
  5
E21E
  8
0
  6
CONTINUOUS
 62
     0
 10
869.78410783696108
 20
1174.6557357289951
 30
0.0
 11
905.36705783696061
 21
1174.650305728996
 31
0.0
  0
LINE
  5
E21F
  8
0
  6
CONTINUOUS
 62
     0
 10
869.78410783696108
 20
1454.3480657289961
 30
0.0
 11
905.36699783696167
 21
1454.353565728996
 31
0.0
  0
LINE
  5
E220
  8
0
  6
CONTINUOUS
 62
     0
 10
944.582997836961
 20
1304.501865728995
 30
0.0
 11
1029.5829978369611
 21
1304.501865728995
 31
0.0
  0
LINE
  5
E221
  8
0
  6
CONTINUOUS
 62
     0
 10
944.582997836961
 20
1324.501865728995
 30
0.0
 11
944.582997836961
 21
1304.501865728995
 31
0.0
  0
LINE
  5
E222
  8
0
  6
CONTINUOUS
 62
     0
 10
1029.5829978369611
 20
1324.501865728995
 30
0.0
 11
944.582997836961
 21
1324.501865728995
 31
0.0
  0
LINE
  5
E223
  8
0
  6
CENTER
 62
     0
 10
710.58298783696125
 20
1336.0608657289961
 30
0.0
 11
710.58298783696125
 21
1293.273465728995
 31
0.0
  0
LINE
  5
E224
  8
0
  6
CONTINUOUS
 62
     0
 10
686.83298783696205
 20
1308.2518657289961
 30
0.0
 11
734.332997836961
 21
1308.2518657289961
 31
0.0
  0
LINE
  5
E225
  8
0
  6
CONTINUOUS
 62
     0
 10
686.83298783696205
 20
1320.7518657289961
 30
0.0
 11
734.332997836961
 21
1320.7518657289961
 31
0.0
  0
LINE
  5
E226
  8
0
  6
CENTER
 62
     0
 10
762.58299783696111
 20
1300.859665728995
 30
0.0
 11
762.58299783696111
 21
1327.686265728996
 31
0.0
  0
LINE
  5
E227
  8
0
  6
CONTINUOUS
 62
     0
 10
765.46977783696104
 20
1319.5018657289941
 30
0.0
 11
759.69627783696183
 21
1319.5018657289941
 31
0.0
  0
LINE
  5
E228
  8
0
  6
CONTINUOUS
 62
     0
 10
768.35649783696124
 20
1314.5019657289961
 30
0.0
 11
765.46977783696104
 21
1319.5018657289941
 31
0.0
  0
LINE
  5
E229
  8
0
  6
CONTINUOUS
 62
     0
 10
765.46971783696154
 20
1309.5018657289941
 30
0.0
 11
768.35649783696124
 21
1314.501865728995
 31
0.0
  0
LINE
  5
E22A
  8
0
  6
CONTINUOUS
 62
     0
 10
759.69627783696183
 20
1309.5018657289941
 30
0.0
 11
765.46977783696104
 21
1309.5018657289941
 31
0.0
  0
LINE
  5
E22B
  8
0
  6
CONTINUOUS
 62
     0
 10
756.80956783696081
 20
1314.501865728995
 30
0.0
 11
759.69627783696183
 21
1309.5019657289949
 31
0.0
  0
LINE
  5
E22C
  8
0
  6
CONTINUOUS
 62
     0
 10
759.69627783696183
 20
1319.5018657289941
 30
0.0
 11
756.80949783696155
 21
1314.501865728995
 31
0.0
  0
LINE
  5
E22D
  8
0
  6
CONTINUOUS
 62
     0
 10
732.58299783696111
 20
1294.501865728995
 30
0.0
 11
762.58299783696111
 21
1294.501865728995
 31
0.0
  0
LINE
  5
E22E
  8
0
  6
CONTINUOUS
 62
     0
 10
732.58299783696111
 20
1334.501865728995
 30
0.0
 11
762.58299783696111
 21
1334.501865728995
 31
0.0
  0
LINE
  5
E22F
  8
0
  6
CONTINUOUS
 62
     0
 10
919.582997836961
 20
1352.0018657289961
 30
0.0
 11
919.582997836961
 21
1277.0018657289961
 31
0.0
  0
LINE
  5
E230
  8
0
  6
CONTINUOUS
 62
     0
 10
1029.5829978369611
 20
1279.5018657289961
 30
0.0
 11
919.582997836961
 21
1279.5018657289961
 31
0.0
  0
LINE
  5
E231
  8
0
  6
CONTINUOUS
 62
     0
 10
1029.5829978369611
 20
1349.5018657289941
 30
0.0
 11
1029.5829978369611
 21
1279.5018657289961
 31
0.0
  0
LINE
  5
E232
  8
0
  6
CONTINUOUS
 62
     0
 10
919.582997836961
 20
1349.5018657289941
 30
0.0
 11
1029.5829978369611
 21
1349.5018657289941
 31
0.0
  0
LINE
  5
E233
  8
0
  6
CONTINUOUS
 62
     0
 10
912.582997836961
 20
1352.0018657289961
 30
0.0
 11
919.582997836961
 21
1352.0018657289961
 31
0.0
  0
LINE
  5
E234
  8
0
  6
CONTINUOUS
 62
     0
 10
912.582997836961
 20
1277.0018657289961
 30
0.0
 11
919.582997836961
 21
1277.0018657289961
 31
0.0
  0
LINE
  5
E235
  8
0
  6
CONTINUOUS
 62
     0
 10
912.582997836961
 20
1374.5018657289961
 30
0.0
 11
908.58299783696134
 21
1378.5018657289961
 31
0.0
  0
LINE
  5
E236
  8
0
  6
CONTINUOUS
 62
     0
 10
912.582997836961
 20
1314.501865728995
 30
0.0
 11
912.582997836961
 21
1374.5018657289961
 31
0.0
  0
LINE
  5
E237
  8
0
  6
CONTINUOUS
 62
     0
 10
757.58299783696111
 20
1461.168265728995
 30
0.0
 11
757.58299783696111
 21
1399.501865728995
 31
0.0
  0
LINE
  5
E238
  8
0
  6
CONTINUOUS
 62
     0
 10
900.58299783696111
 20
1391.9907657289959
 30
0.0
 11
889.53813783696091
 21
1391.9907657289959
 31
0.0
  0
LINE
  5
E239
  8
0
  6
CONTINUOUS
 62
     0
 10
887.582997836961
 20
1314.501865728995
 30
0.0
 11
887.582997836961
 21
1430.1958657289961
 31
0.0
  0
LINE
  5
E23A
  8
0
  6
CONTINUOUS
 62
     0
 10
908.58299783696134
 20
1314.501865728995
 30
0.0
 11
908.58299783696134
 21
1454.3480657289961
 31
0.0
  0
LINE
  5
E23B
  8
0
  6
CONTINUOUS
 62
     0
 10
862.582997836961
 20
1450.568265728996
 30
0.0
 11
862.582997836961
 21
1314.501865728995
 31
0.0
  0
LINE
  5
E23C
  8
0
  6
CONTINUOUS
 62
     0
 10
732.58299783696111
 20
1481.5018657289961
 30
0.0
 11
732.58299783696111
 21
1320.7518657289961
 31
0.0
  0
LINE
  5
E23D
  8
0
  6
CONTINUOUS
 62
     0
 10
716.58298783696125
 20
1399.501865728995
 30
0.0
 11
786.59135783696104
 21
1399.501865728995
 31
0.0
  0
LINE
  5
E23E
  8
0
  6
CONTINUOUS
 62
     0
 10
788.37932783696124
 20
1398.9109657289951
 30
0.0
 11
807.30827783696179
 21
1384.862065728996
 31
0.0
  0
LINE
  5
E23F
  8
0
  6
CONTINUOUS
 62
     0
 10
807.35533783696155
 20
1380.079665728995
 30
0.0
 11
788.39348783696073
 21
1365.419465728995
 31
0.0
  0
LINE
  5
E240
  8
0
  6
CONTINUOUS
 62
     0
 10
786.55852783696184
 20
1364.792865728996
 30
0.0
 11
757.58299783696111
 21
1364.792865728996
 31
0.0
  0
LINE
  5
E241
  8
0
  6
CONTINUOUS
 62
     0
 10
757.58305783696153
 20
1364.792865728996
 30
0.0
 11
754.58305783696153
 21
1371.189765728994
 31
0.0
  0
LINE
  5
E242
  8
0
  6
CONTINUOUS
 62
     0
 10
754.58299783696111
 20
1371.189865728996
 30
0.0
 11
716.58298783696125
 21
1371.189865728996
 31
0.0
  0
LINE
  5
E243
  8
0
  6
CONTINUOUS
 62
     0
 10
757.58299783696111
 20
1364.792865728996
 30
0.0
 11
757.58299783696111
 21
1334.501865728995
 31
0.0
  0
LINE
  5
E244
  8
0
  6
CONTINUOUS
 62
     0
 10
787.58299783696111
 20
1481.5018657289961
 30
0.0
 11
803.79033783696104
 21
1465.2945657289961
 31
0.0
  0
LINE
  5
E245
  8
0
  6
CONTINUOUS
 62
     0
 10
719.58298783696137
 20
1481.5018657289961
 30
0.0
 11
787.58299783696111
 21
1481.5018657289961
 31
0.0
  0
LINE
  5
E246
  8
0
  6
CONTINUOUS
 62
     0
 10
806.42455783696073
 20
1464.127765728995
 30
0.0
 11
856.5109178369612
 21
1461.693065728995
 31
0.0
  0
LINE
  5
E247
  8
0
  6
CONTINUOUS
 62
     0
 10
866.92705783696124
 20
1457.145065728995
 30
0.0
 11
882.7759978369611
 21
1441.628965728994
 31
0.0
  0
LINE
  5
E248
  8
0
  6
CONTINUOUS
 62
     0
 10
894.09990783696139
 20
1430.5018657289961
 30
0.0
 11
900.58299783696111
 21
1430.5018657289961
 31
0.0
  0
LINE
  5
E249
  8
0
  6
CONTINUOUS
 62
     0
 10
759.30339783696127
 20
1461.084665728996
 30
0.0
 11
802.7261878369618
 21
1458.973865728995
 31
0.0
  0
LINE
  5
E24A
  8
0
  6
CONTINUOUS
 62
     0
 10
755.42351783696176
 20
1465.317565728996
 30
0.0
 11
756.78783783696122
 21
1462.696165728996
 31
0.0
  0
LINE
  5
E24B
  8
0
  6
CONTINUOUS
 62
     0
 10
715.55458783696122
 20
1450.8242657289959
 30
0.0
 11
616.44018783696174
 21
1454.3640657289959
 31
0.0
  0
LINE
  5
E24C
  8
0
  6
CONTINUOUS
 62
     0
 10
612.58298783696205
 20
1458.361565728994
 30
0.0
 11
612.58298783696205
 21
1535.5018657289961
 31
0.0
  0
LINE
  5
E24D
  8
0
  6
CONTINUOUS
 62
     0
 10
616.58298783696125
 20
1539.5018657289961
 30
0.0
 11
908.58299783696134
 21
1539.5018657289961
 31
0.0
  0
LINE
  5
E24E
  8
0
  6
CONTINUOUS
 62
     0
 10
912.582997836961
 20
1535.5018657289961
 30
0.0
 11
912.582997836961
 21
1458.350965728996
 31
0.0
  0
LINE
  5
E24F
  8
0
  6
CONTINUOUS
 62
     0
 10
908.7367478369614
 20
1454.354065728995
 30
0.0
 11
908.58299783696134
 21
1454.3480657289961
 31
0.0
  0
LINE
  5
E250
  8
0
  6
CENTER
 62
     0
 10
630.5829878369633
 20
1494.501865728995
 30
0.0
 11
664.58298783696125
 21
1494.501865728995
 31
0.0
  0
LINE
  5
E251
  8
0
  6
CENTER
 62
     0
 10
647.58298783696239
 20
1511.5018657289961
 30
0.0
 11
647.58298783696239
 21
1477.501865728995
 31
0.0
  0
LINE
  5
E252
  8
0
  6
CENTER
 62
     0
 10
877.582997836961
 20
1511.5018657289961
 30
0.0
 11
877.582997836961
 21
1477.501865728995
 31
0.0
  0
LINE
  5
E253
  8
0
  6
CENTER
 62
     0
 10
860.58299783696111
 20
1494.501865728995
 30
0.0
 11
894.582997836961
 21
1494.501865728995
 31
0.0
  0
LINE
  5
E254
  8
0
  6
CONTINUOUS
 62
     0
 10
716.58298783696125
 20
1286.573365728995
 30
0.0
 11
716.58298783696125
 21
1150.5018657289961
 31
0.0
  0
LINE
  5
E255
  8
0
  6
CONTINUOUS
 62
     0
 10
719.58298783696137
 20
1162.0711357289961
 30
0.0
 11
752.76238783696124
 21
1162.0711357289961
 31
0.0
  0
LINE
  5
E256
  8
0
  6
CENTER
 62
     0
 10
860.58299783696111
 20
1134.5018657289961
 30
0.0
 11
894.582997836961
 21
1134.5018657289961
 31
0.0
  0
LINE
  5
E257
  8
0
  6
CENTER
 62
     0
 10
877.582997836961
 20
1117.5018657289961
 30
0.0
 11
877.582997836961
 21
1151.5018657289961
 31
0.0
  0
LINE
  5
E258
  8
0
  6
CENTER
 62
     0
 10
647.58298783696239
 20
1117.5018657289961
 30
0.0
 11
647.58298783696239
 21
1151.5018657289961
 31
0.0
  0
LINE
  5
E259
  8
0
  6
CENTER
 62
     0
 10
630.5829878369633
 20
1134.5018657289961
 30
0.0
 11
664.58298783696125
 21
1134.5018657289961
 31
0.0
  0
LINE
  5
E25A
  8
0
  6
CONTINUOUS
 62
     0
 10
908.7367478369614
 20
1174.6498157289959
 30
0.0
 11
908.58305783696142
 21
1174.6557357289951
 31
0.0
  0
LINE
  5
E25B
  8
0
  6
CONTINUOUS
 62
     0
 10
912.582997836961
 20
1093.5018657289961
 30
0.0
 11
912.582997836961
 21
1170.652805728995
 31
0.0
  0
LINE
  5
E25C
  8
0
  6
CONTINUOUS
 62
     0
 10
616.58298783696125
 20
1089.5018657289961
 30
0.0
 11
908.58299783696134
 21
1089.5018657289961
 31
0.0
  0
LINE
  5
E25D
  8
0
  6
CONTINUOUS
 62
     0
 10
612.58298783696205
 20
1170.6421857289961
 30
0.0
 11
612.58298783696205
 21
1093.5018657289961
 31
0.0
  0
LINE
  5
E25E
  8
0
  6
CONTINUOUS
 62
     0
 10
715.55458783696122
 20
1178.179415728996
 30
0.0
 11
616.44018783696174
 21
1174.639625728996
 31
0.0
  0
LINE
  5
E25F
  8
0
  6
CONTINUOUS
 62
     0
 10
755.42351783696176
 20
1163.6861957289959
 30
0.0
 11
756.78783783696122
 21
1166.307655728996
 31
0.0
  0
LINE
  5
E260
  8
0
  6
CONTINUOUS
 62
     0
 10
757.58299783696111
 20
1264.2108657289959
 30
0.0
 11
757.58299783696111
 21
1294.501865728995
 31
0.0
  0
LINE
  5
E261
  8
0
  6
CONTINUOUS
 62
     0
 10
754.58299783696111
 20
1257.8139957289959
 30
0.0
 11
716.58298783696125
 21
1257.8139957289959
 31
0.0
  0
LINE
  5
E262
  8
0
  6
CONTINUOUS
 62
     0
 10
757.58299783696111
 20
1264.2108657289959
 30
0.0
 11
754.58299783696111
 21
1257.8139957289959
 31
0.0
  0
LINE
  5
E263
  8
0
  6
CONTINUOUS
 62
     0
 10
786.55852783696184
 20
1264.2108657289959
 30
0.0
 11
757.58299783696111
 21
1264.2108657289959
 31
0.0
  0
LINE
  5
E264
  8
0
  6
CONTINUOUS
 62
     0
 10
807.35533783696155
 20
1248.9241657289961
 30
0.0
 11
788.39348783696073
 21
1263.5843657289961
 31
0.0
  0
LINE
  5
E265
  8
0
  6
CONTINUOUS
 62
     0
 10
788.37932783696124
 20
1230.092865728996
 30
0.0
 11
807.30833783696107
 21
1244.141695728996
 31
0.0
  0
LINE
  5
E266
  8
0
  6
CONTINUOUS
 62
     0
 10
716.58298783696125
 20
1229.5018657289961
 30
0.0
 11
786.59135783696104
 21
1229.5018657289961
 31
0.0
  0
LINE
  5
E267
  8
0
  6
CONTINUOUS
 62
     0
 10
732.58299783696111
 20
1147.5018657289961
 30
0.0
 11
732.58299783696111
 21
1308.2518657289961
 31
0.0
  0
LINE
  5
E268
  8
0
  6
CONTINUOUS
 62
     0
 10
862.582997836961
 20
1178.4355157289961
 30
0.0
 11
862.582997836961
 21
1314.501865728995
 31
0.0
  0
LINE
  5
E269
  8
0
  6
CONTINUOUS
 62
     0
 10
908.58299783696134
 20
1314.501865728995
 30
0.0
 11
908.58299783696134
 21
1174.6557357289951
 31
0.0
  0
LINE
  5
E26A
  8
0
  6
CONTINUOUS
 62
     0
 10
887.582997836961
 20
1314.501865728995
 30
0.0
 11
887.582997836961
 21
1198.8078957289961
 31
0.0
  0
LINE
  5
E26B
  8
0
  6
CONTINUOUS
 62
     0
 10
900.58299783696111
 20
1237.0130957289959
 30
0.0
 11
889.53813783696091
 21
1237.0130957289959
 31
0.0
  0
LINE
  5
E26C
  8
0
  6
CONTINUOUS
 62
     0
 10
759.30339783696127
 20
1167.9191057289961
 30
0.0
 11
802.7261878369618
 21
1170.0298757289961
 31
0.0
  0
LINE
  5
E26D
  8
0
  6
CONTINUOUS
 62
     0
 10
757.58299783696111
 20
1167.835485728996
 30
0.0
 11
757.58299783696111
 21
1229.5018657289961
 31
0.0
  0
LINE
  5
E26E
  8
0
  6
CONTINUOUS
 62
     0
 10
912.582997836961
 20
1314.501865728995
 30
0.0
 11
912.582997836961
 21
1254.5018657289961
 31
0.0
  0
LINE
  5
E26F
  8
0
  6
CONTINUOUS
 62
     0
 10
912.582997836961
 20
1254.501925728996
 30
0.0
 11
908.58299783696134
 21
1250.501925728996
 31
0.0
  0
LINE
  5
E270
  8
0
  6
CONTINUOUS
 62
     0
 10
894.09990783696139
 20
1198.5018657289961
 30
0.0
 11
900.58299783696111
 21
1198.5018657289961
 31
0.0
  0
LINE
  5
E271
  8
0
  6
CONTINUOUS
 62
     0
 10
866.92711783696166
 20
1171.8586757289961
 30
0.0
 11
882.77605783696163
 21
1187.3747257289961
 31
0.0
  0
LINE
  5
E272
  8
0
  6
CONTINUOUS
 62
     0
 10
806.42455783696073
 20
1164.876005728996
 30
0.0
 11
856.5109178369612
 21
1167.310705728996
 31
0.0
  0
LINE
  5
E273
  8
0
  6
CONTINUOUS
 62
     0
 10
719.58298783696137
 20
1147.5018657289961
 30
0.0
 11
787.58299783696111
 21
1147.5018657289961
 31
0.0
  0
LINE
  5
E274
  8
0
  6
CONTINUOUS
 62
     0
 10
787.58299783696111
 20
1147.501925728996
 30
0.0
 11
803.79033783696104
 21
1163.709205728996
 31
0.0
  0
LINE
  5
E275
  8
0
  6
CONTINUOUS
 62
     0
 10
716.58298783696125
 20
1478.5018657289961
 30
0.0
 11
716.58298783696125
 21
1342.430365728995
 31
0.0
  0
LINE
  5
E276
  8
0
  6
CONTINUOUS
 62
     0
 10
621.08298783696205
 20
1223.4189157289959
 30
0.0
 11
666.08298783696137
 21
1223.4189157289959
 31
0.0
  0
LINE
  5
E277
  8
0
  6
CONTINUOUS
 62
     0
 10
621.08298783696205
 20
1242.6694657289961
 30
0.0
 11
666.08298783696137
 21
1242.6694657289961
 31
0.0
  0
LINE
  5
E278
  8
0
  6
CONTINUOUS
 62
     0
 10
608.08298783696284
 20
1214.774695728996
 30
0.0
 11
619.08298783696239
 21
1214.774695728996
 31
0.0
  0
LINE
  5
E279
  8
0
  6
CONTINUOUS
 62
     0
 10
608.08298783696284
 20
1230.3310257289961
 30
0.0
 11
619.08298783696239
 21
1230.3310257289961
 31
0.0
  0
LINE
  5
E27A
  8
0
  6
CONTINUOUS
 62
     0
 10
609.06188783696098
 20
1240.0649157289961
 30
0.0
 11
620.09078783696077
 21
1240.0649157289961
 31
0.0
  0
LINE
  5
E27B
  8
0
  6
CONTINUOUS
 62
     0
 10
621.08298783696205
 20
1386.3342657289941
 30
0.0
 11
666.08298783696137
 21
1386.3342657289941
 31
0.0
  0
LINE
  5
E27C
  8
0
  6
CONTINUOUS
 62
     0
 10
621.08298783696205
 20
1405.5848657289951
 30
0.0
 11
666.08298783696137
 21
1405.5848657289951
 31
0.0
  0
LINE
  5
E27D
  8
0
  6
CONTINUOUS
 62
     0
 10
609.06188783696098
 20
1388.938865728996
 30
0.0
 11
620.09078783696077
 21
1388.938865728996
 31
0.0
  0
LINE
  5
E27E
  8
0
  6
CONTINUOUS
 62
     0
 10
608.08298783696284
 20
1398.672765728995
 30
0.0
 11
619.08298783696239
 21
1398.672765728995
 31
0.0
  0
LINE
  5
E27F
  8
0
  6
CONTINUOUS
 62
     0
 10
608.08298783696284
 20
1414.2291657289959
 30
0.0
 11
619.08298783696239
 21
1414.2291657289959
 31
0.0
  0
LINE
  5
E280
  8
0
  6
CONTINUOUS
 62
     0
 10
608.58305783696039
 20
1196.5018657289961
 30
0.0
 11
620.08298783696137
 21
1196.5018657289961
 31
0.0
  0
LINE
  5
E281
  8
0
  6
CONTINUOUS
 62
     0
 10
621.08298783696205
 20
1197.5018657289961
 30
0.0
 11
621.08298783696205
 21
1314.501865728995
 31
0.0
  0
LINE
  5
E282
  8
0
  6
CONTINUOUS
 62
     0
 10
621.59178783696098
 20
1198.4930157289959
 30
0.0
 11
662.15278783696135
 21
1197.7850057289961
 31
0.0
  0
LINE
  5
E283
  8
0
  6
CONTINUOUS
 62
     0
 10
621.59178783696098
 20
1430.510765728995
 30
0.0
 11
661.17028783696151
 21
1431.201565728996
 31
0.0
  0
LINE
  5
E284
  8
0
  6
CONTINUOUS
 62
     0
 10
621.08298783696205
 20
1431.501865728995
 30
0.0
 11
621.08298783696205
 21
1314.501865728995
 31
0.0
  0
LINE
  5
E285
  8
0
  6
CONTINUOUS
 62
     0
 10
608.5829978369602
 20
1432.5018657289961
 30
0.0
 11
620.08298783696137
 21
1432.5018657289961
 31
0.0
  0
LINE
  5
E286
  8
0
  6
CONTINUOUS
 62
     0
 10
607.58299783696111
 20
1197.501925728996
 30
0.0
 11
608.58305783696039
 21
1196.5018657289961
 31
0.0
  0
LINE
  5
E287
  8
0
  6
CONTINUOUS
 62
     0
 10
607.58299783696111
 20
1431.501865728995
 30
0.0
 11
608.5829978369602
 21
1432.5018657289961
 31
0.0
  0
LINE
  5
E288
  8
0
  6
CONTINUOUS
 62
     0
 10
679.31958783696155
 20
1106.802705728996
 30
0.0
 11
734.31950783696175
 21
1116.500645728996
 31
0.0
  0
LINE
  5
E289
  8
0
  6
CONTINUOUS
 62
     0
 10
742.58305783696119
 20
1517.886365728996
 30
0.0
 11
742.58305783696119
 21
1481.5018657289961
 31
0.0
  0
LINE
  5
E28A
  8
0
  6
CONTINUOUS
 62
     0
 10
833.41423783696155
 20
1160.6719657289959
 30
0.0
 11
842.9274878369614
 21
1098.0010757289961
 31
0.0
  0
LINE
  5
E28B
  8
0
  6
CONTINUOUS
 62
     0
 10
668.44478783696195
 20
1539.349965728996
 30
0.0
 11
734.31950783696175
 21
1527.7345657289959
 31
0.0
  0
LINE
  5
E28C
  8
0
  6
CONTINUOUS
 62
     0
 10
833.41423783696155
 20
1468.3316657289949
 30
0.0
 11
842.92741783696147
 21
1531.0025657289959
 31
0.0
  0
LINE
  5
E28D
  8
0
  6
CONTINUOUS
 62
     0
 10
668.44468783696175
 20
1089.6537857289959
 30
0.0
 11
734.31950783696175
 21
1101.2692557289961
 31
0.0
  0
LINE
  5
E28E
  8
0
  6
CONTINUOUS
 62
     0
 10
679.31958783696155
 20
1522.201065728995
 30
0.0
 11
734.31950783696175
 21
1512.503065728996
 31
0.0
  0
LINE
  5
E28F
  8
0
  6
CONTINUOUS
 62
     0
 10
742.58305783696119
 20
1111.117345728996
 30
0.0
 11
742.58305783696119
 21
1147.5018657289961
 31
0.0
  0
ARC
  5
E290
  8
0
  6
CONTINUOUS
 62
     0
 10
712.58298783696125
 20
1175.5018657289961
 30
0.0
 40
4.0
 50
0.0
 51
90.000002999984659
  0
ARC
  5
E291
  8
0
  6
CONTINUOUS
 62
     0
 10
712.58298783696125
 20
1453.501865728995
 30
0.0
 40
4.0
 50
270.0
 51
0.0
  0
ARC
  5
E292
  8
0
  6
CONTINUOUS
 62
     0
 10
676.08298783696125
 20
1439.501865728995
 30
0.0
 40
10.0
 50
90.000002999984659
 51
180.00001000000091
  0
ARC
  5
E293
  8
0
  6
CONTINUOUS
 62
     0
 10
676.08298783696125
 20
1189.5018657289961
 30
0.0
 40
10.0
 50
179.999989999999
 51
270.0
  0
ARC
  5
E294
  8
0
  6
CONTINUOUS
 62
     0
 10
719.58298783696137
 20
1463.932665728996
 30
0.0
 40
3.0
 50
90.000002999984659
 51
180.00001000000091
  0
ARC
  5
E295
  8
0
  6
CONTINUOUS
 62
     0
 10
944.582997836961
 20
1314.501865728995
 30
0.0
 40
10.0
 50
90.000002999984659
 51
270.0
  0
ARC
  5
E296
  8
0
  6
CONTINUOUS
 62
     0
 10
710.58298783696125
 20
1314.501865728995
 30
0.0
 40
20.0
 50
18.209957000012679
 51
161.7900400000137
  0
ARC
  5
E297
  8
0
  6
CONTINUOUS
 62
     0
 10
710.58298783696125
 20
1314.501865728995
 30
0.0
 40
15.0
 50
24.62431799999154
 51
155.3756800000024
  0
ARC
  5
E298
  8
0
  6
CONTINUOUS
 62
     0
 10
734.332997836961
 20
1314.501865728995
 30
0.0
 40
6.25
 50
270.0
 51
90.000002999984659
  0
ARC
  5
E299
  8
0
  6
CONTINUOUS
 62
     0
 10
686.83298783696205
 20
1314.501865728995
 30
0.0
 40
6.25
 50
90.000002999984659
 51
270.0
  0
ARC
  5
E29A
  8
0
  6
CONTINUOUS
 62
     0
 10
710.58298783696125
 20
1314.501865728995
 30
0.0
 40
15.0
 50
204.6243199999974
 51
335.37568000000249
  0
CIRCLE
  5
E29B
  8
0
  6
CONTINUOUS
 62
     0
 10
762.58299783696111
 20
1314.501865728995
 30
0.0
 40
10.0
  0
ARC
  5
E29C
  8
0
  6
CONTINUOUS
 62
     0
 10
762.58299783696111
 20
1314.501865728995
 30
0.0
 40
20.0
 50
270.0
 51
90.000002999984659
  0
ARC
  5
E29D
  8
0
  6
CONTINUOUS
 62
     0
 10
710.58298783696125
 20
1314.501865728995
 30
0.0
 40
20.0
 50
198.2099599999861
 51
341.79004000001368
  0
ARC
  5
E29E
  8
0
  6
CONTINUOUS
 62
     0
 10
708.58298783696125
 20
1286.573365728995
 30
0.0
 40
8.0
 50
0.0
 51
85.903959000006097
  0
ARC
  5
E29F
  8
0
  6
CONTINUOUS
 62
     0
 10
708.58298783696125
 20
1342.430365728995
 30
0.0
 40
8.0
 50
274.09603999999803
 51
0.0
  0
ARC
  5
E2A0
  8
0
  6
CONTINUOUS
 62
     0
 10
900.58299783696111
 20
1383.9907657289959
 30
0.0
 40
8.0
 50
46.018788999984423
 51
90.000002999984659
  0
ARC
  5
E2A1
  8
0
  6
CONTINUOUS
 62
     0
 10
900.58299783696111
 20
1422.5018657289961
 30
0.0
 40
8.0
 50
0.0
 51
90.000002999984659
  0
ARC
  5
E2A2
  8
0
  6
CONTINUOUS
 62
     0
 10
786.55852783696184
 20
1367.792865728996
 30
0.0
 40
3.0
 50
270.0
 51
307.70904999998851
  0
ARC
  5
E2A3
  8
0
  6
CONTINUOUS
 62
     0
 10
805.52037783696142
 20
1382.4530657289961
 30
0.0
 40
3.0
 50
307.70904999998851
 51
53.41768999996745
  0
ARC
  5
E2A4
  8
0
  6
CONTINUOUS
 62
     0
 10
786.59135783696104
 20
1396.5018657289961
 30
0.0
 40
3.0
 50
53.41768999996745
 51
90.000002999984659
  0
ARC
  5
E2A5
  8
0
  6
CONTINUOUS
 62
     0
 10
855.73405783696126
 20
1445.7119657289959
 30
0.0
 40
16.0
 50
45.60807300001796
 51
87.217069000028545
  0
ARC
  5
E2A6
  8
0
  6
CONTINUOUS
 62
     0
 10
871.582997836961
 20
1430.1958657289961
 30
0.0
 40
16.0
 50
0.0
 51
45.60807300001796
  0
ARC
  5
E2A7
  8
0
  6
CONTINUOUS
 62
     0
 10
894.09990783696139
 20
1438.5018657289961
 30
0.0
 40
8.0
 50
200.2479800000184
 51
270.0
  0
ARC
  5
E2A8
  8
0
  6
CONTINUOUS
 62
     0
 10
752.76238783696124
 20
1463.932665728996
 30
0.0
 40
3.0
 50
27.49429000000799
 51
90.000002999984659
  0
ARC
  5
E2A9
  8
0
  6
CONTINUOUS
 62
     0
 10
759.44902783696125
 20
1464.081065728996
 30
0.0
 40
3.0
 50
207.49429000000799
 51
267.21707000000441
  0
CIRCLE
  5
E2AA
  8
0
  6
CONTINUOUS
 62
     0
 10
647.58298783696239
 20
1494.501865728995
 30
0.0
 40
12.0
  0
CIRCLE
  5
E2AB
  8
0
  6
CONTINUOUS
 62
     0
 10
877.582997836961
 20
1494.501865728995
 30
0.0
 40
12.0
  0
ARC
  5
E2AC
  8
0
  6
CONTINUOUS
 62
     0
 10
616.58298783696125
 20
1535.5018657289961
 30
0.0
 40
4.0
 50
90.000002999984659
 51
180.00001000000091
  0
ARC
  5
E2AD
  8
0
  6
CONTINUOUS
 62
     0
 10
616.58298783696125
 20
1458.361565728994
 30
0.0
 40
4.0
 50
179.999989999999
 51
267.95459999998599
  0
ARC
  5
E2AE
  8
0
  6
CONTINUOUS
 62
     0
 10
908.58299783696134
 20
1458.350965728996
 30
0.0
 40
4.0
 50
272.2026000000082
 51
0.0
  0
ARC
  5
E2AF
  8
0
  6
CONTINUOUS
 62
     0
 10
908.58299783696134
 20
1535.5018657289961
 30
0.0
 40
4.0
 50
0.0
 51
90.000002999984659
  0
ARC
  5
E2B0
  8
0
  6
CONTINUOUS
 62
     0
 10
806.61876783696152
 20
1468.122965728996
 30
0.0
 40
4.0
 50
224.99999999999079
 51
267.21707000000441
  0
ARC
  5
E2B1
  8
0
  6
CONTINUOUS
 62
     0
 10
719.58298783696137
 20
1478.5018657289961
 30
0.0
 40
3.0
 50
90.000002999984659
 51
180.00001000000091
  0
ARC
  5
E2B2
  8
0
  6
CONTINUOUS
 62
     0
 10
719.58298783696137
 20
1165.0711357289961
 30
0.0
 40
3.0
 50
179.999989999999
 51
270.0
  0
ARC
  5
E2B3
  8
0
  6
CONTINUOUS
 62
     0
 10
719.58298783696137
 20
1150.5018657289961
 30
0.0
 40
3.0
 50
179.999989999999
 51
270.0
  0
ARC
  5
E2B4
  8
0
  6
CONTINUOUS
 62
     0
 10
806.61876783696152
 20
1160.880775728996
 30
0.0
 40
4.0
 50
92.782928999967808
 51
135.00000000000921
  0
ARC
  5
E2B5
  8
0
  6
CONTINUOUS
 62
     0
 10
908.58299783696134
 20
1093.5018657289961
 30
0.0
 40
4.0
 50
270.0
 51
0.0
  0
ARC
  5
E2B6
  8
0
  6
CONTINUOUS
 62
     0
 10
908.58299783696134
 20
1170.652805728995
 30
0.0
 40
4.0
 50
0.0
 51
87.797403000004067
  0
ARC
  5
E2B7
  8
0
  6
CONTINUOUS
 62
     0
 10
616.58298783696125
 20
1093.5018657289961
 30
0.0
 40
4.0
 50
179.999989999999
 51
270.0
  0
CIRCLE
  5
E2B8
  8
0
  6
CONTINUOUS
 62
     0
 10
877.582997836961
 20
1134.5018657289961
 30
0.0
 40
12.0
  0
CIRCLE
  5
E2B9
  8
0
  6
CONTINUOUS
 62
     0
 10
647.58298783696239
 20
1134.5018657289961
 30
0.0
 40
12.0
  0
ARC
  5
E2BA
  8
0
  6
CONTINUOUS
 62
     0
 10
759.44902783696125
 20
1164.922645728996
 30
0.0
 40
3.0
 50
92.782928999967808
 51
152.50570999999201
  0
ARC
  5
E2BB
  8
0
  6
CONTINUOUS
 62
     0
 10
752.76238783696124
 20
1165.0711357289961
 30
0.0
 40
3.0
 50
270.0
 51
332.50570999999201
  0
ARC
  5
E2BC
  8
0
  6
CONTINUOUS
 62
     0
 10
786.59135783696104
 20
1232.5018657289961
 30
0.0
 40
3.0
 50
270.0
 51
306.58231000003258
  0
ARC
  5
E2BD
  8
0
  6
CONTINUOUS
 62
     0
 10
805.52037783696142
 20
1246.5507557289959
 30
0.0
 40
3.0
 50
306.58231000003258
 51
52.290951999976151
  0
ARC
  5
E2BE
  8
0
  6
CONTINUOUS
 62
     0
 10
786.55852783696184
 20
1261.210865728995
 30
0.0
 40
3.0
 50
52.290951999976151
 51
90.000002999984659
  0
ARC
  5
E2BF
  8
0
  6
CONTINUOUS
 62
     0
 10
894.09990783696139
 20
1190.5018657289961
 30
0.0
 40
8.0
 50
90.000002999984659
 51
159.75201999998151
  0
ARC
  5
E2C0
  8
0
  6
CONTINUOUS
 62
     0
 10
900.58299783696111
 20
1206.5018657289961
 30
0.0
 40
8.0
 50
270.0
 51
0.0
  0
ARC
  5
E2C1
  8
0
  6
CONTINUOUS
 62
     0
 10
900.58299783696111
 20
1245.0130957289959
 30
0.0
 40
8.0
 50
270.0
 51
313.98120999998258
  0
ARC
  5
E2C2
  8
0
  6
CONTINUOUS
 62
     0
 10
871.582997836961
 20
1198.8078957289961
 30
0.0
 40
16.0
 50
314.39192999997817
 51
0.0
  0
ARC
  5
E2C3
  8
0
  6
CONTINUOUS
 62
     0
 10
855.73405783696126
 20
1183.2918457289959
 30
0.0
 40
16.0
 50
272.7829299999957
 51
314.39192999997817
  0
ARC
  5
E2C4
  8
0
  6
CONTINUOUS
 62
     0
 10
616.58298783696125
 20
1170.6421857289961
 30
0.0
 40
4.0
 50
92.045404999995156
 51
180.00001000000091
  0
ARC
  5
E2C5
  8
0
  6
CONTINUOUS
 62
     0
 10
619.08298783696239
 20
1216.774695728996
 30
0.0
 40
2.0
 50
270.0
 51
0.0
  0
ARC
  5
E2C6
  8
0
  6
CONTINUOUS
 62
     0
 10
619.08298783696239
 20
1232.3310257289961
 30
0.0
 40
2.0
 50
270.0
 51
0.0
  0
ARC
  5
E2C7
  8
0
  6
CONTINUOUS
 62
     0
 10
619.08298783696239
 20
1396.672765728996
 30
0.0
 40
2.0
 50
0.0
 51
90.000002999984659
  0
ARC
  5
E2C8
  8
0
  6
CONTINUOUS
 62
     0
 10
619.08298783696239
 20
1412.2291657289959
 30
0.0
 40
2.0
 50
0.0
 51
90.000002999984659
  0
ARC
  5
E2C9
  8
0
  6
CONTINUOUS
 62
     0
 10
620.08298783696137
 20
1197.5018657289961
 30
0.0
 40
1.0
 50
270.0
 51
0.0
  0
ARC
  5
E2CA
  8
0
  6
CONTINUOUS
 62
     0
 10
621.58298783696205
 20
1197.993075728996
 30
0.0
 40
0.5
 50
89.000001000015246
 51
180.00001000000091
  0
ARC
  5
E2CB
  8
0
  6
CONTINUOUS
 62
     0
 10
621.58298783696205
 20
1431.0106657289959
 30
0.0
 40
0.5
 50
179.999989999999
 51
270.99999999997573
  0
ARC
  5
E2CC
  8
0
  6
CONTINUOUS
 62
     0
 10
620.08298783696137
 20
1431.501865728995
 30
0.0
 40
1.0
 50
0.0
 51
90.000002999984659
  0
ARC
  5
E2CD
  8
0
  6
CONTINUOUS
 62
     0
 10
661.08298783696227
 20
1436.200865728995
 30
0.0
 40
5.0
 50
270.99999999997573
 51
0.0
  0
ARC
  5
E2CE
  8
0
  6
CONTINUOUS
 62
     0
 10
662.08298783696137
 20
1193.7856157289959
 30
0.0
 40
4.0
 50
0.0
 51
89.000001000015246
  0
ARC
  5
E2CF
  8
0
  6
CONTINUOUS
 62
     0
 10
852.81419783696094
 20
1529.5018657289961
 30
0.0
 40
10.0
 50
90.000002999984659
 51
171.3686100000038
  0
ARC
  5
E2D0
  8
0
  6
CONTINUOUS
 62
     0
 10
677.58308783696248
 20
1512.352965728996
 30
0.0
 40
10.0
 50
79.999998000001099
 51
180.00001000000091
  0
ARC
  5
E2D1
  8
0
  6
CONTINUOUS
 62
     0
 10
732.58305783696153
 20
1111.117345728996
 30
0.0
 40
10.0
 50
280.00000000000608
 51
0.0
  0
ARC
  5
E2D2
  8
0
  6
CONTINUOUS
 62
     0
 10
838.35759783696165
 20
1467.581365728995
 30
0.0
 40
5.0
 50
171.3686100000038
 51
267.21708000002212
  0
ARC
  5
E2D3
  8
0
  6
CONTINUOUS
 62
     0
 10
666.70828783696174
 20
1529.5018657289961
 30
0.0
 40
10.0
 50
79.999998000001099
 51
90.000002999984659
  0
ARC
  5
E2D4
  8
0
  6
CONTINUOUS
 62
     0
 10
838.35759783696165
 20
1161.4223357289959
 30
0.0
 40
5.0
 50
92.782928999967808
 51
188.6313799999881
  0
ARC
  5
E2D5
  8
0
  6
CONTINUOUS
 62
     0
 10
732.58305783696153
 20
1517.886365728996
 30
0.0
 40
10.0
 50
0.0
 51
79.999998000001099
  0
ARC
  5
E2D6
  8
0
  6
CONTINUOUS
 62
     0
 10
677.58308783696248
 20
1116.6507957289959
 30
0.0
 40
10.0
 50
179.999989999999
 51
280.00000000000608
  0
ARC
  5
E2D7
  8
0
  6
CONTINUOUS
 62
     0
 10
732.58305783696153
 20
1502.6549657289961
 30
0.0
 40
10.0
 50
0.0
 51
79.999998000001099
  0
ARC
  5
E2D8
  8
0
  6
CONTINUOUS
 62
     0
 10
666.70828783696174
 20
1099.5018657289961
 30
0.0
 40
10.0
 50
270.0
 51
280.00000000000608
  0
ARC
  5
E2D9
  8
0
  6
CONTINUOUS
 62
     0
 10
852.81419783696094
 20
1099.5018657289961
 30
0.0
 40
10.0
 50
188.63138999999609
 51
270.0
  0
ARC
  5
E2DA
  8
0
  6
CONTINUOUS
 62
     0
 10
732.58305783696153
 20
1126.3487857289961
 30
0.0
 40
10.0
 50
280.00000000000608
 51
0.0
  0
CIRCLE
  5
E2DB
  8
0
 62
     0
 10
475.08299783696111
 20
1314.501812728995
 30
0.0
 40
4.0
  0
CIRCLE
  5
E2DC
  8
0
 62
     0
 10
475.08299783696111
 20
1314.501812728995
 30
0.0
 40
5.0
  0
ARC
  5
E2DD
  8
0
 62
     0
 10
267.85107683696071
 20
1188.501865728995
 30
0.0
 40
3.0
 50
200.00000000000591
 51
270.0
  0
LINE
  5
E2DE
  8
0
 62
     0
 10
267.85107683696071
 20
1185.501865728995
 30
0.0
 11
363.083018836961
 21
1185.501865728995
 31
0.0
  0
ARC
  5
E2DF
  8
0
 62
     0
 10
272.083018836961
 20
1200.2651357289949
 30
0.0
 40
11.0
 50
180.0
 51
200.00000000000591
  0
LINE
  5
E2E0
  8
0
 62
     0
 10
261.7464008369609
 20
1196.5029137289951
 30
0.0
 11
265.03199883696118
 21
1187.4758057289951
 31
0.0
  0
LINE
  5
E2E1
  8
0
 62
     0
 10
363.083018836961
 20
1185.501865728995
 30
0.0
 11
363.083018836961
 21
1450.501865728995
 31
0.0
  0
ARC
  5
E2E2
  8
0
 62
     0
 10
272.083018836961
 20
1428.7385957289951
 30
0.0
 40
11.0
 50
159.999999999994
 51
180.0
  0
ARC
  5
E2E3
  8
0
 62
     0
 10
270.39886883696119
 20
1447.501865728995
 30
0.0
 40
3.0
 50
90.0
 51
159.999999999994
  0
LINE
  5
E2E4
  8
0
 62
     0
 10
261.7464008369609
 20
1432.5008177289949
 30
0.0
 11
267.57979083696148
 21
1448.527925728994
 31
0.0
  0
LINE
  5
E2E5
  8
0
 62
     0
 10
268.2982458369616
 20
1187.4758057289951
 30
0.0
 11
268.2982458369616
 21
1445.3600477289949
 31
0.0
  0
LINE
  5
E2E6
  8
0
 62
     0
 10
261.08301883696112
 20
1200.2651357289949
 30
0.0
 11
261.08301883696112
 21
1428.7385957289951
 31
0.0
  0
LINE
  5
E2E7
  8
0
 62
     0
 10
270.39886883696119
 20
1450.501865728995
 30
0.0
 11
363.083018836961
 21
1450.501865728995
 31
0.0
  0
ARC
  5
E2E8
  8
0
 62
     0
 10
603.58299783696111
 20
1196.3377607289949
 30
0.0
 40
2.0
 50
299.99999800001649
 51
0.0
  0
LINE
  5
E2E9
  8
0
 62
     0
 10
604.58299883696122
 20
1194.605734728995
 30
0.0
 11
599.24328483696092
 21
1191.5228487289951
 31
0.0
  0
ARC
  5
E2EA
  8
0
 62
     0
 10
594.2432758369614
 20
1200.1830977289951
 30
0.0
 40
10.0
 50
269.99999700001541
 51
299.99999800001649
  0
LINE
  5
E2EB
  8
0
 62
     0
 10
523.14121283696124
 20
1190.1830977289951
 30
0.0
 11
594.2432758369614
 21
1190.1830977289951
 31
0.0
  0
LINE
  5
E2EC
  8
0
 62
     0
 10
607.58297683696117
 20
1429.5018787289951
 30
0.0
 11
605.58305883696073
 21
1429.515878728994
 31
0.0
  0
LINE
  5
E2ED
  8
0
 62
     0
 10
605.58305883696073
 20
1437.571812728994
 30
0.0
 11
589.38829583696122
 21
1447.501865728995
 31
0.0
  0
LINE
  5
E2EE
  8
0
 62
     0
 10
363.083018836961
 20
1447.501865728995
 30
0.0
 11
589.38817383696085
 21
1447.501865728995
 31
0.0
  0
LINE
  5
E2EF
  8
0
  6
AM_ISO08W050
 62
     0
 10
475.08299783696111
 20
1172.890095728995
 30
0.0
 11
475.08299783696111
 21
1187.3351277289951
 31
0.0
  0
ARC
  5
E2F0
  8
0
 62
     0
 10
540.05800383696089
 20
1133.395842728994
 30
0.0
 40
9.0
 50
117.977060000013
 51
180.10395799999091
  0
ARC
  5
E2F1
  8
0
 62
     0
 10
540.00900783696125
 20
1160.270842728994
 30
0.0
 40
9.0
 50
180.10395799999091
 51
243.26531200002881
  0
LINE
  5
E2F2
  8
0
 62
     0
 10
537.92957983696124
 20
1155.586081728994
 30
0.0
 11
535.95983783696113
 21
1156.703168728995
 31
0.0
  0
LINE
  5
E2F3
  8
0
 62
     0
 10
540.082997836961
 20
1148.4091457289951
 30
0.0
 11
540.082997836961
 21
1152.157041728995
 31
0.0
  0
LINE
  5
E2F4
  8
0
  6
AM_ISO08W050
 62
     0
 10
535.53900683696065
 20
1147.686858728995
 30
0.0
 11
524.80600483696162
 21
1147.686858728995
 31
0.0
  0
LINE
  5
E2F5
  8
0
  6
AM_ISO08W050
 62
     0
 10
530.08299783696123
 20
1141.7638547289951
 30
0.0
 11
530.08299783696123
 21
1154.248869728995
 31
0.0
  0
LINE
  5
E2F6
  8
0
 62
     0
 10
531.05802283696084
 20
1133.378878728995
 30
0.0
 11
531.06002183696091
 21
1132.458897728995
 31
0.0
  0
ARC
  5
E2F7
  8
0
 62
     0
 10
532.082997836961
 20
1148.4091457289951
 30
0.0
 40
8.0
 50
297.97706000001318
 51
0.0
  0
ARC
  5
E2F8
  8
0
 62
     0
 10
535.83299783696123
 20
1151.8892127289951
 30
0.0
 40
4.25
 50
0.0
 51
60.441404999993601
  0
LINE
  5
E2F9
  8
0
 62
     0
 10
537.92957983696124
 20
1151.116080728995
 30
0.0
 11
535.95983783696113
 21
1152.2331677289951
 31
0.0
  0
ARC
  5
E2FA
  8
0
 62
     0
 10
535.83299783696123
 20
1147.419210728995
 30
0.0
 40
4.25
 50
5.6335919999975772
 51
60.441404999993601
  0
ARC
  5
E2FB
  8
0
 62
     0
 10
513.58299783696123
 20
1126.632877728995
 30
0.0
 40
10.0
 50
270.00003599997228
 51
0.0000179999992061
  0
ARC
  5
E2FC
  8
0
 62
     0
 10
513.06000283696096
 20
1132.4588617289951
 30
0.0
 40
18.0
 50
270.0
 51
0.0000179999992061
  0
ARC
  5
E2FD
  8
0
 62
     0
 10
513.58299783696123
 20
1139.452849728995
 30
0.0
 40
10.0
 50
0.0000179999992061
 51
90.0
  0
LINE
  5
E2FE
  8
0
 62
     0
 10
523.582997836961
 20
1162.5388477289951
 30
0.0
 11
523.582997836961
 21
1126.632877728995
 31
0.0
  0
LINE
  5
E2FF
  8
0
 62
     0
 10
530.99101183696075
 20
1170.038859728995
 30
0.0
 11
531.00901683696145
 21
1160.2548797289951
 31
0.0
  0
ARC
  5
E300
  8
0
 62
     0
 10
513.58299783696123
 20
1162.5388477289951
 30
0.0
 40
10.0
 50
0.0000179999992061
 51
90.0
  0
ARC
  5
E301
  8
0
 62
     0
 10
540.00900783696125
 20
1164.7408437289951
 30
0.0
 40
9.0
 50
180.10395799999091
 51
243.2622339999939
  0
POLYLINE
  5
E302
  8
0
 62
     0
 66
     1
 10
0.0
 20
0.0
 30
0.0
 70
     8
  0
VERTEX
  5
E850
  8
0
 62
     0
 10
530.99099999999999
 20
1170.04
 30
0.0
 70
    32
  0
VERTEX
  5
E851
  8
0
 62
     0
 10
530.9899999999999
 20
1170.1700000000001
 30
0.0
 70
    32
  0
VERTEX
  5
E852
  8
0
 62
     0
 10
530.9849999999999
 20
1170.3
 30
0.0
 70
    32
  0
VERTEX
  5
E853
  8
0
 62
     0
 10
530.97900000000004
 20
1170.4400000000001
 30
0.0
 70
    32
  0
VERTEX
  5
E854
  8
0
 62
     0
 10
530.96900000000005
 20
1170.5699999999999
 30
0.0
 70
    32
  0
VERTEX
  5
E855
  8
0
 62
     0
 10
530.95600000000002
 20
1170.7
 30
0.0
 70
    32
  0
VERTEX
  5
E856
  8
0
 62
     0
 10
530.94100000000003
 20
1170.8299999999999
 30
0.0
 70
    32
  0
VERTEX
  5
E857
  8
0
 62
     0
 10
530.923
 20
1170.97
 30
0.0
 70
    32
  0
VERTEX
  5
E858
  8
0
 62
     0
 10
530.90199999999993
 20
1171.0999999999999
 30
0.0
 70
    32
  0
VERTEX
  5
E859
  8
0
 62
     0
 10
530.87900000000002
 20
1171.23
 30
0.0
 70
    32
  0
VERTEX
  5
E85A
  8
0
 62
     0
 10
530.85300000000007
 20
1171.3599999999999
 30
0.0
 70
    32
  0
VERTEX
  5
E85B
  8
0
 62
     0
 10
530.82399999999996
 20
1171.49
 30
0.0
 70
    32
  0
VERTEX
  5
E85C
  8
0
 62
     0
 10
530.79199999999992
 20
1171.6199999999999
 30
0.0
 70
    32
  0
VERTEX
  5
E85D
  8
0
 62
     0
 10
530.75699999999995
 20
1171.76
 30
0.0
 70
    32
  0
VERTEX
  5
E85E
  8
0
 62
     0
 10
530.72000000000003
 20
1171.8900000000001
 30
0.0
 70
    32
  0
VERTEX
  5
E85F
  8
0
 62
     0
 10
530.67999999999995
 20
1172.02
 30
0.0
 70
    32
  0
VERTEX
  5
E860
  8
0
 62
     0
 10
530.63699999999994
 20
1172.1500000000001
 30
0.0
 70
    32
  0
VERTEX
  5
E861
  8
0
 62
     0
 10
530.59199999999987
 20
1172.28
 30
0.0
 70
    32
  0
VERTEX
  5
E862
  8
0
 62
     0
 10
530.54399999999987
 20
1172.4100000000001
 30
0.0
 70
    32
  0
VERTEX
  5
E863
  8
0
 62
     0
 10
530.49300000000005
 20
1172.54
 30
0.0
 70
    32
  0
VERTEX
  5
E864
  8
0
 62
     0
 10
530.43899999999985
 20
1172.6600000000001
 30
0.0
 70
    32
  0
VERTEX
  5
E865
  8
0
 62
     0
 10
530.38300000000004
 20
1172.79
 30
0.0
 70
    32
  0
VERTEX
  5
E866
  8
0
 62
     0
 10
530.32399999999996
 20
1172.9200000000001
 30
0.0
 70
    32
  0
VERTEX
  5
E867
  8
0
 62
     0
 10
530.26300000000003
 20
1173.05
 30
0.0
 70
    32
  0
VERTEX
  5
E868
  8
0
 62
     0
 10
530.19799999999987
 20
1173.1800000000001
 30
0.0
 70
    32
  0
VERTEX
  5
E869
  8
0
 62
     0
 10
530.13099999999986
 20
1173.3
 30
0.0
 70
    32
  0
VERTEX
  5
E86A
  8
0
 62
     0
 10
530.06200000000001
 20
1173.4300000000001
 30
0.0
 70
    32
  0
VERTEX
  5
E86B
  8
0
 62
     0
 10
529.99000000000001
 20
1173.55
 30
0.0
 70
    32
  0
VERTEX
  5
E86C
  8
0
 62
     0
 10
529.91499999999996
 20
1173.6800000000001
 30
0.0
 70
    32
  0
VERTEX
  5
E86D
  8
0
 62
     0
 10
529.83799999999997
 20
1173.8
 30
0.0
 70
    32
  0
VERTEX
  5
E86E
  8
0
 62
     0
 10
529.75800000000004
 20
1173.9300000000001
 30
0.0
 70
    32
  0
VERTEX
  5
E86F
  8
0
 62
     0
 10
529.67499999999995
 20
1174.05
 30
0.0
 70
    32
  0
VERTEX
  5
E870
  8
0
 62
     0
 10
529.59000000000003
 20
1174.1700000000001
 30
0.0
 70
    32
  0
VERTEX
  5
E871
  8
0
 62
     0
 10
529.50199999999995
 20
1174.3
 30
0.0
 70
    32
  0
VERTEX
  5
E872
  8
0
 62
     0
 10
529.41199999999992
 20
1174.4200000000001
 30
0.0
 70
    32
  0
VERTEX
  5
E873
  8
0
 62
     0
 10
529.31899999999996
 20
1174.54
 30
0.0
 70
    32
  0
VERTEX
  5
E874
  8
0
 62
     0
 10
529.22400000000005
 20
1174.6600000000001
 30
0.0
 70
    32
  0
VERTEX
  5
E875
  8
0
 62
     0
 10
529.12599999999998
 20
1174.78
 30
0.0
 70
    32
  0
VERTEX
  5
E876
  8
0
 62
     0
 10
529.02499999999986
 20
1174.9000000000001
 30
0.0
 70
    32
  0
VERTEX
  5
E877
  8
0
 62
     0
 10
528.92299999999989
 20
1175.01
 30
0.0
 70
    32
  0
VERTEX
  5
E878
  8
0
 62
     0
 10
528.81700000000001
 20
1175.1300000000001
 30
0.0
 70
    32
  0
VERTEX
  5
E879
  8
0
 62
     0
 10
528.71000000000004
 20
1175.25
 30
0.0
 70
    32
  0
VERTEX
  5
E87A
  8
0
 62
     0
 10
528.60000000000002
 20
1175.3599999999999
 30
0.0
 70
    32
  0
VERTEX
  5
E87B
  8
0
 62
     0
 10
528.48699999999985
 20
1175.48
 30
0.0
 70
    32
  0
VERTEX
  5
E87C
  8
0
 62
     0
 10
528.37199999999984
 20
1175.5899999999999
 30
0.0
 70
    32
  0
VERTEX
  5
E87D
  8
0
 62
     0
 10
528.25499999999988
 20
1175.71
 30
0.0
 70
    32
  0
VERTEX
  5
E87E
  8
0
 62
     0
 10
528.13499999999988
 20
1175.8199999999999
 30
0.0
 70
    32
  0
VERTEX
  5
E87F
  8
0
 62
     0
 10
528.01300000000003
 20
1175.9300000000001
 30
0.0
 70
    32
  0
VERTEX
  5
E880
  8
0
 62
     0
 10
527.88900000000001
 20
1176.04
 30
0.0
 70
    32
  0
VERTEX
  5
E881
  8
0
 62
     0
 10
527.76199999999994
 20
1176.1500000000001
 30
0.0
 70
    32
  0
VERTEX
  5
E882
  8
0
 62
     0
 10
527.63300000000004
 20
1176.26
 30
0.0
 70
    32
  0
VERTEX
  5
E883
  8
0
 62
     0
 10
527.50199999999995
 20
1176.3699999999999
 30
0.0
 70
    32
  0
VERTEX
  5
E884
  8
0
 62
     0
 10
527.36800000000005
 20
1176.47
 30
0.0
 70
    32
  0
VERTEX
  5
E885
  8
0
 62
     0
 10
527.23300000000006
 20
1176.5799999999999
 30
0.0
 70
    32
  0
VERTEX
  5
E886
  8
0
 62
     0
 10
527.09500000000003
 20
1176.6900000000001
 30
0.0
 70
    32
  0
VERTEX
  5
E887
  8
0
 62
     0
 10
526.95500000000004
 20
1176.79
 30
0.0
 70
    32
  0
VERTEX
  5
E888
  8
0
 62
     0
 10
526.81299999999999
 20
1176.8900000000001
 30
0.0
 70
    32
  0
VERTEX
  5
E889
  8
0
 62
     0
 10
526.66800000000001
 20
1176.99
 30
0.0
 70
    32
  0
VERTEX
  5
E88A
  8
0
 62
     0
 10
526.52199999999993
 20
1177.0999999999999
 30
0.0
 70
    32
  0
VERTEX
  5
E88B
  8
0
 62
     0
 10
526.37300000000005
 20
1177.2
 30
0.0
 70
    32
  0
VERTEX
  5
E88C
  8
0
 62
     0
 10
526.22199999999998
 20
1177.29
 30
0.0
 70
    32
  0
VERTEX
  5
E88D
  8
0
 62
     0
 10
526.07000000000005
 20
1177.3900000000001
 30
0.0
 70
    32
  0
VERTEX
  5
E88E
  8
0
 62
     0
 10
525.91499999999985
 20
1177.49
 30
0.0
 70
    32
  0
VERTEX
  5
E88F
  8
0
 62
     0
 10
525.75800000000004
 20
1177.5799999999999
 30
0.0
 70
    32
  0
VERTEX
  5
E890
  8
0
 62
     0
 10
525.59900000000005
 20
1177.6800000000001
 30
0.0
 70
    32
  0
VERTEX
  5
E891
  8
0
 62
     0
 10
525.43899999999985
 20
1177.77
 30
0.0
 70
    32
  0
VERTEX
  5
E892
  8
0
 62
     0
 10
525.27599999999995
 20
1177.8599999999999
 30
0.0
 70
    32
  0
VERTEX
  5
E893
  8
0
 62
     0
 10
525.11099999999988
 20
1177.95
 30
0.0
 70
    32
  0
VERTEX
  5
E894
  8
0
 62
     0
 10
524.94500000000005
 20
1178.04
 30
0.0
 70
    32
  0
VERTEX
  5
E895
  8
0
 62
     0
 10
524.77699999999993
 20
1178.1300000000001
 30
0.0
 70
    32
  0
VERTEX
  5
E896
  8
0
 62
     0
 10
524.60699999999986
 20
1178.22
 30
0.0
 70
    32
  0
VERTEX
  5
E897
  8
0
 62
     0
 10
524.43499999999995
 20
1178.3099999999999
 30
0.0
 70
    32
  0
VERTEX
  5
E898
  8
0
 62
     0
 10
524.26099999999985
 20
1178.3900000000001
 30
0.0
 70
    32
  0
VERTEX
  5
E899
  8
0
 62
     0
 10
524.08500000000004
 20
1178.47
 30
0.0
 70
    32
  0
VERTEX
  5
E89A
  8
0
 62
     0
 10
523.90800000000002
 20
1178.5599999999999
 30
0.0
 70
    32
  0
VERTEX
  5
E89B
  8
0
 62
     0
 10
523.72900000000004
 20
1178.6400000000001
 30
0.0
 70
    32
  0
VERTEX
  5
E89C
  8
0
 62
     0
 10
523.54899999999986
 20
1178.72
 30
0.0
 70
    32
  0
VERTEX
  5
E89D
  8
0
 62
     0
 10
523.36599999999987
 20
1178.8
 30
0.0
 70
    32
  0
VERTEX
  5
E89E
  8
0
 62
     0
 10
523.1819999999999
 20
1178.8699999999999
 30
0.0
 70
    32
  0
VERTEX
  5
E89F
  8
0
 62
     0
 10
522.99699999999984
 20
1178.95
 30
0.0
 70
    32
  0
VERTEX
  5
E8A0
  8
0
 62
     0
 10
522.80999999999995
 20
1179.02
 30
0.0
 70
    32
  0
VERTEX
  5
E8A1
  8
0
 62
     0
 10
522.62099999999998
 20
1179.0999999999999
 30
0.0
 70
    32
  0
VERTEX
  5
E8A2
  8
0
 62
     0
 10
522.43100000000004
 20
1179.1700000000001
 30
0.0
 70
    32
  0
VERTEX
  5
E8A3
  8
0
 62
     0
 10
522.24000000000001
 20
1179.24
 30
0.0
 70
    32
  0
VERTEX
  5
E8A4
  8
0
 62
     0
 10
522.04700000000003
 20
1179.3099999999999
 30
0.0
 70
    32
  0
VERTEX
  5
E8A5
  8
0
 62
     0
 10
521.85199999999986
 20
1179.3699999999999
 30
0.0
 70
    32
  0
VERTEX
  5
E8A6
  8
0
 62
     0
 10
521.65599999999995
 20
1179.4400000000001
 30
0.0
 70
    32
  0
VERTEX
  5
E8A7
  8
0
 62
     0
 10
521.45899999999995
 20
1179.5
 30
0.0
 70
    32
  0
VERTEX
  5
E8A8
  8
0
 62
     0
 10
521.25999999999999
 20
1179.5699999999999
 30
0.0
 70
    32
  0
VERTEX
  5
E8A9
  8
0
 62
     0
 10
521.06100000000004
 20
1179.6300000000001
 30
0.0
 70
    32
  0
VERTEX
  5
E8AA
  8
0
 62
     0
 10
520.85900000000004
 20
1179.6900000000001
 30
0.0
 70
    32
  0
VERTEX
  5
E8AB
  8
0
 62
     0
 10
520.65699999999993
 20
1179.75
 30
0.0
 70
    32
  0
VERTEX
  5
E8AC
  8
0
 62
     0
 10
520.45299999999997
 20
1179.8099999999999
 30
0.0
 70
    32
  0
VERTEX
  5
E8AD
  8
0
 62
     0
 10
520.24900000000002
 20
1179.8599999999999
 30
0.0
 70
    32
  0
VERTEX
  5
E8AE
  8
0
 62
     0
 10
520.04299999999989
 20
1179.9200000000001
 30
0.0
 70
    32
  0
VERTEX
  5
E8AF
  8
0
 62
     0
 10
519.83600000000001
 20
1179.97
 30
0.0
 70
    32
  0
VERTEX
  5
E8B0
  8
0
 62
     0
 10
519.62699999999995
 20
1180.02
 30
0.0
 70
    32
  0
VERTEX
  5
E8B1
  8
0
 62
     0
 10
519.41800000000001
 20
1180.0699999999999
 30
0.0
 70
    32
  0
VERTEX
  5
E8B2
  8
0
 62
     0
 10
519.20799999999997
 20
1180.1199999999999
 30
0.0
 70
    32
  0
VERTEX
  5
E8B3
  8
0
 62
     0
 10
518.99699999999984
 20
1180.1700000000001
 30
0.0
 70
    32
  0
VERTEX
  5
E8B4
  8
0
 62
     0
 10
518.78399999999999
 20
1180.21
 30
0.0
 70
    32
  0
VERTEX
  5
E8B5
  8
0
 62
     0
 10
518.57100000000003
 20
1180.26
 30
0.0
 70
    32
  0
VERTEX
  5
E8B6
  8
0
 62
     0
 10
518.35699999999986
 20
1180.3
 30
0.0
 70
    32
  0
VERTEX
  5
E8B7
  8
0
 62
     0
 10
518.14199999999994
 20
1180.3399999999999
 30
0.0
 70
    32
  0
VERTEX
  5
E8B8
  8
0
 62
     0
 10
517.92700000000002
 20
1180.3800000000001
 30
0.0
 70
    32
  0
VERTEX
  5
E8B9
  8
0
 62
     0
 10
517.71000000000004
 20
1180.4200000000001
 30
0.0
 70
    32
  0
VERTEX
  5
E8BA
  8
0
 62
     0
 10
517.49300000000005
 20
1180.45
 30
0.0
 70
    32
  0
VERTEX
  5
E8BB
  8
0
 62
     0
 10
517.27499999999986
 20
1180.49
 30
0.0
 70
    32
  0
VERTEX
  5
E8BC
  8
0
 62
     0
 10
517.05600000000004
 20
1180.52
 30
0.0
 70
    32
  0
VERTEX
  5
E8BD
  8
0
 62
     0
 10
516.8359999999999
 20
1180.55
 30
0.0
 70
    32
  0
VERTEX
  5
E8BE
  8
0
 62
     0
 10
516.61599999999987
 20
1180.5799999999999
 30
0.0
 70
    32
  0
VERTEX
  5
E8BF
  8
0
 62
     0
 10
516.39499999999987
 20
1180.6099999999999
 30
0.0
 70
    32
  0
VERTEX
  5
E8C0
  8
0
 62
     0
 10
516.17399999999986
 20
1180.6400000000001
 30
0.0
 70
    32
  0
VERTEX
  5
E8C1
  8
0
 62
     0
 10
515.95199999999988
 20
1180.6600000000001
 30
0.0
 70
    32
  0
VERTEX
  5
E8C2
  8
0
 62
     0
 10
515.73000000000002
 20
1180.6800000000001
 30
0.0
 70
    32
  0
VERTEX
  5
E8C3
  8
0
 62
     0
 10
515.50699999999995
 20
1180.71
 30
0.0
 70
    32
  0
VERTEX
  5
E8C4
  8
0
 62
     0
 10
515.28399999999999
 20
1180.73
 30
0.0
 70
    32
  0
VERTEX
  5
E8C5
  8
0
 62
     0
 10
515.05999999999995
 20
1180.74
 30
0.0
 70
    32
  0
VERTEX
  5
E8C6
  8
0
 62
     0
 10
514.83600000000001
 20
1180.76
 30
0.0
 70
    32
  0
VERTEX
  5
E8C7
  8
0
 62
     0
 10
514.61199999999985
 20
1180.78
 30
0.0
 70
    32
  0
VERTEX
  5
E8C8
  8
0
 62
     0
 10
514.38699999999994
 20
1180.79
 30
0.0
 70
    32
  0
VERTEX
  5
E8C9
  8
0
 62
     0
 10
514.16199999999992
 20
1180.8
 30
0.0
 70
    32
  0
VERTEX
  5
E8CA
  8
0
 62
     0
 10
513.93700000000001
 20
1180.8099999999999
 30
0.0
 70
    32
  0
VERTEX
  5
E8CB
  8
0
 62
     0
 10
513.71199999999999
 20
1180.8199999999999
 30
0.0
 70
    32
  0
VERTEX
  5
E8CC
  8
0
 62
     0
 10
513.48599999999988
 20
1180.8299999999999
 30
0.0
 70
    32
  0
VERTEX
  5
E8CD
  8
0
 62
     0
 10
513.26099999999985
 20
1180.8399999999999
 30
0.0
 70
    32
  0
VERTEX
  5
E8CE
  8
0
 62
     0
 10
513.03499999999985
 20
1180.8399999999999
 30
0.0
 70
    32
  0
VERTEX
  5
E8CF
  8
0
 62
     0
 10
512.80899999999986
 20
1180.8399999999999
 30
0.0
 70
    32
  0
VERTEX
  5
E8D0
  8
0
 62
     0
 10
512.58299999999997
 20
1180.8399999999999
 30
0.0
 70
    32
  0
SEQEND
  5
E8D1
  8
0
 62
     0
  0
POLYLINE
  5
E303
  8
0
 62
     0
 66
     1
 10
0.0
 20
0.0
 30
0.0
 70
     8
  0
VERTEX
  5
E8D2
  8
0
 62
     0
 10
530.99599999999998
 20
1167.49
 30
0.0
 70
    32
  0
VERTEX
  5
E8D3
  8
0
 62
     0
 10
530.99400000000003
 20
1167.6099999999999
 30
0.0
 70
    32
  0
VERTEX
  5
E8D4
  8
0
 62
     0
 10
530.9899999999999
 20
1167.73
 30
0.0
 70
    32
  0
VERTEX
  5
E8D5
  8
0
 62
     0
 10
530.98299999999995
 20
1167.8499999999999
 30
0.0
 70
    32
  0
VERTEX
  5
E8D6
  8
0
 62
     0
 10
530.97299999999996
 20
1167.96
 30
0.0
 70
    32
  0
VERTEX
  5
E8D7
  8
0
 62
     0
 10
530.96100000000001
 20
1168.0799999999999
 30
0.0
 70
    32
  0
VERTEX
  5
E8D8
  8
0
 62
     0
 10
530.94600000000003
 20
1168.2
 30
0.0
 70
    32
  0
VERTEX
  5
E8D9
  8
0
 62
     0
 10
530.928
 20
1168.3099999999999
 30
0.0
 70
    32
  0
VERTEX
  5
E8DA
  8
0
 62
     0
 10
530.90699999999993
 20
1168.4300000000001
 30
0.0
 70
    32
  0
VERTEX
  5
E8DB
  8
0
 62
     0
 10
530.88300000000004
 20
1168.55
 30
0.0
 70
    32
  0
VERTEX
  5
E8DC
  8
0
 62
     0
 10
530.85699999999986
 20
1168.6600000000001
 30
0.0
 70
    32
  0
VERTEX
  5
E8DD
  8
0
 62
     0
 10
530.82799999999986
 20
1168.78
 30
0.0
 70
    32
  0
VERTEX
  5
E8DE
  8
0
 62
     0
 10
530.79599999999994
 20
1168.8900000000001
 30
0.0
 70
    32
  0
VERTEX
  5
E8DF
  8
0
 62
     0
 10
530.76199999999994
 20
1169.01
 30
0.0
 70
    32
  0
VERTEX
  5
E8E0
  8
0
 62
     0
 10
530.72500000000002
 20
1169.1300000000001
 30
0.0
 70
    32
  0
VERTEX
  5
E8E1
  8
0
 62
     0
 10
530.68499999999995
 20
1169.24
 30
0.0
 70
    32
  0
VERTEX
  5
E8E2
  8
0
 62
     0
 10
530.64199999999994
 20
1169.3599999999999
 30
0.0
 70
    32
  0
VERTEX
  5
E8E3
  8
0
 62
     0
 10
530.59599999999989
 20
1169.47
 30
0.0
 70
    32
  0
VERTEX
  5
E8E4
  8
0
 62
     0
 10
530.548
 20
1169.5899999999999
 30
0.0
 70
    32
  0
VERTEX
  5
E8E5
  8
0
 62
     0
 10
530.49699999999984
 20
1169.7
 30
0.0
 70
    32
  0
VERTEX
  5
E8E6
  8
0
 62
     0
 10
530.44399999999985
 20
1169.8099999999999
 30
0.0
 70
    32
  0
VERTEX
  5
E8E7
  8
0
 62
     0
 10
530.38699999999994
 20
1169.9300000000001
 30
0.0
 70
    32
  0
VERTEX
  5
E8E8
  8
0
 62
     0
 10
530.32899999999995
 20
1170.04
 30
0.0
 70
    32
  0
VERTEX
  5
E8E9
  8
0
 62
     0
 10
530.26699999999994
 20
1170.1500000000001
 30
0.0
 70
    32
  0
VERTEX
  5
E8EA
  8
0
 62
     0
 10
530.20299999999997
 20
1170.26
 30
0.0
 70
    32
  0
VERTEX
  5
E8EB
  8
0
 62
     0
 10
530.13599999999985
 20
1170.3800000000001
 30
0.0
 70
    32
  0
VERTEX
  5
E8EC
  8
0
 62
     0
 10
530.06600000000003
 20
1170.49
 30
0.0
 70
    32
  0
VERTEX
  5
E8ED
  8
0
 62
     0
 10
529.99400000000003
 20
1170.5999999999999
 30
0.0
 70
    32
  0
VERTEX
  5
E8EE
  8
0
 62
     0
 10
529.91899999999998
 20
1170.71
 30
0.0
 70
    32
  0
VERTEX
  5
E8EF
  8
0
 62
     0
 10
529.84199999999998
 20
1170.8199999999999
 30
0.0
 70
    32
  0
VERTEX
  5
E8F0
  8
0
 62
     0
 10
529.76199999999994
 20
1170.9300000000001
 30
0.0
 70
    32
  0
VERTEX
  5
E8F1
  8
0
 62
     0
 10
529.67899999999986
 20
1171.04
 30
0.0
 70
    32
  0
VERTEX
  5
E8F2
  8
0
 62
     0
 10
529.59400000000005
 20
1171.1500000000001
 30
0.0
 70
    32
  0
VERTEX
  5
E8F3
  8
0
 62
     0
 10
529.50599999999986
 20
1171.25
 30
0.0
 70
    32
  0
VERTEX
  5
E8F4
  8
0
 62
     0
 10
529.41599999999994
 20
1171.3599999999999
 30
0.0
 70
    32
  0
VERTEX
  5
E8F5
  8
0
 62
     0
 10
529.32299999999998
 20
1171.47
 30
0.0
 70
    32
  0
VERTEX
  5
E8F6
  8
0
 62
     0
 10
529.22799999999995
 20
1171.5799999999999
 30
0.0
 70
    32
  0
VERTEX
  5
E8F7
  8
0
 62
     0
 10
529.12999999999988
 20
1171.6800000000001
 30
0.0
 70
    32
  0
VERTEX
  5
E8F8
  8
0
 62
     0
 10
529.02899999999988
 20
1171.79
 30
0.0
 70
    32
  0
VERTEX
  5
E8F9
  8
0
 62
     0
 10
528.92700000000002
 20
1171.8900000000001
 30
0.0
 70
    32
  0
VERTEX
  5
E8FA
  8
0
 62
     0
 10
528.82100000000003
 20
1171.99
 30
0.0
 70
    32
  0
VERTEX
  5
E8FB
  8
0
 62
     0
 10
528.71400000000006
 20
1172.0999999999999
 30
0.0
 70
    32
  0
VERTEX
  5
E8FC
  8
0
 62
     0
 10
528.60300000000007
 20
1172.2
 30
0.0
 70
    32
  0
VERTEX
  5
E8FD
  8
0
 62
     0
 10
528.49099999999987
 20
1172.3
 30
0.0
 70
    32
  0
VERTEX
  5
E8FE
  8
0
 62
     0
 10
528.37599999999998
 20
1172.4000000000001
 30
0.0
 70
    32
  0
VERTEX
  5
E8FF
  8
0
 62
     0
 10
528.2589999999999
 20
1172.5
 30
0.0
 70
    32
  0
VERTEX
  5
E900
  8
0
 62
     0
 10
528.13900000000001
 20
1172.5999999999999
 30
0.0
 70
    32
  0
VERTEX
  5
E901
  8
0
 62
     0
 10
528.01699999999994
 20
1172.7
 30
0.0
 70
    32
  0
VERTEX
  5
E902
  8
0
 62
     0
 10
527.89199999999994
 20
1172.8
 30
0.0
 70
    32
  0
VERTEX
  5
E903
  8
0
 62
     0
 10
527.76599999999996
 20
1172.8900000000001
 30
0.0
 70
    32
  0
VERTEX
  5
E904
  8
0
 62
     0
 10
527.63699999999994
 20
1172.99
 30
0.0
 70
    32
  0
VERTEX
  5
E905
  8
0
 62
     0
 10
527.505
 20
1173.0899999999999
 30
0.0
 70
    32
  0
VERTEX
  5
E906
  8
0
 62
     0
 10
527.37199999999984
 20
1173.1800000000001
 30
0.0
 70
    32
  0
VERTEX
  5
E907
  8
0
 62
     0
 10
527.23599999999988
 20
1173.27
 30
0.0
 70
    32
  0
VERTEX
  5
E908
  8
0
 62
     0
 10
527.09799999999996
 20
1173.3699999999999
 30
0.0
 70
    32
  0
VERTEX
  5
E909
  8
0
 62
     0
 10
526.95800000000008
 20
1173.46
 30
0.0
 70
    32
  0
VERTEX
  5
E90A
  8
0
 62
     0
 10
526.81600000000003
 20
1173.55
 30
0.0
 70
    32
  0
VERTEX
  5
E90B
  8
0
 62
     0
 10
526.67200000000003
 20
1173.6400000000001
 30
0.0
 70
    32
  0
VERTEX
  5
E90C
  8
0
 62
     0
 10
526.52499999999986
 20
1173.73
 30
0.0
 70
    32
  0
VERTEX
  5
E90D
  8
0
 62
     0
 10
526.37599999999986
 20
1173.8199999999999
 30
0.0
 70
    32
  0
VERTEX
  5
E90E
  8
0
 62
     0
 10
526.226
 20
1173.9000000000001
 30
0.0
 70
    32
  0
VERTEX
  5
E90F
  8
0
 62
     0
 10
526.07299999999987
 20
1173.99
 30
0.0
 70
    32
  0
VERTEX
  5
E910
  8
0
 62
     0
 10
525.91799999999989
 20
1174.0799999999999
 30
0.0
 70
    32
  0
VERTEX
  5
E911
  8
0
 62
     0
 10
525.76099999999985
 20
1174.1600000000001
 30
0.0
 70
    32
  0
VERTEX
  5
E912
  8
0
 62
     0
 10
525.60299999999995
 20
1174.24
 30
0.0
 70
    32
  0
VERTEX
  5
E913
  8
0
 62
     0
 10
525.44200000000001
 20
1174.3299999999999
 30
0.0
 70
    32
  0
VERTEX
  5
E914
  8
0
 62
     0
 10
525.279
 20
1174.4100000000001
 30
0.0
 70
    32
  0
VERTEX
  5
E915
  8
0
 62
     0
 10
525.11400000000003
 20
1174.49
 30
0.0
 70
    32
  0
VERTEX
  5
E916
  8
0
 62
     0
 10
524.94799999999998
 20
1174.5699999999999
 30
0.0
 70
    32
  0
VERTEX
  5
E917
  8
0
 62
     0
 10
524.77999999999986
 20
1174.6400000000001
 30
0.0
 70
    32
  0
VERTEX
  5
E918
  8
0
 62
     0
 10
524.60900000000004
 20
1174.72
 30
0.0
 70
    32
  0
VERTEX
  5
E919
  8
0
 62
     0
 10
524.4369999999999
 20
1174.8
 30
0.0
 70
    32
  0
VERTEX
  5
E91A
  8
0
 62
     0
 10
524.26400000000001
 20
1174.8699999999999
 30
0.0
 70
    32
  0
VERTEX
  5
E91B
  8
0
 62
     0
 10
524.08799999999997
 20
1174.95
 30
0.0
 70
    32
  0
VERTEX
  5
E91C
  8
0
 62
     0
 10
523.91099999999994
 20
1175.02
 30
0.0
 70
    32
  0
VERTEX
  5
E91D
  8
0
 62
     0
 10
523.73199999999986
 20
1175.0899999999999
 30
0.0
 70
    32
  0
VERTEX
  5
E91E
  8
0
 62
     0
 10
523.55099999999993
 20
1175.1600000000001
 30
0.0
 70
    32
  0
VERTEX
  5
E91F
  8
0
 62
     0
 10
523.36900000000003
 20
1175.23
 30
0.0
 70
    32
  0
VERTEX
  5
E920
  8
0
 62
     0
 10
523.18499999999995
 20
1175.3
 30
0.0
 70
    32
  0
VERTEX
  5
E921
  8
0
 62
     0
 10
522.99899999999991
 20
1175.3599999999999
 30
0.0
 70
    32
  0
VERTEX
  5
E922
  8
0
 62
     0
 10
522.81200000000001
 20
1175.4300000000001
 30
0.0
 70
    32
  0
VERTEX
  5
E923
  8
0
 62
     0
 10
522.62400000000002
 20
1175.49
 30
0.0
 70
    32
  0
VERTEX
  5
E924
  8
0
 62
     0
 10
522.43399999999986
 20
1175.5599999999999
 30
0.0
 70
    32
  0
VERTEX
  5
E925
  8
0
 62
     0
 10
522.24199999999985
 20
1175.6199999999999
 30
0.0
 70
    32
  0
VERTEX
  5
E926
  8
0
 62
     0
 10
522.04899999999986
 20
1175.6800000000001
 30
0.0
 70
    32
  0
VERTEX
  5
E927
  8
0
 62
     0
 10
521.85400000000004
 20
1175.74
 30
0.0
 70
    32
  0
VERTEX
  5
E928
  8
0
 62
     0
 10
521.65800000000002
 20
1175.8
 30
0.0
 70
    32
  0
VERTEX
  5
E929
  8
0
 62
     0
 10
521.46100000000001
 20
1175.8599999999999
 30
0.0
 70
    32
  0
VERTEX
  5
E92A
  8
0
 62
     0
 10
521.26199999999994
 20
1175.9100000000001
 30
0.0
 70
    32
  0
VERTEX
  5
E92B
  8
0
 62
     0
 10
521.06299999999999
 20
1175.97
 30
0.0
 70
    32
  0
VERTEX
  5
E92C
  8
0
 62
     0
 10
520.86099999999999
 20
1176.02
 30
0.0
 70
    32
  0
VERTEX
  5
E92D
  8
0
 62
     0
 10
520.65899999999999
 20
1176.0699999999999
 30
0.0
 70
    32
  0
VERTEX
  5
E92E
  8
0
 62
     0
 10
520.45500000000004
 20
1176.1199999999999
 30
0.0
 70
    32
  0
VERTEX
  5
E92F
  8
0
 62
     0
 10
520.24999999999989
 20
1176.1700000000001
 30
0.0
 70
    32
  0
VERTEX
  5
E930
  8
0
 62
     0
 10
520.04399999999987
 20
1176.22
 30
0.0
 70
    32
  0
VERTEX
  5
E931
  8
0
 62
     0
 10
519.83699999999988
 20
1176.27
 30
0.0
 70
    32
  0
VERTEX
  5
E932
  8
0
 62
     0
 10
519.62900000000002
 20
1176.3099999999999
 30
0.0
 70
    32
  0
VERTEX
  5
E933
  8
0
 62
     0
 10
519.41999999999985
 20
1176.3599999999999
 30
0.0
 70
    32
  0
VERTEX
  5
E934
  8
0
 62
     0
 10
519.20899999999995
 20
1176.4000000000001
 30
0.0
 70
    32
  0
VERTEX
  5
E935
  8
0
 62
     0
 10
518.99800000000005
 20
1176.4400000000001
 30
0.0
 70
    32
  0
VERTEX
  5
E936
  8
0
 62
     0
 10
518.78599999999994
 20
1176.48
 30
0.0
 70
    32
  0
VERTEX
  5
E937
  8
0
 62
     0
 10
518.57299999999987
 20
1176.52
 30
0.0
 70
    32
  0
VERTEX
  5
E938
  8
0
 62
     0
 10
518.35900000000004
 20
1176.5599999999999
 30
0.0
 70
    32
  0
VERTEX
  5
E939
  8
0
 62
     0
 10
518.14400000000001
 20
1176.5899999999999
 30
0.0
 70
    32
  0
VERTEX
  5
E93A
  8
0
 62
     0
 10
517.928
 20
1176.6300000000001
 30
0.0
 70
    32
  0
VERTEX
  5
E93B
  8
0
 62
     0
 10
517.7109999999999
 20
1176.6600000000001
 30
0.0
 70
    32
  0
VERTEX
  5
E93C
  8
0
 62
     0
 10
517.49400000000003
 20
1176.6900000000001
 30
0.0
 70
    32
  0
VERTEX
  5
E93D
  8
0
 62
     0
 10
517.27599999999995
 20
1176.72
 30
0.0
 70
    32
  0
VERTEX
  5
E93E
  8
0
 62
     0
 10
517.05700000000002
 20
1176.75
 30
0.0
 70
    32
  0
VERTEX
  5
E93F
  8
0
 62
     0
 10
516.83699999999999
 20
1176.78
 30
0.0
 70
    32
  0
VERTEX
  5
E940
  8
0
 62
     0
 10
516.61699999999996
 20
1176.8099999999999
 30
0.0
 70
    32
  0
VERTEX
  5
E941
  8
0
 62
     0
 10
516.39599999999984
 20
1176.8299999999999
 30
0.0
 70
    32
  0
VERTEX
  5
E942
  8
0
 62
     0
 10
516.17499999999995
 20
1176.8599999999999
 30
0.0
 70
    32
  0
VERTEX
  5
E943
  8
0
 62
     0
 10
515.95299999999997
 20
1176.8800000000001
 30
0.0
 70
    32
  0
VERTEX
  5
E944
  8
0
 62
     0
 10
515.73099999999988
 20
1176.9000000000001
 30
0.0
 70
    32
  0
VERTEX
  5
E945
  8
0
 62
     0
 10
515.50800000000004
 20
1176.9200000000001
 30
0.0
 70
    32
  0
VERTEX
  5
E946
  8
0
 62
     0
 10
515.28499999999985
 20
1176.9400000000001
 30
0.0
 70
    32
  0
VERTEX
  5
E947
  8
0
 62
     0
 10
515.06100000000004
 20
1176.95
 30
0.0
 70
    32
  0
VERTEX
  5
E948
  8
0
 62
     0
 10
514.83699999999988
 20
1176.97
 30
0.0
 70
    32
  0
VERTEX
  5
E949
  8
0
 62
     0
 10
514.61199999999985
 20
1176.98
 30
0.0
 70
    32
  0
VERTEX
  5
E94A
  8
0
 62
     0
 10
514.38800000000003
 20
1176.99
 30
0.0
 70
    32
  0
VERTEX
  5
E94B
  8
0
 62
     0
 10
514.16300000000001
 20
1177.0
 30
0.0
 70
    32
  0
VERTEX
  5
E94C
  8
0
 62
     0
 10
513.93700000000001
 20
1177.01
 30
0.0
 70
    32
  0
VERTEX
  5
E94D
  8
0
 62
     0
 10
513.71199999999999
 20
1177.02
 30
0.0
 70
    32
  0
VERTEX
  5
E94E
  8
0
 62
     0
 10
513.48599999999988
 20
1177.03
 30
0.0
 70
    32
  0
VERTEX
  5
E94F
  8
0
 62
     0
 10
513.26099999999985
 20
1177.03
 30
0.0
 70
    32
  0
VERTEX
  5
E950
  8
0
 62
     0
 10
513.03499999999985
 20
1177.04
 30
0.0
 70
    32
  0
VERTEX
  5
E951
  8
0
 62
     0
 10
512.80899999999986
 20
1177.04
 30
0.0
 70
    32
  0
VERTEX
  5
E952
  8
0
 62
     0
 10
512.58299999999997
 20
1177.04
 30
0.0
 70
    32
  0
SEQEND
  5
E953
  8
0
 62
     0
  0
LINE
  5
E304
  8
0
 62
     0
 10
521.08299783696111
 20
1181.001865728995
 30
0.0
 11
521.08299783696111
 21
1182.501865728995
 31
0.0
  0
LINE
  5
E305
  8
0
 62
     0
 10
521.08299783696111
 20
1181.001865728995
 30
0.0
 11
429.08299783696111
 21
1181.001865728995
 31
0.0
  0
LINE
  5
E306
  8
0
 62
     0
 10
513.58299783696123
 20
1116.632877728995
 30
0.0
 11
436.58299783696089
 21
1116.632877728995
 31
0.0
  0
ARC
  5
E307
  8
0
 62
     0
 10
414.33299783696111
 20
1147.419210728995
 30
0.0
 40
4.25
 50
119.55859500000641
 51
174.36640800000239
  0
LINE
  5
E308
  8
0
 62
     0
 10
412.23641583696087
 20
1151.116080728995
 30
0.0
 11
414.2061578369611
 21
1152.2331677289951
 31
0.0
  0
ARC
  5
E309
  8
0
 62
     0
 10
414.33299783696111
 20
1151.8892127289951
 30
0.0
 40
4.25
 50
119.55859500000641
 51
180.0
  0
ARC
  5
E30A
  8
0
 62
     0
 10
418.08299783696123
 20
1148.4091457289951
 30
0.0
 40
8.0
 50
180.0
 51
242.02293999998699
  0
POLYLINE
  5
E30B
  8
0
 62
     0
 66
     1
 10
0.0
 20
0.0
 30
0.0
 70
     8
  0
VERTEX
  5
E954
  8
0
 62
     0
 10
437.58300000000003
 20
1180.8399999999999
 30
0.0
 70
    32
  0
VERTEX
  5
E955
  8
0
 62
     0
 10
437.35699999999991
 20
1180.8399999999999
 30
0.0
 70
    32
  0
VERTEX
  5
E956
  8
0
 62
     0
 10
437.13099999999997
 20
1180.8399999999999
 30
0.0
 70
    32
  0
VERTEX
  5
E957
  8
0
 62
     0
 10
436.90499999999992
 20
1180.8399999999999
 30
0.0
 70
    32
  0
VERTEX
  5
E958
  8
0
 62
     0
 10
436.68000000000001
 20
1180.8299999999999
 30
0.0
 70
    32
  0
VERTEX
  5
E959
  8
0
 62
     0
 10
436.45399999999989
 20
1180.8199999999999
 30
0.0
 70
    32
  0
VERTEX
  5
E95A
  8
0
 62
     0
 10
436.22899999999998
 20
1180.8099999999999
 30
0.0
 70
    32
  0
VERTEX
  5
E95B
  8
0
 62
     0
 10
436.00400000000002
 20
1180.8
 30
0.0
 70
    32
  0
VERTEX
  5
E95C
  8
0
 62
     0
 10
435.779
 20
1180.79
 30
0.0
 70
    32
  0
VERTEX
  5
E95D
  8
0
 62
     0
 10
435.55399999999997
 20
1180.78
 30
0.0
 70
    32
  0
VERTEX
  5
E95E
  8
0
 62
     0
 10
435.32999999999993
 20
1180.76
 30
0.0
 70
    32
  0
VERTEX
  5
E95F
  8
0
 62
     0
 10
435.10599999999999
 20
1180.74
 30
0.0
 70
    32
  0
VERTEX
  5
E960
  8
0
 62
     0
 10
434.88199999999989
 20
1180.73
 30
0.0
 70
    32
  0
VERTEX
  5
E961
  8
0
 62
     0
 10
434.65899999999988
 20
1180.71
 30
0.0
 70
    32
  0
VERTEX
  5
E962
  8
0
 62
     0
 10
434.43599999999992
 20
1180.6800000000001
 30
0.0
 70
    32
  0
VERTEX
  5
E963
  8
0
 62
     0
 10
434.21399999999988
 20
1180.6600000000001
 30
0.0
 70
    32
  0
VERTEX
  5
E964
  8
0
 62
     0
 10
433.9919999999999
 20
1180.6400000000001
 30
0.0
 70
    32
  0
VERTEX
  5
E965
  8
0
 62
     0
 10
433.76999999999992
 20
1180.6099999999999
 30
0.0
 70
    32
  0
VERTEX
  5
E966
  8
0
 62
     0
 10
433.55000000000001
 20
1180.5799999999999
 30
0.0
 70
    32
  0
VERTEX
  5
E967
  8
0
 62
     0
 10
433.32999999999998
 20
1180.55
 30
0.0
 70
    32
  0
VERTEX
  5
E968
  8
0
 62
     0
 10
433.11000000000001
 20
1180.52
 30
0.0
 70
    32
  0
VERTEX
  5
E969
  8
0
 62
     0
 10
432.89099999999991
 20
1180.49
 30
0.0
 70
    32
  0
VERTEX
  5
E96A
  8
0
 62
     0
 10
432.673
 20
1180.45
 30
0.0
 70
    32
  0
VERTEX
  5
E96B
  8
0
 62
     0
 10
432.4559999999999
 20
1180.4200000000001
 30
0.0
 70
    32
  0
VERTEX
  5
E96C
  8
0
 62
     0
 10
432.23899999999998
 20
1180.3800000000001
 30
0.0
 70
    32
  0
VERTEX
  5
E96D
  8
0
 62
     0
 10
432.024
 20
1180.3399999999999
 30
0.0
 70
    32
  0
VERTEX
  5
E96E
  8
0
 62
     0
 10
431.80900000000003
 20
1180.3
 30
0.0
 70
    32
  0
VERTEX
  5
E96F
  8
0
 62
     0
 10
431.59499999999991
 20
1180.26
 30
0.0
 70
    32
  0
VERTEX
  5
E970
  8
0
 62
     0
 10
431.38199999999989
 20
1180.21
 30
0.0
 70
    32
  0
VERTEX
  5
E971
  8
0
 62
     0
 10
431.16899999999998
 20
1180.1700000000001
 30
0.0
 70
    32
  0
VERTEX
  5
E972
  8
0
 62
     0
 10
430.95800000000003
 20
1180.1199999999999
 30
0.0
 70
    32
  0
VERTEX
  5
E973
  8
0
 62
     0
 10
430.74799999999999
 20
1180.0699999999999
 30
0.0
 70
    32
  0
VERTEX
  5
E974
  8
0
 62
     0
 10
430.53899999999999
 20
1180.02
 30
0.0
 70
    32
  0
VERTEX
  5
E975
  8
0
 62
     0
 10
430.32999999999998
 20
1179.97
 30
0.0
 70
    32
  0
VERTEX
  5
E976
  8
0
 62
     0
 10
430.12299999999999
 20
1179.9200000000001
 30
0.0
 70
    32
  0
VERTEX
  5
E977
  8
0
 62
     0
 10
429.91699999999997
 20
1179.8599999999999
 30
0.0
 70
    32
  0
VERTEX
  5
E978
  8
0
 62
     0
 10
429.71300000000002
 20
1179.8099999999999
 30
0.0
 70
    32
  0
VERTEX
  5
E979
  8
0
 62
     0
 10
429.50900000000001
 20
1179.75
 30
0.0
 70
    32
  0
VERTEX
  5
E97A
  8
0
 62
     0
 10
429.3069999999999
 20
1179.6900000000001
 30
0.0
 70
    32
  0
VERTEX
  5
E97B
  8
0
 62
     0
 10
429.10500000000002
 20
1179.6300000000001
 30
0.0
 70
    32
  0
VERTEX
  5
E97C
  8
0
 62
     0
 10
428.90600000000001
 20
1179.5699999999999
 30
0.0
 70
    32
  0
VERTEX
  5
E97D
  8
0
 62
     0
 10
428.70699999999988
 20
1179.5
 30
0.0
 70
    32
  0
VERTEX
  5
E97E
  8
0
 62
     0
 10
428.50999999999988
 20
1179.4400000000001
 30
0.0
 70
    32
  0
VERTEX
  5
E97F
  8
0
 62
     0
 10
428.31400000000002
 20
1179.3699999999999
 30
0.0
 70
    32
  0
VERTEX
  5
E980
  8
0
 62
     0
 10
428.11900000000003
 20
1179.3099999999999
 30
0.0
 70
    32
  0
VERTEX
  5
E981
  8
0
 62
     0
 10
427.92599999999987
 20
1179.24
 30
0.0
 70
    32
  0
VERTEX
  5
E982
  8
0
 62
     0
 10
427.73500000000001
 20
1179.1700000000001
 30
0.0
 70
    32
  0
VERTEX
  5
E983
  8
0
 62
     0
 10
427.54500000000002
 20
1179.0999999999999
 30
0.0
 70
    32
  0
VERTEX
  5
E984
  8
0
 62
     0
 10
427.35599999999988
 20
1179.02
 30
0.0
 70
    32
  0
VERTEX
  5
E985
  8
0
 62
     0
 10
427.16899999999998
 20
1178.95
 30
0.0
 70
    32
  0
VERTEX
  5
E986
  8
0
 62
     0
 10
426.98399999999998
 20
1178.8699999999999
 30
0.0
 70
    32
  0
VERTEX
  5
E987
  8
0
 62
     0
 10
426.7999999999999
 20
1178.8
 30
0.0
 70
    32
  0
VERTEX
  5
E988
  8
0
 62
     0
 10
426.6169999999999
 20
1178.72
 30
0.0
 70
    32
  0
VERTEX
  5
E989
  8
0
 62
     0
 10
426.4369999999999
 20
1178.6400000000001
 30
0.0
 70
    32
  0
VERTEX
  5
E98A
  8
0
 62
     0
 10
426.25799999999998
 20
1178.5599999999999
 30
0.0
 70
    32
  0
VERTEX
  5
E98B
  8
0
 62
     0
 10
426.0809999999999
 20
1178.47
 30
0.0
 70
    32
  0
VERTEX
  5
E98C
  8
0
 62
     0
 10
425.90499999999997
 20
1178.3900000000001
 30
0.0
 70
    32
  0
VERTEX
  5
E98D
  8
0
 62
     0
 10
425.73099999999999
 20
1178.3099999999999
 30
0.0
 70
    32
  0
VERTEX
  5
E98E
  8
0
 62
     0
 10
425.55900000000003
 20
1178.22
 30
0.0
 70
    32
  0
VERTEX
  5
E98F
  8
0
 62
     0
 10
425.38900000000001
 20
1178.1300000000001
 30
0.0
 70
    32
  0
VERTEX
  5
E990
  8
0
 62
     0
 10
425.22099999999989
 20
1178.04
 30
0.0
 70
    32
  0
VERTEX
  5
E991
  8
0
 62
     0
 10
425.05500000000001
 20
1177.95
 30
0.0
 70
    32
  0
VERTEX
  5
E992
  8
0
 62
     0
 10
424.88999999999987
 20
1177.8599999999999
 30
0.0
 70
    32
  0
VERTEX
  5
E993
  8
0
 62
     0
 10
424.72699999999992
 20
1177.77
 30
0.0
 70
    32
  0
VERTEX
  5
E994
  8
0
 62
     0
 10
424.56699999999989
 20
1177.6800000000001
 30
0.0
 70
    32
  0
VERTEX
  5
E995
  8
0
 62
     0
 10
424.40800000000002
 20
1177.5799999999999
 30
0.0
 70
    32
  0
VERTEX
  5
E996
  8
0
 62
     0
 10
424.25099999999998
 20
1177.49
 30
0.0
 70
    32
  0
VERTEX
  5
E997
  8
0
 62
     0
 10
424.096
 20
1177.3900000000001
 30
0.0
 70
    32
  0
VERTEX
  5
E998
  8
0
 62
     0
 10
423.94400000000002
 20
1177.29
 30
0.0
 70
    32
  0
VERTEX
  5
E999
  8
0
 62
     0
 10
423.79300000000001
 20
1177.2
 30
0.0
 70
    32
  0
VERTEX
  5
E99A
  8
0
 62
     0
 10
423.64399999999989
 20
1177.0999999999999
 30
0.0
 70
    32
  0
VERTEX
  5
E99B
  8
0
 62
     0
 10
423.49799999999999
 20
1176.99
 30
0.0
 70
    32
  0
VERTEX
  5
E99C
  8
0
 62
     0
 10
423.35300000000001
 20
1176.8900000000001
 30
0.0
 70
    32
  0
VERTEX
  5
E99D
  8
0
 62
     0
 10
423.21100000000001
 20
1176.79
 30
0.0
 70
    32
  0
VERTEX
  5
E99E
  8
0
 62
     0
 10
423.07100000000003
 20
1176.6900000000001
 30
0.0
 70
    32
  0
VERTEX
  5
E99F
  8
0
 62
     0
 10
422.93299999999999
 20
1176.5799999999999
 30
0.0
 70
    32
  0
VERTEX
  5
E9A0
  8
0
 62
     0
 10
422.798
 20
1176.47
 30
0.0
 70
    32
  0
VERTEX
  5
E9A1
  8
0
 62
     0
 10
422.66399999999987
 20
1176.3699999999999
 30
0.0
 70
    32
  0
VERTEX
  5
E9A2
  8
0
 62
     0
 10
422.53300000000002
 20
1176.26
 30
0.0
 70
    32
  0
VERTEX
  5
E9A3
  8
0
 62
     0
 10
422.404
 20
1176.1500000000001
 30
0.0
 70
    32
  0
VERTEX
  5
E9A4
  8
0
 62
     0
 10
422.27699999999987
 20
1176.04
 30
0.0
 70
    32
  0
VERTEX
  5
E9A5
  8
0
 62
     0
 10
422.15300000000002
 20
1175.9300000000001
 30
0.0
 70
    32
  0
VERTEX
  5
E9A6
  8
0
 62
     0
 10
422.03100000000001
 20
1175.8199999999999
 30
0.0
 70
    32
  0
VERTEX
  5
E9A7
  8
0
 62
     0
 10
421.91099999999989
 20
1175.71
 30
0.0
 70
    32
  0
VERTEX
  5
E9A8
  8
0
 62
     0
 10
421.79399999999998
 20
1175.5899999999999
 30
0.0
 70
    32
  0
VERTEX
  5
E9A9
  8
0
 62
     0
 10
421.67899999999997
 20
1175.48
 30
0.0
 70
    32
  0
VERTEX
  5
E9AA
  8
0
 62
     0
 10
421.56599999999992
 20
1175.3599999999999
 30
0.0
 70
    32
  0
VERTEX
  5
E9AB
  8
0
 62
     0
 10
421.4559999999999
 20
1175.25
 30
0.0
 70
    32
  0
VERTEX
  5
E9AC
  8
0
 62
     0
 10
421.34899999999999
 20
1175.1300000000001
 30
0.0
 70
    32
  0
VERTEX
  5
E9AD
  8
0
 62
     0
 10
421.24299999999999
 20
1175.01
 30
0.0
 70
    32
  0
VERTEX
  5
E9AE
  8
0
 62
     0
 10
421.14099999999991
 20
1174.9000000000001
 30
0.0
 70
    32
  0
VERTEX
  5
E9AF
  8
0
 62
     0
 10
421.03999999999991
 20
1174.78
 30
0.0
 70
    32
  0
VERTEX
  5
E9B0
  8
0
 62
     0
 10
420.94199999999989
 20
1174.6600000000001
 30
0.0
 70
    32
  0
VERTEX
  5
E9B1
  8
0
 62
     0
 10
420.84699999999998
 20
1174.54
 30
0.0
 70
    32
  0
VERTEX
  5
E9B2
  8
0
 62
     0
 10
420.75399999999991
 20
1174.4200000000001
 30
0.0
 70
    32
  0
VERTEX
  5
E9B3
  8
0
 62
     0
 10
420.66399999999999
 20
1174.3
 30
0.0
 70
    32
  0
VERTEX
  5
E9B4
  8
0
 62
     0
 10
420.57599999999991
 20
1174.1700000000001
 30
0.0
 70
    32
  0
VERTEX
  5
E9B5
  8
0
 62
     0
 10
420.49099999999987
 20
1174.05
 30
0.0
 70
    32
  0
VERTEX
  5
E9B6
  8
0
 62
     0
 10
420.40800000000002
 20
1173.9300000000001
 30
0.0
 70
    32
  0
VERTEX
  5
E9B7
  8
0
 62
     0
 10
420.32799999999997
 20
1173.8
 30
0.0
 70
    32
  0
VERTEX
  5
E9B8
  8
0
 62
     0
 10
420.25099999999998
 20
1173.6800000000001
 30
0.0
 70
    32
  0
VERTEX
  5
E9B9
  8
0
 62
     0
 10
420.17599999999999
 20
1173.55
 30
0.0
 70
    32
  0
VERTEX
  5
E9BA
  8
0
 62
     0
 10
420.10399999999998
 20
1173.4300000000001
 30
0.0
 70
    32
  0
VERTEX
  5
E9BB
  8
0
 62
     0
 10
420.03500000000003
 20
1173.3
 30
0.0
 70
    32
  0
VERTEX
  5
E9BC
  8
0
 62
     0
 10
419.9679999999999
 20
1173.1800000000001
 30
0.0
 70
    32
  0
VERTEX
  5
E9BD
  8
0
 62
     0
 10
419.90300000000002
 20
1173.05
 30
0.0
 70
    32
  0
VERTEX
  5
E9BE
  8
0
 62
     0
 10
419.84199999999993
 20
1172.9200000000001
 30
0.0
 70
    32
  0
VERTEX
  5
E9BF
  8
0
 62
     0
 10
419.78300000000002
 20
1172.79
 30
0.0
 70
    32
  0
VERTEX
  5
E9C0
  8
0
 62
     0
 10
419.72699999999992
 20
1172.6600000000001
 30
0.0
 70
    32
  0
VERTEX
  5
E9C1
  8
0
 62
     0
 10
419.673
 20
1172.54
 30
0.0
 70
    32
  0
VERTEX
  5
E9C2
  8
0
 62
     0
 10
419.6219999999999
 20
1172.4100000000001
 30
0.0
 70
    32
  0
VERTEX
  5
E9C3
  8
0
 62
     0
 10
419.5739999999999
 20
1172.28
 30
0.0
 70
    32
  0
VERTEX
  5
E9C4
  8
0
 62
     0
 10
419.52899999999988
 20
1172.1500000000001
 30
0.0
 70
    32
  0
VERTEX
  5
E9C5
  8
0
 62
     0
 10
419.48599999999999
 20
1172.02
 30
0.0
 70
    32
  0
VERTEX
  5
E9C6
  8
0
 62
     0
 10
419.44599999999991
 20
1171.8900000000001
 30
0.0
 70
    32
  0
VERTEX
  5
E9C7
  8
0
 62
     0
 10
419.40899999999999
 20
1171.76
 30
0.0
 70
    32
  0
VERTEX
  5
E9C8
  8
0
 62
     0
 10
419.37400000000002
 20
1171.6199999999999
 30
0.0
 70
    32
  0
VERTEX
  5
E9C9
  8
0
 62
     0
 10
419.34199999999993
 20
1171.49
 30
0.0
 70
    32
  0
VERTEX
  5
E9CA
  8
0
 62
     0
 10
419.31299999999999
 20
1171.3599999999999
 30
0.0
 70
    32
  0
VERTEX
  5
E9CB
  8
0
 62
     0
 10
419.28699999999998
 20
1171.23
 30
0.0
 70
    32
  0
VERTEX
  5
E9CC
  8
0
 62
     0
 10
419.2639999999999
 20
1171.0999999999999
 30
0.0
 70
    32
  0
VERTEX
  5
E9CD
  8
0
 62
     0
 10
419.24299999999999
 20
1170.97
 30
0.0
 70
    32
  0
VERTEX
  5
E9CE
  8
0
 62
     0
 10
419.22500000000002
 20
1170.8299999999999
 30
0.0
 70
    32
  0
VERTEX
  5
E9CF
  8
0
 62
     0
 10
419.20999999999992
 20
1170.7
 30
0.0
 70
    32
  0
VERTEX
  5
E9D0
  8
0
 62
     0
 10
419.19699999999989
 20
1170.5699999999999
 30
0.0
 70
    32
  0
VERTEX
  5
E9D1
  8
0
 62
     0
 10
419.1869999999999
 20
1170.4400000000001
 30
0.0
 70
    32
  0
VERTEX
  5
E9D2
  8
0
 62
     0
 10
419.18099999999998
 20
1170.3
 30
0.0
 70
    32
  0
VERTEX
  5
E9D3
  8
0
 62
     0
 10
419.17599999999999
 20
1170.1700000000001
 30
0.0
 70
    32
  0
VERTEX
  5
E9D4
  8
0
 62
     0
 10
419.1749999999999
 20
1170.04
 30
0.0
 70
    32
  0
SEQEND
  5
E9D5
  8
0
 62
     0
  0
POLYLINE
  5
E30C
  8
0
 62
     0
 66
     1
 10
0.0
 20
0.0
 30
0.0
 70
     8
  0
VERTEX
  5
E9D6
  8
0
 62
     0
 10
437.58300000000003
 20
1177.04
 30
0.0
 70
    32
  0
VERTEX
  5
E9D7
  8
0
 62
     0
 10
437.35699999999991
 20
1177.04
 30
0.0
 70
    32
  0
VERTEX
  5
E9D8
  8
0
 62
     0
 10
437.13099999999997
 20
1177.04
 30
0.0
 70
    32
  0
VERTEX
  5
E9D9
  8
0
 62
     0
 10
436.90499999999992
 20
1177.03
 30
0.0
 70
    32
  0
VERTEX
  5
E9DA
  8
0
 62
     0
 10
436.68000000000001
 20
1177.03
 30
0.0
 70
    32
  0
VERTEX
  5
E9DB
  8
0
 62
     0
 10
436.45399999999989
 20
1177.02
 30
0.0
 70
    32
  0
VERTEX
  5
E9DC
  8
0
 62
     0
 10
436.22899999999998
 20
1177.01
 30
0.0
 70
    32
  0
VERTEX
  5
E9DD
  8
0
 62
     0
 10
436.00299999999999
 20
1177.0
 30
0.0
 70
    32
  0
VERTEX
  5
E9DE
  8
0
 62
     0
 10
435.77799999999991
 20
1176.99
 30
0.0
 70
    32
  0
VERTEX
  5
E9DF
  8
0
 62
     0
 10
435.55399999999997
 20
1176.98
 30
0.0
 70
    32
  0
VERTEX
  5
E9E0
  8
0
 62
     0
 10
435.32900000000001
 20
1176.97
 30
0.0
 70
    32
  0
VERTEX
  5
E9E1
  8
0
 62
     0
 10
435.1049999999999
 20
1176.95
 30
0.0
 70
    32
  0
VERTEX
  5
E9E2
  8
0
 62
     0
 10
434.88099999999991
 20
1176.9400000000001
 30
0.0
 70
    32
  0
VERTEX
  5
E9E3
  8
0
 62
     0
 10
434.65800000000002
 20
1176.9200000000001
 30
0.0
 70
    32
  0
VERTEX
  5
E9E4
  8
0
 62
     0
 10
434.435
 20
1176.9000000000001
 30
0.0
 70
    32
  0
VERTEX
  5
E9E5
  8
0
 62
     0
 10
434.21300000000002
 20
1176.8800000000001
 30
0.0
 70
    32
  0
VERTEX
  5
E9E6
  8
0
 62
     0
 10
433.99099999999987
 20
1176.8599999999999
 30
0.0
 70
    32
  0
VERTEX
  5
E9E7
  8
0
 62
     0
 10
433.76999999999992
 20
1176.8299999999999
 30
0.0
 70
    32
  0
VERTEX
  5
E9E8
  8
0
 62
     0
 10
433.54899999999998
 20
1176.8099999999999
 30
0.0
 70
    32
  0
VERTEX
  5
E9E9
  8
0
 62
     0
 10
433.32899999999989
 20
1176.78
 30
0.0
 70
    32
  0
VERTEX
  5
E9EA
  8
0
 62
     0
 10
433.10899999999998
 20
1176.75
 30
0.0
 70
    32
  0
VERTEX
  5
E9EB
  8
0
 62
     0
 10
432.88999999999987
 20
1176.72
 30
0.0
 70
    32
  0
VERTEX
  5
E9EC
  8
0
 62
     0
 10
432.67199999999991
 20
1176.6900000000001
 30
0.0
 70
    32
  0
VERTEX
  5
E9ED
  8
0
 62
     0
 10
432.45499999999998
 20
1176.6600000000001
 30
0.0
 70
    32
  0
VERTEX
  5
E9EE
  8
0
 62
     0
 10
432.238
 20
1176.6300000000001
 30
0.0
 70
    32
  0
VERTEX
  5
E9EF
  8
0
 62
     0
 10
432.02199999999988
 20
1176.5899999999999
 30
0.0
 70
    32
  0
VERTEX
  5
E9F0
  8
0
 62
     0
 10
431.8069999999999
 20
1176.5599999999999
 30
0.0
 70
    32
  0
VERTEX
  5
E9F1
  8
0
 62
     0
 10
431.59300000000002
 20
1176.52
 30
0.0
 70
    32
  0
VERTEX
  5
E9F2
  8
0
 62
     0
 10
431.37999999999988
 20
1176.48
 30
0.0
 70
    32
  0
VERTEX
  5
E9F3
  8
0
 62
     0
 10
431.16799999999989
 20
1176.4400000000001
 30
0.0
 70
    32
  0
VERTEX
  5
E9F4
  8
0
 62
     0
 10
430.95699999999988
 20
1176.4000000000001
 30
0.0
 70
    32
  0
VERTEX
  5
E9F5
  8
0
 62
     0
 10
430.74599999999992
 20
1176.3599999999999
 30
0.0
 70
    32
  0
VERTEX
  5
E9F6
  8
0
 62
     0
 10
430.53699999999992
 20
1176.3099999999999
 30
0.0
 70
    32
  0
VERTEX
  5
E9F7
  8
0
 62
     0
 10
430.32900000000001
 20
1176.27
 30
0.0
 70
    32
  0
VERTEX
  5
E9F8
  8
0
 62
     0
 10
430.1219999999999
 20
1176.22
 30
0.0
 70
    32
  0
VERTEX
  5
E9F9
  8
0
 62
     0
 10
429.91599999999988
 20
1176.1700000000001
 30
0.0
 70
    32
  0
VERTEX
  5
E9FA
  8
0
 62
     0
 10
429.7109999999999
 20
1176.1199999999999
 30
0.0
 70
    32
  0
VERTEX
  5
E9FB
  8
0
 62
     0
 10
429.50699999999989
 20
1176.0699999999999
 30
0.0
 70
    32
  0
VERTEX
  5
E9FC
  8
0
 62
     0
 10
429.30500000000001
 20
1176.02
 30
0.0
 70
    32
  0
VERTEX
  5
E9FD
  8
0
 62
     0
 10
429.10300000000001
 20
1175.97
 30
0.0
 70
    32
  0
VERTEX
  5
E9FE
  8
0
 62
     0
 10
428.90399999999988
 20
1175.9100000000001
 30
0.0
 70
    32
  0
VERTEX
  5
E9FF
  8
0
 62
     0
 10
428.70499999999993
 20
1175.8599999999999
 30
0.0
 70
    32
  0
VERTEX
  5
EA00
  8
0
 62
     0
 10
428.50799999999998
 20
1175.8
 30
0.0
 70
    32
  0
VERTEX
  5
EA01
  8
0
 62
     0
 10
428.3119999999999
 20
1175.74
 30
0.0
 70
    32
  0
VERTEX
  5
EA02
  8
0
 62
     0
 10
428.1169999999999
 20
1175.6800000000001
 30
0.0
 70
    32
  0
VERTEX
  5
EA03
  8
0
 62
     0
 10
427.92399999999998
 20
1175.6199999999999
 30
0.0
 70
    32
  0
VERTEX
  5
EA04
  8
0
 62
     0
 10
427.73199999999991
 20
1175.5599999999999
 30
0.0
 70
    32
  0
VERTEX
  5
EA05
  8
0
 62
     0
 10
427.54199999999992
 20
1175.49
 30
0.0
 70
    32
  0
VERTEX
  5
EA06
  8
0
 62
     0
 10
427.35399999999998
 20
1175.4300000000001
 30
0.0
 70
    32
  0
VERTEX
  5
EA07
  8
0
 62
     0
 10
427.16699999999992
 20
1175.3599999999999
 30
0.0
 70
    32
  0
VERTEX
  5
EA08
  8
0
 62
     0
 10
426.98099999999988
 20
1175.3
 30
0.0
 70
    32
  0
VERTEX
  5
EA09
  8
0
 62
     0
 10
426.79700000000003
 20
1175.23
 30
0.0
 70
    32
  0
VERTEX
  5
EA0A
  8
0
 62
     0
 10
426.61500000000001
 20
1175.1600000000001
 30
0.0
 70
    32
  0
VERTEX
  5
EA0B
  8
0
 62
     0
 10
426.43400000000003
 20
1175.0899999999999
 30
0.0
 70
    32
  0
VERTEX
  5
EA0C
  8
0
 62
     0
 10
426.255
 20
1175.02
 30
0.0
 70
    32
  0
VERTEX
  5
EA0D
  8
0
 62
     0
 10
426.07799999999997
 20
1174.95
 30
0.0
 70
    32
  0
VERTEX
  5
EA0E
  8
0
 62
     0
 10
425.90199999999987
 20
1174.8699999999999
 30
0.0
 70
    32
  0
VERTEX
  5
EA0F
  8
0
 62
     0
 10
425.72899999999998
 20
1174.8
 30
0.0
 70
    32
  0
VERTEX
  5
EA10
  8
0
 62
     0
 10
425.5569999999999
 20
1174.72
 30
0.0
 70
    32
  0
VERTEX
  5
EA11
  8
0
 62
     0
 10
425.38599999999991
 20
1174.6400000000001
 30
0.0
 70
    32
  0
VERTEX
  5
EA12
  8
0
 62
     0
 10
425.21800000000002
 20
1174.5699999999999
 30
0.0
 70
    32
  0
VERTEX
  5
EA13
  8
0
 62
     0
 10
425.05199999999991
 20
1174.49
 30
0.0
 70
    32
  0
VERTEX
  5
EA14
  8
0
 62
     0
 10
424.88699999999989
 20
1174.4100000000001
 30
0.0
 70
    32
  0
VERTEX
  5
EA15
  8
0
 62
     0
 10
424.72399999999988
 20
1174.3299999999999
 30
0.0
 70
    32
  0
VERTEX
  5
EA16
  8
0
 62
     0
 10
424.56299999999999
 20
1174.24
 30
0.0
 70
    32
  0
VERTEX
  5
EA17
  8
0
 62
     0
 10
424.40499999999992
 20
1174.1600000000001
 30
0.0
 70
    32
  0
VERTEX
  5
EA18
  8
0
 62
     0
 10
424.24799999999999
 20
1174.0799999999999
 30
0.0
 70
    32
  0
VERTEX
  5
EA19
  8
0
 62
     0
 10
424.09300000000002
 20
1173.99
 30
0.0
 70
    32
  0
VERTEX
  5
EA1A
  8
0
 62
     0
 10
423.93999999999988
 20
1173.9000000000001
 30
0.0
 70
    32
  0
VERTEX
  5
EA1B
  8
0
 62
     0
 10
423.79000000000002
 20
1173.8199999999999
 30
0.0
 70
    32
  0
VERTEX
  5
EA1C
  8
0
 62
     0
 10
423.64099999999991
 20
1173.73
 30
0.0
 70
    32
  0
VERTEX
  5
EA1D
  8
0
 62
     0
 10
423.49399999999991
 20
1173.6400000000001
 30
0.0
 70
    32
  0
VERTEX
  5
EA1E
  8
0
 62
     0
 10
423.35000000000002
 20
1173.55
 30
0.0
 70
    32
  0
VERTEX
  5
EA1F
  8
0
 62
     0
 10
423.20800000000003
 20
1173.46
 30
0.0
 70
    32
  0
VERTEX
  5
EA20
  8
0
 62
     0
 10
423.06799999999998
 20
1173.3699999999999
 30
0.0
 70
    32
  0
VERTEX
  5
EA21
  8
0
 62
     0
 10
422.93000000000001
 20
1173.27
 30
0.0
 70
    32
  0
VERTEX
  5
EA22
  8
0
 62
     0
 10
422.79399999999998
 20
1173.1800000000001
 30
0.0
 70
    32
  0
VERTEX
  5
EA23
  8
0
 62
     0
 10
422.66099999999989
 20
1173.0899999999999
 30
0.0
 70
    32
  0
VERTEX
  5
EA24
  8
0
 62
     0
 10
422.529
 20
1172.99
 30
0.0
 70
    32
  0
VERTEX
  5
EA25
  8
0
 62
     0
 10
422.39999999999998
 20
1172.8900000000001
 30
0.0
 70
    32
  0
VERTEX
  5
EA26
  8
0
 62
     0
 10
422.27399999999989
 20
1172.8
 30
0.0
 70
    32
  0
VERTEX
  5
EA27
  8
0
 62
     0
 10
422.149
 20
1172.7
 30
0.0
 70
    32
  0
VERTEX
  5
EA28
  8
0
 62
     0
 10
422.02699999999999
 20
1172.5999999999999
 30
0.0
 70
    32
  0
VERTEX
  5
EA29
  8
0
 62
     0
 10
421.90699999999998
 20
1172.5
 30
0.0
 70
    32
  0
VERTEX
  5
EA2A
  8
0
 62
     0
 10
421.79000000000002
 20
1172.4000000000001
 30
0.0
 70
    32
  0
VERTEX
  5
EA2B
  8
0
 62
     0
 10
421.67500000000001
 20
1172.3
 30
0.0
 70
    32
  0
VERTEX
  5
EA2C
  8
0
 62
     0
 10
421.56299999999999
 20
1172.2
 30
0.0
 70
    32
  0
VERTEX
  5
EA2D
  8
0
 62
     0
 10
421.452
 20
1172.0999999999999
 30
0.0
 70
    32
  0
VERTEX
  5
EA2E
  8
0
 62
     0
 10
421.34499999999991
 20
1171.99
 30
0.0
 70
    32
  0
VERTEX
  5
EA2F
  8
0
 62
     0
 10
421.23899999999998
 20
1171.8900000000001
 30
0.0
 70
    32
  0
VERTEX
  5
EA30
  8
0
 62
     0
 10
421.13699999999989
 20
1171.79
 30
0.0
 70
    32
  0
VERTEX
  5
EA31
  8
0
 62
     0
 10
421.03599999999989
 20
1171.6800000000001
 30
0.0
 70
    32
  0
VERTEX
  5
EA32
  8
0
 62
     0
 10
420.93799999999999
 20
1171.5799999999999
 30
0.0
 70
    32
  0
VERTEX
  5
EA33
  8
0
 62
     0
 10
420.8429999999999
 20
1171.47
 30
0.0
 70
    32
  0
VERTEX
  5
EA34
  8
0
 62
     0
 10
420.75
 20
1171.3599999999999
 30
0.0
 70
    32
  0
VERTEX
  5
EA35
  8
0
 62
     0
 10
420.65999999999991
 20
1171.25
 30
0.0
 70
    32
  0
VERTEX
  5
EA36
  8
0
 62
     0
 10
420.57199999999989
 20
1171.1500000000001
 30
0.0
 70
    32
  0
VERTEX
  5
EA37
  8
0
 62
     0
 10
420.48699999999991
 20
1171.04
 30
0.0
 70
    32
  0
VERTEX
  5
EA38
  8
0
 62
     0
 10
420.40399999999988
 20
1170.9300000000001
 30
0.0
 70
    32
  0
VERTEX
  5
EA39
  8
0
 62
     0
 10
420.32400000000001
 20
1170.8199999999999
 30
0.0
 70
    32
  0
VERTEX
  5
EA3A
  8
0
 62
     0
 10
420.2469999999999
 20
1170.71
 30
0.0
 70
    32
  0
VERTEX
  5
EA3B
  8
0
 62
     0
 10
420.17199999999991
 20
1170.5999999999999
 30
0.0
 70
    32
  0
VERTEX
  5
EA3C
  8
0
 62
     0
 10
420.10000000000002
 20
1170.49
 30
0.0
 70
    32
  0
VERTEX
  5
EA3D
  8
0
 62
     0
 10
420.02999999999992
 20
1170.3800000000001
 30
0.0
 70
    32
  0
VERTEX
  5
EA3E
  8
0
 62
     0
 10
419.96299999999991
 20
1170.26
 30
0.0
 70
    32
  0
VERTEX
  5
EA3F
  8
0
 62
     0
 10
419.899
 20
1170.1500000000001
 30
0.0
 70
    32
  0
VERTEX
  5
EA40
  8
0
 62
     0
 10
419.83699999999988
 20
1170.04
 30
0.0
 70
    32
  0
VERTEX
  5
EA41
  8
0
 62
     0
 10
419.77799999999991
 20
1169.9300000000001
 30
0.0
 70
    32
  0
VERTEX
  5
EA42
  8
0
 62
     0
 10
419.72199999999992
 20
1169.8099999999999
 30
0.0
 70
    32
  0
VERTEX
  5
EA43
  8
0
 62
     0
 10
419.66899999999998
 20
1169.7
 30
0.0
 70
    32
  0
VERTEX
  5
EA44
  8
0
 62
     0
 10
419.61799999999999
 20
1169.5899999999999
 30
0.0
 70
    32
  0
VERTEX
  5
EA45
  8
0
 62
     0
 10
419.56999999999999
 20
1169.47
 30
0.0
 70
    32
  0
VERTEX
  5
EA46
  8
0
 62
     0
 10
419.524
 20
1169.3599999999999
 30
0.0
 70
    32
  0
VERTEX
  5
EA47
  8
0
 62
     0
 10
419.48099999999999
 20
1169.24
 30
0.0
 70
    32
  0
VERTEX
  5
EA48
  8
0
 62
     0
 10
419.44099999999992
 20
1169.1300000000001
 30
0.0
 70
    32
  0
VERTEX
  5
EA49
  8
0
 62
     0
 10
419.404
 20
1169.01
 30
0.0
 70
    32
  0
VERTEX
  5
EA4A
  8
0
 62
     0
 10
419.36999999999989
 20
1168.8900000000001
 30
0.0
 70
    32
  0
VERTEX
  5
EA4B
  8
0
 62
     0
 10
419.33800000000002
 20
1168.78
 30
0.0
 70
    32
  0
VERTEX
  5
EA4C
  8
0
 62
     0
 10
419.30900000000003
 20
1168.6600000000001
 30
0.0
 70
    32
  0
VERTEX
  5
EA4D
  8
0
 62
     0
 10
419.2829999999999
 20
1168.55
 30
0.0
 70
    32
  0
VERTEX
  5
EA4E
  8
0
 62
     0
 10
419.25900000000001
 20
1168.4300000000001
 30
0.0
 70
    32
  0
VERTEX
  5
EA4F
  8
0
 62
     0
 10
419.238
 20
1168.3099999999999
 30
0.0
 70
    32
  0
VERTEX
  5
EA50
  8
0
 62
     0
 10
419.22000000000003
 20
1168.2
 30
0.0
 70
    32
  0
VERTEX
  5
EA51
  8
0
 62
     0
 10
419.20499999999998
 20
1168.0799999999999
 30
0.0
 70
    32
  0
VERTEX
  5
EA52
  8
0
 62
     0
 10
419.19299999999998
 20
1167.96
 30
0.0
 70
    32
  0
VERTEX
  5
EA53
  8
0
 62
     0
 10
419.18299999999999
 20
1167.8499999999999
 30
0.0
 70
    32
  0
VERTEX
  5
EA54
  8
0
 62
     0
 10
419.17599999999999
 20
1167.73
 30
0.0
 70
    32
  0
VERTEX
  5
EA55
  8
0
 62
     0
 10
419.17200000000003
 20
1167.6099999999999
 30
0.0
 70
    32
  0
VERTEX
  5
EA56
  8
0
 62
     0
 10
419.1699999999999
 20
1167.49
 30
0.0
 70
    32
  0
SEQEND
  5
EA57
  8
0
 62
     0
  0
LINE
  5
E30D
  8
0
 62
     0
 10
513.06000283696096
 20
1114.4588617289951
 30
0.0
 11
437.10599283696121
 21
1114.4588617289951
 31
0.0
  0
LINE
  5
E30E
  8
0
 62
     0
 10
512.58299783696111
 20
1177.0388477289951
 30
0.0
 11
437.58299783696111
 21
1177.0388477289951
 31
0.0
  0
LINE
  5
E30F
  8
0
 62
     0
 10
512.58299783696111
 20
1180.842864728995
 30
0.0
 11
437.58299783696111
 21
1180.842864728995
 31
0.0
  0
LINE
  5
E310
  8
0
 62
     0
 10
475.08299783696111
 20
1180.842864728995
 30
0.0
 11
475.55899583696089
 21
1180.842864728995
 31
0.0
  0
LINE
  5
E311
  8
0
 62
     0
 10
429.08299783696111
 20
1182.501865728995
 30
0.0
 11
521.08249383696159
 21
1182.501865728995
 31
0.0
  0
LINE
  5
E312
  8
0
 62
     0
 10
426.58299783696123
 20
1162.5388477289951
 30
0.0
 11
426.58299783696123
 21
1126.632877728995
 31
0.0
  0
LINE
  5
E313
  8
0
 62
     0
 10
429.08299783696111
 20
1181.001865728995
 30
0.0
 11
429.08299783696111
 21
1182.501865728995
 31
0.0
  0
LINE
  5
E314
  8
0
 62
     0
 10
419.17498383696147
 20
1170.038859728995
 30
0.0
 11
419.1569788369606
 21
1160.2548797289951
 31
0.0
  0
LINE
  5
E315
  8
0
 62
     0
 10
419.1079728369611
 20
1133.378878728995
 30
0.0
 11
419.10597383696108
 21
1132.458897728995
 31
0.0
  0
LINE
  5
E316
  8
0
  6
AM_ISO08W050
 62
     0
 10
420.08299783696089
 20
1141.7638547289951
 30
0.0
 11
420.08299783696089
 21
1154.248869728995
 31
0.0
  0
LINE
  5
E317
  8
0
  6
AM_ISO08W050
 62
     0
 10
414.62698883696169
 20
1147.686858728995
 30
0.0
 11
425.35999083696061
 21
1147.686858728995
 31
0.0
  0
LINE
  5
E318
  8
0
 62
     0
 10
475.08299783696111
 20
1180.842864728995
 30
0.0
 11
474.60599283696121
 21
1180.842864728995
 31
0.0
  0
LINE
  5
E319
  8
0
 62
     0
 10
436.58299783696089
 20
1149.452849728995
 30
0.0
 11
513.58299783696123
 21
1149.452849728995
 31
0.0
  0
LINE
  5
E31A
  8
0
 62
     0
 10
513.58299783696123
 20
1172.5388477289951
 30
0.0
 11
436.58299783696089
 21
1172.5388477289951
 31
0.0
  0
LINE
  5
E31B
  8
0
 62
     0
 10
410.08299783696123
 20
1148.4091457289951
 30
0.0
 11
410.08299783696123
 21
1152.157041728995
 31
0.0
  0
LINE
  5
E31C
  8
0
 62
     0
 10
412.23641583696087
 20
1155.586081728994
 30
0.0
 11
414.2061578369611
 21
1156.703168728995
 31
0.0
  0
ARC
  5
E31D
  8
0
 62
     0
 10
436.58299783696089
 20
1126.632877728995
 30
0.0
 40
10.0
 50
179.99998200000081
 51
269.99996399997548
  0
ARC
  5
E31E
  8
0
 62
     0
 10
437.10599283696121
 20
1132.4588617289951
 30
0.0
 40
18.0
 50
179.99998200000081
 51
270.0
  0
ARC
  5
E31F
  8
0
 62
     0
 10
436.58299783696089
 20
1162.5388477289951
 30
0.0
 40
10.0
 50
90.0
 51
179.99998200000081
  0
ARC
  5
E320
  8
0
 62
     0
 10
436.58299783696089
 20
1139.452849728995
 30
0.0
 40
10.0
 50
90.0
 51
179.99998200000081
  0
ARC
  5
E321
  8
0
 62
     0
 10
410.15698783696092
 20
1160.270842728994
 30
0.0
 40
9.0
 50
296.73468799997107
 51
359.89604200000917
  0
ARC
  5
E322
  8
0
 62
     0
 10
410.1079918369615
 20
1133.395842728994
 30
0.0
 40
9.0
 50
359.89604200000917
 51
62.022939999986953
  0
ARC
  5
E323
  8
0
 62
     0
 10
410.15698783696092
 20
1164.7408437289951
 30
0.0
 40
9.0
 50
296.73776600000627
 51
359.89604200000917
  0
LINE
  5
E324
  8
0
 62
     0
 10
607.58297683696117
 20
1199.501852728994
 30
0.0
 11
600.6327638369612
 21
1199.4532007289949
 31
0.0
  0
ARC
  5
E325
  8
0
 62
     0
 10
594.2432758369614
 20
1196.501865728995
 30
0.0
 40
10.0
 50
269.99999700001541
 51
299.99999800001649
  0
ARC
  5
E326
  8
0
 62
     0
 10
607.082997836961
 20
1197.998325728995
 30
0.0
 40
1.5
 50
90.401064000021776
 51
180.0000050000005
  0
ARC
  5
E327
  8
0
 62
     0
 10
603.58299783696111
 20
1192.656528728995
 30
0.0
 40
2.0
 50
299.99999800001649
 51
0.0
  0
LINE
  5
E328
  8
0
 62
     0
 10
604.58299883696122
 20
1190.9245027289951
 30
0.0
 11
599.24328483696092
 21
1187.841616728994
 31
0.0
  0
LINE
  5
E329
  8
0
 62
     0
 10
605.58299783696123
 20
1192.656528728995
 30
0.0
 11
605.58299783696123
 21
1197.998325728995
 31
0.0
  0
LINE
  5
E32A
  8
0
 62
     0
 10
522.15477483696122
 20
1186.501865728995
 30
0.0
 11
594.2432758369614
 21
1186.501865728995
 31
0.0
  0
LINE
  5
E32B
  8
0
 62
     0
 10
521.08303183696091
 20
1182.501863728995
 30
0.0
 11
523.86097683696164
 21
1192.869295728995
 31
0.0
  0
ARC
  5
E32C
  8
0
 62
     0
 10
425.3073018369613
 20
1185.001865728995
 30
0.0
 40
3.0
 50
14.999999999994451
 51
90.000002999984659
  0
ARC
  5
E32D
  8
0
 62
     0
 10
378.8412988369609
 20
1193.001865728995
 30
0.0
 40
5.0
 50
239.99999700002189
 51
269.99999700001541
  0
LINE
  5
E32E
  8
0
 62
     0
 10
429.08298683696108
 20
1182.5019137289951
 30
0.0
 11
428.2050648369613
 21
1185.778361728994
 31
0.0
  0
LINE
  5
E32F
  8
0
 62
     0
 10
378.8412988369609
 20
1188.001865728995
 30
0.0
 11
425.3073018369613
 21
1188.001865728995
 31
0.0
  0
LINE
  5
E330
  8
0
 62
     0
 10
369.0709648369612
 20
1192.869295728995
 30
0.0
 11
376.34133983696142
 21
1188.671742728995
 31
0.0
  0
LINE
  5
E332
  8
0
 62
     0
 10
593.54448483696149
 20
1244.913000728995
 30
0.0
 11
607.58299783696111
 21
1244.913000728995
 31
0.0
  0
LINE
  5
E333
  8
0
 62
     0
 10
605.58305883696073
 20
1215.299718728995
 30
0.0
 11
589.38829583696122
 21
1212.461339728995
 31
0.0
  0
LINE
  5
E334
  8
0
 62
     0
 10
589.38835683696095
 20
1229.020421728995
 30
0.0
 11
605.58305883696073
 21
1232.051671728995
 31
0.0
  0
LINE
  5
E335
  8
0
 62
     0
 10
605.58305883696073
 20
1248.8004517289951
 30
0.0
 11
589.38829583696122
 21
1243.5709597289949
 31
0.0
  0
LINE
  5
E336
  8
0
 62
     0
 10
605.58305883696073
 20
1264.7355097289951
 30
0.0
 11
589.38829583696122
 21
1261.7295287289951
 31
0.0
  0
LINE
  5
E337
  8
0
 62
     0
 10
605.58305883696073
 20
1280.108800728995
 30
0.0
 11
589.38829583696122
 21
1278.3789427289951
 31
0.0
  0
LINE
  5
E338
  8
0
 62
     0
 10
605.58305883696073
 20
1297.322668728995
 30
0.0
 11
589.38829583696122
 21
1296.0914667289951
 31
0.0
  0
LINE
  5
E339
  8
0
 62
     0
 10
593.54448483696149
 20
1384.0907347289949
 30
0.0
 11
607.58299783696111
 21
1384.0907347289949
 31
0.0
  0
LINE
  5
E33A
  8
0
 62
     0
 10
605.58305883696073
 20
1331.681066728994
 30
0.0
 11
589.38829583696122
 21
1332.9122677289949
 31
0.0
  0
LINE
  5
E33B
  8
0
 62
     0
 10
605.58305883696073
 20
1348.8949337289951
 30
0.0
 11
589.38829583696122
 21
1350.6247927289951
 31
0.0
  0
LINE
  5
E33C
  8
0
 62
     0
 10
605.58305883696073
 20
1364.2682247289949
 30
0.0
 11
589.38829583696122
 21
1367.2742067289951
 31
0.0
  0
LINE
  5
E33D
  8
0
 62
     0
 10
605.58305883696073
 20
1380.2032837289951
 30
0.0
 11
589.38829583696122
 21
1385.432775728995
 31
0.0
  0
LINE
  5
E33E
  8
0
 62
     0
 10
589.38835683696095
 20
1399.9833127289951
 30
0.0
 11
605.58305883696073
 21
1396.9520627289951
 31
0.0
  0
LINE
  5
E33F
  8
0
 62
     0
 10
605.58305883696073
 20
1413.704015728995
 30
0.0
 11
589.38829583696122
 21
1416.5423947289951
 31
0.0
  0
LINE
  5
E340
  8
0
 62
     0
 10
605.58305883696073
 20
1418.539953728995
 30
0.0
 11
589.38829583696122
 21
1427.392003728995
 31
0.0
  0
LINE
  5
E341
  8
0
 62
     0
 10
605.58305883696073
 20
1426.652013728994
 30
0.0
 11
589.38829583696122
 21
1436.134435728995
 31
0.0
  0
LINE
  5
E342
  8
0
 62
     0
 10
605.58305883696073
 20
1432.7062127289951
 30
0.0
 11
589.38829583696122
 21
1442.3472047289949
 31
0.0
  0
LINE
  5
E343
  8
0
 62
     0
 10
605.58305883696073
 20
1436.2775027289949
 30
0.0
 11
589.38829583696122
 21
1446.207555728995
 31
0.0
  0
LINE
  5
E344
  8
0
 62
     0
 10
363.083018836961
 20
1446.207555728995
 30
0.0
 11
589.38817383696085
 21
1446.207555728995
 31
0.0
  0
LINE
  5
E345
  8
0
 62
     0
 10
363.083018836961
 20
1442.3472047289949
 30
0.0
 11
589.38829583696122
 21
1442.3472047289949
 31
0.0
  0
LINE
  5
E346
  8
0
 62
     0
 10
363.083018836961
 20
1436.134435728995
 30
0.0
 11
589.38835683696095
 21
1436.134435728995
 31
0.0
  0
LINE
  5
E347
  8
0
 62
     0
 10
363.083018836961
 20
1427.392003728995
 30
0.0
 11
589.38835683696095
 21
1427.392003728995
 31
0.0
  0
LINE
  5
E348
  8
0
 62
     0
 10
363.083018836961
 20
1416.5421357289949
 30
0.0
 11
589.38780783696075
 21
1416.5423947289951
 31
0.0
  0
LINE
  5
E349
  8
0
 62
     0
 10
363.083018836961
 20
1399.9833127289951
 30
0.0
 11
589.38805183696149
 21
1399.9833127289951
 31
0.0
  0
LINE
  5
E34A
  8
0
 62
     0
 10
363.083018836961
 20
1385.432775728995
 30
0.0
 11
589.38835683696095
 21
1385.432775728995
 31
0.0
  0
LINE
  5
E34B
  8
0
 62
     0
 10
363.083018836961
 20
1367.2740847289949
 30
0.0
 11
589.38847883696121
 21
1367.2740847289949
 31
0.0
  0
LINE
  5
E34C
  8
0
 62
     0
 10
363.083018836961
 20
1350.6256257289949
 30
0.0
 11
589.3882348369616
 21
1350.6247927289951
 31
0.0
  0
LINE
  5
E34D
  8
0
 62
     0
 10
363.083018836961
 20
1332.9122677289949
 30
0.0
 11
589.388966836961
 21
1332.9122677289949
 31
0.0
  0
LINE
  5
E34F
  8
0
 62
     0
 10
363.083018836961
 20
1229.020421728995
 30
0.0
 11
589.38805183696149
 21
1229.020421728995
 31
0.0
  0
LINE
  5
E350
  8
0
 62
     0
 10
363.083018836961
 20
1243.5709597289949
 30
0.0
 11
589.38835683696095
 21
1243.5709597289949
 31
0.0
  0
LINE
  5
E351
  8
0
 62
     0
 10
363.083018836961
 20
1261.729650728995
 30
0.0
 11
589.38847883696121
 21
1261.729650728995
 31
0.0
  0
LINE
  5
E352
  8
0
 62
     0
 10
363.083018836961
 20
1278.378109728995
 30
0.0
 11
589.3882348369616
 21
1278.3789427289951
 31
0.0
  0
LINE
  5
E353
  8
0
 62
     0
 10
363.083018836961
 20
1296.0914667289951
 30
0.0
 11
589.388966836961
 21
1296.0914667289951
 31
0.0
  0
CIRCLE
  5
E354
  8
0
 62
     0
 10
475.08299783696111
 20
1314.501812728995
 30
0.0
 40
11.5
  0
LINE
  5
E355
  8
0
 62
     0
 10
363.083018836961
 20
1212.4615987289951
 30
0.0
 11
589.38829583696122
 21
1212.461339728995
 31
0.0
  0
LINE
  5
E356
  8
0
 62
     0
 10
605.58305883696073
 20
1413.704015728995
 30
0.0
 11
605.58305883696073
 21
1437.571812728994
 31
0.0
  0
LINE
  5
E357
  8
0
 62
     0
 10
605.58318083696122
 20
1396.951818728995
 30
0.0
 11
607.58299783696111
 21
1396.951818728995
 31
0.0
  0
LINE
  5
E358
  8
0
 62
     0
 10
605.58305883696073
 20
1360.9547487289949
 30
0.0
 11
605.5831198369608
 21
1364.2682247289949
 31
0.0
  0
LINE
  5
E359
  8
0
 62
     0
 10
605.5831198369608
 20
1375.6958367289949
 30
0.0
 11
605.58305883696073
 21
1380.2032837289951
 31
0.0
  0
LINE
  5
E35A
  8
0
 62
     0
 10
605.58305883696073
 20
1348.8949337289951
 30
0.0
 11
605.58305883696073
 21
1345.9737917289949
 31
0.0
  0
LINE
  5
E35B
  8
0
 62
     0
 10
605.58305883696073
 20
1331.681066728994
 30
0.0
 11
605.58305883696073
 21
1330.6791137289949
 31
0.0
  0
LINE
  5
E35C
  8
0
 62
     0
 10
605.58318083696122
 20
1232.051916728994
 30
0.0
 11
607.58299783696111
 21
1232.051916728994
 31
0.0
  0
LINE
  5
E35D
  8
0
 62
     0
 10
605.5831198369608
 20
1253.307897728994
 30
0.0
 11
605.58305883696073
 21
1248.8004517289951
 31
0.0
  0
LINE
  5
E35E
  8
0
 62
     0
 10
605.58305883696073
 20
1268.048986728995
 30
0.0
 11
605.5831198369608
 21
1264.7355097289951
 31
0.0
  0
LINE
  5
E35F
  8
0
 62
     0
 10
605.58305883696073
 20
1280.108800728995
 30
0.0
 11
605.58305883696073
 21
1283.029943728995
 31
0.0
  0
LINE
  5
E360
  8
0
 62
     0
 10
605.58305883696073
 20
1297.322668728995
 30
0.0
 11
605.58305883696073
 21
1298.324621728995
 31
0.0
  0
LINE
  5
E361
  8
0
 62
     0
 10
605.58305883696073
 20
1210.463777728995
 30
0.0
 11
589.38829583696122
 21
1201.611727728995
 31
0.0
  0
LINE
  5
E362
  8
0
 62
     0
 10
363.083018836961
 20
1201.611727728995
 30
0.0
 11
589.38835683696095
 21
1201.611727728995
 31
0.0
  0
LINE
  5
E363
  8
0
 62
     0
 10
605.58305883696073
 20
1215.299718728995
 30
0.0
 11
605.58305883696073
 21
1202.351717728995
 31
0.0
  0
LINE
  5
E364
  8
0
 62
     0
 10
605.58305883696073
 20
1202.351717728995
 30
0.0
 11
589.38829583696122
 21
1192.869295728995
 31
0.0
  0
LINE
  5
E365
  8
0
 62
     0
 10
363.083018836961
 20
1192.869295728995
 30
0.0
 11
589.38835683696095
 21
1192.869295728995
 31
0.0
  0
LINE
  5
E366
  8
0
 62
     0
 10
607.58299783696111
 20
1431.501865728995
 30
0.0
 11
607.58299783696111
 21
1197.501925728996
 31
0.0
  0
TEXT
  5
EC3F
  8
0
  6
CONTINUOUS
 62
     0
 10
1183.3644797312249
 20
1306.0316208310669
 30
0.0
 40
20.0
  1
VX75-040EM~VX75-080EM
  0
ENDSEC
  0
EOF
