  0
SECTION
  2
HEADER
  9
$ACADVER
  1
AC1009
  9
$INSBASE
 10
0.0
 20
0.0
 30
0.0
  9
$EXTMIN
 10
-587.07421999999985
 20
59.837266000000199
 30
0.0
  9
$EXTMAX
 10
-63.728175999999998
 20
456.99094000000002
 30
0.0
  9
$LIMMIN
 10
0.0
 20
0.0
  9
$LIMMAX
 10
12.0
 20
9.0
  9
$ORTHOMODE
 70
     0
  9
$REGENMODE
 70
     1
  9
$FILLMODE
 70
     1
  9
$QTEXTMODE
 70
     0
  9
$MIRRTEXT
 70
     1
  9
$DRAGMODE
 70
     2
  9
$LTSCALE
 40
1.0
  9
$OSMODE
 70
   551
  9
$ATTMODE
 70
     1
  9
$TEXTSIZE
 40
0.2
  9
$TRACEWID
 40
0.05
  9
$TEXTSTYLE
  7
STANDARD
  9
$CLAYER
  8
0
  9
$CELTYPE
  6
CONTINUOUS
  9
$CECOLOR
 62
   256
  9
$DIMSCALE
 40
1.0
  9
$DIMASZ
 40
0.1
  9
$DIMEXO
 40
0.05
  9
$DIMDLI
 40
0.5
  9
$DIMRND
 40
0.0
  9
$DIMDLE
 40
0.0
  9
$DIMEXE
 40
0.1
  9
$DIMTP
 40
0.1
  9
$DIMTM
 40
0.1
  9
$DIMTXT
 40
0.12
  9
$DIMCEN
 40
0.0
  9
$DIMTSZ
 40
0.0
  9
$DIMTOL
 70
     0
  9
$DIMLIM
 70
     0
  9
$DIMTIH
 70
     1
  9
$DIMTOH
 70
     1
  9
$DIMSE1
 70
     0
  9
$DIMSE2
 70
     0
  9
$DIMTAD
 70
     0
  9
$DIMZIN
 70
     0
  9
$DIMBLK
  1

  9
$DIMASO
 70
     1
  9
$DIMSHO
 70
     1
  9
$DIMPOST
  1

  9
$DIMAPOST
  1
mm
  9
$DIMALT
 70
     0
  9
$DIMALTD
 70
     2
  9
$DIMALTF
 40
25.399999999999999
  9
$DIMLFAC
 40
1.0
  9
$DIMTOFL
 70
     0
  9
$DIMTVP
 40
0.0
  9
$DIMTIX
 70
     0
  9
$DIMSOXD
 70
     0
  9
$DIMSAH
 70
     0
  9
$DIMBLK1
  1

  9
$DIMBLK2
  1

  9
$DIMSTYLE
  2
AM_ANSI
  9
$DIMCLRD
 70
   256
  9
$DIMCLRE
 70
   256
  9
$DIMCLRT
 70
     2
  9
$DIMTFAC
 40
0.71
  9
$DIMGAP
 40
0.06
  9
$LUNITS
 70
     2
  9
$LUPREC
 70
     4
  9
$SKETCHINC
 40
0.1
  9
$FILLETRAD
 40
0.0
  9
$AUNITS
 70
     0
  9
$AUPREC
 70
     0
  9
$MENU
  1
.
  9
$ELEVATION
 40
0.0
  9
$PELEVATION
 40
0.0
  9
$THICKNESS
 40
0.0
  9
$LIMCHECK
 70
     0
  9
$BLIPMODE
 70
     0
  9
$CHAMFERA
 40
0.0
  9
$CHAMFERB
 40
0.0
  9
$SKPOLY
 70
     0
  9
$TDCREATE
 40
2452300.4216605099
  9
$TDUPDATE
 40
2458540.6435113191
  9
$TDINDWG
 40
0.0394265162
  9
$TDUSRTIMER
 40
0.039426412
  9
$USRTIMER
 70
     1
  9
$ANGBASE
 50
0.0
  9
$ANGDIR
 70
     0
  9
$PDMODE
 70
     0
  9
$PDSIZE
 40
0.0
  9
$PLINEWID
 40
0.0
  9
$COORDS
 70
     1
  9
$SPLFRAME
 70
     0
  9
$SPLINETYPE
 70
     6
  9
$SPLINESEGS
 70
     8
  9
$ATTDIA
 70
     1
  9
$ATTREQ
 70
     1
  9
$HANDLING
 70
     1
  9
$HANDSEED
  5
15A7
  9
$SURFTAB1
 70
     6
  9
$SURFTAB2
 70
     6
  9
$SURFTYPE
 70
     6
  9
$SURFU
 70
     6
  9
$SURFV
 70
     6
  9
$UCSNAME
  2

  9
$UCSORG
 10
0.0
 20
0.0
 30
0.0
  9
$UCSXDIR
 10
1.0
 20
0.0
 30
0.0
  9
$UCSYDIR
 10
0.0
 20
1.0
 30
0.0
  9
$PUCSNAME
  2

  9
$PUCSORG
 10
0.0
 20
0.0
 30
0.0
  9
$PUCSXDIR
 10
1.0
 20
0.0
 30
0.0
  9
$PUCSYDIR
 10
0.0
 20
1.0
 30
0.0
  9
$USERI1
 70
     0
  9
$USERI2
 70
     0
  9
$USERI3
 70
     0
  9
$USERI4
 70
     0
  9
$USERI5
 70
     0
  9
$USERR1
 40
0.0
  9
$USERR2
 40
0.0
  9
$USERR3
 40
0.0
  9
$USERR4
 40
0.0
  9
$USERR5
 40
0.0
  9
$WORLDVIEW
 70
     1
  9
$SHADEDGE
 70
     3
  9
$SHADEDIF
 70
    70
  9
$TILEMODE
 70
     1
  9
$MAXACTVP
 70
    64
  9
$PLIMCHECK
 70
     0
  9
$PEXTMIN
 10
1.0000000000000000E+020
 20
1.0000000000000000E+020
 30
1.0000000000000000E+020
  9
$PEXTMAX
 10
-1.0000000000000000E+020
 20
-1.0000000000000000E+020
 30
-1.0000000000000000E+020
  9
$PLIMMIN
 10
0.0
 20
0.0
  9
$PLIMMAX
 10
12.0
 20
9.0
  9
$UNITMODE
 70
     0
  9
$VISRETAIN
 70
     1
  9
$PLINEGEN
 70
     0
  9
$PSLTSCALE
 70
     1
  0
ENDSEC
  0
SECTION
  2
TABLES
  0
TABLE
  2
VPORT
 70
     1
  0
VPORT
  2
*ACTIVE
 70
     0
 10
0.0
 20
0.0
 11
1.0
 21
1.0
 12
-313.41151751698948
 22
258.42096936623739
 13
0.0
 23
0.0
 14
1.0
 24
1.0
 15
0.0
 25
0.0
 16
0.0
 26
0.0
 36
1.0
 17
0.0
 27
0.0
 37
0.0
 40
400.01359977715668
 41
1.7571592210767459
 42
50.0
 43
0.0
 44
0.0
 50
0.0
 51
0.0
 71
     0
 72
   100
 73
     1
 74
     1
 75
     0
 76
     0
 77
     0
 78
     0
  0
ENDTAB
  0
TABLE
  2
LTYPE
 70
    22
  0
LTYPE
  2
CONTINUOUS
 70
     0
  3
Solid line
 72
    65
 73
     0
 40
0.0
  0
LTYPE
  2
DASHED
 70
     0
  3
__ __ __ __ __ __ __ __ __ __ __ __ __ __ __
 72
    65
 73
     2
 40
3.5
 49
2.0
 49
-1.5
  0
LTYPE
  2
CENTER
 70
     0
  3
____ _ ____ _ ____ _ ____ _ ____ _ ____ _ ____
 72
    65
 73
     4
 40
17.5
 49
13.0
 49
-1.5
 49
1.5
 49
-1.5
  0
LTYPE
  2
PHANTOM
 70
     0
  3
_____ _ _ _____ _ _ _____ _ _ _____ _ _ ____  
 72
    65
 73
     6
 40
15.5
 49
8.0
 49
-1.5
 49
1.5
 49
-1.5
 49
1.5
 49
-1.5
  0
LTYPE
  2
DOT
 70
     0
  3
. . . . . . . . . . . . . . . . . . . . . . . .
 72
    65
 73
     2
 40
0.25
 49
0.0
 49
-0.25
  0
LTYPE
  2
AM_ISO02W050
 70
     0
  3
__ __ __ __ __ __ __ __ __ __ __ __ __ __ __
 72
    65
 73
     2
 40
7.5
 49
6.0
 49
-1.5
  0
LTYPE
  2
AM_ISO08W050
 70
     0
  3
____ . ____ . ____ . ____ . ____ . ____ . ____
 72
    65
 73
     4
 40
18.0
 49
12.0
 49
-1.5
 49
3.0
 49
-1.5
  0
LTYPE
  2
AM_ISO09W050
 70
     0
  3
_____ . . _____ . . _____ . . ____ .. ____
 72
    65
 73
     6
 40
22.5
 49
12.0
 49
-1.5
 49
3.0
 49
-1.5
 49
3.0
 49
-1.5
  0
LTYPE
  2
AMCONSTR
 70
     0
  3
_______________________
 72
    65
 73
     2
 40
9999.0
 49
9999.0
 49
0.0
  0
LTYPE
  2
AM_ISO08W050X2
 70
     0
  3
__ . __ . __ . __ . __ . __
 72
    65
 73
     4
 40
9.0
 49
6.0
 49
-0.75
 49
1.5
 49
-0.75
  0
LTYPE
  2
AM_ISO02W050X2
 70
     0
  3
 _ _ _ _ _ _ _ _ _ _ _ _
 72
    65
 73
     2
 40
3.75
 49
3.0
 49
-0.75
  0
LTYPE
  2
AMZIGZAG
 70
     0
  3
/\/-/\/-/\/-/\/-/\/-/\/
 72
    65
 73
     2
 40
11.000099999999991
 49
0.0001
 49
-11.0
  0
LTYPE
  2
HIDDEN
 70
     0
  3
Hidden __ __ __ __ __ __ __ __ __ __ __ __ __ _
 72
    65
 73
     2
 40
0.375
 49
0.25
 49
-0.125
  0
LTYPE
  2
PHANTOM2
 70
     0
  3
Phantom (.5x) ___ _ _ ___ _ _ ___ _ _ ___ _ _
 72
    65
 73
     6
 40
1.25
 49
0.625
 49
-0.125
 49
0.125
 49
-0.125
 49
0.125
 49
-0.125
  0
LTYPE
  2
CENTER2
 70
     0
  3
Center (.5x) ___ _ ___ _ ___ _ ___ _ ___ _ ___
 72
    65
 73
     4
 40
1.125
 49
0.75
 49
-0.125
 49
0.125
 49
-0.125
  0
LTYPE
  2
HIDDEN2
 70
     0
  3
Hidden (.5x) _ _ _ _ _ _ _ _ _ _ _ _ _ _ _ _ _
 72
    65
 73
     2
 40
0.1875
 49
0.125
 49
-0.0625
  0
LTYPE
  2
AMZIGZAG2
 70
     0
  3
/\/-/\/-/\/-/\/-/\/-/\/
 72
    65
 73
     2
 40
0.4401
 49
0.0001
 49
-0.4400000000000003
  0
LTYPE
  2
ACANSTGB
 70
     0
  3
__ . . __ . .
 72
    65
 73
     6
 40
0.35433070866
 49
0.15748031496
 49
-0.03937007874
 49
0.03937007874
 49
-0.03937007874
 49
0.03937007874
 49
-0.03937007874
  0
LTYPE
  2
ACANSTGL
 70
     0
  3
_ _ _ _ _
 72
    65
 73
     2
 40
0.11811023622
 49
0.07874015748
 49
-0.03937007874
  0
LTYPE
  2
ACISOWELD
 70
     0
  3
_ _ _ _ _
 72
    65
 73
     2
 40
2.0
 49
2.0
 49
-1.0
  0
LTYPE
  2
ACISOTGB
 70
     0
  3
__ . . __ . .
 72
    65
 73
     6
 40
9.0
 49
4.0
 49
-1.0
 49
1.0
 49
-1.0
 49
1.0
 49
-1.0
  0
LTYPE
  2
ACISOTGL
 70
     0
  3
_ _ _ _ _
 72
    65
 73
     2
 40
3.0
 49
2.0
 49
-1.0
  0
ENDTAB
  0
TABLE
  2
LAYER
 70
     2
  0
LAYER
  2
0
 70
     0
 62
     7
  6
CONTINUOUS
  0
LAYER
  2
AM_5
 70
     0
 62
     3
  6
CONTINUOUS
  0
ENDTAB
  0
TABLE
  2
STYLE
 70
     6
  0
STYLE
  2
STANDARD
 70
     0
 40
0.0
 41
1.0
 50
0.0
 71
     0
 42
0.2
  3
txt
  4

  0
STYLE
  2
ANNOTATIVE
 70
     0
 40
0.0
 41
1.0
 50
0.0
 71
     0
 42
0.2
  3
txt
  4

  0
STYLE
  2

 70
     1
 40
0.0
 41
1.0
 50
0.0
 71
     0
 42
0.2
  3
ltypeshp.shx
  4

  0
STYLE
  2
ACANSTS
 70
     0
 40
1.0
 41
1.0
 50
0.0
 71
     0
 42
0.2
  3
romans.shx
  4
extfont.shx
  0
STYLE
  2
ACANSGDT
 70
     0
 40
0.0
 41
1.0
 50
0.0
 71
     0
 42
0.2
  3
amgdt.shx
  4

  0
STYLE
  2
ACISOGDT
 70
     0
 40
0.0
 41
1.0
 50
0.0
 71
     0
 42
2.5
  3
amgdt.shx
  4

  0
ENDTAB
  0
TABLE
  2
VIEW
 70
     0
  0
ENDTAB
  0
TABLE
  2
UCS
 70
     0
  0
ENDTAB
  0
TABLE
  2
APPID
 70
    12
  0
APPID
  2
ACAD
 70
     0
  0
APPID
  2
ACADANNOTATIVE
 70
     0
  0
APPID
  2
MCAD_NO_VIS
 70
     0
  0
APPID
  2
ACAD_TEMP_GRAPHIC
 70
     0
  0
APPID
  2
ACATTRIBSERVICES
 70
     0
  0
APPID
  2
DESIGNERASSEMBLIES
 70
     0
  0
APPID
  2
ACAD_DSTYLE_DIMBREAK
 70
     0
  0
APPID
  2
ACAD_DSTYLE_DIMJAG
 70
     0
  0
APPID
  2
ACAD_NAV_VCDISPLAY
 70
     0
  0
APPID
  2
ACAD_PSEXT
 70
     0
  0
APPID
  2
ACAD_EXEMPT_FROM_CAD_STANDARDS
 70
     0
  0
APPID
  2
ACAD_MLEADERVER
 70
     0
  0
ENDTAB
  0
TABLE
  2
DIMSTYLE
 70
    16
  0
DIMSTYLE
  2
STANDARD
 70
     0
  3

  4

  5

  6

  7

 40
1.0
 41
0.18
 42
0.0625
 43
0.38
 44
0.18
 45
0.0
 46
0.0
 47
0.0
 48
0.0
140
0.18
141
0.09
142
0.0
143
25.399999999999999
144
1.0
145
0.0
146
1.0
147
0.09
 71
     0
 72
     0
 73
     1
 74
     1
 75
     0
 76
     0
 77
     0
 78
     0
170
     0
171
     2
172
     0
173
     0
174
     0
175
     0
176
     0
177
     0
178
     0
  0
DIMSTYLE
  2
ANNOTATIVE
 70
     0
  3

  4

  5

  6

  7

 40
1.0
 41
0.18
 42
0.0625
 43
0.38
 44
0.18
 45
0.0
 46
0.0
 47
0.0
 48
0.0
140
0.18
141
0.09
142
0.0
143
25.399999999999999
144
1.0
145
0.0
146
1.0
147
0.09
 71
     0
 72
     0
 73
     1
 74
     1
 75
     0
 76
     0
 77
     0
 78
     0
170
     0
171
     2
172
     0
173
     0
174
     0
175
     0
176
     0
177
     0
178
     0
  0
DIMSTYLE
  2
AM_ANSI
 70
     0
  3

  4
mm
  5

  6

  7

 40
1.0
 41
0.1
 42
0.05
 43
0.5
 44
0.1
 45
0.0
 46
0.0
 47
0.1
 48
0.1
140
0.12
141
0.0
142
0.0
143
25.399999999999999
144
1.0
145
0.0
146
0.71
147
0.06
 71
     0
 72
     0
 73
     1
 74
     1
 75
     0
 76
     0
 77
     0
 78
     7
170
     0
171
     2
172
     0
173
     0
174
     0
175
     0
176
   256
177
   256
178
     2
  0
DIMSTYLE
  2
AM_ANSI$3
 70
     0
  3

  4
mm
  5

  6

  7

 40
1.0
 41
0.1
 42
0.05
 43
0.5
 44
0.1
 45
0.0
 46
0.0
 47
0.1
 48
0.1
140
0.12
141
0.0
142
0.0
143
25.399999999999999
144
1.0
145
0.0
146
0.71
147
0.06
 71
     0
 72
     0
 73
     1
 74
     1
 75
     0
 76
     0
 77
     0
 78
     7
170
     0
171
     2
172
     0
173
     0
174
     0
175
     0
176
   256
177
   256
178
     2
  0
DIMSTYLE
  2
AM_ANSI$4
 70
     0
  3

  4
mm
  5

  6

  7

 40
1.0
 41
0.1
 42
0.05
 43
0.5
 44
0.1
 45
0.0
 46
0.0
 47
0.1
 48
0.1
140
0.12
141
0.0
142
0.0
143
25.399999999999999
144
1.0
145
0.0
146
0.71
147
0.06
 71
     0
 72
     0
 73
     1
 74
     1
 75
     0
 76
     0
 77
     0
 78
     7
170
     0
171
     2
172
     0
173
     0
174
     0
175
     0
176
   256
177
   256
178
     2
  0
DIMSTYLE
  2
AM_ANSI$7
 70
     0
  3

  4
mm
  5

  6

  7

 40
1.0
 41
0.1
 42
0.05
 43
0.5
 44
0.1
 45
0.0
 46
0.0
 47
0.1
 48
0.1
140
0.24
141
0.0
142
0.0
143
25.399999999999999
144
1.0
145
0.0
146
0.71
147
0.06
 71
     0
 72
     0
 73
     1
 74
     1
 75
     0
 76
     0
 77
     0
 78
     7
170
     0
171
     2
172
     0
173
     0
174
     0
175
     0
176
   256
177
   256
178
     2
  0
DIMSTYLE
  2
AM_ANSI$SF
 70
     0
  3

  4
mm
  5

  6

  7

 40
1.0
 41
0.1
 42
0.05
 43
0.5
 44
0.1
 45
0.0
 46
0.0
 47
0.1
 48
0.1
140
0.12
141
0.0
142
0.0
143
25.399999999999999
144
1.0
145
0.0
146
0.71
147
0.06
 71
     0
 72
     0
 73
     1
 74
     1
 75
     1
 76
     1
 77
     0
 78
     7
170
     0
171
     2
172
     0
173
     0
174
     0
175
     0
176
   256
177
   256
178
     2
  0
DIMSTYLE
  2
AM_ANSI$SH
 70
     0
  3

  4
mm
  5

  6

  7

 40
1.0
 41
0.1
 42
0.05
 43
0.5
 44
0.1
 45
0.0
 46
0.0
 47
0.1
 48
0.1
140
0.12
141
0.0
142
0.0
143
25.399999999999999
144
1.0
145
0.0
146
0.71
147
0.06
 71
     0
 72
     0
 73
     1
 74
     1
 75
     1
 76
     1
 77
     0
 78
     7
170
     0
171
     2
172
     0
173
     1
174
     0
175
     0
176
   256
177
   256
178
     2
  0
DIMSTYLE
  2
AM_ISO
 70
     0
  3

  4
"
  5

  6

  7

 40
1.0
 41
2.5
 42
1.0
 43
10.0
 44
1.0
 45
0.0
 46
0.0
 47
0.1
 48
0.1
140
3.5
141
0.0
142
0.0
143
0.0393701
144
1.0
145
0.0
146
0.71
147
1.5
 71
     0
 72
     0
 73
     0
 74
     0
 75
     0
 76
     0
 77
     1
 78
     8
170
     0
171
     2
172
     1
173
     0
174
     0
175
     0
176
   256
177
   256
178
     2
  0
DIMSTYLE
  2
AM_ISO$3
 70
     0
  3

  4
"
  5

  6

  7

 40
1.0
 41
2.5
 42
1.0
 43
10.0
 44
1.0
 45
0.0
 46
0.0
 47
0.1
 48
0.1
140
3.5
141
0.0
142
0.0
143
0.0393701
144
1.0
145
0.0
146
0.71
147
1.5
 71
     0
 72
     0
 73
     0
 74
     1
 75
     0
 76
     0
 77
     1
 78
     8
170
     0
171
     2
172
     0
173
     0
174
     0
175
     0
176
   256
177
   256
178
     2
  0
DIMSTYLE
  2
AM_ISO$4
 70
     0
  3

  4
"
  5

  6

  7

 40
1.0
 41
2.5
 42
1.0
 43
10.0
 44
1.0
 45
0.0
 46
0.0
 47
0.1
 48
0.1
140
3.5
141
0.0
142
0.0
143
0.0393701
144
1.0
145
0.0
146
0.71
147
1.5
 71
     0
 72
     0
 73
     0
 74
     1
 75
     0
 76
     0
 77
     1
 78
     8
170
     0
171
     2
172
     0
173
     0
174
     0
175
     0
176
   256
177
   256
178
     2
  0
DIMSTYLE
  2
AM_ISO$6
 70
     0
  3

  4
"
  5

  6

  7

 40
1.0
 41
2.5
 42
1.0
 43
10.0
 44
1.0
 45
0.0
 46
0.0
 47
0.1
 48
0.1
140
3.5
141
0.0
142
0.0
143
0.0393701
144
1.0
145
0.0
146
0.71
147
1.5
 71
     0
 72
     0
 73
     0
 74
     0
 75
     0
 76
     0
 77
     0
 78
     8
170
     0
171
     2
172
     1
173
     0
174
     0
175
     0
176
   256
177
   256
178
     2
  0
DIMSTYLE
  2
AM_ISO$7
 70
     0
  3

  4
"
  5

  6

  7

 40
1.0
 41
2.5
 42
1.0
 43
10.0
 44
1.0
 45
0.0
 46
0.0
 47
0.1
 48
0.1
140
5.0
141
0.0
142
0.0
143
0.0393701
144
1.0
145
0.0
146
0.71
147
1.5
 71
     0
 72
     0
 73
     0
 74
     0
 75
     0
 76
     0
 77
     1
 78
     8
170
     0
171
     2
172
     1
173
     0
174
     0
175
     0
176
   256
177
   256
178
     2
  0
DIMSTYLE
  2
AM_ISO$SF
 70
     0
  3

  4
"
  5

  6

  7

 40
1.0
 41
2.5
 42
1.0
 43
10.0
 44
1.0
 45
0.0
 46
0.0
 47
0.1
 48
0.1
140
3.5
141
0.0
142
0.0
143
0.0393701
144
1.0
145
0.0
146
0.71
147
1.5
 71
     0
 72
     0
 73
     0
 74
     0
 75
     1
 76
     1
 77
     1
 78
     8
170
     0
171
     2
172
     1
173
     0
174
     0
175
     0
176
   256
177
   256
178
     2
  0
DIMSTYLE
  2
AM_ISO$SH
 70
     0
  3

  4
"
  5

  6

  7

 40
1.0
 41
2.5
 42
1.0
 43
10.0
 44
1.0
 45
0.0
 46
0.0
 47
0.1
 48
0.1
140
3.5
141
0.0
142
0.0
143
0.0393701
144
2.0
145
0.0
146
0.71
147
1.5
 71
     0
 72
     0
 73
     0
 74
     0
 75
     1
 76
     1
 77
     1
 78
     8
170
     0
171
     2
172
     1
173
     1
174
     0
175
     0
176
   256
177
   256
178
     2
  0
DIMSTYLE
  2
AM_JIS
 70
     0
  3

  4
"
  5

  6

  7

 40
1.0
 41
2.0
 42
1.0
 43
8.0
 44
1.0
 45
0.0
 46
0.0
 47
0.1
 48
0.1
140
2.5
141
0.0
142
0.0
143
0.0393701
144
1.0
145
0.0
146
0.71
147
1.5
 71
     0
 72
     0
 73
     0
 74
     0
 75
     0
 76
     0
 77
     3
 78
     8
170
     0
171
     2
172
     1
173
     0
174
     0
175
     0
176
     2
177
     2
178
     4
  0
ENDTAB
  0
ENDSEC
  0
SECTION
  2
BLOCKS
  0
BLOCK
  8
0
  2
$MODEL_SPACE
 70
     0
 10
0.0
 20
0.0
 30
0.0
  3
$MODEL_SPACE
  1

  0
ENDBLK
  5
14AE
  8
0
  0
BLOCK
 67
     1
  8
0
  2
$PAPER_SPACE
 70
     0
 10
0.0
 20
0.0
 30
0.0
  3
$PAPER_SPACE
  1

  0
ENDBLK
  5
14AA
 67
     1
  8
0
  0
BLOCK
  8
0
  2
GENAXEH
 70
     0
 10
0.0
 20
0.0
 30
0.0
  3
GENAXEH
  1

  0
LINE
  5
A03
  8
0
 10
-1.0
 20
0.0
 30
0.0
 11
1.0
 21
0.0
 31
0.0
  0
ENDBLK
  5
A04
  8
0
  0
BLOCK
  8
0
  2
_ACMFILLEDHALF
 70
     0
 10
0.0
 20
0.0
 30
0.0
  3
_ACMFILLEDHALF
  1

  0
TRACE
  5
1030
  8
0
  6
CONTINUOUS
 62
     0
 10
-0.8
 20
0.0
 30
0.0
 11
-1.0
 21
0.166666666
 31
0.0
 12
0.0
 22
0.0
 32
0.0
 13
0.0
 23
0.0
 33
0.0
  0
LINE
  5
1031
  8
0
  6
CONTINUOUS
 62
     0
 10
-1.0
 20
0.0
 30
0.0
 11
-0.8
 21
0.0
 31
0.0
  0
ENDBLK
  5
102F
  8
0
  0
BLOCK
  8
0
  2
*U4
 70
     1
 10
0.0
 20
0.0
 30
0.0
  3
*U4
  1

  0
TEXT
  5
1108
  8
0
  6
CONTINUOUS
 62
     0
 10
5.0768189741019842
 20
5.9826223594979631
 30
0.0
 40
15.0
  1
ＶＸ０８－００３ＥＭ～ＶＸ０８
  0
TEXT
  5
1109
  8
0
  6
CONTINUOUS
 62
     0
 10
2.1790917013747082
 20
-19.18783218595658
 30
0.0
 40
15.0
  1
－０３０ＥＭ
  0
ENDBLK
  5
110B
  8
0
  0
BLOCK
  8
0
  2
*U5
 70
     1
 10
0.0
 20
0.0
 30
0.0
  3
*U5
  1

  0
TEXT
  5
110D
  8
0
  6
CONTINUOUS
 62
     0
 10
-288.8330972650578
 20
339.3091099353075
 30
0.0
 40
10.0
  1
ＶＸ０１－００３ＥＭＦ～ＶＸ０１－０５０ＥＭＦ
  0
ENDBLK
  5
110F
  8
0
  0
BLOCK
  8
0
  2
*U6
 70
     1
 10
0.0
 20
0.0
 30
0.0
  3
*U6
  1

  0
TEXT
  5
12C2
  8
0
  6
CONTINUOUS
 62
     0
 10
5.0768189741019842
 20
5.9826223594979639
 30
0.0
 40
15.0
  1
ＶＸ０８－００３ＥＭ～ＶＸ０８
  0
TEXT
  5
12C3
  8
0
  6
CONTINUOUS
 62
     0
 10
2.1790917013747082
 20
-19.18783218595658
 30
0.0
 40
15.0
  1
－０３０ＥＭ
  0
ENDBLK
  5
12C5
  8
0
  0
BLOCK
  8
0
  2
*U7
 70
     1
 10
0.0
 20
0.0
 30
0.0
  3
*U7
  1

  0
TEXT
  5
12C7
  8
0
  6
CONTINUOUS
 62
     0
 10
-265.79895292206692
 20
333.40381744088381
 30
0.0
 40
10.0
  1
ＶＸ０１－００３ＭＦ～ＶＸ０１－０５０ＭＦ
  0
ENDBLK
  5
12C9
  8
0
  0
ENDSEC
  0
SECTION
  2
ENTITIES
  0
LINE
  5
A05
  8
0
  6
CENTER
 62
     1
 10
-145.2809399999999
 20
59.837266000000199
 30
0.0
 11
-145.2809399999999
 21
229.43169000000009
 31
0.0
  0
LINE
  5
A06
  8
0
  6
CENTER
 62
     1
 10
-63.728175999999998
 20
147.34795
 30
0.0
 11
-224.1198
 21
147.34795
 31
0.0
  0
LINE
  5
A07
  8
0
  6
CENTER
 62
     7
 10
-582.41057999999987
 20
381.99090999999987
 30
0.0
 11
-327.46334999999999
 21
381.99090999999987
 31
0.0
  0
LINE
  5
A08
  8
0
  6
CONTINUOUS
 62
     1
 10
-362.82715000000002
 20
371.99093999999991
 30
0.0
 11
-360.82715000000002
 21
371.99093999999991
 31
0.0
  0
LINE
  5
A09
  8
0
  6
CONTINUOUS
 62
     1
 10
-362.82715000000002
 20
391.9909399999998
 30
0.0
 11
-360.82715000000002
 21
391.9909399999998
 31
0.0
  0
LINE
  5
A0A
  8
0
  6
CONTINUOUS
 62
     7
 10
-354.82715000000002
 20
378.99090999999999
 30
0.0
 11
-354.82715000000002
 21
384.99090999999987
 31
0.0
  0
LINE
  5
A0B
  8
0
  6
CONTINUOUS
 62
     7
 10
-360.82715000000002
 20
372.49093999999991
 30
0.0
 11
-332.82715000000002
 21
372.49093999999991
 31
0.0
  0
LINE
  5
A0C
  8
0
  6
CONTINUOUS
 62
     7
 10
-360.82715000000002
 20
391.49093999999991
 30
0.0
 11
-332.82715000000002
 21
391.49093999999991
 31
0.0
  0
LINE
  5
A0D
  8
0
  6
CONTINUOUS
 62
     7
 10
-332.82715000000002
 20
372.49093999999991
 30
0.0
 11
-332.82715000000002
 21
391.49093999999991
 31
0.0
  0
LINE
  5
A0E
  8
0
  6
CONTINUOUS
 62
     7
 10
-360.82715000000002
 20
371.99093999999991
 30
0.0
 11
-360.82715000000002
 21
391.9909399999998
 31
0.0
  0
LINE
  5
A0F
  8
0
  6
CONTINUOUS
 62
     7
 10
-354.82715000000002
 20
378.99090999999999
 30
0.0
 11
-332.82715000000002
 21
378.99090999999999
 31
0.0
  0
LINE
  5
A10
  8
0
  6
CONTINUOUS
 62
     7
 10
-354.82715000000002
 20
384.99090999999987
 30
0.0
 11
-332.82715000000002
 21
384.99090999999987
 31
0.0
  0
LINE
  5
A11
  8
0
  6
CONTINUOUS
 62
     7
 10
-422.82714999999979
 20
321.99090999999981
 30
0.0
 11
-422.82714999999979
 21
441.99094000000002
 31
0.0
  0
LINE
  5
A12
  8
0
  6
CONTINUOUS
 62
     7
 10
-422.82714999999979
 20
437.51727
 30
0.0
 11
-390.82711999999992
 21
437.51727
 31
0.0
  0
LINE
  5
A13
  8
0
  6
CONTINUOUS
 62
     7
 10
-422.82714999999979
 20
326.46460000000002
 30
0.0
 11
-390.82711999999992
 21
326.46460000000002
 31
0.0
  0
LINE
  5
A14
  8
0
  6
CONTINUOUS
 62
     7
 10
-428.82715000000002
 20
324.09636999999998
 30
0.0
 11
-428.82715000000002
 21
439.88549999999998
 31
0.0
  0
LINE
  5
A15
  8
0
  6
CONTINUOUS
 62
     7
 10
-390.82711999999992
 20
321.15294999999992
 30
0.0
 11
-426.87945999999988
 21
322.09705000000002
 31
0.0
  0
LINE
  5
A16
  8
0
  6
CONTINUOUS
 62
     7
 10
-426.87948999999992
 20
441.88482999999991
 30
0.0
 11
-390.82711999999992
 21
442.82889
 31
0.0
  0
LINE
  5
A17
  8
0
  6
CONTINUOUS
 62
     7
 10
-446.82715000000002
 20
325.49090999999987
 30
0.0
 11
-446.82715000000002
 21
438.49094000000002
 31
0.0
  0
LINE
  5
A18
  8
0
  6
CONTINUOUS
 62
     7
 10
-446.82711999999998
 20
438.49094000000002
 30
0.0
 11
-436.83278999999987
 21
438.75261999999992
 31
0.0
  0
LINE
  5
A19
  8
0
  6
CONTINUOUS
 62
     7
 10
-437.82715000000002
 20
430.17523
 30
0.0
 11
-437.82715000000002
 21
437.02385999999939
 31
0.0
  0
LINE
  5
A1A
  8
0
  6
CONTINUOUS
 62
     7
 10
-435.87948999999992
 20
439.02319
 30
0.0
 11
-430.19845999999978
 21
439.17196999999999
 31
0.0
  0
LINE
  5
A1B
  8
0
  6
CONTINUOUS
 62
     7
 10
-446.82715000000002
 20
427.99124
 30
0.0
 11
-430.77477999999991
 21
428.41155999999989
 31
0.0
  0
LINE
  5
A1C
  8
0
  6
CONTINUOUS
 62
     7
 10
-435.87948999999992
 20
324.95867999999967
 30
0.0
 11
-430.19848999999988
 21
324.80991
 31
0.0
  0
LINE
  5
A1D
  8
0
  6
CONTINUOUS
 62
     7
 10
-446.82711999999998
 20
325.4909399999998
 30
0.0
 11
-436.83278999999987
 21
325.22921999999983
 31
0.0
  0
LINE
  5
A1E
  8
0
  6
CONTINUOUS
 62
     7
 10
-437.82715000000002
 20
333.80664000000002
 30
0.0
 11
-437.82715000000002
 21
326.95797999999968
 31
0.0
  0
LINE
  5
A1F
  8
0
  6
CONTINUOUS
 62
     7
 10
-446.82711999999998
 20
335.9906299999999
 30
0.0
 11
-430.77477999999991
 21
335.57027999999991
 31
0.0
  0
LINE
  5
A20
  8
0
  6
CONTINUOUS
 62
     3
 10
-555.10004000000004
 20
316.49090999999999
 30
0.0
 11
-475.10015999999939
 21
316.49090999999999
 31
0.0
  0
LINE
  5
A21
  8
0
  6
CONTINUOUS
 62
     3
 10
-475.10015999999939
 20
316.49090999999999
 30
0.0
 11
-475.10015999999939
 21
309.49090999999981
 31
0.0
  0
LINE
  5
A22
  8
0
  6
CONTINUOUS
 62
     3
 10
-476.60016000000002
 20
292.99090999999981
 30
0.0
 11
-476.60016000000002
 21
309.49090999999981
 31
0.0
  0
LINE
  5
A23
  8
0
  6
CONTINUOUS
 62
     3
 10
-534.60015999999996
 20
305.49090999999981
 30
0.0
 11
-534.60015999999996
 21
312.99090999999987
 31
0.0
  0
LINE
  5
A24
  8
0
  6
CONTINUOUS
 62
     3
 10
-549.60004000000004
 20
312.99090999999987
 30
0.0
 11
-549.60004000000004
 21
305.49090999999981
 31
0.0
  0
LINE
  5
A25
  8
0
  6
CONTINUOUS
 62
     3
 10
-553.60004000000004
 20
312.99090999999987
 30
0.0
 11
-553.60004000000004
 21
292.99090999999981
 31
0.0
  0
LINE
  5
A26
  8
0
  6
CONTINUOUS
 62
     3
 10
-524.40015000000005
 20
289.99090999999981
 30
0.0
 11
-488.80016999999998
 21
289.99090999999981
 31
0.0
  0
LINE
  5
A27
  8
0
  6
CONTINUOUS
 62
     3
 10
-553.60004000000004
 20
292.99090999999981
 30
0.0
 11
-476.60016000000002
 21
292.99090999999981
 31
0.0
  0
LINE
  5
A28
  8
0
  6
CONTINUOUS
 62
     3
 10
-553.60004000000004
 20
309.49090999999981
 30
0.0
 11
-549.60004000000004
 21
309.49090999999981
 31
0.0
  0
LINE
  5
A29
  8
0
  6
CONTINUOUS
 62
     3
 10
-483.60012999999992
 20
292.99088
 30
0.0
 11
-488.80014
 21
289.99088
 31
0.0
  0
LINE
  5
A2A
  8
0
  6
CONTINUOUS
 62
     3
 10
-524.40015000000005
 20
289.9909399999998
 30
0.0
 11
-529.6001
 21
292.99093999999991
 31
0.0
  0
LINE
  5
A2B
  8
0
  6
CONTINUOUS
 62
     3
 10
-557.10004000000004
 20
312.99090999999987
 30
0.0
 11
-557.10004000000004
 21
297.99187999999992
 31
0.0
  0
LINE
  5
A2C
  8
0
  6
CONTINUOUS
 62
     3
 10
-553.60004000000004
 20
297.99187999999992
 30
0.0
 11
-557.10004000000004
 21
297.99187999999992
 31
0.0
  0
LINE
  5
A2D
  8
0
  6
CONTINUOUS
 62
     3
 10
-538.10015999999985
 20
312.99090999999987
 30
0.0
 11
-538.10015999999985
 21
305.49090999999981
 31
0.0
  0
LINE
  5
A2E
  8
0
  6
CONTINUOUS
 62
     3
 10
-546.10004000000004
 20
312.99090999999987
 30
0.0
 11
-546.10004000000004
 21
305.49090999999981
 31
0.0
  0
LINE
  5
A2F
  8
0
  6
CONTINUOUS
 62
     3
 10
-534.60015999999996
 20
309.49090999999981
 30
0.0
 11
-475.10015999999939
 21
309.49090999999981
 31
0.0
  0
LINE
  5
A30
  8
0
  6
CONTINUOUS
 62
     3
 10
-557.10004000000004
 20
312.99090999999987
 30
0.0
 11
-475.10015999999939
 21
312.99090999999987
 31
0.0
  0
LINE
  5
A31
  8
0
  6
CONTINUOUS
 62
     3
 10
-555.10004000000004
 20
316.49090999999999
 30
0.0
 11
-555.10004000000004
 21
312.99090999999987
 31
0.0
  0
LINE
  5
A32
  8
0
  6
CONTINUOUS
 62
     7
 10
-476.32715000000002
 20
317.49090999999981
 30
0.0
 11
-476.32715000000002
 21
316.49090999999999
 31
0.0
  0
LINE
  5
A33
  8
0
  6
CONTINUOUS
 62
     7
 10
-535.32714999999985
 20
317.49090999999981
 30
0.0
 11
-535.32714999999985
 21
316.49090999999999
 31
0.0
  0
LINE
  5
A34
  8
0
  6
CONTINUOUS
 62
     7
 10
-456.62139999999999
 20
426.91980000000001
 30
0.0
 11
-460.76711999999992
 21
442.40090999999978
 31
0.0
  0
LINE
  5
A35
  8
0
  6
CONTINUOUS
 62
     7
 10
-456.62142999999992
 20
426.00979999999998
 30
0.0
 11
-460.76715000000002
 21
441.49090999999999
 31
0.0
  0
LINE
  5
A36
  8
0
  6
CONTINUOUS
 62
     7
 10
-456.62142999999992
 20
424.15982000000002
 30
0.0
 11
-460.76715000000002
 21
439.64095999999989
 31
0.0
  0
LINE
  5
A37
  8
0
  6
CONTINUOUS
 62
     7
 10
-454.82715000000002
 20
437.99090999999987
 30
0.0
 11
-454.82715000000002
 21
325.99090999999981
 31
0.0
  0
LINE
  5
A38
  8
0
  6
CONTINUOUS
 62
     7
 10
-576.82714999999985
 20
430.01092999999992
 30
0.0
 11
-576.82714999999985
 21
386.99090999999999
 31
0.0
  0
LINE
  5
A39
  8
0
  6
CONTINUOUS
 62
     7
 10
-574.55713000000003
 20
431.74090999999987
 30
0.0
 11
-572.32714999999996
 21
431.74090999999987
 31
0.0
  0
LINE
  5
A3A
  8
0
  6
CONTINUOUS
 62
     7
 10
-574.62714000000017
 20
417.68084999999991
 30
0.0
 11
-572.52715999999998
 21
417.68084999999991
 31
0.0
  0
LINE
  5
A3B
  8
0
  6
CONTINUOUS
 62
     7
 10
-575.05713000000003
 20
431.61086999999998
 30
0.0
 11
-576.32709
 21
430.87087999999989
 31
0.0
  0
LINE
  5
A3C
  8
0
  6
CONTINUOUS
 62
     7
 10
-575.06719999999984
 20
429.49096999999989
 30
0.0
 11
-576.34717000000001
 21
428.72095000000002
 31
0.0
  0
LINE
  5
A3D
  8
0
  6
CONTINUOUS
 62
     7
 10
-575.07720999999981
 20
424.9509299999998
 30
0.0
 11
-576.37720000000002
 21
424.10095000000001
 31
0.0
  0
LINE
  5
A3E
  8
0
  6
CONTINUOUS
 62
     7
 10
-575.01715000000002
 20
417.60091999999997
 30
0.0
 11
-576.21709999999985
 21
417.09091000000001
 31
0.0
  0
LINE
  5
A3F
  8
0
  6
CONTINUOUS
 62
     7
 10
-574.54711999999995
 20
429.63092
 30
0.0
 11
-571.82714999999985
 21
429.63092
 31
0.0
  0
LINE
  5
A40
  8
0
  6
CONTINUOUS
 62
     7
 10
-574.52710000000002
 20
425.12090999999992
 30
0.0
 11
-571.82714999999985
 21
425.12090999999992
 31
0.0
  0
LINE
  5
A41
  8
0
  6
CONTINUOUS
 62
     7
 10
-574.67711999999995
 20
415.73090000000002
 30
0.0
 11
-572.82714999999985
 21
415.73090000000002
 31
0.0
  0
LINE
  5
A42
  8
0
  6
CONTINUOUS
 62
     7
 10
-574.55713000000003
 20
423.98090000000002
 30
0.0
 11
-572.82714999999985
 21
423.98090000000002
 31
0.0
  0
LINE
  5
A43
  8
0
  6
CONTINUOUS
 62
     7
 10
-574.57714999999996
 20
428.49090999999999
 30
0.0
 11
-572.82714999999985
 21
428.49090999999999
 31
0.0
  0
LINE
  5
A44
  8
0
  6
CONTINUOUS
 62
     7
 10
-574.58715999999981
 20
430.59088000000003
 30
0.0
 11
-572.32714999999996
 21
430.59088000000003
 31
0.0
  0
LINE
  5
A45
  8
0
  6
CONTINUOUS
 62
     7
 10
-575.05718999999965
 20
423.84093999999999
 30
0.0
 11
-576.33715999999981
 21
423.09093999999988
 31
0.0
  0
LINE
  5
A46
  8
0
  6
CONTINUOUS
 62
     7
 10
-574.96715999999981
 20
415.69094999999999
 30
0.0
 11
-576.11712999999986
 21
415.34093999999999
 31
0.0
  0
LINE
  5
A47
  8
0
  6
CONTINUOUS
 62
     7
 10
-575.03716999999995
 20
430.49090999999987
 30
0.0
 11
-576.27715999999975
 21
429.86089999999979
 31
0.0
  0
LINE
  5
A48
  8
0
  6
CONTINUOUS
 62
     7
 10
-575.04711999999995
 20
428.38094999999998
 30
0.0
 11
-576.29711999999995
 21
427.71093999999988
 31
0.0
  0
LINE
  5
A49
  8
0
  6
CONTINUOUS
 62
     7
 10
-572.82714999999985
 20
407.99090999999999
 30
0.0
 11
-575.82714999999985
 21
407.99090999999999
 31
0.0
  0
LINE
  5
A4A
  8
0
  6
CONTINUOUS
 62
     7
 10
-572.82714999999985
 20
405.99090999999987
 30
0.0
 11
-575.82714999999985
 21
405.99090999999987
 31
0.0
  0
LINE
  5
A4B
  8
0
  6
CONTINUOUS
 62
     7
 10
-572.82714999999985
 20
397.99090999999999
 30
0.0
 11
-575.82714999999985
 21
397.99090999999999
 31
0.0
  0
LINE
  5
A4C
  8
0
  6
CONTINUOUS
 62
     7
 10
-572.82714999999985
 20
395.99090999999987
 30
0.0
 11
-575.82714999999985
 21
395.99090999999987
 31
0.0
  0
LINE
  5
A4D
  8
0
  6
CONTINUOUS
 62
     7
 10
-572.82714999999985
 20
387.99090999999987
 30
0.0
 11
-575.82714999999985
 21
387.99090999999987
 31
0.0
  0
LINE
  5
A4E
  8
0
  6
CONTINUOUS
 62
     7
 10
-572.82714999999985
 20
385.99090999999987
 30
0.0
 11
-575.82714999999985
 21
385.99090999999987
 31
0.0
  0
LINE
  5
A4F
  8
0
  6
CONTINUOUS
 62
     7
 10
-574.82714999999985
 20
397.60088999999999
 30
0.0
 11
-574.82714999999985
 21
396.39092999999991
 31
0.0
  0
LINE
  5
A50
  8
0
  6
CONTINUOUS
 62
     7
 10
-574.82714999999985
 20
387.60088999999999
 30
0.0
 11
-574.82714999999985
 21
386.44085999999987
 31
0.0
  0
LINE
  5
A51
  8
0
  6
CONTINUOUS
 62
     7
 10
-574.82714999999985
 20
407.62090999999981
 30
0.0
 11
-574.82714999999985
 21
406.25092000000001
 31
0.0
  0
LINE
  5
A52
  8
0
  6
CONTINUOUS
 62
     7
 10
-574.82714999999985
 20
417.38091999999989
 30
0.0
 11
-574.82714999999985
 21
416.32085999999993
 31
0.0
  0
LINE
  5
A53
  8
0
  6
CONTINUOUS
 62
     7
 10
-574.82714999999985
 20
424.82085999999993
 30
0.0
 11
-574.82714999999985
 21
424.35088999999999
 31
0.0
  0
LINE
  5
A54
  8
0
  6
CONTINUOUS
 62
     7
 10
-574.82714999999985
 20
429.39093000000003
 30
0.0
 11
-574.82714999999985
 21
428.84088000000003
 31
0.0
  0
LINE
  5
A55
  8
0
  6
CONTINUOUS
 62
     7
 10
-574.82714999999985
 20
431.49090999999999
 30
0.0
 11
-574.82714999999985
 21
430.96087999999992
 31
0.0
  0
LINE
  5
A56
  8
0
  6
CONTINUOUS
 62
     7
 10
-578.32714999999985
 20
401.99090999999987
 30
0.0
 11
-578.32714999999985
 21
381.99090999999987
 31
0.0
  0
LINE
  5
A57
  8
0
  6
CONTINUOUS
 62
     7
 10
-578.32714999999985
 20
401.99088
 30
0.0
 11
-576.82714999999985
 21
402.12088
 31
0.0
  0
LINE
  5
A58
  8
0
  6
CONTINUOUS
 62
     7
 10
-578.32714999999985
 20
397.14092999999991
 30
0.0
 11
-576.82714999999985
 21
397.14092999999991
 31
0.0
  0
LINE
  5
A59
  8
0
  6
CONTINUOUS
 62
     7
 10
-578.32714999999985
 20
399.27093999999988
 30
0.0
 11
-576.82714999999985
 21
399.27093999999988
 31
0.0
  0
LINE
  5
A5A
  8
0
  6
CONTINUOUS
 62
     7
 10
-461.48712
 20
417.99090999999987
 30
0.0
 11
-560.46715999999992
 21
417.99090999999987
 31
0.0
  0
LINE
  5
A5B
  8
0
  6
CONTINUOUS
 62
     7
 10
-461.48712
 20
415.99090999999999
 30
0.0
 11
-560.46715999999992
 21
415.99090999999999
 31
0.0
  0
LINE
  5
A5C
  8
0
  6
CONTINUOUS
 62
     7
 10
-493.82714999999979
 20
407.99090999999999
 30
0.0
 11
-560.46715999999992
 21
407.99090999999999
 31
0.0
  0
LINE
  5
A5D
  8
0
  6
CONTINUOUS
 62
     7
 10
-461.49431999999979
 20
405.99090999999987
 30
0.0
 11
-560.46715999999992
 21
405.99090999999987
 31
0.0
  0
LINE
  5
A5E
  8
0
  6
CONTINUOUS
 62
     7
 10
-526.38842999999986
 20
397.99090999999999
 30
0.0
 11
-560.46715999999992
 21
397.99090999999999
 31
0.0
  0
LINE
  5
A5F
  8
0
  6
CONTINUOUS
 62
     7
 10
-526.38842999999986
 20
395.99090999999987
 30
0.0
 11
-560.46715999999992
 21
395.99090999999987
 31
0.0
  0
LINE
  5
A60
  8
0
  6
CONTINUOUS
 62
     7
 10
-526.38842999999986
 20
387.99090999999987
 30
0.0
 11
-560.46715999999992
 21
387.99090999999987
 31
0.0
  0
LINE
  5
A61
  8
0
  6
CONTINUOUS
 62
     7
 10
-526.38842999999986
 20
385.99090999999987
 30
0.0
 11
-560.46715999999992
 21
385.99090999999987
 31
0.0
  0
LINE
  5
A62
  8
0
  6
CONTINUOUS
 62
     7
 10
-561.14715999999976
 20
418.7108799999998
 30
0.0
 11
-458.00713999999999
 21
418.7108799999998
 31
0.0
  0
LINE
  5
A63
  8
0
  6
CONTINUOUS
 62
     7
 10
-561.14715999999976
 20
415.36090000000002
 30
0.0
 11
-493.8071299999998
 21
415.36090000000002
 31
0.0
  0
LINE
  5
A64
  8
0
  6
CONTINUOUS
 62
     7
 10
-561.36712999999997
 20
408.48089999999991
 30
0.0
 11
-493.82714999999979
 21
408.48089999999991
 31
0.0
  0
LINE
  5
A65
  8
0
  6
CONTINUOUS
 62
     7
 10
-561.36712999999997
 20
405.5509599999998
 30
0.0
 11
-457.79290999999989
 21
405.5509599999998
 31
0.0
  0
LINE
  5
A66
  8
0
  6
CONTINUOUS
 62
     7
 10
-561.49712999999986
 20
398.33087
 30
0.0
 11
-525.16845999999987
 21
398.33087
 31
0.0
  0
LINE
  5
A67
  8
0
  6
CONTINUOUS
 62
     7
 10
-561.49712999999986
 20
395.67095999999992
 30
0.0
 11
-525.16845999999987
 21
395.67095999999992
 31
0.0
  0
LINE
  5
A68
  8
0
  6
CONTINUOUS
 62
     7
 10
-561.55713000000003
 20
388.26092999999997
 30
0.0
 11
-525.10845999999992
 21
388.26092999999997
 31
0.0
  0
LINE
  5
A69
  8
0
  6
CONTINUOUS
 62
     7
 10
-561.55713000000003
 20
385.73090000000002
 30
0.0
 11
-525.10845999999992
 21
385.73090000000002
 31
0.0
  0
LINE
  5
A6A
  8
0
  6
CONTINUOUS
 62
     7
 10
-561.55713000000003
 20
378.26092999999992
 30
0.0
 11
-525.10845999999992
 21
378.26092999999992
 31
0.0
  0
LINE
  5
A6B
  8
0
  6
CONTINUOUS
 62
     7
 10
-526.38842999999986
 20
377.99090999999987
 30
0.0
 11
-560.46715999999992
 21
377.99090999999987
 31
0.0
  0
LINE
  5
A6C
  8
0
  6
CONTINUOUS
 62
     7
 10
-526.38842999999986
 20
375.99090999999987
 30
0.0
 11
-560.46715999999992
 21
375.99090999999987
 31
0.0
  0
LINE
  5
A6D
  8
0
  6
CONTINUOUS
 62
     7
 10
-561.55713000000003
 20
375.72089
 30
0.0
 11
-525.10845999999992
 21
375.72089
 31
0.0
  0
LINE
  5
A6E
  8
0
  6
CONTINUOUS
 62
     7
 10
-561.49712999999986
 20
368.31085000000002
 30
0.0
 11
-525.16845999999987
 21
368.31085000000002
 31
0.0
  0
LINE
  5
A6F
  8
0
  6
CONTINUOUS
 62
     7
 10
-526.38842999999986
 20
367.99090999999987
 30
0.0
 11
-560.46715999999992
 21
367.99090999999987
 31
0.0
  0
LINE
  5
A70
  8
0
  6
CONTINUOUS
 62
     7
 10
-526.38842999999986
 20
365.99090999999999
 30
0.0
 11
-560.46715999999992
 21
365.99090999999999
 31
0.0
  0
LINE
  5
A71
  8
0
  6
CONTINUOUS
 62
     7
 10
-561.49712999999986
 20
365.65093999999999
 30
0.0
 11
-525.15588000000002
 21
365.65093999999999
 31
0.0
  0
LINE
  5
A72
  8
0
  6
CONTINUOUS
 62
     7
 10
-461.49431999999979
 20
357.99090999999999
 30
0.0
 11
-560.46715999999992
 21
357.99090999999999
 31
0.0
  0
LINE
  5
A73
  8
0
  6
CONTINUOUS
 62
     7
 10
-561.36712999999997
 20
358.43085000000002
 30
0.0
 11
-457.79290999999989
 21
358.43085000000002
 31
0.0
  0
LINE
  5
A74
  8
0
  6
CONTINUOUS
 62
     7
 10
-493.82714999999979
 20
355.99090999999999
 30
0.0
 11
-560.46715999999992
 21
355.99090999999999
 31
0.0
  0
LINE
  5
A75
  8
0
  6
CONTINUOUS
 62
     7
 10
-561.36712999999997
 20
355.50092000000001
 30
0.0
 11
-493.82714999999979
 21
355.50092000000001
 31
0.0
  0
LINE
  5
A76
  8
0
  6
CONTINUOUS
 62
     7
 10
-461.48712
 20
347.99090999999987
 30
0.0
 11
-505.82715000000002
 21
347.99090999999987
 31
0.0
  0
LINE
  5
A77
  8
0
  6
CONTINUOUS
 62
     7
 10
-461.48712
 20
345.99090999999987
 30
0.0
 11
-505.82715000000002
 21
345.99090999999987
 31
0.0
  0
LINE
  5
A78
  8
0
  6
CONTINUOUS
 62
     7
 10
-561.14715999999976
 20
345.27093999999983
 30
0.0
 11
-505.82715000000002
 21
345.27093999999983
 31
0.0
  0
LINE
  5
A79
  8
0
  6
CONTINUOUS
 62
     7
 10
-458.00713999999999
 20
348.62090999999992
 30
0.0
 11
-475.84710999999999
 21
348.62090999999992
 31
0.0
  0
LINE
  5
A7A
  8
0
  6
CONTINUOUS
 62
     7
 10
-574.62714000000017
 20
346.30095999999992
 30
0.0
 11
-572.52715999999998
 21
346.30095999999992
 31
0.0
  0
LINE
  5
A7B
  8
0
  6
CONTINUOUS
 62
     7
 10
-575.01709000000005
 20
346.38094999999993
 30
0.0
 11
-576.21709999999985
 21
346.90096999999992
 31
0.0
  0
LINE
  5
A7C
  8
0
  6
CONTINUOUS
 62
     7
 10
-574.67711999999995
 20
348.25091999999972
 30
0.0
 11
-572.82714999999985
 21
348.25091999999972
 31
0.0
  0
LINE
  5
A7D
  8
0
  6
CONTINUOUS
 62
     7
 10
-574.96715999999981
 20
348.29088999999982
 30
0.0
 11
-576.11712999999986
 21
348.65091000000001
 31
0.0
  0
LINE
  5
A7E
  8
0
  6
CONTINUOUS
 62
     7
 10
-572.82714999999985
 20
355.99090999999999
 30
0.0
 11
-575.82714999999985
 21
355.99090999999999
 31
0.0
  0
LINE
  5
A7F
  8
0
  6
CONTINUOUS
 62
     7
 10
-572.82714999999985
 20
357.99090999999999
 30
0.0
 11
-575.82714999999985
 21
357.99090999999999
 31
0.0
  0
LINE
  5
A80
  8
0
  6
CONTINUOUS
 62
     7
 10
-572.82714999999985
 20
365.99090999999999
 30
0.0
 11
-575.82714999999985
 21
365.99090999999999
 31
0.0
  0
LINE
  5
A81
  8
0
  6
CONTINUOUS
 62
     7
 10
-572.82714999999985
 20
367.99090999999987
 30
0.0
 11
-575.82714999999985
 21
367.99090999999987
 31
0.0
  0
LINE
  5
A82
  8
0
  6
CONTINUOUS
 62
     7
 10
-572.82714999999985
 20
375.99090999999987
 30
0.0
 11
-575.82714999999985
 21
375.99090999999987
 31
0.0
  0
LINE
  5
A83
  8
0
  6
CONTINUOUS
 62
     7
 10
-572.82714999999985
 20
377.99090999999987
 30
0.0
 11
-575.82714999999985
 21
377.99090999999987
 31
0.0
  0
LINE
  5
A84
  8
0
  6
CONTINUOUS
 62
     7
 10
-574.82714999999985
 20
366.38092
 30
0.0
 11
-574.82714999999985
 21
367.60088999999988
 31
0.0
  0
LINE
  5
A85
  8
0
  6
CONTINUOUS
 62
     7
 10
-574.82714999999985
 20
376.38092
 30
0.0
 11
-574.82714999999985
 21
377.54095000000001
 31
0.0
  0
LINE
  5
A86
  8
0
  6
CONTINUOUS
 62
     7
 10
-574.82714999999985
 20
356.36090000000002
 30
0.0
 11
-574.82714999999985
 21
357.73090000000002
 31
0.0
  0
LINE
  5
A87
  8
0
  6
CONTINUOUS
 62
     7
 10
-574.82714999999985
 20
346.60088999999982
 30
0.0
 11
-574.82714999999985
 21
347.66095000000001
 31
0.0
  0
LINE
  5
A88
  8
0
  6
CONTINUOUS
 62
     7
 10
-578.32714999999985
 20
361.99090999999999
 30
0.0
 11
-578.32714999999985
 21
381.99090999999987
 31
0.0
  0
LINE
  5
A89
  8
0
  6
CONTINUOUS
 62
     7
 10
-578.32714999999985
 20
361.99088
 30
0.0
 11
-576.82714999999985
 21
361.86086999999992
 31
0.0
  0
LINE
  5
A8A
  8
0
  6
CONTINUOUS
 62
     7
 10
-578.32714999999985
 20
366.84087999999991
 30
0.0
 11
-576.82714999999985
 21
366.84087999999991
 31
0.0
  0
LINE
  5
A8B
  8
0
  6
CONTINUOUS
 62
     7
 10
-578.32714999999985
 20
364.71087999999992
 30
0.0
 11
-576.82714999999985
 21
364.71087999999992
 31
0.0
  0
LINE
  5
A8C
  8
0
  6
CONTINUOUS
 62
     7
 10
-561.14715999999976
 20
348.62090999999992
 30
0.0
 11
-493.8071299999998
 21
348.62090999999992
 31
0.0
  0
LINE
  5
A8D
  8
0
  6
CONTINUOUS
 62
     7
 10
-505.82715000000002
 20
347.99090999999987
 30
0.0
 11
-560.46715999999992
 21
347.99090999999987
 31
0.0
  0
LINE
  5
A8E
  8
0
  6
CONTINUOUS
 62
     7
 10
-505.82715000000002
 20
345.99090999999987
 30
0.0
 11
-560.46715999999992
 21
345.99090999999987
 31
0.0
  0
LINE
  5
A8F
  8
0
  6
CONTINUOUS
 62
     7
 10
-505.82715000000002
 20
345.27093999999983
 30
0.0
 11
-458.00713999999999
 21
345.27093999999983
 31
0.0
  0
LINE
  5
A90
  8
0
  6
CONTINUOUS
 62
     7
 10
-570.82714999999985
 20
434.99090999999987
 30
0.0
 11
-570.82714999999985
 21
328.99090999999999
 31
0.0
  0
LINE
  5
A91
  8
0
  6
CONTINUOUS
 62
     7
 10
-562.82714999999985
 20
434.99090999999987
 30
0.0
 11
-562.82714999999985
 21
328.99090999999999
 31
0.0
  0
LINE
  5
A92
  8
0
  6
CONTINUOUS
 62
     7
 10
-576.33715999999981
 20
340.89089999999982
 30
0.0
 11
-576.35717999999997
 21
340.90087999999992
 31
0.0
  0
LINE
  5
A93
  8
0
  6
CONTINUOUS
 62
     7
 10
-571.82714999999985
 20
431.99090999999999
 30
0.0
 11
-571.82714999999985
 21
331.99090999999981
 31
0.0
  0
LINE
  5
A94
  8
0
  6
CONTINUOUS
 62
     7
 10
-571.82714999999985
 20
431.99090999999999
 30
0.0
 11
-570.82714999999985
 21
431.99090999999999
 31
0.0
  0
LINE
  5
A95
  8
0
  6
CONTINUOUS
 62
     7
 10
-570.82714999999985
 20
434.99090999999987
 30
0.0
 11
-562.82714999999985
 21
434.99090999999987
 31
0.0
  0
LINE
  5
A96
  8
0
  6
CONTINUOUS
 62
     7
 10
-570.12714000000017
 20
425.18085000000002
 30
0.0
 11
-563.89715999999964
 21
425.18085000000002
 31
0.0
  0
LINE
  5
A97
  8
0
  6
CONTINUOUS
 62
     7
 10
-454.82715000000002
 20
427.99090999999999
 30
0.0
 11
-446.82715000000002
 21
427.99090999999999
 31
0.0
  0
LINE
  5
A98
  8
0
  6
CONTINUOUS
 62
     7
 10
-454.82715000000002
 20
413.93085000000002
 30
0.0
 11
-446.82715000000002
 21
413.93085000000002
 31
0.0
  0
LINE
  5
A99
  8
0
  6
CONTINUOUS
 62
     7
 10
-454.82715000000002
 20
437.99090999999987
 30
0.0
 11
-446.82715000000002
 21
437.99090999999987
 31
0.0
  0
LINE
  5
A9A
  8
0
  6
CONTINUOUS
 62
     7
 10
-559.61712999999986
 20
438.27094
 30
0.0
 11
-462.69713999999999
 21
438.27094
 31
0.0
  0
LINE
  5
A9B
  8
0
  6
CONTINUOUS
 62
     7
 10
-562.82714999999985
 20
430.09097000000003
 30
0.0
 11
-561.58715999999993
 21
436.65096999999992
 31
0.0
  0
LINE
  5
A9C
  8
0
  6
CONTINUOUS
 62
     7
 10
-557.46709999999985
 20
418.64092999999991
 30
0.0
 11
-562.82709
 21
430.09090999999989
 31
0.0
  0
LINE
  5
A9D
  8
0
  6
CONTINUOUS
 62
     7
 10
-557.46715999999992
 20
345.34087999999991
 30
0.0
 11
-562.82709
 21
333.90096999999992
 31
0.0
  0
LINE
  5
A9E
  8
0
  6
CONTINUOUS
 62
     7
 10
-559.57714999999985
 20
441.12090999999992
 30
0.0
 11
-462.69713999999999
 21
441.12090999999992
 31
0.0
  0
LINE
  5
A9F
  8
0
  6
CONTINUOUS
 62
     7
 10
-559.55713000000003
 20
442.97089
 30
0.0
 11
-462.69713999999999
 21
442.97089
 31
0.0
  0
LINE
  5
AA0
  8
0
  6
CONTINUOUS
 62
     7
 10
-559.53710999999998
 20
443.88092
 30
0.0
 11
-462.69707999999991
 21
443.88092
 31
0.0
  0
LINE
  5
AA1
  8
0
  6
CONTINUOUS
 62
     7
 10
-562.82709
 20
431.43093999999991
 30
0.0
 11
-561.54711999999995
 21
439.44089000000002
 31
0.0
  0
LINE
  5
AA2
  8
0
  6
CONTINUOUS
 62
     7
 10
-562.82709
 20
432.7808799999998
 30
0.0
 11
-561.53710999999987
 21
441.27096999999992
 31
0.0
  0
LINE
  5
AA3
  8
0
  6
CONTINUOUS
 62
     7
 10
-562.82714999999985
 20
432.78090999999989
 30
0.0
 11
-561.51715000000002
 21
442.16095000000001
 31
0.0
  0
LINE
  5
AA4
  8
0
  6
CONTINUOUS
 62
     7
 10
-456.62707999999981
 20
421.33086999999989
 30
0.0
 11
-460.76709
 21
436.79088999999988
 31
0.0
  0
LINE
  5
AA5
  8
0
  6
CONTINUOUS
 62
     7
 10
-460.28710999999993
 20
434.99090999999987
 30
0.0
 11
-454.82715000000002
 21
434.99090999999987
 31
0.0
  0
LINE
  5
AA6
  8
0
  6
CONTINUOUS
 62
     7
 10
-576.82714999999985
 20
333.97089
 30
0.0
 11
-576.82714999999985
 21
376.99090999999999
 31
0.0
  0
LINE
  5
AA7
  8
0
  6
CONTINUOUS
 62
     7
 10
-574.55713000000003
 20
332.24090999999981
 30
0.0
 11
-572.32714999999996
 21
332.24090999999981
 31
0.0
  0
LINE
  5
AA8
  8
0
  6
CONTINUOUS
 62
     7
 10
-575.05713000000003
 20
332.38091999999989
 30
0.0
 11
-576.32709
 21
333.11090000000002
 31
0.0
  0
LINE
  5
AA9
  8
0
  6
CONTINUOUS
 62
     7
 10
-575.06708000000003
 20
334.49090999999981
 30
0.0
 11
-576.34710999999982
 21
335.26092999999992
 31
0.0
  0
LINE
  5
AAA
  8
0
  6
CONTINUOUS
 62
     7
 10
-575.07720999999981
 20
339.03087999999991
 30
0.0
 11
-576.37720000000002
 21
339.88088999999991
 31
0.0
  0
LINE
  5
AAB
  8
0
  6
CONTINUOUS
 62
     7
 10
-574.54711999999995
 20
334.35088999999982
 30
0.0
 11
-571.82714999999985
 21
334.35088999999982
 31
0.0
  0
LINE
  5
AAC
  8
0
  6
CONTINUOUS
 62
     7
 10
-574.52710000000002
 20
338.87090999999992
 30
0.0
 11
-571.82714999999985
 21
338.87090999999992
 31
0.0
  0
LINE
  5
AAD
  8
0
  6
CONTINUOUS
 62
     7
 10
-574.55713000000003
 20
340.01092999999997
 30
0.0
 11
-572.82714999999985
 21
340.01092999999997
 31
0.0
  0
LINE
  5
AAE
  8
0
  6
CONTINUOUS
 62
     7
 10
-574.57714999999996
 20
335.49090999999981
 30
0.0
 11
-572.82714999999985
 21
335.49090999999981
 31
0.0
  0
LINE
  5
AAF
  8
0
  6
CONTINUOUS
 62
     7
 10
-574.58715999999981
 20
333.39092999999991
 30
0.0
 11
-572.32714999999996
 21
333.39092999999991
 31
0.0
  0
LINE
  5
AB0
  8
0
  6
CONTINUOUS
 62
     7
 10
-575.05713000000003
 20
340.14096000000001
 30
0.0
 11
-576.33709999999985
 21
340.89092999999991
 31
0.0
  0
LINE
  5
AB1
  8
0
  6
CONTINUOUS
 62
     7
 10
-575.03716999999995
 20
333.50088999999991
 30
0.0
 11
-576.27715999999975
 21
334.13088999999991
 31
0.0
  0
LINE
  5
AB2
  8
0
  6
CONTINUOUS
 62
     7
 10
-575.04711999999995
 20
335.61090000000002
 30
0.0
 11
-576.29711999999995
 21
336.27089999999993
 31
0.0
  0
LINE
  5
AB3
  8
0
  6
CONTINUOUS
 62
     7
 10
-574.82714999999985
 20
339.16095000000001
 30
0.0
 11
-574.82714999999985
 21
339.63092
 31
0.0
  0
LINE
  5
AB4
  8
0
  6
CONTINUOUS
 62
     7
 10
-574.82714999999985
 20
334.59087999999991
 30
0.0
 11
-574.82714999999985
 21
335.14092999999991
 31
0.0
  0
LINE
  5
AB5
  8
0
  6
CONTINUOUS
 62
     7
 10
-574.82714999999985
 20
332.49090999999981
 30
0.0
 11
-574.82714999999985
 21
333.02094
 31
0.0
  0
LINE
  5
AB6
  8
0
  6
CONTINUOUS
 62
     7
 10
-571.82714999999985
 20
331.99090999999981
 30
0.0
 11
-570.82714999999985
 21
331.99090999999981
 31
0.0
  0
LINE
  5
AB7
  8
0
  6
CONTINUOUS
 62
     7
 10
-570.82714999999985
 20
328.99090999999999
 30
0.0
 11
-562.82714999999985
 21
328.99090999999999
 31
0.0
  0
LINE
  5
AB8
  8
0
  6
CONTINUOUS
 62
     7
 10
-570.12714000000017
 20
338.80095999999992
 30
0.0
 11
-563.89715999999964
 21
338.80095999999992
 31
0.0
  0
LINE
  5
AB9
  8
0
  6
CONTINUOUS
 62
     7
 10
-454.82715000000002
 20
335.99090999999981
 30
0.0
 11
-446.82715000000002
 21
335.99090999999981
 31
0.0
  0
LINE
  5
ABA
  8
0
  6
CONTINUOUS
 62
     7
 10
-454.82715000000002
 20
325.99090999999981
 30
0.0
 11
-446.82715000000002
 21
325.99090999999981
 31
0.0
  0
LINE
  5
ABB
  8
0
  6
CONTINUOUS
 62
     7
 10
-559.61712999999986
 20
325.71087999999992
 30
0.0
 11
-462.69713999999999
 21
325.71087999999992
 31
0.0
  0
LINE
  5
ABC
  8
0
  6
CONTINUOUS
 62
     7
 10
-562.82714999999985
 20
333.90087999999992
 30
0.0
 11
-561.58709999999985
 21
327.34087999999991
 31
0.0
  0
LINE
  5
ABD
  8
0
  6
CONTINUOUS
 62
     7
 10
-559.92089999999996
 20
322.86090000000002
 30
0.0
 11
-537.42902000000004
 21
322.86090000000002
 31
0.0
  0
LINE
  5
ABE
  8
0
  6
CONTINUOUS
 62
     7
 10
-562.82714999999985
 20
332.55086999999992
 30
0.0
 11
-561.54711999999995
 21
324.55095999999992
 31
0.0
  0
LINE
  5
ABF
  8
0
  6
CONTINUOUS
 62
     7
 10
-562.82714999999985
 20
331.21096999999992
 30
0.0
 11
-561.81786999999986
 21
324.56078999999988
 31
0.0
  0
LINE
  5
AC0
  8
0
  6
CONTINUOUS
 62
     7
 10
-562.82709
 20
331.21093999999999
 30
0.0
 11
-561.90166999999985
 21
324.58434999999992
 31
0.0
  0
LINE
  5
AC1
  8
0
  6
CONTINUOUS
 62
     7
 10
-456.62142999999992
 20
342.67205999999987
 30
0.0
 11
-460.76715000000002
 21
327.19092000000001
 31
0.0
  0
LINE
  5
AC2
  8
0
  6
CONTINUOUS
 62
     7
 10
-460.2851
 20
328.99090999999999
 30
0.0
 11
-454.82715000000002
 21
328.99090999999999
 31
0.0
  0
LINE
  5
AC3
  8
0
  6
CONTINUOUS
 62
     7
 10
-454.82715000000002
 20
350.05095999999992
 30
0.0
 11
-446.82715000000002
 21
350.05095999999992
 31
0.0
  0
LINE
  5
AC4
  8
0
  6
CONTINUOUS
 62
     3
 10
-535.82714999999985
 20
317.49090999999981
 30
0.0
 11
-536.0423599999998
 21
325.71096999999992
 31
0.0
  0
LINE
  5
AC5
  8
0
  6
CONTINUOUS
 62
     3
 10
-475.82711999999998
 20
317.49088
 30
0.0
 11
-475.61187999999999
 21
325.71096999999992
 31
0.0
  0
LINE
  5
AC6
  8
0
  6
CONTINUOUS
 62
     3
 10
-455.82715000000002
 20
328.99090999999999
 30
0.0
 11
-461.55288999999999
 21
320.17401000000001
 31
0.0
  0
LINE
  5
AC7
  8
0
  6
CONTINUOUS
 62
     7
 10
-475.82715000000002
 20
317.49090999999981
 30
0.0
 11
-535.82714999999985
 21
317.49090999999981
 31
0.0
  0
LINE
  5
AC8
  8
0
  6
CONTINUOUS
 62
     7
 10
-474.31353999999988
 20
319.49090999999981
 30
0.0
 11
-462.81090999999992
 21
319.49090999999981
 31
0.0
  0
LINE
  5
AC9
  8
0
  6
CONTINUOUS
 62
     7
 10
-476.84710999999999
 20
409.49090999999987
 30
0.0
 11
-476.84710999999999
 21
414.35088999999988
 31
0.0
  0
LINE
  5
ACA
  8
0
  6
CONTINUOUS
 62
     7
 10
-492.80712999999997
 20
409.49090999999987
 30
0.0
 11
-492.80712999999997
 21
414.35088999999988
 31
0.0
  0
LINE
  5
ACB
  8
0
  6
CONTINUOUS
 62
     7
 10
-477.3271499999999
 20
409.49090999999987
 30
0.0
 11
-477.3271499999999
 21
414.49090999999987
 31
0.0
  0
LINE
  5
ACC
  8
0
  6
CONTINUOUS
 62
     7
 10
-492.32715000000002
 20
409.49090999999987
 30
0.0
 11
-492.32715000000002
 21
414.49090999999987
 31
0.0
  0
LINE
  5
ACD
  8
0
  6
CONTINUOUS
 62
     7
 10
-520.82714999999985
 20
394.99090999999987
 30
0.0
 11
-457.82715000000002
 21
394.99090999999987
 31
0.0
  0
LINE
  5
ACE
  8
0
  6
CONTINUOUS
 62
     7
 10
-520.82714999999985
 20
361.49090999999987
 30
0.0
 11
-457.82715000000002
 21
361.49090999999987
 31
0.0
  0
LINE
  5
ACF
  8
0
  6
CONTINUOUS
 62
     7
 10
-520.82714999999985
 20
402.49090999999999
 30
0.0
 11
-457.82715000000002
 21
402.49090999999999
 31
0.0
  0
LINE
  5
AD0
  8
0
  6
CONTINUOUS
 62
     3
 10
-457.82715000000002
 20
402.49090999999999
 30
0.0
 11
-457.82715000000002
 21
361.49090999999987
 31
0.0
  0
LINE
  5
AD1
  8
0
  6
CONTINUOUS
 62
     3
 10
-520.82714999999985
 20
402.49090999999999
 30
0.0
 11
-520.82714999999985
 21
361.49090999999987
 31
0.0
  0
LINE
  5
AD2
  8
0
  6
CONTINUOUS
 62
     7
 10
-475.82715000000002
 20
408.48089999999991
 30
0.0
 11
-457.78143
 21
408.48089999999991
 31
0.0
  0
LINE
  5
AD3
  8
0
  6
CONTINUOUS
 62
     7
 10
-475.82715000000002
 20
355.51092999999992
 30
0.0
 11
-457.79290999999989
 21
355.51092999999992
 31
0.0
  0
LINE
  5
AD4
  8
0
  6
CONTINUOUS
 62
     7
 10
-476.84710999999999
 20
354.49090999999987
 30
0.0
 11
-476.84710999999999
 21
349.63092
 31
0.0
  0
LINE
  5
AD5
  8
0
  6
CONTINUOUS
 62
     7
 10
-492.80712999999997
 20
354.49090999999987
 30
0.0
 11
-492.80712999999997
 21
349.63092
 31
0.0
  0
LINE
  5
AD6
  8
0
  6
CONTINUOUS
 62
     7
 10
-477.3271499999999
 20
354.49090999999987
 30
0.0
 11
-477.3271499999999
 21
349.49090999999999
 31
0.0
  0
LINE
  5
AD7
  8
0
  6
CONTINUOUS
 62
     7
 10
-492.32715000000002
 20
354.49090999999987
 30
0.0
 11
-492.32715000000002
 21
349.49090999999999
 31
0.0
  0
LINE
  5
AD8
  8
0
  6
CONTINUOUS
 62
     7
 10
-461.49431999999979
 20
355.99090999999999
 30
0.0
 11
-475.82715000000002
 21
355.99090999999999
 31
0.0
  0
LINE
  5
AD9
  8
0
  6
CONTINUOUS
 62
     7
 10
-461.47997999999978
 20
407.99090999999999
 30
0.0
 11
-475.82715000000002
 21
407.99090999999999
 31
0.0
  0
LINE
  5
ADA
  8
0
  6
CONTINUOUS
 62
     3
 10
-475.84710999999999
 20
415.35088999999999
 30
0.0
 11
-458.00713999999999
 21
415.35088999999999
 31
0.0
  0
LINE
  5
ADB
  8
0
  6
CONTINUOUS
 62
     7
 10
-446.82715000000002
 20
350.05095999999992
 30
0.0
 11
-430.82715000000002
 21
350.05095999999992
 31
0.0
  0
LINE
  5
ADC
  8
0
  6
CONTINUOUS
 62
     7
 10
-446.82715000000002
 20
413.93085000000002
 30
0.0
 11
-430.82715000000002
 21
413.93085000000002
 31
0.0
  0
LINE
  5
ADD
  8
0
  6
CONTINUOUS
 62
     7
 10
-164.3900099999999
 20
69.256780000000191
 30
0.0
 11
-164.3900099999999
 21
75.030302000000191
 31
0.0
  0
LINE
  5
ADE
  8
0
  6
CONTINUOUS
 62
     7
 10
-90.299683000000002
 20
165.8131800000001
 30
0.0
 11
-90.299683000000002
 21
171.5866800000002
 31
0.0
  0
LINE
  5
ADF
  8
0
  6
CONTINUOUS
 62
     7
 10
-169.38999999999999
 20
77.917051000000185
 30
0.0
 11
-174.38999999999999
 21
75.030302000000191
 31
0.0
  0
LINE
  5
AE0
  8
0
  6
CONTINUOUS
 62
     7
 10
-126.17188
 20
69.256776000000201
 30
0.0
 11
-121.17188999999991
 21
66.370031000000196
 31
0.0
  0
LINE
  5
AE1
  8
0
  6
CONTINUOUS
 62
     7
 10
-169.39000999999999
 20
66.370061000000192
 30
0.0
 11
-164.3900099999999
 21
69.25680700000018
 31
0.0
  0
LINE
  5
AE2
  8
0
  6
CONTINUOUS
 62
     7
 10
-121.17188999999991
 20
66.370050000000191
 30
0.0
 11
-116.17188999999991
 21
69.25680300000019
 31
0.0
  0
LINE
  5
AE3
  8
0
  6
CONTINUOUS
 62
     7
 10
-100.29969
 20
171.5866800000002
 30
0.0
 11
-100.29969
 21
165.8131800000001
 31
0.0
  0
LINE
  5
AE4
  8
0
  6
CONTINUOUS
 62
     7
 10
-164.3900099999999
 20
75.030286000000189
 30
0.0
 11
-169.38999999999999
 21
77.917036000000195
 31
0.0
  0
LINE
  5
AE5
  8
0
  6
CONTINUOUS
 62
     7
 10
-95.299689999999984
 20
162.92643000000001
 30
0.0
 11
-90.299683000000002
 21
165.8131800000001
 31
0.0
  0
LINE
  5
AE6
  8
0
  6
CONTINUOUS
 62
     7
 10
-148.28093999999979
 20
159.34795000000011
 30
0.0
 11
-148.28093999999979
 21
153.3479500000002
 31
0.0
  0
LINE
  5
AE7
  8
0
  6
CONTINUOUS
 62
     7
 10
-148.28093999999979
 20
153.3479500000002
 30
0.0
 11
-142.28093999999999
 21
153.3479500000002
 31
0.0
  0
LINE
  5
AE8
  8
0
  6
CONTINUOUS
 62
     7
 10
-142.28093999999999
 20
153.3479500000002
 30
0.0
 11
-142.28093999999999
 21
159.34795000000011
 31
0.0
  0
LINE
  5
AE9
  8
0
  6
CONTINUOUS
 62
     7
 10
-142.28093999999999
 20
159.34795000000011
 30
0.0
 11
-148.28093999999979
 21
159.34795000000011
 31
0.0
  0
LINE
  5
AEA
  8
0
  6
CONTINUOUS
 62
     7
 10
-174.97943000000001
 20
114.82103500000019
 30
0.0
 11
-151.12766999999991
 21
90.969266000000133
 31
0.0
  0
LINE
  5
AEB
  8
0
  6
CONTINUOUS
 62
     7
 10
-169.76027999999999
 20
168.99886000000001
 30
0.0
 11
-191.10236
 21
190.34092000000001
 31
0.0
  0
LINE
  5
AEC
  8
0
  6
CENTER
 62
     7
 10
-197.61122
 20
95.017652000000197
 30
0.0
 11
-212.75941
 21
79.869455000000187
 31
0.0
  0
LINE
  5
AED
  8
0
  6
CONTINUOUS
 62
     1
 10
-145.2809399999999
 20
222.3479500000002
 30
0.0
 11
-125.28095
 21
222.3479500000002
 31
0.0
  0
LINE
  5
AEE
  8
0
  6
CONTINUOUS
 62
     1
 10
-109.95743
 20
81.847944000000197
 30
0.0
 11
-145.2809399999999
 21
81.847944000000197
 31
0.0
  0
LINE
  5
AEF
  8
0
  6
CONTINUOUS
 62
     1
 10
-180.6044599999999
 20
81.847944000000197
 30
0.0
 11
-145.2809399999999
 21
81.847944000000197
 31
0.0
  0
LINE
  5
AF0
  8
0
  6
CONTINUOUS
 62
     1
 10
-70.280944999999988
 20
147.34795
 30
0.0
 11
-70.280944999999988
 21
167.34794000000011
 31
0.0
  0
LINE
  5
AF1
  8
0
  6
CONTINUOUS
 62
     7
 10
-100.29969
 20
165.81316000000001
 30
0.0
 11
-95.299698000000006
 21
162.92641
 31
0.0
  0
LINE
  5
AF2
  8
0
  6
CONTINUOUS
 62
     7
 10
-174.38999999999999
 20
75.030302000000191
 30
0.0
 11
-174.38999999999999
 21
69.256780000000191
 31
0.0
  0
LINE
  5
AF3
  8
0
  6
CONTINUOUS
 62
     7
 10
-90.299689999999984
 20
171.5866800000002
 30
0.0
 11
-95.299689999999984
 21
174.4734200000002
 31
0.0
  0
LINE
  5
AF4
  8
0
  6
CONTINUOUS
 62
     7
 10
-195.26221000000001
 20
162.92643000000001
 30
0.0
 11
-190.26218999999969
 21
165.8131800000001
 31
0.0
  0
LINE
  5
AF5
  8
0
  6
CONTINUOUS
 62
     7
 10
-174.38999999999999
 20
69.256784000000195
 30
0.0
 11
-169.38999999999999
 21
66.3700350000002
 31
0.0
  0
LINE
  5
AF6
  8
0
  6
CONTINUOUS
 62
     7
 10
-116.17188999999991
 20
75.030286000000189
 30
0.0
 11
-121.17188
 21
77.917036000000195
 31
0.0
  0
LINE
  5
AF7
  8
0
  6
CONTINUOUS
 62
     7
 10
-121.17188999999991
 20
77.91706600000019
 30
0.0
 11
-126.17189999999999
 21
75.030313000000149
 31
0.0
  0
LINE
  5
AF8
  8
0
  6
CONTINUOUS
 62
     7
 10
-190.26218999999969
 20
165.8131800000001
 30
0.0
 11
-190.26218999999969
 21
171.5866800000002
 31
0.0
  0
LINE
  5
AF9
  8
0
  6
CONTINUOUS
 62
     7
 10
-190.26221000000001
 20
171.58666000000011
 30
0.0
 11
-195.26221000000001
 21
174.47341
 31
0.0
  0
LINE
  5
AFA
  8
0
  6
CONTINUOUS
 62
     7
 10
-195.26219
 20
174.4734200000002
 30
0.0
 11
-200.26219
 21
171.5866800000002
 31
0.0
  0
LINE
  5
AFB
  8
0
  6
CONTINUOUS
 62
     7
 10
-200.2622099999999
 20
171.5866800000002
 30
0.0
 11
-200.2622099999999
 21
165.8131800000001
 31
0.0
  0
LINE
  5
AFC
  8
0
  6
CONTINUOUS
 62
     7
 10
-200.2622099999999
 20
165.81316000000001
 30
0.0
 11
-195.26221000000001
 21
162.92641
 31
0.0
  0
LINE
  5
AFD
  8
0
  6
CONTINUOUS
 62
     7
 10
-95.299698000000006
 20
174.47345000000001
 30
0.0
 11
-100.29969
 21
171.58671000000001
 31
0.0
  0
LINE
  5
AFE
  8
0
  6
CONTINUOUS
 62
     7
 10
-116.17188999999991
 20
69.256780000000191
 30
0.0
 11
-116.17188999999991
 21
75.030302000000191
 31
0.0
  0
LINE
  5
AFF
  8
0
  6
CONTINUOUS
 62
     7
 10
-126.17189999999999
 20
75.030302000000191
 30
0.0
 11
-126.17189999999999
 21
69.256780000000191
 31
0.0
  0
LINE
  5
B00
  8
0
  6
CONTINUOUS
 62
     7
 10
-390.82711999999992
 20
446.22204999999991
 30
0.0
 11
-390.82711999999992
 21
317.77731
 31
0.0
  0
LINE
  5
B01
  8
0
  6
CENTER
 62
     7
 10
-383.15140000000002
 20
442.09500000000003
 30
0.0
 11
-360.22640999999987
 21
442.09500000000003
 31
0.0
  0
LINE
  5
B02
  8
0
  6
CONTINUOUS
 62
     7
 10
-169.76027999999999
 20
125.6970300000001
 30
0.0
 11
-191.10237000000001
 21
104.35494800000011
 31
0.0
  0
LINE
  5
B03
  8
0
  6
CONTINUOUS
 62
     7
 10
-363.82711999999992
 20
402.91806000000003
 30
0.0
 11
-363.41292999999968
 21
402.50387999999992
 31
0.0
  0
LINE
  5
B04
  8
0
  6
CONTINUOUS
 62
     7
 10
-167.15271000000001
 20
122.64775999999991
 30
0.0
 11
-188.2739399999999
 21
101.5265170000001
 31
0.0
  0
LINE
  5
B05
  8
0
  6
CENTER
 62
     7
 10
-92.950653000000003
 20
199.67821000000001
 30
0.0
 11
-77.802459999999982
 21
214.8264100000001
 31
0.0
  0
LINE
  5
B06
  8
0
  6
CONTINUOUS
 62
     7
 10
-103.93447
 20
162.3968400000002
 30
0.0
 11
-99.721535000000003
 21
150.8218700000001
 31
0.0
  0
LINE
  5
B07
  8
0
  6
CONTINUOUS
 62
     7
 10
-114.97293999999999
 20
94.487455000000196
 30
0.0
 11
-113.97360999999979
 21
92.869970000000194
 31
0.0
  0
LINE
  5
B08
  8
0
  6
CONTINUOUS
 62
     1
 10
-121.3278699999999
 20
85.847944000000183
 30
0.0
 11
-169.23401999999979
 21
85.847944000000183
 31
0.0
  0
LINE
  5
B09
  8
0
  6
CONTINUOUS
 62
     7
 10
-111.57003
 20
96.589887000000161
 30
0.0
 11
-110.5706899999999
 21
94.972402000000187
 31
0.0
  0
LINE
  5
B0A
  8
0
  6
CENTER
 62
     7
 10
-92.950660999999997
 20
95.017652000000197
 30
0.0
 11
-77.802475000000001
 21
79.869470000000192
 31
0.0
  0
LINE
  5
B0B
  8
0
  6
CONTINUOUS
 62
     7
 10
-123.6300399999997
 20
171.82728
 30
0.0
 11
-102.2879499999999
 21
193.16936000000001
 31
0.0
  0
LINE
  5
B0C
  8
0
  6
CONTINUOUS
 62
     7
 10
-166.93184999999991
 20
171.8272900000002
 30
0.0
 11
-188.27393000000001
 21
193.16935000000001
 31
0.0
  0
LINE
  5
B0D
  8
0
  6
CONTINUOUS
 62
     7
 10
-375.89693999999992
 20
456.70913999999988
 30
0.0
 11
-367.82715000000002
 21
456.99094000000002
 31
0.0
  0
LINE
  5
B0E
  8
0
  6
CENTER
 62
     7
 10
-197.6112399999999
 20
199.67823999999999
 30
0.0
 11
-212.7594
 21
214.8263900000002
 31
0.0
  0
LINE
  5
B0F
  8
0
  6
CONTINUOUS
 62
     7
 10
-363.82711999999992
 20
451.99094000000002
 30
0.0
 11
-363.82711999999992
 21
311.99090999999999
 31
0.0
  0
LINE
  5
B10
  8
0
  6
CONTINUOUS
 62
     7
 10
-183.77987999999991
 20
76.347944000000197
 30
0.0
 11
-180.60445000000001
 21
81.847944000000197
 31
0.0
  0
LINE
  5
B11
  8
0
  6
CONTINUOUS
 62
     7
 10
-367.82715000000002
 20
456.99090999999999
 30
0.0
 11
-367.82715000000002
 21
306.99090999999981
 31
0.0
  0
LINE
  5
B12
  8
0
  6
CONTINUOUS
 62
     7
 10
-367.82715000000002
 20
451.99094000000002
 30
0.0
 11
-363.82711999999992
 21
451.99094000000002
 31
0.0
  0
LINE
  5
B13
  8
0
  6
CONTINUOUS
 62
     7
 10
-372.82711999999998
 20
441.49093999999991
 30
0.0
 11
-372.82711999999998
 21
322.49090999999999
 31
0.0
  0
LINE
  5
B14
  8
0
  6
CONTINUOUS
 62
     7
 10
-386.00162
 20
451.21902
 30
0.0
 11
-380.72243999999989
 21
451.40337999999991
 31
0.0
  0
LINE
  5
B15
  8
0
  6
CONTINUOUS
 62
     7
 10
-362.82715000000002
 20
401.01674999999989
 30
0.0
 11
-362.82715000000002
 21
362.74648999999999
 31
0.0
  0
LINE
  5
B16
  8
0
  6
CONTINUOUS
 62
     7
 10
-377.82715000000002
 20
454.71032999999989
 30
0.0
 11
-377.82715000000002
 21
422.43130000000002
 31
0.0
  0
LINE
  5
B17
  8
0
  6
CONTINUOUS
 62
     7
 10
-120.80161
 20
168.99886000000001
 30
0.0
 11
-99.459525999999997
 21
190.34092999999999
 31
0.0
  0
LINE
  5
B18
  8
0
  6
CENTER
 62
     1
 10
-127.42624000000001
 20
130.3479599999998
 30
0.0
 11
-165.77703999999969
 21
130.3479599999998
 31
0.0
  0
LINE
  5
B19
  8
0
  6
CONTINUOUS
 62
     7
 10
-96.445801000000003
 20
141.82186999999999
 30
0.0
 11
-87.421593000000001
 21
117.0280700000001
 31
0.0
  0
LINE
  5
B1A
  8
0
  6
CONTINUOUS
 62
     1
 10
-146.7809399999999
 20
210.1870200000001
 30
0.0
 11
-146.7809399999999
 21
194.13201000000001
 31
0.0
  0
LINE
  5
B1B
  8
0
  6
CONTINUOUS
 62
     1
 10
-143.7809399999999
 20
210.1870200000001
 30
0.0
 11
-143.7809399999999
 21
194.13201000000001
 31
0.0
  0
LINE
  5
B1C
  8
0
  6
CONTINUOUS
 62
     1
 10
-208.12001000000001
 20
145.84795000000011
 30
0.0
 11
-192.06503000000001
 21
145.84795000000011
 31
0.0
  0
LINE
  5
B1D
  8
0
  6
CONTINUOUS
 62
     1
 10
-208.12001000000001
 20
148.84795000000011
 30
0.0
 11
-192.06503000000001
 21
148.84795000000011
 31
0.0
  0
LINE
  5
B1E
  8
0
  6
CONTINUOUS
 62
     1
 10
-82.441872000000004
 20
148.84795000000011
 30
0.0
 11
-96.902443000000005
 21
148.84795000000011
 31
0.0
  0
LINE
  5
B1F
  8
0
  6
CONTINUOUS
 62
     1
 10
-82.441872000000004
 20
145.84795000000011
 30
0.0
 11
-93.626732000000004
 21
145.84795000000011
 31
0.0
  0
LINE
  5
B20
  8
0
  6
CONTINUOUS
 62
     7
 10
-137.66772
 20
98.123395000000215
 30
0.0
 11
-166.18612999999991
 21
125.8311300000001
 31
0.0
  0
LINE
  5
B21
  8
0
  6
CONTINUOUS
 62
     7
 10
-104.6663099999999
 20
118.5127599999999
 30
0.0
 11
-116.684
 21
156.4151500000001
 31
0.0
  0
LINE
  5
B22
  8
0
  6
CONTINUOUS
 62
     7
 10
-106.78201
 20
76.347936000000189
 30
0.0
 11
-109.95743999999991
 21
81.847936000000175
 31
0.0
  0
LINE
  5
B23
  8
0
  6
CONTINUOUS
 62
     1
 10
-145.2809399999999
 20
222.3479500000002
 30
0.0
 11
-165.28093000000001
 21
222.3479500000002
 31
0.0
  0
LINE
  5
B24
  8
0
  6
CONTINUOUS
 62
     7
 10
-125.2809399999997
 20
222.3479500000002
 30
0.0
 11
-83.064774
 21
218.6545200000001
 31
0.0
  0
LINE
  5
B25
  8
0
  6
CONTINUOUS
 62
     7
 10
-165.2809399999999
 20
222.3479200000001
 30
0.0
 11
-207.49711999999991
 21
218.65449000000021
 31
0.0
  0
LINE
  5
B26
  8
0
  6
CONTINUOUS
 62
     1
 10
-220.28093999999999
 20
147.34795
 30
0.0
 11
-220.28093999999999
 21
167.34794000000011
 31
0.0
  0
LINE
  5
B27
  8
0
  6
CONTINUOUS
 62
     7
 10
-70.280944999999988
 20
167.34794000000011
 30
0.0
 11
-73.974380000000025
 21
209.5641100000002
 31
0.0
  0
LINE
  5
B28
  8
0
  6
CONTINUOUS
 62
     1
 10
-106.78201
 20
76.347940000000193
 30
0.0
 11
-83.906165999999985
 21
76.347940000000193
 31
0.0
  0
LINE
  5
B29
  8
0
  6
CONTINUOUS
 62
     7
 10
-220.2809299999999
 20
167.34794000000011
 30
0.0
 11
-216.58748999999989
 21
209.56412000000009
 31
0.0
  0
LINE
  5
B2A
  8
0
  6
CONTINUOUS
 62
     7
 10
-220.2809299999999
 20
127.34793999999999
 30
0.0
 11
-216.61765
 21
85.476385000000192
 31
0.0
  0
LINE
  5
B2B
  8
0
  6
CONTINUOUS
 62
     7
 10
-70.280944999999988
 20
127.3479500000002
 30
0.0
 11
-73.944237000000001
 21
85.476385000000192
 31
0.0
  0
LINE
  5
B2C
  8
0
  6
CONTINUOUS
 62
     1
 10
-220.28093999999999
 20
147.34795
 30
0.0
 11
-220.28093999999999
 21
127.34793999999999
 31
0.0
  0
LINE
  5
B2D
  8
0
  6
CONTINUOUS
 62
     1
 10
-183.77987999999991
 20
76.347940000000193
 30
0.0
 11
-206.65572
 21
76.347940000000193
 31
0.0
  0
LINE
  5
B2E
  8
0
  6
CONTINUOUS
 62
     1
 10
-70.280944999999988
 20
147.34795
 30
0.0
 11
-70.280944999999988
 21
127.34793999999999
 31
0.0
  0
LINE
  5
B2F
  8
0
  6
CONTINUOUS
 62
     7
 10
-169.38999999999999
 20
65.14353300000019
 30
0.0
 11
-121.17188
 21
65.14353300000019
 31
0.0
  0
LINE
  5
B30
  8
0
  6
CONTINUOUS
 62
     7
 10
-230.28093999999999
 20
100.3479590000001
 30
0.0
 11
-230.28093999999999
 21
96.84796700000021
 31
0.0
  0
LINE
  5
B31
  8
0
  6
CONTINUOUS
 62
     7
 10
-217.6125199999999
 20
96.84796700000021
 30
0.0
 11
-230.28093999999999
 21
96.84796700000021
 31
0.0
  0
LINE
  5
B32
  8
0
  6
CONTINUOUS
 62
     7
 10
-235.2809399999999
 20
100.3479590000001
 30
0.0
 11
-217.9187499999999
 21
100.3479590000001
 31
0.0
  0
LINE
  5
B33
  8
0
  6
CONTINUOUS
 62
     7
 10
-235.2809399999999
 20
160.34795000000011
 30
0.0
 11
-220.28093999999999
 21
160.34795000000011
 31
0.0
  0
LINE
  5
B34
  8
0
  6
CONTINUOUS
 62
     7
 10
-235.2809399999999
 20
100.3479590000001
 30
0.0
 11
-235.2809399999999
 21
160.34795000000011
 31
0.0
  0
LINE
  5
B35
  8
0
  6
CONTINUOUS
 62
     7
 10
-235.2809399999999
 20
153.3479500000002
 30
0.0
 11
-238.2809299999999
 21
148.15795
 31
0.0
  0
LINE
  5
B36
  8
0
  6
CONTINUOUS
 62
     7
 10
-235.28095999999999
 20
107.34797400000021
 30
0.0
 11
-238.2809399999999
 21
112.5479560000002
 31
0.0
  0
LINE
  5
B37
  8
0
  6
CONTINUOUS
 62
     7
 10
-238.2809399999999
 20
112.5479560000002
 30
0.0
 11
-238.2809399999999
 21
148.1579600000002
 31
0.0
  0
LINE
  5
B38
  8
0
  6
CONTINUOUS
 62
     7
 10
-220.28093999999999
 20
163.8479500000002
 30
0.0
 11
-230.28093999999999
 21
163.8479500000002
 31
0.0
  0
LINE
  5
B39
  8
0
  6
CONTINUOUS
 62
     7
 10
-230.28093999999999
 20
160.34795000000011
 30
0.0
 11
-230.28093999999999
 21
163.8479500000002
 31
0.0
  0
LINE
  5
B3A
  8
0
  6
CONTINUOUS
 62
     7
 10
-377.82715000000002
 20
309.27150999999992
 30
0.0
 11
-377.82715000000002
 21
341.55054000000001
 31
0.0
  0
LINE
  5
B3B
  8
0
  6
CONTINUOUS
 62
     7
 10
-386.00162
 20
312.76281999999992
 30
0.0
 11
-380.72241000000002
 21
312.57848999999982
 31
0.0
  0
LINE
  5
B3C
  8
0
  6
CONTINUOUS
 62
     7
 10
-367.82715000000002
 20
311.99090999999999
 30
0.0
 11
-363.82711999999992
 21
311.99090999999999
 31
0.0
  0
LINE
  5
B3D
  8
0
  6
CONTINUOUS
 62
     7
 10
-375.89690999999988
 20
307.27271000000002
 30
0.0
 11
-367.82715000000002
 21
306.99090999999981
 31
0.0
  0
LINE
  5
B3E
  8
0
  6
CONTINUOUS
 62
     7
 10
-363.82711999999992
 20
361.06375000000003
 30
0.0
 11
-363.41289999999992
 21
361.47797000000003
 31
0.0
  0
LINE
  5
B3F
  8
0
  6
CENTER
 62
     7
 10
-383.15140000000002
 20
321.88684000000001
 30
0.0
 11
-360.22640999999987
 21
321.88684000000001
 31
0.0
  0
LINE
  5
B40
  8
0
  6
CONTINUOUS
 62
     7
 10
-422.82714999999979
 20
190.34796
 30
0.0
 11
-422.82714999999979
 21
65.534041999999999
 31
0.0
  0
LINE
  5
B41
  8
0
  6
CONTINUOUS
 62
     7
 10
-332.82715000000002
 20
137.84796
 30
0.0
 11
-332.82715000000002
 21
159.34796
 31
0.0
  0
LINE
  5
B42
  8
0
  6
CONTINUOUS
 62
     7
 10
-360.82718
 20
156.84796
 30
0.0
 11
-332.82715000000002
 21
156.84796
 31
0.0
  0
LINE
  5
B43
  8
0
  6
CONTINUOUS
 62
     7
 10
-360.82718
 20
137.84796
 30
0.0
 11
-332.82715000000002
 21
137.84796
 31
0.0
  0
LINE
  5
B44
  8
0
  6
CENTER
 62
     7
 10
-434.17653999999982
 20
147.34795
 30
0.0
 11
-331.09362999999968
 21
147.34795
 31
0.0
  0
LINE
  5
B45
  8
0
  6
CONTINUOUS
 62
     7
 10
-422.82714999999979
 20
172.9548199999999
 30
0.0
 11
-392.63112999999998
 21
172.9548199999999
 31
0.0
  0
LINE
  5
B46
  8
0
  6
CONTINUOUS
 62
     7
 10
-360.82718
 20
137.34796
 30
0.0
 11
-360.82718
 21
147.34795
 31
0.0
  0
LINE
  5
B48
  8
0
  6
CONTINUOUS
 62
     7
 10
-360.82718
 20
157.34795999999969
 30
0.0
 11
-360.82718
 21
147.34795
 31
0.0
  0
LINE
  5
B49
  8
0
  6
CONTINUOUS
 62
     1
 10
-362.82715000000002
 20
157.34795999999969
 30
0.0
 11
-360.82718
 21
157.34795999999969
 31
0.0
  0
LINE
  5
B4A
  8
0
  6
CONTINUOUS
 62
     1
 10
-362.82715000000002
 20
137.34796
 30
0.0
 11
-360.82718
 21
137.34796
 31
0.0
  0
LINE
  5
B4B
  8
0
  6
CONTINUOUS
 62
     7
 10
-354.82718
 20
159.34796
 30
0.0
 11
-332.82715000000002
 21
159.34796
 31
0.0
  0
LINE
  5
B4C
  8
0
  6
CONTINUOUS
 62
     7
 10
-390.82711999999992
 20
211.57908999999989
 30
0.0
 11
-390.82711999999992
 21
105.61266000000001
 31
0.0
  0
LINE
  5
B4D
  8
0
  6
CENTER
 62
     7
 10
-383.15140000000002
 20
207.45203000000001
 30
0.0
 11
-360.22640999999987
 21
207.45203000000001
 31
0.0
  0
LINE
  5
B4E
  8
0
  6
CONTINUOUS
 62
     7
 10
-422.82714999999979
 20
190.34794999999991
 30
0.0
 11
-393.74860000000001
 21
191.10938999999999
 31
0.0
  0
LINE
  5
B4F
  8
0
  6
CONTINUOUS
 62
     7
 10
-385.82715000000002
 20
100.61265999999991
 30
0.0
 11
-377.82715000000002
 21
100.61265999999991
 31
0.0
  0
LINE
  5
B50
  8
0
  6
CONTINUOUS
 62
     7
 10
-422.82714999999979
 20
77.567321999999976
 30
0.0
 11
-386.82715000000002
 21
77.567321999999976
 31
0.0
  0
LINE
  5
B51
  8
0
  6
CONTINUOUS
 62
     7
 10
-354.82718
 20
156.84796
 30
0.0
 11
-354.82717999999983
 21
159.34796
 31
0.0
  0
LINE
  5
B52
  8
0
  6
CONTINUOUS
 62
     7
 10
-385.85329999999988
 20
81.271171999999979
 30
0.0
 11
-377.82711999999992
 21
81.481339000000006
 31
0.0
  0
LINE
  5
B53
  8
0
  6
CONTINUOUS
 62
     7
 10
-386.82715000000002
 20
80.546745000000001
 30
0.0
 11
-386.82715000000002
 21
64.347954000000001
 31
0.0
  0
LINE
  5
B54
  8
0
  6
CONTINUOUS
 62
     7
 10
-363.82715000000002
 20
168.27511999999999
 30
0.0
 11
-363.41289999999992
 21
167.86087000000001
 31
0.0
  0
LINE
  5
B55
  8
0
  6
CONTINUOUS
 62
     7
 10
-422.82711999999998
 20
65.534035000000003
 30
0.0
 11
-386.82709
 21
64.276886000000005
 31
0.0
  0
LINE
  5
B56
  8
0
  6
CONTINUOUS
 62
     7
 10
-375.89693999999992
 20
222.06614999999991
 30
0.0
 11
-367.82711999999992
 21
222.34794999999991
 31
0.0
  0
LINE
  5
B57
  8
0
  6
CONTINUOUS
 62
     7
 10
-363.82711999999992
 20
217.3479599999998
 30
0.0
 11
-363.82711999999992
 21
147.34795
 31
0.0
  0
LINE
  5
B58
  8
0
  6
CONTINUOUS
 62
     7
 10
-434.82711999999998
 20
172.9548199999999
 30
0.0
 11
-422.82714999999979
 21
172.9548199999999
 31
0.0
  0
LINE
  5
B59
  8
0
  6
CONTINUOUS
 62
     7
 10
-363.82711999999992
 20
147.34795
 30
0.0
 11
-363.82711999999992
 21
81.847945999999979
 31
0.0
  0
LINE
  5
B5A
  8
0
  6
CONTINUOUS
 62
     7
 10
-363.82715000000002
 20
126.27508
 30
0.0
 11
-363.41289999999992
 21
126.6893
 31
0.0
  0
LINE
  5
B5B
  8
0
  6
CONTINUOUS
 62
     7
 10
-367.82715000000002
 20
222.34794999999991
 30
0.0
 11
-367.82715000000002
 21
77.444137999999981
 31
0.0
  0
LINE
  5
B5C
  8
0
  6
CONTINUOUS
 62
     7
 10
-375.89690999999988
 20
77.725937000000002
 30
0.0
 11
-367.82715000000002
 21
77.444130000000001
 31
0.0
  0
LINE
  5
B5D
  8
0
  6
CONTINUOUS
 62
     7
 10
-367.82715000000002
 20
217.3479599999998
 30
0.0
 11
-363.82711999999992
 21
217.3479599999998
 31
0.0
  0
LINE
  5
B5E
  8
0
  6
CONTINUOUS
 62
     7
 10
-367.82715000000002
 20
81.743201999999982
 30
0.0
 11
-363.82715000000002
 21
81.847945999999979
 31
0.0
  0
LINE
  5
B5F
  8
0
  6
CENTER
 62
     7
 10
-383.15140000000002
 20
87.243874000000005
 30
0.0
 11
-360.22640999999987
 21
87.243874000000005
 31
0.0
  0
LINE
  5
B60
  8
0
  6
CONTINUOUS
 62
     7
 10
-372.82711999999998
 20
206.8479599999998
 30
0.0
 11
-372.82711999999998
 21
92.732651000000004
 31
0.0
  0
LINE
  5
B61
  8
0
  6
CONTINUOUS
 62
     7
 10
-386.00162
 20
216.57605000000001
 30
0.0
 11
-380.72241000000002
 21
216.76041000000001
 31
0.0
  0
LINE
  5
B62
  8
0
  6
CONTINUOUS
 62
     7
 10
-362.82715000000002
 20
166.3737899999999
 30
0.0
 11
-362.82715000000002
 21
128.10353000000001
 31
0.0
  0
LINE
  5
B63
  8
0
  6
CONTINUOUS
 62
     7
 10
-377.82715000000002
 20
220.06737000000001
 30
0.0
 11
-377.82715000000002
 21
187.78833
 31
0.0
  0
LINE
  5
B64
  8
0
  6
CONTINUOUS
 62
     7
 10
-434.82711999999998
 20
174.34795
 30
0.0
 11
-434.82711999999998
 21
156.13068000000001
 31
0.0
  0
LINE
  5
B65
  8
0
  6
CONTINUOUS
 62
     7
 10
-428.82711999999992
 20
170.2215699999999
 30
0.0
 11
-428.82711999999992
 21
130.34795999999969
 31
0.0
  0
LINE
  5
B66
  8
0
  6
CONTINUOUS
 62
     7
 10
-434.82711999999998
 20
174.34795
 30
0.0
 11
-428.82711999999992
 21
174.34795
 31
0.0
  0
LINE
  5
B67
  8
0
  6
CONTINUOUS
 62
     7
 10
-446.82715000000002
 20
74.347954000000001
 30
0.0
 11
-436.28789999999992
 21
74.071976000000006
 31
0.0
  0
LINE
  5
B68
  8
0
  6
CONTINUOUS
 62
     7
 10
-434.82711999999998
 20
156.13068000000001
 30
0.0
 11
-428.82711999999992
 21
156.13068000000001
 31
0.0
  0
LINE
  5
B69
  8
0
  6
CONTINUOUS
 62
     7
 10
-428.82711999999992
 20
79.556076000000004
 30
0.0
 11
-428.82711999999992
 21
130.34795999999969
 31
0.0
  0
LINE
  5
B6A
  8
0
  6
CONTINUOUS
 62
     7
 10
-427.36639000000002
 20
190.22910999999999
 30
0.0
 11
-422.82714999999979
 21
190.34798000000001
 31
0.0
  0
LINE
  5
B6B
  8
0
  6
CONTINUOUS
 62
     7
 10
-446.82711999999998
 20
186.34795
 30
0.0
 11
-430.28786999999988
 21
186.78104999999999
 31
0.0
  0
LINE
  5
B6C
  8
0
  6
CONTINUOUS
 62
     7
 10
-446.82711999999998
 20
176.34796
 30
0.0
 11
-428.82711999999992
 21
176.34796
 31
0.0
  0
LINE
  5
B6D
  8
0
  6
CONTINUOUS
 62
     7
 10
-446.82711999999998
 20
98.410522
 30
0.0
 11
-428.82711999999992
 21
98.410522
 31
0.0
  0
LINE
  5
B6E
  8
0
  6
CONTINUOUS
 62
     7
 10
-446.82711999999998
 20
84.347945999999979
 30
0.0
 11
-428.82711999999992
 21
84.347945999999979
 31
0.0
  0
LINE
  5
B6F
  8
0
  6
CONTINUOUS
 62
     7
 10
-446.82711999999998
 20
186.3479899999999
 30
0.0
 11
-446.82711999999998
 21
74.347960999999984
 31
0.0
  0
LINE
  5
B70
  8
0
  6
CONTINUOUS
 62
     7
 10
-446.82711999999998
 20
162.28540000000001
 30
0.0
 11
-434.82711999999998
 21
162.28540000000001
 31
0.0
  0
LINE
  5
B71
  8
0
  6
CONTINUOUS
 62
     7
 10
-428.82711999999992
 20
188.7296
 30
0.0
 11
-428.82711999999992
 21
174.34795
 31
0.0
  0
LINE
  5
B72
  8
0
  6
CONTINUOUS
 62
     7
 10
-434.82711999999998
 20
77.977547000000001
 30
0.0
 11
-434.82711999999998
 21
67.309508999999991
 31
0.0
  0
LINE
  5
B73
  8
0
  6
CENTER
 62
     7
 10
-505.82715000000002
 20
168.94182999999981
 30
0.0
 11
-505.82715000000002
 21
87.695235999999966
 31
0.0
  0
LINE
  5
B74
  8
0
  6
CONTINUOUS
 62
     3
 10
-548.82764000000009
 20
96.848197999999996
 30
0.0
 11
-548.82764000000009
 21
100.34819
 31
0.0
  0
LINE
  5
B75
  8
0
  6
CONTINUOUS
 62
     3
 10
-533.82714999999985
 20
96.848197999999996
 30
0.0
 11
-533.82714999999985
 21
100.34819
 31
0.0
  0
LINE
  5
B76
  8
0
  6
CONTINUOUS
 62
     3
 10
-533.82714999999985
 20
98.848190000000002
 30
0.0
 11
-474.32715000000002
 21
98.848190000000002
 31
0.0
  0
LINE
  5
B77
  8
0
  6
CONTINUOUS
 62
     3
 10
-533.82714999999985
 20
161.8477
 30
0.0
 11
-474.32715000000002
 21
161.8477
 31
0.0
  0
LINE
  5
B78
  8
0
  6
CONTINUOUS
 62
     3
 10
-556.32764000000009
 20
122.84771000000001
 30
0.0
 11
-552.82764000000009
 21
122.84771000000001
 31
0.0
  0
LINE
  5
B79
  8
0
  6
CONTINUOUS
 62
     3
 10
-533.82714999999985
 20
96.848197999999996
 30
0.0
 11
-548.82764000000009
 21
96.848197999999996
 31
0.0
  0
LINE
  5
B7A
  8
0
  6
CONTINUOUS
 62
     7
 10
-475.82715000000002
 20
158.84796
 30
0.0
 11
-475.82715000000002
 21
101.84796
 31
0.0
  0
LINE
  5
B7B
  8
0
  6
CONTINUOUS
 62
     7
 10
-454.82715000000002
 20
186.34795
 30
0.0
 11
-454.82715000000002
 21
74.347945999999979
 31
0.0
  0
LINE
  5
B7C
  8
0
  6
CONTINUOUS
 62
     7
 10
-465.05709999999999
 20
160.34796
 30
0.0
 11
-465.05709999999999
 21
100.3479599999999
 31
0.0
  0
LINE
  5
B7D
  8
0
  6
CONTINUOUS
 62
     7
 10
-576.82709
 20
178.3642999999999
 30
0.0
 11
-576.82709
 21
135.34794999999991
 31
0.0
  0
LINE
  5
B7E
  8
0
  6
CONTINUOUS
 62
     7
 10
-574.55895999999996
 20
180.09734999999969
 30
0.0
 11
-572.32709
 21
180.09734999999969
 31
0.0
  0
LINE
  5
B7F
  8
0
  6
CONTINUOUS
 62
     7
 10
-574.62249999999995
 20
166.03715999999969
 30
0.0
 11
-572.52715999999998
 21
166.03715999999969
 31
0.0
  0
LINE
  5
B80
  8
0
  6
CONTINUOUS
 62
     7
 10
-575.05932999999982
 20
179.9630699999999
 30
0.0
 11
-576.32750999999985
 21
179.23009999999991
 31
0.0
  0
LINE
  5
B81
  8
0
  6
CONTINUOUS
 62
     7
 10
-575.06469999999979
 20
177.84706
 30
0.0
 11
-576.34173999999985
 21
177.08075999999991
 31
0.0
  0
LINE
  5
B82
  8
0
  6
CONTINUOUS
 62
     7
 10
-575.07684000000006
 20
173.30907999999999
 30
0.0
 11
-576.37549000000001
 21
172.4575199999999
 31
0.0
  0
LINE
  5
B83
  8
0
  6
CONTINUOUS
 62
     7
 10
-575.01525999999978
 20
165.95686000000001
 30
0.0
 11
-576.2199099999998
 21
165.4423699999999
 31
0.0
  0
LINE
  5
B84
  8
0
  6
CONTINUOUS
 62
     7
 10
-574.55011000000002
 20
177.98955000000001
 30
0.0
 11
-571.82714999999985
 21
177.98955000000001
 31
0.0
  0
LINE
  5
B85
  8
0
  6
CONTINUOUS
 62
     7
 10
-574.52849999999989
 20
173.4728199999999
 30
0.0
 11
-571.82714999999985
 21
173.4728199999999
 31
0.0
  0
LINE
  5
B86
  8
0
  6
CONTINUOUS
 62
     7
 10
-574.67681999999979
 20
164.09104999999991
 30
0.0
 11
-572.82714999999985
 21
164.09104999999991
 31
0.0
  0
LINE
  5
B87
  8
0
  6
CONTINUOUS
 62
     7
 10
-574.55584999999985
 20
172.3328699999999
 30
0.0
 11
-572.82714999999985
 21
172.3328699999999
 31
0.0
  0
LINE
  5
B88
  8
0
  6
CONTINUOUS
 62
     7
 10
-574.57848999999999
 20
176.84961000000001
 30
0.0
 11
-572.82714999999985
 21
176.84961000000001
 31
0.0
  0
LINE
  5
B89
  8
0
  6
CONTINUOUS
 62
     7
 10
-574.58789000000002
 20
178.95103
 30
0.0
 11
-572.32709
 21
178.95103
 31
0.0
  0
LINE
  5
B8A
  8
0
  6
CONTINUOUS
 62
     7
 10
-575.06127999999978
 20
172.1957399999998
 30
0.0
 11
-576.33258000000001
 21
171.4510699999999
 31
0.0
  0
LINE
  5
B8B
  8
0
  6
CONTINUOUS
 62
     7
 10
-574.97082999999986
 20
164.04688999999991
 30
0.0
 11
-576.12114999999994
 21
163.69303999999991
 31
0.0
  0
LINE
  5
B8C
  8
0
  6
CONTINUOUS
 62
     7
 10
-575.04047000000003
 20
178.8427299999999
 30
0.0
 11
-576.27979000000005
 21
178.21370999999991
 31
0.0
  0
LINE
  5
B8D
  8
0
  6
CONTINUOUS
 62
     7
 10
-575.04681000000005
 20
176.73313999999991
 30
0.0
 11
-576.29547000000002
 21
176.07125999999991
 31
0.0
  0
LINE
  5
B8E
  8
0
  6
CONTINUOUS
 62
     7
 10
-572.82714999999985
 20
156.34794999999991
 30
0.0
 11
-575.82714999999985
 21
156.34794999999991
 31
0.0
  0
LINE
  5
B8F
  8
0
  6
CONTINUOUS
 62
     7
 10
-572.82714999999985
 20
154.34795999999969
 30
0.0
 11
-575.82714999999985
 21
154.34795999999969
 31
0.0
  0
LINE
  5
B90
  8
0
  6
CONTINUOUS
 62
     7
 10
-572.82714999999985
 20
146.34795
 30
0.0
 11
-575.82714999999985
 21
146.34795
 31
0.0
  0
LINE
  5
B91
  8
0
  6
CONTINUOUS
 62
     7
 10
-572.82714999999985
 20
144.34795
 30
0.0
 11
-575.82714999999985
 21
144.34795
 31
0.0
  0
LINE
  5
B92
  8
0
  6
CONTINUOUS
 62
     7
 10
-572.82714999999985
 20
136.34796
 30
0.0
 11
-575.82714999999985
 21
136.34796
 31
0.0
  0
LINE
  5
B93
  8
0
  6
CONTINUOUS
 62
     7
 10
-572.82714999999985
 20
134.34794999999991
 30
0.0
 11
-575.82714999999985
 21
134.34794999999991
 31
0.0
  0
LINE
  5
B94
  8
0
  6
CONTINUOUS
 62
     7
 10
-574.82714999999985
 20
145.95506
 30
0.0
 11
-574.82714999999985
 21
144.74363999999991
 31
0.0
  0
LINE
  5
B95
  8
0
  6
CONTINUOUS
 62
     7
 10
-574.82714999999985
 20
135.9611699999997
 30
0.0
 11
-574.82714999999985
 21
134.8002799999999
 31
0.0
  0
LINE
  5
B96
  8
0
  6
CONTINUOUS
 62
     7
 10
-574.82714999999985
 20
155.97411999999991
 30
0.0
 11
-574.82714999999985
 21
154.61131
 31
0.0
  0
LINE
  5
B97
  8
0
  6
CONTINUOUS
 62
     7
 10
-574.82714999999985
 20
165.7408299999999
 30
0.0
 11
-574.82714999999985
 21
164.68088999999981
 31
0.0
  0
LINE
  5
B98
  8
0
  6
CONTINUOUS
 62
     7
 10
-574.82714999999985
 20
173.17838999999989
 30
0.0
 11
-574.82714999999985
 21
172.70621999999969
 31
0.0
  0
LINE
  5
B99
  8
0
  6
CONTINUOUS
 62
     7
 10
-574.82714999999985
 20
177.7444899999999
 30
0.0
 11
-574.82714999999985
 21
177.19842999999969
 31
0.0
  0
LINE
  5
B9A
  8
0
  6
CONTINUOUS
 62
     7
 10
-574.82714999999985
 20
179.84412
 30
0.0
 11
-574.82714999999985
 21
179.31833999999981
 31
0.0
  0
LINE
  5
B9B
  8
0
  6
CONTINUOUS
 62
     7
 10
-578.32708999999966
 20
150.34795
 30
0.0
 11
-578.32708999999966
 21
130.34795999999969
 31
0.0
  0
LINE
  5
B9C
  8
0
  6
CONTINUOUS
 62
     7
 10
-578.32714999999985
 20
150.34792999999991
 30
0.0
 11
-576.82714999999985
 21
150.47916000000001
 31
0.0
  0
LINE
  5
B9D
  8
0
  6
CONTINUOUS
 62
     7
 10
-578.32708999999966
 20
145.49797000000001
 30
0.0
 11
-573.6496599999997
 21
145.49797000000001
 31
0.0
  0
LINE
  5
B9E
  8
0
  6
CONTINUOUS
 62
     7
 10
-578.32708999999966
 20
147.6299299999998
 30
0.0
 11
-576.82709
 21
147.6299299999998
 31
0.0
  0
LINE
  5
B9F
  8
0
  6
CONTINUOUS
 62
     7
 10
-461.48275999999993
 20
166.34796
 30
0.0
 11
-560.46167000000003
 21
166.34796
 31
0.0
  0
LINE
  5
BA0
  8
0
  6
CONTINUOUS
 62
     7
 10
-461.48275999999993
 20
164.34794999999991
 30
0.0
 11
-560.46167000000003
 21
164.34794999999991
 31
0.0
  0
LINE
  5
BA1
  8
0
  6
CONTINUOUS
 62
     7
 10
-554.32763999999986
 20
156.34794999999991
 30
0.0
 11
-560.46167000000003
 21
156.34794999999991
 31
0.0
  0
LINE
  5
BA2
  8
0
  6
CONTINUOUS
 62
     7
 10
-554.32763999999986
 20
154.34795999999969
 30
0.0
 11
-560.46167000000003
 21
154.34795999999969
 31
0.0
  0
LINE
  5
BA3
  8
0
  6
CONTINUOUS
 62
     7
 10
-554.32763999999986
 20
146.34795
 30
0.0
 11
-560.46167000000003
 21
146.34795
 31
0.0
  0
LINE
  5
BA4
  8
0
  6
CONTINUOUS
 62
     7
 10
-554.32763999999986
 20
144.34795
 30
0.0
 11
-560.46167000000003
 21
144.34795
 31
0.0
  0
LINE
  5
BA5
  8
0
  6
CONTINUOUS
 62
     7
 10
-556.32764000000009
 20
136.34796
 30
0.0
 11
-560.46167000000003
 21
136.34796
 31
0.0
  0
LINE
  5
BA6
  8
0
  6
CONTINUOUS
 62
     7
 10
-556.32764000000009
 20
134.34794999999991
 30
0.0
 11
-560.46167000000003
 21
134.34794999999991
 31
0.0
  0
LINE
  5
BA7
  8
0
  6
CONTINUOUS
 62
     7
 10
-561.14977999999985
 20
167.0709699999999
 30
0.0
 11
-458.00504000000012
 21
167.0709699999999
 31
0.0
  0
LINE
  5
BA8
  8
0
  6
CONTINUOUS
 62
     7
 10
-561.14977999999985
 20
163.71512999999999
 30
0.0
 11
-548.82764000000009
 21
163.71512999999999
 31
0.0
  0
LINE
  5
BA9
  8
0
  6
CONTINUOUS
 62
     7
 10
-561.36565999999993
 20
156.83409
 30
0.0
 11
-554.32763999999986
 21
156.83409
 31
0.0
  0
LINE
  5
BAA
  8
0
  6
CONTINUOUS
 62
     7
 10
-561.36565999999993
 20
153.91111999999981
 30
0.0
 11
-554.32763999999986
 21
153.91111999999981
 31
0.0
  0
LINE
  5
BAB
  8
0
  6
CONTINUOUS
 62
     7
 10
-561.49621999999988
 20
146.69145
 30
0.0
 11
-554.32763999999986
 21
146.69145
 31
0.0
  0
LINE
  5
BAC
  8
0
  6
CONTINUOUS
 62
     7
 10
-561.49621999999988
 20
144.0295999999999
 30
0.0
 11
-554.32763999999986
 21
144.0295999999999
 31
0.0
  0
LINE
  5
BAD
  8
0
  6
CONTINUOUS
 62
     7
 10
-561.55822999999987
 20
136.62071
 30
0.0
 11
-556.32764000000009
 21
136.62071
 31
0.0
  0
LINE
  5
BAE
  8
0
  6
CONTINUOUS
 62
     7
 10
-561.55822999999987
 20
134.0828699999997
 30
0.0
 11
-556.32764000000009
 21
134.0828699999997
 31
0.0
  0
LINE
  5
BAF
  8
0
  6
CONTINUOUS
 62
     7
 10
-458.00504000000012
 20
163.71512999999999
 30
0.0
 11
-474.52712999999989
 21
163.71512999999999
 31
0.0
  0
LINE
  5
BB0
  8
0
  6
CONTINUOUS
 62
     7
 10
-475.52713
 20
162.71514999999999
 30
0.0
 11
-475.52713
 21
161.8477
 31
0.0
  0
LINE
  5
BB1
  8
0
  6
CONTINUOUS
 62
     7
 10
-561.55822999999987
 20
126.61297999999979
 30
0.0
 11
-556.32764000000009
 21
126.61297999999979
 31
0.0
  0
LINE
  5
BB2
  8
0
  6
CONTINUOUS
 62
     7
 10
-556.32764000000009
 20
126.34795
 30
0.0
 11
-560.46167000000003
 21
126.34795
 31
0.0
  0
LINE
  5
BB3
  8
0
  6
CONTINUOUS
 62
     7
 10
-556.32764000000009
 20
124.34796
 30
0.0
 11
-560.46167000000003
 21
124.34796
 31
0.0
  0
LINE
  5
BB4
  8
0
  6
CONTINUOUS
 62
     7
 10
-561.55822999999987
 20
124.07513
 30
0.0
 11
-556.32764000000009
 21
124.07513
 31
0.0
  0
LINE
  5
BB5
  8
0
  6
CONTINUOUS
 62
     7
 10
-561.49621999999988
 20
116.66632
 30
0.0
 11
-554.32763999999986
 21
116.66632
 31
0.0
  0
LINE
  5
BB6
  8
0
  6
CONTINUOUS
 62
     7
 10
-554.32763999999986
 20
116.3479499999999
 30
0.0
 11
-560.46167000000003
 21
116.3479499999999
 31
0.0
  0
LINE
  5
BB7
  8
0
  6
CONTINUOUS
 62
     7
 10
-554.32763999999986
 20
114.3479499999999
 30
0.0
 11
-560.46167000000003
 21
114.3479499999999
 31
0.0
  0
LINE
  5
BB8
  8
0
  6
CONTINUOUS
 62
     7
 10
-561.49621999999988
 20
114.00445000000001
 30
0.0
 11
-554.32763999999986
 21
114.00445000000001
 31
0.0
  0
LINE
  5
BB9
  8
0
  6
CONTINUOUS
 62
     7
 10
-554.32763999999986
 20
106.34796
 30
0.0
 11
-560.46167000000003
 21
106.34796
 31
0.0
  0
LINE
  5
BBA
  8
0
  6
CONTINUOUS
 62
     7
 10
-561.36559999999986
 20
106.78471
 30
0.0
 11
-554.32763999999986
 21
106.78471
 31
0.0
  0
LINE
  5
BBB
  8
0
  6
CONTINUOUS
 62
     7
 10
-554.32763999999986
 20
104.3479499999999
 30
0.0
 11
-560.46167000000003
 21
104.3479499999999
 31
0.0
  0
LINE
  5
BBC
  8
0
  6
CONTINUOUS
 62
     7
 10
-561.36559999999986
 20
103.86176
 30
0.0
 11
-554.32763999999986
 21
103.86176
 31
0.0
  0
LINE
  5
BBD
  8
0
  6
CONTINUOUS
 62
     7
 10
-461.48275999999993
 20
96.347954000000016
 30
0.0
 11
-505.82715000000002
 21
96.347954000000016
 31
0.0
  0
LINE
  5
BBE
  8
0
  6
CONTINUOUS
 62
     7
 10
-461.48275999999993
 20
94.347960999999984
 30
0.0
 11
-505.82715000000002
 21
94.347960999999984
 31
0.0
  0
LINE
  5
BBF
  8
0
  6
CONTINUOUS
 62
     7
 10
-561.14922999999999
 20
93.624878000000024
 30
0.0
 11
-505.82715000000002
 21
93.624878000000024
 31
0.0
  0
LINE
  5
BC0
  8
0
  6
CONTINUOUS
 62
     7
 10
-474.32715000000002
 20
100.0823199999999
 30
0.0
 11
-465.05712999999997
 21
100.34793999999999
 31
0.0
  0
LINE
  5
BC1
  8
0
  6
CONTINUOUS
 62
     7
 10
-475.52713
 20
97.980705000000015
 30
0.0
 11
-475.52713
 21
98.848190000000002
 31
0.0
  0
LINE
  5
BC2
  8
0
  6
CONTINUOUS
 62
     7
 10
-458.00504000000012
 20
96.980698000000004
 30
0.0
 11
-474.52712999999989
 21
96.980698000000004
 31
0.0
  0
LINE
  5
BC3
  8
0
  6
CONTINUOUS
 62
     7
 10
-574.62249999999995
 20
94.658691000000005
 30
0.0
 11
-572.52715999999998
 21
94.658691000000005
 31
0.0
  0
LINE
  5
BC4
  8
0
  6
CONTINUOUS
 62
     7
 10
-575.01531999999975
 20
94.739075000000014
 30
0.0
 11
-576.2199099999998
 21
95.253532000000007
 31
0.0
  0
LINE
  5
BC5
  8
0
  6
CONTINUOUS
 62
     7
 10
-574.67681999999979
 20
96.604782
 30
0.0
 11
-572.82714999999985
 21
96.604782
 31
0.0
  0
LINE
  5
BC6
  8
0
  6
CONTINUOUS
 62
     7
 10
-574.97082999999986
 20
96.649024999999995
 30
0.0
 11
-576.12121999999999
 21
97.002876000000015
 31
0.0
  0
LINE
  5
BC7
  8
0
  6
CONTINUOUS
 62
     7
 10
-572.82714999999985
 20
104.3479499999999
 30
0.0
 11
-575.82714999999985
 21
104.3479499999999
 31
0.0
  0
LINE
  5
BC8
  8
0
  6
CONTINUOUS
 62
     7
 10
-572.82714999999985
 20
106.34796
 30
0.0
 11
-575.82714999999985
 21
106.34796
 31
0.0
  0
LINE
  5
BC9
  8
0
  6
CONTINUOUS
 62
     7
 10
-572.82714999999985
 20
114.3479499999999
 30
0.0
 11
-575.82714999999985
 21
114.3479499999999
 31
0.0
  0
LINE
  5
BCA
  8
0
  6
CONTINUOUS
 62
     7
 10
-572.82714999999985
 20
116.3479499999999
 30
0.0
 11
-575.82714999999985
 21
116.3479499999999
 31
0.0
  0
LINE
  5
BCB
  8
0
  6
CONTINUOUS
 62
     7
 10
-572.82714999999985
 20
124.34796
 30
0.0
 11
-575.82714999999985
 21
124.34796
 31
0.0
  0
LINE
  5
BCC
  8
0
  6
CONTINUOUS
 62
     7
 10
-572.82714999999985
 20
126.34795
 30
0.0
 11
-575.82714999999985
 21
126.34795
 31
0.0
  0
LINE
  5
BCD
  8
0
  6
CONTINUOUS
 62
     7
 10
-574.82714999999985
 20
114.74083
 30
0.0
 11
-574.82714999999985
 21
115.95220999999999
 31
0.0
  0
LINE
  5
BCE
  8
0
  6
CONTINUOUS
 62
     7
 10
-574.82714999999985
 20
124.73468
 30
0.0
 11
-574.82714999999985
 21
125.89557000000001
 31
0.0
  0
LINE
  5
BCF
  8
0
  6
CONTINUOUS
 62
     7
 10
-574.82714999999985
 20
104.72172999999999
 30
0.0
 11
-574.82714999999985
 21
106.08458999999991
 31
0.0
  0
LINE
  5
BD0
  8
0
  6
CONTINUOUS
 62
     7
 10
-574.82714999999985
 20
94.955070000000006
 30
0.0
 11
-574.82714999999985
 21
96.014999000000003
 31
0.0
  0
LINE
  5
BD1
  8
0
  6
CONTINUOUS
 62
     7
 10
-578.32708999999966
 20
110.3479499999999
 30
0.0
 11
-578.32708999999966
 21
130.34795999999969
 31
0.0
  0
LINE
  5
BD2
  8
0
  6
CONTINUOUS
 62
     7
 10
-578.32708999999966
 20
110.3479699999999
 30
0.0
 11
-576.82709
 21
110.2167399999999
 31
0.0
  0
LINE
  5
BD3
  8
0
  6
CONTINUOUS
 62
     7
 10
-578.32708999999966
 20
115.19793
 30
0.0
 11
-575.03339000000005
 21
115.19793
 31
0.0
  0
LINE
  5
BD4
  8
0
  6
CONTINUOUS
 62
     7
 10
-578.32708999999966
 20
113.06591999999991
 30
0.0
 11
-576.82709
 21
113.06591999999991
 31
0.0
  0
LINE
  5
BD5
  8
0
  6
CONTINUOUS
 62
     7
 10
-561.14922999999999
 20
96.980698000000004
 30
0.0
 11
-548.82764000000009
 21
96.980698000000004
 31
0.0
  0
LINE
  5
BD6
  8
0
  6
CONTINUOUS
 62
     7
 10
-505.82715000000002
 20
96.347954000000016
 30
0.0
 11
-560.46167000000003
 21
96.347954000000016
 31
0.0
  0
LINE
  5
BD7
  8
0
  6
CONTINUOUS
 62
     7
 10
-552.82764000000009
 20
100.3479599999999
 30
0.0
 11
-477.3271499999999
 21
100.3479599999999
 31
0.0
  0
LINE
  5
BD8
  8
0
  6
CONTINUOUS
 62
     7
 10
-505.82715000000002
 20
94.347960999999984
 30
0.0
 11
-560.46167000000003
 21
94.347960999999984
 31
0.0
  0
LINE
  5
BD9
  8
0
  6
CONTINUOUS
 62
     7
 10
-505.82715000000002
 20
93.624878000000024
 30
0.0
 11
-458.00504000000012
 21
93.624878000000024
 31
0.0
  0
LINE
  5
BDA
  8
0
  6
CONTINUOUS
 62
     7
 10
-570.82709
 20
183.34794999999991
 30
0.0
 11
-570.82709
 21
77.347945999999979
 31
0.0
  0
LINE
  5
BDB
  8
0
  6
CONTINUOUS
 62
     7
 10
-562.82714999999985
 20
183.34794999999991
 30
0.0
 11
-562.82714999999985
 21
80.907700000000006
 31
0.0
  0
LINE
  5
BDC
  8
0
  6
CONTINUOUS
 62
     7
 10
-576.33258000000001
 20
89.244843000000003
 30
0.0
 11
-576.35619999999994
 21
89.258690000000001
 31
0.0
  0
LINE
  5
BDD
  8
0
  6
CONTINUOUS
 62
     7
 10
-571.82714999999985
 20
180.34794999999991
 30
0.0
 11
-571.82714999999985
 21
79.224723999999981
 31
0.0
  0
LINE
  5
BDE
  8
0
  6
CONTINUOUS
 62
     7
 10
-571.82714999999985
 20
180.34794999999991
 30
0.0
 11
-570.82709
 21
180.34794999999991
 31
0.0
  0
LINE
  5
BDF
  8
0
  6
CONTINUOUS
 62
     7
 10
-570.82709
 20
183.34794999999991
 30
0.0
 11
-562.82714999999985
 21
183.34794999999991
 31
0.0
  0
LINE
  5
BE0
  8
0
  6
CONTINUOUS
 62
     7
 10
-570.12902999999994
 20
173.53935000000001
 30
0.0
 11
-563.89922999999987
 21
173.53935000000001
 31
0.0
  0
LINE
  5
BE1
  8
0
  6
CONTINUOUS
 62
     7
 10
-454.82715000000002
 20
176.34795
 30
0.0
 11
-446.82711999999998
 21
176.34795
 31
0.0
  0
LINE
  5
BE2
  8
0
  6
CONTINUOUS
 62
     7
 10
-454.82715000000002
 20
162.28540000000001
 30
0.0
 11
-446.82711999999998
 21
162.28540000000001
 31
0.0
  0
LINE
  5
BE3
  8
0
  6
CONTINUOUS
 62
     7
 10
-454.82715000000002
 20
186.34795
 30
0.0
 11
-446.82711999999998
 21
186.34795
 31
0.0
  0
LINE
  5
BE4
  8
0
  6
CONTINUOUS
 62
     7
 10
-538.82714999999996
 20
167.0709699999999
 30
0.0
 11
-538.82714999999996
 21
167.0709699999999
 31
0.0
  0
LINE
  5
BE5
  8
0
  6
CONTINUOUS
 62
     7
 10
-538.82714999999996
 20
93.624878000000024
 30
0.0
 11
-538.82714999999996
 21
93.624878000000024
 31
0.0
  0
LINE
  5
BE6
  8
0
  6
CONTINUOUS
 62
     7
 10
-559.62067000000002
 20
186.63121000000001
 30
0.0
 11
-462.70096000000001
 21
186.63121000000001
 31
0.0
  0
LINE
  5
BE7
  8
0
  6
CONTINUOUS
 62
     7
 10
-562.82714999999985
 20
178.44365999999999
 30
0.0
 11
-561.58587999999986
 21
185.0030999999999
 31
0.0
  0
LINE
  5
BE8
  8
0
  6
CONTINUOUS
 62
     7
 10
-557.46166999999991
 20
166.9991499999999
 30
0.0
 11
-562.82709
 21
178.4436199999999
 31
0.0
  0
LINE
  5
BE9
  8
0
  6
CONTINUOUS
 62
     7
 10
-557.46166999999991
 20
93.696716000000009
 30
0.0
 11
-562.82709
 21
82.252243000000007
 31
0.0
  0
LINE
  5
BEA
  8
0
  6
CONTINUOUS
 62
     7
 10
-537.32714999999985
 20
168.57096999999979
 30
0.0
 11
-454.82715000000002
 21
168.57096999999979
 31
0.0
  0
LINE
  5
BEB
  8
0
  6
CONTINUOUS
 62
     7
 10
-559.57213999999999
 20
189.4775799999999
 30
0.0
 11
-525.82709
 21
189.4775799999999
 31
0.0
  0
LINE
  5
BEC
  8
0
  6
CONTINUOUS
 62
     7
 10
-559.55877999999996
 20
191.3253
 30
0.0
 11
-525.82709
 21
191.3253
 31
0.0
  0
LINE
  5
BED
  8
0
  6
CONTINUOUS
 62
     7
 10
-559.53747999999996
 20
192.2358199999999
 30
0.0
 11
-525.82709
 21
192.2358199999999
 31
0.0
  0
LINE
  5
BEE
  8
0
  6
CONTINUOUS
 62
     7
 10
-562.82709
 20
179.78820999999991
 30
0.0
 11
-561.54705999999999
 21
187.79338000000001
 31
0.0
  0
LINE
  5
BEF
  8
0
  6
CONTINUOUS
 62
     7
 10
-562.82709
 20
181.1327999999998
 30
0.0
 11
-561.53607
 21
189.62586999999991
 31
0.0
  0
LINE
  5
BF0
  8
0
  6
CONTINUOUS
 62
     7
 10
-562.82714999999985
 20
181.13281000000001
 30
0.0
 11
-561.51830999999993
 21
190.51224999999999
 31
0.0
  0
LINE
  5
BF1
  8
0
  6
CONTINUOUS
 62
     7
 10
-523.82714999999985
 20
190.2358199999999
 30
0.0
 11
-523.82714999999985
 21
186.63121000000001
 31
0.0
  0
LINE
  5
BF2
  8
0
  6
CONTINUOUS
 62
     7
 10
-456.62502999999998
 20
169.68274
 30
0.0
 11
-460.76912999999979
 21
185.14882
 31
0.0
  0
LINE
  5
BF3
  8
0
  6
CONTINUOUS
 62
     7
 10
-460.28662000000003
 20
183.34794999999991
 30
0.0
 11
-454.82715000000002
 21
183.34794999999991
 31
0.0
  0
LINE
  5
BF4
  8
0
  6
CONTINUOUS
 62
     7
 10
-576.82709
 20
82.331528000000006
 30
0.0
 11
-576.82709
 21
125.34795
 31
0.0
  0
LINE
  5
BF5
  8
0
  6
CONTINUOUS
 62
     7
 10
-574.55895999999996
 20
80.598563999999996
 30
0.0
 11
-572.32709
 21
80.598563999999996
 31
0.0
  0
LINE
  5
BF6
  8
0
  6
CONTINUOUS
 62
     7
 10
-575.05939000000001
 20
80.732803000000004
 30
0.0
 11
-576.32750999999985
 21
81.465751999999995
 31
0.0
  0
LINE
  5
BF7
  8
0
  6
CONTINUOUS
 62
     7
 10
-575.06469999999979
 20
82.848868999999979
 30
0.0
 11
-576.34160999999995
 21
83.615111999999982
 31
0.0
  0
LINE
  5
BF8
  8
0
  6
CONTINUOUS
 62
     7
 10
-575.07684000000006
 20
87.386771999999965
 30
0.0
 11
-576.37549000000001
 21
88.238334999999964
 31
0.0
  0
LINE
  5
BF9
  8
0
  6
CONTINUOUS
 62
     7
 10
-574.55011000000002
 20
82.706290999999979
 30
0.0
 11
-571.82714999999985
 21
82.706290999999979
 31
0.0
  0
LINE
  5
BFA
  8
0
  6
CONTINUOUS
 62
     7
 10
-574.52849999999989
 20
87.223006999999981
 30
0.0
 11
-571.82714999999985
 21
87.223006999999981
 31
0.0
  0
LINE
  5
BFB
  8
0
  6
CONTINUOUS
 62
     7
 10
-574.55584999999985
 20
88.363022000000001
 30
0.0
 11
-572.82714999999985
 21
88.363022000000001
 31
0.0
  0
LINE
  5
BFC
  8
0
  6
CONTINUOUS
 62
     7
 10
-574.57848999999999
 20
83.846306000000013
 30
0.0
 11
-572.82714999999985
 21
83.846306000000013
 31
0.0
  0
LINE
  5
BFD
  8
0
  6
CONTINUOUS
 62
     7
 10
-574.58789000000002
 20
81.744857999999965
 30
0.0
 11
-572.32709
 21
81.744857999999965
 31
0.0
  0
LINE
  5
BFE
  8
0
  6
CONTINUOUS
 62
     7
 10
-575.06127999999978
 20
88.50015999999998
 30
0.0
 11
-576.33258000000001
 21
89.244811999999982
 31
0.0
  0
LINE
  5
BFF
  8
0
  6
CONTINUOUS
 62
     7
 10
-575.04052999999965
 20
81.853210000000004
 30
0.0
 11
-576.27979000000005
 21
82.482239000000007
 31
0.0
  0
LINE
  5
C00
  8
0
  6
CONTINUOUS
 62
     7
 10
-575.04687999999999
 20
83.962776000000005
 30
0.0
 11
-576.29547000000002
 21
84.624640999999983
 31
0.0
  0
LINE
  5
C01
  8
0
  6
CONTINUOUS
 62
     7
 10
-574.82714999999985
 20
87.517508999999947
 30
0.0
 11
-574.82714999999985
 21
87.989615999999998
 31
0.0
  0
LINE
  5
C02
  8
0
  6
CONTINUOUS
 62
     7
 10
-574.82714999999985
 20
82.951408000000001
 30
0.0
 11
-574.82714999999985
 21
83.497428999999983
 31
0.0
  0
LINE
  5
C03
  8
0
  6
CONTINUOUS
 62
     7
 10
-574.82714999999985
 20
80.851798999999986
 30
0.0
 11
-574.82714999999985
 21
81.377548000000004
 31
0.0
  0
LINE
  5
C04
  8
0
  6
CONTINUOUS
 62
     7
 10
-571.82714999999985
 20
80.347945999999965
 30
0.0
 11
-570.82709
 21
80.347945999999965
 31
0.0
  0
LINE
  5
C05
  8
0
  6
CONTINUOUS
 62
     7
 10
-570.82709
 20
77.347945999999979
 30
0.0
 11
-562.82714999999985
 21
77.347945999999979
 31
0.0
  0
LINE
  5
C06
  8
0
  6
CONTINUOUS
 62
     7
 10
-570.12902999999994
 20
87.156486999999998
 30
0.0
 11
-563.89922999999987
 21
87.156486999999998
 31
0.0
  0
LINE
  5
C07
  8
0
  6
CONTINUOUS
 62
     7
 10
-454.82715000000002
 20
84.347954000000001
 30
0.0
 11
-446.82711999999998
 21
84.347954000000001
 31
0.0
  0
LINE
  5
C08
  8
0
  6
CONTINUOUS
 62
     7
 10
-454.82715000000002
 20
74.347945999999979
 30
0.0
 11
-446.82711999999998
 21
74.347945999999979
 31
0.0
  0
LINE
  5
C09
  8
0
  6
CONTINUOUS
 62
     7
 10
-559.62067000000002
 20
74.064681999999976
 30
0.0
 11
-462.70096000000001
 21
74.064681999999976
 31
0.0
  0
LINE
  5
C0A
  8
0
  6
CONTINUOUS
 62
     7
 10
-562.82714999999985
 20
82.252212999999983
 30
0.0
 11
-561.58587999999986
 21
75.692824999999985
 31
0.0
  0
LINE
  5
C0B
  8
0
  6
CONTINUOUS
 62
     7
 10
-559.57213999999999
 20
71.218306999999996
 30
0.0
 11
-525.82709
 21
71.218306999999996
 31
0.0
  0
LINE
  5
C0C
  8
0
  6
CONTINUOUS
 62
     7
 10
-559.55877999999996
 20
69.370536999999985
 30
0.0
 11
-525.82709
 21
69.370536999999985
 31
0.0
  0
LINE
  5
C0D
  8
0
  6
CONTINUOUS
 62
     7
 10
-559.53747999999996
 20
68.46000699999999
 30
0.0
 11
-525.82709
 21
68.46000699999999
 31
0.0
  0
LINE
  5
C0E
  8
0
  6
CONTINUOUS
 62
     7
 10
-562.82714999999985
 20
80.907677000000007
 30
0.0
 11
-561.54711999999995
 21
72.902489000000003
 31
0.0
  0
LINE
  5
C0F
  8
0
  6
CONTINUOUS
 62
     7
 10
-562.82714999999985
 20
79.56310999999998
 30
0.0
 11
-561.53612999999984
 21
71.069962000000004
 31
0.0
  0
LINE
  5
C10
  8
0
  6
CONTINUOUS
 62
     7
 10
-562.82714999999985
 20
79.563094999999976
 30
0.0
 11
-561.51830999999993
 21
70.183623999999995
 31
0.0
  0
LINE
  5
C11
  8
0
  6
CONTINUOUS
 62
     7
 10
-523.82714999999985
 20
70.460014000000001
 30
0.0
 11
-523.82714999999985
 21
74.064681999999976
 31
0.0
  0
LINE
  5
C12
  8
0
  6
CONTINUOUS
 62
     7
 10
-456.32711999999992
 20
92.124915999999985
 30
0.0
 11
-460.76912999999979
 21
75.547066000000001
 31
0.0
  0
LINE
  5
C13
  8
0
  6
CONTINUOUS
 62
     7
 10
-460.28662000000003
 20
77.347945999999979
 30
0.0
 11
-454.82715000000002
 21
77.347945999999979
 31
0.0
  0
LINE
  5
C14
  8
0
  6
CONTINUOUS
 62
     7
 10
-454.82715000000002
 20
98.410522
 30
0.0
 11
-446.82711999999998
 21
98.410522
 31
0.0
  0
LINE
  5
C15
  8
0
  6
CONTINUOUS
 62
     7
 10
-538.82714999999996
 20
93.624878000000024
 30
0.0
 11
-538.82714999999996
 21
93.624878000000024
 31
0.0
  0
LINE
  5
C16
  8
0
  6
CONTINUOUS
 62
     7
 10
-537.32714999999985
 20
92.124877999999995
 30
0.0
 11
-454.82715000000002
 21
92.124877999999995
 31
0.0
  0
LINE
  5
C17
  8
0
  6
CENTER
 62
     7
 10
-587.07421999999985
 20
130.34795999999969
 30
0.0
 11
-424.86358999999999
 21
130.34795999999969
 31
0.0
  0
LINE
  5
C18
  8
0
  6
CONTINUOUS
 62
     7
 10
-474.32715000000002
 20
100.3479599999999
 30
0.0
 11
-465.05709999999999
 21
100.3479599999999
 31
0.0
  0
LINE
  5
C19
  8
0
  6
CONTINUOUS
 62
     3
 10
-530.45507999999995
 20
152.8477
 30
0.0
 11
-526.25005999999996
 21
152.8477
 31
0.0
  0
LINE
  5
C1A
  8
0
  6
CONTINUOUS
 62
     3
 10
-528.32714999999985
 20
150.7856899999999
 30
0.0
 11
-528.32714999999985
 21
154.81169
 31
0.0
  0
LINE
  5
C1B
  8
0
  6
CONTINUOUS
 62
     3
 10
-554.32763999999986
 20
137.8476999999998
 30
0.0
 11
-554.32763999999986
 21
161.8477
 31
0.0
  0
LINE
  5
C1C
  8
0
  6
CONTINUOUS
 62
     3
 10
-554.32763999999986
 20
98.848190000000002
 30
0.0
 11
-554.32763999999986
 21
122.84771000000001
 31
0.0
  0
LINE
  5
C1D
  8
0
  6
CONTINUOUS
 62
     3
 10
-528.82708999999943
 20
107.34820000000001
 30
0.0
 11
-528.82708999999943
 21
147.37073000000001
 31
0.0
  0
LINE
  5
C1E
  8
0
  6
CONTINUOUS
 62
     3
 10
-482.82711999999992
 20
113.32568000000001
 30
0.0
 11
-482.82711999999992
 21
153.34769999999969
 31
0.0
  0
LINE
  5
C1F
  8
0
  6
CONTINUOUS
 62
     3
 10
-474.32715000000002
 20
98.848190000000002
 30
0.0
 11
-474.32715000000002
 21
161.8477
 31
0.0
  0
LINE
  5
C20
  8
0
  6
CONTINUOUS
 62
     3
 10
-522.85015999999985
 20
153.34769999999969
 30
0.0
 11
-482.82711999999992
 21
153.34769999999969
 31
0.0
  0
LINE
  5
C21
  8
0
  6
CONTINUOUS
 62
     3
 10
-528.82708999999943
 20
107.34820000000001
 30
0.0
 11
-488.80515000000003
 21
107.34820000000001
 31
0.0
  0
LINE
  5
C22
  8
0
  6
CONTINUOUS
 62
     3
 10
-554.32763999999986
 20
161.8477
 30
0.0
 11
-548.82764000000009
 21
161.8477
 31
0.0
  0
LINE
  5
C23
  8
0
  6
CONTINUOUS
 62
     3
 10
-554.32763999999986
 20
98.848190000000002
 30
0.0
 11
-548.82764000000009
 21
98.848190000000002
 31
0.0
  0
LINE
  5
C24
  8
0
  6
CONTINUOUS
 62
     3
 10
-483.32715000000002
 20
105.78619
 30
0.0
 11
-483.32715000000002
 21
109.81213
 31
0.0
  0
LINE
  5
C25
  8
0
  6
CONTINUOUS
 62
     3
 10
-552.82764000000009
 20
160.3476999999998
 30
0.0
 11
-477.3271499999999
 21
160.3476999999998
 31
0.0
  0
LINE
  5
C26
  8
0
  6
CONTINUOUS
 62
     3
 10
-485.45510999999999
 20
107.8481899999997
 30
0.0
 11
-481.25009
 21
107.8481899999997
 31
0.0
  0
LINE
  5
C27
  8
0
  6
CONTINUOUS
 62
     3
 10
-488.02713
 20
112.54773
 30
0.0
 11
-488.02713
 21
148.15171999999981
 31
0.0
  0
LINE
  5
C28
  8
0
  6
CONTINUOUS
 62
     3
 10
-523.62707999999986
 20
112.54773
 30
0.0
 11
-523.62707999999986
 21
148.15171999999981
 31
0.0
  0
LINE
  5
C29
  8
0
  6
CONTINUOUS
 62
     3
 10
-523.62707999999986
 20
112.54773
 30
0.0
 11
-488.02713
 21
112.54773
 31
0.0
  0
LINE
  5
C2A
  8
0
  6
CONTINUOUS
 62
     3
 10
-523.62707999999986
 20
148.15171999999981
 30
0.0
 11
-488.02713
 21
148.15171999999981
 31
0.0
  0
LINE
  5
C2B
  8
0
  6
CONTINUOUS
 62
     3
 10
-552.82764000000009
 20
100.34819
 30
0.0
 11
-552.82764000000009
 21
160.3476999999998
 31
0.0
  0
LINE
  5
C2C
  8
0
  6
CONTINUOUS
 62
     3
 10
-533.82714999999985
 20
163.8476999999998
 30
0.0
 11
-533.82714999999985
 21
160.3476999999998
 31
0.0
  0
LINE
  5
C2D
  8
0
  6
CONTINUOUS
 62
     3
 10
-548.82764000000009
 20
163.8476999999998
 30
0.0
 11
-533.82714999999985
 21
163.8476999999998
 31
0.0
  0
LINE
  5
C2E
  8
0
  6
CONTINUOUS
 62
     3
 10
-548.82764000000009
 20
163.8476999999998
 30
0.0
 11
-548.82764000000009
 21
160.3476999999998
 31
0.0
  0
LINE
  5
C2F
  8
0
  6
CONTINUOUS
 62
     3
 10
-556.32764000000009
 20
137.8476999999998
 30
0.0
 11
-552.82764000000009
 21
137.8476999999998
 31
0.0
  0
LINE
  5
C30
  8
0
  6
CONTINUOUS
 62
     7
 10
-474.32715000000002
 20
160.34796
 30
0.0
 11
-465.05709999999999
 21
160.34796
 31
0.0
  0
LINE
  5
C31
  8
0
  6
CONTINUOUS
 62
     3
 10
-556.32764000000009
 20
122.84771000000001
 30
0.0
 11
-556.32764000000009
 21
137.8476999999998
 31
0.0
  0
LINE
  5
C32
  8
0
  6
CONTINUOUS
 62
     7
 10
-377.82715000000002
 20
79.724723999999981
 30
0.0
 11
-377.82715000000002
 21
106.81296
 31
0.0
  0
LINE
  5
C33
  8
0
  6
CONTINUOUS
 62
     7
 10
-433.36639000000002
 20
65.810028000000003
 30
0.0
 11
-422.82714999999979
 21
65.534041999999999
 31
0.0
  0
LINE
  5
C34
  8
0
  6
CONTINUOUS
 62
     7
 10
-428.82711999999992
 20
77.556068000000025
 30
0.0
 11
-422.82714999999979
 21
77.556068000000025
 31
0.0
  0
LINE
  5
C35
  8
0
  6
CONTINUOUS
 62
     7
 10
-382.82714999999968
 20
76.456039000000004
 30
0.0
 11
-382.82714999999968
 21
67.831031999999993
 31
0.0
  0
LINE
  5
C36
  8
0
  6
CONTINUOUS
 62
     7
 10
-383.27190999999988
 20
77.893546999999998
 30
0.0
 11
-386.82715000000002
 21
77.893546999999998
 31
0.0
  0
LINE
  5
C37
  8
0
  6
CONTINUOUS
 62
     7
 10
-383.27190999999988
 20
66.393539000000004
 30
0.0
 11
-386.82715000000002
 21
66.393539000000004
 31
0.0
  0
LINE
  5
C38
  8
0
  6
CONTINUOUS
 62
     7
 10
-383.27190999999988
 20
75.018546999999984
 30
0.0
 11
-386.82715000000002
 21
75.018546999999984
 31
0.0
  0
LINE
  5
C39
  8
0
  6
CONTINUOUS
 62
     7
 10
-383.27190999999988
 20
69.268531999999993
 30
0.0
 11
-386.82715000000002
 21
69.268531999999993
 31
0.0
  0
ARC
  5
C3A
  8
0
  6
CONTINUOUS
 62
     7
 10
-354.82715000000002
 20
381.99090999999987
 30
0.0
 40
3.0
 50
89.986013999999983
 51
270.01398999999992
  0
ARC
  5
C3B
  8
0
  6
CONTINUOUS
 62
     7
 10
-426.82714999999979
 20
439.88549999999998
 30
0.0
 40
2.0
 50
91.500000999999969
 51
180.00001
  0
ARC
  5
C3C
  8
0
  6
CONTINUOUS
 62
     7
 10
-426.82714999999979
 20
324.09636999999998
 30
0.0
 40
2.0
 50
180.00001
 51
268.5
  0
ARC
  5
C3D
  8
0
  6
CONTINUOUS
 62
     7
 10
-430.23772999999989
 20
440.67144999999988
 30
0.0
 40
1.5
 50
271.49999999999972
 51
347.02334999999982
  0
ARC
  5
C3E
  8
0
  6
CONTINUOUS
 62
     7
 10
-435.82714999999979
 20
437.02385999999939
 30
0.0
 40
2.0
 50
91.500000999999969
 51
180.00001
  0
ARC
  5
C3F
  8
0
  6
CONTINUOUS
 62
     7
 10
-430.82715000000002
 20
430.41089000000011
 30
0.0
 40
2.0
 50
271.49999999999972
 51
0.0
  0
ARC
  5
C40
  8
0
  6
CONTINUOUS
 62
     7
 10
-439.8271499999999
 20
430.17523
 30
0.0
 40
2.0
 50
271.49999999999972
 51
0.0
  0
ARC
  5
C41
  8
0
  6
CONTINUOUS
 62
     7
 10
-439.8271499999999
 20
333.80664000000002
 30
0.0
 40
2.0
 50
0.0
 51
88.499996999999965
  0
ARC
  5
C42
  8
0
  6
CONTINUOUS
 62
     7
 10
-435.82714999999979
 20
326.95797999999968
 30
0.0
 40
2.0
 50
180.00001
 51
268.5
  0
ARC
  5
C43
  8
0
  6
CONTINUOUS
 62
     7
 10
-430.23772999999989
 20
323.31042000000002
 30
0.0
 40
1.5
 50
12.976653000000001
 51
88.499996999999965
  0
ARC
  5
C44
  8
0
  6
CONTINUOUS
 62
     7
 10
-430.82715000000002
 20
333.57097999999991
 30
0.0
 40
2.0
 50
0.0
 51
88.499996999999965
  0
ARC
  5
C45
  8
0
  6
CONTINUOUS
 62
     3
 10
-542.10004000000004
 20
305.49090999999981
 30
0.0
 40
7.5
 50
179.99997999999991
 51
0.000010017913
  0
ARC
  5
C46
  8
0
  6
CONTINUOUS
 62
     3
 10
-542.10004000000004
 20
305.49090999999981
 30
0.0
 40
4.0
 50
179.99997999999991
 51
0.000010017912
  0
ARC
  5
C47
  8
0
  6
CONTINUOUS
 62
     7
 10
-455.17394999999999
 20
427.32366999999988
 30
0.0
 40
1.502775999999999
 50
194.75642999999991
 51
269.87757999999991
  0
ARC
  5
C48
  8
0
  6
CONTINUOUS
 62
     7
 10
-455.17394999999999
 20
426.41363999999987
 30
0.0
 40
1.502775999999999
 50
194.75642999999991
 51
269.87757999999991
  0
ARC
  5
C49
  8
0
  6
CONTINUOUS
 62
     7
 10
-455.17394999999999
 20
424.56366000000003
 30
0.0
 40
1.502775999999999
 50
194.75642999999991
 51
269.87757999999991
  0
ARC
  5
C4A
  8
0
  6
CONTINUOUS
 62
     7
 10
-462.70196999999979
 20
441.8761599999998
 30
0.0
 40
2.0047290000000002
 50
15.173496
 51
89.861677999999998
  0
ARC
  5
C4B
  8
0
  6
CONTINUOUS
 62
     7
 10
-462.70196999999979
 20
440.96612999999979
 30
0.0
 40
2.0047290000000002
 50
15.173496
 51
89.861677999999998
  0
ARC
  5
C4C
  8
0
  6
CONTINUOUS
 62
     7
 10
-462.70196999999979
 20
439.11614999999989
 30
0.0
 40
2.0047290000000002
 50
15.173496
 51
89.861677999999998
  0
ARC
  5
C4D
  8
0
  6
CONTINUOUS
 62
     7
 10
-455.17394999999999
 20
342.26812999999993
 30
0.0
 40
1.502775999999999
 50
90.122413000000037
 51
165.24357000000001
  0
ARC
  5
C4E
  8
0
  6
CONTINUOUS
 62
     7
 10
-575.83392000000003
 20
430.00885
 30
0.0
 40
0.99319202
 50
119.77338
 51
179.87958999999981
  0
ARC
  5
C4F
  8
0
  6
CONTINUOUS
 62
     7
 10
-575.83153999999979
 20
428.97064
 30
0.0
 40
0.995579
 50
116.5870899999999
 51
179.98264
  0
ARC
  5
C50
  8
0
  6
CONTINUOUS
 62
     7
 10
-574.56511999999998
 20
430.74506000000002
 30
0.0
 40
0.9959030199999999
 50
89.541267000000005
 51
119.60717
  0
ARC
  5
C51
  8
0
  6
CONTINUOUS
 62
     7
 10
-574.60235999999998
 20
429.59685999999988
 30
0.0
 40
0.99411702
 50
89.122643999999966
 51
115.93498
  0
ARC
  5
C52
  8
0
  6
CONTINUOUS
 62
     7
 10
-574.55829000000006
 20
428.63666000000001
 30
0.0
 40
0.99427301
 50
89.356065999999984
 51
120.78091000000001
  0
ARC
  5
C53
  8
0
  6
CONTINUOUS
 62
     7
 10
-574.59204
 20
427.49554000000001
 30
0.0
 40
0.99545902
 50
89.141291000000024
 51
117.20381999999999
  0
ARC
  5
C54
  8
0
  6
CONTINUOUS
 62
     7
 10
-574.52050999999994
 20
424.12468999999999
 30
0.0
 40
0.99617702
 50
90.381317999999979
 51
123.9704899999999
  0
ARC
  5
C55
  8
0
  6
CONTINUOUS
 62
     7
 10
-574.54773
 20
422.98444000000012
 30
0.0
 40
0.99648702
 50
90.540720999999976
 51
120.74377
  0
ARC
  5
C56
  8
0
  6
CONTINUOUS
 62
     7
 10
-575.83307000000002
 20
422.23406999999997
 30
0.0
 40
0.99404597
 50
120.4682
 51
180.18563999999989
  0
ARC
  5
C57
  8
0
  6
CONTINUOUS
 62
     7
 10
-575.83234000000004
 20
423.26848999999987
 30
0.0
 40
0.9948369899999999
 50
123.20496
 51
180.43785999999969
  0
ARC
  5
C58
  8
0
  6
CONTINUOUS
 62
     7
 10
-575.83392000000003
 20
426.83233999999982
 30
0.0
 40
0.9932109699999999
 50
117.7993199999999
 51
180.08187000000001
  0
ARC
  5
C59
  8
0
  6
CONTINUOUS
 62
     7
 10
-575.83270000000005
 20
427.86992999999939
 30
0.0
 40
0.9944329899999999
 50
121.15213
 51
179.9405099999999
  0
ARC
  5
C5A
  8
0
  6
CONTINUOUS
 62
     7
 10
-574.62615999999946
 20
416.68549000000002
 30
0.0
 40
0.9954450099999999
 50
90.056905000000043
 51
113.1274499999999
  0
ARC
  5
C5B
  8
0
  6
CONTINUOUS
 62
     7
 10
-574.68799000000001
 20
414.73822000000001
 30
0.0
 40
0.9927430199999999
 50
89.374555000000001
 51
106.33207
  0
ARC
  5
C5C
  8
0
  6
CONTINUOUS
 62
     7
 10
-575.83086999999966
 20
414.38665999999989
 30
0.0
 40
0.9962710099999999
 50
106.69792
 51
180.33004999999969
  0
ARC
  5
C5D
  8
0
  6
CONTINUOUS
 62
     7
 10
-575.83074999999985
 20
416.17241999999999
 30
0.0
 40
0.9963999999999998
 50
112.8173599999997
 51
180.09041999999991
  0
ARC
  5
C5E
  8
0
  6
CONTINUOUS
 62
     7
 10
-575.83203000000003
 20
406.99579
 30
0.0
 40
0.99507803
 50
89.715886999999981
 51
180.28411
  0
ARC
  5
C5F
  8
0
  6
CONTINUOUS
 62
     7
 10
-575.82690000000002
 20
406.99114999999989
 30
0.0
 40
1.000203
 50
180.01165
 51
269.98835000000003
  0
ARC
  5
C60
  8
0
  6
CONTINUOUS
 62
     7
 10
-575.83203000000003
 20
396.99579
 30
0.0
 40
0.99508202
 50
89.716099
 51
180.28390999999991
  0
ARC
  5
C61
  8
0
  6
CONTINUOUS
 62
     7
 10
-575.82690000000002
 20
396.99115
 30
0.0
 40
1.0001999999999991
 50
180.0114299999999
 51
269.98856999999992
  0
ARC
  5
C62
  8
0
  6
CONTINUOUS
 62
     7
 10
-575.83203000000003
 20
386.99579
 30
0.0
 40
0.9950849999999999
 50
89.716311000000005
 51
180.28368999999981
  0
ARC
  5
C63
  8
0
  6
CONTINUOUS
 62
     7
 10
-575.82690000000002
 20
386.99115
 30
0.0
 40
1.0001959999999981
 50
180.01122000000001
 51
269.98877999999991
  0
ARC
  5
C64
  8
0
  6
CONTINUOUS
 62
     7
 10
-572.82697000000019
 20
384.99102999999991
 30
0.0
 40
0.9998249999999999
 50
359.98995000000002
 51
90.010050000000007
  0
ARC
  5
C65
  8
0
  6
CONTINUOUS
 62
     7
 10
-572.83208999999988
 20
388.99579
 30
0.0
 40
1.0049469
 50
270.28134999999992
 51
359.71866
  0
ARC
  5
C66
  8
0
  6
CONTINUOUS
 62
     7
 10
-572.82697000000019
 20
394.99102999999991
 30
0.0
 40
0.9998210099999999
 50
359.98975000000002
 51
90.010255000000001
  0
ARC
  5
C67
  8
0
  6
CONTINUOUS
 62
     7
 10
-572.83208999999988
 20
398.99579
 30
0.0
 40
1.004939
 50
270.28091000000001
 51
359.71910000000008
  0
ARC
  5
C68
  8
0
  6
CONTINUOUS
 62
     7
 10
-572.82697000000019
 20
404.9910299999998
 30
0.0
 40
0.9998289899999999
 50
359.99018999999993
 51
90.009810999999985
  0
ARC
  5
C69
  8
0
  6
CONTINUOUS
 62
     7
 10
-572.83208999999988
 20
408.99578999999989
 30
0.0
 40
1.004942999999999
 50
270.28111000000001
 51
359.71888999999987
  0
ARC
  5
C6A
  8
0
  6
CONTINUOUS
 62
     7
 10
-572.82543999999984
 20
414.73259999999988
 30
0.0
 40
0.9982839799999999
 50
359.90141999999992
 51
90.098575999999994
  0
ARC
  5
C6B
  8
0
  6
CONTINUOUS
 62
     7
 10
-572.82947000000001
 20
422.97858000000002
 30
0.0
 40
1.002353
 50
0.13432682
 51
89.865673000000001
  0
ARC
  5
C6C
  8
0
  6
CONTINUOUS
 62
     7
 10
-572.53168000000005
 20
418.38544000000002
 30
0.0
 40
0.704566
 50
270.37009999999992
 51
359.62990999999982
  0
ARC
  5
C6D
  8
0
  6
CONTINUOUS
 62
     7
 10
-572.82617000000005
 20
427.49187999999998
 30
0.0
 40
0.9990100299999999
 50
359.94319000000002
 51
90.056808999999959
  0
ARC
  5
C6E
  8
0
  6
CONTINUOUS
 62
     7
 10
-572.32543999999996
 20
430.09258999999997
 30
0.0
 40
0.4983060100000002
 50
359.80489
 51
90.195107000000007
  0
ARC
  5
C6F
  8
0
  6
CONTINUOUS
 62
     7
 10
-572.33172999999965
 20
432.24553999999989
 30
0.0
 40
0.50463498
 50
270.52382999999992
 51
359.47617000000002
  0
ARC
  5
C70
  8
0
  6
CONTINUOUS
 62
     7
 10
-560.28252999999995
 20
346.99090999999987
 30
0.0
 40
1.000013899999999
 50
89.691659999999985
 51
270.30833999999999
  0
ARC
  5
C71
  8
0
  6
CONTINUOUS
 62
     7
 10
-458.00713999999999
 20
417.03594999999979
 30
0.0
 40
1.6750020000000001
 50
269.99998999999991
 51
90.000003000000007
  0
ARC
  5
C72
  8
0
  6
CONTINUOUS
 62
     7
 10
-461.48712
 20
416.99090999999987
 30
0.0
 40
1.0
 50
269.99998999999991
 51
90.000003000000007
  0
ARC
  5
C73
  8
0
  6
CONTINUOUS
 62
     7
 10
-461.48712
 20
346.99090999999987
 30
0.0
 40
1.0
 50
269.99998999999991
 51
90.000003000000007
  0
ARC
  5
C74
  8
0
  6
CONTINUOUS
 62
     7
 10
-458.00713999999999
 20
346.94585999999993
 30
0.0
 40
1.6750020000000001
 50
269.99998999999991
 51
90.000003000000007
  0
ARC
  5
C75
  8
0
  6
CONTINUOUS
 62
     7
 10
-572.83051
 20
349.25421
 30
0.0
 40
1.003352
 50
270.19110999999992
 51
359.80889999999982
  0
ARC
  5
C76
  8
0
  6
CONTINUOUS
 62
     7
 10
-572.83208999999988
 20
358.99578999999972
 30
0.0
 40
1.0049469
 50
270.28136999999992
 51
359.71863000000002
  0
ARC
  5
C77
  8
0
  6
CONTINUOUS
 62
     7
 10
-572.82697000000019
 20
354.99102999999991
 30
0.0
 40
0.9998239899999999
 50
359.98991999999993
 51
90.010076999999981
  0
ARC
  5
C78
  8
0
  6
CONTINUOUS
 62
     7
 10
-572.52660999999978
 20
345.60149999999987
 30
0.0
 40
0.6994530000000001
 50
359.95517000000001
 51
90.044829000000021
  0
ARC
  5
C79
  8
0
  6
CONTINUOUS
 62
     7
 10
-574.62414999999999
 20
347.30608999999998
 30
0.0
 40
1.005233
 50
246.98638999999989
 51
269.82924999999989
  0
ARC
  5
C7A
  8
0
  6
CONTINUOUS
 62
     7
 10
-574.68658000000005
 20
349.25360000000001
 30
0.0
 40
1.002699
 50
253.7527199999999
 51
270.54064
  0
ARC
  5
C7B
  8
0
  6
CONTINUOUS
 62
     7
 10
-575.83074999999985
 20
349.60528999999991
 30
0.0
 40
0.99638802
 50
180.24991
 51
253.29664
  0
ARC
  5
C7C
  8
0
  6
CONTINUOUS
 62
     7
 10
-575.83062999999981
 20
347.81939999999992
 30
0.0
 40
0.9965090199999998
 50
179.91374999999999
 51
247.17845
  0
ARC
  5
C7D
  8
0
  6
CONTINUOUS
 62
     7
 10
-575.82690000000002
 20
356.99114999999972
 30
0.0
 40
1.0001959999999981
 50
180.01124999999999
 51
269.98874999999992
  0
ARC
  5
C7E
  8
0
  6
CONTINUOUS
 62
     7
 10
-575.83203000000003
 20
356.99578999999972
 30
0.0
 40
0.9950849999999999
 50
89.716282999999976
 51
180.2837199999999
  0
ARC
  5
C7F
  8
0
  6
CONTINUOUS
 62
     7
 10
-575.82690000000002
 20
366.99114999999989
 30
0.0
 40
1.0001999999999991
 50
180.01146
 51
269.98853999999972
  0
ARC
  5
C80
  8
0
  6
CONTINUOUS
 62
     7
 10
-575.83203000000003
 20
366.99578999999989
 30
0.0
 40
0.9950810099999999
 50
89.716071999999997
 51
180.28391999999999
  0
ARC
  5
C81
  8
0
  6
CONTINUOUS
 62
     7
 10
-575.82690000000002
 20
376.99115
 30
0.0
 40
1.0002040000000001
 50
180.01166000000001
 51
269.9883200000001
  0
ARC
  5
C82
  8
0
  6
CONTINUOUS
 62
     7
 10
-575.83203000000003
 20
376.99579
 30
0.0
 40
0.9950770099999999
 50
89.715860000000006
 51
180.28413999999989
  0
ARC
  5
C83
  8
0
  6
CONTINUOUS
 62
     7
 10
-572.83208999999988
 20
378.99579
 30
0.0
 40
1.004942999999999
 50
270.28113999999988
 51
359.71886999999992
  0
ARC
  5
C84
  8
0
  6
CONTINUOUS
 62
     7
 10
-572.82697000000019
 20
374.99102999999991
 30
0.0
 40
0.9998279799999998
 50
359.99015999999972
 51
90.009838000000002
  0
ARC
  5
C85
  8
0
  6
CONTINUOUS
 62
     7
 10
-572.83208999999988
 20
368.99579
 30
0.0
 40
1.004939
 50
270.28093999999999
 51
359.71906999999999
  0
ARC
  5
C86
  8
0
  6
CONTINUOUS
 62
     7
 10
-572.82697000000019
 20
364.99102999999991
 30
0.0
 40
0.9998210099999999
 50
359.98971999999998
 51
90.010281999999961
  0
ARC
  5
C87
  8
0
  6
CONTINUOUS
 62
     7
 10
-561.15453999999977
 20
417.03594999999979
 30
0.0
 40
1.6750160000000001
 50
89.746144999999984
 51
270.25387000000001
  0
ARC
  5
C88
  8
0
  6
CONTINUOUS
 62
     7
 10
-560.28252999999995
 20
416.99090999999987
 30
0.0
 40
1.000013899999999
 50
89.691659999999985
 51
270.30833999999999
  0
ARC
  5
C89
  8
0
  6
CONTINUOUS
 62
     7
 10
-560.28252999999995
 20
406.99090999999999
 30
0.0
 40
1.000013899999999
 50
89.691659999999985
 51
270.30833999999999
  0
ARC
  5
C8A
  8
0
  6
CONTINUOUS
 62
     7
 10
-560.28252999999995
 20
396.99090999999987
 30
0.0
 40
1.000013899999999
 50
89.691659999999985
 51
270.30833999999999
  0
ARC
  5
C8B
  8
0
  6
CONTINUOUS
 62
     7
 10
-560.28252999999995
 20
386.99090999999999
 30
0.0
 40
1.000013899999999
 50
89.691659999999985
 51
270.30833999999999
  0
ARC
  5
C8C
  8
0
  6
CONTINUOUS
 62
     7
 10
-560.28252999999995
 20
376.99090999999999
 30
0.0
 40
1.000013899999999
 50
89.691659999999985
 51
270.30833999999999
  0
ARC
  5
C8D
  8
0
  6
CONTINUOUS
 62
     7
 10
-560.28252999999995
 20
366.99090999999987
 30
0.0
 40
1.000013899999999
 50
89.691659999999985
 51
270.30833999999999
  0
ARC
  5
C8E
  8
0
  6
CONTINUOUS
 62
     7
 10
-560.28252999999995
 20
356.99090999999987
 30
0.0
 40
1.000013899999999
 50
89.691659999999985
 51
270.30833999999999
  0
ARC
  5
C8F
  8
0
  6
CONTINUOUS
 62
     7
 10
-561.36712999999997
 20
407.01592999999991
 30
0.0
 40
1.465004
 50
90.000003000000007
 51
270.0
  0
ARC
  5
C90
  8
0
  6
CONTINUOUS
 62
     7
 10
-561.49712999999986
 20
397.00092000000001
 30
0.0
 40
1.3300049999999981
 50
90.000003000000007
 51
270.0
  0
ARC
  5
C91
  8
0
  6
CONTINUOUS
 62
     7
 10
-561.56299000000001
 20
386.99590999999992
 30
0.0
 40
1.2650129999999991
 50
89.735579000000016
 51
270.26441
  0
ARC
  5
C92
  8
0
  6
CONTINUOUS
 62
     7
 10
-561.56299000000001
 20
376.99090999999999
 30
0.0
 40
1.2700129999999981
 50
89.736616999999995
 51
270.26337000000001
  0
ARC
  5
C93
  8
0
  6
CONTINUOUS
 62
     7
 10
-561.49712999999986
 20
366.98090000000002
 30
0.0
 40
1.3300049999999981
 50
90.000003000000007
 51
270.0
  0
ARC
  5
C94
  8
0
  6
CONTINUOUS
 62
     7
 10
-561.36712999999997
 20
356.96587999999991
 30
0.0
 40
1.465004
 50
90.000003000000007
 51
270.0
  0
ARC
  5
C95
  8
0
  6
CONTINUOUS
 62
     7
 10
-561.15399000000002
 20
346.94585999999993
 30
0.0
 40
1.675014
 50
89.766498999999982
 51
270.23351000000002
  0
ARC
  5
C96
  8
0
  6
CONTINUOUS
 62
     7
 10
-572.83037999999988
 20
341.01763999999991
 30
0.0
 40
1.0032760000000001
 50
334.19810000000001
 51
359.61810999999972
  0
ARC
  5
C97
  8
0
  6
CONTINUOUS
 62
     7
 10
-575.82866999999999
 20
341.75018
 30
0.0
 40
0.9984580299999999
 50
179.9595799999999
 51
239.38657000000001
  0
ARC
  5
C98
  8
0
  6
CONTINUOUS
 62
     7
 10
-559.62842000000001
 20
436.27679000000001
 30
0.0
 40
1.994108999999999
 50
89.675548000000006
 51
169.18777
  0
ARC
  5
C99
  8
0
  6
CONTINUOUS
 62
     7
 10
-559.57690000000002
 20
439.12567000000001
 30
0.0
 40
1.995282999999995
 50
90.006203999999983
 51
170.90835000000001
  0
ARC
  5
C9A
  8
0
  6
CONTINUOUS
 62
     7
 10
-559.56255999999985
 20
440.97417999999988
 30
0.0
 40
1.9967330000000001
 50
89.843967000000006
 51
171.45387999999991
  0
ARC
  5
C9B
  8
0
  6
CONTINUOUS
 62
     7
 10
-559.54065000000003
 20
441.88530999999989
 30
0.0
 40
1.995633
 50
89.899708000000004
 51
172.06112999999991
  0
ARC
  5
C9C
  8
0
  6
CONTINUOUS
 62
     7
 10
-462.69702000000001
 20
436.27264000000002
 30
0.0
 40
1.9982919999999991
 50
15.032547999999981
 51
90.002631999999977
  0
ARC
  5
C9D
  8
0
  6
CONTINUOUS
 62
     7
 10
-455.17394999999999
 20
421.71367999999961
 30
0.0
 40
1.502775999999999
 50
194.75642999999991
 51
269.87757999999991
  0
ARC
  5
C9E
  8
0
  6
CONTINUOUS
 62
     7
 10
-462.70196999999979
 20
327.71563999999989
 30
0.0
 40
2.0047290000000002
 50
270.13832000000002
 51
344.82650000000001
  0
ARC
  5
C9F
  8
0
  6
CONTINUOUS
 62
     7
 10
-575.82952999999975
 20
333.97552000000002
 30
0.0
 40
0.9976310099999999
 50
180.26780999999991
 51
240.07924
  0
ARC
  5
CA0
  8
0
  6
CONTINUOUS
 62
     7
 10
-575.83141999999998
 20
335.0213
 30
0.0
 40
0.9956849800000001
 50
180.02112999999991
 51
243.40913999999981
  0
ARC
  5
CA1
  8
0
  6
CONTINUOUS
 62
     7
 10
-574.54645000000005
 20
333.2419999999999
 30
0.0
 40
1.001123999999999
 50
239.32782000000009
 51
269.38767999999988
  0
ARC
  5
CA2
  8
0
  6
CONTINUOUS
 62
     7
 10
-574.58130000000006
 20
334.39019999999988
 30
0.0
 40
0.9993420200000001
 50
242.86199999999999
 51
269.66546
  0
ARC
  5
CA3
  8
0
  6
CONTINUOUS
 62
     7
 10
-574.5557299999997
 20
335.35455000000002
 30
0.0
 40
1.0037439999999991
 50
239.37112999999999
 51
270.49189999999987
  0
ARC
  5
CA4
  8
0
  6
CONTINUOUS
 62
     7
 10
-574.57195999999999
 20
336.49151999999992
 30
0.0
 40
1.0006820000000001
 50
241.65062
 51
269.7039299999999
  0
ARC
  5
CA5
  8
0
  6
CONTINUOUS
 62
     7
 10
-574.53435999999988
 20
339.87139999999999
 30
0.0
 40
1.000521999999999
 50
237.14617999999999
 51
270.41343999999998
  0
ARC
  5
CA6
  8
0
  6
CONTINUOUS
 62
     7
 10
-574.56377999999995
 20
341.01190000000008
 30
0.0
 40
1.0010449999999991
 50
240.47187
 51
270.37970999999999
  0
ARC
  5
CA7
  8
0
  6
CONTINUOUS
 62
     7
 10
-575.82866999999999
 20
341.75018
 30
0.0
 40
0.9984580299999999
 50
179.9595799999999
 51
239.38657000000001
  0
ARC
  5
CA8
  8
0
  6
CONTINUOUS
 62
     7
 10
-575.82806000000005
 20
340.71564000000001
 30
0.0
 40
0.9990889999999998
 50
179.69508999999991
 51
236.66209000000001
  0
ARC
  5
CA9
  8
0
  6
CONTINUOUS
 62
     7
 10
-575.82941000000005
 20
337.15215999999992
 30
0.0
 40
0.9977070099999998
 50
180.0740199999999
 51
242.04481000000001
  0
ARC
  5
CAA
  8
0
  6
CONTINUOUS
 62
     7
 10
-575.82836999999995
 20
336.11444
 30
0.0
 40
0.9987969999999998
 50
179.62728000000001
 51
238.70795000000001
  0
ARC
  5
CAB
  8
0
  6
CONTINUOUS
 62
     7
 10
-572.82959000000005
 20
341.01337000000001
 30
0.0
 40
1.002470999999999
 50
270.14107000000001
 51
359.85892999999987
  0
ARC
  5
CAC
  8
0
  6
CONTINUOUS
 62
     7
 10
-572.83123999999998
 20
336.49506000000002
 30
0.0
 40
1.004119999999999
 50
270.23460999999992
 51
359.76538999999991
  0
ARC
  5
CAD
  8
0
  6
CONTINUOUS
 62
     7
 10
-572.33051
 20
333.89434999999992
 30
0.0
 40
0.5033929900000002
 50
270.38490999999982
 51
359.61509999999993
  0
ARC
  5
CAE
  8
0
  6
CONTINUOUS
 62
     7
 10
-572.32665999999995
 20
331.74138999999991
 30
0.0
 40
0.49952301
 50
359.94522999999992
 51
90.054773999999981
  0
ARC
  5
CAF
  8
0
  6
CONTINUOUS
 62
     7
 10
-559.62225000000001
 20
327.71013999999991
 30
0.0
 40
1.9992490000000001
 50
190.64309999999969
 51
270.14742999999999
  0
ARC
  5
CB0
  8
0
  6
CONTINUOUS
 62
     7
 10
-559.57091999999989
 20
324.86126999999982
 30
0.0
 40
2.000420099999999
 50
188.92681999999991
 51
269.82270999999992
  0
ARC
  5
CB1
  8
0
  6
CONTINUOUS
 62
     7
 10
-474.31353999999988
 20
317.99090999999981
 30
0.0
 40
1.5
 50
90.000003000000007
 51
178.5
  0
ARC
  5
CB2
  8
0
  6
CONTINUOUS
 62
     3
 10
-462.81090999999992
 20
320.99090999999981
 30
0.0
 40
1.5
 50
269.99998999999991
 51
327.0
  0
ARC
  5
CB3
  8
0
  6
CONTINUOUS
 62
     7
 10
-559.84051999999997
 20
324.86090000000002
 30
0.0
 40
2.0
 50
188.6296199999999
 51
269.99998999999991
  0
ARC
  5
CB4
  8
0
  6
CONTINUOUS
 62
     7
 10
-559.92089999999996
 20
324.86090000000002
 30
0.0
 40
2.0
 50
187.9504399999999
 51
269.99998999999991
  0
ARC
  5
CB5
  8
0
  6
CONTINUOUS
 62
     7
 10
-537.42902000000004
 20
321.36090000000002
 30
0.0
 40
1.5
 50
1.500002699999996
 51
90.000003000000007
  0
ARC
  5
CB6
  8
0
  6
CONTINUOUS
 62
     7
 10
-526.38842999999986
 20
396.99090999999987
 30
0.0
 40
1.0000056999999991
 50
269.99998999999991
 51
90.000003000000007
  0
ARC
  5
CB7
  8
0
  6
CONTINUOUS
 62
     7
 10
-526.38842999999986
 20
386.99090999999999
 30
0.0
 40
1.0000056999999991
 50
269.99998999999991
 51
90.000003000000007
  0
ARC
  5
CB8
  8
0
  6
CONTINUOUS
 62
     7
 10
-526.38842999999986
 20
376.99090999999999
 30
0.0
 40
1.0000056999999991
 50
269.99998999999991
 51
90.000003000000007
  0
ARC
  5
CB9
  8
0
  6
CONTINUOUS
 62
     7
 10
-526.38842999999986
 20
366.99090999999987
 30
0.0
 40
1.0000056999999991
 50
269.99998999999991
 51
90.000003000000007
  0
ARC
  5
CBA
  8
0
  6
CONTINUOUS
 62
     7
 10
-475.82715000000002
 20
349.49090999999999
 30
0.0
 40
1.5
 50
179.99998999999991
 51
270.0
  0
ARC
  5
CBB
  8
0
  6
CONTINUOUS
 62
     7
 10
-493.82714999999979
 20
349.49090999999999
 30
0.0
 40
1.5
 50
269.99998999999991
 51
0.00000068324516
  0
ARC
  5
CBC
  8
0
  6
CONTINUOUS
 62
     7
 10
-493.8071299999998
 20
349.63092
 30
0.0
 40
1.0
 50
269.99998999999991
 51
0.00000068324625
  0
ARC
  5
CBD
  8
0
  6
CONTINUOUS
 62
     7
 10
-475.84710999999999
 20
349.63092
 30
0.0
 40
1.0
 50
179.99998999999991
 51
270.0
  0
CIRCLE
  5
CBE
  8
0
  6
CONTINUOUS
 62
     3
 10
-487.32715000000002
 20
410.49090999999987
 30
0.0
 40
1.1000000000000001
  0
CIRCLE
  5
CBF
  8
0
  6
CONTINUOUS
 62
     3
 10
-487.32715000000002
 20
410.49090999999987
 30
0.0
 40
1.149999999999999
  0
CIRCLE
  5
CC0
  8
0
  6
CONTINUOUS
 62
     3
 10
-482.32715000000002
 20
410.49090999999987
 30
0.0
 40
1.0
  0
ARC
  5
CC1
  8
0
  6
CONTINUOUS
 62
     7
 10
-493.82714999999979
 20
409.49090999999987
 30
0.0
 40
1.02
 50
269.99998999999991
 51
0.00000068324403
  0
ARC
  5
CC2
  8
0
  6
CONTINUOUS
 62
     7
 10
-475.82715000000002
 20
409.49090999999987
 30
0.0
 40
1.02
 50
179.99998999999991
 51
270.0
  0
ARC
  5
CC3
  8
0
  6
CONTINUOUS
 62
     7
 10
-493.82714999999979
 20
409.49090999999987
 30
0.0
 40
1.5
 50
269.99998999999991
 51
0.00000068324516
  0
ARC
  5
CC4
  8
0
  6
CONTINUOUS
 62
     7
 10
-475.82715000000002
 20
409.49090999999987
 30
0.0
 40
1.5
 50
179.99998999999991
 51
270.0
  0
CIRCLE
  5
CC5
  8
0
  6
CONTINUOUS
 62
     3
 10
-482.32715000000002
 20
353.49090999999999
 30
0.0
 40
1.0
  0
CIRCLE
  5
CC6
  8
0
  6
CONTINUOUS
 62
     3
 10
-487.32715000000002
 20
353.49090999999999
 30
0.0
 40
1.149999999999999
  0
CIRCLE
  5
CC7
  8
0
  6
CONTINUOUS
 62
     3
 10
-487.32715000000002
 20
353.49090999999999
 30
0.0
 40
1.1000000000000001
  0
ARC
  5
CC8
  8
0
  6
CONTINUOUS
 62
     7
 10
-493.82714999999979
 20
354.49090999999987
 30
0.0
 40
1.02
 50
0.0
 51
90.000003000000007
  0
ARC
  5
CC9
  8
0
  6
CONTINUOUS
 62
     7
 10
-475.82715000000002
 20
354.49090999999987
 30
0.0
 40
1.02
 50
90.000003000000007
 51
180.00001
  0
ARC
  5
CCA
  8
0
  6
CONTINUOUS
 62
     7
 10
-493.82714999999979
 20
354.49090999999987
 30
0.0
 40
1.5
 50
0.0
 51
90.000003000000007
  0
ARC
  5
CCB
  8
0
  6
CONTINUOUS
 62
     7
 10
-475.82715000000002
 20
354.49090999999987
 30
0.0
 40
1.5
 50
90.000003000000007
 51
180.00001
  0
ARC
  5
CCC
  8
0
  6
CONTINUOUS
 62
     7
 10
-525.16216999999995
 20
366.98090000000002
 30
0.0
 40
1.3300148000000001
 50
269.72941999999989
 51
90.270567000000014
  0
ARC
  5
CCD
  8
0
  6
CONTINUOUS
 62
     7
 10
-525.10022000000004
 20
376.99090999999999
 30
0.0
 40
1.2700266
 50
269.62931999999989
 51
90.370669999999961
  0
ARC
  5
CCE
  8
0
  6
CONTINUOUS
 62
     7
 10
-525.10022000000004
 20
387.00092000000001
 30
0.0
 40
1.2700266
 50
269.62931999999989
 51
90.370669999999961
  0
ARC
  5
CCF
  8
0
  6
CONTINUOUS
 62
     7
 10
-525.16216999999995
 20
397.00592
 30
0.0
 40
1.3350147999999991
 50
269.73043000000001
 51
90.269555999999994
  0
ARC
  5
CD0
  8
0
  6
CONTINUOUS
 62
     7
 10
-461.48717999999991
 20
406.99090999999999
 30
0.0
 40
1.0000255999999981
 50
269.58947000000001
 51
90.410531000000006
  0
ARC
  5
CD1
  8
0
  6
CONTINUOUS
 62
     7
 10
-457.78717
 20
407.02094
 30
0.0
 40
1.460011199999999
 50
269.77525000000003
 51
90.224749999999986
  0
ARC
  5
CD2
  8
0
  6
CONTINUOUS
 62
     7
 10
-461.48717999999991
 20
356.99090999999987
 30
0.0
 40
1.0000255999999981
 50
269.58947000000001
 51
90.410531000000006
  0
ARC
  5
CD3
  8
0
  6
CONTINUOUS
 62
     7
 10
-457.78717
 20
356.96087999999992
 30
0.0
 40
1.460011199999999
 50
269.77525000000003
 51
90.224749999999986
  0
ARC
  5
CD4
  8
0
  6
CONTINUOUS
 62
     7
 10
-475.84710999999999
 20
414.35088999999988
 30
0.0
 40
1.0
 50
90.000003000000007
 51
180.00001
  0
ARC
  5
CD5
  8
0
  6
CONTINUOUS
 62
     7
 10
-475.82715000000002
 20
414.49090999999987
 30
0.0
 40
1.5
 50
90.000003000000007
 51
180.00001
  0
ARC
  5
CD6
  8
0
  6
CONTINUOUS
 62
     7
 10
-493.82714999999979
 20
414.49090999999987
 30
0.0
 40
1.5
 50
0.0
 51
90.000003000000007
  0
ARC
  5
CD7
  8
0
  6
CONTINUOUS
 62
     7
 10
-493.8071299999998
 20
414.35088999999988
 30
0.0
 40
1.0
 50
0.0
 51
90.000003000000007
  0
ARC
  5
CD8
  8
0
  6
CONTINUOUS
 62
     7
 10
-430.82715000000002
 20
348.05095999999992
 30
0.0
 40
2.0
 50
0.0
 51
90.000003000000007
  0
ARC
  5
CD9
  8
0
  6
CONTINUOUS
 62
     7
 10
-430.82715000000002
 20
415.93084999999979
 30
0.0
 40
2.0
 50
270.0
 51
0.0
  0
ARC
  5
CDA
  8
0
  6
CONTINUOUS
 62
     7
 10
-145.2809399999999
 20
147.34795
 30
0.0
 40
44.0
 50
47.547316999999993
 51
84.505819000000017
  0
CIRCLE
  5
CDB
  8
0
  6
CONTINUOUS
 62
     7
 10
-95.299698000000006
 20
168.69993000000011
 30
0.0
 40
4.9999995000000004
  0
CIRCLE
  5
CDC
  8
0
  6
CONTINUOUS
 62
     7
 10
-169.38999999999999
 20
72.143552000000199
 30
0.0
 40
4.9999995000000004
  0
ARC
  5
CDD
  8
0
  6
CONTINUOUS
 62
     7
 10
-145.2809399999999
 20
147.34795
 30
0.0
 40
9.5
 50
108.40848
 51
71.591511999999994
  0
CIRCLE
  5
CDE
  8
0
  6
CONTINUOUS
 62
     2
 10
-145.2809399999999
 20
147.34795
 30
0.0
 40
3.0
  0
CIRCLE
  5
CDF
  8
0
  6
CONTINUOUS
 62
     7
 10
-145.2809399999999
 20
147.34795
 30
0.0
 40
2.4999997999999981
  0
ARC
  5
CE0
  8
0
  6
CONTINUOUS
 62
     7
 10
-165.03138999999999
 20
120.52643
 30
0.0
 40
3.0
 50
45.826031
 51
135.0
  0
ARC
  5
CE1
  8
0
  6
CONTINUOUS
 62
     7
 10
-145.2809399999999
 20
147.34795
 30
0.0
 40
44.0
 50
19.999998999999981
 51
42.452682000000003
  0
CIRCLE
  5
CE2
  8
0
  6
CONTINUOUS
 62
     7
 10
-85.176872000000003
 20
87.243871000000198
 30
0.0
 40
5.0
  0
ARC
  5
CE3
  8
0
  6
CONTINUOUS
 62
     7
 10
-145.2809399999999
 20
147.34795
 30
0.0
 40
44.0
 50
95.494178999999988
 51
132.4526799999999
  0
ARC
  5
CE4
  8
0
  6
CONTINUOUS
 62
     7
 10
-109.77563000000001
 20
75.901895000000195
 30
0.0
 40
5.0
 50
123.10912999999979
 51
198.25198
  0
ARC
  5
CE5
  8
0
  6
CONTINUOUS
 62
     7
 10
-180.78624999999971
 20
75.901895000000195
 30
0.0
 40
5.0
 50
341.74801999999988
 51
56.890858999999999
  0
ARC
  5
CE6
  8
0
  6
CONTINUOUS
 62
     7
 10
-193.22368
 20
106.4762700000001
 30
0.0
 40
3.0
 50
220.44792000000001
 51
315.0
  0
ARC
  5
CE7
  8
0
  6
CONTINUOUS
 62
     7
 10
-116.5257899999997
 20
91.293142000000216
 30
0.0
 40
3.0
 50
297.15705000000008
 51
31.70912199999999
  0
ARC
  5
CE8
  8
0
  6
CONTINUOUS
 62
     7
 10
-108.0184999999999
 20
96.549207000000209
 30
0.0
 40
3.0
 50
211.70912000000001
 51
306.26119999999992
  0
ARC
  5
CE9
  8
0
  6
CONTINUOUS
 62
     7
 10
-145.2809399999999
 20
147.34795
 30
0.0
 40
70.0
 50
290.65615000000008
 51
249.3438399999998
  0
ARC
  5
CEA
  8
0
  6
CONTINUOUS
 62
     7
 10
-145.2809399999999
 20
147.34795
 30
0.0
 40
66.0
 50
291.2799599999999
 51
248.72002999999989
  0
ARC
  5
CEB
  8
0
  6
CONTINUOUS
 62
     7
 10
-123.73094
 20
112.4679390000002
 30
0.0
 40
20.0
 50
225.82602999999969
 51
17.592213999999991
  0
CIRCLE
  5
CEC
  8
0
  6
CONTINUOUS
 62
     7
 10
-85.176872000000003
 20
207.4520200000002
 30
0.0
 40
5.0
  0
CIRCLE
  5
CED
  8
0
  6
CONTINUOUS
 62
     7
 10
-205.38500999999999
 20
87.243871000000198
 30
0.0
 40
5.0
  0
ARC
  5
CEE
  8
0
  6
CONTINUOUS
 62
     7
 10
-169.38999999999999
 20
72.143529000000186
 30
0.0
 40
7.0000004999999987
 50
161.74801999999991
 51
270.0
  0
ARC
  5
CEF
  8
0
  6
CONTINUOUS
 62
     7
 10
-145.2809399999999
 20
130.34794000000011
 30
0.0
 40
60.0
 50
233.93341000000001
 51
236.89085
  0
ARC
  5
CF0
  8
0
  6
CONTINUOUS
 62
     7
 10
-145.2809399999999
 20
130.34794000000011
 30
0.0
 40
60.0
 50
303.10913999999991
 51
304.41151000000002
  0
CIRCLE
  5
CF1
  8
0
  6
CONTINUOUS
 62
     7
 10
-205.38500999999999
 20
207.4520200000002
 30
0.0
 40
5.0
  0
ARC
  5
CF2
  8
0
  6
CENTER
 62
     7
 10
-145.2809399999999
 20
147.34795
 30
0.0
 40
85.0
 50
215.69552999999991
 51
234.1425799999999
  0
CIRCLE
  5
CF3
  8
0
  6
CONTINUOUS
 62
     7
 10
-121.17188
 20
72.143552000000199
 30
0.0
 40
4.9999995000000004
  0
CIRCLE
  5
CF4
  8
0
  6
CONTINUOUS
 62
     7
 10
-195.26221000000001
 20
168.69993000000011
 30
0.0
 40
4.9999995000000004
  0
ARC
  5
CF5
  8
0
  6
CONTINUOUS
 62
     7
 10
-375.82711999999992
 20
422.43130000000002
 30
0.0
 40
2.0
 50
179.99998999999991
 51
271.51463999999999
  0
ARC
  5
CF6
  8
0
  6
CONTINUOUS
 62
     7
 10
-380.82715000000002
 20
454.40152
 30
0.0
 40
3.0
 50
272.0
 51
0.0
  0
ARC
  5
CF7
  8
0
  6
CONTINUOUS
 62
     7
 10
-171.88160999999991
 20
166.8775200000002
 30
0.0
 40
3.0
 50
323.71474000000001
 51
45.00000099999999
  0
ARC
  5
CF8
  8
0
  6
CONTINUOUS
 62
     7
 10
-145.2809399999999
 20
147.34795
 30
0.0
 40
44.0
 50
137.5473199999997
 51
174.50581
  0
ARC
  5
CF9
  8
0
  6
CONTINUOUS
 62
     7
 10
-145.2809399999999
 20
147.34795
 30
0.0
 40
20.0
 50
270.0
 51
90.000003000000007
  0
ARC
  5
CFA
  8
0
  6
CONTINUOUS
 62
     7
 10
-186.1526199999999
 20
99.405195000000134
 30
0.0
 40
3.0
 50
135.0
 51
229.55207999999999
  0
ARC
  5
CFB
  8
0
  6
CONTINUOUS
 62
     7
 10
-186.1526199999999
 20
195.2906900000001
 30
0.0
 40
3.0
 50
130.44793000000001
 51
225.0
  0
ARC
  5
CFC
  8
0
  6
CONTINUOUS
 62
     7
 10
-125.7513499999999
 20
173.9486
 30
0.0
 40
3.0
 50
233.7147499999999
 51
315.0
  0
ARC
  5
CFD
  8
0
  6
CONTINUOUS
 62
     7
 10
-149.7809399999999
 20
210.1870200000001
 30
0.0
 40
3.0
 50
0.0
 51
94.096045999999987
  0
ARC
  5
CFE
  8
0
  6
CONTINUOUS
 62
     7
 10
-171.88160999999991
 20
127.8183600000001
 30
0.0
 40
3.0
 50
315.0
 51
36.285257000000001
  0
ARC
  5
CFF
  8
0
  6
CENTER
 62
     7
 10
-145.2809399999999
 20
147.34795
 30
0.0
 40
85.0
 50
125.69552999999991
 51
144.14258000000001
  0
ARC
  5
D00
  8
0
  6
CONTINUOUS
 62
     7
 10
-97.338211000000001
 20
188.2196099999999
 30
0.0
 40
3.0
 50
40.447929000000002
 51
135.0
  0
ARC
  5
D01
  8
0
  6
CONTINUOUS
 62
     7
 10
-385.82715000000002
 20
446.22204999999991
 30
0.0
 40
5.0
 50
91.999998000000005
 51
180.00001
  0
ARC
  5
D02
  8
0
  6
CENTER
 62
     7
 10
-145.2809399999999
 20
147.34795
 30
0.0
 40
85.0
 50
305.69552999999968
 51
324.14258000000001
  0
ARC
  5
D03
  8
0
  6
CONTINUOUS
 62
     7
 10
-364.82715000000002
 20
401.08962999999989
 30
0.0
 40
2.0
 50
0.0
 51
45.00000099999999
  0
ARC
  5
D04
  8
0
  6
CONTINUOUS
 62
     7
 10
-145.2809399999999
 20
147.34795
 30
0.0
 40
20.0
 50
90.000003000000007
 51
270.0
  0
ARC
  5
D05
  8
0
  6
CONTINUOUS
 62
     7
 10
-375.82711999999992
 20
441.49093999999991
 30
0.0
 40
3.0
 50
0.0
 51
90.000003000000007
  0
ARC
  5
D06
  8
0
  6
CONTINUOUS
 62
     7
 10
-145.2809399999999
 20
147.34795
 30
0.0
 40
20.0
 50
270.0
 51
90.000003000000007
  0
ARC
  5
D07
  8
0
  6
CONTINUOUS
 62
     7
 10
-193.22368
 20
188.2196099999999
 30
0.0
 40
3.0
 50
45.00000099999999
 51
139.5520799999999
  0
ARC
  5
D08
  8
0
  6
CONTINUOUS
 62
     7
 10
-104.40926
 20
195.2906900000001
 30
0.0
 40
3.0
 50
315.0
 51
49.552073
  0
ARC
  5
D09
  8
0
  6
CONTINUOUS
 62
     7
 10
-375.82711999999992
 20
454.71032999999989
 30
0.0
 40
2.0
 50
91.999998000000005
 51
180.00001
  0
ARC
  5
D0A
  8
0
  6
CONTINUOUS
 62
     7
 10
-145.2809399999999
 20
147.34795
 30
0.0
 40
20.0
 50
90.000003000000007
 51
270.0
  0
ARC
  5
D0B
  8
0
  6
CONTINUOUS
 62
     7
 10
-140.78093999999979
 20
210.1870200000001
 30
0.0
 40
3.0
 50
85.903959
 51
180.00001
  0
ARC
  5
D0C
  8
0
  6
CONTINUOUS
 62
     7
 10
-208.12001000000001
 20
142.84795000000011
 30
0.0
 40
3.0
 50
90.000003000000007
 51
184.09603999999999
  0
ARC
  5
D0D
  8
0
  6
CONTINUOUS
 62
     7
 10
-145.2809399999999
 20
147.34795
 30
0.0
 40
44.0
 50
185.49419
 51
222.45267999999999
  0
ARC
  5
D0E
  8
0
  6
CONTINUOUS
 62
     7
 10
-149.7809399999999
 20
194.13201000000001
 30
0.0
 40
3.0
 50
275.49417999999991
 51
0.0
  0
ARC
  5
D0F
  8
0
  6
CONTINUOUS
 62
     7
 10
-140.78093999999979
 20
194.13201000000001
 30
0.0
 40
3.0
 50
179.99998999999991
 51
264.50582000000003
  0
ARC
  5
D10
  8
0
  6
CONTINUOUS
 62
     7
 10
-208.12001000000001
 20
151.84795000000011
 30
0.0
 40
3.0
 50
175.90395000000001
 51
270.0
  0
ARC
  5
D11
  8
0
  6
CONTINUOUS
 62
     7
 10
-192.06503000000001
 20
142.84795000000011
 30
0.0
 40
3.0
 50
5.494178999999999
 51
90.000003000000007
  0
ARC
  5
D12
  8
0
  6
CONTINUOUS
 62
     7
 10
-192.06503000000001
 20
151.84795000000011
 30
0.0
 40
3.0
 50
270.0
 51
354.50582000000009
  0
ARC
  5
D13
  8
0
  6
CONTINUOUS
 62
     7
 10
-82.441872000000004
 20
151.84795000000011
 30
0.0
 40
3.0
 50
270.0
 51
4.096044
  0
ARC
  5
D14
  8
0
  6
CONTINUOUS
 62
     7
 10
-82.441872000000004
 20
142.84795000000011
 30
0.0
 40
3.0
 50
355.90395999999993
 51
90.000003000000007
  0
ARC
  5
D15
  8
0
  6
CONTINUOUS
 62
     7
 10
-93.626732000000004
 20
142.84795000000011
 30
0.0
 40
3.0
 50
90.000003000000007
 51
200.0
  0
ARC
  5
D16
  8
0
  6
CONTINUOUS
 62
     7
 10
-96.902443000000005
 20
151.84795000000011
 30
0.0
 40
3.0
 50
200.0
 51
270.0
  0
ARC
  5
D17
  8
0
  6
CENTER
 62
     7
 10
-145.2809399999999
 20
147.34795
 30
0.0
 40
85.0
 50
35.695528000000017
 51
54.14258199999999
  0
ARC
  5
D18
  8
0
  6
CONTINUOUS
 62
     7
 10
-145.2809399999999
 20
147.34795
 30
0.0
 40
30.0
 50
17.592213999999991
 51
225.82602999999969
  0
ARC
  5
D19
  8
0
  6
CONTINUOUS
 62
     7
 10
-118.68026999999969
 20
166.8775200000002
 30
0.0
 40
3.0
 50
135.0
 51
216.28525999999991
  0
ARC
  5
D1A
  8
0
  6
CONTINUOUS
 62
     7
 10
-164.81053
 20
173.9486
 30
0.0
 40
3.0
 50
225.0
 51
306.28525999999982
  0
ARC
  5
D1B
  8
0
  6
CONTINUOUS
 62
     7
 10
-83.936332999999976
 20
208.6925600000001
 30
0.0
 40
10.0
 50
4.9999998999999971
 51
84.999996999999979
  0
ARC
  5
D1C
  8
0
  6
CONTINUOUS
 62
     7
 10
-145.2809399999999
 20
130.34794000000011
 30
0.0
 40
60.0
 50
303.10913999999991
 51
306.06658999999991
  0
ARC
  5
D1D
  8
0
  6
CONTINUOUS
 62
     7
 10
-206.62555
 20
208.6925600000001
 30
0.0
 40
10.0
 50
95.000001999999995
 51
175.00001
  0
ARC
  5
D1E
  8
0
  6
CONTINUOUS
 62
     7
 10
-83.906165999999985
 20
86.347944000000197
 30
0.0
 40
10.0
 50
270.0
 51
355.0
  0
ARC
  5
D1F
  8
0
  6
CONTINUOUS
 62
     7
 10
-206.65572
 20
86.347944000000197
 30
0.0
 40
10.0
 50
184.99999
 51
270.0
  0
ARC
  5
D20
  8
0
  6
CONTINUOUS
 62
     7
 10
-153.24897999999999
 20
88.847951000000137
 30
0.0
 40
3.0
 50
270.0
 51
45.00000099999999
  0
ARC
  5
D21
  8
0
  6
CONTINUOUS
 62
     7
 10
-121.17188
 20
72.143529000000186
 30
0.0
 40
7.0000004999999987
 50
270.0
 51
18.251978000000001
  0
ARC
  5
D22
  8
0
  6
CONTINUOUS
 62
     7
 10
-375.82711999999992
 20
309.27150999999992
 30
0.0
 40
2.0
 50
179.99998999999991
 51
268.00000999999992
  0
ARC
  5
D23
  8
0
  6
CONTINUOUS
 62
     7
 10
-375.82711999999992
 20
322.49090999999999
 30
0.0
 40
3.0
 50
270.0
 51
0.0
  0
ARC
  5
D24
  8
0
  6
CONTINUOUS
 62
     7
 10
-364.82715000000002
 20
362.89220999999998
 30
0.0
 40
2.0
 50
315.0
 51
0.0
  0
ARC
  5
D25
  8
0
  6
CONTINUOUS
 62
     7
 10
-385.82715000000002
 20
317.75979999999993
 30
0.0
 40
5.0
 50
179.99998999999991
 51
268.00000999999992
  0
ARC
  5
D26
  8
0
  6
CONTINUOUS
 62
     7
 10
-380.82715000000002
 20
309.58031999999992
 30
0.0
 40
3.0
 50
0.0
 51
88.0
  0
ARC
  5
D27
  8
0
  6
CONTINUOUS
 62
     7
 10
-375.82711999999992
 20
341.55054000000001
 30
0.0
 40
2.0
 50
88.485352999999989
 51
180.00001
  0
ARC
  5
D28
  8
0
  6
CONTINUOUS
 62
     7
 10
-433.32711999999992
 20
67.309508999999991
 30
0.0
 40
1.5
 50
179.99998999999991
 51
268.50000999999992
  0
ARC
  5
D29
  8
0
  6
CONTINUOUS
 62
     7
 10
-375.82711999999992
 20
187.78833
 30
0.0
 40
2.0
 50
179.99998999999991
 51
271.51463999999999
  0
ARC
  5
D2A
  8
0
  6
CONTINUOUS
 62
     7
 10
-380.82715000000002
 20
219.75855999999999
 30
0.0
 40
3.0
 50
272.0
 51
0.0
  0
ARC
  5
D2B
  8
0
  6
CONTINUOUS
 62
     7
 10
-385.82715000000002
 20
211.57908999999989
 30
0.0
 40
5.0
 50
91.999998000000005
 51
180.00001
  0
ARC
  5
D2C
  8
0
  6
CONTINUOUS
 62
     7
 10
-385.82715000000002
 20
105.61266000000001
 30
0.0
 40
5.0
 50
179.99998999999991
 51
270.0
  0
ARC
  5
D2D
  8
0
  6
CONTINUOUS
 62
     7
 10
-430.82715000000002
 20
79.556076000000004
 30
0.0
 40
2.0
 50
270.0
 51
0.0
  0
ARC
  5
D2E
  8
0
  6
CONTINUOUS
 62
     7
 10
-364.82715000000002
 20
166.44666000000001
 30
0.0
 40
2.0
 50
0.0
 51
45.00000099999999
  0
ARC
  5
D2F
  8
0
  6
CONTINUOUS
 62
     7
 10
-385.82715000000002
 20
80.271523000000002
 30
0.0
 40
1.0
 50
91.500000999999969
 51
180.00001
  0
ARC
  5
D30
  8
0
  6
CONTINUOUS
 62
     7
 10
-375.82711999999992
 20
206.8479599999998
 30
0.0
 40
3.0
 50
0.0
 51
90.000003000000007
  0
ARC
  5
D31
  8
0
  6
CONTINUOUS
 62
     7
 10
-364.82715000000002
 20
128.10353000000001
 30
0.0
 40
2.0
 50
315.0
 51
0.0
  0
ARC
  5
D32
  8
0
  6
CONTINUOUS
 62
     7
 10
-393.82711999999992
 20
194.10837000000001
 30
0.0
 40
3.0
 50
271.49999999999972
 51
0.0
  0
ARC
  5
D33
  8
0
  6
CONTINUOUS
 62
     7
 10
-427.32711999999992
 20
188.7296
 30
0.0
 40
1.5
 50
91.500000999999969
 51
180.00001
  0
ARC
  5
D34
  8
0
  6
CONTINUOUS
 62
     7
 10
-430.32711999999998
 20
188.28053
 30
0.0
 40
1.5
 50
271.49999999999972
 51
0.0
  0
ARC
  5
D35
  8
0
  6
CONTINUOUS
 62
     3
 10
-528.32714999999985
 20
152.8477
 30
0.0
 40
5.5
 50
264.78411999999992
 51
5.2159094000000001
  0
ARC
  5
D36
  8
0
  6
CONTINUOUS
 62
     7
 10
-575.82714999999985
 20
178.3642999999999
 30
0.0
 40
1.0
 50
120.0264
 51
180.00001
  0
ARC
  5
D37
  8
0
  6
CONTINUOUS
 62
     7
 10
-575.82714999999985
 20
177.32202000000001
 30
0.0
 40
1.0
 50
116.91126
 51
180.00001
  0
ARC
  5
D38
  8
0
  6
CONTINUOUS
 62
     7
 10
-574.55895999999996
 20
179.09734
 30
0.0
 40
1.0
 50
90.000003000000007
 51
120.0264
  0
ARC
  5
D39
  8
0
  6
CONTINUOUS
 62
     7
 10
-574.58789000000002
 20
177.95103
 30
0.0
 40
1.0
 50
90.000003000000007
 51
116.91126
  0
ARC
  5
D3A
  8
0
  6
CONTINUOUS
 62
     7
 10
-574.55011000000002
 20
176.98955000000001
 30
0.0
 40
1.0
 50
90.000003000000007
 51
120.9666
  0
ARC
  5
D3B
  8
0
  6
CONTINUOUS
 62
     7
 10
-574.57848999999999
 20
175.84958999999981
 30
0.0
 40
1.0
 50
90.000003000000007
 51
117.92659999999979
  0
ARC
  5
D3C
  8
0
  6
CONTINUOUS
 62
     7
 10
-574.52849999999989
 20
172.47283999999999
 30
0.0
 40
1.0
 50
90.000003000000007
 51
123.25473
  0
ARC
  5
D3D
  8
0
  6
CONTINUOUS
 62
     7
 10
-574.55584999999985
 20
171.3328699999999
 30
0.0
 40
1.0
 50
90.000003000000007
 51
120.3594999999999
  0
ARC
  5
D3E
  8
0
  6
CONTINUOUS
 62
     7
 10
-575.82714999999985
 20
170.58817999999999
 30
0.0
 40
1.0
 50
120.3594999999999
 51
180.00001
  0
ARC
  5
D3F
  8
0
  6
CONTINUOUS
 62
     7
 10
-575.82714999999985
 20
171.62126000000001
 30
0.0
 40
1.0
 50
123.25473
 51
180.00001
  0
ARC
  5
D40
  8
0
  6
CONTINUOUS
 62
     7
 10
-575.82714999999985
 20
175.18766999999991
 30
0.0
 40
1.0
 50
117.92659999999979
 51
180.00001
  0
ARC
  5
D41
  8
0
  6
CONTINUOUS
 62
     7
 10
-575.82714999999985
 20
176.22325000000001
 30
0.0
 40
1.0
 50
120.9666
 51
180.00001
  0
ARC
  5
D42
  8
0
  6
CONTINUOUS
 62
     7
 10
-574.62249999999995
 20
165.03715999999969
 30
0.0
 40
1.0
 50
90.000003000000007
 51
113.12703
  0
ARC
  5
D43
  8
0
  6
CONTINUOUS
 62
     7
 10
-574.67681999999979
 20
163.09105999999991
 30
0.0
 40
1.0
 50
90.000003000000007
 51
107.0976299999999
  0
ARC
  5
D44
  8
0
  6
CONTINUOUS
 62
     7
 10
-575.82714999999985
 20
162.73723000000001
 30
0.0
 40
1.0
 50
107.0976299999999
 51
180.00001
  0
ARC
  5
D45
  8
0
  6
CONTINUOUS
 62
     7
 10
-575.82714999999985
 20
164.5226899999999
 30
0.0
 40
1.0
 50
113.12703
 51
180.00001
  0
ARC
  5
D46
  8
0
  6
CONTINUOUS
 62
     7
 10
-575.82714999999985
 20
155.34794999999991
 30
0.0
 40
1.0
 50
90.000003000000007
 51
180.00001
  0
ARC
  5
D47
  8
0
  6
CONTINUOUS
 62
     7
 10
-575.82714999999985
 20
155.34794999999991
 30
0.0
 40
1.0
 50
179.99998999999991
 51
270.0
  0
ARC
  5
D48
  8
0
  6
CONTINUOUS
 62
     7
 10
-575.82714999999985
 20
145.34796
 30
0.0
 40
1.0
 50
90.000003000000007
 51
180.00001
  0
ARC
  5
D49
  8
0
  6
CONTINUOUS
 62
     7
 10
-575.82714999999985
 20
145.34796
 30
0.0
 40
1.0
 50
179.99998999999991
 51
270.0
  0
ARC
  5
D4A
  8
0
  6
CONTINUOUS
 62
     7
 10
-575.82714999999985
 20
135.34794999999991
 30
0.0
 40
1.0
 50
90.000003000000007
 51
180.00001
  0
ARC
  5
D4B
  8
0
  6
CONTINUOUS
 62
     7
 10
-575.82714999999985
 20
135.34794999999991
 30
0.0
 40
1.0
 50
179.99998999999991
 51
270.0
  0
ARC
  5
D4C
  8
0
  6
CONTINUOUS
 62
     7
 10
-572.82714999999985
 20
133.34795999999969
 30
0.0
 40
1.0
 50
0.0
 51
90.000003000000007
  0
ARC
  5
D4D
  8
0
  6
CONTINUOUS
 62
     7
 10
-572.82714999999985
 20
137.34794999999991
 30
0.0
 40
1.0
 50
270.0
 51
0.0
  0
ARC
  5
D4E
  8
0
  6
CONTINUOUS
 62
     7
 10
-572.82714999999985
 20
143.34794999999991
 30
0.0
 40
1.0
 50
0.0
 51
90.000003000000007
  0
ARC
  5
D4F
  8
0
  6
CONTINUOUS
 62
     7
 10
-572.82714999999985
 20
147.34795
 30
0.0
 40
1.0
 50
270.0
 51
0.0
  0
ARC
  5
D50
  8
0
  6
CONTINUOUS
 62
     7
 10
-572.82714999999985
 20
153.34795
 30
0.0
 40
1.0
 50
0.0
 51
90.000003000000007
  0
ARC
  5
D51
  8
0
  6
CONTINUOUS
 62
     7
 10
-572.82714999999985
 20
157.34795999999969
 30
0.0
 40
1.0
 50
270.0
 51
0.0
  0
ARC
  5
D52
  8
0
  6
CONTINUOUS
 62
     7
 10
-572.82714999999985
 20
163.09105999999991
 30
0.0
 40
1.0
 50
0.0
 51
90.000003000000007
  0
ARC
  5
D53
  8
0
  6
CONTINUOUS
 62
     7
 10
-572.82714999999985
 20
171.3328699999999
 30
0.0
 40
1.0
 50
0.0
 51
90.000003000000007
  0
ARC
  5
D54
  8
0
  6
CONTINUOUS
 62
     7
 10
-572.52715999999998
 20
166.73716999999991
 30
0.0
 40
0.6999999900000004
 50
270.0
 51
0.0
  0
ARC
  5
D55
  8
0
  6
CONTINUOUS
 62
     7
 10
-572.82714999999985
 20
175.84958999999981
 30
0.0
 40
1.0
 50
0.0
 51
90.000003000000007
  0
ARC
  5
D56
  8
0
  6
CONTINUOUS
 62
     7
 10
-572.32709
 20
178.45105000000001
 30
0.0
 40
0.5
 50
0.0
 51
90.000003000000007
  0
ARC
  5
D57
  8
0
  6
CONTINUOUS
 62
     7
 10
-572.32709
 20
180.59734
 30
0.0
 40
0.5
 50
270.0
 51
0.0
  0
ARC
  5
D58
  8
0
  6
CONTINUOUS
 62
     7
 10
-560.27777000000003
 20
95.347945999999993
 30
0.0
 40
1.0
 50
90.000003000000007
 51
270.0
  0
ARC
  5
D59
  8
0
  6
CONTINUOUS
 62
     7
 10
-474.52712999999989
 20
162.71514999999999
 30
0.0
 40
1.0
 50
90.000003000000007
 51
180.00001
  0
ARC
  5
D5A
  8
0
  6
CONTINUOUS
 62
     7
 10
-474.52712999999989
 20
97.980705000000015
 30
0.0
 40
1.0
 50
179.99998999999991
 51
270.0
  0
ARC
  5
D5B
  8
0
  6
CONTINUOUS
 62
     7
 10
-458.00504000000012
 20
165.39306999999999
 30
0.0
 40
1.6779127
 50
270.0
 51
90.000003000000007
  0
ARC
  5
D5C
  8
0
  6
CONTINUOUS
 62
     7
 10
-461.48275999999993
 20
165.34794999999991
 30
0.0
 40
1.0
 50
270.0
 51
90.000003000000007
  0
ARC
  5
D5D
  8
0
  6
CONTINUOUS
 62
     7
 10
-461.48275999999993
 20
95.347945999999993
 30
0.0
 40
1.0
 50
270.0
 51
90.000003000000007
  0
ARC
  5
D5E
  8
0
  6
CONTINUOUS
 62
     7
 10
-458.00504000000012
 20
95.302788000000007
 30
0.0
 40
1.6779127
 50
270.0
 51
90.000003000000007
  0
ARC
  5
D5F
  8
0
  6
CONTINUOUS
 62
     7
 10
-572.82714999999985
 20
97.604789999999994
 30
0.0
 40
1.0
 50
270.0
 51
0.0
  0
ARC
  5
D60
  8
0
  6
CONTINUOUS
 62
     7
 10
-572.82714999999985
 20
107.3479499999999
 30
0.0
 40
1.0
 50
270.0
 51
0.0
  0
ARC
  5
D61
  8
0
  6
CONTINUOUS
 62
     7
 10
-572.82714999999985
 20
103.3479599999999
 30
0.0
 40
1.0
 50
0.0
 51
90.000003000000007
  0
ARC
  5
D62
  8
0
  6
CONTINUOUS
 62
     7
 10
-572.52715999999998
 20
93.958725000000015
 30
0.0
 40
0.6999999900000004
 50
0.0
 51
90.000003000000007
  0
ARC
  5
D63
  8
0
  6
CONTINUOUS
 62
     7
 10
-574.62249999999995
 20
95.658676
 30
0.0
 40
1.0
 50
246.87297000000001
 51
270.0
  0
ARC
  5
D64
  8
0
  6
CONTINUOUS
 62
     7
 10
-574.67681999999979
 20
97.604789999999994
 30
0.0
 40
1.0
 50
252.90236999999999
 51
270.0
  0
ARC
  5
D65
  8
0
  6
CONTINUOUS
 62
     7
 10
-575.82714999999985
 20
97.958664000000013
 30
0.0
 40
1.0
 50
179.99998999999991
 51
252.90236999999999
  0
ARC
  5
D66
  8
0
  6
CONTINUOUS
 62
     7
 10
-575.82714999999985
 20
96.173203000000015
 30
0.0
 40
1.0
 50
179.99998999999991
 51
246.8729799999999
  0
ARC
  5
D67
  8
0
  6
CONTINUOUS
 62
     7
 10
-575.82714999999985
 20
105.3479499999999
 30
0.0
 40
1.0
 50
179.99998999999991
 51
270.0
  0
ARC
  5
D68
  8
0
  6
CONTINUOUS
 62
     7
 10
-575.82714999999985
 20
105.3479499999999
 30
0.0
 40
1.0
 50
90.000003000000007
 51
180.00001
  0
ARC
  5
D69
  8
0
  6
CONTINUOUS
 62
     7
 10
-575.82714999999985
 20
115.34796
 30
0.0
 40
1.0
 50
179.99998999999991
 51
270.0
  0
ARC
  5
D6A
  8
0
  6
CONTINUOUS
 62
     7
 10
-575.82714999999985
 20
115.34796
 30
0.0
 40
1.0
 50
90.000003000000007
 51
180.00001
  0
ARC
  5
D6B
  8
0
  6
CONTINUOUS
 62
     7
 10
-575.82714999999985
 20
125.34795
 30
0.0
 40
1.0
 50
179.99998999999991
 51
270.0
  0
ARC
  5
D6C
  8
0
  6
CONTINUOUS
 62
     7
 10
-575.82714999999985
 20
125.34795
 30
0.0
 40
1.0
 50
90.000003000000007
 51
180.00001
  0
ARC
  5
D6D
  8
0
  6
CONTINUOUS
 62
     7
 10
-572.82714999999985
 20
127.34796
 30
0.0
 40
1.0
 50
270.0
 51
0.0
  0
ARC
  5
D6E
  8
0
  6
CONTINUOUS
 62
     7
 10
-572.82714999999985
 20
123.34795
 30
0.0
 40
1.0
 50
0.0
 51
90.000003000000007
  0
ARC
  5
D6F
  8
0
  6
CONTINUOUS
 62
     7
 10
-572.82714999999985
 20
117.34795
 30
0.0
 40
1.0
 50
270.0
 51
0.0
  0
ARC
  5
D70
  8
0
  6
CONTINUOUS
 62
     7
 10
-572.82714999999985
 20
113.3479499999999
 30
0.0
 40
1.0
 50
0.0
 51
90.000003000000007
  0
ARC
  5
D71
  8
0
  6
CONTINUOUS
 62
     7
 10
-477.3271499999999
 20
101.84796
 30
0.0
 40
1.5
 50
270.0
 51
0.0
  0
ARC
  5
D72
  8
0
  6
CONTINUOUS
 62
     7
 10
-477.3271499999999
 20
158.84796
 30
0.0
 40
1.5
 50
0.0
 51
90.000003000000007
  0
ARC
  5
D73
  8
0
  6
CONTINUOUS
 62
     7
 10
-561.14977999999985
 20
165.39306999999999
 30
0.0
 40
1.6779127
 50
90.000003000000007
 51
270.0
  0
ARC
  5
D74
  8
0
  6
CONTINUOUS
 62
     7
 10
-560.27777000000003
 20
165.34794999999991
 30
0.0
 40
1.0
 50
90.000003000000007
 51
270.0
  0
ARC
  5
D75
  8
0
  6
CONTINUOUS
 62
     7
 10
-560.27777000000003
 20
155.34794999999991
 30
0.0
 40
1.0
 50
90.000003000000007
 51
270.0
  0
ARC
  5
D76
  8
0
  6
CONTINUOUS
 62
     7
 10
-560.27777000000003
 20
145.34796
 30
0.0
 40
1.0
 50
90.000003000000007
 51
270.0
  0
ARC
  5
D77
  8
0
  6
CONTINUOUS
 62
     7
 10
-560.27777000000003
 20
135.34794999999991
 30
0.0
 40
1.0
 50
90.000003000000007
 51
270.0
  0
ARC
  5
D78
  8
0
  6
CONTINUOUS
 62
     7
 10
-560.27777000000003
 20
125.34795
 30
0.0
 40
1.0
 50
90.000003000000007
 51
270.0
  0
ARC
  5
D79
  8
0
  6
CONTINUOUS
 62
     7
 10
-560.27777000000003
 20
115.34796
 30
0.0
 40
1.0
 50
90.000003000000007
 51
270.0
  0
ARC
  5
D7A
  8
0
  6
CONTINUOUS
 62
     7
 10
-560.27777000000003
 20
105.3479499999999
 30
0.0
 40
1.0
 50
90.000003000000007
 51
270.0
  0
ARC
  5
D7B
  8
0
  6
CONTINUOUS
 62
     7
 10
-561.36565999999993
 20
155.37261999999981
 30
0.0
 40
1.4614868000000001
 50
90.000003000000007
 51
270.0
  0
ARC
  5
D7C
  8
0
  6
CONTINUOUS
 62
     7
 10
-561.49621999999988
 20
145.36052000000001
 30
0.0
 40
1.330932599999999
 50
90.000003000000007
 51
270.0
  0
ARC
  5
D7D
  8
0
  6
CONTINUOUS
 62
     7
 10
-561.55822999999987
 20
135.35178999999991
 30
0.0
 40
1.268920899999999
 50
90.000003000000007
 51
270.0
  0
ARC
  5
D7E
  8
0
  6
CONTINUOUS
 62
     7
 10
-561.55822999999987
 20
125.34406
 30
0.0
 40
1.268920899999999
 50
90.000003000000007
 51
270.0
  0
ARC
  5
D7F
  8
0
  6
CONTINUOUS
 62
     7
 10
-561.49621999999988
 20
115.33537
 30
0.0
 40
1.330932599999999
 50
90.000003000000007
 51
270.0
  0
ARC
  5
D80
  8
0
  6
CONTINUOUS
 62
     7
 10
-561.36559999999986
 20
105.32323
 30
0.0
 40
1.461502099999995
 50
90.000003000000007
 51
270.0
  0
ARC
  5
D81
  8
0
  6
CONTINUOUS
 62
     7
 10
-561.14922999999999
 20
95.302788000000007
 30
0.0
 40
1.6779174999999991
 50
90.000003000000007
 51
270.0
  0
ARC
  5
D82
  8
0
  6
CONTINUOUS
 62
     7
 10
-572.82714999999985
 20
89.363028999999983
 30
0.0
 40
1.0
 50
334.63675999999998
 51
0.0
  0
ARC
  5
D83
  8
0
  6
CONTINUOUS
 62
     7
 10
-575.82714999999985
 20
90.107718999999989
 30
0.0
 40
1.0
 50
179.99998999999991
 51
239.64048999999989
  0
ARC
  5
D84
  8
0
  6
CONTINUOUS
 62
     7
 10
-559.62067000000002
 20
184.6312299999999
 30
0.0
 40
2.0
 50
90.000003000000007
 51
169.28431
  0
ARC
  5
D85
  8
0
  6
CONTINUOUS
 62
     7
 10
-537.32714999999985
 20
167.0709699999999
 30
0.0
 40
1.5
 50
90.000003000000007
 51
180.00001
  0
ARC
  5
D86
  8
0
  6
CONTINUOUS
 62
     7
 10
-559.57213999999999
 20
187.47759999999991
 30
0.0
 40
2.0
 50
90.000003000000007
 51
170.91503
  0
ARC
  5
D87
  8
0
  6
CONTINUOUS
 62
     7
 10
-559.55877999999996
 20
189.32532
 30
0.0
 40
2.0
 50
90.000003000000007
 51
171.3566099999999
  0
ARC
  5
D88
  8
0
  6
CONTINUOUS
 62
     7
 10
-559.53747999999996
 20
190.2358199999999
 30
0.0
 40
2.0
 50
90.000003000000007
 51
172.05596
  0
ARC
  5
D89
  8
0
  6
CONTINUOUS
 62
     7
 10
-525.82709
 20
187.47759999999991
 30
0.0
 40
2.0
 50
0.0
 51
90.000003000000007
  0
ARC
  5
D8A
  8
0
  6
CONTINUOUS
 62
     7
 10
-525.82709
 20
189.32532
 30
0.0
 40
2.0
 50
0.0
 51
90.000003000000007
  0
ARC
  5
D8B
  8
0
  6
CONTINUOUS
 62
     7
 10
-525.82709
 20
190.2358199999999
 30
0.0
 40
2.0
 50
0.0
 51
90.000003000000007
  0
ARC
  5
D8C
  8
0
  6
CONTINUOUS
 62
     7
 10
-462.70096000000001
 20
184.6312299999999
 30
0.0
 40
2.0
 50
15.0
 51
90.000003000000007
  0
ARC
  5
D8D
  8
0
  6
CONTINUOUS
 62
     7
 10
-455.17615000000001
 20
170.0709699999999
 30
0.0
 40
1.5
 50
195.00001
 51
270.0
  0
ARC
  5
D8E
  8
0
  6
CONTINUOUS
 62
     7
 10
-559.53747999999996
 20
70.460014000000001
 30
0.0
 40
2.0
 50
187.9440399999998
 51
270.0
  0
ARC
  5
D8F
  8
0
  6
CONTINUOUS
 62
     7
 10
-525.82709
 20
70.460014000000001
 30
0.0
 40
2.0
 50
270.0
 51
0.0
  0
ARC
  5
D90
  8
0
  6
CONTINUOUS
 62
     7
 10
-462.70096000000001
 20
76.064689999999999
 30
0.0
 40
2.0
 50
270.0
 51
345.0
  0
ARC
  5
D91
  8
0
  6
CONTINUOUS
 62
     7
 10
-525.82709
 20
71.370536999999999
 30
0.0
 40
2.0
 50
270.0
 51
0.0
  0
ARC
  5
D92
  8
0
  6
CONTINUOUS
 62
     7
 10
-525.82709
 20
73.218315000000004
 30
0.0
 40
2.0
 50
270.0
 51
0.0
  0
ARC
  5
D93
  8
0
  6
CONTINUOUS
 62
     7
 10
-575.82714999999985
 20
82.331528000000006
 30
0.0
 40
1.0
 50
179.99998999999991
 51
239.97361000000001
  0
ARC
  5
D94
  8
0
  6
CONTINUOUS
 62
     7
 10
-575.82714999999985
 20
83.373893999999964
 30
0.0
 40
1.0
 50
179.99998999999991
 51
243.08874999999981
  0
ARC
  5
D95
  8
0
  6
CONTINUOUS
 62
     7
 10
-574.55895999999996
 20
81.598556999999985
 30
0.0
 40
1.0
 50
239.9736
 51
270.0
  0
ARC
  5
D96
  8
0
  6
CONTINUOUS
 62
     7
 10
-574.58789000000002
 20
82.744865000000004
 30
0.0
 40
1.0
 50
243.08874
 51
270.0
  0
ARC
  5
D97
  8
0
  6
CONTINUOUS
 62
     7
 10
-574.55011000000002
 20
83.706283999999997
 30
0.0
 40
1.0
 50
239.0334
 51
270.0
  0
ARC
  5
D98
  8
0
  6
CONTINUOUS
 62
     7
 10
-574.57848999999999
 20
84.846298000000004
 30
0.0
 40
1.0
 50
242.07339999999999
 51
270.0
  0
ARC
  5
D99
  8
0
  6
CONTINUOUS
 62
     7
 10
-574.52849999999989
 20
88.223015000000004
 30
0.0
 40
1.0
 50
236.74527
 51
270.0
  0
ARC
  5
D9A
  8
0
  6
CONTINUOUS
 62
     7
 10
-574.55584999999985
 20
89.363028999999983
 30
0.0
 40
1.0
 50
239.6405
 51
270.0
  0
ARC
  5
D9B
  8
0
  6
CONTINUOUS
 62
     7
 10
-575.82714999999985
 20
90.107718999999989
 30
0.0
 40
1.0
 50
179.99998999999991
 51
239.64048999999989
  0
ARC
  5
D9C
  8
0
  6
CONTINUOUS
 62
     7
 10
-575.82714999999985
 20
89.074569999999994
 30
0.0
 40
1.0
 50
179.99998999999991
 51
236.7452799999997
  0
ARC
  5
D9D
  8
0
  6
CONTINUOUS
 62
     7
 10
-575.82714999999985
 20
85.508170999999976
 30
0.0
 40
1.0
 50
179.99998999999991
 51
242.07341
  0
ARC
  5
D9E
  8
0
  6
CONTINUOUS
 62
     7
 10
-575.82714999999985
 20
84.472579999999965
 30
0.0
 40
1.0
 50
179.99998999999991
 51
239.0334
  0
ARC
  5
D9F
  8
0
  6
CONTINUOUS
 62
     7
 10
-572.82714999999985
 20
89.363028999999983
 30
0.0
 40
1.0
 50
270.0
 51
0.0
  0
ARC
  5
DA0
  8
0
  6
CONTINUOUS
 62
     7
 10
-572.82714999999985
 20
84.846298000000004
 30
0.0
 40
1.0
 50
270.0
 51
0.0
  0
ARC
  5
DA1
  8
0
  6
CONTINUOUS
 62
     7
 10
-572.32709
 20
82.244865000000004
 30
0.0
 40
0.5
 50
270.0
 51
0.0
  0
ARC
  5
DA2
  8
0
  6
CONTINUOUS
 62
     7
 10
-572.32709
 20
80.098557000000014
 30
0.0
 40
0.5
 50
0.0
 51
90.000003000000007
  0
ARC
  5
DA3
  8
0
  6
CONTINUOUS
 62
     7
 10
-559.62067000000002
 20
76.064689999999999
 30
0.0
 40
2.0
 50
190.71569
 51
270.0
  0
ARC
  5
DA4
  8
0
  6
CONTINUOUS
 62
     7
 10
-559.57213999999999
 20
73.218315000000004
 30
0.0
 40
2.0
 50
189.08497
 51
270.0
  0
ARC
  5
DA5
  8
0
  6
CONTINUOUS
 62
     7
 10
-559.55877999999996
 20
71.370536999999999
 30
0.0
 40
2.0
 50
188.6433899999999
 51
270.0
  0
ARC
  5
DA6
  8
0
  6
CONTINUOUS
 62
     3
 10
-483.32715000000002
 20
107.8481899999997
 30
0.0
 40
5.5
 50
84.784087999999983
 51
185.21596
  0
ARC
  5
DA7
  8
0
  6
CONTINUOUS
 62
     7
 10
-375.82711999999992
 20
220.06737000000001
 30
0.0
 40
2.0
 50
91.999998000000005
 51
180.00001
  0
ARC
  5
DA8
  8
0
  6
CONTINUOUS
 62
     7
 10
-375.82711999999992
 20
106.81296
 30
0.0
 40
2.0
 50
90.000003000000007
 51
180.00001
  0
ARC
  5
DA9
  8
0
  6
CONTINUOUS
 62
     7
 10
-375.82711999999992
 20
79.724723999999981
 30
0.0
 40
2.0
 50
179.99998999999991
 51
268.00000999999992
  0
ARC
  5
DAA
  8
0
  6
CONTINUOUS
 62
     7
 10
-374.82715000000002
 20
92.732651000000004
 30
0.0
 40
2.0
 50
268.0
 51
0.0
  0
ARC
  5
DAB
  8
0
  6
CONTINUOUS
 62
     7
 10
-436.82715000000002
 20
77.977547000000001
 30
0.0
 40
2.0
 50
0.0
 51
90.000003000000007
  0
ARC
  5
DAC
  8
0
  6
CONTINUOUS
 62
     7
 10
-436.32711999999981
 20
72.572486999999981
 30
0.0
 40
1.5
 50
0.0
 51
88.499996999999965
  0
ARC
  5
DAD
  8
0
  6
CONTINUOUS
 62
     7
 10
-385.37256000000002
 20
67.831031999999993
 30
0.0
 40
2.545406299999998
 50
325.61556999999982
 51
34.384439
  0
ARC
  5
DAE
  8
0
  6
CONTINUOUS
 62
     7
 10
-385.37256000000002
 20
76.456039000000004
 30
0.0
 40
2.545406299999998
 50
325.61556999999982
 51
34.384439
  0
ARC
  5
DAF
  8
0
  6
CONTINUOUS
 62
     7
 10
-392.34163999999993
 20
72.143539000000004
 30
0.0
 40
9.5144920000000006
 50
342.41196000000002
 51
17.588032999999999
  0
ARC
  5
DB0
  8
0
  6
CONTINUOUS
 62
     7
 10
-537.32714999999985
 20
93.624878000000024
 30
0.0
 40
1.5
 50
179.99998999999991
 51
270.0
  0
POLYLINE
  5
DB1
  8
0
  6
CONTINUOUS
 62
     7
 66
     1
 10
0.0
 20
0.0
 30
0.0
  0
VERTEX
  5
DB2
  8
0
  6
CONTINUOUS
 62
     7
 10
-560.46715999999992
 20
381.99090999999987
 30
0.0
 42
0.00039106593
  0
VERTEX
  5
DB3
  8
0
  6
CONTINUOUS
 62
     7
 10
-560.46951999999999
 20
381.67977000000002
 30
0.0
 42
0.00040574899
  0
VERTEX
  5
DB4
  8
0
  6
CONTINUOUS
 62
     7
 10
-560.47139000000004
 20
381.36865999999998
 30
0.0
 42
0.0003534546
  0
VERTEX
  5
DB5
  8
0
  6
CONTINUOUS
 62
     7
 10
-560.47277999999994
 20
381.05756000000002
 30
0.0
 42
0.00034407327
  0
VERTEX
  5
DB6
  8
0
  6
CONTINUOUS
 62
     7
 10
-560.47375999999986
 20
380.74642
 30
0.0
 42
0.00045699408
  0
VERTEX
  5
DB7
  8
0
  6
CONTINUOUS
 62
     7
 10
-560.47421999999995
 20
380.43531000000002
 30
0.0
 42
0.00035571853
  0
VERTEX
  5
DB8
  8
0
  6
CONTINUOUS
 62
     7
 10
-560.47417999999993
 20
380.12420999999989
 30
0.0
 42
0.00038547362
  0
VERTEX
  5
DB9
  8
0
  6
CONTINUOUS
 62
     7
 10
-560.47369000000003
 20
379.81306999999993
 30
0.0
 42
0.00035501498
  0
VERTEX
  5
DBA
  8
0
  6
CONTINUOUS
 62
     7
 10
-560.47272999999996
 20
379.50196999999991
 30
0.0
 42
0.00040118614
  0
VERTEX
  5
DBB
  8
0
  6
CONTINUOUS
 62
     7
 10
-560.47131000000002
 20
379.19072999999992
 30
0.0
 42
0.00038319871
  0
VERTEX
  5
DBC
  8
0
  6
CONTINUOUS
 62
     7
 10
-560.46939999999995
 20
378.87959999999998
 30
0.0
 42
0.00040742136
  0
VERTEX
  5
DBD
  8
0
  6
CONTINUOUS
 62
     7
 10
-560.46699999999964
 20
378.56837000000002
 30
0.0
 42
0.0003578071
  0
VERTEX
  5
DBE
  8
0
  6
CONTINUOUS
 62
     7
 10
-560.46411000000001
 20
378.25725999999992
 30
0.0
  0
SEQEND
  5
DBF
  8
0
 62
     7
  0
POLYLINE
  5
DC0
  8
0
  6
CONTINUOUS
 62
     7
 66
     1
 10
0.0
 20
0.0
 30
0.0
  0
VERTEX
  5
DC1
  8
0
  6
CONTINUOUS
 62
     7
 10
-560.42309999999986
 20
375.72052000000002
 30
0.0
 42
0.00076695232
  0
VERTEX
  5
DC2
  8
0
  6
CONTINUOUS
 62
     7
 10
-560.40830000000005
 20
375.10275999999999
 30
0.0
 42
0.00073263044
  0
VERTEX
  5
DC3
  8
0
  6
CONTINUOUS
 62
     7
 10
-560.39165999999977
 20
374.48516000000001
 30
0.0
 42
0.0007652599
  0
VERTEX
  5
DC4
  8
0
  6
CONTINUOUS
 62
     7
 10
-560.37316999999985
 20
373.86748999999992
 30
0.0
 42
0.00075144485
  0
VERTEX
  5
DC5
  8
0
  6
CONTINUOUS
 62
     7
 10
-560.35279999999977
 20
373.24988999999988
 30
0.0
 42
0.00078594403
  0
VERTEX
  5
DC6
  8
0
  6
CONTINUOUS
 62
     7
 10
-560.33055000000002
 20
372.63245999999992
 30
0.0
 42
0.00073349202
  0
VERTEX
  5
DC7
  8
0
  6
CONTINUOUS
 62
     7
 10
-560.30640000000005
 20
372.01507999999978
 30
0.0
 42
0.0007358075
  0
VERTEX
  5
DC8
  8
0
  6
CONTINUOUS
 62
     7
 10
-560.28045999999995
 20
371.39767999999992
 30
0.0
 42
0.00078592699
  0
VERTEX
  5
DC9
  8
0
  6
CONTINUOUS
 62
     7
 10
-560.25262999999995
 20
370.78028999999992
 30
0.0
 42
0.00074823144
  0
VERTEX
  5
DCA
  8
0
  6
CONTINUOUS
 62
     7
 10
-560.22289999999998
 20
370.16289999999998
 30
0.0
 42
0.00074896603
  0
VERTEX
  5
DCB
  8
0
  6
CONTINUOUS
 62
     7
 10
-560.19133999999985
 20
369.54576999999989
 30
0.0
 42
0.00076039765
  0
VERTEX
  5
DCC
  8
0
  6
CONTINUOUS
 62
     7
 10
-560.15791999999965
 20
368.92873999999989
 30
0.0
 42
0.00075616128
  0
VERTEX
  5
DCD
  8
0
  6
CONTINUOUS
 62
     7
 10
-560.12261999999998
 20
368.31171000000001
 30
0.0
  0
SEQEND
  5
DCE
  8
0
 62
     7
  0
POLYLINE
  5
DCF
  8
0
  6
CONTINUOUS
 62
     7
 66
     1
 10
0.0
 20
0.0
 30
0.0
  0
VERTEX
  5
DD0
  8
0
  6
CONTINUOUS
 62
     7
 10
-559.94890999999996
 20
365.65033
 30
0.0
 42
0.00073721992
  0
VERTEX
  5
DD1
  8
0
  6
CONTINUOUS
 62
     7
 10
-559.90476000000001
 20
365.04791999999992
 30
0.0
 42
0.00074398496
  0
VERTEX
  5
DD2
  8
0
  6
CONTINUOUS
 62
     7
 10
-559.85883000000001
 20
364.44564999999989
 30
0.0
 42
0.00073322625
  0
VERTEX
  5
DD3
  8
0
  6
CONTINUOUS
 62
     7
 10
-559.81110000000001
 20
363.84332000000001
 30
0.0
 42
0.00073594289
  0
VERTEX
  5
DD4
  8
0
  6
CONTINUOUS
 62
     7
 10
-559.76161999999999
 20
363.24133
 30
0.0
 42
0.00074742568
  0
VERTEX
  5
DD5
  8
0
  6
CONTINUOUS
 62
     7
 10
-559.71034999999995
 20
362.63947000000002
 30
0.0
 42
0.00073216749
  0
VERTEX
  5
DD6
  8
0
  6
CONTINUOUS
 62
     7
 10
-559.65728999999988
 20
362.03766000000002
 30
0.0
 42
0.00074184065
  0
VERTEX
  5
DD7
  8
0
  6
CONTINUOUS
 62
     7
 10
-559.60247000000004
 20
361.43612999999999
 30
0.0
 42
0.00072077528
  0
VERTEX
  5
DD8
  8
0
  6
CONTINUOUS
 62
     7
 10
-559.54588999999964
 20
360.8349
 30
0.0
 42
0.00074978179
  0
VERTEX
  5
DD9
  8
0
  6
CONTINUOUS
 62
     7
 10
-559.48755000000006
 20
360.23369999999989
 30
0.0
 42
0.00074288888
  0
VERTEX
  5
DDA
  8
0
  6
CONTINUOUS
 62
     7
 10
-559.42740000000003
 20
359.63267999999982
 30
0.0
 42
0.00072503679
  0
VERTEX
  5
DDB
  8
0
  6
CONTINUOUS
 62
     7
 10
-559.36549000000002
 20
359.03193999999979
 30
0.0
 42
0.00074640584
  0
VERTEX
  5
DDC
  8
0
  6
CONTINUOUS
 62
     7
 10
-559.30182000000002
 20
358.43133999999992
 30
0.0
  0
SEQEND
  5
DDD
  8
0
 62
     7
  0
POLYLINE
  5
DDE
  8
0
  6
CONTINUOUS
 62
     7
 66
     1
 10
0.0
 20
0.0
 30
0.0
  0
VERTEX
  5
DDF
  8
0
  6
CONTINUOUS
 62
     7
 10
-558.96624999999995
 20
355.50787000000008
 30
0.0
 42
0.0006890001
  0
VERTEX
  5
DE0
  8
0
  6
CONTINUOUS
 62
     7
 10
-558.89537000000007
 20
354.93311999999992
 30
0.0
 42
0.00070644651
  0
VERTEX
  5
DE1
  8
0
  6
CONTINUOUS
 62
     7
 10
-558.82286999999997
 20
354.35843999999992
 30
0.0
 42
0.0006924559
  0
VERTEX
  5
DE2
  8
0
  6
CONTINUOUS
 62
     7
 10
-558.7487799999999
 20
353.78411999999992
 30
0.0
 42
0.00069587797
  0
VERTEX
  5
DE3
  8
0
  6
CONTINUOUS
 62
     7
 10
-558.67309999999986
 20
353.20997999999992
 30
0.0
 42
0.00071687041
  0
VERTEX
  5
DE4
  8
0
  6
CONTINUOUS
 62
     7
 10
-558.59579000000008
 20
352.63597999999979
 30
0.0
 42
0.00069759113
  0
VERTEX
  5
DE5
  8
0
  6
CONTINUOUS
 62
     7
 10
-558.51684999999986
 20
352.06218999999999
 30
0.0
 42
0.00071003142
  0
VERTEX
  5
DE6
  8
0
  6
CONTINUOUS
 62
     7
 10
-558.43630999999993
 20
351.48871999999972
 30
0.0
 42
0.00069954544
  0
VERTEX
  5
DE7
  8
0
  6
CONTINUOUS
 62
     7
 10
-558.35416999999995
 20
350.91561999999999
 30
0.0
 42
0.0007188852
  0
VERTEX
  5
DE8
  8
0
  6
CONTINUOUS
 62
     7
 10
-558.27039000000002
 20
350.34258999999992
 30
0.0
 42
0.00071266165
  0
VERTEX
  5
DE9
  8
0
  6
CONTINUOUS
 62
     7
 10
-558.18495999999993
 20
349.76982999999967
 30
0.0
 42
0.00071614577
  0
VERTEX
  5
DEA
  8
0
  6
CONTINUOUS
 62
     7
 10
-558.09793000000002
 20
349.19747999999993
 30
0.0
 42
0.00072290806
  0
VERTEX
  5
DEB
  8
0
  6
CONTINUOUS
 62
     7
 10
-558.00922000000003
 20
348.62518
 30
0.0
  0
SEQEND
  5
DEC
  8
0
 62
     7
  0
POLYLINE
  5
DED
  8
0
  6
CONTINUOUS
 62
     7
 66
     1
 10
0.0
 20
0.0
 30
0.0
  0
VERTEX
  5
DEE
  8
0
  6
CONTINUOUS
 62
     7
 10
-560.46715999999992
 20
381.99090999999987
 30
0.0
 42
-0.00039106653
  0
VERTEX
  5
DEF
  8
0
  6
CONTINUOUS
 62
     7
 10
-560.46951999999999
 20
382.30203999999992
 30
0.0
 42
-0.00040574511
  0
VERTEX
  5
DF0
  8
0
  6
CONTINUOUS
 62
     7
 10
-560.47139000000004
 20
382.61315000000002
 30
0.0
 42
-0.00035346331
  0
VERTEX
  5
DF1
  8
0
  6
CONTINUOUS
 62
     7
 10
-560.47277999999994
 20
382.92426
 30
0.0
 42
-0.00034406545
  0
VERTEX
  5
DF2
  8
0
  6
CONTINUOUS
 62
     7
 10
-560.47375999999986
 20
383.23540000000003
 30
0.0
 42
-0.00045699059
  0
VERTEX
  5
DF3
  8
0
  6
CONTINUOUS
 62
     7
 10
-560.47421999999995
 20
383.54649999999992
 30
0.0
 42
-0.00035573431
  0
VERTEX
  5
DF4
  8
0
  6
CONTINUOUS
 62
     7
 10
-560.47417999999993
 20
383.85759999999988
 30
0.0
 42
-0.00038545888
  0
VERTEX
  5
DF5
  8
0
  6
CONTINUOUS
 62
     7
 10
-560.47369000000003
 20
384.16873999999967
 30
0.0
 42
-0.00035501203
  0
VERTEX
  5
DF6
  8
0
  6
CONTINUOUS
 62
     7
 10
-560.47272999999996
 20
384.47984999999989
 30
0.0
 42
-0.00040120778
  0
VERTEX
  5
DF7
  8
0
  6
CONTINUOUS
 62
     7
 10
-560.47131000000002
 20
384.79107999999991
 30
0.0
 42
-0.00038317821
  0
VERTEX
  5
DF8
  8
0
  6
CONTINUOUS
 62
     7
 10
-560.46939999999995
 20
385.10221000000001
 30
0.0
 42
-0.00040741862
  0
VERTEX
  5
DF9
  8
0
  6
CONTINUOUS
 62
     7
 10
-560.46699999999964
 20
385.41343999999992
 30
0.0
 42
-0.00035783324
  0
VERTEX
  5
DFA
  8
0
  6
CONTINUOUS
 62
     7
 10
-560.46411000000001
 20
385.72455000000002
 30
0.0
  0
SEQEND
  5
DFB
  8
0
 62
     7
  0
POLYLINE
  5
DFC
  8
0
  6
CONTINUOUS
 62
     7
 66
     1
 10
0.0
 20
0.0
 30
0.0
  0
VERTEX
  5
DFD
  8
0
  6
CONTINUOUS
 62
     7
 10
-560.42309999999986
 20
388.26128999999992
 30
0.0
 42
-0.00076691987
  0
VERTEX
  5
DFE
  8
0
  6
CONTINUOUS
 62
     7
 10
-560.40830000000005
 20
388.87905000000001
 30
0.0
 42
-0.00073262795
  0
VERTEX
  5
DFF
  8
0
  6
CONTINUOUS
 62
     7
 10
-560.39165999999977
 20
389.49664999999987
 30
0.0
 42
-0.0007652954
  0
VERTEX
  5
E00
  8
0
  6
CONTINUOUS
 62
     7
 10
-560.37316999999985
 20
390.11432000000002
 30
0.0
 42
-0.00077334627
  0
VERTEX
  5
E01
  8
0
  6
CONTINUOUS
 62
     7
 10
-560.35275999999965
 20
390.73192
 30
0.0
 42
-0.00073282897
  0
VERTEX
  5
E02
  8
0
  6
CONTINUOUS
 62
     7
 10
-560.33050000000003
 20
391.34933999999998
 30
0.0
 42
-0.0007571179
  0
VERTEX
  5
E03
  8
0
  6
CONTINUOUS
 62
     7
 10
-560.30640000000005
 20
391.96685999999988
 30
0.0
 42
-0.00073783152
  0
VERTEX
  5
E04
  8
0
  6
CONTINUOUS
 62
     7
 10
-560.28045999999995
 20
392.58424999999988
 30
0.0
 42
-0.0007835518
  0
VERTEX
  5
E05
  8
0
  6
CONTINUOUS
 62
     7
 10
-560.25262999999995
 20
393.20152000000002
 30
0.0
 42
-0.00074826133
  0
VERTEX
  5
E06
  8
0
  6
CONTINUOUS
 62
     7
 10
-560.22289999999998
 20
393.81891000000002
 30
0.0
 42
-0.00074893555
  0
VERTEX
  5
E07
  8
0
  6
CONTINUOUS
 62
     7
 10
-560.19133999999985
 20
394.43603999999988
 30
0.0
 42
-0.00076039841
  0
VERTEX
  5
E08
  8
0
  6
CONTINUOUS
 62
     7
 10
-560.15791999999965
 20
395.05306999999988
 30
0.0
 42
-0.00075618789
  0
VERTEX
  5
E09
  8
0
  6
CONTINUOUS
 62
     7
 10
-560.12261999999998
 20
395.67009999999988
 30
0.0
  0
SEQEND
  5
E0A
  8
0
 62
     7
  0
POLYLINE
  5
E0B
  8
0
  6
CONTINUOUS
 62
     7
 66
     1
 10
0.0
 20
0.0
 30
0.0
  0
VERTEX
  5
E0C
  8
0
  6
CONTINUOUS
 62
     7
 10
-559.94890999999996
 20
398.33148
 30
0.0
 42
-0.0007337051
  0
VERTEX
  5
E0D
  8
0
  6
CONTINUOUS
 62
     7
 10
-559.90476999999976
 20
398.93388999999991
 30
0.0
 42
-0.00075211323
  0
VERTEX
  5
E0E
  8
0
  6
CONTINUOUS
 62
     7
 10
-559.85883000000001
 20
399.53629000000001
 30
0.0
 42
-0.0007297491
  0
VERTEX
  5
E0F
  8
0
  6
CONTINUOUS
 62
     7
 10
-559.81110000000001
 20
400.13848999999988
 30
0.0
 42
-0.00073593041
  0
VERTEX
  5
E10
  8
0
  6
CONTINUOUS
 62
     7
 10
-559.76161999999999
 20
400.74047999999988
 30
0.0
 42
-0.00074742739
  0
VERTEX
  5
E11
  8
0
  6
CONTINUOUS
 62
     7
 10
-559.71034999999995
 20
401.34233999999981
 30
0.0
 42
-0.00073217363
  0
VERTEX
  5
E12
  8
0
  6
CONTINUOUS
 62
     7
 10
-559.65728999999988
 20
401.94414999999998
 30
0.0
 42
-0.00073754168
  0
VERTEX
  5
E13
  8
0
  6
CONTINUOUS
 62
     7
 10
-559.60247000000004
 20
402.54568999999998
 30
0.0
 42
-0.00073075073
  0
VERTEX
  5
E14
  8
0
  6
CONTINUOUS
 62
     7
 10
-559.54588999999964
 20
403.14703999999989
 30
0.0
 42
-0.00074550816
  0
VERTEX
  5
E15
  8
0
  6
CONTINUOUS
 62
     7
 10
-559.48755000000006
 20
403.74810999999988
 30
0.0
 42
-0.00074288416
  0
VERTEX
  5
E16
  8
0
  6
CONTINUOUS
 62
     7
 10
-559.42740000000003
 20
404.34913
 30
0.0
 42
-0.00072504001
  0
VERTEX
  5
E17
  8
0
  6
CONTINUOUS
 62
     7
 10
-559.36549000000002
 20
404.94986999999998
 30
0.0
 42
-0.00074640667
  0
VERTEX
  5
E18
  8
0
  6
CONTINUOUS
 62
     7
 10
-559.30182000000002
 20
405.55047999999988
 30
0.0
  0
SEQEND
  5
E19
  8
0
 62
     7
  0
POLYLINE
  5
E1A
  8
0
  6
CONTINUOUS
 62
     7
 66
     1
 10
0.0
 20
0.0
 30
0.0
  0
VERTEX
  5
E1B
  8
0
  6
CONTINUOUS
 62
     7
 10
-558.96624999999995
 20
408.47394000000003
 30
0.0
 42
-0.00068898283
  0
VERTEX
  5
E1C
  8
0
  6
CONTINUOUS
 62
     7
 10
-558.89537000000007
 20
409.04869000000002
 30
0.0
 42
-0.00070644357
  0
VERTEX
  5
E1D
  8
0
  6
CONTINUOUS
 62
     7
 10
-558.82286999999997
 20
409.62338
 30
0.0
 42
-0.00069248074
  0
VERTEX
  5
E1E
  8
0
  6
CONTINUOUS
 62
     7
 10
-558.7487799999999
 20
410.19768999999991
 30
0.0
 42
-0.0006958566
  0
VERTEX
  5
E1F
  8
0
  6
CONTINUOUS
 62
     7
 10
-558.67309999999986
 20
410.77183000000002
 30
0.0
 42
-0.00071687219
  0
VERTEX
  5
E20
  8
0
  6
CONTINUOUS
 62
     7
 10
-558.59579000000008
 20
411.34582999999992
 30
0.0
 42
-0.00069760022
  0
VERTEX
  5
E21
  8
0
  6
CONTINUOUS
 62
     7
 10
-558.51684999999986
 20
411.91962000000001
 30
0.0
 42
-0.00071002302
  0
VERTEX
  5
E22
  8
0
  6
CONTINUOUS
 62
     7
 10
-558.43630999999993
 20
412.49308999999988
 30
0.0
 42
-0.00069954889
  0
VERTEX
  5
E23
  8
0
  6
CONTINUOUS
 62
     7
 10
-558.35416999999995
 20
413.06618999999989
 30
0.0
 42
-0.00071887947
  0
VERTEX
  5
E24
  8
0
  6
CONTINUOUS
 62
     7
 10
-558.27039000000002
 20
413.63922000000002
 30
0.0
 42
-0.00071266929
  0
VERTEX
  5
E25
  8
0
  6
CONTINUOUS
 62
     7
 10
-558.18495999999993
 20
414.21198999999979
 30
0.0
 42
-0.00071614429
  0
VERTEX
  5
E26
  8
0
  6
CONTINUOUS
 62
     7
 10
-558.09793000000002
 20
414.78432999999978
 30
0.0
 42
-0.00072288978
  0
VERTEX
  5
E27
  8
0
  6
CONTINUOUS
 62
     7
 10
-558.00922000000003
 20
415.35662999999988
 30
0.0
  0
SEQEND
  5
E28
  8
0
 62
     7
  0
POLYLINE
  5
E29
  8
0
  6
CONTINUOUS
 62
     7
 66
     1
 10
0.0
 20
0.0
 30
0.0
  0
VERTEX
  5
E2A
  8
0
  6
CONTINUOUS
 62
     7
 10
-560.46167000000003
 20
130.34795999999969
 30
0.0
  0
VERTEX
  5
E2B
  8
0
  6
CONTINUOUS
 62
     7
 10
-560.45894999999985
 20
126.6154899999998
 30
0.0
 42
-1.0
  0
SEQEND
  5
E2C
  8
0
 62
     7
  0
POLYLINE
  5
E2D
  8
0
  6
CONTINUOUS
 62
     7
 66
     1
 10
0.0
 20
0.0
 30
0.0
  0
VERTEX
  5
E2E
  8
0
  6
CONTINUOUS
 62
     7
 10
-560.41831000000002
 20
124.07666
 30
0.0
  0
VERTEX
  5
E2F
  8
0
  6
CONTINUOUS
 62
     7
 10
-560.11964
 20
116.6665999999999
 30
0.0
 42
-1.0
  0
SEQEND
  5
E30
  8
0
 62
     7
  0
POLYLINE
  5
E31
  8
0
  6
CONTINUOUS
 62
     7
 66
     1
 10
0.0
 20
0.0
 30
0.0
  0
VERTEX
  5
E32
  8
0
  6
CONTINUOUS
 62
     7
 10
-559.94663999999977
 20
114.00536
 30
0.0
  0
VERTEX
  5
E33
  8
0
  6
CONTINUOUS
 62
     7
 10
-559.30059000000006
 20
106.78440999999999
 30
0.0
 42
-1.0
  0
SEQEND
  5
E34
  8
0
 62
     7
  0
POLYLINE
  5
E35
  8
0
  6
CONTINUOUS
 62
     7
 66
     1
 10
0.0
 20
0.0
 30
0.0
  0
VERTEX
  5
E36
  8
0
  6
CONTINUOUS
 62
     7
 10
-558.96489000000008
 20
103.8609499999999
 30
0.0
  0
VERTEX
  5
E37
  8
0
  6
CONTINUOUS
 62
     7
 10
-558.00441000000001
 20
96.979361999999995
 30
0.0
 42
-1.0
  0
SEQEND
  5
E38
  8
0
 62
     7
  0
POLYLINE
  5
E39
  8
0
  6
CONTINUOUS
 62
     7
 66
     1
 10
0.0
 20
0.0
 30
0.0
  0
VERTEX
  5
E3A
  8
0
  6
CONTINUOUS
 62
     7
 10
-560.46167000000003
 20
130.34795999999969
 30
0.0
  0
VERTEX
  5
E3B
  8
0
  6
CONTINUOUS
 62
     7
 10
-560.45894999999985
 20
134.0804399999999
 30
0.0
 42
-1.0
  0
SEQEND
  5
E3C
  8
0
 62
     7
  0
POLYLINE
  5
E3D
  8
0
  6
CONTINUOUS
 62
     7
 66
     1
 10
0.0
 20
0.0
 30
0.0
  0
VERTEX
  5
E3E
  8
0
  6
CONTINUOUS
 62
     7
 10
-560.41831000000002
 20
136.61924999999991
 30
0.0
  0
VERTEX
  5
E3F
  8
0
  6
CONTINUOUS
 62
     7
 10
-560.11964
 20
144.02927
 30
0.0
 42
-1.0
  0
SEQEND
  5
E40
  8
0
 62
     7
  0
POLYLINE
  5
E41
  8
0
  6
CONTINUOUS
 62
     7
 66
     1
 10
0.0
 20
0.0
 30
0.0
  0
VERTEX
  5
E42
  8
0
  6
CONTINUOUS
 62
     7
 10
-559.94663999999977
 20
146.69048999999981
 30
0.0
  0
VERTEX
  5
E43
  8
0
  6
CONTINUOUS
 62
     7
 10
-559.30059000000006
 20
153.9114099999999
 30
0.0
 42
-1.0
  0
SEQEND
  5
E44
  8
0
 62
     7
  0
POLYLINE
  5
E45
  8
0
  6
CONTINUOUS
 62
     7
 66
     1
 10
0.0
 20
0.0
 30
0.0
  0
VERTEX
  5
E46
  8
0
  6
CONTINUOUS
 62
     7
 10
-558.96489000000008
 20
156.83487
 30
0.0
  0
VERTEX
  5
E47
  8
0
  6
CONTINUOUS
 62
     7
 10
-558.00441000000001
 20
163.71652
 30
0.0
 42
-1.0
  0
SEQEND
  5
E48
  8
0
 62
     7
  0
TEXT
  5
13E9
  8
0
  6
CONTINUOUS
 62
     0
 10
-265.79895292206692
 20
333.40381744088381
 30
0.0
 40
10.0
  1
VX01-003MF~VX01-050MF
  0
ENDSEC
  0
EOF
