  0
SECTION
  2
HEADER
  9
$ACADVER
  1
AC1009
  9
$INSBASE
 10
0.0
 20
0.0
 30
0.0
  9
$EXTMIN
 10
-608.54247999999995
 20
48.293807999999999
 30
0.0
  9
$EXTMAX
 10
-57.410708999999997
 20
475.16665999999998
 30
0.0
  9
$LIMMIN
 10
0.0
 20
0.0
  9
$LIMMAX
 10
12.0
 20
9.0
  9
$ORTHOMODE
 70
     0
  9
$REGENMODE
 70
     1
  9
$FILLMODE
 70
     1
  9
$QTEXTMODE
 70
     0
  9
$MIRRTEXT
 70
     1
  9
$DRAGMODE
 70
     2
  9
$LTSCALE
 40
1.0
  9
$OSMODE
 70
   551
  9
$ATTMODE
 70
     1
  9
$TEXTSIZE
 40
0.2
  9
$TRACEWID
 40
0.05
  9
$TEXTSTYLE
  7
STANDARD
  9
$CLAYER
  8
0
  9
$CELTYPE
  6
CONTINUOUS
  9
$CECOLOR
 62
   256
  9
$DIMSCALE
 40
1.0
  9
$DIMASZ
 40
0.18
  9
$DIMEXO
 40
0.0625
  9
$DIMDLI
 40
0.38
  9
$DIMRND
 40
0.0
  9
$DIMDLE
 40
0.0
  9
$DIMEXE
 40
0.18
  9
$DIMTP
 40
0.0
  9
$DIMTM
 40
0.0
  9
$DIMTXT
 40
0.18
  9
$DIMCEN
 40
0.09
  9
$DIMTSZ
 40
0.0
  9
$DIMTOL
 70
     0
  9
$DIMLIM
 70
     0
  9
$DIMTIH
 70
     1
  9
$DIMTOH
 70
     1
  9
$DIMSE1
 70
     0
  9
$DIMSE2
 70
     0
  9
$DIMTAD
 70
     0
  9
$DIMZIN
 70
     0
  9
$DIMBLK
  1

  9
$DIMASO
 70
     1
  9
$DIMSHO
 70
     1
  9
$DIMPOST
  1

  9
$DIMAPOST
  1

  9
$DIMALT
 70
     0
  9
$DIMALTD
 70
     2
  9
$DIMALTF
 40
25.399999999999999
  9
$DIMLFAC
 40
1.0
  9
$DIMTOFL
 70
     0
  9
$DIMTVP
 40
0.0
  9
$DIMTIX
 70
     0
  9
$DIMSOXD
 70
     0
  9
$DIMSAH
 70
     0
  9
$DIMBLK1
  1

  9
$DIMBLK2
  1

  9
$DIMSTYLE
  2
STANDARD
  9
$DIMCLRD
 70
     0
  9
$DIMCLRE
 70
     0
  9
$DIMCLRT
 70
     0
  9
$DIMTFAC
 40
1.0
  9
$DIMGAP
 40
0.09
  9
$LUNITS
 70
     2
  9
$LUPREC
 70
     4
  9
$SKETCHINC
 40
0.1
  9
$FILLETRAD
 40
0.0
  9
$AUNITS
 70
     0
  9
$AUPREC
 70
     0
  9
$MENU
  1
.
  9
$ELEVATION
 40
0.0
  9
$PELEVATION
 40
0.0
  9
$THICKNESS
 40
0.0
  9
$LIMCHECK
 70
     0
  9
$BLIPMODE
 70
     0
  9
$CHAMFERA
 40
0.0
  9
$CHAMFERB
 40
0.0
  9
$SKPOLY
 70
     0
  9
$TDCREATE
 40
2452300.4219959839
  9
$TDUPDATE
 40
2458540.6440721881
  9
$TDINDWG
 40
0.0335789005
  9
$TDUSRTIMER
 40
0.0335786806
  9
$USRTIMER
 70
     1
  9
$ANGBASE
 50
0.0
  9
$ANGDIR
 70
     0
  9
$PDMODE
 70
     0
  9
$PDSIZE
 40
0.0
  9
$PLINEWID
 40
0.0
  9
$COORDS
 70
     1
  9
$SPLFRAME
 70
     0
  9
$SPLINETYPE
 70
     6
  9
$SPLINESEGS
 70
     8
  9
$ATTDIA
 70
     1
  9
$ATTREQ
 70
     1
  9
$HANDLING
 70
     1
  9
$HANDSEED
  5
D2D
  9
$SURFTAB1
 70
     6
  9
$SURFTAB2
 70
     6
  9
$SURFTYPE
 70
     6
  9
$SURFU
 70
     6
  9
$SURFV
 70
     6
  9
$UCSNAME
  2

  9
$UCSORG
 10
0.0
 20
0.0
 30
0.0
  9
$UCSXDIR
 10
1.0
 20
0.0
 30
0.0
  9
$UCSYDIR
 10
0.0
 20
1.0
 30
0.0
  9
$PUCSNAME
  2

  9
$PUCSORG
 10
0.0
 20
0.0
 30
0.0
  9
$PUCSXDIR
 10
1.0
 20
0.0
 30
0.0
  9
$PUCSYDIR
 10
0.0
 20
1.0
 30
0.0
  9
$USERI1
 70
     0
  9
$USERI2
 70
     0
  9
$USERI3
 70
     0
  9
$USERI4
 70
     0
  9
$USERI5
 70
     0
  9
$USERR1
 40
0.0
  9
$USERR2
 40
0.0
  9
$USERR3
 40
0.0
  9
$USERR4
 40
0.0
  9
$USERR5
 40
0.0
  9
$WORLDVIEW
 70
     1
  9
$SHADEDGE
 70
     3
  9
$SHADEDIF
 70
    70
  9
$TILEMODE
 70
     1
  9
$MAXACTVP
 70
    64
  9
$PLIMCHECK
 70
     0
  9
$PEXTMIN
 10
1.0000000000000000E+020
 20
1.0000000000000000E+020
 30
1.0000000000000000E+020
  9
$PEXTMAX
 10
-1.0000000000000000E+020
 20
-1.0000000000000000E+020
 30
-1.0000000000000000E+020
  9
$PLIMMIN
 10
0.0
 20
0.0
  9
$PLIMMAX
 10
12.0
 20
9.0
  9
$UNITMODE
 70
     0
  9
$VISRETAIN
 70
     1
  9
$PLINEGEN
 70
     0
  9
$PSLTSCALE
 70
     1
  0
ENDSEC
  0
SECTION
  2
TABLES
  0
TABLE
  2
VPORT
 70
     1
  0
VPORT
  2
*ACTIVE
 70
     0
 10
0.0
 20
0.0
 11
1.0
 21
1.0
 12
-320.65125628836802
 22
261.74052765045462
 13
0.0
 23
0.0
 14
1.0
 24
1.0
 15
0.0
 25
0.0
 16
0.0
 26
0.0
 36
1.0
 17
0.0
 27
0.0
 37
0.0
 40
429.94543406663621
 41
1.7571592210767459
 42
50.0
 43
0.0
 44
0.0
 50
0.0
 51
0.0
 71
     0
 72
   100
 73
     1
 74
     1
 75
     0
 76
     0
 77
     0
 78
     0
  0
ENDTAB
  0
TABLE
  2
LTYPE
 70
    23
  0
LTYPE
  2
CONTINUOUS
 70
     0
  3
Solid line
 72
    65
 73
     0
 40
0.0
  0
LTYPE
  2
DASHED
 70
     0
  3
__ __ __ __ __ __ __ __ __ __ __ __ __ __ __
 72
    65
 73
     2
 40
3.5
 49
2.0
 49
-1.5
  0
LTYPE
  2
CENTER
 70
     0
  3
____ _ ____ _ ____ _ ____ _ ____ _ ____ _ ____
 72
    65
 73
     4
 40
17.5
 49
13.0
 49
-1.5
 49
1.5
 49
-1.5
  0
LTYPE
  2
PHANTOM
 70
     0
  3
_____ _ _ _____ _ _ _____ _ _ _____ _ _ ____  
 72
    65
 73
     6
 40
15.5
 49
8.0
 49
-1.5
 49
1.5
 49
-1.5
 49
1.5
 49
-1.5
  0
LTYPE
  2
DOT
 70
     0
  3
. . . . . . . . . . . . . . . . . . . . . . . .
 72
    65
 73
     2
 40
0.25
 49
0.0
 49
-0.25
  0
LTYPE
  2
AM_ISO02W050
 70
     0
  3
__ __ __ __ __ __ __ __ __ __ __ __ __ __ __
 72
    65
 73
     2
 40
7.5
 49
6.0
 49
-1.5
  0
LTYPE
  2
AM_ISO08W050
 70
     0
  3
____ . ____ . ____ . ____ . ____ . ____ . ____
 72
    65
 73
     4
 40
18.0
 49
12.0
 49
-1.5
 49
3.0
 49
-1.5
  0
LTYPE
  2
AM_ISO09W050
 70
     0
  3
_____ . . _____ . . _____ . . ____ .. ____
 72
    65
 73
     6
 40
22.5
 49
12.0
 49
-1.5
 49
3.0
 49
-1.5
 49
3.0
 49
-1.5
  0
LTYPE
  2
AMCONSTR
 70
     0
  3
_______________________
 72
    65
 73
     2
 40
9999.0
 49
9999.0
 49
0.0
  0
LTYPE
  2
AM_ISO08W050X2
 70
     0
  3
__ . __ . __ . __ . __ . __
 72
    65
 73
     4
 40
9.0
 49
6.0
 49
-0.75
 49
1.5
 49
-0.75
  0
LTYPE
  2
AM_ISO02W050X2
 70
     0
  3
 _ _ _ _ _ _ _ _ _ _ _ _
 72
    65
 73
     2
 40
3.75
 49
3.0
 49
-0.75
  0
LTYPE
  2
AMZIGZAG
 70
     0
  3
/\/-/\/-/\/-/\/-/\/-/\/
 72
    65
 73
     2
 40
11.000099999999991
 49
0.0001
 49
-11.0
  0
LTYPE
  2
HIDDEN
 70
     0
  3
Hidden __ __ __ __ __ __ __ __ __ __ __ __ __ _
 72
    65
 73
     2
 40
0.375
 49
0.25
 49
-0.125
  0
LTYPE
  2
PHANTOM2
 70
     0
  3
Phantom (.5x) ___ _ _ ___ _ _ ___ _ _ ___ _ _
 72
    65
 73
     6
 40
1.25
 49
0.625
 49
-0.125
 49
0.125
 49
-0.125
 49
0.125
 49
-0.125
  0
LTYPE
  2
CENTER2
 70
     0
  3
Center (.5x) ___ _ ___ _ ___ _ ___ _ ___ _ ___
 72
    65
 73
     4
 40
1.125
 49
0.75
 49
-0.125
 49
0.125
 49
-0.125
  0
LTYPE
  2
HIDDEN2
 70
     0
  3
Hidden (.5x) _ _ _ _ _ _ _ _ _ _ _ _ _ _ _ _ _
 72
    65
 73
     2
 40
0.1875
 49
0.125
 49
-0.0625
  0
LTYPE
  2
AMZIGZAG2
 70
     0
  3
/\/-/\/-/\/-/\/-/\/-/\/
 72
    65
 73
     2
 40
0.4401
 49
0.0001
 49
-0.4400000000000003
  0
LTYPE
  2
ACANSTGB
 70
     0
  3
__ . . __ . .
 72
    65
 73
     6
 40
0.35433070866
 49
0.15748031496
 49
-0.03937007874
 49
0.03937007874
 49
-0.03937007874
 49
0.03937007874
 49
-0.03937007874
  0
LTYPE
  2
ACANSTGL
 70
     0
  3
_ _ _ _ _
 72
    65
 73
     2
 40
0.11811023622
 49
0.07874015748
 49
-0.03937007874
  0
LTYPE
  2
ACISOWELD
 70
     0
  3
_ _ _ _ _
 72
    65
 73
     2
 40
2.0
 49
2.0
 49
-1.0
  0
LTYPE
  2
ACISOTGB
 70
     0
  3
__ . . __ . .
 72
    65
 73
     6
 40
9.0
 49
4.0
 49
-1.0
 49
1.0
 49
-1.0
 49
1.0
 49
-1.0
  0
LTYPE
  2
ACISOTGL
 70
     0
  3
_ _ _ _ _
 72
    65
 73
     2
 40
3.0
 49
2.0
 49
-1.0
  0
ENDTAB
  0
TABLE
  2
LAYER
 70
     1
  0
LAYER
  2
0
 70
     0
 62
     7
  6
CONTINUOUS
  0
ENDTAB
  0
TABLE
  2
STYLE
 70
     6
  0
STYLE
  2
STANDARD
 70
     0
 40
0.0
 41
1.0
 50
0.0
 71
     0
 42
0.2
  3
txt
  4

  0
STYLE
  2
ANNOTATIVE
 70
     0
 40
0.0
 41
1.0
 50
0.0
 71
     0
 42
0.2
  3
txt
  4

  0
STYLE
  2

 70
     1
 40
0.0
 41
1.0
 50
0.0
 71
     0
 42
0.2
  3
ltypeshp.shx
  4

  0
STYLE
  2
ACANSTS
 70
     0
 40
1.0
 41
1.0
 50
0.0
 71
     0
 42
0.2
  3
romans.shx
  4
extfont.shx
  0
STYLE
  2
ACANSGDT
 70
     0
 40
0.0
 41
1.0
 50
0.0
 71
     0
 42
0.2
  3
amgdt.shx
  4

  0
STYLE
  2
ACISOGDT
 70
     0
 40
0.0
 41
1.0
 50
0.0
 71
     0
 42
2.5
  3
amgdt.shx
  4

  0
ENDTAB
  0
TABLE
  2
VIEW
 70
     0
  0
ENDTAB
  0
TABLE
  2
UCS
 70
     0
  0
ENDTAB
  0
TABLE
  2
APPID
 70
    12
  0
APPID
  2
ACAD
 70
     0
  0
APPID
  2
ACADANNOTATIVE
 70
     0
  0
APPID
  2
MCAD_NO_VIS
 70
     0
  0
APPID
  2
ACAD_TEMP_GRAPHIC
 70
     0
  0
APPID
  2
ACATTRIBSERVICES
 70
     0
  0
APPID
  2
DESIGNERASSEMBLIES
 70
     0
  0
APPID
  2
ACAD_DSTYLE_DIMBREAK
 70
     0
  0
APPID
  2
ACAD_DSTYLE_DIMJAG
 70
     0
  0
APPID
  2
ACAD_NAV_VCDISPLAY
 70
     0
  0
APPID
  2
ACAD_PSEXT
 70
     0
  0
APPID
  2
ACAD_EXEMPT_FROM_CAD_STANDARDS
 70
     0
  0
APPID
  2
ACAD_MLEADERVER
 70
     0
  0
ENDTAB
  0
TABLE
  2
DIMSTYLE
 70
    16
  0
DIMSTYLE
  2
STANDARD
 70
     0
  3

  4

  5

  6

  7

 40
1.0
 41
0.18
 42
0.0625
 43
0.38
 44
0.18
 45
0.0
 46
0.0
 47
0.0
 48
0.0
140
0.18
141
0.09
142
0.0
143
25.399999999999999
144
1.0
145
0.0
146
1.0
147
0.09
 71
     0
 72
     0
 73
     1
 74
     1
 75
     0
 76
     0
 77
     0
 78
     0
170
     0
171
     2
172
     0
173
     0
174
     0
175
     0
176
     0
177
     0
178
     0
  0
DIMSTYLE
  2
ANNOTATIVE
 70
     0
  3

  4

  5

  6

  7

 40
1.0
 41
0.18
 42
0.0625
 43
0.38
 44
0.18
 45
0.0
 46
0.0
 47
0.0
 48
0.0
140
0.18
141
0.09
142
0.0
143
25.399999999999999
144
1.0
145
0.0
146
1.0
147
0.09
 71
     0
 72
     0
 73
     1
 74
     1
 75
     0
 76
     0
 77
     0
 78
     0
170
     0
171
     2
172
     0
173
     0
174
     0
175
     0
176
     0
177
     0
178
     0
  0
DIMSTYLE
  2
AM_ANSI
 70
     0
  3

  4
mm
  5

  6

  7

 40
1.0
 41
0.1
 42
0.05
 43
0.5
 44
0.1
 45
0.0
 46
0.0
 47
0.1
 48
0.1
140
0.12
141
0.0
142
0.0
143
25.399999999999999
144
1.0
145
0.0
146
0.71
147
0.06
 71
     0
 72
     0
 73
     1
 74
     1
 75
     0
 76
     0
 77
     0
 78
     7
170
     0
171
     2
172
     0
173
     0
174
     0
175
     0
176
   256
177
   256
178
     2
  0
DIMSTYLE
  2
AM_ANSI$3
 70
     0
  3

  4
mm
  5

  6

  7

 40
1.0
 41
0.1
 42
0.05
 43
0.5
 44
0.1
 45
0.0
 46
0.0
 47
0.1
 48
0.1
140
0.12
141
0.0
142
0.0
143
25.399999999999999
144
1.0
145
0.0
146
0.71
147
0.06
 71
     0
 72
     0
 73
     1
 74
     1
 75
     0
 76
     0
 77
     0
 78
     7
170
     0
171
     2
172
     0
173
     0
174
     0
175
     0
176
   256
177
   256
178
     2
  0
DIMSTYLE
  2
AM_ANSI$4
 70
     0
  3

  4
mm
  5

  6

  7

 40
1.0
 41
0.1
 42
0.05
 43
0.5
 44
0.1
 45
0.0
 46
0.0
 47
0.1
 48
0.1
140
0.12
141
0.0
142
0.0
143
25.399999999999999
144
1.0
145
0.0
146
0.71
147
0.06
 71
     0
 72
     0
 73
     1
 74
     1
 75
     0
 76
     0
 77
     0
 78
     7
170
     0
171
     2
172
     0
173
     0
174
     0
175
     0
176
   256
177
   256
178
     2
  0
DIMSTYLE
  2
AM_ANSI$7
 70
     0
  3

  4
mm
  5

  6

  7

 40
1.0
 41
0.1
 42
0.05
 43
0.5
 44
0.1
 45
0.0
 46
0.0
 47
0.1
 48
0.1
140
0.24
141
0.0
142
0.0
143
25.399999999999999
144
1.0
145
0.0
146
0.71
147
0.06
 71
     0
 72
     0
 73
     1
 74
     1
 75
     0
 76
     0
 77
     0
 78
     7
170
     0
171
     2
172
     0
173
     0
174
     0
175
     0
176
   256
177
   256
178
     2
  0
DIMSTYLE
  2
AM_ANSI$SF
 70
     0
  3

  4
mm
  5

  6

  7

 40
1.0
 41
0.1
 42
0.05
 43
0.5
 44
0.1
 45
0.0
 46
0.0
 47
0.1
 48
0.1
140
0.12
141
0.0
142
0.0
143
25.399999999999999
144
1.0
145
0.0
146
0.71
147
0.06
 71
     0
 72
     0
 73
     1
 74
     1
 75
     1
 76
     1
 77
     0
 78
     7
170
     0
171
     2
172
     0
173
     0
174
     0
175
     0
176
   256
177
   256
178
     2
  0
DIMSTYLE
  2
AM_ANSI$SH
 70
     0
  3

  4
mm
  5

  6

  7

 40
1.0
 41
0.1
 42
0.05
 43
0.5
 44
0.1
 45
0.0
 46
0.0
 47
0.1
 48
0.1
140
0.12
141
0.0
142
0.0
143
25.399999999999999
144
1.0
145
0.0
146
0.71
147
0.06
 71
     0
 72
     0
 73
     1
 74
     1
 75
     1
 76
     1
 77
     0
 78
     7
170
     0
171
     2
172
     0
173
     1
174
     0
175
     0
176
   256
177
   256
178
     2
  0
DIMSTYLE
  2
AM_ISO
 70
     0
  3

  4
"
  5

  6

  7

 40
1.0
 41
2.5
 42
1.0
 43
10.0
 44
1.0
 45
0.0
 46
0.0
 47
0.1
 48
0.1
140
3.5
141
0.0
142
0.0
143
0.0393701
144
1.0
145
0.0
146
0.71
147
1.5
 71
     0
 72
     0
 73
     0
 74
     0
 75
     0
 76
     0
 77
     1
 78
     8
170
     0
171
     2
172
     1
173
     0
174
     0
175
     0
176
   256
177
   256
178
     2
  0
DIMSTYLE
  2
AM_ISO$3
 70
     0
  3

  4
"
  5

  6

  7

 40
1.0
 41
2.5
 42
1.0
 43
10.0
 44
1.0
 45
0.0
 46
0.0
 47
0.1
 48
0.1
140
3.5
141
0.0
142
0.0
143
0.0393701
144
1.0
145
0.0
146
0.71
147
1.5
 71
     0
 72
     0
 73
     0
 74
     1
 75
     0
 76
     0
 77
     1
 78
     8
170
     0
171
     2
172
     0
173
     0
174
     0
175
     0
176
   256
177
   256
178
     2
  0
DIMSTYLE
  2
AM_ISO$4
 70
     0
  3

  4
"
  5

  6

  7

 40
1.0
 41
2.5
 42
1.0
 43
10.0
 44
1.0
 45
0.0
 46
0.0
 47
0.1
 48
0.1
140
3.5
141
0.0
142
0.0
143
0.0393701
144
1.0
145
0.0
146
0.71
147
1.5
 71
     0
 72
     0
 73
     0
 74
     1
 75
     0
 76
     0
 77
     1
 78
     8
170
     0
171
     2
172
     0
173
     0
174
     0
175
     0
176
   256
177
   256
178
     2
  0
DIMSTYLE
  2
AM_ISO$6
 70
     0
  3

  4
"
  5

  6

  7

 40
1.0
 41
2.5
 42
1.0
 43
10.0
 44
1.0
 45
0.0
 46
0.0
 47
0.1
 48
0.1
140
3.5
141
0.0
142
0.0
143
0.0393701
144
1.0
145
0.0
146
0.71
147
1.5
 71
     0
 72
     0
 73
     0
 74
     0
 75
     0
 76
     0
 77
     0
 78
     8
170
     0
171
     2
172
     1
173
     0
174
     0
175
     0
176
   256
177
   256
178
     2
  0
DIMSTYLE
  2
AM_ISO$7
 70
     0
  3

  4
"
  5

  6

  7

 40
1.0
 41
2.5
 42
1.0
 43
10.0
 44
1.0
 45
0.0
 46
0.0
 47
0.1
 48
0.1
140
5.0
141
0.0
142
0.0
143
0.0393701
144
1.0
145
0.0
146
0.71
147
1.5
 71
     0
 72
     0
 73
     0
 74
     0
 75
     0
 76
     0
 77
     1
 78
     8
170
     0
171
     2
172
     1
173
     0
174
     0
175
     0
176
   256
177
   256
178
     2
  0
DIMSTYLE
  2
AM_ISO$SF
 70
     0
  3

  4
"
  5

  6

  7

 40
1.0
 41
2.5
 42
1.0
 43
10.0
 44
1.0
 45
0.0
 46
0.0
 47
0.1
 48
0.1
140
3.5
141
0.0
142
0.0
143
0.0393701
144
1.0
145
0.0
146
0.71
147
1.5
 71
     0
 72
     0
 73
     0
 74
     0
 75
     1
 76
     1
 77
     1
 78
     8
170
     0
171
     2
172
     1
173
     0
174
     0
175
     0
176
   256
177
   256
178
     2
  0
DIMSTYLE
  2
AM_ISO$SH
 70
     0
  3

  4
"
  5

  6

  7

 40
1.0
 41
2.5
 42
1.0
 43
10.0
 44
1.0
 45
0.0
 46
0.0
 47
0.1
 48
0.1
140
3.5
141
0.0
142
0.0
143
0.0393701
144
2.0
145
0.0
146
0.71
147
1.5
 71
     0
 72
     0
 73
     0
 74
     0
 75
     1
 76
     1
 77
     1
 78
     8
170
     0
171
     2
172
     1
173
     1
174
     0
175
     0
176
   256
177
   256
178
     2
  0
DIMSTYLE
  2
AM_JIS
 70
     0
  3

  4
"
  5

  6

  7

 40
1.0
 41
2.0
 42
1.0
 43
8.0
 44
1.0
 45
0.0
 46
0.0
 47
0.1
 48
0.1
140
2.5
141
0.0
142
0.0
143
0.0393701
144
1.0
145
0.0
146
0.71
147
1.5
 71
     0
 72
     0
 73
     0
 74
     0
 75
     0
 76
     0
 77
     3
 78
     8
170
     0
171
     2
172
     1
173
     0
174
     0
175
     0
176
     2
177
     2
178
     4
  0
ENDTAB
  0
ENDSEC
  0
SECTION
  2
BLOCKS
  0
BLOCK
  8
0
  2
$MODEL_SPACE
 70
     0
 10
0.0
 20
0.0
 30
0.0
  3
$MODEL_SPACE
  1

  0
ENDBLK
  5
C2C
  8
0
  0
BLOCK
 67
     1
  8
0
  2
$PAPER_SPACE
 70
     0
 10
0.0
 20
0.0
 30
0.0
  3
$PAPER_SPACE
  1

  0
ENDBLK
  5
C28
 67
     1
  8
0
  0
BLOCK
  8
0
  2
GENAXEH
 70
     0
 10
0.0
 20
0.0
 30
0.0
  3
GENAXEH
  1

  0
LINE
  5
54D
  8
0
 10
-1.0
 20
0.0
 30
0.0
 11
1.0
 21
0.0
 31
0.0
  0
ENDBLK
  5
54E
  8
0
  0
BLOCK
  8
0
  2
_ACMFILLEDHALF
 70
     0
 10
0.0
 20
0.0
 30
0.0
  3
_ACMFILLEDHALF
  1

  0
TRACE
  5
ADE
  8
0
  6
CONTINUOUS
 62
     0
 10
-0.8
 20
0.0
 30
0.0
 11
-1.0
 21
0.166666666
 31
0.0
 12
0.0
 22
0.0
 32
0.0
 13
0.0
 23
0.0
 33
0.0
  0
LINE
  5
ADF
  8
0
  6
CONTINUOUS
 62
     0
 10
-1.0
 20
0.0
 30
0.0
 11
-0.8
 21
0.0
 31
0.0
  0
ENDBLK
  5
ADD
  8
0
  0
BLOCK
  8
0
  2
*U4
 70
     1
 10
0.0
 20
0.0
 30
0.0
  3
*U4
  1

  0
TEXT
  5
BB4
  8
0
  6
CONTINUOUS
 62
     0
 10
5.0768189741019842
 20
5.9826223594979648
 30
0.0
 40
15.0
  1
ＶＸ０８－００３ＥＭ～ＶＸ０８
  0
TEXT
  5
BB5
  8
0
  6
CONTINUOUS
 62
     0
 10
2.1790917013747091
 20
-19.18783218595658
 30
0.0
 40
15.0
  1
－０３０ＥＭ
  0
ENDBLK
  5
BB7
  8
0
  0
BLOCK
  8
0
  2
*U5
 70
     1
 10
0.0
 20
0.0
 30
0.0
  3
*U5
  1

  0
TEXT
  5
BB9
  8
0
  6
CONTINUOUS
 62
     0
 10
-281.85180970955292
 20
342.50383463602492
 30
0.0
 40
10.0
  1
ＶＸ０１－０６０ＥＭＦ～ＶＸ０１－２００ＥＭＦ
  0
ENDBLK
  5
BBB
  8
0
  0
ENDSEC
  0
SECTION
  2
ENTITIES
  0
LINE
  5
54F
  8
0
  6
CENTER
 62
     7
 10
-608.54247999999995
 20
390.16665999999998
 30
0.0
 11
-321.97329999999999
 21
390.16665999999998
 31
0.0
  0
LINE
  5
550
  8
0
  6
CENTER
 62
     1
 10
-145.2809399999999
 20
236.23412999999999
 30
0.0
 11
-145.2809399999999
 21
48.293807999999999
 31
0.0
  0
LINE
  5
551
  8
0
  6
CONTINUOUS
 62
     7
 10
-370.19299000000001
 20
377.66669000000002
 30
0.0
 11
-368.19301999999999
 21
377.66669000000002
 31
0.0
  0
LINE
  5
552
  8
0
  6
CONTINUOUS
 62
     7
 10
-370.19299000000001
 20
402.66663
 30
0.0
 11
-368.19301999999999
 21
402.66663
 31
0.0
  0
LINE
  5
553
  8
0
  6
CONTINUOUS
 62
     7
 10
-328.19299000000001
 20
402.16665999999992
 30
0.0
 11
-328.19299000000001
 21
378.16665999999992
 31
0.0
  0
LINE
  5
554
  8
0
  6
CONTINUOUS
 62
     7
 10
-368.19301999999999
 20
402.66663
 30
0.0
 11
-368.19301999999999
 21
377.66669000000002
 31
0.0
  0
LINE
  5
555
  8
0
  6
CONTINUOUS
 62
     7
 10
-368.19301999999999
 20
402.16665999999992
 30
0.0
 11
-328.19299000000001
 21
402.16665999999992
 31
0.0
  0
LINE
  5
556
  8
0
  6
CONTINUOUS
 62
     7
 10
-368.19301999999999
 20
378.16665999999992
 30
0.0
 11
-328.19299000000001
 21
378.16665999999992
 31
0.0
  0
LINE
  5
557
  8
0
  6
CONTINUOUS
 62
     7
 10
-360.19299000000001
 20
394.16662999999988
 30
0.0
 11
-360.19299000000001
 21
386.16665999999992
 31
0.0
  0
LINE
  5
558
  8
0
  6
CONTINUOUS
 62
     7
 10
-435.19299000000001
 20
461.16665999999992
 30
0.0
 11
-435.19299000000001
 21
319.16665999999998
 31
0.0
  0
LINE
  5
559
  8
0
  6
CONTINUOUS
 62
     7
 10
-371.19296000000003
 20
363.63173999999992
 30
0.0
 11
-371.15811000000002
 21
363.63297
 31
0.0
  0
LINE
  5
55A
  8
0
  6
CONTINUOUS
 62
     7
 10
-371.19296000000003
 20
416.70157
 30
0.0
 11
-371.15807999999998
 21
416.70034999999979
 31
0.0
  0
LINE
  5
55B
  8
0
  6
CONTINUOUS
 62
     7
 10
-370.19299000000001
 20
364.63231999999988
 30
0.0
 11
-370.19299000000001
 21
415.70096000000001
 31
0.0
  0
LINE
  5
55C
  8
0
  6
CONTINUOUS
 62
     7
 10
-360.19299000000001
 20
386.16665999999992
 30
0.0
 11
-328.19299000000001
 21
386.16665999999992
 31
0.0
  0
LINE
  5
55D
  8
0
  6
CONTINUOUS
 62
     7
 10
-360.19299000000001
 20
394.16662999999988
 30
0.0
 11
-328.19299000000001
 21
394.16662999999988
 31
0.0
  0
LINE
  5
55E
  8
0
  6
CONTINUOUS
 62
     3
 10
-581.46582000000001
 20
324.66665999999992
 30
0.0
 11
-501.46597000000003
 21
324.66665999999992
 31
0.0
  0
LINE
  5
55F
  8
0
  6
CONTINUOUS
 62
     3
 10
-501.46597000000003
 20
324.66665999999992
 30
0.0
 11
-501.46597000000003
 21
317.66665999999992
 31
0.0
  0
LINE
  5
560
  8
0
  6
CONTINUOUS
 62
     3
 10
-502.96597000000003
 20
301.16665999999992
 30
0.0
 11
-502.96597000000003
 21
317.66665999999992
 31
0.0
  0
LINE
  5
561
  8
0
  6
CONTINUOUS
 62
     3
 10
-560.96594000000005
 20
313.66665999999992
 30
0.0
 11
-560.96594000000005
 21
321.16665999999998
 31
0.0
  0
LINE
  5
562
  8
0
  6
CONTINUOUS
 62
     3
 10
-575.96582000000001
 20
321.16665999999998
 30
0.0
 11
-575.96582000000001
 21
313.66665999999992
 31
0.0
  0
LINE
  5
563
  8
0
  6
CONTINUOUS
 62
     3
 10
-579.96582000000001
 20
321.16665999999998
 30
0.0
 11
-579.96582000000001
 21
301.16665999999992
 31
0.0
  0
LINE
  5
564
  8
0
  6
CONTINUOUS
 62
     3
 10
-550.76598999999999
 20
298.16665999999998
 30
0.0
 11
-515.16602
 21
298.16665999999998
 31
0.0
  0
LINE
  5
565
  8
0
  6
CONTINUOUS
 62
     3
 10
-579.96582000000001
 20
301.16665999999992
 30
0.0
 11
-502.96597000000003
 21
301.16665999999992
 31
0.0
  0
LINE
  5
566
  8
0
  6
CONTINUOUS
 62
     3
 10
-579.96582000000001
 20
317.66665999999992
 30
0.0
 11
-575.96582000000001
 21
317.66665999999992
 31
0.0
  0
LINE
  5
567
  8
0
  6
CONTINUOUS
 62
     3
 10
-509.96590999999989
 20
301.16660000000002
 30
0.0
 11
-515.16588999999999
 21
298.16660000000002
 31
0.0
  0
LINE
  5
568
  8
0
  6
CONTINUOUS
 62
     3
 10
-550.76598999999999
 20
298.16669000000002
 30
0.0
 11
-555.96594000000005
 21
301.16669000000002
 31
0.0
  0
LINE
  5
569
  8
0
  6
CONTINUOUS
 62
     3
 10
-583.46581999999978
 20
321.16665999999998
 30
0.0
 11
-583.46581999999978
 21
306.16762999999992
 31
0.0
  0
LINE
  5
56A
  8
0
  6
CONTINUOUS
 62
     3
 10
-579.96582000000001
 20
306.16762999999992
 30
0.0
 11
-583.46581999999978
 21
306.16762999999992
 31
0.0
  0
LINE
  5
56B
  8
0
  6
CONTINUOUS
 62
     3
 10
-564.46594000000005
 20
321.16665999999998
 30
0.0
 11
-564.46594000000005
 21
313.66665999999992
 31
0.0
  0
LINE
  5
56C
  8
0
  6
CONTINUOUS
 62
     3
 10
-572.46582000000001
 20
321.16665999999998
 30
0.0
 11
-572.46582000000001
 21
313.66665999999992
 31
0.0
  0
LINE
  5
56D
  8
0
  6
CONTINUOUS
 62
     3
 10
-560.96594000000005
 20
317.66665999999992
 30
0.0
 11
-501.46597000000003
 21
317.66665999999992
 31
0.0
  0
LINE
  5
56E
  8
0
  6
CONTINUOUS
 62
     3
 10
-583.46581999999978
 20
321.16665999999998
 30
0.0
 11
-501.46597000000003
 21
321.16665999999998
 31
0.0
  0
LINE
  5
56F
  8
0
  6
CONTINUOUS
 62
     3
 10
-581.46582000000001
 20
324.66665999999992
 30
0.0
 11
-581.46582000000001
 21
321.16665999999998
 31
0.0
  0
LINE
  5
570
  8
0
  6
CONTINUOUS
 62
     7
 10
-502.6929599999998
 20
325.66665999999992
 30
0.0
 11
-502.6929599999998
 21
324.66665999999992
 31
0.0
  0
LINE
  5
571
  8
0
  6
CONTINUOUS
 62
     7
 10
-561.69299000000001
 20
325.66665999999992
 30
0.0
 11
-561.69299000000001
 21
324.66665999999992
 31
0.0
  0
LINE
  5
572
  8
0
  6
CONTINUOUS
 62
     7
 10
-482.98720999999989
 20
435.09552000000002
 30
0.0
 11
-487.13297
 21
450.57662999999991
 31
0.0
  0
LINE
  5
573
  8
0
  6
CONTINUOUS
 62
     7
 10
-482.98723999999999
 20
434.18552
 30
0.0
 11
-487.13297
 21
449.66663
 31
0.0
  0
LINE
  5
574
  8
0
  6
CONTINUOUS
 62
     7
 10
-482.98723999999999
 20
432.33557000000002
 30
0.0
 11
-487.13297
 21
447.81667999999991
 31
0.0
  0
LINE
  5
575
  8
0
  6
CONTINUOUS
 62
     7
 10
-481.19296000000003
 20
446.16665999999998
 30
0.0
 11
-481.19296000000003
 21
334.16665999999992
 31
0.0
  0
LINE
  5
576
  8
0
  6
CONTINUOUS
 62
     7
 10
-603.19299000000001
 20
438.18668000000002
 30
0.0
 11
-603.19299000000001
 21
395.16665999999992
 31
0.0
  0
LINE
  5
577
  8
0
  6
CONTINUOUS
 62
     7
 10
-600.92296999999985
 20
439.91665999999998
 30
0.0
 11
-598.69298999999978
 21
439.91665999999998
 31
0.0
  0
LINE
  5
578
  8
0
  6
CONTINUOUS
 62
     7
 10
-600.99292000000003
 20
425.85660000000001
 30
0.0
 11
-598.89293999999995
 21
425.85660000000001
 31
0.0
  0
LINE
  5
579
  8
0
  6
CONTINUOUS
 62
     7
 10
-601.42296999999985
 20
439.78662000000003
 30
0.0
 11
-602.69292999999982
 21
439.04662999999988
 31
0.0
  0
LINE
  5
57A
  8
0
  6
CONTINUOUS
 62
     7
 10
-601.43297999999982
 20
437.66671999999988
 30
0.0
 11
-602.71301000000005
 21
436.89672999999999
 31
0.0
  0
LINE
  5
57B
  8
0
  6
CONTINUOUS
 62
     7
 10
-601.44299000000001
 20
433.12664999999993
 30
0.0
 11
-602.74297999999999
 21
432.27663999999987
 31
0.0
  0
LINE
  5
57C
  8
0
  6
CONTINUOUS
 62
     7
 10
-601.38300000000004
 20
425.77667000000002
 30
0.0
 11
-602.58294999999998
 21
425.26668999999993
 31
0.0
  0
LINE
  5
57D
  8
0
  6
CONTINUOUS
 62
     7
 10
-600.91296
 20
437.80666999999988
 30
0.0
 11
-598.1929899999999
 21
437.80666999999988
 31
0.0
  0
LINE
  5
57E
  8
0
  6
CONTINUOUS
 62
     7
 10
-600.89293999999995
 20
433.2966599999998
 30
0.0
 11
-598.1929899999999
 21
433.2966599999998
 31
0.0
  0
LINE
  5
57F
  8
0
  6
CONTINUOUS
 62
     7
 10
-601.04296999999985
 20
423.90664999999979
 30
0.0
 11
-599.19299000000001
 21
423.90664999999979
 31
0.0
  0
LINE
  5
580
  8
0
  6
CONTINUOUS
 62
     7
 10
-600.92296999999985
 20
432.15665000000001
 30
0.0
 11
-599.19299000000001
 21
432.15665000000001
 31
0.0
  0
LINE
  5
581
  8
0
  6
CONTINUOUS
 62
     7
 10
-600.94299000000001
 20
436.66665999999998
 30
0.0
 11
-599.19299000000001
 21
436.66665999999998
 31
0.0
  0
LINE
  5
582
  8
0
  6
CONTINUOUS
 62
     7
 10
-600.95299999999975
 20
438.76662999999991
 30
0.0
 11
-598.69298999999978
 21
438.76662999999991
 31
0.0
  0
LINE
  5
583
  8
0
  6
CONTINUOUS
 62
     7
 10
-601.42296999999985
 20
432.01668999999998
 30
0.0
 11
-602.70299999999975
 21
431.26668999999993
 31
0.0
  0
LINE
  5
584
  8
0
  6
CONTINUOUS
 62
     7
 10
-601.33300999999994
 20
423.86669999999992
 30
0.0
 11
-602.48297000000002
 21
423.51668999999998
 31
0.0
  0
LINE
  5
585
  8
0
  6
CONTINUOUS
 62
     7
 10
-601.40295000000003
 20
438.66662999999988
 30
0.0
 11
-602.64293999999995
 21
438.03662000000003
 31
0.0
  0
LINE
  5
586
  8
0
  6
CONTINUOUS
 62
     7
 10
-601.41296
 20
436.55669999999992
 30
0.0
 11
-602.66295999999966
 21
435.88665999999989
 31
0.0
  0
LINE
  5
587
  8
0
  6
CONTINUOUS
 62
     7
 10
-599.19299000000001
 20
416.16665999999998
 30
0.0
 11
-602.1929899999999
 21
416.16665999999998
 31
0.0
  0
LINE
  5
588
  8
0
  6
CONTINUOUS
 62
     7
 10
-599.19299000000001
 20
414.16665999999981
 30
0.0
 11
-602.1929899999999
 21
414.16665999999981
 31
0.0
  0
LINE
  5
589
  8
0
  6
CONTINUOUS
 62
     7
 10
-599.19299000000001
 20
406.16665999999992
 30
0.0
 11
-602.1929899999999
 21
406.16665999999992
 31
0.0
  0
LINE
  5
58A
  8
0
  6
CONTINUOUS
 62
     7
 10
-599.19299000000001
 20
404.16665999999998
 30
0.0
 11
-602.1929899999999
 21
404.16665999999998
 31
0.0
  0
LINE
  5
58B
  8
0
  6
CONTINUOUS
 62
     7
 10
-599.19299000000001
 20
396.16665999999998
 30
0.0
 11
-602.1929899999999
 21
396.16665999999998
 31
0.0
  0
LINE
  5
58C
  8
0
  6
CONTINUOUS
 62
     7
 10
-599.19299000000001
 20
394.16665999999992
 30
0.0
 11
-602.1929899999999
 21
394.16665999999992
 31
0.0
  0
LINE
  5
58D
  8
0
  6
CONTINUOUS
 62
     7
 10
-601.19299000000001
 20
405.77663999999999
 30
0.0
 11
-601.19299000000001
 21
404.56667999999991
 31
0.0
  0
LINE
  5
58E
  8
0
  6
CONTINUOUS
 62
     7
 10
-601.19299000000001
 20
395.77663999999999
 30
0.0
 11
-601.19299000000001
 21
394.61660999999992
 31
0.0
  0
LINE
  5
58F
  8
0
  6
CONTINUOUS
 62
     7
 10
-601.19299000000001
 20
415.79665999999992
 30
0.0
 11
-601.19299000000001
 21
414.42667
 31
0.0
  0
LINE
  5
590
  8
0
  6
CONTINUOUS
 62
     7
 10
-601.19299000000001
 20
425.55667
 30
0.0
 11
-601.19299000000001
 21
424.49660999999998
 31
0.0
  0
LINE
  5
591
  8
0
  6
CONTINUOUS
 62
     7
 10
-601.19299000000001
 20
432.99660999999998
 30
0.0
 11
-601.19299000000001
 21
432.52663999999999
 31
0.0
  0
LINE
  5
592
  8
0
  6
CONTINUOUS
 62
     7
 10
-601.19299000000001
 20
437.56667999999991
 30
0.0
 11
-601.19299000000001
 21
437.01663000000002
 31
0.0
  0
LINE
  5
593
  8
0
  6
CONTINUOUS
 62
     7
 10
-601.19299000000001
 20
439.66665999999992
 30
0.0
 11
-601.19299000000001
 21
439.13662999999991
 31
0.0
  0
LINE
  5
594
  8
0
  6
CONTINUOUS
 62
     7
 10
-604.69299000000001
 20
410.16665999999992
 30
0.0
 11
-604.69299000000001
 21
390.16665999999998
 31
0.0
  0
LINE
  5
595
  8
0
  6
CONTINUOUS
 62
     7
 10
-604.69292999999982
 20
410.16659999999979
 30
0.0
 11
-603.19292999999982
 21
410.29660000000001
 31
0.0
  0
LINE
  5
596
  8
0
  6
CONTINUOUS
 62
     7
 10
-604.69299000000001
 20
405.31667999999962
 30
0.0
 11
-603.19299000000001
 21
405.31667999999962
 31
0.0
  0
LINE
  5
597
  8
0
  6
CONTINUOUS
 62
     7
 10
-604.69299000000001
 20
407.44668999999999
 30
0.0
 11
-603.19299000000001
 21
407.44668999999999
 31
0.0
  0
LINE
  5
598
  8
0
  6
CONTINUOUS
 62
     7
 10
-487.85297000000003
 20
426.16665999999981
 30
0.0
 11
-586.83300999999994
 21
426.16665999999981
 31
0.0
  0
LINE
  5
599
  8
0
  6
CONTINUOUS
 62
     7
 10
-487.85297000000003
 20
424.16665999999998
 30
0.0
 11
-586.83300999999994
 21
424.16665999999998
 31
0.0
  0
LINE
  5
59A
  8
0
  6
CONTINUOUS
 62
     7
 10
-520.19299000000001
 20
416.16665999999998
 30
0.0
 11
-586.83300999999994
 21
416.16665999999998
 31
0.0
  0
LINE
  5
59B
  8
0
  6
CONTINUOUS
 62
     7
 10
-487.86014
 20
414.16665999999981
 30
0.0
 11
-586.83300999999994
 21
414.16665999999981
 31
0.0
  0
LINE
  5
59C
  8
0
  6
CONTINUOUS
 62
     7
 10
-552.75427000000002
 20
406.16665999999992
 30
0.0
 11
-586.83300999999994
 21
406.16665999999992
 31
0.0
  0
LINE
  5
59D
  8
0
  6
CONTINUOUS
 62
     7
 10
-552.75427000000002
 20
404.16665999999998
 30
0.0
 11
-586.83300999999994
 21
404.16665999999998
 31
0.0
  0
LINE
  5
59E
  8
0
  6
CONTINUOUS
 62
     7
 10
-552.75427000000002
 20
396.16665999999998
 30
0.0
 11
-586.83300999999994
 21
396.16665999999998
 31
0.0
  0
LINE
  5
59F
  8
0
  6
CONTINUOUS
 62
     7
 10
-552.75427000000002
 20
394.16665999999992
 30
0.0
 11
-586.83300999999994
 21
394.16665999999992
 31
0.0
  0
LINE
  5
5A0
  8
0
  6
CONTINUOUS
 62
     7
 10
-587.51293999999984
 20
426.88663000000003
 30
0.0
 11
-484.37295999999992
 21
426.88663000000003
 31
0.0
  0
LINE
  5
5A1
  8
0
  6
CONTINUOUS
 62
     7
 10
-587.51293999999984
 20
423.53665000000001
 30
0.0
 11
-520.17296999999985
 21
423.53665000000001
 31
0.0
  0
LINE
  5
5A2
  8
0
  6
CONTINUOUS
 62
     7
 10
-587.73290999999995
 20
416.65665000000001
 30
0.0
 11
-520.19299000000001
 21
416.65665000000001
 31
0.0
  0
LINE
  5
5A3
  8
0
  6
CONTINUOUS
 62
     7
 10
-587.73290999999995
 20
413.72672
 30
0.0
 11
-484.15872000000002
 21
413.72672
 31
0.0
  0
LINE
  5
5A4
  8
0
  6
CONTINUOUS
 62
     7
 10
-587.86292000000003
 20
406.50662
 30
0.0
 11
-551.53430000000003
 21
406.50662
 31
0.0
  0
LINE
  5
5A5
  8
0
  6
CONTINUOUS
 62
     7
 10
-587.86292000000003
 20
403.84670999999997
 30
0.0
 11
-551.53430000000003
 21
403.84670999999997
 31
0.0
  0
LINE
  5
5A6
  8
0
  6
CONTINUOUS
 62
     7
 10
-587.92296999999985
 20
396.43667999999991
 30
0.0
 11
-551.47424000000001
 21
396.43667999999991
 31
0.0
  0
LINE
  5
5A7
  8
0
  6
CONTINUOUS
 62
     7
 10
-587.92296999999985
 20
393.90665000000001
 30
0.0
 11
-551.47424000000001
 21
393.90665000000001
 31
0.0
  0
LINE
  5
5A8
  8
0
  6
CONTINUOUS
 62
     7
 10
-587.92296999999985
 20
386.43667999999991
 30
0.0
 11
-551.47424000000001
 21
386.43667999999991
 31
0.0
  0
LINE
  5
5A9
  8
0
  6
CONTINUOUS
 62
     7
 10
-552.75427000000002
 20
386.16665999999992
 30
0.0
 11
-586.83300999999994
 21
386.16665999999992
 31
0.0
  0
LINE
  5
5AA
  8
0
  6
CONTINUOUS
 62
     7
 10
-552.75427000000002
 20
384.16665999999992
 30
0.0
 11
-586.83300999999994
 21
384.16665999999992
 31
0.0
  0
LINE
  5
5AB
  8
0
  6
CONTINUOUS
 62
     7
 10
-587.92296999999985
 20
383.89663999999988
 30
0.0
 11
-551.47424000000001
 21
383.89663999999988
 31
0.0
  0
LINE
  5
5AC
  8
0
  6
CONTINUOUS
 62
     7
 10
-587.86292000000003
 20
376.48660000000001
 30
0.0
 11
-551.53430000000003
 21
376.48660000000001
 31
0.0
  0
LINE
  5
5AD
  8
0
  6
CONTINUOUS
 62
     7
 10
-552.75427000000002
 20
376.16665999999992
 30
0.0
 11
-586.83300999999994
 21
376.16665999999992
 31
0.0
  0
LINE
  5
5AE
  8
0
  6
CONTINUOUS
 62
     7
 10
-552.75427000000002
 20
374.16665999999992
 30
0.0
 11
-586.83300999999994
 21
374.16665999999992
 31
0.0
  0
LINE
  5
5AF
  8
0
  6
CONTINUOUS
 62
     7
 10
-587.86292000000003
 20
373.82668999999993
 30
0.0
 11
-551.52172999999993
 21
373.82668999999993
 31
0.0
  0
LINE
  5
5B0
  8
0
  6
CONTINUOUS
 62
     7
 10
-487.86014
 20
366.16665999999992
 30
0.0
 11
-586.83300999999994
 21
366.16665999999992
 31
0.0
  0
LINE
  5
5B1
  8
0
  6
CONTINUOUS
 62
     7
 10
-587.73290999999995
 20
366.60660000000001
 30
0.0
 11
-484.15872000000002
 21
366.60660000000001
 31
0.0
  0
LINE
  5
5B2
  8
0
  6
CONTINUOUS
 62
     7
 10
-520.19299000000001
 20
364.16665999999992
 30
0.0
 11
-586.83300999999994
 21
364.16665999999992
 31
0.0
  0
LINE
  5
5B3
  8
0
  6
CONTINUOUS
 62
     7
 10
-587.73290999999995
 20
363.67666999999989
 30
0.0
 11
-520.19299000000001
 21
363.67666999999989
 31
0.0
  0
LINE
  5
5B4
  8
0
  6
CONTINUOUS
 62
     7
 10
-487.85297000000003
 20
356.16665999999992
 30
0.0
 11
-532.19298999999967
 21
356.16665999999992
 31
0.0
  0
LINE
  5
5B5
  8
0
  6
CONTINUOUS
 62
     7
 10
-487.85297000000003
 20
354.16665999999992
 30
0.0
 11
-532.19298999999967
 21
354.16665999999992
 31
0.0
  0
LINE
  5
5B6
  8
0
  6
CONTINUOUS
 62
     7
 10
-587.51293999999984
 20
353.44668999999982
 30
0.0
 11
-532.19298999999967
 21
353.44668999999982
 31
0.0
  0
LINE
  5
5B7
  8
0
  6
CONTINUOUS
 62
     7
 10
-484.37295999999992
 20
356.79665999999992
 30
0.0
 11
-502.21294999999998
 21
356.79665999999992
 31
0.0
  0
LINE
  5
5B8
  8
0
  6
CONTINUOUS
 62
     7
 10
-600.99292000000003
 20
354.47671999999977
 30
0.0
 11
-598.89293999999995
 21
354.47671999999977
 31
0.0
  0
LINE
  5
5B9
  8
0
  6
CONTINUOUS
 62
     7
 10
-601.38287000000003
 20
354.55667
 30
0.0
 11
-602.58289000000002
 21
355.07668999999993
 31
0.0
  0
LINE
  5
5BA
  8
0
  6
CONTINUOUS
 62
     7
 10
-601.04296999999985
 20
356.42667
 30
0.0
 11
-599.19299000000001
 21
356.42667
 31
0.0
  0
LINE
  5
5BB
  8
0
  6
CONTINUOUS
 62
     7
 10
-601.33289000000002
 20
356.46663999999998
 30
0.0
 11
-602.48290999999995
 21
356.82662999999991
 31
0.0
  0
LINE
  5
5BC
  8
0
  6
CONTINUOUS
 62
     7
 10
-599.19299000000001
 20
364.16665999999992
 30
0.0
 11
-602.1929899999999
 21
364.16665999999992
 31
0.0
  0
LINE
  5
5BD
  8
0
  6
CONTINUOUS
 62
     7
 10
-599.19299000000001
 20
366.16665999999992
 30
0.0
 11
-602.1929899999999
 21
366.16665999999992
 31
0.0
  0
LINE
  5
5BE
  8
0
  6
CONTINUOUS
 62
     7
 10
-599.19299000000001
 20
374.16665999999992
 30
0.0
 11
-602.1929899999999
 21
374.16665999999992
 31
0.0
  0
LINE
  5
5BF
  8
0
  6
CONTINUOUS
 62
     7
 10
-599.19299000000001
 20
376.16665999999992
 30
0.0
 11
-602.1929899999999
 21
376.16665999999992
 31
0.0
  0
LINE
  5
5C0
  8
0
  6
CONTINUOUS
 62
     7
 10
-599.19299000000001
 20
384.16665999999992
 30
0.0
 11
-602.1929899999999
 21
384.16665999999992
 31
0.0
  0
LINE
  5
5C1
  8
0
  6
CONTINUOUS
 62
     7
 10
-599.19299000000001
 20
386.16665999999992
 30
0.0
 11
-602.1929899999999
 21
386.16665999999992
 31
0.0
  0
LINE
  5
5C2
  8
0
  6
CONTINUOUS
 62
     7
 10
-601.19299000000001
 20
374.55666999999988
 30
0.0
 11
-601.19299000000001
 21
375.77663999999987
 31
0.0
  0
LINE
  5
5C3
  8
0
  6
CONTINUOUS
 62
     7
 10
-601.19299000000001
 20
384.55667
 30
0.0
 11
-601.19299000000001
 21
385.71670999999992
 31
0.0
  0
LINE
  5
5C4
  8
0
  6
CONTINUOUS
 62
     7
 10
-601.19299000000001
 20
364.53665000000001
 30
0.0
 11
-601.19299000000001
 21
365.90665000000001
 31
0.0
  0
LINE
  5
5C5
  8
0
  6
CONTINUOUS
 62
     7
 10
-601.19299000000001
 20
354.77663999999987
 30
0.0
 11
-601.19299000000001
 21
355.83670000000001
 31
0.0
  0
LINE
  5
5C6
  8
0
  6
CONTINUOUS
 62
     7
 10
-604.69299000000001
 20
370.16665999999992
 30
0.0
 11
-604.69299000000001
 21
390.16665999999998
 31
0.0
  0
LINE
  5
5C7
  8
0
  6
CONTINUOUS
 62
     7
 10
-604.69299000000001
 20
370.16660000000002
 30
0.0
 11
-603.19299000000001
 21
370.03658999999988
 31
0.0
  0
LINE
  5
5C8
  8
0
  6
CONTINUOUS
 62
     7
 10
-604.69299000000001
 20
375.01662999999991
 30
0.0
 11
-603.19299000000001
 21
375.01662999999991
 31
0.0
  0
LINE
  5
5C9
  8
0
  6
CONTINUOUS
 62
     7
 10
-604.69299000000001
 20
372.88662999999991
 30
0.0
 11
-603.19299000000001
 21
372.88662999999991
 31
0.0
  0
LINE
  5
5CA
  8
0
  6
CONTINUOUS
 62
     7
 10
-587.51293999999984
 20
356.79665999999992
 30
0.0
 11
-520.17296999999985
 21
356.79665999999992
 31
0.0
  0
LINE
  5
5CB
  8
0
  6
CONTINUOUS
 62
     7
 10
-532.19298999999967
 20
356.16665999999992
 30
0.0
 11
-586.83300999999994
 21
356.16665999999992
 31
0.0
  0
LINE
  5
5CC
  8
0
  6
CONTINUOUS
 62
     7
 10
-532.19298999999967
 20
354.16665999999992
 30
0.0
 11
-586.83300999999994
 21
354.16665999999992
 31
0.0
  0
LINE
  5
5CD
  8
0
  6
CONTINUOUS
 62
     7
 10
-532.19298999999967
 20
353.44668999999982
 30
0.0
 11
-484.37295999999992
 21
353.44668999999982
 31
0.0
  0
LINE
  5
5CE
  8
0
  6
CONTINUOUS
 62
     7
 10
-597.19299000000001
 20
443.16665999999981
 30
0.0
 11
-597.19299000000001
 21
337.16665999999992
 31
0.0
  0
LINE
  5
5CF
  8
0
  6
CONTINUOUS
 62
     7
 10
-589.19299000000001
 20
443.16665999999981
 30
0.0
 11
-589.19299000000001
 21
337.16665999999992
 31
0.0
  0
LINE
  5
5D0
  8
0
  6
CONTINUOUS
 62
     7
 10
-602.70299999999975
 20
349.06662
 30
0.0
 11
-602.72295999999994
 21
349.07662999999991
 31
0.0
  0
LINE
  5
5D1
  8
0
  6
CONTINUOUS
 62
     7
 10
-598.1929899999999
 20
440.16665999999992
 30
0.0
 11
-598.1929899999999
 21
340.16665999999992
 31
0.0
  0
LINE
  5
5D2
  8
0
  6
CONTINUOUS
 62
     7
 10
-598.1929899999999
 20
440.16665999999992
 30
0.0
 11
-597.19299000000001
 21
440.16665999999992
 31
0.0
  0
LINE
  5
5D3
  8
0
  6
CONTINUOUS
 62
     7
 10
-597.19299000000001
 20
443.16665999999981
 30
0.0
 11
-589.19299000000001
 21
443.16665999999981
 31
0.0
  0
LINE
  5
5D4
  8
0
  6
CONTINUOUS
 62
     7
 10
-596.49292000000003
 20
433.35660000000001
 30
0.0
 11
-590.26294000000019
 21
433.35660000000001
 31
0.0
  0
LINE
  5
5D5
  8
0
  6
CONTINUOUS
 62
     7
 10
-481.19296000000003
 20
436.16665999999992
 30
0.0
 11
-473.19295999999991
 21
436.16665999999992
 31
0.0
  0
LINE
  5
5D6
  8
0
  6
CONTINUOUS
 62
     7
 10
-481.19296000000003
 20
422.10660000000001
 30
0.0
 11
-473.19295999999991
 21
422.10660000000001
 31
0.0
  0
LINE
  5
5D7
  8
0
  6
CONTINUOUS
 62
     7
 10
-481.19296000000003
 20
446.16665999999998
 30
0.0
 11
-473.19295999999991
 21
446.16665999999998
 31
0.0
  0
LINE
  5
5D8
  8
0
  6
CONTINUOUS
 62
     7
 10
-585.98290999999995
 20
446.44668999999988
 30
0.0
 11
-489.06295999999992
 21
446.44668999999988
 31
0.0
  0
LINE
  5
5D9
  8
0
  6
CONTINUOUS
 62
     7
 10
-589.19292999999982
 20
438.26672000000002
 30
0.0
 11
-587.95294000000001
 21
444.82668999999999
 31
0.0
  0
LINE
  5
5DA
  8
0
  6
CONTINUOUS
 62
     7
 10
-583.83294999999976
 20
426.81664999999992
 30
0.0
 11
-589.19292999999982
 21
438.26662999999991
 31
0.0
  0
LINE
  5
5DB
  8
0
  6
CONTINUOUS
 62
     7
 10
-583.83300999999994
 20
353.51662999999991
 30
0.0
 11
-589.19292999999982
 21
342.07672000000002
 31
0.0
  0
LINE
  5
5DC
  8
0
  6
CONTINUOUS
 62
     7
 10
-585.94299000000001
 20
449.29665999999992
 30
0.0
 11
-489.06295999999992
 21
449.29665999999992
 31
0.0
  0
LINE
  5
5DD
  8
0
  6
CONTINUOUS
 62
     7
 10
-585.92296999999985
 20
451.14663999999988
 30
0.0
 11
-489.06295999999992
 21
451.14663999999988
 31
0.0
  0
LINE
  5
5DE
  8
0
  6
CONTINUOUS
 62
     7
 10
-585.90295000000003
 20
452.05666999999988
 30
0.0
 11
-489.06290000000001
 21
452.05666999999988
 31
0.0
  0
LINE
  5
5DF
  8
0
  6
CONTINUOUS
 62
     7
 10
-589.19292999999982
 20
439.60669000000001
 30
0.0
 11
-587.91295999999966
 21
447.61664000000002
 31
0.0
  0
LINE
  5
5E0
  8
0
  6
CONTINUOUS
 62
     7
 10
-589.19292999999982
 20
440.95662999999979
 30
0.0
 11
-587.90288999999996
 21
449.44672000000003
 31
0.0
  0
LINE
  5
5E1
  8
0
  6
CONTINUOUS
 62
     7
 10
-589.19292999999982
 20
440.95666999999997
 30
0.0
 11
-587.88292999999965
 21
450.33669999999989
 31
0.0
  0
LINE
  5
5E2
  8
0
  6
CONTINUOUS
 62
     7
 10
-482.99292000000003
 20
429.50661999999988
 30
0.0
 11
-487.13292999999999
 21
444.96667000000002
 31
0.0
  0
LINE
  5
5E3
  8
0
  6
CONTINUOUS
 62
     7
 10
-486.65294999999992
 20
443.16665999999981
 30
0.0
 11
-481.19296000000003
 21
443.16665999999981
 31
0.0
  0
LINE
  5
5E4
  8
0
  6
CONTINUOUS
 62
     7
 10
-603.19299000000001
 20
342.14663999999988
 30
0.0
 11
-603.19299000000001
 21
385.16665999999992
 31
0.0
  0
LINE
  5
5E5
  8
0
  6
CONTINUOUS
 62
     7
 10
-600.92296999999985
 20
340.41665999999992
 30
0.0
 11
-598.69298999999978
 21
340.41665999999992
 31
0.0
  0
LINE
  5
5E6
  8
0
  6
CONTINUOUS
 62
     7
 10
-601.42291
 20
340.55660999999992
 30
0.0
 11
-602.69292999999982
 21
341.28658999999988
 31
0.0
  0
LINE
  5
5E7
  8
0
  6
CONTINUOUS
 62
     7
 10
-601.43291999999985
 20
342.66665999999992
 30
0.0
 11
-602.71294999999998
 21
343.43667999999991
 31
0.0
  0
LINE
  5
5E8
  8
0
  6
CONTINUOUS
 62
     7
 10
-601.44292999999959
 20
347.20659999999992
 30
0.0
 11
-602.74297999999999
 21
348.05660999999992
 31
0.0
  0
LINE
  5
5E9
  8
0
  6
CONTINUOUS
 62
     7
 10
-600.91296
 20
342.52663999999982
 30
0.0
 11
-598.1929899999999
 21
342.52663999999982
 31
0.0
  0
LINE
  5
5EA
  8
0
  6
CONTINUOUS
 62
     7
 10
-600.89293999999995
 20
347.04665999999992
 30
0.0
 11
-598.1929899999999
 21
347.04665999999992
 31
0.0
  0
LINE
  5
5EB
  8
0
  6
CONTINUOUS
 62
     7
 10
-600.92296999999985
 20
348.18667999999991
 30
0.0
 11
-599.19299000000001
 21
348.18667999999991
 31
0.0
  0
LINE
  5
5EC
  8
0
  6
CONTINUOUS
 62
     7
 10
-600.94299000000001
 20
343.66665999999992
 30
0.0
 11
-599.19299000000001
 21
343.66665999999992
 31
0.0
  0
LINE
  5
5ED
  8
0
  6
CONTINUOUS
 62
     7
 10
-600.95299999999975
 20
341.56667999999991
 30
0.0
 11
-598.69298999999978
 21
341.56667999999991
 31
0.0
  0
LINE
  5
5EE
  8
0
  6
CONTINUOUS
 62
     7
 10
-601.42296999999985
 20
348.31671
 30
0.0
 11
-602.7029399999999
 21
349.06667999999991
 31
0.0
  0
LINE
  5
5EF
  8
0
  6
CONTINUOUS
 62
     7
 10
-601.40295000000003
 20
341.67660999999993
 30
0.0
 11
-602.64300999999978
 21
342.30660999999992
 31
0.0
  0
LINE
  5
5F0
  8
0
  6
CONTINUOUS
 62
     7
 10
-601.41296
 20
343.78665000000001
 30
0.0
 11
-602.66295999999966
 21
344.44666000000001
 31
0.0
  0
LINE
  5
5F1
  8
0
  6
CONTINUOUS
 62
     7
 10
-601.19299000000001
 20
347.33670000000001
 30
0.0
 11
-601.19299000000001
 21
347.80666999999983
 31
0.0
  0
LINE
  5
5F2
  8
0
  6
CONTINUOUS
 62
     7
 10
-601.19299000000001
 20
342.76662999999979
 30
0.0
 11
-601.19299000000001
 21
343.31667999999991
 31
0.0
  0
LINE
  5
5F3
  8
0
  6
CONTINUOUS
 62
     7
 10
-601.19299000000001
 20
340.66665999999992
 30
0.0
 11
-601.19299000000001
 21
341.19668999999988
 31
0.0
  0
LINE
  5
5F4
  8
0
  6
CONTINUOUS
 62
     7
 10
-598.1929899999999
 20
340.16665999999992
 30
0.0
 11
-597.19299000000001
 21
340.16665999999992
 31
0.0
  0
LINE
  5
5F5
  8
0
  6
CONTINUOUS
 62
     7
 10
-597.19299000000001
 20
337.16665999999992
 30
0.0
 11
-589.19299000000001
 21
337.16665999999992
 31
0.0
  0
LINE
  5
5F6
  8
0
  6
CONTINUOUS
 62
     7
 10
-596.49292000000003
 20
346.97672
 30
0.0
 11
-590.26294000000019
 21
346.97672
 31
0.0
  0
LINE
  5
5F7
  8
0
  6
CONTINUOUS
 62
     7
 10
-481.19296000000003
 20
344.16665999999998
 30
0.0
 11
-473.19295999999991
 21
344.16665999999998
 31
0.0
  0
LINE
  5
5F8
  8
0
  6
CONTINUOUS
 62
     7
 10
-481.19296000000003
 20
334.16665999999992
 30
0.0
 11
-473.19295999999991
 21
334.16665999999992
 31
0.0
  0
LINE
  5
5F9
  8
0
  6
CONTINUOUS
 62
     7
 10
-585.98290999999995
 20
333.88662999999991
 30
0.0
 11
-489.06295999999992
 21
333.88662999999991
 31
0.0
  0
LINE
  5
5FA
  8
0
  6
CONTINUOUS
 62
     7
 10
-589.19292999999982
 20
342.07659999999993
 30
0.0
 11
-587.95294000000001
 21
335.51662999999991
 31
0.0
  0
LINE
  5
5FB
  8
0
  6
CONTINUOUS
 62
     7
 10
-586.28673999999978
 20
331.03665000000001
 30
0.0
 11
-563.79480000000001
 21
331.03665000000001
 31
0.0
  0
LINE
  5
5FC
  8
0
  6
CONTINUOUS
 62
     7
 10
-589.19292999999982
 20
340.72662000000008
 30
0.0
 11
-587.91295999999966
 21
332.72672
 31
0.0
  0
LINE
  5
5FD
  8
0
  6
CONTINUOUS
 62
     7
 10
-589.19292999999982
 20
339.38672000000008
 30
0.0
 11
-588.18364999999994
 21
332.73653999999999
 31
0.0
  0
LINE
  5
5FE
  8
0
  6
CONTINUOUS
 62
     7
 10
-589.19292999999982
 20
339.38668999999987
 30
0.0
 11
-588.26745999999957
 21
332.76006999999998
 31
0.0
  0
LINE
  5
5FF
  8
0
  6
CONTINUOUS
 62
     7
 10
-482.98720999999989
 20
350.84778
 30
0.0
 11
-487.13292999999999
 21
335.36664000000002
 31
0.0
  0
LINE
  5
600
  8
0
  6
CONTINUOUS
 62
     7
 10
-486.65093999999988
 20
337.16665999999992
 30
0.0
 11
-481.19296000000003
 21
337.16665999999992
 31
0.0
  0
LINE
  5
601
  8
0
  6
CONTINUOUS
 62
     7
 10
-481.19296000000003
 20
358.22671999999977
 30
0.0
 11
-473.19295999999991
 21
358.22671999999977
 31
0.0
  0
LINE
  5
602
  8
0
  6
CONTINUOUS
 62
     3
 10
-562.19292999999993
 20
325.66663
 30
0.0
 11
-562.40819999999985
 21
333.88668999999982
 31
0.0
  0
LINE
  5
603
  8
0
  6
CONTINUOUS
 62
     3
 10
-502.19292999999999
 20
325.66663
 30
0.0
 11
-501.97769
 21
333.88672000000008
 31
0.0
  0
LINE
  5
604
  8
0
  6
CONTINUOUS
 62
     3
 10
-482.19292999999988
 20
337.16665999999992
 30
0.0
 11
-487.91869999999989
 21
328.34976
 31
0.0
  0
LINE
  5
605
  8
0
  6
CONTINUOUS
 62
     7
 10
-502.19295999999991
 20
325.66665999999992
 30
0.0
 11
-562.19299000000001
 21
325.66665999999992
 31
0.0
  0
LINE
  5
606
  8
0
  6
CONTINUOUS
 62
     7
 10
-500.67934999999989
 20
327.66665999999992
 30
0.0
 11
-489.17675999999989
 21
327.66665999999992
 31
0.0
  0
LINE
  5
607
  8
0
  6
CONTINUOUS
 62
     7
 10
-503.21294999999992
 20
417.66665999999992
 30
0.0
 11
-503.21294999999992
 21
422.52663999999987
 31
0.0
  0
LINE
  5
608
  8
0
  6
CONTINUOUS
 62
     7
 10
-519.17296999999985
 20
417.66665999999992
 30
0.0
 11
-519.17296999999985
 21
422.52663999999987
 31
0.0
  0
LINE
  5
609
  8
0
  6
CONTINUOUS
 62
     7
 10
-503.69295999999991
 20
417.66665999999992
 30
0.0
 11
-503.69295999999991
 21
422.66665999999992
 31
0.0
  0
LINE
  5
60A
  8
0
  6
CONTINUOUS
 62
     7
 10
-518.6929899999999
 20
417.66665999999992
 30
0.0
 11
-518.6929899999999
 21
422.66665999999992
 31
0.0
  0
LINE
  5
60B
  8
0
  6
CONTINUOUS
 62
     7
 10
-547.19299000000001
 20
403.16665999999992
 30
0.0
 11
-484.19295999999991
 21
403.16665999999992
 31
0.0
  0
LINE
  5
60C
  8
0
  6
CONTINUOUS
 62
     7
 10
-547.19299000000001
 20
369.66665999999992
 30
0.0
 11
-484.19295999999991
 21
369.66665999999992
 31
0.0
  0
LINE
  5
60D
  8
0
  6
CONTINUOUS
 62
     7
 10
-547.19299000000001
 20
410.66665999999992
 30
0.0
 11
-484.19295999999991
 21
410.66665999999992
 31
0.0
  0
LINE
  5
60E
  8
0
  6
CONTINUOUS
 62
     3
 10
-484.19295999999991
 20
410.66665999999992
 30
0.0
 11
-484.19295999999991
 21
369.66665999999992
 31
0.0
  0
LINE
  5
60F
  8
0
  6
CONTINUOUS
 62
     3
 10
-547.19299000000001
 20
410.66665999999992
 30
0.0
 11
-547.19299000000001
 21
369.66665999999992
 31
0.0
  0
LINE
  5
610
  8
0
  6
CONTINUOUS
 62
     7
 10
-502.19295999999991
 20
416.65665000000001
 30
0.0
 11
-484.14724999999999
 21
416.65665000000001
 31
0.0
  0
LINE
  5
611
  8
0
  6
CONTINUOUS
 62
     7
 10
-502.19295999999991
 20
363.68667999999991
 30
0.0
 11
-484.15872000000002
 21
363.68667999999991
 31
0.0
  0
LINE
  5
612
  8
0
  6
CONTINUOUS
 62
     7
 10
-503.21294999999992
 20
362.66665999999998
 30
0.0
 11
-503.21294999999992
 21
357.80666999999983
 31
0.0
  0
LINE
  5
613
  8
0
  6
CONTINUOUS
 62
     7
 10
-519.17296999999985
 20
362.66665999999998
 30
0.0
 11
-519.17296999999985
 21
357.80666999999983
 31
0.0
  0
LINE
  5
614
  8
0
  6
CONTINUOUS
 62
     7
 10
-503.69295999999991
 20
362.66665999999998
 30
0.0
 11
-503.69295999999991
 21
357.66665999999992
 31
0.0
  0
LINE
  5
615
  8
0
  6
CONTINUOUS
 62
     7
 10
-518.6929899999999
 20
362.66665999999998
 30
0.0
 11
-518.6929899999999
 21
357.66665999999992
 31
0.0
  0
LINE
  5
616
  8
0
  6
CONTINUOUS
 62
     7
 10
-487.86014
 20
364.16665999999992
 30
0.0
 11
-502.19295999999991
 21
364.16665999999992
 31
0.0
  0
LINE
  5
617
  8
0
  6
CONTINUOUS
 62
     7
 10
-487.84582999999998
 20
416.16665999999998
 30
0.0
 11
-502.19295999999991
 21
416.16665999999998
 31
0.0
  0
LINE
  5
618
  8
0
  6
CONTINUOUS
 62
     3
 10
-502.21294999999998
 20
423.52663999999987
 30
0.0
 11
-484.37295999999992
 21
423.52663999999987
 31
0.0
  0
LINE
  5
619
  8
0
  6
CONTINUOUS
 62
     7
 10
-404.16939999999988
 20
318.3542799999999
 30
0.0
 11
-440.24532999999991
 21
319.29894999999988
 31
0.0
  0
LINE
  5
61A
  8
0
  6
CONTINUOUS
 62
     7
 10
-404.16937000000001
 20
461.97905999999989
 30
0.0
 11
-440.24529999999999
 21
461.03435999999988
 31
0.0
  0
LINE
  5
61B
  8
0
  6
CONTINUOUS
 62
     7
 10
-442.19295999999991
 20
321.29827999999992
 30
0.0
 11
-442.19295999999991
 21
459.03502999999989
 31
0.0
  0
LINE
  5
61C
  8
0
  6
CONTINUOUS
 62
     7
 10
-473.19295999999991
 20
334.16665999999992
 30
0.0
 11
-473.19295999999991
 21
446.16665999999998
 31
0.0
  0
LINE
  5
61D
  8
0
  6
CONTINUOUS
 62
     7
 10
-447.19299000000001
 20
333.48583999999988
 30
0.0
 11
-473.19292999999999
 21
334.16665999999992
 31
0.0
  0
LINE
  5
61E
  8
0
  6
CONTINUOUS
 62
     7
 10
-473.19295999999991
 20
344.16635000000002
 30
0.0
 11
-442.19295999999991
 21
344.16635000000002
 31
0.0
  0
LINE
  5
61F
  8
0
  6
CONTINUOUS
 62
     7
 10
-445.19299000000001
 20
324.95537999999999
 30
0.0
 11
-444.19295999999991
 21
324.95537999999999
 31
0.0
  0
LINE
  5
620
  8
0
  6
CONTINUOUS
 62
     7
 10
-447.19299000000001
 20
326.95537999999999
 30
0.0
 11
-447.19299000000001
 21
342.16635000000002
 31
0.0
  0
LINE
  5
621
  8
0
  6
CONTINUOUS
 62
     7
 10
-447.19299000000001
 20
453.37795999999992
 30
0.0
 11
-447.19299000000001
 21
438.16695999999962
 31
0.0
  0
LINE
  5
622
  8
0
  6
CONTINUOUS
 62
     7
 10
-447.19296000000003
 20
446.84750000000003
 30
0.0
 11
-473.19292999999999
 21
446.16665999999998
 31
0.0
  0
LINE
  5
623
  8
0
  6
CONTINUOUS
 62
     7
 10
-473.19295999999991
 20
436.16695999999979
 30
0.0
 11
-442.19295999999991
 21
436.16695999999979
 31
0.0
  0
LINE
  5
624
  8
0
  6
CONTINUOUS
 62
     7
 10
-445.19299000000001
 20
455.37795999999992
 30
0.0
 11
-444.19295999999991
 21
455.37795999999992
 31
0.0
  0
LINE
  5
625
  8
0
  6
CONTINUOUS
 62
     7
 10
-473.19295999999991
 20
358.22671999999977
 30
0.0
 11
-442.19295999999991
 21
358.22671999999977
 31
0.0
  0
LINE
  5
626
  8
0
  6
CONTINUOUS
 62
     7
 10
-473.19295999999991
 20
422.10660000000001
 30
0.0
 11
-442.19295999999991
 21
422.10660000000001
 31
0.0
  0
LINE
  5
627
  8
0
  6
CONTINUOUS
 62
     7
 10
-360.19299000000001
 20
162.34795
 30
0.0
 11
-360.19299000000001
 21
159.34794999999991
 31
0.0
  0
LINE
  5
628
  8
0
  6
CENTER
 62
     1
 10
-324.48052999999987
 20
147.34795
 30
0.0
 11
-457.51522999999997
 21
147.34795
 31
0.0
  0
LINE
  5
629
  8
0
  6
CONTINUOUS
 62
     7
 10
-368.19301999999999
 20
135.34794999999991
 30
0.0
 11
-328.19299000000001
 21
135.34794999999991
 31
0.0
  0
LINE
  5
62A
  8
0
  6
CONTINUOUS
 62
     7
 10
-368.19301999999999
 20
159.34794999999991
 30
0.0
 11
-328.19299000000001
 21
159.34794999999991
 31
0.0
  0
LINE
  5
62B
  8
0
  6
CONTINUOUS
 62
     7
 10
-368.19301999999999
 20
159.84792999999991
 30
0.0
 11
-368.19301999999999
 21
134.84796
 31
0.0
  0
LINE
  5
62C
  8
0
  6
CONTINUOUS
 62
     7
 10
-328.19299000000001
 20
162.34795
 30
0.0
 11
-328.19299000000001
 21
135.34794999999991
 31
0.0
  0
LINE
  5
62D
  8
0
  6
CONTINUOUS
 62
     7
 10
-370.19299000000001
 20
159.84792999999991
 30
0.0
 11
-368.19301999999999
 21
159.84792999999991
 31
0.0
  0
LINE
  5
62E
  8
0
  6
CONTINUOUS
 62
     7
 10
-370.19299000000001
 20
134.84796
 30
0.0
 11
-368.19301999999999
 21
134.84796
 31
0.0
  0
LINE
  5
62F
  8
0
  6
CENTER
 62
     1
 10
-232.85645999999991
 20
147.34795
 30
0.0
 11
-57.410708999999997
 21
147.34795
 31
0.0
  0
LINE
  5
630
  8
0
  6
CONTINUOUS
 62
     7
 10
-360.19299000000001
 20
162.34795
 30
0.0
 11
-328.19299000000001
 21
162.34795
 31
0.0
  0
LINE
  5
631
  8
0
  6
CONTINUOUS
 62
     7
 10
-149.28093999999979
 20
162.34795
 30
0.0
 11
-141.28095999999991
 21
162.34795
 31
0.0
  0
LINE
  5
632
  8
0
  6
CONTINUOUS
 62
     7
 10
-149.28093999999979
 20
155.34792999999999
 30
0.0
 11
-141.28095999999991
 21
155.34792999999999
 31
0.0
  0
LINE
  5
633
  8
0
  6
CONTINUOUS
 62
     1
 10
-149.28093999999979
 20
162.34795
 30
0.0
 11
-149.28093999999979
 21
155.34792999999999
 31
0.0
  0
LINE
  5
634
  8
0
  6
CONTINUOUS
 62
     1
 10
-141.28095999999991
 20
162.34795
 30
0.0
 11
-141.28095999999991
 21
155.34792999999999
 31
0.0
  0
LINE
  5
635
  8
0
  6
CONTINUOUS
 62
     7
 10
-440.1929599999998
 20
56.347954000000001
 30
0.0
 11
-435.19299000000001
 21
56.347954000000001
 31
0.0
  0
LINE
  5
636
  8
0
  6
CONTINUOUS
 62
     7
 10
-445.1929599999998
 20
170.84229999999991
 30
0.0
 11
-444.19298999999978
 21
170.84229999999991
 31
0.0
  0
LINE
  5
637
  8
0
  6
CONTINUOUS
 62
     7
 10
-447.19299000000001
 20
155.37599
 30
0.0
 11
-442.19295999999991
 21
155.37599
 31
0.0
  0
LINE
  5
638
  8
0
  6
CONTINUOUS
 62
     7
 10
-447.19299000000001
 20
78.132202000000007
 30
0.0
 11
-442.19295999999991
 21
78.132202000000007
 31
0.0
  0
LINE
  5
639
  8
0
  6
CONTINUOUS
 62
     7
 10
-442.19295999999991
 20
196.34795
 30
0.0
 11
-442.19295999999991
 21
181.01510999999991
 31
0.0
  0
LINE
  5
63A
  8
0
  6
CONTINUOUS
 62
     7
 10
-445.1929599999998
 20
179.0150899999999
 30
0.0
 11
-444.19298999999978
 21
179.0150899999999
 31
0.0
  0
LINE
  5
63B
  8
0
  6
CONTINUOUS
 62
     7
 10
-440.1929599999998
 20
198.34794999999991
 30
0.0
 11
-435.19299000000001
 21
198.34794999999991
 31
0.0
  0
LINE
  5
63C
  8
0
  6
CONTINUOUS
 62
     7
 10
-447.19299000000001
 20
64.477881999999994
 30
0.0
 11
-442.19295999999991
 21
64.477881999999994
 31
0.0
  0
LINE
  5
63D
  8
0
  6
CONTINUOUS
 62
     7
 10
-473.19295999999991
 20
81.347945999999965
 30
0.0
 11
-442.19295999999991
 21
81.347945999999965
 31
0.0
  0
LINE
  5
63E
  8
0
  6
CONTINUOUS
 62
     7
 10
-473.19295999999991
 20
71.347960999999984
 30
0.0
 11
-473.19295999999991
 21
183.34794999999991
 31
0.0
  0
LINE
  5
63F
  8
0
  6
CONTINUOUS
 62
     7
 10
-473.19298999999978
 20
71.347945999999979
 30
0.0
 11
-450.11444
 21
70.743613999999994
 31
0.0
  0
LINE
  5
640
  8
0
  6
CENTER
 62
     7
 10
-607.81757000000005
 20
127.34795
 30
0.0
 11
-428.2191199999998
 21
127.34795
 31
0.0
  0
LINE
  5
641
  8
0
  6
CONTINUOUS
 62
     7
 10
-473.19295999999991
 20
183.34796
 30
0.0
 11
-447.06207000000001
 21
184.03220999999991
 31
0.0
  0
LINE
  5
642
  8
0
  6
CONTINUOUS
 62
     7
 10
-473.19295999999991
 20
95.41095
 30
0.0
 11
-442.19295999999991
 21
95.41095
 31
0.0
  0
LINE
  5
643
  8
0
  6
CONTINUOUS
 62
     7
 10
-473.19295999999991
 20
173.34796
 30
0.0
 11
-447.19299000000001
 21
173.34796
 31
0.0
  0
LINE
  5
644
  8
0
  6
CONTINUOUS
 62
     7
 10
-447.19299000000001
 20
76.132210000000001
 30
0.0
 11
-447.19299000000001
 21
64.347954000000001
 31
0.0
  0
LINE
  5
645
  8
0
  6
CONTINUOUS
 62
     7
 10
-473.19295999999991
 20
159.28496000000001
 30
0.0
 11
-447.19299000000001
 21
159.28496000000001
 31
0.0
  0
LINE
  5
646
  8
0
  6
CONTINUOUS
 62
     7
 10
-442.19295999999991
 20
168.84228999999991
 30
0.0
 11
-442.19295999999991
 21
58.347957999999998
 31
0.0
  0
LINE
  5
647
  8
0
  6
CONTINUOUS
 62
     7
 10
-447.19299000000001
 20
177.01510999999991
 30
0.0
 11
-447.19299000000001
 21
157.3759899999998
 31
0.0
  0
LINE
  5
648
  8
0
  6
CENTER
 62
     7
 10
-532.19298999999967
 20
165.94182000000001
 30
0.0
 11
-532.19298999999967
 21
84.695250999999999
 31
0.0
  0
LINE
  5
649
  8
0
  6
CONTINUOUS
 62
     3
 10
-575.19347999999979
 20
93.848190000000002
 30
0.0
 11
-575.19347999999979
 21
97.348206000000005
 31
0.0
  0
LINE
  5
64A
  8
0
  6
CONTINUOUS
 62
     3
 10
-560.19292999999993
 20
93.848190000000002
 30
0.0
 11
-560.19292999999993
 21
97.348206000000005
 31
0.0
  0
LINE
  5
64B
  8
0
  6
CONTINUOUS
 62
     3
 10
-560.19292999999993
 20
95.848206000000005
 30
0.0
 11
-500.69295999999991
 21
95.848206000000005
 31
0.0
  0
LINE
  5
64C
  8
0
  6
CONTINUOUS
 62
     3
 10
-560.19292999999993
 20
158.8477
 30
0.0
 11
-500.69295999999991
 21
158.8477
 31
0.0
  0
LINE
  5
64D
  8
0
  6
CONTINUOUS
 62
     3
 10
-582.69348000000002
 20
119.8477
 30
0.0
 11
-579.19341999999995
 21
119.8477
 31
0.0
  0
LINE
  5
64E
  8
0
  6
CONTINUOUS
 62
     3
 10
-560.19292999999993
 20
93.848190000000002
 30
0.0
 11
-575.19347999999979
 21
93.848190000000002
 31
0.0
  0
LINE
  5
64F
  8
0
  6
CONTINUOUS
 62
     7
 10
-502.19295999999991
 20
155.84794999999991
 30
0.0
 11
-502.19295999999991
 21
98.847954000000016
 31
0.0
  0
LINE
  5
650
  8
0
  6
CONTINUOUS
 62
     7
 10
-481.19296000000003
 20
183.34794999999991
 30
0.0
 11
-481.19296000000003
 21
71.347960999999984
 31
0.0
  0
LINE
  5
651
  8
0
  6
CONTINUOUS
 62
     7
 10
-491.42293999999993
 20
157.34794999999991
 30
0.0
 11
-491.42293999999993
 21
97.347954000000016
 31
0.0
  0
LINE
  5
652
  8
0
  6
CONTINUOUS
 62
     7
 10
-603.19299000000001
 20
175.36431999999991
 30
0.0
 11
-603.19299000000001
 21
132.34794999999991
 31
0.0
  0
LINE
  5
653
  8
0
  6
CONTINUOUS
 62
     7
 10
-600.92474000000004
 20
177.09734
 30
0.0
 11
-598.69298999999978
 21
177.09734
 31
0.0
  0
LINE
  5
654
  8
0
  6
CONTINUOUS
 62
     7
 10
-600.98828000000003
 20
163.03716
 30
0.0
 11
-598.89301
 21
163.03716
 31
0.0
  0
LINE
  5
655
  8
0
  6
CONTINUOUS
 62
     7
 10
-601.42516999999987
 20
176.96309999999991
 30
0.0
 11
-602.69335999999976
 21
176.23013
 31
0.0
  0
LINE
  5
656
  8
0
  6
CONTINUOUS
 62
     7
 10
-601.43053999999995
 20
174.8470299999999
 30
0.0
 11
-602.70758000000001
 21
174.0807299999999
 31
0.0
  0
LINE
  5
657
  8
0
  6
CONTINUOUS
 62
     7
 10
-601.44269000000008
 20
170.30913000000001
 30
0.0
 11
-602.74132999999995
 21
169.45752999999991
 31
0.0
  0
LINE
  5
658
  8
0
  6
CONTINUOUS
 62
     7
 10
-601.38109999999995
 20
162.95683
 30
0.0
 11
-602.58568999999989
 21
162.44234999999981
 31
0.0
  0
LINE
  5
659
  8
0
  6
CONTINUOUS
 62
     7
 10
-600.91594999999995
 20
174.98955000000001
 30
0.0
 11
-598.1929899999999
 21
174.98955000000001
 31
0.0
  0
LINE
  5
65A
  8
0
  6
CONTINUOUS
 62
     7
 10
-600.89435000000003
 20
170.47283999999999
 30
0.0
 11
-598.1929899999999
 21
170.47283999999999
 31
0.0
  0
LINE
  5
65B
  8
0
  6
CONTINUOUS
 62
     7
 10
-601.04265999999996
 20
161.09105999999991
 30
0.0
 11
-599.19292999999982
 21
161.09105999999991
 31
0.0
  0
LINE
  5
65C
  8
0
  6
CONTINUOUS
 62
     7
 10
-600.92163000000016
 20
169.3328699999999
 30
0.0
 11
-599.19292999999982
 21
169.3328699999999
 31
0.0
  0
LINE
  5
65D
  8
0
  6
CONTINUOUS
 62
     7
 10
-600.94434000000001
 20
173.84958999999981
 30
0.0
 11
-599.19292999999982
 21
173.84958999999981
 31
0.0
  0
LINE
  5
65E
  8
0
  6
CONTINUOUS
 62
     7
 10
-600.95366999999987
 20
175.95103
 30
0.0
 11
-598.69298999999978
 21
175.95103
 31
0.0
  0
LINE
  5
65F
  8
0
  6
CONTINUOUS
 62
     7
 10
-601.42711999999995
 20
169.1957399999998
 30
0.0
 11
-602.69843000000003
 21
168.45107999999991
 31
0.0
  0
LINE
  5
660
  8
0
  6
CONTINUOUS
 62
     7
 10
-601.33660999999995
 20
161.04692
 30
0.0
 11
-602.48699999999985
 21
160.69307000000001
 31
0.0
  0
LINE
  5
661
  8
0
  6
CONTINUOUS
 62
     7
 10
-601.40630999999985
 20
175.84276
 30
0.0
 11
-602.64557000000002
 21
175.21373
 31
0.0
  0
LINE
  5
662
  8
0
  6
CONTINUOUS
 62
     7
 10
-601.4126
 20
173.73313999999991
 30
0.0
 11
-602.66124999999965
 21
173.07129
 31
0.0
  0
LINE
  5
663
  8
0
  6
CONTINUOUS
 62
     7
 10
-599.19292999999982
 20
153.34795
 30
0.0
 11
-602.19292999999982
 21
153.34795
 31
0.0
  0
LINE
  5
664
  8
0
  6
CONTINUOUS
 62
     7
 10
-599.19292999999982
 20
151.34795
 30
0.0
 11
-602.19292999999982
 21
151.34795
 31
0.0
  0
LINE
  5
665
  8
0
  6
CONTINUOUS
 62
     7
 10
-599.19292999999982
 20
143.34796
 30
0.0
 11
-602.19292999999982
 21
143.34796
 31
0.0
  0
LINE
  5
666
  8
0
  6
CONTINUOUS
 62
     7
 10
-599.19292999999982
 20
141.34795
 30
0.0
 11
-602.19292999999982
 21
141.34795
 31
0.0
  0
LINE
  5
667
  8
0
  6
CONTINUOUS
 62
     7
 10
-599.19292999999982
 20
133.3479599999998
 30
0.0
 11
-602.19292999999982
 21
133.3479599999998
 31
0.0
  0
LINE
  5
668
  8
0
  6
CONTINUOUS
 62
     7
 10
-599.19292999999982
 20
131.3479599999998
 30
0.0
 11
-602.19292999999982
 21
131.3479599999998
 31
0.0
  0
LINE
  5
669
  8
0
  6
CONTINUOUS
 62
     7
 10
-601.19299000000001
 20
142.9550599999998
 30
0.0
 11
-601.19299000000001
 21
141.74363999999991
 31
0.0
  0
LINE
  5
66A
  8
0
  6
CONTINUOUS
 62
     7
 10
-601.19299000000001
 20
132.96116999999981
 30
0.0
 11
-601.19299000000001
 21
131.8002799999999
 31
0.0
  0
LINE
  5
66B
  8
0
  6
CONTINUOUS
 62
     7
 10
-601.19299000000001
 20
152.97411
 30
0.0
 11
-601.19299000000001
 21
151.61133000000001
 31
0.0
  0
LINE
  5
66C
  8
0
  6
CONTINUOUS
 62
     7
 10
-601.19299000000001
 20
162.74083999999999
 30
0.0
 11
-601.19299000000001
 21
161.68088999999981
 31
0.0
  0
LINE
  5
66D
  8
0
  6
CONTINUOUS
 62
     7
 10
-601.19299000000001
 20
170.17841000000001
 30
0.0
 11
-601.19299000000001
 21
169.7062199999998
 31
0.0
  0
LINE
  5
66E
  8
0
  6
CONTINUOUS
 62
     7
 10
-601.19299000000001
 20
174.74450999999999
 30
0.0
 11
-601.19299000000001
 21
174.19840999999991
 31
0.0
  0
LINE
  5
66F
  8
0
  6
CONTINUOUS
 62
     7
 10
-601.19299000000001
 20
176.84409999999991
 30
0.0
 11
-601.19299000000001
 21
176.31833999999989
 31
0.0
  0
LINE
  5
670
  8
0
  6
CONTINUOUS
 62
     7
 10
-604.69299000000001
 20
147.34795
 30
0.0
 11
-604.69299000000001
 21
127.34795
 31
0.0
  0
LINE
  5
671
  8
0
  6
CONTINUOUS
 62
     7
 10
-604.69299000000001
 20
147.34795
 30
0.0
 11
-603.19292999999982
 21
147.4791899999999
 31
0.0
  0
LINE
  5
672
  8
0
  6
CONTINUOUS
 62
     7
 10
-604.69299000000001
 20
142.49798999999979
 30
0.0
 11
-600.01544000000001
 21
142.49798999999979
 31
0.0
  0
LINE
  5
673
  8
0
  6
CONTINUOUS
 62
     7
 10
-604.69299000000001
 20
144.6299299999998
 30
0.0
 11
-603.19299000000001
 21
144.6299299999998
 31
0.0
  0
LINE
  5
674
  8
0
  6
CONTINUOUS
 62
     7
 10
-487.84862999999962
 20
163.34794999999991
 30
0.0
 11
-586.82758000000001
 21
163.34794999999991
 31
0.0
  0
LINE
  5
675
  8
0
  6
CONTINUOUS
 62
     7
 10
-487.84862999999962
 20
161.3479599999998
 30
0.0
 11
-586.82758000000001
 21
161.3479599999998
 31
0.0
  0
LINE
  5
676
  8
0
  6
CONTINUOUS
 62
     7
 10
-580.69341999999995
 20
153.34795
 30
0.0
 11
-586.82758000000001
 21
153.34795
 31
0.0
  0
LINE
  5
677
  8
0
  6
CONTINUOUS
 62
     7
 10
-580.69341999999995
 20
151.34795
 30
0.0
 11
-586.82758000000001
 21
151.34795
 31
0.0
  0
LINE
  5
678
  8
0
  6
CONTINUOUS
 62
     7
 10
-580.69341999999995
 20
143.34796
 30
0.0
 11
-586.82758000000001
 21
143.34796
 31
0.0
  0
LINE
  5
679
  8
0
  6
CONTINUOUS
 62
     7
 10
-580.69341999999995
 20
141.34795
 30
0.0
 11
-586.82758000000001
 21
141.34795
 31
0.0
  0
LINE
  5
67A
  8
0
  6
CONTINUOUS
 62
     7
 10
-582.69348000000002
 20
133.3479599999998
 30
0.0
 11
-586.82758000000001
 21
133.3479599999998
 31
0.0
  0
LINE
  5
67B
  8
0
  6
CONTINUOUS
 62
     7
 10
-582.69348000000002
 20
131.3479599999998
 30
0.0
 11
-586.82758000000001
 21
131.3479599999998
 31
0.0
  0
LINE
  5
67C
  8
0
  6
CONTINUOUS
 62
     7
 10
-587.51568999999995
 20
164.0709699999999
 30
0.0
 11
-484.37090999999981
 21
164.0709699999999
 31
0.0
  0
LINE
  5
67D
  8
0
  6
CONTINUOUS
 62
     7
 10
-587.51568999999995
 20
160.71514999999999
 30
0.0
 11
-575.19347999999979
 21
160.71514999999999
 31
0.0
  0
LINE
  5
67E
  8
0
  6
CONTINUOUS
 62
     7
 10
-587.73144999999965
 20
153.83409
 30
0.0
 11
-580.69341999999995
 21
153.83409
 31
0.0
  0
LINE
  5
67F
  8
0
  6
CONTINUOUS
 62
     7
 10
-587.73144999999965
 20
150.91113000000001
 30
0.0
 11
-580.69341999999995
 21
150.91113000000001
 31
0.0
  0
LINE
  5
680
  8
0
  6
CONTINUOUS
 62
     7
 10
-587.86199999999985
 20
143.69146999999981
 30
0.0
 11
-580.69341999999995
 21
143.69146999999981
 31
0.0
  0
LINE
  5
681
  8
0
  6
CONTINUOUS
 62
     7
 10
-587.86199999999985
 20
141.0295999999999
 30
0.0
 11
-580.69341999999995
 21
141.0295999999999
 31
0.0
  0
LINE
  5
682
  8
0
  6
CONTINUOUS
 62
     7
 10
-587.92407000000003
 20
133.6207099999998
 30
0.0
 11
-582.69348000000002
 21
133.6207099999998
 31
0.0
  0
LINE
  5
683
  8
0
  6
CONTINUOUS
 62
     7
 10
-587.92407000000003
 20
131.08286999999979
 30
0.0
 11
-582.69348000000002
 21
131.08286999999979
 31
0.0
  0
LINE
  5
684
  8
0
  6
CONTINUOUS
 62
     7
 10
-484.37090999999981
 20
160.71514999999999
 30
0.0
 11
-500.89296999999999
 21
160.71514999999999
 31
0.0
  0
LINE
  5
685
  8
0
  6
CONTINUOUS
 62
     7
 10
-501.89300999999989
 20
159.7151299999999
 30
0.0
 11
-501.89300999999989
 21
158.8477
 31
0.0
  0
LINE
  5
686
  8
0
  6
CONTINUOUS
 62
     7
 10
-587.92407000000003
 20
123.6129699999999
 30
0.0
 11
-582.69348000000002
 21
123.6129699999999
 31
0.0
  0
LINE
  5
687
  8
0
  6
CONTINUOUS
 62
     7
 10
-582.69348000000002
 20
123.34795
 30
0.0
 11
-586.82758000000001
 21
123.34795
 31
0.0
  0
LINE
  5
688
  8
0
  6
CONTINUOUS
 62
     7
 10
-582.69348000000002
 20
121.34795
 30
0.0
 11
-586.82758000000001
 21
121.34795
 31
0.0
  0
LINE
  5
689
  8
0
  6
CONTINUOUS
 62
     7
 10
-587.92407000000003
 20
121.07513
 30
0.0
 11
-582.69348000000002
 21
121.07513
 31
0.0
  0
LINE
  5
68A
  8
0
  6
CONTINUOUS
 62
     7
 10
-587.86199999999985
 20
113.66631
 30
0.0
 11
-580.69341999999995
 21
113.66631
 31
0.0
  0
LINE
  5
68B
  8
0
  6
CONTINUOUS
 62
     7
 10
-580.69341999999995
 20
113.34796
 30
0.0
 11
-586.82758000000001
 21
113.34796
 31
0.0
  0
LINE
  5
68C
  8
0
  6
CONTINUOUS
 62
     7
 10
-580.69341999999995
 20
111.3479499999999
 30
0.0
 11
-586.82758000000001
 21
111.3479499999999
 31
0.0
  0
LINE
  5
68D
  8
0
  6
CONTINUOUS
 62
     7
 10
-587.86199999999985
 20
111.0044399999999
 30
0.0
 11
-580.69341999999995
 21
111.0044399999999
 31
0.0
  0
LINE
  5
68E
  8
0
  6
CONTINUOUS
 62
     7
 10
-580.69341999999995
 20
103.3479499999998
 30
0.0
 11
-586.82758000000001
 21
103.3479499999998
 31
0.0
  0
LINE
  5
68F
  8
0
  6
CONTINUOUS
 62
     7
 10
-587.73144999999965
 20
103.78473
 30
0.0
 11
-580.69341999999995
 21
103.78473
 31
0.0
  0
LINE
  5
690
  8
0
  6
CONTINUOUS
 62
     7
 10
-580.69341999999995
 20
101.3479599999999
 30
0.0
 11
-586.82758000000001
 21
101.3479599999999
 31
0.0
  0
LINE
  5
691
  8
0
  6
CONTINUOUS
 62
     7
 10
-587.73144999999965
 20
100.8617499999999
 30
0.0
 11
-580.69341999999995
 21
100.8617499999999
 31
0.0
  0
LINE
  5
692
  8
0
  6
CONTINUOUS
 62
     7
 10
-487.84862999999962
 20
93.347945999999993
 30
0.0
 11
-532.19298999999967
 21
93.347945999999993
 31
0.0
  0
LINE
  5
693
  8
0
  6
CONTINUOUS
 62
     7
 10
-487.84862999999962
 20
91.347953999999987
 30
0.0
 11
-532.19298999999967
 21
91.347953999999987
 31
0.0
  0
LINE
  5
694
  8
0
  6
CONTINUOUS
 62
     7
 10
-587.51500999999985
 20
90.624870000000001
 30
0.0
 11
-532.19298999999967
 21
90.624870000000001
 31
0.0
  0
LINE
  5
695
  8
0
  6
CONTINUOUS
 62
     7
 10
-500.69301999999999
 20
97.082335999999984
 30
0.0
 11
-491.42299999999989
 21
97.347945999999993
 31
0.0
  0
LINE
  5
696
  8
0
  6
CONTINUOUS
 62
     7
 10
-501.89300999999989
 20
94.980698000000004
 30
0.0
 11
-501.89300999999989
 21
95.848206000000005
 31
0.0
  0
LINE
  5
697
  8
0
  6
CONTINUOUS
 62
     7
 10
-484.37090999999981
 20
93.980712999999994
 30
0.0
 11
-500.89296999999999
 21
93.980712999999994
 31
0.0
  0
LINE
  5
698
  8
0
  6
CONTINUOUS
 62
     7
 10
-600.98828000000003
 20
91.658683999999994
 30
0.0
 11
-598.89301
 21
91.658683999999994
 31
0.0
  0
LINE
  5
699
  8
0
  6
CONTINUOUS
 62
     7
 10
-601.38115999999945
 20
91.739058999999983
 30
0.0
 11
-602.58582000000001
 21
92.253540000000015
 31
0.0
  0
LINE
  5
69A
  8
0
  6
CONTINUOUS
 62
     7
 10
-601.04265999999996
 20
93.604797000000005
 30
0.0
 11
-599.19292999999982
 21
93.604797000000005
 31
0.0
  0
LINE
  5
69B
  8
0
  6
CONTINUOUS
 62
     7
 10
-601.33667000000003
 20
93.649024999999995
 30
0.0
 11
-602.48699999999985
 21
94.002869000000004
 31
0.0
  0
LINE
  5
69C
  8
0
  6
CONTINUOUS
 62
     7
 10
-599.19292999999982
 20
101.3479599999999
 30
0.0
 11
-602.19292999999982
 21
101.3479599999999
 31
0.0
  0
LINE
  5
69D
  8
0
  6
CONTINUOUS
 62
     7
 10
-599.19292999999982
 20
103.3479499999998
 30
0.0
 11
-602.19292999999982
 21
103.3479499999998
 31
0.0
  0
LINE
  5
69E
  8
0
  6
CONTINUOUS
 62
     7
 10
-599.19292999999982
 20
111.3479499999999
 30
0.0
 11
-602.19292999999982
 21
111.3479499999999
 31
0.0
  0
LINE
  5
69F
  8
0
  6
CONTINUOUS
 62
     7
 10
-601.19299000000001
 20
121.73466999999999
 30
0.0
 11
-601.19299000000001
 21
122.89556
 31
0.0
  0
LINE
  5
6A0
  8
0
  6
CONTINUOUS
 62
     7
 10
-599.19292999999982
 20
113.34796
 30
0.0
 11
-602.19292999999982
 21
113.34796
 31
0.0
  0
LINE
  5
6A1
  8
0
  6
CONTINUOUS
 62
     7
 10
-599.19292999999982
 20
121.34795
 30
0.0
 11
-602.19292999999982
 21
121.34795
 31
0.0
  0
LINE
  5
6A2
  8
0
  6
CONTINUOUS
 62
     7
 10
-599.19292999999982
 20
123.34795
 30
0.0
 11
-602.19292999999982
 21
123.34795
 31
0.0
  0
LINE
  5
6A3
  8
0
  6
CONTINUOUS
 62
     7
 10
-601.19299000000001
 20
111.74083999999991
 30
0.0
 11
-601.19299000000001
 21
112.9522
 31
0.0
  0
LINE
  5
6A4
  8
0
  6
CONTINUOUS
 62
     7
 10
-601.19299000000001
 20
101.72172999999979
 30
0.0
 11
-601.19299000000001
 21
103.08458
 31
0.0
  0
LINE
  5
6A5
  8
0
  6
CONTINUOUS
 62
     7
 10
-601.19299000000001
 20
91.955062999999996
 30
0.0
 11
-601.19299000000001
 21
93.015015000000005
 31
0.0
  0
LINE
  5
6A6
  8
0
  6
CONTINUOUS
 62
     7
 10
-587.51500999999985
 20
93.980712999999994
 30
0.0
 11
-575.19347999999979
 21
93.980712999999994
 31
0.0
  0
LINE
  5
6A7
  8
0
  6
CONTINUOUS
 62
     7
 10
-604.69299000000001
 20
107.34796
 30
0.0
 11
-604.69299000000001
 21
127.34795
 31
0.0
  0
LINE
  5
6A8
  8
0
  6
CONTINUOUS
 62
     7
 10
-604.69299000000001
 20
107.3479699999999
 30
0.0
 11
-603.19299000000001
 21
107.2167399999998
 31
0.0
  0
LINE
  5
6A9
  8
0
  6
CONTINUOUS
 62
     7
 10
-604.69299000000001
 20
112.1979199999999
 30
0.0
 11
-601.39928999999995
 21
112.1979199999999
 31
0.0
  0
LINE
  5
6AA
  8
0
  6
CONTINUOUS
 62
     7
 10
-604.69299000000001
 20
110.06591
 30
0.0
 11
-603.19299000000001
 21
110.06591
 31
0.0
  0
LINE
  5
6AB
  8
0
  6
CONTINUOUS
 62
     7
 10
-532.19298999999967
 20
93.347945999999993
 30
0.0
 11
-586.82758000000001
 21
93.347945999999993
 31
0.0
  0
LINE
  5
6AC
  8
0
  6
CONTINUOUS
 62
     7
 10
-579.19341999999995
 20
97.347954000000016
 30
0.0
 11
-503.69295999999991
 21
97.347954000000016
 31
0.0
  0
LINE
  5
6AD
  8
0
  6
CONTINUOUS
 62
     7
 10
-532.19298999999967
 20
91.347953999999987
 30
0.0
 11
-586.82758000000001
 21
91.347953999999987
 31
0.0
  0
LINE
  5
6AE
  8
0
  6
CONTINUOUS
 62
     7
 10
-532.19298999999967
 20
90.624870000000001
 30
0.0
 11
-484.37090999999981
 21
90.624870000000001
 31
0.0
  0
LINE
  5
6AF
  8
0
  6
CONTINUOUS
 62
     7
 10
-597.19299000000001
 20
180.34794999999991
 30
0.0
 11
-597.19299000000001
 21
74.347960999999984
 31
0.0
  0
LINE
  5
6B0
  8
0
  6
CONTINUOUS
 62
     7
 10
-589.19299000000001
 20
180.34794999999991
 30
0.0
 11
-589.19299000000001
 21
77.907714999999982
 31
0.0
  0
LINE
  5
6B1
  8
0
  6
CONTINUOUS
 62
     7
 10
-602.69835999999998
 20
86.244811999999982
 30
0.0
 11
-602.72204999999985
 21
86.258658999999994
 31
0.0
  0
LINE
  5
6B2
  8
0
  6
CONTINUOUS
 62
     7
 10
-598.1929899999999
 20
177.34795
 30
0.0
 11
-598.1929899999999
 21
76.224723999999981
 31
0.0
  0
LINE
  5
6B3
  8
0
  6
CONTINUOUS
 62
     7
 10
-598.1929899999999
 20
177.34795
 30
0.0
 11
-597.19299000000001
 21
177.34795
 31
0.0
  0
LINE
  5
6B4
  8
0
  6
CONTINUOUS
 62
     7
 10
-597.19299000000001
 20
180.34794999999991
 30
0.0
 11
-589.19299000000001
 21
180.34794999999991
 31
0.0
  0
LINE
  5
6B5
  8
0
  6
CONTINUOUS
 62
     7
 10
-596.49486999999976
 20
170.53935000000001
 30
0.0
 11
-590.2650799999999
 21
170.53935000000001
 31
0.0
  0
LINE
  5
6B6
  8
0
  6
CONTINUOUS
 62
     7
 10
-481.19296000000003
 20
173.34796
 30
0.0
 11
-473.19295999999991
 21
173.34796
 31
0.0
  0
LINE
  5
6B7
  8
0
  6
CONTINUOUS
 62
     7
 10
-481.19296000000003
 20
159.28538999999981
 30
0.0
 11
-473.19295999999991
 21
159.28538999999981
 31
0.0
  0
LINE
  5
6B8
  8
0
  6
CONTINUOUS
 62
     7
 10
-481.19296000000003
 20
183.34794999999991
 30
0.0
 11
-473.19295999999991
 21
183.34794999999991
 31
0.0
  0
LINE
  5
6B9
  8
0
  6
CONTINUOUS
 62
     7
 10
-565.19298999999978
 20
164.0709699999999
 30
0.0
 11
-565.19298999999978
 21
164.0709699999999
 31
0.0
  0
LINE
  5
6BA
  8
0
  6
CONTINUOUS
 62
     7
 10
-565.19298999999978
 20
90.624870000000001
 30
0.0
 11
-565.19298999999978
 21
89.124870000000001
 31
0.0
  0
LINE
  5
6BB
  8
0
  6
CONTINUOUS
 62
     7
 10
-585.98657000000003
 20
183.63121000000001
 30
0.0
 11
-489.06682999999992
 21
183.63121000000001
 31
0.0
  0
LINE
  5
6BC
  8
0
  6
CONTINUOUS
 62
     7
 10
-589.19299000000001
 20
175.44365999999999
 30
0.0
 11
-587.95172000000002
 21
182.0030799999999
 31
0.0
  0
LINE
  5
6BD
  8
0
  6
CONTINUOUS
 62
     7
 10
-583.82750999999985
 20
163.99914999999979
 30
0.0
 11
-589.19292999999982
 21
175.4436199999999
 31
0.0
  0
LINE
  5
6BE
  8
0
  6
CONTINUOUS
 62
     7
 10
-583.8275799999999
 20
90.696738999999994
 30
0.0
 11
-589.19299000000001
 21
79.252266000000006
 31
0.0
  0
LINE
  5
6BF
  8
0
  6
CONTINUOUS
 62
     7
 10
-563.69299000000001
 20
165.5709699999999
 30
0.0
 11
-481.19296000000003
 21
165.5709699999999
 31
0.0
  0
LINE
  5
6C0
  8
0
  6
CONTINUOUS
 62
     7
 10
-585.93793000000005
 20
186.4775799999999
 30
0.0
 11
-552.1929899999999
 21
186.4775799999999
 31
0.0
  0
LINE
  5
6C1
  8
0
  6
CONTINUOUS
 62
     7
 10
-585.92455999999981
 20
188.3253
 30
0.0
 11
-552.1929899999999
 21
188.3253
 31
0.0
  0
LINE
  5
6C2
  8
0
  6
CONTINUOUS
 62
     7
 10
-585.90331999999978
 20
189.23583999999991
 30
0.0
 11
-552.1929899999999
 21
189.23583999999991
 31
0.0
  0
LINE
  5
6C3
  8
0
  6
CONTINUOUS
 62
     7
 10
-589.19292999999982
 20
176.78820999999999
 30
0.0
 11
-587.91290000000004
 21
184.79338000000001
 31
0.0
  0
LINE
  5
6C4
  8
0
  6
CONTINUOUS
 62
     7
 10
-589.19299000000001
 20
178.1328
 30
0.0
 11
-587.90192000000002
 21
186.62586999999991
 31
0.0
  0
LINE
  5
6C5
  8
0
  6
CONTINUOUS
 62
     7
 10
-589.19299000000001
 20
178.1328
 30
0.0
 11
-587.88409000000001
 21
187.51227
 31
0.0
  0
LINE
  5
6C6
  8
0
  6
CONTINUOUS
 62
     7
 10
-550.19299000000001
 20
187.2358199999999
 30
0.0
 11
-550.19299000000001
 21
183.63121000000001
 31
0.0
  0
LINE
  5
6C7
  8
0
  6
CONTINUOUS
 62
     7
 10
-482.99090999999999
 20
166.68276999999981
 30
0.0
 11
-487.13500999999991
 21
182.14885000000001
 31
0.0
  0
LINE
  5
6C8
  8
0
  6
CONTINUOUS
 62
     7
 10
-486.65244000000001
 20
180.34794999999991
 30
0.0
 11
-481.19296000000003
 21
180.34794999999991
 31
0.0
  0
LINE
  5
6C9
  8
0
  6
CONTINUOUS
 62
     7
 10
-603.19299000000001
 20
79.331543000000025
 30
0.0
 11
-603.19299000000001
 21
122.34796
 31
0.0
  0
LINE
  5
6CA
  8
0
  6
CONTINUOUS
 62
     7
 10
-600.92474000000004
 20
77.598563999999982
 30
0.0
 11
-598.69298999999978
 21
77.598563999999982
 31
0.0
  0
LINE
  5
6CB
  8
0
  6
CONTINUOUS
 62
     7
 10
-601.42516999999987
 20
77.732787999999985
 30
0.0
 11
-602.69341999999995
 21
78.465796999999981
 31
0.0
  0
LINE
  5
6CC
  8
0
  6
CONTINUOUS
 62
     7
 10
-601.43053999999995
 20
79.848861999999983
 30
0.0
 11
-602.70752000000005
 21
80.615143000000003
 31
0.0
  0
LINE
  5
6CD
  8
0
  6
CONTINUOUS
 62
     7
 10
-601.44275000000005
 20
84.386780000000016
 30
0.0
 11
-602.74132999999995
 21
85.238342000000003
 31
0.0
  0
LINE
  5
6CE
  8
0
  6
CONTINUOUS
 62
     7
 10
-600.91594999999995
 20
79.706290999999979
 30
0.0
 11
-598.1929899999999
 21
79.706290999999979
 31
0.0
  0
LINE
  5
6CF
  8
0
  6
CONTINUOUS
 62
     7
 10
-600.89435000000003
 20
84.223022
 30
0.0
 11
-598.1929899999999
 21
84.223022
 31
0.0
  0
LINE
  5
6D0
  8
0
  6
CONTINUOUS
 62
     7
 10
-600.92163000000016
 20
85.363037000000006
 30
0.0
 11
-599.19292999999982
 21
85.363037000000006
 31
0.0
  0
LINE
  5
6D1
  8
0
  6
CONTINUOUS
 62
     7
 10
-600.94434000000001
 20
80.846306000000027
 30
0.0
 11
-599.19292999999982
 21
80.846306000000027
 31
0.0
  0
LINE
  5
6D2
  8
0
  6
CONTINUOUS
 62
     7
 10
-600.95366999999987
 20
78.744872999999998
 30
0.0
 11
-598.69298999999978
 21
78.744872999999998
 31
0.0
  0
LINE
  5
6D3
  8
0
  6
CONTINUOUS
 62
     7
 10
-601.42711999999995
 20
85.500145000000003
 30
0.0
 11
-602.69835999999998
 21
86.244797000000005
 31
0.0
  0
LINE
  5
6D4
  8
0
  6
CONTINUOUS
 62
     7
 10
-601.40637000000004
 20
78.853217999999984
 30
0.0
 11
-602.64562999999976
 21
79.482246000000004
 31
0.0
  0
LINE
  5
6D5
  8
0
  6
CONTINUOUS
 62
     7
 10
-601.41265999999985
 20
80.962761
 30
0.0
 11
-602.66132000000005
 21
81.624626000000006
 31
0.0
  0
LINE
  5
6D6
  8
0
  6
CONTINUOUS
 62
     7
 10
-601.19299000000001
 20
84.517501999999965
 30
0.0
 11
-601.19299000000001
 21
84.989615999999984
 31
0.0
  0
LINE
  5
6D7
  8
0
  6
CONTINUOUS
 62
     7
 10
-601.19299000000001
 20
79.951401000000004
 30
0.0
 11
-601.19299000000001
 21
80.497421000000017
 31
0.0
  0
LINE
  5
6D8
  8
0
  6
CONTINUOUS
 62
     7
 10
-601.19299000000001
 20
77.851799
 30
0.0
 11
-601.19299000000001
 21
78.377562999999981
 31
0.0
  0
LINE
  5
6D9
  8
0
  6
CONTINUOUS
 62
     7
 10
-598.1929899999999
 20
77.347960999999998
 30
0.0
 11
-597.19299000000001
 21
77.347960999999998
 31
0.0
  0
LINE
  5
6DA
  8
0
  6
CONTINUOUS
 62
     7
 10
-597.19299000000001
 20
74.347960999999984
 30
0.0
 11
-589.19299000000001
 21
74.347960999999984
 31
0.0
  0
LINE
  5
6DB
  8
0
  6
CONTINUOUS
 62
     7
 10
-596.49486999999976
 20
84.156486999999998
 30
0.0
 11
-590.2650799999999
 21
84.156486999999998
 31
0.0
  0
LINE
  5
6DC
  8
0
  6
CONTINUOUS
 62
     7
 10
-481.19296000000003
 20
81.347945999999965
 30
0.0
 11
-473.19295999999991
 21
81.347945999999965
 31
0.0
  0
LINE
  5
6DD
  8
0
  6
CONTINUOUS
 62
     7
 10
-481.19296000000003
 20
71.347960999999984
 30
0.0
 11
-473.19295999999991
 21
71.347960999999984
 31
0.0
  0
LINE
  5
6DE
  8
0
  6
CONTINUOUS
 62
     7
 10
-585.98657000000003
 20
71.064696999999995
 30
0.0
 11
-489.06682999999992
 21
71.064696999999995
 31
0.0
  0
LINE
  5
6DF
  8
0
  6
CONTINUOUS
 62
     7
 10
-589.19292999999982
 20
79.252196999999981
 30
0.0
 11
-587.95165999999995
 21
72.69280999999998
 31
0.0
  0
LINE
  5
6E0
  8
0
  6
CONTINUOUS
 62
     7
 10
-585.93793000000005
 20
68.218315000000004
 30
0.0
 11
-552.1929899999999
 21
68.218315000000004
 31
0.0
  0
LINE
  5
6E1
  8
0
  6
CONTINUOUS
 62
     7
 10
-585.92455999999981
 20
66.370536999999999
 30
0.0
 11
-552.1929899999999
 21
66.370536999999999
 31
0.0
  0
LINE
  5
6E2
  8
0
  6
CONTINUOUS
 62
     7
 10
-585.90331999999978
 20
65.460014000000001
 30
0.0
 11
-552.1929899999999
 21
65.460014000000001
 31
0.0
  0
LINE
  5
6E3
  8
0
  6
CONTINUOUS
 62
     7
 10
-589.19292999999982
 20
77.907684000000003
 30
0.0
 11
-587.91290000000004
 21
69.902527000000006
 31
0.0
  0
LINE
  5
6E4
  8
0
  6
CONTINUOUS
 62
     7
 10
-589.19299000000001
 20
76.563132999999979
 30
0.0
 11
-587.90192000000002
 21
68.069983999999991
 31
0.0
  0
LINE
  5
6E5
  8
0
  6
CONTINUOUS
 62
     7
 10
-589.19299000000001
 20
76.563071999999977
 30
0.0
 11
-587.88415999999995
 21
67.183616999999984
 31
0.0
  0
LINE
  5
6E6
  8
0
  6
CONTINUOUS
 62
     7
 10
-550.19299000000001
 20
67.460014000000001
 30
0.0
 11
-550.19299000000001
 21
71.064696999999995
 31
0.0
  0
LINE
  5
6E7
  8
0
  6
CONTINUOUS
 62
     7
 10
-482.69292999999988
 20
89.124907999999962
 30
0.0
 11
-487.13497999999993
 21
72.547057999999979
 31
0.0
  0
LINE
  5
6E8
  8
0
  6
CONTINUOUS
 62
     7
 10
-486.65244000000001
 20
74.347960999999984
 30
0.0
 11
-481.19296000000003
 21
74.347960999999984
 31
0.0
  0
LINE
  5
6E9
  8
0
  6
CONTINUOUS
 62
     7
 10
-481.19296000000003
 20
95.410515000000004
 30
0.0
 11
-473.19295999999991
 21
95.410515000000004
 31
0.0
  0
LINE
  5
6EA
  8
0
  6
CONTINUOUS
 62
     7
 10
-565.19298999999978
 20
90.624870000000001
 30
0.0
 11
-565.19298999999978
 21
90.624870000000001
 31
0.0
  0
LINE
  5
6EB
  8
0
  6
CONTINUOUS
 62
     7
 10
-563.69299000000001
 20
89.124870000000001
 30
0.0
 11
-481.19296000000003
 21
89.124870000000001
 31
0.0
  0
LINE
  5
6EC
  8
0
  6
CONTINUOUS
 62
     7
 10
-500.69295999999991
 20
97.347954000000016
 30
0.0
 11
-491.42293999999993
 21
97.347954000000016
 31
0.0
  0
LINE
  5
6ED
  8
0
  6
CONTINUOUS
 62
     3
 10
-556.82097999999985
 20
149.8477
 30
0.0
 11
-552.61596999999995
 21
149.8477
 31
0.0
  0
LINE
  5
6EE
  8
0
  6
CONTINUOUS
 62
     3
 10
-554.69299000000001
 20
147.78570999999999
 30
0.0
 11
-554.69299000000001
 21
151.81169
 31
0.0
  0
LINE
  5
6EF
  8
0
  6
CONTINUOUS
 62
     3
 10
-580.69341999999995
 20
134.8477
 30
0.0
 11
-580.69341999999995
 21
158.8477
 31
0.0
  0
LINE
  5
6F0
  8
0
  6
CONTINUOUS
 62
     3
 10
-580.69341999999995
 20
95.848206000000005
 30
0.0
 11
-580.69341999999995
 21
119.8477
 31
0.0
  0
LINE
  5
6F1
  8
0
  6
CONTINUOUS
 62
     3
 10
-555.19299000000001
 20
104.3481899999999
 30
0.0
 11
-555.19299000000001
 21
144.37072999999981
 31
0.0
  0
LINE
  5
6F2
  8
0
  6
CONTINUOUS
 62
     3
 10
-509.19295999999991
 20
110.3256699999999
 30
0.0
 11
-509.19295999999991
 21
150.34771999999981
 31
0.0
  0
LINE
  5
6F3
  8
0
  6
CONTINUOUS
 62
     3
 10
-500.69295999999991
 20
95.848206000000005
 30
0.0
 11
-500.69295999999991
 21
158.8477
 31
0.0
  0
LINE
  5
6F4
  8
0
  6
CONTINUOUS
 62
     3
 10
-549.21594000000005
 20
150.34771999999981
 30
0.0
 11
-509.19295999999991
 21
150.34771999999981
 31
0.0
  0
LINE
  5
6F5
  8
0
  6
CONTINUOUS
 62
     3
 10
-555.19299000000001
 20
104.3481899999999
 30
0.0
 11
-515.17095999999992
 21
104.3481899999999
 31
0.0
  0
LINE
  5
6F6
  8
0
  6
CONTINUOUS
 62
     3
 10
-580.69341999999995
 20
158.8477
 30
0.0
 11
-575.19347999999979
 21
158.8477
 31
0.0
  0
LINE
  5
6F7
  8
0
  6
CONTINUOUS
 62
     3
 10
-580.69341999999995
 20
95.848206000000005
 30
0.0
 11
-575.19347999999979
 21
95.848206000000005
 31
0.0
  0
LINE
  5
6F8
  8
0
  6
CONTINUOUS
 62
     3
 10
-509.69296000000003
 20
102.78618999999991
 30
0.0
 11
-509.69296000000003
 21
106.81213
 31
0.0
  0
LINE
  5
6F9
  8
0
  6
CONTINUOUS
 62
     3
 10
-511.82097999999979
 20
104.8482099999999
 30
0.0
 11
-507.61596999999989
 21
104.8482099999999
 31
0.0
  0
LINE
  5
6FA
  8
0
  6
CONTINUOUS
 62
     3
 10
-549.99297999999999
 20
145.1517299999999
 30
0.0
 11
-514.39294000000007
 21
145.1517299999999
 31
0.0
  0
LINE
  5
6FB
  8
0
  6
CONTINUOUS
 62
     3
 10
-549.99297999999999
 20
109.5477199999999
 30
0.0
 11
-514.39294000000007
 21
109.5477199999999
 31
0.0
  0
LINE
  5
6FC
  8
0
  6
CONTINUOUS
 62
     3
 10
-514.39294000000007
 20
109.5477199999999
 30
0.0
 11
-514.39294000000007
 21
145.1517299999999
 31
0.0
  0
LINE
  5
6FD
  8
0
  6
CONTINUOUS
 62
     3
 10
-549.99297999999999
 20
109.5477199999999
 30
0.0
 11
-549.99297999999999
 21
145.1517299999999
 31
0.0
  0
LINE
  5
6FE
  8
0
  6
CONTINUOUS
 62
     3
 10
-579.19341999999995
 20
157.3477
 30
0.0
 11
-503.69295999999991
 21
157.3477
 31
0.0
  0
LINE
  5
6FF
  8
0
  6
CONTINUOUS
 62
     3
 10
-579.19341999999995
 20
97.348206000000005
 30
0.0
 11
-579.19341999999995
 21
157.3477
 31
0.0
  0
LINE
  5
700
  8
0
  6
CONTINUOUS
 62
     3
 10
-560.19292999999993
 20
160.84771999999981
 30
0.0
 11
-560.19292999999993
 21
157.3477
 31
0.0
  0
LINE
  5
701
  8
0
  6
CONTINUOUS
 62
     3
 10
-575.19347999999979
 20
160.84771999999981
 30
0.0
 11
-560.19292999999993
 21
160.84771999999981
 31
0.0
  0
LINE
  5
702
  8
0
  6
CONTINUOUS
 62
     3
 10
-575.19347999999979
 20
160.84771999999981
 30
0.0
 11
-575.19347999999979
 21
157.3477
 31
0.0
  0
LINE
  5
703
  8
0
  6
CONTINUOUS
 62
     3
 10
-582.69348000000002
 20
134.8477
 30
0.0
 11
-579.19341999999995
 21
134.8477
 31
0.0
  0
LINE
  5
704
  8
0
  6
CONTINUOUS
 62
     3
 10
-582.69348000000002
 20
119.8477
 30
0.0
 11
-582.69348000000002
 21
134.8477
 31
0.0
  0
LINE
  5
705
  8
0
  6
CONTINUOUS
 62
     7
 10
-500.69295999999991
 20
157.34794999999991
 30
0.0
 11
-491.42293999999993
 21
157.34794999999991
 31
0.0
  0
LINE
  5
706
  8
0
  6
CONTINUOUS
 62
     7
 10
-371.19299000000001
 20
175.66034999999991
 30
0.0
 11
-370.89487000000003
 21
175.30504999999999
 31
0.0
  0
LINE
  5
707
  8
0
  6
CONTINUOUS
 62
     7
 10
-375.19299000000001
 20
64.847945999999993
 30
0.0
 11
-375.19299000000001
 21
232.34794999999991
 31
0.0
  0
LINE
  5
708
  8
0
  6
CONTINUOUS
 62
     7
 10
-385.19299000000001
 20
67.128524999999996
 30
0.0
 11
-385.19299000000001
 21
100.19362
 31
0.0
  0
LINE
  5
709
  8
0
  6
CONTINUOUS
 62
     7
 10
-403.19298999999972
 20
211.42192
 30
0.0
 11
-403.19298999999972
 21
166.19279
 31
0.0
  0
LINE
  5
70A
  8
0
  6
CONTINUOUS
 62
     7
 10
-375.19299000000001
 20
217.34795
 30
0.0
 11
-371.19296000000003
 21
217.34795
 31
0.0
  0
LINE
  5
70B
  8
0
  6
CONTINUOUS
 62
     7
 10
-383.26278999999988
 20
232.0661299999999
 30
0.0
 11
-375.19299000000001
 21
232.34794999999991
 31
0.0
  0
LINE
  5
70C
  8
0
  6
CONTINUOUS
 62
     7
 10
-397.86748999999992
 20
216.41887
 30
0.0
 11
-388.08828999999992
 21
216.76035999999999
 31
0.0
  0
LINE
  5
70D
  8
0
  6
CENTER
 62
     1
 10
-127.89561
 20
127.34795
 30
0.0
 11
-164.48560000000001
 21
127.34795
 31
0.0
  0
LINE
  5
70E
  8
0
  6
CONTINUOUS
 62
     7
 10
-93.280929999999998
 20
142.34796
 30
0.0
 11
-93.280929999999998
 21
125.34796
 31
0.0
  0
LINE
  5
70F
  8
0
  6
CONTINUOUS
 62
     7
 10
-435.19299000000001
 20
198.34794999999991
 30
0.0
 11
-435.19299000000001
 21
53.847957999999998
 31
0.0
  0
LINE
  5
710
  8
0
  6
CONTINUOUS
 62
     7
 10
-212.2188899999999
 20
159.15091000000001
 30
0.0
 11
-212.2188899999999
 21
159.15091000000001
 31
0.0
  0
LINE
  5
711
  8
0
  6
CONTINUOUS
 62
     7
 10
-375.19299000000001
 20
77.347960999999998
 30
0.0
 11
-371.19296000000003
 21
77.347960999999998
 31
0.0
  0
LINE
  5
712
  8
0
  6
CONTINUOUS
 62
     7
 10
-89.602699000000001
 20
186.3342899999999
 30
0.0
 11
-89.602699000000001
 21
186.3342899999999
 31
0.0
  0
LINE
  5
713
  8
0
  6
CONTINUOUS
 62
     7
 10
-78.342979
 20
159.1509199999999
 30
0.0
 11
-78.342979
 21
159.1509199999999
 31
0.0
  0
LINE
  5
714
  8
0
  6
CONTINUOUS
 62
     7
 10
-200.95917999999989
 20
186.33427
 30
0.0
 11
-200.95917999999989
 21
186.33427
 31
0.0
  0
LINE
  5
715
  8
0
  6
CONTINUOUS
 62
     7
 10
-385.19299000000001
 20
189.2996099999998
 30
0.0
 11
-385.19299000000001
 21
230.06735
 31
0.0
  0
LINE
  5
716
  8
0
  6
CENTER
 62
     7
 10
-222.08797000000001
 20
224.15497999999999
 30
0.0
 11
-209.08023
 21
211.14725000000001
 31
0.0
  0
LINE
  5
717
  8
0
  6
CENTER
 62
     7
 10
-223.07044999999991
 20
69.558448999999996
 30
0.0
 11
-208.74860000000001
 21
83.880302000000015
 31
0.0
  0
LINE
  5
718
  8
0
  6
CONTINUOUS
 62
     7
 10
-230.2809299999999
 20
177.3479599999998
 30
0.0
 11
-228.01328000000001
 21
220.61735999999999
 31
0.0
  0
LINE
  5
719
  8
0
  6
CONTINUOUS
 62
     7
 10
-175.2809399999999
 20
232.34794999999991
 30
0.0
 11
-145.2809399999999
 21
232.34794999999991
 31
0.0
  0
LINE
  5
71A
  8
0
  6
CONTINUOUS
 62
     1
 10
-183.28093000000001
 20
122.34796
 30
0.0
 11
-204.31482999999989
 21
122.34796
 31
0.0
  0
LINE
  5
71B
  8
0
  6
CONTINUOUS
 62
     7
 10
-230.2809299999999
 20
177.34795
 30
0.0
 11
-230.2809299999999
 21
147.34795
 31
0.0
  0
LINE
  5
71C
  8
0
  6
CONTINUOUS
 62
     7
 10
-175.28093000000001
 20
232.34794999999991
 30
0.0
 11
-218.55033999999989
 21
230.08028999999991
 31
0.0
  0
LINE
  5
71D
  8
0
  6
CONTINUOUS
 62
     7
 10
-398.19296000000003
 20
161.1927899999998
 30
0.0
 11
-383.96224999999993
 21
161.1927899999998
 31
0.0
  0
LINE
  5
71E
  8
0
  6
CONTINUOUS
 62
     7
 10
-381.19298999999978
 20
83.066620000000015
 30
0.0
 11
-381.19298999999978
 21
214.12926999999999
 31
0.0
  0
LINE
  5
71F
  8
0
  6
CONTINUOUS
 62
     7
 10
-383.26278999999988
 20
65.129745
 30
0.0
 11
-375.19296000000003
 21
64.847938999999997
 31
0.0
  0
LINE
  5
720
  8
0
  6
CONTINUOUS
 62
     7
 10
-435.19296000000003
 20
198.34794999999991
 30
0.0
 11
-406.11440999999991
 21
199.10938999999991
 31
0.0
  0
LINE
  5
721
  8
0
  6
CONTINUOUS
 62
     7
 10
-230.2809299999999
 20
117.34795
 30
0.0
 11
-228.02617000000001
 21
74.324600000000004
 31
0.0
  0
LINE
  5
722
  8
0
  6
CONTINUOUS
 62
     7
 10
-230.2809299999999
 20
117.34795
 30
0.0
 11
-230.2809299999999
 21
147.34795
 31
0.0
  0
LINE
  5
723
  8
0
  6
CONTINUOUS
 62
     1
 10
-218.0398899999999
 20
64.847945999999993
 30
0.0
 11
-188.83022
 21
64.847945999999993
 31
0.0
  0
LINE
  5
724
  8
0
  6
CONTINUOUS
 62
     1
 10
-101.73166000000001
 20
64.847945999999993
 30
0.0
 11
-72.521987999999979
 21
64.847945999999993
 31
0.0
  0
LINE
  5
725
  8
0
  6
CONTINUOUS
 62
     7
 10
-60.280940999999999
 20
117.34795
 30
0.0
 11
-60.280940999999999
 21
147.34795
 31
0.0
  0
LINE
  5
726
  8
0
  6
CENTER
 62
     7
 10
-68.037392000000011
 20
224.59150999999989
 30
0.0
 11
-81.582946999999976
 21
211.0459399999998
 31
0.0
  0
LINE
  5
727
  8
0
  6
CONTINUOUS
 62
     7
 10
-115.2809399999999
 20
232.34794999999991
 30
0.0
 11
-145.2809399999999
 21
232.34794999999991
 31
0.0
  0
LINE
  5
728
  8
0
  6
CONTINUOUS
 62
     7
 10
-435.19299000000001
 20
176.14498999999981
 30
0.0
 11
-404.87473
 21
176.14498999999981
 31
0.0
  0
LINE
  5
729
  8
0
  6
CONTINUOUS
 62
     7
 10
-435.19299000000001
 20
53.847960999999991
 30
0.0
 11
-399.19301999999999
 21
52.347960999999998
 31
0.0
  0
LINE
  5
72A
  8
0
  6
CONTINUOUS
 62
     7
 10
-399.19299000000001
 20
67.758422999999993
 30
0.0
 11
-399.19299000000001
 21
52.347957999999998
 31
0.0
  0
LINE
  5
72B
  8
0
  6
CONTINUOUS
 62
     7
 10
-398.21917999999988
 20
68.758080000000007
 30
0.0
 11
-385.19296000000003
 21
69.099190000000007
 31
0.0
  0
LINE
  5
72C
  8
0
  6
DASHED
 62
     7
 10
-371.26279
 20
81.350403
 30
0.0
 11
-371.19296000000003
 21
81.347968999999964
 31
0.0
  0
LINE
  5
72D
  8
0
  6
CONTINUOUS
 62
     7
 10
-401.74480999999997
 20
187.0766099999999
 30
0.0
 11
-384.70751999999987
 21
187.0766099999999
 31
0.0
  0
LINE
  5
72E
  8
0
  6
CONTINUOUS
 62
     7
 10
-197.2809399999999
 20
142.34796
 30
0.0
 11
-197.2809399999999
 21
125.34796
 31
0.0
  0
LINE
  5
72F
  8
0
  6
CONTINUOUS
 62
     7
 10
-208.08219999999989
 20
149.34796
 30
0.0
 11
-200.05318999999989
 21
149.34796
 31
0.0
  0
LINE
  5
730
  8
0
  6
CONTINUOUS
 62
     7
 10
-112.2809399999999
 20
147.34795
 30
0.0
 11
-112.2809399999999
 21
127.34795
 31
0.0
  0
LINE
  5
731
  8
0
  6
CONTINUOUS
 62
     7
 10
-208.08219999999989
 20
145.34796
 30
0.0
 11
-200.2809399999999
 21
145.34796
 31
0.0
  0
LINE
  5
732
  8
0
  6
CONTINUOUS
 62
     7
 10
-102.6710599999999
 20
193.49334999999991
 30
0.0
 11
-121.8916899999999
 21
174.27271999999999
 31
0.0
  0
LINE
  5
733
  8
0
  6
CONTINUOUS
 62
     7
 10
-99.135529000000005
 20
189.95782
 30
0.0
 11
-118.3561599999999
 21
170.7372
 31
0.0
  0
LINE
  5
734
  8
0
  6
CONTINUOUS
 62
     7
 10
-187.8908099999999
 20
193.49334999999991
 30
0.0
 11
-168.6701699999999
 21
174.27271999999999
 31
0.0
  0
LINE
  5
735
  8
0
  6
CONTINUOUS
 62
     7
 10
-173.40819999999991
 20
52.442841000000001
 30
0.0
 11
-117.15366
 21
52.442841000000001
 31
0.0
  0
LINE
  5
736
  8
0
  6
CONTINUOUS
 62
     1
 10
-107.28093
 20
122.34796
 30
0.0
 11
-86.247046999999981
 21
122.34796
 31
0.0
  0
LINE
  5
737
  8
0
  6
CENTER
 62
     7
 10
-81.343406999999999
 20
83.41042299999998
 30
0.0
 11
-67.869559999999993
 21
69.936576999999986
 31
0.0
  0
LINE
  5
738
  8
0
  6
CONTINUOUS
 62
     7
 10
-143.28093000000001
 20
210.1492299999999
 30
0.0
 11
-143.28093000000001
 21
202.12020999999999
 31
0.0
  0
LINE
  5
739
  8
0
  6
CONTINUOUS
 62
     7
 10
-147.28093000000001
 20
210.1492299999999
 30
0.0
 11
-147.28093000000001
 21
202.12020999999999
 31
0.0
  0
LINE
  5
73A
  8
0
  6
CONTINUOUS
 62
     7
 10
-191.42633000000001
 20
189.95782
 30
0.0
 11
-172.20570000000001
 21
170.73717999999991
 31
0.0
  0
LINE
  5
73B
  8
0
  6
CONTINUOUS
 62
     7
 10
-82.479659999999981
 20
149.34796
 30
0.0
 11
-90.508674999999997
 21
149.34796
 31
0.0
  0
LINE
  5
73C
  8
0
  6
CONTINUOUS
 62
     7
 10
-82.479659999999981
 20
145.34796
 30
0.0
 11
-90.280929999999998
 21
145.34796
 31
0.0
  0
LINE
  5
73D
  8
0
  6
CONTINUOUS
 62
     7
 10
-188.83023
 20
64.847960999999998
 30
0.0
 11
-186.23214999999999
 21
69.347968999999992
 31
0.0
  0
LINE
  5
73E
  8
0
  6
CONTINUOUS
 62
     7
 10
-101.7316399999999
 20
64.847938999999997
 30
0.0
 11
-104.32973
 21
69.347954000000001
 31
0.0
  0
LINE
  5
73F
  8
0
  6
CONTINUOUS
 62
     7
 10
-435.19299000000001
 20
64.477867000000003
 30
0.0
 11
-399.19299000000001
 21
64.477867000000003
 31
0.0
  0
LINE
  5
740
  8
0
  6
CONTINUOUS
 62
     7
 10
-403.19298999999972
 20
193.5816299999999
 30
0.0
 11
-386.86385999999999
 21
201.65143999999981
 31
0.0
  0
LINE
  5
741
  8
0
  6
CONTINUOUS
 62
     7
 10
-401.19296000000003
 20
190.0051099999998
 30
0.0
 11
-387.73691000000002
 21
190.0051099999998
 31
0.0
  0
LINE
  5
742
  8
0
  6
CONTINUOUS
 62
     7
 10
-370.19299000000001
 20
121.39863
 30
0.0
 11
-370.19299000000001
 21
173.37671
 31
0.0
  0
LINE
  5
743
  8
0
  6
CONTINUOUS
 62
     7
 10
-60.280940999999999
 20
177.34795
 30
0.0
 11
-60.280940999999999
 21
147.34795
 31
0.0
  0
LINE
  5
744
  8
0
  6
CONTINUOUS
 62
     7
 10
-60.280940999999999
 20
177.3479599999998
 30
0.0
 11
-62.548594999999999
 21
220.61735999999999
 31
0.0
  0
LINE
  5
745
  8
0
  6
CONTINUOUS
 62
     7
 10
-60.280932999999997
 20
117.3479399999998
 30
0.0
 11
-62.535690000000002
 21
74.324607999999998
 31
0.0
  0
LINE
  5
746
  8
0
  6
CONTINUOUS
 62
     7
 10
-115.2809299999999
 20
232.34794999999991
 30
0.0
 11
-72.011527999999998
 21
230.08028999999991
 31
0.0
  0
LINE
  5
747
  8
0
  6
CONTINUOUS
 62
     7
 10
-186.2321299999999
 20
69.347968999999992
 30
0.0
 11
-104.32973
 21
69.347968999999992
 31
0.0
  0
LINE
  5
748
  8
0
  6
CONTINUOUS
 62
     7
 10
-178.2809399999999
 20
147.34795
 30
0.0
 11
-178.2809399999999
 21
127.34795
 31
0.0
  0
LINE
  5
749
  8
0
  6
CONTINUOUS
 62
     7
 10
-371.19296000000003
 20
77.347960999999998
 30
0.0
 11
-371.19296000000003
 21
217.34795
 31
0.0
  0
LINE
  5
74A
  8
0
  6
CONTINUOUS
 62
     7
 10
-197.84237999999999
 20
172.09194999999991
 30
0.0
 11
-200.71738999999999
 21
167.1123
 31
0.0
  0
LINE
  5
74B
  8
0
  6
CONTINUOUS
 62
     7
 10
-167.6582299999998
 20
59.442843999999987
 30
0.0
 11
-170.53323
 21
54.463192000000006
 31
0.0
  0
LINE
  5
74C
  8
0
  6
CONTINUOUS
 62
     7
 10
-170.5332199999998
 20
54.463192000000006
 30
0.0
 11
-176.28322
 21
54.463192000000006
 31
0.0
  0
LINE
  5
74D
  8
0
  6
CONTINUOUS
 62
     7
 10
-176.28323
 20
54.463188000000002
 30
0.0
 11
-179.1582299999998
 21
59.44283699999999
 31
0.0
  0
LINE
  5
74E
  8
0
  6
CONTINUOUS
 62
     7
 10
-179.1582299999998
 20
59.44283699999999
 30
0.0
 11
-176.28323
 21
64.422484999999995
 31
0.0
  0
LINE
  5
74F
  8
0
  6
CONTINUOUS
 62
     7
 10
-170.5332199999998
 20
64.422477999999998
 30
0.0
 11
-176.28322
 21
64.422477999999998
 31
0.0
  0
LINE
  5
750
  8
0
  6
CONTINUOUS
 62
     7
 10
-167.65822
 20
59.442841000000001
 30
0.0
 11
-170.5332199999998
 21
64.422484999999995
 31
0.0
  0
LINE
  5
751
  8
0
  6
CONTINUOUS
 62
     7
 10
-111.40365
 20
59.44283699999999
 30
0.0
 11
-114.2786499999999
 21
64.422477999999998
 31
0.0
  0
LINE
  5
752
  8
0
  6
CONTINUOUS
 62
     7
 10
-114.2786499999999
 20
64.422477999999998
 30
0.0
 11
-120.0286399999999
 21
64.422477999999998
 31
0.0
  0
LINE
  5
753
  8
0
  6
CONTINUOUS
 62
     7
 10
-122.90366
 20
59.442832999999993
 30
0.0
 11
-120.02866
 21
64.422477999999998
 31
0.0
  0
LINE
  5
754
  8
0
  6
CONTINUOUS
 62
     7
 10
-120.02866
 20
54.463188000000002
 30
0.0
 11
-122.90365
 21
59.442824999999992
 31
0.0
  0
LINE
  5
755
  8
0
  6
CONTINUOUS
 62
     7
 10
-114.2786499999999
 20
54.463192000000006
 30
0.0
 11
-120.0286399999999
 21
54.463192000000006
 31
0.0
  0
LINE
  5
756
  8
0
  6
CONTINUOUS
 62
     7
 10
-111.40366
 20
59.442832999999993
 30
0.0
 11
-114.27866
 21
54.463188000000002
 31
0.0
  0
LINE
  5
757
  8
0
  6
CONTINUOUS
 62
     7
 10
-200.71737999999991
 20
167.1123
 30
0.0
 11
-206.46737999999999
 21
167.1123
 31
0.0
  0
LINE
  5
758
  8
0
  6
CONTINUOUS
 62
     7
 10
-206.46738999999991
 20
167.11231999999981
 30
0.0
 11
-209.34237999999999
 21
172.09194999999991
 31
0.0
  0
LINE
  5
759
  8
0
  6
CONTINUOUS
 62
     7
 10
-209.34237999999999
 20
172.09194999999991
 30
0.0
 11
-206.46737999999999
 21
177.0715899999999
 31
0.0
  0
LINE
  5
75A
  8
0
  6
CONTINUOUS
 62
     7
 10
-200.71737999999991
 20
177.0715899999999
 30
0.0
 11
-206.46737999999999
 21
177.0715899999999
 31
0.0
  0
LINE
  5
75B
  8
0
  6
CONTINUOUS
 62
     7
 10
-197.84238999999991
 20
172.09196
 30
0.0
 11
-200.71737999999991
 21
177.0715899999999
 31
0.0
  0
LINE
  5
75C
  8
0
  6
CONTINUOUS
 62
     7
 10
-81.219452000000004
 20
172.09188999999981
 30
0.0
 11
-84.094443999999982
 21
167.1122399999999
 31
0.0
  0
LINE
  5
75D
  8
0
  6
CONTINUOUS
 62
     7
 10
-84.094436999999999
 20
167.11223000000001
 30
0.0
 11
-89.844436999999985
 21
167.11223000000001
 31
0.0
  0
LINE
  5
75E
  8
0
  6
CONTINUOUS
 62
     7
 10
-89.844443999999996
 20
167.1122399999999
 30
0.0
 11
-92.719443999999996
 21
172.09188999999981
 31
0.0
  0
LINE
  5
75F
  8
0
  6
CONTINUOUS
 62
     7
 10
-92.719443999999996
 20
172.09188999999981
 30
0.0
 11
-89.844443999999996
 21
177.07152999999991
 31
0.0
  0
LINE
  5
760
  8
0
  6
CONTINUOUS
 62
     7
 10
-84.094436999999999
 20
177.07155
 30
0.0
 11
-89.844436999999985
 21
177.07155
 31
0.0
  0
LINE
  5
761
  8
0
  6
CONTINUOUS
 62
     7
 10
-81.219443999999982
 20
172.09190000000001
 30
0.0
 11
-84.094443999999982
 21
177.07155
 31
0.0
  0
LINE
  5
762
  8
0
  6
CONTINUOUS
 62
     7
 10
-230.28093999999999
 20
97.347954000000016
 30
0.0
 11
-230.28093999999999
 21
93.847953999999987
 31
0.0
  0
LINE
  5
763
  8
0
  6
CONTINUOUS
 62
     7
 10
-235.2809399999999
 20
97.347954000000016
 30
0.0
 11
-235.2809399999999
 21
157.34794999999991
 31
0.0
  0
LINE
  5
764
  8
0
  6
CONTINUOUS
 62
     7
 10
-235.2809399999999
 20
157.34794999999991
 30
0.0
 11
-230.2809299999999
 21
157.34794999999991
 31
0.0
  0
LINE
  5
765
  8
0
  6
CONTINUOUS
 62
     7
 10
-235.2809399999999
 20
97.347954000000016
 30
0.0
 11
-229.23278999999999
 21
97.347954000000016
 31
0.0
  0
LINE
  5
766
  8
0
  6
CONTINUOUS
 62
     7
 10
-235.2809399999999
 20
150.34795
 30
0.0
 11
-238.2809399999999
 21
145.15796
 31
0.0
  0
LINE
  5
767
  8
0
  6
CONTINUOUS
 62
     7
 10
-235.2809399999999
 20
104.3479599999999
 30
0.0
 11
-238.2809299999999
 21
109.54794
 31
0.0
  0
LINE
  5
768
  8
0
  6
CONTINUOUS
 62
     7
 10
-238.2809399999999
 20
109.5479499999999
 30
0.0
 11
-238.2809399999999
 21
145.15796
 31
0.0
  0
LINE
  5
769
  8
0
  6
CONTINUOUS
 62
     7
 10
-229.04936000000001
 20
93.847953999999987
 30
0.0
 11
-230.28093999999999
 21
93.847953999999987
 31
0.0
  0
LINE
  5
76A
  8
0
  6
CONTINUOUS
 62
     7
 10
-398.19299000000001
 20
65.216346999999985
 30
0.0
 11
-395.19299000000001
 21
65.216346999999985
 31
0.0
  0
LINE
  5
76B
  8
0
  6
CONTINUOUS
 62
     7
 10
-398.19299000000001
 20
53.669322999999999
 30
0.0
 11
-395.19299000000001
 21
53.669322999999999
 31
0.0
  0
LINE
  5
76C
  8
0
  6
CONTINUOUS
 62
     7
 10
-398.19299000000001
 20
56.556072
 30
0.0
 11
-395.19299000000001
 21
56.556072
 31
0.0
  0
LINE
  5
76D
  8
0
  6
CONTINUOUS
 62
     7
 10
-398.19299000000001
 20
62.329571000000001
 30
0.0
 11
-395.19299000000001
 21
62.329571000000001
 31
0.0
  0
LINE
  5
76E
  8
0
  6
CONTINUOUS
 62
     7
 10
-394.19301999999988
 20
54.669308000000001
 30
0.0
 11
-394.19301999999988
 21
64.216331000000011
 31
0.0
  0
LINE
  5
76F
  8
0
  6
CONTINUOUS
 62
     7
 10
-399.19299000000001
 20
66.216346999999999
 30
0.0
 11
-398.19299000000001
 21
66.216346999999999
 31
0.0
  0
LINE
  5
770
  8
0
  6
CONTINUOUS
 62
     7
 10
-399.19299000000001
 20
52.669322999999999
 30
0.0
 11
-398.19299000000001
 21
52.669322999999999
 31
0.0
  0
LINE
  5
771
  8
0
  6
CONTINUOUS
 62
     7
 10
-398.19299000000001
 20
66.216346999999999
 30
0.0
 11
-398.19299000000001
 21
52.669322999999999
 31
0.0
  0
LINE
  5
772
  8
0
  6
CONTINUOUS
 62
     7
 10
-403.19298999999972
 20
460.55562999999989
 30
0.0
 11
-403.19298999999972
 21
319.77767999999992
 31
0.0
  0
LINE
  5
773
  8
0
  6
CONTINUOUS
 62
     7
 10
-400.27150999999992
 20
463.55459999999988
 30
0.0
 11
-388.11446999999998
 21
463.87292000000002
 31
0.0
  0
LINE
  5
774
  8
0
  6
CONTINUOUS
 62
     7
 10
-375.19299000000001
 20
305.16665999999992
 30
0.0
 11
-375.19299000000001
 21
475.16665999999998
 31
0.0
  0
LINE
  5
775
  8
0
  6
CONTINUOUS
 62
     7
 10
-375.19299000000001
 20
460.16665999999992
 30
0.0
 11
-371.19296000000003
 21
460.16665999999992
 31
0.0
  0
LINE
  5
776
  8
0
  6
CONTINUOUS
 62
     7
 10
-383.26278999999988
 20
474.88485999999989
 30
0.0
 11
-375.19301999999988
 21
475.16665999999998
 31
0.0
  0
LINE
  5
777
  8
0
  6
CONTINUOUS
 62
     7
 10
-385.19299000000001
 20
432.11831999999998
 30
0.0
 11
-385.19299000000001
 21
472.88605000000001
 31
0.0
  0
LINE
  5
778
  8
0
  6
CONTINUOUS
 62
     7
 10
-381.19298999999978
 20
323.38531
 30
0.0
 11
-381.19298999999978
 21
456.94799999999992
 31
0.0
  0
LINE
  5
779
  8
0
  6
CONTINUOUS
 62
     7
 10
-400.27147999999988
 20
316.77868999999993
 30
0.0
 11
-388.11444
 21
316.46035999999992
 31
0.0
  0
LINE
  5
77A
  8
0
  6
CONTINUOUS
 62
     7
 10
-375.19299000000001
 20
320.16665999999992
 30
0.0
 11
-371.19296000000003
 21
320.16665999999992
 31
0.0
  0
LINE
  5
77B
  8
0
  6
CONTINUOUS
 62
     7
 10
-383.26281999999992
 20
305.44846000000001
 30
0.0
 11
-375.19299000000001
 21
305.16665999999992
 31
0.0
  0
LINE
  5
77C
  8
0
  6
CONTINUOUS
 62
     7
 10
-385.19299000000001
 20
348.21499999999992
 30
0.0
 11
-385.19299000000001
 21
307.44727
 31
0.0
  0
LINE
  5
77D
  8
0
  6
CONTINUOUS
 62
     7
 10
-371.19296000000003
 20
460.16665999999992
 30
0.0
 11
-371.19296000000003
 21
320.16665999999992
 31
0.0
  0
LINE
  5
77E
  8
0
  6
CONTINUOUS
 62
     7
 10
-387.65015
 20
448.84450999999979
 30
0.0
 11
-400.73581000000001
 21
441.11547999999999
 31
0.0
  0
LINE
  5
77F
  8
0
  6
CONTINUOUS
 62
     7
 10
-402.19298999999978
 20
437.86478
 30
0.0
 11
-387.19298999999978
 21
437.86478
 31
0.0
  0
LINE
  5
780
  8
0
  6
CONTINUOUS
 62
     7
 10
-387.65015
 20
452.32873999999998
 30
0.0
 11
-400.73581000000001
 21
444.59969999999998
 31
0.0
  0
LINE
  5
781
  8
0
  6
CONTINUOUS
 62
     7
 10
-402.19298999999978
 20
342.46854000000002
 30
0.0
 11
-387.19298999999978
 21
342.46854000000002
 31
0.0
  0
LINE
  5
782
  8
0
  6
CONTINUOUS
 62
     7
 10
-387.65015
 20
331.48880000000008
 30
0.0
 11
-400.73581000000001
 21
339.21785999999992
 31
0.0
  0
LINE
  5
783
  8
0
  6
CONTINUOUS
 62
     7
 10
-387.65015
 20
328.00454999999988
 30
0.0
 11
-400.73581000000001
 21
335.73360999999989
 31
0.0
  0
ARC
  5
784
  8
0
  6
CONTINUOUS
 62
     7
 10
-371.19299000000001
 20
364.63231999999988
 30
0.0
 40
1.0
 50
272.0
 51
0.0
  0
ARC
  5
785
  8
0
  6
CONTINUOUS
 62
     7
 10
-371.19299000000001
 20
415.70096000000001
 30
0.0
 40
1.0
 50
0.0
 51
88.0
  0
ARC
  5
786
  8
0
  6
CONTINUOUS
 62
     7
 10
-360.19299000000001
 20
390.16663
 30
0.0
 40
3.9999962
 50
90.000003000000007
 51
270.0
  0
ARC
  5
787
  8
0
  6
CONTINUOUS
 62
     3
 10
-568.46582000000001
 20
313.66665999999992
 30
0.0
 40
7.5
 50
179.99997999999991
 51
0.000010017913
  0
ARC
  5
788
  8
0
  6
CONTINUOUS
 62
     3
 10
-568.46582000000001
 20
313.66665999999992
 30
0.0
 40
4.0
 50
179.99997999999991
 51
0.000010017912
  0
ARC
  5
789
  8
0
  6
CONTINUOUS
 62
     7
 10
-481.53975999999989
 20
435.49941999999999
 30
0.0
 40
1.502775999999999
 50
194.75642999999991
 51
269.87757999999991
  0
ARC
  5
78A
  8
0
  6
CONTINUOUS
 62
     7
 10
-481.53975999999989
 20
434.58938999999998
 30
0.0
 40
1.502775999999999
 50
194.75642999999991
 51
269.87757999999991
  0
ARC
  5
78B
  8
0
  6
CONTINUOUS
 62
     7
 10
-481.53975999999989
 20
432.73940999999991
 30
0.0
 40
1.502775999999999
 50
194.75642999999991
 51
269.87757999999991
  0
ARC
  5
78C
  8
0
  6
CONTINUOUS
 62
     7
 10
-489.06780999999989
 20
450.05190999999991
 30
0.0
 40
2.0047290000000002
 50
15.173496
 51
89.861677999999998
  0
ARC
  5
78D
  8
0
  6
CONTINUOUS
 62
     7
 10
-489.06780999999989
 20
449.14187999999979
 30
0.0
 40
2.0047290000000002
 50
15.173496
 51
89.861677999999998
  0
ARC
  5
78E
  8
0
  6
CONTINUOUS
 62
     7
 10
-489.06780999999989
 20
447.2919
 30
0.0
 40
2.0047290000000002
 50
15.173496
 51
89.861677999999998
  0
ARC
  5
78F
  8
0
  6
CONTINUOUS
 62
     7
 10
-481.53975999999989
 20
350.44387999999992
 30
0.0
 40
1.502775999999999
 50
90.122413000000037
 51
165.24357000000001
  0
ARC
  5
790
  8
0
  6
CONTINUOUS
 62
     7
 10
-602.19970999999998
 20
438.18459999999999
 30
0.0
 40
0.99319202
 50
119.77338
 51
179.87958999999981
  0
ARC
  5
791
  8
0
  6
CONTINUOUS
 62
     7
 10
-602.19739000000004
 20
437.14639000000011
 30
0.0
 40
0.995579
 50
116.5870899999999
 51
179.98264
  0
ARC
  5
792
  8
0
  6
CONTINUOUS
 62
     7
 10
-600.93090999999981
 20
438.92080999999962
 30
0.0
 40
0.9959030199999999
 50
89.541267000000005
 51
119.60717
  0
ARC
  5
793
  8
0
  6
CONTINUOUS
 62
     7
 10
-600.96813999999995
 20
437.77260999999999
 30
0.0
 40
0.99411702
 50
89.122643999999966
 51
115.93498
  0
ARC
  5
794
  8
0
  6
CONTINUOUS
 62
     7
 10
-600.92407000000003
 20
436.81240999999989
 30
0.0
 40
0.99427301
 50
89.356065999999984
 51
120.78091000000001
  0
ARC
  5
795
  8
0
  6
CONTINUOUS
 62
     7
 10
-600.95789000000002
 20
435.67129999999997
 30
0.0
 40
0.99545902
 50
89.141291000000024
 51
117.20381999999999
  0
ARC
  5
796
  8
0
  6
CONTINUOUS
 62
     7
 10
-600.88634999999999
 20
432.30045000000001
 30
0.0
 40
0.99617702
 50
90.381317999999979
 51
123.9704899999999
  0
ARC
  5
797
  8
0
  6
CONTINUOUS
 62
     7
 10
-600.91357000000005
 20
431.16019
 30
0.0
 40
0.99648702
 50
90.540720999999976
 51
120.74377
  0
ARC
  5
798
  8
0
  6
CONTINUOUS
 62
     7
 10
-602.19884999999988
 20
430.40982000000002
 30
0.0
 40
0.99404597
 50
120.4682
 51
180.18563999999989
  0
ARC
  5
799
  8
0
  6
CONTINUOUS
 62
     7
 10
-602.1981199999999
 20
431.44423999999992
 30
0.0
 40
0.9948369899999999
 50
123.20496
 51
180.4378599999998
  0
ARC
  5
79A
  8
0
  6
CONTINUOUS
 62
     7
 10
-602.19970999999998
 20
435.00808999999998
 30
0.0
 40
0.9932109699999999
 50
117.7993199999999
 51
180.08187000000001
  0
ARC
  5
79B
  8
0
  6
CONTINUOUS
 62
     7
 10
-602.19848999999965
 20
436.04568
 30
0.0
 40
0.9944329899999999
 50
121.15213
 51
179.9405099999999
  0
ARC
  5
79C
  8
0
  6
CONTINUOUS
 62
     7
 10
-600.99194
 20
424.86123999999978
 30
0.0
 40
0.9954450099999999
 50
90.056905000000043
 51
113.1274499999999
  0
ARC
  5
79D
  8
0
  6
CONTINUOUS
 62
     7
 10
-601.05382999999995
 20
422.91397000000001
 30
0.0
 40
0.9927430199999999
 50
89.374555000000001
 51
106.33207
  0
ARC
  5
79E
  8
0
  6
CONTINUOUS
 62
     7
 10
-602.19665999999995
 20
422.56240999999989
 30
0.0
 40
0.9962710099999999
 50
106.69792
 51
180.3300499999998
  0
ARC
  5
79F
  8
0
  6
CONTINUOUS
 62
     7
 10
-602.19653000000005
 20
424.34817999999962
 30
0.0
 40
0.9963999999999998
 50
112.81735999999979
 51
180.09041999999991
  0
ARC
  5
7A0
  8
0
  6
CONTINUOUS
 62
     7
 10
-602.19788000000017
 20
415.17153999999988
 30
0.0
 40
0.99507803
 50
89.715886999999981
 51
180.28411
  0
ARC
  5
7A1
  8
0
  6
CONTINUOUS
 62
     7
 10
-602.19275000000016
 20
415.1669
 30
0.0
 40
1.000203
 50
180.01165
 51
269.98835000000003
  0
ARC
  5
7A2
  8
0
  6
CONTINUOUS
 62
     7
 10
-602.19788000000017
 20
405.17153999999988
 30
0.0
 40
0.99508202
 50
89.716099
 51
180.28390999999991
  0
ARC
  5
7A3
  8
0
  6
CONTINUOUS
 62
     7
 10
-602.19275000000016
 20
405.1669
 30
0.0
 40
1.0001999999999991
 50
180.0114299999999
 51
269.98856999999992
  0
ARC
  5
7A4
  8
0
  6
CONTINUOUS
 62
     7
 10
-602.19788000000017
 20
395.17153999999988
 30
0.0
 40
0.9950849999999999
 50
89.716311000000005
 51
180.28368999999981
  0
ARC
  5
7A5
  8
0
  6
CONTINUOUS
 62
     7
 10
-602.19275000000016
 20
395.16689999999988
 30
0.0
 40
1.0001959999999981
 50
180.01122000000001
 51
269.98877999999991
  0
ARC
  5
7A6
  8
0
  6
CONTINUOUS
 62
     7
 10
-599.19275000000005
 20
393.16677999999979
 30
0.0
 40
0.9998249999999999
 50
359.98995000000002
 51
90.010050000000007
  0
ARC
  5
7A7
  8
0
  6
CONTINUOUS
 62
     7
 10
-599.19788000000005
 20
397.17153999999988
 30
0.0
 40
1.0049469
 50
270.28134999999992
 51
359.71866
  0
ARC
  5
7A8
  8
0
  6
CONTINUOUS
 62
     7
 10
-599.19275000000005
 20
403.16677999999979
 30
0.0
 40
0.9998210099999999
 50
359.98975000000002
 51
90.010255000000001
  0
ARC
  5
7A9
  8
0
  6
CONTINUOUS
 62
     7
 10
-599.19788000000005
 20
407.17153999999999
 30
0.0
 40
1.004939
 50
270.28091000000001
 51
359.71910000000008
  0
ARC
  5
7AA
  8
0
  6
CONTINUOUS
 62
     7
 10
-599.19275000000005
 20
413.16677999999979
 30
0.0
 40
0.9998289899999999
 50
359.99018999999993
 51
90.009810999999985
  0
ARC
  5
7AB
  8
0
  6
CONTINUOUS
 62
     7
 10
-599.19788000000005
 20
417.17153999999999
 30
0.0
 40
1.004942999999999
 50
270.28111000000001
 51
359.71888999999987
  0
ARC
  5
7AC
  8
0
  6
CONTINUOUS
 62
     7
 10
-599.19128000000001
 20
422.90836000000002
 30
0.0
 40
0.9982839799999999
 50
359.90141999999992
 51
90.098575999999994
  0
ARC
  5
7AD
  8
0
  6
CONTINUOUS
 62
     7
 10
-599.19530999999995
 20
431.15432999999962
 30
0.0
 40
1.002353
 50
0.13432682
 51
89.865673000000001
  0
ARC
  5
7AE
  8
0
  6
CONTINUOUS
 62
     7
 10
-598.89745999999957
 20
426.56119000000001
 30
0.0
 40
0.704566
 50
270.37009999999992
 51
359.62990999999982
  0
ARC
  5
7AF
  8
0
  6
CONTINUOUS
 62
     7
 10
-599.19201999999996
 20
435.66762999999997
 30
0.0
 40
0.9990100299999999
 50
359.94319000000002
 51
90.056808999999959
  0
ARC
  5
7B0
  8
0
  6
CONTINUOUS
 62
     7
 10
-598.69127999999978
 20
438.26834000000002
 30
0.0
 40
0.4983060100000002
 50
359.80489
 51
90.195107000000007
  0
ARC
  5
7B1
  8
0
  6
CONTINUOUS
 62
     7
 10
-598.69750999999985
 20
440.42129999999992
 30
0.0
 40
0.50463498
 50
270.52382999999992
 51
359.47617000000002
  0
ARC
  5
7B2
  8
0
  6
CONTINUOUS
 62
     7
 10
-586.64832000000001
 20
355.16665999999992
 30
0.0
 40
1.000013899999999
 50
89.691659999999985
 51
270.30833999999999
  0
ARC
  5
7B3
  8
0
  6
CONTINUOUS
 62
     7
 10
-484.37295999999992
 20
425.21170000000001
 30
0.0
 40
1.6750020000000001
 50
269.99998999999991
 51
90.000003000000007
  0
ARC
  5
7B4
  8
0
  6
CONTINUOUS
 62
     7
 10
-487.85297000000003
 20
425.16665999999998
 30
0.0
 40
1.0
 50
269.99998999999991
 51
90.000003000000007
  0
ARC
  5
7B5
  8
0
  6
CONTINUOUS
 62
     7
 10
-487.85297000000003
 20
355.16665999999992
 30
0.0
 40
1.0
 50
269.99998999999991
 51
90.000003000000007
  0
ARC
  5
7B6
  8
0
  6
CONTINUOUS
 62
     7
 10
-484.37295999999992
 20
355.12160999999992
 30
0.0
 40
1.6750020000000001
 50
269.99998999999991
 51
90.000003000000007
  0
ARC
  5
7B7
  8
0
  6
CONTINUOUS
 62
     7
 10
-599.19628999999975
 20
357.42995999999982
 30
0.0
 40
1.003352
 50
270.19110999999992
 51
359.80889999999982
  0
ARC
  5
7B8
  8
0
  6
CONTINUOUS
 62
     7
 10
-599.19788000000005
 20
367.17153999999999
 30
0.0
 40
1.0049469
 50
270.28136999999992
 51
359.71863000000002
  0
ARC
  5
7B9
  8
0
  6
CONTINUOUS
 62
     7
 10
-599.19275000000005
 20
363.16677999999979
 30
0.0
 40
0.9998239899999999
 50
359.98991999999993
 51
90.010076999999981
  0
ARC
  5
7BA
  8
0
  6
CONTINUOUS
 62
     7
 10
-598.8924599999998
 20
353.77724999999992
 30
0.0
 40
0.6994530000000001
 50
359.95517000000001
 51
90.044829000000021
  0
ARC
  5
7BB
  8
0
  6
CONTINUOUS
 62
     7
 10
-600.98999000000003
 20
355.48183999999992
 30
0.0
 40
1.005233
 50
246.98638999999989
 51
269.82924999999989
  0
ARC
  5
7BC
  8
0
  6
CONTINUOUS
 62
     7
 10
-601.05237
 20
357.42935
 30
0.0
 40
1.002699
 50
253.7527199999999
 51
270.54064
  0
ARC
  5
7BD
  8
0
  6
CONTINUOUS
 62
     7
 10
-602.19653000000005
 20
357.78104000000002
 30
0.0
 40
0.99638802
 50
180.24991
 51
253.29664
  0
ARC
  5
7BE
  8
0
  6
CONTINUOUS
 62
     7
 10
-602.1964099999999
 20
355.99515000000002
 30
0.0
 40
0.9965090199999998
 50
179.91374999999999
 51
247.17845
  0
ARC
  5
7BF
  8
0
  6
CONTINUOUS
 62
     7
 10
-602.19275000000016
 20
365.1669
 30
0.0
 40
1.0001959999999981
 50
180.01124999999999
 51
269.98874999999992
  0
ARC
  5
7C0
  8
0
  6
CONTINUOUS
 62
     7
 10
-602.19788000000017
 20
365.17153999999999
 30
0.0
 40
0.9950849999999999
 50
89.716282999999976
 51
180.2837199999999
  0
ARC
  5
7C1
  8
0
  6
CONTINUOUS
 62
     7
 10
-602.19275000000016
 20
375.1669
 30
0.0
 40
1.0001999999999991
 50
180.01146
 51
269.98853999999972
  0
ARC
  5
7C2
  8
0
  6
CONTINUOUS
 62
     7
 10
-602.19788000000017
 20
375.17153999999999
 30
0.0
 40
0.9950810099999999
 50
89.716071999999997
 51
180.28391999999999
  0
ARC
  5
7C3
  8
0
  6
CONTINUOUS
 62
     7
 10
-602.19275000000016
 20
385.1669
 30
0.0
 40
1.0002040000000001
 50
180.01166000000001
 51
269.9883200000001
  0
ARC
  5
7C4
  8
0
  6
CONTINUOUS
 62
     7
 10
-602.19788000000017
 20
385.17153999999999
 30
0.0
 40
0.9950770099999999
 50
89.715860000000006
 51
180.28413999999989
  0
ARC
  5
7C5
  8
0
  6
CONTINUOUS
 62
     7
 10
-599.19788000000005
 20
387.17153999999988
 30
0.0
 40
1.004942999999999
 50
270.28113999999988
 51
359.71886999999992
  0
ARC
  5
7C6
  8
0
  6
CONTINUOUS
 62
     7
 10
-599.19275000000005
 20
383.16677999999979
 30
0.0
 40
0.9998279799999998
 50
359.99015999999978
 51
90.009838000000002
  0
ARC
  5
7C7
  8
0
  6
CONTINUOUS
 62
     7
 10
-599.19788000000005
 20
377.17153999999999
 30
0.0
 40
1.004939
 50
270.28093999999999
 51
359.71906999999999
  0
ARC
  5
7C8
  8
0
  6
CONTINUOUS
 62
     7
 10
-599.19275000000005
 20
373.16677999999979
 30
0.0
 40
0.9998210099999999
 50
359.98971999999998
 51
90.010281999999961
  0
ARC
  5
7C9
  8
0
  6
CONTINUOUS
 62
     7
 10
-587.52039000000002
 20
425.21170000000001
 30
0.0
 40
1.6750160000000001
 50
89.746144999999984
 51
270.25387000000001
  0
ARC
  5
7CA
  8
0
  6
CONTINUOUS
 62
     7
 10
-586.64832000000001
 20
425.16665999999998
 30
0.0
 40
1.000013899999999
 50
89.691659999999985
 51
270.30833999999999
  0
ARC
  5
7CB
  8
0
  6
CONTINUOUS
 62
     7
 10
-586.64832000000001
 20
415.16665999999992
 30
0.0
 40
1.000013899999999
 50
89.691659999999985
 51
270.30833999999999
  0
ARC
  5
7CC
  8
0
  6
CONTINUOUS
 62
     7
 10
-586.64832000000001
 20
405.16665999999992
 30
0.0
 40
1.000013899999999
 50
89.691659999999985
 51
270.30833999999999
  0
ARC
  5
7CD
  8
0
  6
CONTINUOUS
 62
     7
 10
-586.64832000000001
 20
395.16665999999992
 30
0.0
 40
1.000013899999999
 50
89.691659999999985
 51
270.30833999999999
  0
ARC
  5
7CE
  8
0
  6
CONTINUOUS
 62
     7
 10
-586.64832000000001
 20
385.16665999999992
 30
0.0
 40
1.000013899999999
 50
89.691659999999985
 51
270.30833999999999
  0
ARC
  5
7CF
  8
0
  6
CONTINUOUS
 62
     7
 10
-586.64832000000001
 20
375.16665999999998
 30
0.0
 40
1.000013899999999
 50
89.691659999999985
 51
270.30833999999999
  0
ARC
  5
7D0
  8
0
  6
CONTINUOUS
 62
     7
 10
-586.64832000000001
 20
365.16665999999992
 30
0.0
 40
1.000013899999999
 50
89.691659999999985
 51
270.30833999999999
  0
ARC
  5
7D1
  8
0
  6
CONTINUOUS
 62
     7
 10
-587.73290999999995
 20
415.19167999999991
 30
0.0
 40
1.465004
 50
90.000003000000007
 51
270.0
  0
ARC
  5
7D2
  8
0
  6
CONTINUOUS
 62
     7
 10
-587.86292000000003
 20
405.17666999999989
 30
0.0
 40
1.3300049999999981
 50
90.000003000000007
 51
270.0
  0
ARC
  5
7D3
  8
0
  6
CONTINUOUS
 62
     7
 10
-587.92882999999995
 20
395.17165999999992
 30
0.0
 40
1.2650129999999991
 50
89.735579000000016
 51
270.26441
  0
ARC
  5
7D4
  8
0
  6
CONTINUOUS
 62
     7
 10
-587.92882999999995
 20
385.16665999999992
 30
0.0
 40
1.2700129999999981
 50
89.736616999999995
 51
270.26337000000001
  0
ARC
  5
7D5
  8
0
  6
CONTINUOUS
 62
     7
 10
-587.86292000000003
 20
375.15665000000001
 30
0.0
 40
1.3300049999999981
 50
90.000003000000007
 51
270.0
  0
ARC
  5
7D6
  8
0
  6
CONTINUOUS
 62
     7
 10
-587.73290999999995
 20
365.14162999999991
 30
0.0
 40
1.465004
 50
90.000003000000007
 51
270.0
  0
ARC
  5
7D7
  8
0
  6
CONTINUOUS
 62
     7
 10
-587.51977999999986
 20
355.12160999999992
 30
0.0
 40
1.675014
 50
89.766498999999982
 51
270.23351000000002
  0
ARC
  5
7D8
  8
0
  6
CONTINUOUS
 62
     7
 10
-599.19617000000005
 20
349.19338999999991
 30
0.0
 40
1.0032760000000001
 50
334.19810000000001
 51
359.61810999999977
  0
ARC
  5
7D9
  8
0
  6
CONTINUOUS
 62
     7
 10
-602.19446000000016
 20
349.92592999999982
 30
0.0
 40
0.9984580299999999
 50
179.9595799999999
 51
239.38657000000001
  0
ARC
  5
7DA
  8
0
  6
CONTINUOUS
 62
     7
 10
-585.99426000000005
 20
444.45254999999997
 30
0.0
 40
1.994108999999999
 50
89.675548000000006
 51
169.18777
  0
ARC
  5
7DB
  8
0
  6
CONTINUOUS
 62
     7
 10
-585.94275000000005
 20
447.30142000000001
 30
0.0
 40
1.995282999999997
 50
90.006203999999983
 51
170.90835000000001
  0
ARC
  5
7DC
  8
0
  6
CONTINUOUS
 62
     7
 10
-585.92834000000005
 20
449.14992999999998
 30
0.0
 40
1.9967330000000001
 50
89.843967000000006
 51
171.45387999999991
  0
ARC
  5
7DD
  8
0
  6
CONTINUOUS
 62
     7
 10
-585.90648999999985
 20
450.06106999999997
 30
0.0
 40
1.995633
 50
89.899708000000004
 51
172.06112999999991
  0
ARC
  5
7DE
  8
0
  6
CONTINUOUS
 62
     7
 10
-489.06286999999992
 20
444.44839000000002
 30
0.0
 40
1.9982919999999991
 50
15.032547999999981
 51
90.002631999999977
  0
ARC
  5
7DF
  8
0
  6
CONTINUOUS
 62
     7
 10
-481.53975999999989
 20
429.88942999999989
 30
0.0
 40
1.502775999999999
 50
194.75642999999991
 51
269.87757999999991
  0
ARC
  5
7E0
  8
0
  6
CONTINUOUS
 62
     7
 10
-489.06780999999989
 20
335.89139
 30
0.0
 40
2.0047290000000002
 50
270.13832000000002
 51
344.82650000000001
  0
ARC
  5
7E1
  8
0
  6
CONTINUOUS
 62
     7
 10
-602.19530999999995
 20
342.15127999999982
 30
0.0
 40
0.9976310099999999
 50
180.26780999999991
 51
240.07924
  0
ARC
  5
7E2
  8
0
  6
CONTINUOUS
 62
     7
 10
-602.19727
 20
343.19704999999982
 30
0.0
 40
0.9956849800000001
 50
180.02112999999991
 51
243.40913999999981
  0
ARC
  5
7E3
  8
0
  6
CONTINUOUS
 62
     7
 10
-600.91223000000002
 20
341.41775999999982
 30
0.0
 40
1.001123999999999
 50
239.32782000000009
 51
269.38767999999988
  0
ARC
  5
7E4
  8
0
  6
CONTINUOUS
 62
     7
 10
-600.94713999999976
 20
342.56594999999999
 30
0.0
 40
0.9993420200000001
 50
242.86199999999999
 51
269.66546
  0
ARC
  5
7E5
  8
0
  6
CONTINUOUS
 62
     7
 10
-600.92151000000001
 20
343.53030000000001
 30
0.0
 40
1.0037439999999991
 50
239.37112999999999
 51
270.49189999999987
  0
ARC
  5
7E6
  8
0
  6
CONTINUOUS
 62
     7
 10
-600.93773999999985
 20
344.66726999999992
 30
0.0
 40
1.0006820000000001
 50
241.65062
 51
269.7039299999999
  0
ARC
  5
7E7
  8
0
  6
CONTINUOUS
 62
     7
 10
-600.90015000000005
 20
348.04714999999999
 30
0.0
 40
1.000521999999999
 50
237.14617999999999
 51
270.41343999999998
  0
ARC
  5
7E8
  8
0
  6
CONTINUOUS
 62
     7
 10
-600.92957000000001
 20
349.18765000000002
 30
0.0
 40
1.0010449999999991
 50
240.47187
 51
270.37970999999999
  0
ARC
  5
7E9
  8
0
  6
CONTINUOUS
 62
     7
 10
-602.19446000000016
 20
349.92592999999982
 30
0.0
 40
0.9984580299999999
 50
179.9595799999999
 51
239.38657000000001
  0
ARC
  5
7EA
  8
0
  6
CONTINUOUS
 62
     7
 10
-602.19385
 20
348.89139
 30
0.0
 40
0.9990889999999998
 50
179.69508999999991
 51
236.66209000000001
  0
ARC
  5
7EB
  8
0
  6
CONTINUOUS
 62
     7
 10
-602.19519000000003
 20
345.32790999999992
 30
0.0
 40
0.9977070099999998
 50
180.0740199999999
 51
242.04481000000001
  0
ARC
  5
7EC
  8
0
  6
CONTINUOUS
 62
     7
 10
-602.19421
 20
344.29018999999982
 30
0.0
 40
0.9987969999999998
 50
179.62728000000001
 51
238.70795000000001
  0
ARC
  5
7ED
  8
0
  6
CONTINUOUS
 62
     7
 10
-599.19542999999965
 20
349.18911999999978
 30
0.0
 40
1.002470999999999
 50
270.14107000000001
 51
359.85892999999987
  0
ARC
  5
7EE
  8
0
  6
CONTINUOUS
 62
     7
 10
-599.19701999999995
 20
344.67081000000002
 30
0.0
 40
1.004119999999999
 50
270.23460999999992
 51
359.76538999999991
  0
ARC
  5
7EF
  8
0
  6
CONTINUOUS
 62
     7
 10
-598.69628999999986
 20
342.07010000000002
 30
0.0
 40
0.5033929900000002
 50
270.38490999999982
 51
359.61509999999993
  0
ARC
  5
7F0
  8
0
  6
CONTINUOUS
 62
     7
 10
-598.6925
 20
339.91714000000002
 30
0.0
 40
0.49952301
 50
359.94522999999992
 51
90.054773999999981
  0
ARC
  5
7F1
  8
0
  6
CONTINUOUS
 62
     7
 10
-585.98803999999996
 20
335.88589000000002
 30
0.0
 40
1.9992490000000001
 50
190.64309999999981
 51
270.14742999999999
  0
ARC
  5
7F2
  8
0
  6
CONTINUOUS
 62
     7
 10
-585.9367699999998
 20
333.03701999999993
 30
0.0
 40
2.000420099999999
 50
188.92681999999991
 51
269.82270999999992
  0
ARC
  5
7F3
  8
0
  6
CONTINUOUS
 62
     7
 10
-500.67934999999989
 20
326.16665999999992
 30
0.0
 40
1.5
 50
90.000003000000007
 51
178.5
  0
ARC
  5
7F4
  8
0
  6
CONTINUOUS
 62
     3
 10
-489.17675999999989
 20
329.16665999999992
 30
0.0
 40
1.5
 50
269.99998999999991
 51
327.0
  0
ARC
  5
7F5
  8
0
  6
CONTINUOUS
 62
     7
 10
-586.20630000000006
 20
333.03665000000001
 30
0.0
 40
2.0
 50
188.6296199999999
 51
269.99998999999991
  0
ARC
  5
7F6
  8
0
  6
CONTINUOUS
 62
     7
 10
-586.28673999999978
 20
333.03665000000001
 30
0.0
 40
2.0
 50
187.9504399999999
 51
269.99998999999991
  0
ARC
  5
7F7
  8
0
  6
CONTINUOUS
 62
     7
 10
-563.79480000000001
 20
329.53665000000001
 30
0.0
 40
1.5
 50
1.500002699999998
 51
90.000003000000007
  0
ARC
  5
7F8
  8
0
  6
CONTINUOUS
 62
     7
 10
-552.75427000000002
 20
405.16665999999992
 30
0.0
 40
1.0000056999999991
 50
269.99998999999991
 51
90.000003000000007
  0
ARC
  5
7F9
  8
0
  6
CONTINUOUS
 62
     7
 10
-552.75427000000002
 20
395.16665999999992
 30
0.0
 40
1.0000056999999991
 50
269.99998999999991
 51
90.000003000000007
  0
ARC
  5
7FA
  8
0
  6
CONTINUOUS
 62
     7
 10
-552.75427000000002
 20
385.16665999999992
 30
0.0
 40
1.0000056999999991
 50
269.99998999999991
 51
90.000003000000007
  0
ARC
  5
7FB
  8
0
  6
CONTINUOUS
 62
     7
 10
-552.75427000000002
 20
375.16665999999998
 30
0.0
 40
1.0000056999999991
 50
269.99998999999991
 51
90.000003000000007
  0
ARC
  5
7FC
  8
0
  6
CONTINUOUS
 62
     7
 10
-502.19295999999991
 20
357.66665999999992
 30
0.0
 40
1.5
 50
179.99998999999991
 51
270.0
  0
ARC
  5
7FD
  8
0
  6
CONTINUOUS
 62
     7
 10
-520.19299000000001
 20
357.66665999999992
 30
0.0
 40
1.5
 50
269.99998999999991
 51
0.00000068324516
  0
ARC
  5
7FE
  8
0
  6
CONTINUOUS
 62
     7
 10
-520.17296999999985
 20
357.80666999999983
 30
0.0
 40
1.0
 50
269.99998999999991
 51
0.00000068324625
  0
ARC
  5
7FF
  8
0
  6
CONTINUOUS
 62
     7
 10
-502.21294999999998
 20
357.80666999999983
 30
0.0
 40
1.0
 50
179.99998999999991
 51
270.0
  0
CIRCLE
  5
800
  8
0
  6
CONTINUOUS
 62
     3
 10
-513.69299000000001
 20
418.66665999999992
 30
0.0
 40
1.1000000000000001
  0
CIRCLE
  5
801
  8
0
  6
CONTINUOUS
 62
     3
 10
-513.69299000000001
 20
418.66665999999992
 30
0.0
 40
1.149999999999999
  0
CIRCLE
  5
802
  8
0
  6
CONTINUOUS
 62
     3
 10
-508.69295999999991
 20
418.66665999999992
 30
0.0
 40
1.0
  0
ARC
  5
803
  8
0
  6
CONTINUOUS
 62
     7
 10
-520.19299000000001
 20
417.66665999999992
 30
0.0
 40
1.02
 50
269.99998999999991
 51
0.00000068324403
  0
ARC
  5
804
  8
0
  6
CONTINUOUS
 62
     7
 10
-502.19295999999991
 20
417.66665999999992
 30
0.0
 40
1.02
 50
179.99998999999991
 51
270.0
  0
ARC
  5
805
  8
0
  6
CONTINUOUS
 62
     7
 10
-520.19299000000001
 20
417.66665999999992
 30
0.0
 40
1.5
 50
269.99998999999991
 51
0.00000068324516
  0
ARC
  5
806
  8
0
  6
CONTINUOUS
 62
     7
 10
-502.19295999999991
 20
417.66665999999992
 30
0.0
 40
1.5
 50
179.99998999999991
 51
270.0
  0
CIRCLE
  5
807
  8
0
  6
CONTINUOUS
 62
     3
 10
-508.69295999999991
 20
361.66665999999992
 30
0.0
 40
1.0
  0
CIRCLE
  5
808
  8
0
  6
CONTINUOUS
 62
     3
 10
-513.69299000000001
 20
361.66665999999992
 30
0.0
 40
1.149999999999999
  0
CIRCLE
  5
809
  8
0
  6
CONTINUOUS
 62
     3
 10
-513.69299000000001
 20
361.66665999999992
 30
0.0
 40
1.1000000000000001
  0
ARC
  5
80A
  8
0
  6
CONTINUOUS
 62
     7
 10
-520.19299000000001
 20
362.66665999999998
 30
0.0
 40
1.02
 50
0.0
 51
90.000003000000007
  0
ARC
  5
80B
  8
0
  6
CONTINUOUS
 62
     7
 10
-502.19295999999991
 20
362.66665999999998
 30
0.0
 40
1.02
 50
90.000003000000007
 51
180.00001
  0
ARC
  5
80C
  8
0
  6
CONTINUOUS
 62
     7
 10
-520.19299000000001
 20
362.66665999999998
 30
0.0
 40
1.5
 50
0.0
 51
90.000003000000007
  0
ARC
  5
80D
  8
0
  6
CONTINUOUS
 62
     7
 10
-502.19295999999991
 20
362.66665999999998
 30
0.0
 40
1.5
 50
90.000003000000007
 51
180.00001
  0
ARC
  5
80E
  8
0
  6
CONTINUOUS
 62
     7
 10
-551.52795000000003
 20
375.15665000000001
 30
0.0
 40
1.3300148000000001
 50
269.72941999999989
 51
90.270567000000014
  0
ARC
  5
80F
  8
0
  6
CONTINUOUS
 62
     7
 10
-551.46605999999997
 20
385.16665999999992
 30
0.0
 40
1.2700266
 50
269.62931999999989
 51
90.370669999999961
  0
ARC
  5
810
  8
0
  6
CONTINUOUS
 62
     7
 10
-551.46605999999997
 20
395.17667
 30
0.0
 40
1.2700266
 50
269.62931999999989
 51
90.370669999999961
  0
ARC
  5
811
  8
0
  6
CONTINUOUS
 62
     7
 10
-551.52795000000003
 20
405.18166999999988
 30
0.0
 40
1.3350147999999991
 50
269.73043000000001
 51
90.269555999999994
  0
ARC
  5
812
  8
0
  6
CONTINUOUS
 62
     7
 10
-487.85300000000001
 20
415.16665999999992
 30
0.0
 40
1.0000255999999981
 50
269.58947000000001
 51
90.410531000000006
  0
ARC
  5
813
  8
0
  6
CONTINUOUS
 62
     7
 10
-484.15297999999979
 20
415.19668999999988
 30
0.0
 40
1.460011199999999
 50
269.77525000000003
 51
90.224749999999986
  0
ARC
  5
814
  8
0
  6
CONTINUOUS
 62
     7
 10
-487.85300000000001
 20
365.16665999999992
 30
0.0
 40
1.0000255999999981
 50
269.58947000000001
 51
90.410531000000006
  0
ARC
  5
815
  8
0
  6
CONTINUOUS
 62
     7
 10
-484.15297999999979
 20
365.13662999999991
 30
0.0
 40
1.460011199999999
 50
269.77525000000003
 51
90.224749999999986
  0
ARC
  5
816
  8
0
  6
CONTINUOUS
 62
     7
 10
-502.21294999999998
 20
422.52663999999987
 30
0.0
 40
1.0
 50
90.000003000000007
 51
180.00001
  0
ARC
  5
817
  8
0
  6
CONTINUOUS
 62
     7
 10
-502.19295999999991
 20
422.66665999999992
 30
0.0
 40
1.5
 50
90.000003000000007
 51
180.00001
  0
ARC
  5
818
  8
0
  6
CONTINUOUS
 62
     7
 10
-520.19299000000001
 20
422.66665999999992
 30
0.0
 40
1.5
 50
0.0
 51
90.000003000000007
  0
ARC
  5
819
  8
0
  6
CONTINUOUS
 62
     7
 10
-520.17296999999985
 20
422.52663999999987
 30
0.0
 40
1.0
 50
0.0
 51
90.000003000000007
  0
ARC
  5
81A
  8
0
  6
CONTINUOUS
 62
     7
 10
-440.1929599999998
 20
321.29827999999992
 30
0.0
 40
2.0
 50
180.00001
 51
268.5
  0
ARC
  5
81B
  8
0
  6
CONTINUOUS
 62
     7
 10
-440.1929599999998
 20
459.03502999999989
 30
0.0
 40
2.0
 50
91.500000999999969
 51
180.00001
  0
ARC
  5
81C
  8
0
  6
CONTINUOUS
 62
     7
 10
-445.19299000000001
 20
326.95537999999999
 30
0.0
 40
2.0
 50
180.00001
 51
270.0
  0
ARC
  5
81D
  8
0
  6
CONTINUOUS
 62
     7
 10
-449.19299000000001
 20
342.16635000000002
 30
0.0
 40
2.0
 50
0.0
 51
90.000003000000007
  0
ARC
  5
81E
  8
0
  6
CONTINUOUS
 62
     7
 10
-444.19295999999991
 20
322.95537999999999
 30
0.0
 40
2.0
 50
0.0
 51
90.000003000000007
  0
ARC
  5
81F
  8
0
  6
CONTINUOUS
 62
     7
 10
-444.19295999999991
 20
457.37795999999992
 30
0.0
 40
2.0
 50
270.0
 51
0.0
  0
ARC
  5
820
  8
0
  6
CONTINUOUS
 62
     7
 10
-445.19299000000001
 20
453.37795999999992
 30
0.0
 40
2.0
 50
90.000003000000007
 51
180.00001
  0
ARC
  5
821
  8
0
  6
CONTINUOUS
 62
     7
 10
-449.19299000000001
 20
438.16695999999962
 30
0.0
 40
2.0
 50
270.0
 51
0.0
  0
ARC
  5
822
  8
0
  6
CONTINUOUS
 62
     7
 10
-145.2809399999999
 20
147.34795
 30
0.0
 40
12.0
 50
109.47122
 51
70.528789000000003
  0
CIRCLE
  5
823
  8
0
  6
CONTINUOUS
 62
     7
 10
-145.2809399999999
 20
147.34795
 30
0.0
 40
3.0
  0
CIRCLE
  5
824
  8
0
  6
CONTINUOUS
 62
     7
 10
-145.2809399999999
 20
147.34795
 30
0.0
 40
4.0
  0
ARC
  5
825
  8
0
  6
CONTINUOUS
 62
     7
 10
-450.19299000000001
 20
67.744652000000002
 30
0.0
 40
3.0
 50
0.0
 51
88.499996999999965
  0
ARC
  5
826
  8
0
  6
CONTINUOUS
 62
     7
 10
-445.1929599999998
 20
172.84228999999991
 30
0.0
 40
2.0
 50
179.99998999999991
 51
270.0
  0
ARC
  5
827
  8
0
  6
CONTINUOUS
 62
     7
 10
-440.1929599999998
 20
196.34795
 30
0.0
 40
2.0
 50
90.000003000000007
 51
180.00001
  0
ARC
  5
828
  8
0
  6
CONTINUOUS
 62
     7
 10
-447.19299000000001
 20
189.0304999999999
 30
0.0
 40
5.0
 50
271.49999999999972
 51
0.0
  0
ARC
  5
829
  8
0
  6
CONTINUOUS
 62
     7
 10
-445.1929599999998
 20
62.477890000000002
 30
0.0
 40
2.0
 50
90.000003000000007
 51
110.76622999999979
  0
ARC
  5
82A
  8
0
  6
CONTINUOUS
 62
     7
 10
-449.1929599999998
 20
76.132210000000001
 30
0.0
 40
2.0
 50
0.0
 51
90.000003000000007
  0
ARC
  5
82B
  8
0
  6
CONTINUOUS
 62
     7
 10
-444.19298999999978
 20
168.84228999999991
 30
0.0
 40
2.0
 50
0.0
 51
90.000003000000007
  0
ARC
  5
82C
  8
0
  6
CONTINUOUS
 62
     7
 10
-449.1929599999998
 20
157.3759899999998
 30
0.0
 40
2.0
 50
270.0
 51
0.0
  0
ARC
  5
82D
  8
0
  6
CONTINUOUS
 62
     7
 10
-445.1929599999998
 20
177.01510999999991
 30
0.0
 40
2.0
 50
90.000003000000007
 51
180.00001
  0
ARC
  5
82E
  8
0
  6
CONTINUOUS
 62
     7
 10
-444.19298999999978
 20
181.01510999999991
 30
0.0
 40
2.0
 50
270.0
 51
0.0
  0
ARC
  5
82F
  8
0
  6
CONTINUOUS
 62
     7
 10
-440.1929599999998
 20
58.347957999999998
 30
0.0
 40
2.0
 50
179.99998999999991
 51
270.0
  0
ARC
  5
830
  8
0
  6
CONTINUOUS
 62
     3
 10
-554.69299000000001
 20
149.8477
 30
0.0
 40
5.5
 50
264.78411999999992
 51
5.2159094000000001
  0
ARC
  5
831
  8
0
  6
CONTINUOUS
 62
     7
 10
-602.19292999999982
 20
175.36431999999991
 30
0.0
 40
1.0
 50
120.0264
 51
180.00001
  0
ARC
  5
832
  8
0
  6
CONTINUOUS
 62
     7
 10
-602.19292999999982
 20
174.32201000000001
 30
0.0
 40
1.0
 50
116.91126
 51
180.00001
  0
ARC
  5
833
  8
0
  6
CONTINUOUS
 62
     7
 10
-600.92474000000004
 20
176.09734
 30
0.0
 40
1.0
 50
90.000003000000007
 51
120.0264
  0
ARC
  5
834
  8
0
  6
CONTINUOUS
 62
     7
 10
-600.95366999999987
 20
174.95105000000001
 30
0.0
 40
1.0
 50
90.000003000000007
 51
116.91126
  0
ARC
  5
835
  8
0
  6
CONTINUOUS
 62
     7
 10
-600.91594999999995
 20
173.98956000000001
 30
0.0
 40
1.0
 50
90.000003000000007
 51
120.9666
  0
ARC
  5
836
  8
0
  6
CONTINUOUS
 62
     7
 10
-600.94434000000001
 20
172.84958999999981
 30
0.0
 40
1.0
 50
90.000003000000007
 51
117.92659999999979
  0
ARC
  5
837
  8
0
  6
CONTINUOUS
 62
     7
 10
-600.89435000000003
 20
169.4728199999999
 30
0.0
 40
1.0
 50
90.000003000000007
 51
123.25473
  0
ARC
  5
838
  8
0
  6
CONTINUOUS
 62
     7
 10
-600.92163000000016
 20
168.33288999999999
 30
0.0
 40
1.0
 50
90.000003000000007
 51
120.3594999999999
  0
ARC
  5
839
  8
0
  6
CONTINUOUS
 62
     7
 10
-602.19292999999982
 20
167.5882
 30
0.0
 40
1.0
 50
120.3594999999999
 51
180.00001
  0
ARC
  5
83A
  8
0
  6
CONTINUOUS
 62
     7
 10
-602.19292999999982
 20
168.62128000000001
 30
0.0
 40
1.0
 50
123.25473
 51
180.00001
  0
ARC
  5
83B
  8
0
  6
CONTINUOUS
 62
     7
 10
-602.19292999999982
 20
172.18766999999991
 30
0.0
 40
1.0
 50
117.92659999999979
 51
180.00001
  0
ARC
  5
83C
  8
0
  6
CONTINUOUS
 62
     7
 10
-602.19292999999982
 20
173.2232699999999
 30
0.0
 40
1.0
 50
120.9666
 51
180.00001
  0
ARC
  5
83D
  8
0
  6
CONTINUOUS
 62
     7
 10
-600.98828000000003
 20
162.0371699999998
 30
0.0
 40
1.0
 50
90.000003000000007
 51
113.12703
  0
ARC
  5
83E
  8
0
  6
CONTINUOUS
 62
     7
 10
-601.04265999999996
 20
160.09104999999991
 30
0.0
 40
1.0
 50
90.000003000000007
 51
107.0976299999999
  0
ARC
  5
83F
  8
0
  6
CONTINUOUS
 62
     7
 10
-602.19292999999982
 20
159.73723000000001
 30
0.0
 40
1.0
 50
107.0976299999999
 51
180.00001
  0
ARC
  5
840
  8
0
  6
CONTINUOUS
 62
     7
 10
-602.19292999999982
 20
161.52268999999981
 30
0.0
 40
1.0
 50
113.12703
 51
180.00001
  0
ARC
  5
841
  8
0
  6
CONTINUOUS
 62
     7
 10
-602.19292999999982
 20
152.3479599999998
 30
0.0
 40
1.0
 50
90.000003000000007
 51
180.00001
  0
ARC
  5
842
  8
0
  6
CONTINUOUS
 62
     7
 10
-602.19292999999982
 20
152.3479599999998
 30
0.0
 40
1.0
 50
179.99998999999991
 51
270.0
  0
ARC
  5
843
  8
0
  6
CONTINUOUS
 62
     7
 10
-602.19292999999982
 20
142.34796
 30
0.0
 40
1.0
 50
90.000003000000007
 51
180.00001
  0
ARC
  5
844
  8
0
  6
CONTINUOUS
 62
     7
 10
-602.19292999999982
 20
142.34796
 30
0.0
 40
1.0
 50
179.99998999999991
 51
270.0
  0
ARC
  5
845
  8
0
  6
CONTINUOUS
 62
     7
 10
-602.19292999999982
 20
132.34794999999991
 30
0.0
 40
1.0
 50
90.000003000000007
 51
180.00001
  0
ARC
  5
846
  8
0
  6
CONTINUOUS
 62
     7
 10
-602.19292999999982
 20
132.34794999999991
 30
0.0
 40
1.0
 50
179.99998999999991
 51
270.0
  0
ARC
  5
847
  8
0
  6
CONTINUOUS
 62
     7
 10
-599.19292999999982
 20
130.3479599999998
 30
0.0
 40
1.0
 50
0.0
 51
90.000003000000007
  0
ARC
  5
848
  8
0
  6
CONTINUOUS
 62
     7
 10
-599.19292999999982
 20
134.3479599999998
 30
0.0
 40
1.0
 50
270.0
 51
0.0
  0
ARC
  5
849
  8
0
  6
CONTINUOUS
 62
     7
 10
-599.19292999999982
 20
140.34796
 30
0.0
 40
1.0
 50
0.0
 51
90.000003000000007
  0
ARC
  5
84A
  8
0
  6
CONTINUOUS
 62
     7
 10
-599.19292999999982
 20
144.34795
 30
0.0
 40
1.0
 50
270.0
 51
0.0
  0
ARC
  5
84B
  8
0
  6
CONTINUOUS
 62
     7
 10
-599.19292999999982
 20
150.34795
 30
0.0
 40
1.0
 50
0.0
 51
90.000003000000007
  0
ARC
  5
84C
  8
0
  6
CONTINUOUS
 62
     7
 10
-599.19292999999982
 20
154.34795
 30
0.0
 40
1.0
 50
270.0
 51
0.0
  0
ARC
  5
84D
  8
0
  6
CONTINUOUS
 62
     7
 10
-599.19292999999982
 20
160.09104999999991
 30
0.0
 40
1.0
 50
0.0
 51
90.000003000000007
  0
ARC
  5
84E
  8
0
  6
CONTINUOUS
 62
     7
 10
-599.19292999999982
 20
168.33288999999999
 30
0.0
 40
1.0
 50
0.0
 51
90.000003000000007
  0
ARC
  5
84F
  8
0
  6
CONTINUOUS
 62
     7
 10
-598.89301
 20
163.73716999999991
 30
0.0
 40
0.6999999900000004
 50
270.0
 51
0.0
  0
ARC
  5
850
  8
0
  6
CONTINUOUS
 62
     7
 10
-599.19292999999982
 20
172.84958999999981
 30
0.0
 40
1.0
 50
0.0
 51
90.000003000000007
  0
ARC
  5
851
  8
0
  6
CONTINUOUS
 62
     7
 10
-598.69298999999978
 20
175.4510299999998
 30
0.0
 40
0.5
 50
0.0
 51
90.000003000000007
  0
ARC
  5
852
  8
0
  6
CONTINUOUS
 62
     7
 10
-598.69298999999978
 20
177.5973399999998
 30
0.0
 40
0.5
 50
270.0
 51
0.0
  0
ARC
  5
853
  8
0
  6
CONTINUOUS
 62
     7
 10
-586.64362000000006
 20
92.347960999999998
 30
0.0
 40
1.0
 50
90.000003000000007
 51
270.0
  0
ARC
  5
854
  8
0
  6
CONTINUOUS
 62
     7
 10
-500.89296999999999
 20
159.7151299999999
 30
0.0
 40
1.0
 50
90.000003000000007
 51
180.00001
  0
ARC
  5
855
  8
0
  6
CONTINUOUS
 62
     7
 10
-500.89296999999999
 20
94.980698000000004
 30
0.0
 40
1.0
 50
179.99998999999991
 51
270.0
  0
ARC
  5
856
  8
0
  6
CONTINUOUS
 62
     7
 10
-484.37090999999981
 20
162.3930499999999
 30
0.0
 40
1.6779127
 50
270.0
 51
90.000003000000007
  0
ARC
  5
857
  8
0
  6
CONTINUOUS
 62
     7
 10
-487.84862999999962
 20
162.34795
 30
0.0
 40
1.0
 50
270.0
 51
90.000003000000007
  0
ARC
  5
858
  8
0
  6
CONTINUOUS
 62
     7
 10
-487.84862999999962
 20
92.347960999999998
 30
0.0
 40
1.0
 50
270.0
 51
90.000003000000007
  0
ARC
  5
859
  8
0
  6
CONTINUOUS
 62
     7
 10
-484.37090999999981
 20
92.302779999999998
 30
0.0
 40
1.6779127
 50
270.0
 51
90.000003000000007
  0
ARC
  5
85A
  8
0
  6
CONTINUOUS
 62
     7
 10
-599.19292999999982
 20
94.604782
 30
0.0
 40
1.0
 50
270.0
 51
0.0
  0
ARC
  5
85B
  8
0
  6
CONTINUOUS
 62
     7
 10
-599.19292999999982
 20
104.3479599999999
 30
0.0
 40
1.0
 50
270.0
 51
0.0
  0
ARC
  5
85C
  8
0
  6
CONTINUOUS
 62
     7
 10
-599.19292999999982
 20
100.34795
 30
0.0
 40
1.0
 50
0.0
 51
90.000003000000007
  0
ARC
  5
85D
  8
0
  6
CONTINUOUS
 62
     7
 10
-598.89301
 20
90.958740000000006
 30
0.0
 40
0.6999999900000004
 50
0.0
 51
90.000003000000007
  0
ARC
  5
85E
  8
0
  6
CONTINUOUS
 62
     7
 10
-600.98828000000003
 20
92.658691000000005
 30
0.0
 40
1.0
 50
246.87297000000001
 51
270.0
  0
ARC
  5
85F
  8
0
  6
CONTINUOUS
 62
     7
 10
-601.04265999999996
 20
94.604782
 30
0.0
 40
1.0
 50
252.90236999999999
 51
270.0
  0
ARC
  5
860
  8
0
  6
CONTINUOUS
 62
     7
 10
-602.19292999999982
 20
94.958679000000004
 30
0.0
 40
1.0
 50
179.99998999999991
 51
252.90236999999999
  0
ARC
  5
861
  8
0
  6
CONTINUOUS
 62
     7
 10
-602.19292999999982
 20
93.173218000000006
 30
0.0
 40
1.0
 50
179.99998999999991
 51
246.8729799999999
  0
ARC
  5
862
  8
0
  6
CONTINUOUS
 62
     7
 10
-602.19292999999982
 20
102.34795
 30
0.0
 40
1.0
 50
179.99998999999991
 51
270.0
  0
ARC
  5
863
  8
0
  6
CONTINUOUS
 62
     7
 10
-602.19292999999982
 20
102.34795
 30
0.0
 40
1.0
 50
90.000003000000007
 51
180.00001
  0
ARC
  5
864
  8
0
  6
CONTINUOUS
 62
     7
 10
-602.19292999999982
 20
112.3479499999999
 30
0.0
 40
1.0
 50
179.99998999999991
 51
270.0
  0
ARC
  5
865
  8
0
  6
CONTINUOUS
 62
     7
 10
-602.19292999999982
 20
112.3479499999999
 30
0.0
 40
1.0
 50
90.000003000000007
 51
180.00001
  0
ARC
  5
866
  8
0
  6
CONTINUOUS
 62
     7
 10
-602.19292999999982
 20
122.34796
 30
0.0
 40
1.0
 50
179.99998999999991
 51
270.0
  0
ARC
  5
867
  8
0
  6
CONTINUOUS
 62
     7
 10
-602.19292999999982
 20
122.34796
 30
0.0
 40
1.0
 50
90.000003000000007
 51
180.00001
  0
ARC
  5
868
  8
0
  6
CONTINUOUS
 62
     7
 10
-599.19292999999982
 20
124.34795
 30
0.0
 40
1.0
 50
270.0
 51
0.0
  0
ARC
  5
869
  8
0
  6
CONTINUOUS
 62
     7
 10
-599.19292999999982
 20
120.34795
 30
0.0
 40
1.0
 50
0.0
 51
90.000003000000007
  0
ARC
  5
86A
  8
0
  6
CONTINUOUS
 62
     7
 10
-599.19292999999982
 20
114.3479499999999
 30
0.0
 40
1.0
 50
270.0
 51
0.0
  0
ARC
  5
86B
  8
0
  6
CONTINUOUS
 62
     7
 10
-599.19292999999982
 20
110.34796
 30
0.0
 40
1.0
 50
0.0
 51
90.000003000000007
  0
ARC
  5
86C
  8
0
  6
CONTINUOUS
 62
     7
 10
-503.69295999999991
 20
98.847954000000016
 30
0.0
 40
1.5
 50
270.0
 51
0.0
  0
ARC
  5
86D
  8
0
  6
CONTINUOUS
 62
     7
 10
-503.69295999999991
 20
155.84794999999991
 30
0.0
 40
1.5
 50
0.0
 51
90.000003000000007
  0
ARC
  5
86E
  8
0
  6
CONTINUOUS
 62
     7
 10
-587.51568999999995
 20
162.3930499999999
 30
0.0
 40
1.6779127
 50
90.000003000000007
 51
270.0
  0
ARC
  5
86F
  8
0
  6
CONTINUOUS
 62
     7
 10
-586.64362000000006
 20
162.34795
 30
0.0
 40
1.0
 50
90.000003000000007
 51
270.0
  0
ARC
  5
870
  8
0
  6
CONTINUOUS
 62
     7
 10
-586.64362000000006
 20
152.3479599999998
 30
0.0
 40
1.0
 50
90.000003000000007
 51
270.0
  0
ARC
  5
871
  8
0
  6
CONTINUOUS
 62
     7
 10
-586.64362000000006
 20
142.34796
 30
0.0
 40
1.0
 50
90.000003000000007
 51
270.0
  0
ARC
  5
872
  8
0
  6
CONTINUOUS
 62
     7
 10
-586.64362000000006
 20
132.34794999999991
 30
0.0
 40
1.0
 50
90.000003000000007
 51
270.0
  0
ARC
  5
873
  8
0
  6
CONTINUOUS
 62
     7
 10
-586.64362000000006
 20
122.34796
 30
0.0
 40
1.0
 50
90.000003000000007
 51
270.0
  0
ARC
  5
874
  8
0
  6
CONTINUOUS
 62
     7
 10
-586.64362000000006
 20
112.3479499999999
 30
0.0
 40
1.0
 50
90.000003000000007
 51
270.0
  0
ARC
  5
875
  8
0
  6
CONTINUOUS
 62
     7
 10
-586.64362000000006
 20
102.34795
 30
0.0
 40
1.0
 50
90.000003000000007
 51
270.0
  0
ARC
  5
876
  8
0
  6
CONTINUOUS
 62
     7
 10
-587.73144999999965
 20
152.37260000000001
 30
0.0
 40
1.4614868000000001
 50
90.000003000000007
 51
270.0
  0
ARC
  5
877
  8
0
  6
CONTINUOUS
 62
     7
 10
-587.86199999999985
 20
142.36052000000001
 30
0.0
 40
1.330932599999999
 50
90.000003000000007
 51
270.0
  0
ARC
  5
878
  8
0
  6
CONTINUOUS
 62
     7
 10
-587.92407000000003
 20
132.35178999999991
 30
0.0
 40
1.268920899999999
 50
90.000003000000007
 51
270.0
  0
ARC
  5
879
  8
0
  6
CONTINUOUS
 62
     7
 10
-587.92407000000003
 20
122.3440499999999
 30
0.0
 40
1.268920899999999
 50
90.000003000000007
 51
270.0
  0
ARC
  5
87A
  8
0
  6
CONTINUOUS
 62
     7
 10
-587.86199999999985
 20
112.3353899999999
 30
0.0
 40
1.330932599999999
 50
90.000003000000007
 51
270.0
  0
ARC
  5
87B
  8
0
  6
CONTINUOUS
 62
     7
 10
-587.73144999999965
 20
102.32323
 30
0.0
 40
1.461502099999997
 50
90.000003000000007
 51
270.0
  0
ARC
  5
87C
  8
0
  6
CONTINUOUS
 62
     7
 10
-587.51500999999985
 20
92.302779999999998
 30
0.0
 40
1.6779174999999991
 50
90.000003000000007
 51
270.0
  0
ARC
  5
87D
  8
0
  6
CONTINUOUS
 62
     7
 10
-599.19292999999982
 20
86.363022000000015
 30
0.0
 40
1.0
 50
334.63675999999998
 51
0.0
  0
ARC
  5
87E
  8
0
  6
CONTINUOUS
 62
     7
 10
-602.19292999999982
 20
87.107712000000006
 30
0.0
 40
1.0
 50
179.99998999999991
 51
239.64048999999989
  0
ARC
  5
87F
  8
0
  6
CONTINUOUS
 62
     7
 10
-585.98657000000003
 20
181.63121000000001
 30
0.0
 40
2.0
 50
90.000003000000007
 51
169.28431
  0
ARC
  5
880
  8
0
  6
CONTINUOUS
 62
     7
 10
-563.69299000000001
 20
164.0709699999999
 30
0.0
 40
1.5
 50
90.000003000000007
 51
180.00001
  0
ARC
  5
881
  8
0
  6
CONTINUOUS
 62
     7
 10
-585.93793000000005
 20
184.4775799999999
 30
0.0
 40
2.0
 50
90.000003000000007
 51
170.91503
  0
ARC
  5
882
  8
0
  6
CONTINUOUS
 62
     7
 10
-585.92455999999981
 20
186.3253
 30
0.0
 40
2.0
 50
90.000003000000007
 51
171.3566099999999
  0
ARC
  5
883
  8
0
  6
CONTINUOUS
 62
     7
 10
-585.90331999999978
 20
187.2358199999999
 30
0.0
 40
2.0
 50
90.000003000000007
 51
172.05596
  0
ARC
  5
884
  8
0
  6
CONTINUOUS
 62
     7
 10
-552.1929899999999
 20
184.4775799999999
 30
0.0
 40
2.0
 50
0.0
 51
90.000003000000007
  0
ARC
  5
885
  8
0
  6
CONTINUOUS
 62
     7
 10
-552.1929899999999
 20
186.3253
 30
0.0
 40
2.0
 50
0.0
 51
90.000003000000007
  0
ARC
  5
886
  8
0
  6
CONTINUOUS
 62
     7
 10
-552.1929899999999
 20
187.2358199999999
 30
0.0
 40
2.0
 50
0.0
 51
90.000003000000007
  0
ARC
  5
887
  8
0
  6
CONTINUOUS
 62
     7
 10
-489.06682999999992
 20
181.63121000000001
 30
0.0
 40
2.0
 50
15.0
 51
90.000003000000007
  0
ARC
  5
888
  8
0
  6
CONTINUOUS
 62
     7
 10
-481.54195999999962
 20
167.0709699999999
 30
0.0
 40
1.5
 50
195.00001
 51
270.0
  0
ARC
  5
889
  8
0
  6
CONTINUOUS
 62
     7
 10
-585.90331999999978
 20
67.460014000000001
 30
0.0
 40
2.0
 50
187.9440399999998
 51
270.0
  0
ARC
  5
88A
  8
0
  6
CONTINUOUS
 62
     7
 10
-552.1929899999999
 20
67.460014000000001
 30
0.0
 40
2.0
 50
270.0
 51
0.0
  0
ARC
  5
88B
  8
0
  6
CONTINUOUS
 62
     7
 10
-489.06682999999992
 20
73.064689999999985
 30
0.0
 40
2.0
 50
270.0
 51
345.0
  0
ARC
  5
88C
  8
0
  6
CONTINUOUS
 62
     7
 10
-552.1929899999999
 20
68.370529000000005
 30
0.0
 40
2.0
 50
270.0
 51
0.0
  0
ARC
  5
88D
  8
0
  6
CONTINUOUS
 62
     7
 10
-552.1929899999999
 20
70.218315000000004
 30
0.0
 40
2.0
 50
270.0
 51
0.0
  0
ARC
  5
88E
  8
0
  6
CONTINUOUS
 62
     7
 10
-602.19292999999982
 20
79.331543000000025
 30
0.0
 40
1.0
 50
179.99998999999991
 51
239.97361000000001
  0
ARC
  5
88F
  8
0
  6
CONTINUOUS
 62
     7
 10
-602.19292999999982
 20
80.373894000000007
 30
0.0
 40
1.0
 50
179.99998999999991
 51
243.08874999999981
  0
ARC
  5
890
  8
0
  6
CONTINUOUS
 62
     7
 10
-600.92474000000004
 20
78.598571999999976
 30
0.0
 40
1.0
 50
239.9736
 51
270.0
  0
ARC
  5
891
  8
0
  6
CONTINUOUS
 62
     7
 10
-600.95366999999987
 20
79.744857999999979
 30
0.0
 40
1.0
 50
243.08874
 51
270.0
  0
ARC
  5
892
  8
0
  6
CONTINUOUS
 62
     7
 10
-600.91594999999995
 20
80.706299000000001
 30
0.0
 40
1.0
 50
239.0334
 51
270.0
  0
ARC
  5
893
  8
0
  6
CONTINUOUS
 62
     7
 10
-600.94434000000001
 20
81.846312999999967
 30
0.0
 40
1.0
 50
242.07339999999999
 51
270.0
  0
ARC
  5
894
  8
0
  6
CONTINUOUS
 62
     7
 10
-600.89435000000003
 20
85.223006999999981
 30
0.0
 40
1.0
 50
236.74527
 51
270.0
  0
ARC
  5
895
  8
0
  6
CONTINUOUS
 62
     7
 10
-600.92163000000016
 20
86.363022000000015
 30
0.0
 40
1.0
 50
239.6405
 51
270.0
  0
ARC
  5
896
  8
0
  6
CONTINUOUS
 62
     7
 10
-602.19292999999982
 20
87.107712000000006
 30
0.0
 40
1.0
 50
179.99998999999991
 51
239.64048999999989
  0
ARC
  5
897
  8
0
  6
CONTINUOUS
 62
     7
 10
-602.19292999999982
 20
86.074584999999985
 30
0.0
 40
1.0
 50
179.99998999999991
 51
236.74527999999981
  0
ARC
  5
898
  8
0
  6
CONTINUOUS
 62
     7
 10
-602.19292999999982
 20
82.508170999999976
 30
0.0
 40
1.0
 50
179.99998999999991
 51
242.07341
  0
ARC
  5
899
  8
0
  6
CONTINUOUS
 62
     7
 10
-602.19292999999982
 20
81.472594999999998
 30
0.0
 40
1.0
 50
179.99998999999991
 51
239.0334
  0
ARC
  5
89A
  8
0
  6
CONTINUOUS
 62
     7
 10
-599.19292999999982
 20
86.363022000000015
 30
0.0
 40
1.0
 50
270.0
 51
0.0
  0
ARC
  5
89B
  8
0
  6
CONTINUOUS
 62
     7
 10
-599.19292999999982
 20
81.846312999999967
 30
0.0
 40
1.0
 50
270.0
 51
0.0
  0
ARC
  5
89C
  8
0
  6
CONTINUOUS
 62
     7
 10
-598.69298999999978
 20
79.244865000000004
 30
0.0
 40
0.5
 50
270.0
 51
0.0
  0
ARC
  5
89D
  8
0
  6
CONTINUOUS
 62
     7
 10
-598.69298999999978
 20
77.098571999999976
 30
0.0
 40
0.5
 50
0.0
 51
90.000003000000007
  0
ARC
  5
89E
  8
0
  6
CONTINUOUS
 62
     7
 10
-585.98657000000003
 20
73.064689999999985
 30
0.0
 40
2.0
 50
190.71569
 51
270.0
  0
ARC
  5
89F
  8
0
  6
CONTINUOUS
 62
     7
 10
-585.93793000000005
 20
70.218315000000004
 30
0.0
 40
2.0
 50
189.08497
 51
270.0
  0
ARC
  5
8A0
  8
0
  6
CONTINUOUS
 62
     7
 10
-585.92455999999981
 20
68.370529000000005
 30
0.0
 40
2.0
 50
188.6433899999999
 51
270.0
  0
ARC
  5
8A1
  8
0
  6
CONTINUOUS
 62
     3
 10
-509.69296000000003
 20
104.8482099999999
 30
0.0
 40
5.5
 50
84.784087999999983
 51
185.21596
  0
ARC
  5
8A2
  8
0
  6
CONTINUOUS
 62
     7
 10
-373.19299000000001
 20
173.37671
 30
0.0
 40
3.0
 50
0.0
 51
39.999999000000003
  0
ARC
  5
8A3
  8
0
  6
CONTINUOUS
 62
     7
 10
-398.19296000000003
 20
67.758422999999993
 30
0.0
 40
1.0
 50
91.500000999999969
 51
180.00001
  0
ARC
  5
8A4
  8
0
  6
CONTINUOUS
 62
     7
 10
-212.5661799999998
 20
157.18129999999979
 30
0.0
 40
2.0
 50
351.68540999999982
 51
79.999998000000005
  0
ARC
  5
8A5
  8
0
  6
CONTINUOUS
 62
     7
 10
-145.2809399999999
 20
147.34795
 30
0.0
 40
66.0
 50
34.109953999999988
 51
145.89004
  0
ARC
  5
8A6
  8
0
  6
CONTINUOUS
 62
     7
 10
-77.995682000000002
 20
157.18129999999979
 30
0.0
 40
2.0
 50
100.0
 51
188.3145899999999
  0
ARC
  5
8A7
  8
0
  6
CONTINUOUS
 62
     7
 10
-202.41036999999989
 20
186.04198
 30
0.0
 40
3.0
 50
265.15681999999998
 51
325.89004999999992
  0
ARC
  5
8A8
  8
0
  6
CONTINUOUS
 62
     7
 10
-77.995682000000002
 20
157.18129999999979
 30
0.0
 40
2.0
 50
8.3145874000000006
 51
100.0
  0
ARC
  5
8A9
  8
0
  6
CONTINUOUS
 62
     7
 10
-86.969489999999979
 20
172.09194999999991
 30
0.0
 40
11.0
 50
311.14393999999999
 51
94.843180000000004
  0
ARC
  5
8AA
  8
0
  6
CONTINUOUS
 62
     7
 10
-406.19298999999978
 20
202.1083799999999
 30
0.0
 40
3.0
 50
271.49999999999972
 51
0.0
  0
ARC
  5
8AB
  8
0
  6
CONTINUOUS
 62
     7
 10
-199.8120099999999
 20
187.97255999999999
 30
0.0
 40
2.0
 50
235.0
 51
323.31459000000001
  0
ARC
  5
8AC
  8
0
  6
CONTINUOUS
 62
     7
 10
-398.19296000000003
 20
211.42192
 30
0.0
 40
5.0
 50
91.999998000000005
 51
180.00001
  0
ARC
  5
8AD
  8
0
  6
CONTINUOUS
 62
     7
 10
-212.80370999999991
 20
161.5491199999999
 30
0.0
 40
3.0
 50
348.12284
 51
48.856062999999999
  0
ARC
  5
8AE
  8
0
  6
CONTINUOUS
 62
     7
 10
-77.758147999999977
 20
161.5491199999999
 30
0.0
 40
3.0
 50
131.1439399999999
 51
191.87716
  0
ARC
  5
8AF
  8
0
  6
CONTINUOUS
 62
     7
 10
-384.19299000000001
 20
83.066620000000015
 30
0.0
 40
3.0
 50
270.0
 51
0.0
  0
ARC
  5
8B0
  8
0
  6
CONTINUOUS
 62
     7
 10
-203.59238999999991
 20
172.09194999999991
 30
0.0
 40
11.0
 50
85.156818000000015
 51
228.85606000000001
  0
ARC
  5
8B1
  8
0
  6
CONTINUOUS
 62
     7
 10
-145.2809399999999
 20
147.34795
 30
0.0
 40
70.0
 50
30.534627000000011
 51
149.46537000000001
  0
ARC
  5
8B2
  8
0
  6
CONTINUOUS
 62
     7
 10
-145.2809399999999
 20
147.34795
 30
0.0
 40
66.0
 50
0.0
 51
11.877162
  0
ARC
  5
8B3
  8
0
  6
CONTINUOUS
 62
     7
 10
-145.2809399999999
 20
127.34795
 30
0.0
 40
71.0
 50
301.50671999999992
 51
305.22421000000008
  0
ARC
  5
8B4
  8
0
  6
CONTINUOUS
 62
     7
 10
-90.749846999999988
 20
187.97255999999999
 30
0.0
 40
2.0
 50
305.0
 51
36.685414000000002
  0
ARC
  5
8B5
  8
0
  6
CONTINUOUS
 62
     7
 10
-145.2809399999999
 20
147.34795
 30
0.0
 40
52.000008000000001
 50
137.75567000000001
 51
174.78408999999991
  0
ARC
  5
8B6
  8
0
  6
CONTINUOUS
 62
     7
 10
-104.7923799999998
 20
195.61469
 30
0.0
 40
3.0
 50
315.0
 51
50.008387999999997
  0
ARC
  5
8B7
  8
0
  6
CONTINUOUS
 62
     7
 10
-145.2809399999999
 20
147.34795
 30
0.0
 40
52.000008000000001
 50
5.215907699999998
 51
42.244334000000009
  0
ARC
  5
8B8
  8
0
  6
CONTINUOUS
 62
     7
 10
-383.19296000000003
 20
230.06735
 30
0.0
 40
2.0
 50
91.999998000000005
 51
180.00001
  0
ARC
  5
8B9
  8
0
  6
CONTINUOUS
 62
     7
 10
-212.5661799999998
 20
157.18129999999979
 30
0.0
 40
2.0
 50
79.999998000000005
 51
171.68540999999991
  0
ARC
  5
8BA
  8
0
  6
CONTINUOUS
 62
     7
 10
-145.2809399999999
 20
147.34795
 30
0.0
 40
66.0
 50
168.12284
 51
0.000010017913
  0
ARC
  5
8BB
  8
0
  6
CONTINUOUS
 62
     7
 10
-199.8120099999999
 20
187.97255999999999
 30
0.0
 40
2.0
 50
143.31458000000001
 51
235.00001
  0
ARC
  5
8BC
  8
0
  6
CONTINUOUS
 62
     7
 10
-90.280929999999998
 20
125.34796
 30
0.0
 40
3.0
 50
179.99998999999991
 51
270.0
  0
ARC
  5
8BD
  8
0
  6
CONTINUOUS
 62
     7
 10
-97.014206000000001
 20
187.8365
 30
0.0
 40
3.0
 50
39.991610999999999
 51
135.0
  0
ARC
  5
8BE
  8
0
  6
CONTINUOUS
 62
     7
 10
-145.2809399999999
 20
147.34795
 30
0.0
 40
70.0
 50
0.0
 51
15.452487
  0
ARC
  5
8BF
  8
0
  6
CONTINUOUS
 62
     7
 10
-88.151488999999998
 20
186.04198
 30
0.0
 40
3.0
 50
214.10995999999989
 51
274.8431799999999
  0
ARC
  5
8C0
  8
0
  6
CONTINUOUS
 62
     7
 10
-398.19296000000003
 20
166.19279
 30
0.0
 40
5.0
 50
179.99998999999991
 51
270.0
  0
ARC
  5
8C1
  8
0
  6
CONTINUOUS
 62
     7
 10
-145.2809399999999
 20
147.34795
 30
0.0
 40
70.0
 50
164.5475099999999
 51
0.000010017913
  0
ARC
  5
8C2
  8
0
  6
CONTINUOUS
 62
     7
 10
-383.19296000000003
 20
67.128524999999996
 30
0.0
 40
2.0
 50
179.99998999999991
 51
268.00000999999992
  0
ARC
  5
8C3
  8
0
  6
CONTINUOUS
 62
     7
 10
-384.19299000000001
 20
214.12926999999999
 30
0.0
 40
3.0
 50
0.0
 51
90.000003000000007
  0
ARC
  5
8C4
  8
0
  6
CENTER
 62
     7
 10
-145.2809399999999
 20
147.34795
 30
0.0
 40
100.00001
 50
219.19416000000001
 51
230.3717799999998
  0
ARC
  5
8C5
  8
0
  6
CENTER
 62
     7
 10
-145.2809399999999
 20
147.34795
 30
0.0
 40
100.00001
 50
129.21499
 51
141.01483999999991
  0
CIRCLE
  5
8C6
  8
0
  6
CONTINUOUS
 62
     7
 10
-215.99161000000001
 20
218.05861999999999
 30
0.0
 40
6.0
  0
ARC
  5
8C7
  8
0
  6
CONTINUOUS
 62
     7
 10
-218.02698000000001
 20
220.09400999999991
 30
0.0
 40
10.0
 50
92.999999000000017
 51
176.99999
  0
CIRCLE
  5
8C8
  8
0
  6
CONTINUOUS
 62
     7
 10
-215.99161000000001
 20
76.637282999999982
 30
0.0
 40
6.0
  0
ARC
  5
8C9
  8
0
  6
CENTER
 62
     7
 10
-145.2809399999999
 20
147.34795
 30
0.0
 40
100.00001
 50
308.97462999999982
 51
320.58587999999992
  0
CIRCLE
  5
8CA
  8
0
  6
CONTINUOUS
 62
     7
 10
-74.570258999999965
 20
76.637282999999982
 30
0.0
 40
6.0
  0
ARC
  5
8CB
  8
0
  6
CENTER
 62
     7
 10
-145.2809399999999
 20
147.34795
 30
0.0
 40
100.00001
 50
39.437403000000003
 51
50.446584999999999
  0
CIRCLE
  5
8CC
  8
0
  6
CONTINUOUS
 62
     7
 10
-74.570258999999965
 20
218.05861999999999
 30
0.0
 40
6.0
  0
ARC
  5
8CD
  8
0
  6
CONTINUOUS
 62
     7
 10
-72.534881999999982
 20
220.09400999999991
 30
0.0
 40
10.0
 50
3.0000000999999981
 51
86.999998999999988
  0
ARC
  5
8CE
  8
0
  6
CONTINUOUS
 62
     7
 10
-145.2809399999999
 20
147.34795
 30
0.0
 40
33.0
 50
0.0
 51
180.00001
  0
ARC
  5
8CF
  8
0
  6
CONTINUOUS
 62
     7
 10
-200.2809399999999
 20
125.34796
 30
0.0
 40
3.0
 50
270.0
 51
0.0
  0
ARC
  5
8D0
  8
0
  6
CONTINUOUS
 62
     7
 10
-166.5488399999999
 20
176.39405999999991
 30
0.0
 40
3.0
 50
225.0
 51
306.21206000000001
  0
ARC
  5
8D1
  8
0
  6
CONTINUOUS
 62
     7
 10
-208.08219999999989
 20
152.3479599999998
 30
0.0
 40
3.0
 50
175.44793000000001
 51
270.0
  0
ARC
  5
8D2
  8
0
  6
CONTINUOUS
 62
     7
 10
-208.08219999999989
 20
142.34796
 30
0.0
 40
3.0
 50
90.000003000000007
 51
184.55206999999999
  0
ARC
  5
8D3
  8
0
  6
CONTINUOUS
 62
     7
 10
-145.2809399999999
 20
147.34795
 30
0.0
 40
52.000008000000001
 50
47.755664999999993
 51
84.784093999999982
  0
ARC
  5
8D4
  8
0
  6
CONTINUOUS
 62
     7
 10
-124.01302
 20
176.39405999999991
 30
0.0
 40
3.0
 50
233.78793999999999
 51
315.0
  0
ARC
  5
8D5
  8
0
  6
CONTINUOUS
 62
     7
 10
-193.54765
 20
187.8365
 30
0.0
 40
3.0
 50
45.00000099999999
 51
140.00838999999999
  0
ARC
  5
8D6
  8
0
  6
CONTINUOUS
 62
     7
 10
-116.23483
 20
168.61588
 30
0.0
 40
3.0
 50
135.0
 51
216.21206000000009
  0
ARC
  5
8D7
  8
0
  6
CONTINUOUS
 62
     7
 10
-185.76949999999991
 20
195.61469
 30
0.0
 40
3.0
 50
129.99161000000001
 51
225.0
  0
ARC
  5
8D8
  8
0
  6
CONTINUOUS
 62
     7
 10
-382.19299000000001
 20
189.2996099999998
 30
0.0
 40
3.0
 50
179.99998999999991
 51
270.0
  0
ARC
  5
8D9
  8
0
  6
CONTINUOUS
 62
     7
 10
-382.19299000000001
 20
100.19362
 30
0.0
 40
3.0
 50
90.000003000000007
 51
180.00001
  0
ARC
  5
8DA
  8
0
  6
CONTINUOUS
 62
     7
 10
-184.9984399999999
 20
62.551968000000002
 30
0.0
 40
5.0
 50
344.98363999999992
 51
56.872543000000007
  0
ARC
  5
8DB
  8
0
  6
CONTINUOUS
 62
     7
 10
-173.40819999999991
 20
59.44283699999999
 30
0.0
 40
7.0000004999999987
 50
164.91944000000001
 51
270.0
  0
ARC
  5
8DC
  8
0
  6
CONTINUOUS
 62
     7
 10
-105.5634399999999
 20
62.551968000000002
 30
0.0
 40
5.0
 50
121.50672999999991
 51
195.01634999999999
  0
ARC
  5
8DD
  8
0
  6
CONTINUOUS
 62
     7
 10
-204.31482999999989
 20
125.34796
 30
0.0
 40
3.0
 50
200.43878000000001
 51
270.0
  0
ARC
  5
8DE
  8
0
  6
CONTINUOUS
 62
     7
 10
-86.247046999999981
 20
125.34796
 30
0.0
 40
3.0
 50
270.0
 51
339.56121999999982
  0
ARC
  5
8DF
  8
0
  6
CONTINUOUS
 62
     7
 10
-183.28093000000001
 20
127.34795
 30
0.0
 40
5.0
 50
270.0
 51
0.0000000000001628
  0
ARC
  5
8E0
  8
0
  6
CONTINUOUS
 62
     7
 10
-107.28093
 20
127.34795
 30
0.0
 40
5.0
 50
179.99998999999991
 51
270.0
  0
ARC
  5
8E1
  8
0
  6
CONTINUOUS
 62
     7
 10
-388.19299000000001
 20
219.75855999999999
 30
0.0
 40
3.0
 50
272.0
 51
0.0
  0
ARC
  5
8E2
  8
0
  6
CONTINUOUS
 62
     7
 10
-145.2809399999999
 20
147.34795
 30
0.0
 40
52.000008000000001
 50
95.215911000000006
 51
132.24432999999991
  0
ARC
  5
8E3
  8
0
  6
CONTINUOUS
 62
     7
 10
-140.28093000000001
 20
202.12020999999999
 30
0.0
 40
3.0
 50
179.99998999999991
 51
264.78408999999982
  0
ARC
  5
8E4
  8
0
  6
CONTINUOUS
 62
     7
 10
-200.05318999999989
 20
152.3479599999998
 30
0.0
 40
3.0
 50
270.0
 51
354.78408999999999
  0
ARC
  5
8E5
  8
0
  6
CONTINUOUS
 62
     7
 10
-200.2809399999999
 20
142.34796
 30
0.0
 40
3.0
 50
0.0
 51
90.000003000000007
  0
ARC
  5
8E6
  8
0
  6
CONTINUOUS
 62
     7
 10
-90.280929999999998
 20
142.34796
 30
0.0
 40
3.0
 50
90.000003000000007
 51
180.00001
  0
ARC
  5
8E7
  8
0
  6
CONTINUOUS
 62
     7
 10
-150.28093000000001
 20
202.12020999999999
 30
0.0
 40
3.0
 50
275.21591000000001
 51
0.0
  0
ARC
  5
8E8
  8
0
  6
CONTINUOUS
 62
     7
 10
-140.28093000000001
 20
210.1492299999999
 30
0.0
 40
3.0
 50
85.447927000000007
 51
180.00001
  0
ARC
  5
8E9
  8
0
  6
CONTINUOUS
 62
     7
 10
-90.508674999999997
 20
152.3479599999998
 30
0.0
 40
3.0
 50
185.21591000000001
 51
270.0
  0
ARC
  5
8EA
  8
0
  6
CONTINUOUS
 62
     7
 10
-174.32703000000001
 20
168.61588
 30
0.0
 40
3.0
 50
323.78793999999999
 51
45.00000099999999
  0
ARC
  5
8EB
  8
0
  6
CONTINUOUS
 62
     7
 10
-150.28093000000001
 20
210.1492299999999
 30
0.0
 40
3.0
 50
0.0
 51
94.552070999999984
  0
ARC
  5
8EC
  8
0
  6
CONTINUOUS
 62
     7
 10
-82.479659999999981
 20
142.34796
 30
0.0
 40
3.0
 50
355.44792999999999
 51
90.000003000000007
  0
ARC
  5
8ED
  8
0
  6
CONTINUOUS
 62
     7
 10
-82.479659999999981
 20
152.3479599999998
 30
0.0
 40
3.0
 50
270.0
 51
4.5520714
  0
ARC
  5
8EE
  8
0
  6
CONTINUOUS
 62
     7
 10
-90.749846999999988
 20
187.97255999999999
 30
0.0
 40
2.0
 50
216.68541999999991
 51
305.0
  0
ARC
  5
8EF
  8
0
  6
CONTINUOUS
 62
     7
 10
-145.2809399999999
 20
147.34796
 30
0.0
 40
26.500001999999999
 50
270.0
 51
90.000003000000007
  0
ARC
  5
8F0
  8
0
  6
CONTINUOUS
 62
     7
 10
-387.73691000000002
 20
187.0051099999998
 30
0.0
 40
3.0
 50
22.48353599999999
 51
90.000003000000007
  0
ARC
  5
8F1
  8
0
  6
CONTINUOUS
 62
     7
 10
-388.19299000000001
 20
204.34091000000001
 30
0.0
 40
3.0
 50
296.29843
 51
0.0
  0
ARC
  5
8F2
  8
0
  6
CONTINUOUS
 62
     7
 10
-401.19296000000003
 20
192.00509999999991
 30
0.0
 40
2.0
 50
179.99998999999991
 51
270.0
  0
ARC
  5
8F3
  8
0
  6
CONTINUOUS
 62
     7
 10
-373.19299000000001
 20
121.39863
 30
0.0
 40
3.0
 50
311.81031000000002
 51
0.0
  0
ARC
  5
8F4
  8
0
  6
CONTINUOUS
 62
     7
 10
-145.2809399999999
 20
147.34796
 30
0.0
 40
26.500001999999999
 50
90.000003000000007
 51
270.0
  0
ARC
  5
8F5
  8
0
  6
CONTINUOUS
 62
     7
 10
-218.0398899999999
 20
74.847954000000001
 30
0.0
 40
10.0
 50
183.00001
 51
270.0
  0
ARC
  5
8F6
  8
0
  6
CONTINUOUS
 62
     7
 10
-72.521987999999979
 20
74.847954000000001
 30
0.0
 40
10.0
 50
270.0
 51
357.0
  0
ARC
  5
8F7
  8
0
  6
CONTINUOUS
 62
     7
 10
-145.2809399999999
 20
127.34795
 30
0.0
 40
71.0
 50
234.77578999999989
 51
238.49327
  0
ARC
  5
8F8
  8
0
  6
CONTINUOUS
 62
     7
 10
-117.15366
 20
59.44283699999999
 30
0.0
 40
7.0000004999999987
 50
270.00002000000001
 51
15.080558999999999
  0
CIRCLE
  5
8F9
  8
0
  6
CONTINUOUS
 62
     7
 10
-173.40819999999991
 20
59.44283699999999
 30
0.0
 40
4.9796462000000004
  0
CIRCLE
  5
8FA
  8
0
  6
CONTINUOUS
 62
     7
 10
-117.15366
 20
59.44283699999999
 30
0.0
 40
4.9796462000000004
  0
CIRCLE
  5
8FB
  8
0
  6
CONTINUOUS
 62
     7
 10
-203.59238999999991
 20
172.09194999999991
 30
0.0
 40
4.9796462000000004
  0
CIRCLE
  5
8FC
  8
0
  6
CONTINUOUS
 62
     7
 10
-86.969443999999967
 20
172.09187
 30
0.0
 40
4.9796462000000004
  0
ARC
  5
8FD
  8
0
  6
CONTINUOUS
 62
     7
 10
-395.19299000000001
 20
63.329585999999999
 30
0.0
 40
1.0
 50
269.99998999999991
 51
0.00000068324543
  0
ARC
  5
8FE
  8
0
  6
CONTINUOUS
 62
     7
 10
-395.19299000000001
 20
57.556057000000003
 30
0.0
 40
1.0
 50
269.99998999999991
 51
0.00000068324543
  0
ARC
  5
8FF
  8
0
  6
CONTINUOUS
 62
     7
 10
-395.19299000000001
 20
54.669308000000001
 30
0.0
 40
1.0
 50
269.99998999999991
 51
0.00000068324543
  0
ARC
  5
900
  8
0
  6
CONTINUOUS
 62
     7
 10
-395.19299000000001
 20
55.556072
 30
0.0
 40
1.0
 50
0.0
 51
90.000003000000007
  0
ARC
  5
901
  8
0
  6
CONTINUOUS
 62
     7
 10
-395.19299000000001
 20
61.329585999999999
 30
0.0
 40
1.0
 50
0.0
 51
90.000003000000007
  0
ARC
  5
902
  8
0
  6
CONTINUOUS
 62
     7
 10
-395.19299000000001
 20
64.216331000000011
 30
0.0
 40
1.0
 50
0.0
 51
90.000003000000007
  0
ARC
  5
903
  8
0
  6
CONTINUOUS
 62
     7
 10
-400.19299000000001
 20
460.55562999999989
 30
0.0
 40
3.0
 50
91.500000999999969
 51
180.00001
  0
ARC
  5
904
  8
0
  6
CONTINUOUS
 62
     7
 10
-400.19299000000001
 20
319.77767999999992
 30
0.0
 40
3.0
 50
179.99998999999991
 51
268.50000999999992
  0
ARC
  5
905
  8
0
  6
CONTINUOUS
 62
     7
 10
-404.24792000000002
 20
464.97799999999989
 30
0.0
 40
3.0
 50
271.49999999999972
 51
312.51812000000001
  0
ARC
  5
906
  8
0
  6
CONTINUOUS
 62
     7
 10
-404.24792000000002
 20
315.35528999999991
 30
0.0
 40
3.0
 50
47.481952
 51
88.499996999999965
  0
ARC
  5
907
  8
0
  6
CONTINUOUS
 62
     7
 10
-383.19296000000003
 20
472.88605000000001
 30
0.0
 40
2.0
 50
91.999998000000005
 51
180.00001
  0
ARC
  5
908
  8
0
  6
CONTINUOUS
 62
     7
 10
-384.19299000000001
 20
456.94799999999992
 30
0.0
 40
3.0
 50
0.0
 51
90.000003000000007
  0
ARC
  5
909
  8
0
  6
CONTINUOUS
 62
     7
 10
-382.19299000000001
 20
432.11831999999998
 30
0.0
 40
3.0
 50
179.99998999999991
 51
270.0
  0
ARC
  5
90A
  8
0
  6
CONTINUOUS
 62
     7
 10
-388.19299000000001
 20
466.87191999999988
 30
0.0
 40
3.0
 50
271.49999999999972
 51
0.0
  0
ARC
  5
90B
  8
0
  6
CONTINUOUS
 62
     7
 10
-388.19299000000001
 20
313.46140000000008
 30
0.0
 40
3.0
 50
0.0
 51
88.499996999999965
  0
ARC
  5
90C
  8
0
  6
CONTINUOUS
 62
     7
 10
-383.19296000000003
 20
307.44727
 30
0.0
 40
2.0
 50
179.99998999999991
 51
268.00000999999992
  0
ARC
  5
90D
  8
0
  6
CONTINUOUS
 62
     7
 10
-384.19299000000001
 20
323.38531
 30
0.0
 40
3.0
 50
270.0
 51
0.0
  0
ARC
  5
90E
  8
0
  6
CONTINUOUS
 62
     7
 10
-382.19299000000001
 20
348.21499999999992
 30
0.0
 40
3.0
 50
90.000003000000007
 51
180.00001
  0
ARC
  5
90F
  8
0
  6
CONTINUOUS
 62
     7
 10
-390.19299000000001
 20
453.14962999999989
 30
0.0
 40
5.0
 50
300.56828999999999
 51
0.0
  0
ARC
  5
910
  8
0
  6
CONTINUOUS
 62
     7
 10
-398.19299000000001
 20
436.81032999999991
 30
0.0
 40
5.0
 50
120.56829
 51
180.00001
  0
ARC
  5
911
  8
0
  6
CONTINUOUS
 62
     7
 10
-402.19298999999978
 20
436.86477999999988
 30
0.0
 40
1.0
 50
90.000003000000007
 51
180.00001
  0
ARC
  5
912
  8
0
  6
CONTINUOUS
 62
     7
 10
-390.19299000000001
 20
456.63387999999992
 30
0.0
 40
5.0
 50
300.56828999999999
 51
0.0
  0
ARC
  5
913
  8
0
  6
CONTINUOUS
 62
     7
 10
-398.19299000000001
 20
440.29459000000003
 30
0.0
 40
5.0
 50
120.56829
 51
180.00001
  0
ARC
  5
914
  8
0
  6
CONTINUOUS
 62
     7
 10
-390.19299000000001
 20
327.18369000000001
 30
0.0
 40
5.0
 50
0.0
 51
59.431708999999998
  0
ARC
  5
915
  8
0
  6
CONTINUOUS
 62
     7
 10
-402.19298999999978
 20
343.46854000000002
 30
0.0
 40
1.0
 50
179.99998999999991
 51
270.0
  0
ARC
  5
916
  8
0
  6
CONTINUOUS
 62
     7
 10
-390.19299000000001
 20
323.69943000000001
 30
0.0
 40
5.0
 50
0.0
 51
59.431708999999998
  0
ARC
  5
917
  8
0
  6
CONTINUOUS
 62
     7
 10
-398.19299000000001
 20
343.5229799999999
 30
0.0
 40
5.0
 50
179.99998999999991
 51
239.43171000000001
  0
ARC
  5
918
  8
0
  6
CONTINUOUS
 62
     7
 10
-398.19299000000001
 20
340.03872999999982
 30
0.0
 40
5.0
 50
179.99998999999991
 51
239.43171000000001
  0
ARC
  5
919
  8
0
  6
CONTINUOUS
 62
     7
 10
-387.19298999999978
 20
439.86477999999988
 30
0.0
 40
2.0
 50
270.0
 51
0.0
  0
ARC
  5
91A
  8
0
  6
CONTINUOUS
 62
     7
 10
-387.19298999999978
 20
340.46854000000002
 30
0.0
 40
2.0
 50
0.0
 51
90.000003000000007
  0
POLYLINE
  5
91B
  8
0
  6
CONTINUOUS
 62
     7
 66
     1
 10
0.0
 20
0.0
 30
0.0
  0
VERTEX
  5
91C
  8
0
  6
CONTINUOUS
 62
     7
 10
-586.83300999999994
 20
390.16665999999998
 30
0.0
 42
0.00043465572
  0
VERTEX
  5
91D
  8
0
  6
CONTINUOUS
 62
     7
 10
-586.83532000000002
 20
389.85552000000001
 30
0.0
 42
0.00030402944
  0
VERTEX
  5
91E
  8
0
  6
CONTINUOUS
 62
     7
 10
-586.83718999999985
 20
389.54441000000003
 30
0.0
 42
0.00039705232
  0
VERTEX
  5
91F
  8
0
  6
CONTINUOUS
 62
     7
 10
-586.83861999999965
 20
389.23331000000002
 30
0.0
 42
0.0003876649
  0
VERTEX
  5
920
  8
0
  6
CONTINUOUS
 62
     7
 10
-586.83956000000001
 20
388.92216999999999
 30
0.0
 42
0.00040613779
  0
VERTEX
  5
921
  8
0
  6
CONTINUOUS
 62
     7
 10
-586.84001000000001
 20
388.61106000000001
 30
0.0
 42
0.00035571855
  0
VERTEX
  5
922
  8
0
  6
CONTINUOUS
 62
     7
 10
-586.83996999999999
 20
388.29996
 30
0.0
 42
0.00034187231
  0
VERTEX
  5
923
  8
0
  6
CONTINUOUS
 62
     7
 10
-586.83951999999999
 20
387.98881999999992
 30
0.0
 42
0.00040586803
  0
VERTEX
  5
924
  8
0
  6
CONTINUOUS
 62
     7
 10
-586.83857999999975
 20
387.67772000000002
 30
0.0
 42
0.00040118616
  0
VERTEX
  5
925
  8
0
  6
CONTINUOUS
 62
     7
 10
-586.8371599999997
 20
387.36648999999989
 30
0.0
 42
0.00038319866
  0
VERTEX
  5
926
  8
0
  6
CONTINUOUS
 62
     7
 10
-586.83524
 20
387.05534999999992
 30
0.0
 42
0.00040742138
  0
VERTEX
  5
927
  8
0
  6
CONTINUOUS
 62
     7
 10
-586.83284000000003
 20
386.74412000000001
 30
0.0
 42
0.00035780713
  0
VERTEX
  5
928
  8
0
  6
CONTINUOUS
 62
     7
 10
-586.8299599999998
 20
386.43301000000002
 30
0.0
  0
SEQEND
  5
929
  8
0
 62
     7
  0
POLYLINE
  5
92A
  8
0
  6
CONTINUOUS
 62
     7
 66
     1
 10
0.0
 20
0.0
 30
0.0
  0
VERTEX
  5
92B
  8
0
  6
CONTINUOUS
 62
     7
 10
-586.78894000000003
 20
383.89627000000002
 30
0.0
 42
0.0007888942
  0
VERTEX
  5
92C
  8
0
  6
CONTINUOUS
 62
     7
 10
-586.77409999999975
 20
383.27850999999993
 30
0.0
 42
0.00068143706
  0
VERTEX
  5
92D
  8
0
  6
CONTINUOUS
 62
     7
 10
-586.75745999999981
 20
382.66091
 30
0.0
 42
0.00078719873
  0
VERTEX
  5
92E
  8
0
  6
CONTINUOUS
 62
     7
 10
-586.73901000000001
 20
382.04323999999991
 30
0.0
 42
0.00075144512
  0
VERTEX
  5
92F
  8
0
  6
CONTINUOUS
 62
     7
 10
-586.71865000000003
 20
381.42563999999999
 30
0.0
 42
0.0007859439
  0
VERTEX
  5
930
  8
0
  6
CONTINUOUS
 62
     7
 10
-586.69638999999995
 20
380.80820999999997
 30
0.0
 42
0.00073349187
  0
VERTEX
  5
931
  8
0
  6
CONTINUOUS
 62
     7
 10
-586.67223999999965
 20
380.19083000000001
 30
0.0
 42
0.00075773274
  0
VERTEX
  5
932
  8
0
  6
CONTINUOUS
 62
     7
 10
-586.64625999999998
 20
379.57342999999992
 30
0.0
 42
0.00073477293
  0
VERTEX
  5
933
  8
0
  6
CONTINUOUS
 62
     7
 10
-586.61842999999965
 20
378.95603999999992
 30
0.0
 42
0.00077014543
  0
VERTEX
  5
934
  8
0
  6
CONTINUOUS
 62
     7
 10
-586.58875
 20
378.33864999999992
 30
0.0
 42
0.00077088328
  0
VERTEX
  5
935
  8
0
  6
CONTINUOUS
 62
     7
 10
-586.55714
 20
377.72152
 30
0.0
 42
0.00073482991
  0
VERTEX
  5
936
  8
0
  6
CONTINUOUS
 62
     7
 10
-586.52369999999985
 20
377.10449
 30
0.0
 42
0.00075616115
  0
VERTEX
  5
937
  8
0
  6
CONTINUOUS
 62
     7
 10
-586.48839999999996
 20
376.48746
 30
0.0
  0
SEQEND
  5
938
  8
0
 62
     7
  0
POLYLINE
  5
939
  8
0
  6
CONTINUOUS
 62
     7
 66
     1
 10
0.0
 20
0.0
 30
0.0
  0
VERTEX
  5
93A
  8
0
  6
CONTINUOUS
 62
     7
 10
-586.31470000000002
 20
373.82607999999988
 30
0.0
 42
0.00073721998
  0
VERTEX
  5
93B
  8
0
  6
CONTINUOUS
 62
     7
 10
-586.27054999999984
 20
373.22367000000003
 30
0.0
 42
0.00074398494
  0
VERTEX
  5
93C
  8
0
  6
CONTINUOUS
 62
     7
 10
-586.22460999999998
 20
372.62139999999999
 30
0.0
 42
0.00073322622
  0
VERTEX
  5
93D
  8
0
  6
CONTINUOUS
 62
     7
 10
-586.17687999999998
 20
372.01906999999989
 30
0.0
 42
0.00071357031
  0
VERTEX
  5
93E
  8
0
  6
CONTINUOUS
 62
     7
 10
-586.12743999999998
 20
371.41708
 30
0.0
 42
0.00079961878
  0
VERTEX
  5
93F
  8
0
  6
CONTINUOUS
 62
     7
 10
-586.07618000000002
 20
370.81522000000001
 30
0.0
 42
0.00070980539
  0
VERTEX
  5
940
  8
0
  6
CONTINUOUS
 62
     7
 10
-586.02306999999985
 20
370.21341000000001
 30
0.0
 42
0.0007418407
  0
VERTEX
  5
941
  8
0
  6
CONTINUOUS
 62
     7
 10
-585.9682499999999
 20
369.61187999999993
 30
0.0
 42
0.00069469606
  0
VERTEX
  5
942
  8
0
  6
CONTINUOUS
 62
     7
 10
-585.91169000000002
 20
369.01065
 30
0.0
 42
0.00077213468
  0
VERTEX
  5
943
  8
0
  6
CONTINUOUS
 62
     7
 10
-585.85338999999999
 20
368.40944999999999
 30
0.0
 42
0.00076522242
  0
VERTEX
  5
944
  8
0
  6
CONTINUOUS
 62
     7
 10
-585.79319999999996
 20
367.80844000000002
 30
0.0
 42
0.0006989821
  0
VERTEX
  5
945
  8
0
  6
CONTINUOUS
 62
     7
 10
-585.73127999999986
 20
367.20769000000001
 30
0.0
 42
0.00074640581
  0
VERTEX
  5
946
  8
0
  6
CONTINUOUS
 62
     7
 10
-585.66759999999999
 20
366.60708999999991
 30
0.0
  0
SEQEND
  5
947
  8
0
 62
     7
  0
POLYLINE
  5
948
  8
0
  6
CONTINUOUS
 62
     7
 66
     1
 10
0.0
 20
0.0
 30
0.0
  0
VERTEX
  5
949
  8
0
  6
CONTINUOUS
 62
     7
 10
-585.33203000000003
 20
363.68362000000002
 30
0.0
 42
0.0006890002
  0
VERTEX
  5
94A
  8
0
  6
CONTINUOUS
 62
     7
 10
-585.26115000000004
 20
363.10887000000002
 30
0.0
 42
0.00067934106
  0
VERTEX
  5
94B
  8
0
  6
CONTINUOUS
 62
     7
 10
-585.18867
 20
362.53417999999999
 30
0.0
 42
0.00071569314
  0
VERTEX
  5
94C
  8
0
  6
CONTINUOUS
 62
     7
 10
-585.11461999999995
 20
361.95987000000002
 30
0.0
 42
0.00069587808
  0
VERTEX
  5
94D
  8
0
  6
CONTINUOUS
 62
     7
 10
-585.03894000000003
 20
361.38572999999991
 30
0.0
 42
0.00071687036
  0
VERTEX
  5
94E
  8
0
  6
CONTINUOUS
 62
     7
 10
-584.96163000000001
 20
360.81172999999978
 30
0.0
 42
0.00069759108
  0
VERTEX
  5
94F
  8
0
  6
CONTINUOUS
 62
     7
 10
-584.88269000000003
 20
360.23795000000001
 30
0.0
 42
0.000733212
  0
VERTEX
  5
950
  8
0
  6
CONTINUOUS
 62
     7
 10
-584.80210999999952
 20
359.66447999999991
 30
0.0
 42
0.00064546132
  0
VERTEX
  5
951
  8
0
  6
CONTINUOUS
 62
     7
 10
-584.71996999999988
 20
359.09136999999993
 30
0.0
 42
0.00074206151
  0
VERTEX
  5
952
  8
0
  6
CONTINUOUS
 62
     7
 10
-584.63622999999995
 20
358.51833999999991
 30
0.0
 42
0.00073581337
  0
VERTEX
  5
953
  8
0
  6
CONTINUOUS
 62
     7
 10
-584.55075999999985
 20
357.94558000000001
 30
0.0
 42
0.0006891394
  0
VERTEX
  5
954
  8
0
  6
CONTINUOUS
 62
     7
 10
-584.46370999999988
 20
357.37322999999992
 30
0.0
 42
0.00072290801
  0
VERTEX
  5
955
  8
0
  6
CONTINUOUS
 62
     7
 10
-584.375
 20
356.80092999999982
 30
0.0
  0
SEQEND
  5
956
  8
0
 62
     7
  0
POLYLINE
  5
957
  8
0
  6
CONTINUOUS
 62
     7
 66
     1
 10
0.0
 20
0.0
 30
0.0
  0
VERTEX
  5
958
  8
0
  6
CONTINUOUS
 62
     7
 10
-586.83300999999994
 20
390.16665999999998
 30
0.0
 42
-0.00043465642
  0
VERTEX
  5
959
  8
0
  6
CONTINUOUS
 62
     7
 10
-586.83532000000002
 20
390.47778999999991
 30
0.0
 42
-0.00030402561
  0
VERTEX
  5
95A
  8
0
  6
CONTINUOUS
 62
     7
 10
-586.83718999999985
 20
390.78890000000001
 30
0.0
 42
-0.00039706113
  0
VERTEX
  5
95B
  8
0
  6
CONTINUOUS
 62
     7
 10
-586.83861999999965
 20
391.10000999999988
 30
0.0
 42
-0.00038765718
  0
VERTEX
  5
95C
  8
0
  6
CONTINUOUS
 62
     7
 10
-586.83956000000001
 20
391.41115000000002
 30
0.0
 42
-0.00040613432
  0
VERTEX
  5
95D
  8
0
  6
CONTINUOUS
 62
     7
 10
-586.84001000000001
 20
391.72224999999992
 30
0.0
 42
-0.00035573434
  0
VERTEX
  5
95E
  8
0
  6
CONTINUOUS
 62
     7
 10
-586.83996999999999
 20
392.03336000000002
 30
0.0
 42
-0.00034185747
  0
VERTEX
  5
95F
  8
0
  6
CONTINUOUS
 62
     7
 10
-586.83951999999999
 20
392.34449000000001
 30
0.0
 42
-0.00040586505
  0
VERTEX
  5
960
  8
0
  6
CONTINUOUS
 62
     7
 10
-586.83857999999975
 20
392.65559999999999
 30
0.0
 42
-0.00040120779
  0
VERTEX
  5
961
  8
0
  6
CONTINUOUS
 62
     7
 10
-586.8371599999997
 20
392.96682999999979
 30
0.0
 42
-0.00038317817
  0
VERTEX
  5
962
  8
0
  6
CONTINUOUS
 62
     7
 10
-586.83524
 20
393.27796000000001
 30
0.0
 42
-0.00040741864
  0
VERTEX
  5
963
  8
0
  6
CONTINUOUS
 62
     7
 10
-586.83284000000003
 20
393.58918999999992
 30
0.0
 42
-0.00035783326
  0
VERTEX
  5
964
  8
0
  6
CONTINUOUS
 62
     7
 10
-586.8299599999998
 20
393.90029999999979
 30
0.0
  0
SEQEND
  5
965
  8
0
 62
     7
  0
POLYLINE
  5
966
  8
0
  6
CONTINUOUS
 62
     7
 66
     1
 10
0.0
 20
0.0
 30
0.0
  0
VERTEX
  5
967
  8
0
  6
CONTINUOUS
 62
     7
 10
-586.78894000000003
 20
396.43703999999991
 30
0.0
 42
-0.00078886175
  0
VERTEX
  5
968
  8
0
  6
CONTINUOUS
 62
     7
 10
-586.77409999999975
 20
397.05479999999989
 30
0.0
 42
-0.0006814346
  0
VERTEX
  5
969
  8
0
  6
CONTINUOUS
 62
     7
 10
-586.75745999999981
 20
397.67241000000001
 30
0.0
 42
-0.00078723428
  0
VERTEX
  5
96A
  8
0
  6
CONTINUOUS
 62
     7
 10
-586.73901000000001
 20
398.29007000000001
 30
0.0
 42
-0.00079528173
  0
VERTEX
  5
96B
  8
0
  6
CONTINUOUS
 62
     7
 10
-586.71855000000005
 20
398.90767
 30
0.0
 42
-0.00068165265
  0
VERTEX
  5
96C
  8
0
  6
CONTINUOUS
 62
     7
 10
-586.69629999999995
 20
399.52510000000001
 30
0.0
 42
-0.00077904685
  0
VERTEX
  5
96D
  8
0
  6
CONTINUOUS
 62
     7
 10
-586.67223999999965
 20
400.14260999999988
 30
0.0
 42
-0.00075976021
  0
VERTEX
  5
96E
  8
0
  6
CONTINUOUS
 62
     7
 10
-586.64625999999998
 20
400.75999999999999
 30
0.0
 42
-0.00073240022
  0
VERTEX
  5
96F
  8
0
  6
CONTINUOUS
 62
     7
 10
-586.61842999999965
 20
401.37727999999993
 30
0.0
 42
-0.00077017535
  0
VERTEX
  5
970
  8
0
  6
CONTINUOUS
 62
     7
 10
-586.58875
 20
401.99465999999978
 30
0.0
 42
-0.0007708528
  0
VERTEX
  5
971
  8
0
  6
CONTINUOUS
 62
     7
 10
-586.55714
 20
402.61178999999998
 30
0.0
 42
-0.00073483069
  0
VERTEX
  5
972
  8
0
  6
CONTINUOUS
 62
     7
 10
-586.52369999999985
 20
403.22881999999993
 30
0.0
 42
-0.00075618777
  0
VERTEX
  5
973
  8
0
  6
CONTINUOUS
 62
     7
 10
-586.48839999999996
 20
403.84586000000002
 30
0.0
  0
SEQEND
  5
974
  8
0
 62
     7
  0
POLYLINE
  5
975
  8
0
  6
CONTINUOUS
 62
     7
 66
     1
 10
0.0
 20
0.0
 30
0.0
  0
VERTEX
  5
976
  8
0
  6
CONTINUOUS
 62
     7
 10
-586.31470000000002
 20
406.50722999999988
 30
0.0
 42
-0.00073370515
  0
VERTEX
  5
977
  8
0
  6
CONTINUOUS
 62
     7
 10
-586.27054999999984
 20
407.10964999999999
 30
0.0
 42
-0.0007521132
  0
VERTEX
  5
978
  8
0
  6
CONTINUOUS
 62
     7
 10
-586.22460999999998
 20
407.71204
 30
0.0
 42
-0.00072974907
  0
VERTEX
  5
979
  8
0
  6
CONTINUOUS
 62
     7
 10
-586.17687999999998
 20
408.31423999999981
 30
0.0
 42
-0.00071355786
  0
VERTEX
  5
97A
  8
0
  6
CONTINUOUS
 62
     7
 10
-586.12743999999998
 20
408.91624000000002
 30
0.0
 42
-0.00079962051
  0
VERTEX
  5
97B
  8
0
  6
CONTINUOUS
 62
     7
 10
-586.07618000000002
 20
409.51808999999992
 30
0.0
 42
-0.00070981156
  0
VERTEX
  5
97C
  8
0
  6
CONTINUOUS
 62
     7
 10
-586.02306999999985
 20
410.11989999999992
 30
0.0
 42
-0.00073754173
  0
VERTEX
  5
97D
  8
0
  6
CONTINUOUS
 62
     7
 10
-585.96825999999999
 20
410.72143999999997
 30
0.0
 42
-0.00070466633
  0
VERTEX
  5
97E
  8
0
  6
CONTINUOUS
 62
     7
 10
-585.91169000000002
 20
411.32279999999992
 30
0.0
 42
-0.00076787225
  0
VERTEX
  5
97F
  8
0
  6
CONTINUOUS
 62
     7
 10
-585.85338999999999
 20
411.92385999999999
 30
0.0
 42
-0.00076521763
  0
VERTEX
  5
980
  8
0
  6
CONTINUOUS
 62
     7
 10
-585.79319999999996
 20
412.52487999999988
 30
0.0
 42
-0.00069898529
  0
VERTEX
  5
981
  8
0
  6
CONTINUOUS
 62
     7
 10
-585.73127999999986
 20
413.12563
 30
0.0
 42
-0.00074640664
  0
VERTEX
  5
982
  8
0
  6
CONTINUOUS
 62
     7
 10
-585.66759999999999
 20
413.72622999999987
 30
0.0
  0
SEQEND
  5
983
  8
0
 62
     7
  0
POLYLINE
  5
984
  8
0
  6
CONTINUOUS
 62
     7
 66
     1
 10
0.0
 20
0.0
 30
0.0
  0
VERTEX
  5
985
  8
0
  6
CONTINUOUS
 62
     7
 10
-585.33203000000003
 20
416.64968999999991
 30
0.0
 42
-0.00068898293
  0
VERTEX
  5
986
  8
0
  6
CONTINUOUS
 62
     7
 10
-585.26115000000004
 20
417.22444000000002
 30
0.0
 42
-0.00067933813
  0
VERTEX
  5
987
  8
0
  6
CONTINUOUS
 62
     7
 10
-585.18867
 20
417.79912999999999
 30
0.0
 42
-0.000715718
  0
VERTEX
  5
988
  8
0
  6
CONTINUOUS
 62
     7
 10
-585.11461999999995
 20
418.37344000000002
 30
0.0
 42
-0.0006958567
  0
VERTEX
  5
989
  8
0
  6
CONTINUOUS
 62
     7
 10
-585.03894000000003
 20
418.94757999999962
 30
0.0
 42
-0.00071687214
  0
VERTEX
  5
98A
  8
0
  6
CONTINUOUS
 62
     7
 10
-584.96163000000001
 20
419.5215799999998
 30
0.0
 42
-0.00069760017
  0
VERTEX
  5
98B
  8
0
  6
CONTINUOUS
 62
     7
 10
-584.88269000000003
 20
420.09537
 30
0.0
 42
-0.00073320364
  0
VERTEX
  5
98C
  8
0
  6
CONTINUOUS
 62
     7
 10
-584.80210999999952
 20
420.66882999999967
 30
0.0
 42
-0.00064546479
  0
VERTEX
  5
98D
  8
0
  6
CONTINUOUS
 62
     7
 10
-584.71996999999988
 20
421.24194
 30
0.0
 42
-0.00074205583
  0
VERTEX
  5
98E
  8
0
  6
CONTINUOUS
 62
     7
 10
-584.63622999999995
 20
421.81497000000002
 30
0.0
 42
-0.00073582106
  0
VERTEX
  5
98F
  8
0
  6
CONTINUOUS
 62
     7
 10
-584.55075999999985
 20
422.38772999999981
 30
0.0
 42
-0.00068913793
  0
VERTEX
  5
990
  8
0
  6
CONTINUOUS
 62
     7
 10
-584.46370999999988
 20
422.96008
 30
0.0
 42
-0.00072288972
  0
VERTEX
  5
991
  8
0
  6
CONTINUOUS
 62
     7
 10
-584.375
 20
423.53237999999988
 30
0.0
  0
SEQEND
  5
992
  8
0
 62
     7
  0
POLYLINE
  5
993
  8
0
  6
CONTINUOUS
 62
     7
 66
     1
 10
0.0
 20
0.0
 30
0.0
  0
VERTEX
  5
994
  8
0
  6
CONTINUOUS
 62
     7
 10
-586.82758000000001
 20
127.34795
 30
0.0
  0
VERTEX
  5
995
  8
0
  6
CONTINUOUS
 62
     7
 10
-586.82485999999994
 20
123.61547999999991
 30
0.0
 42
-1.0
  0
SEQEND
  5
996
  8
0
 62
     7
  0
POLYLINE
  5
997
  8
0
  6
CONTINUOUS
 62
     7
 66
     1
 10
0.0
 20
0.0
 30
0.0
  0
VERTEX
  5
998
  8
0
  6
CONTINUOUS
 62
     7
 10
-586.7842099999998
 20
121.07666
 30
0.0
  0
VERTEX
  5
999
  8
0
  6
CONTINUOUS
 62
     7
 10
-586.48554000000001
 20
113.6665999999999
 30
0.0
 42
-1.0
  0
SEQEND
  5
99A
  8
0
 62
     7
  0
POLYLINE
  5
99B
  8
0
  6
CONTINUOUS
 62
     7
 66
     1
 10
0.0
 20
0.0
 30
0.0
  0
VERTEX
  5
99C
  8
0
  6
CONTINUOUS
 62
     7
 10
-586.31254999999965
 20
111.0053699999999
 30
0.0
  0
VERTEX
  5
99D
  8
0
  6
CONTINUOUS
 62
     7
 10
-585.66649000000007
 20
103.7844299999999
 30
0.0
 42
-1.0
  0
SEQEND
  5
99E
  8
0
 62
     7
  0
POLYLINE
  5
99F
  8
0
  6
CONTINUOUS
 62
     7
 66
     1
 10
0.0
 20
0.0
 30
0.0
  0
VERTEX
  5
9A0
  8
0
  6
CONTINUOUS
 62
     7
 10
-585.33079999999995
 20
100.86096999999999
 30
0.0
  0
VERTEX
  5
9A1
  8
0
  6
CONTINUOUS
 62
     7
 10
-584.37031999999999
 20
93.979377999999997
 30
0.0
 42
-1.0
  0
SEQEND
  5
9A2
  8
0
 62
     7
  0
POLYLINE
  5
9A3
  8
0
  6
CONTINUOUS
 62
     7
 66
     1
 10
0.0
 20
0.0
 30
0.0
  0
VERTEX
  5
9A4
  8
0
  6
CONTINUOUS
 62
     7
 10
-586.82758000000001
 20
127.34795
 30
0.0
  0
VERTEX
  5
9A5
  8
0
  6
CONTINUOUS
 62
     7
 10
-586.82485999999994
 20
131.08043000000001
 30
0.0
 42
-1.0
  0
SEQEND
  5
9A6
  8
0
 62
     7
  0
POLYLINE
  5
9A7
  8
0
  6
CONTINUOUS
 62
     7
 66
     1
 10
0.0
 20
0.0
 30
0.0
  0
VERTEX
  5
9A8
  8
0
  6
CONTINUOUS
 62
     7
 10
-586.7842099999998
 20
133.61923999999991
 30
0.0
  0
VERTEX
  5
9A9
  8
0
  6
CONTINUOUS
 62
     7
 10
-586.48554000000001
 20
141.02927
 30
0.0
 42
-1.0
  0
SEQEND
  5
9AA
  8
0
 62
     7
  0
POLYLINE
  5
9AB
  8
0
  6
CONTINUOUS
 62
     7
 66
     1
 10
0.0
 20
0.0
 30
0.0
  0
VERTEX
  5
9AC
  8
0
  6
CONTINUOUS
 62
     7
 10
-586.31254999999965
 20
143.6905099999999
 30
0.0
  0
VERTEX
  5
9AD
  8
0
  6
CONTINUOUS
 62
     7
 10
-585.66649000000007
 20
150.91143
 30
0.0
 42
-1.0
  0
SEQEND
  5
9AE
  8
0
 62
     7
  0
POLYLINE
  5
9AF
  8
0
  6
CONTINUOUS
 62
     7
 66
     1
 10
0.0
 20
0.0
 30
0.0
  0
VERTEX
  5
9B0
  8
0
  6
CONTINUOUS
 62
     7
 10
-585.33079999999995
 20
153.83489
 30
0.0
  0
VERTEX
  5
9B1
  8
0
  6
CONTINUOUS
 62
     7
 10
-584.3703099999999
 20
160.71652
 30
0.0
 42
-1.0
  0
SEQEND
  5
9B2
  8
0
 62
     7
  0
TEXT
  5
CDB
  8
0
  6
CONTINUOUS
 62
     0
 10
-255.6910706390521
 20
357.41118566778027
 30
0.0
 40
10.0
  1
VX01-060MF~VX01-200MF
  0
ENDSEC
  0
EOF
