  0
SECTION
  2
HEADER
  9
$ACADVER
  1
AC1009
  9
$INSBASE
 10
0.0
 20
0.0
 30
0.0
  9
$EXTMIN
 10
-684.43480999999986
 20
37.940334
 30
0.0
  9
$EXTMAX
 10
-50.20829472359285
 20
505.59485000000001
 30
0.0
  9
$LIMMIN
 10
0.0
 20
0.0
  9
$LIMMAX
 10
12.0
 20
9.0
  9
$ORTHOMODE
 70
     0
  9
$REGENMODE
 70
     1
  9
$FILLMODE
 70
     1
  9
$QTEXTMODE
 70
     0
  9
$MIRRTEXT
 70
     1
  9
$DRAGMODE
 70
     2
  9
$LTSCALE
 40
1.0
  9
$OSMODE
 70
   551
  9
$ATTMODE
 70
     1
  9
$TEXTSIZE
 40
0.2
  9
$TRACEWID
 40
0.05
  9
$TEXTSTYLE
  7
STANDARD
  9
$CLAYER
  8
0
  9
$CELTYPE
  6
CONTINUOUS
  9
$CECOLOR
 62
   256
  9
$DIMSCALE
 40
1.0
  9
$DIMASZ
 40
0.18
  9
$DIMEXO
 40
0.0625
  9
$DIMDLI
 40
0.38
  9
$DIMRND
 40
0.0
  9
$DIMDLE
 40
0.0
  9
$DIMEXE
 40
0.18
  9
$DIMTP
 40
0.0
  9
$DIMTM
 40
0.0
  9
$DIMTXT
 40
0.18
  9
$DIMCEN
 40
0.09
  9
$DIMTSZ
 40
0.0
  9
$DIMTOL
 70
     0
  9
$DIMLIM
 70
     0
  9
$DIMTIH
 70
     1
  9
$DIMTOH
 70
     1
  9
$DIMSE1
 70
     0
  9
$DIMSE2
 70
     0
  9
$DIMTAD
 70
     0
  9
$DIMZIN
 70
     0
  9
$DIMBLK
  1

  9
$DIMASO
 70
     1
  9
$DIMSHO
 70
     1
  9
$DIMPOST
  1

  9
$DIMAPOST
  1

  9
$DIMALT
 70
     0
  9
$DIMALTD
 70
     2
  9
$DIMALTF
 40
25.399999999999999
  9
$DIMLFAC
 40
1.0
  9
$DIMTOFL
 70
     0
  9
$DIMTVP
 40
0.0
  9
$DIMTIX
 70
     0
  9
$DIMSOXD
 70
     0
  9
$DIMSAH
 70
     0
  9
$DIMBLK1
  1

  9
$DIMBLK2
  1

  9
$DIMSTYLE
  2
STANDARD
  9
$DIMCLRD
 70
     0
  9
$DIMCLRE
 70
     0
  9
$DIMCLRT
 70
     0
  9
$DIMTFAC
 40
1.0
  9
$DIMGAP
 40
0.09
  9
$LUNITS
 70
     2
  9
$LUPREC
 70
     4
  9
$SKETCHINC
 40
0.1
  9
$FILLETRAD
 40
0.0
  9
$AUNITS
 70
     0
  9
$AUPREC
 70
     0
  9
$MENU
  1
.
  9
$ELEVATION
 40
0.0
  9
$PELEVATION
 40
0.0
  9
$THICKNESS
 40
0.0
  9
$LIMCHECK
 70
     0
  9
$BLIPMODE
 70
     0
  9
$CHAMFERA
 40
0.0
  9
$CHAMFERB
 40
0.0
  9
$SKPOLY
 70
     0
  9
$TDCREATE
 40
2452300.4223336228
  9
$TDUPDATE
 40
2458540.6445268402
  9
$TDINDWG
 40
0.0265529398
  9
$TDUSRTIMER
 40
0.0265529051
  9
$USRTIMER
 70
     1
  9
$ANGBASE
 50
0.0
  9
$ANGDIR
 70
     0
  9
$PDMODE
 70
     0
  9
$PDSIZE
 40
0.0
  9
$PLINEWID
 40
0.0
  9
$COORDS
 70
     1
  9
$SPLFRAME
 70
     0
  9
$SPLINETYPE
 70
     6
  9
$SPLINESEGS
 70
     8
  9
$ATTDIA
 70
     1
  9
$ATTREQ
 70
     1
  9
$HANDLING
 70
     1
  9
$HANDSEED
  5
D0F
  9
$SURFTAB1
 70
     6
  9
$SURFTAB2
 70
     6
  9
$SURFTYPE
 70
     6
  9
$SURFU
 70
     6
  9
$SURFV
 70
     6
  9
$UCSNAME
  2

  9
$UCSORG
 10
0.0
 20
0.0
 30
0.0
  9
$UCSXDIR
 10
1.0
 20
0.0
 30
0.0
  9
$UCSYDIR
 10
0.0
 20
1.0
 30
0.0
  9
$PUCSNAME
  2

  9
$PUCSORG
 10
0.0
 20
0.0
 30
0.0
  9
$PUCSXDIR
 10
1.0
 20
0.0
 30
0.0
  9
$PUCSYDIR
 10
0.0
 20
1.0
 30
0.0
  9
$USERI1
 70
     0
  9
$USERI2
 70
     0
  9
$USERI3
 70
     0
  9
$USERI4
 70
     0
  9
$USERI5
 70
     0
  9
$USERR1
 40
0.0
  9
$USERR2
 40
0.0
  9
$USERR3
 40
0.0
  9
$USERR4
 40
0.0
  9
$USERR5
 40
0.0
  9
$WORLDVIEW
 70
     1
  9
$SHADEDGE
 70
     3
  9
$SHADEDIF
 70
    70
  9
$TILEMODE
 70
     1
  9
$MAXACTVP
 70
    64
  9
$PLIMCHECK
 70
     0
  9
$PEXTMIN
 10
1.0000000000000000E+020
 20
1.0000000000000000E+020
 30
1.0000000000000000E+020
  9
$PEXTMAX
 10
-1.0000000000000000E+020
 20
-1.0000000000000000E+020
 30
-1.0000000000000000E+020
  9
$PLIMMIN
 10
0.0
 20
0.0
  9
$PLIMMAX
 10
12.0
 20
9.0
  9
$UNITMODE
 70
     0
  9
$VISRETAIN
 70
     1
  9
$PLINEGEN
 70
     0
  9
$PSLTSCALE
 70
     1
  0
ENDSEC
  0
SECTION
  2
TABLES
  0
TABLE
  2
VPORT
 70
     1
  0
VPORT
  2
*ACTIVE
 70
     0
 10
0.0
 20
0.0
 11
1.0
 21
1.0
 12
-351.50445128795621
 22
271.76498479546359
 13
0.0
 23
0.0
 14
1.0
 24
1.0
 15
0.0
 25
0.0
 16
0.0
 26
0.0
 36
1.0
 17
0.0
 27
0.0
 37
0.0
 40
471.14901911855662
 41
1.7571592210767459
 42
50.0
 43
0.0
 44
0.0
 50
0.0
 51
0.0
 71
     0
 72
   100
 73
     1
 74
     1
 75
     0
 76
     0
 77
     0
 78
     0
  0
ENDTAB
  0
TABLE
  2
LTYPE
 70
    23
  0
LTYPE
  2
CONTINUOUS
 70
     0
  3
Solid line
 72
    65
 73
     0
 40
0.0
  0
LTYPE
  2
DASHED
 70
     0
  3
__ __ __ __ __ __ __ __ __ __ __ __ __ __ __
 72
    65
 73
     2
 40
3.5
 49
2.0
 49
-1.5
  0
LTYPE
  2
CENTER
 70
     0
  3
____ _ ____ _ ____ _ ____ _ ____ _ ____ _ ____
 72
    65
 73
     4
 40
17.5
 49
13.0
 49
-1.5
 49
1.5
 49
-1.5
  0
LTYPE
  2
PHANTOM
 70
     0
  3
_____ _ _ _____ _ _ _____ _ _ _____ _ _ ____  
 72
    65
 73
     6
 40
15.5
 49
8.0
 49
-1.5
 49
1.5
 49
-1.5
 49
1.5
 49
-1.5
  0
LTYPE
  2
DOT
 70
     0
  3
. . . . . . . . . . . . . . . . . . . . . . . .
 72
    65
 73
     2
 40
0.25
 49
0.0
 49
-0.25
  0
LTYPE
  2
AM_ISO02W050
 70
     0
  3
__ __ __ __ __ __ __ __ __ __ __ __ __ __ __
 72
    65
 73
     2
 40
7.5
 49
6.0
 49
-1.5
  0
LTYPE
  2
AM_ISO08W050
 70
     0
  3
____ . ____ . ____ . ____ . ____ . ____ . ____
 72
    65
 73
     4
 40
18.0
 49
12.0
 49
-1.5
 49
3.0
 49
-1.5
  0
LTYPE
  2
AM_ISO09W050
 70
     0
  3
_____ . . _____ . . _____ . . ____ .. ____
 72
    65
 73
     6
 40
22.5
 49
12.0
 49
-1.5
 49
3.0
 49
-1.5
 49
3.0
 49
-1.5
  0
LTYPE
  2
AMCONSTR
 70
     0
  3
_______________________
 72
    65
 73
     2
 40
9999.0
 49
9999.0
 49
0.0
  0
LTYPE
  2
AM_ISO08W050X2
 70
     0
  3
__ . __ . __ . __ . __ . __
 72
    65
 73
     4
 40
9.0
 49
6.0
 49
-0.75
 49
1.5
 49
-0.75
  0
LTYPE
  2
AM_ISO02W050X2
 70
     0
  3
 _ _ _ _ _ _ _ _ _ _ _ _
 72
    65
 73
     2
 40
3.75
 49
3.0
 49
-0.75
  0
LTYPE
  2
AMZIGZAG
 70
     0
  3
/\/-/\/-/\/-/\/-/\/-/\/
 72
    65
 73
     2
 40
11.000099999999991
 49
0.0001
 49
-11.0
  0
LTYPE
  2
HIDDEN
 70
     0
  3
Hidden __ __ __ __ __ __ __ __ __ __ __ __ __ _
 72
    65
 73
     2
 40
0.375
 49
0.25
 49
-0.125
  0
LTYPE
  2
PHANTOM2
 70
     0
  3
Phantom (.5x) ___ _ _ ___ _ _ ___ _ _ ___ _ _
 72
    65
 73
     6
 40
1.25
 49
0.625
 49
-0.125
 49
0.125
 49
-0.125
 49
0.125
 49
-0.125
  0
LTYPE
  2
CENTER2
 70
     0
  3
Center (.5x) ___ _ ___ _ ___ _ ___ _ ___ _ ___
 72
    65
 73
     4
 40
1.125
 49
0.75
 49
-0.125
 49
0.125
 49
-0.125
  0
LTYPE
  2
HIDDEN2
 70
     0
  3
Hidden (.5x) _ _ _ _ _ _ _ _ _ _ _ _ _ _ _ _ _
 72
    65
 73
     2
 40
0.1875
 49
0.125
 49
-0.0625
  0
LTYPE
  2
AMZIGZAG2
 70
     0
  3
/\/-/\/-/\/-/\/-/\/-/\/
 72
    65
 73
     2
 40
0.4401
 49
0.0001
 49
-0.4400000000000003
  0
LTYPE
  2
ACANSTGB
 70
     0
  3
__ . . __ . .
 72
    65
 73
     6
 40
0.35433070866
 49
0.15748031496
 49
-0.03937007874
 49
0.03937007874
 49
-0.03937007874
 49
0.03937007874
 49
-0.03937007874
  0
LTYPE
  2
ACANSTGL
 70
     0
  3
_ _ _ _ _
 72
    65
 73
     2
 40
0.11811023622
 49
0.07874015748
 49
-0.03937007874
  0
LTYPE
  2
ACISOWELD
 70
     0
  3
_ _ _ _ _
 72
    65
 73
     2
 40
2.0
 49
2.0
 49
-1.0
  0
LTYPE
  2
ACISOTGB
 70
     0
  3
__ . . __ . .
 72
    65
 73
     6
 40
9.0
 49
4.0
 49
-1.0
 49
1.0
 49
-1.0
 49
1.0
 49
-1.0
  0
LTYPE
  2
ACISOTGL
 70
     0
  3
_ _ _ _ _
 72
    65
 73
     2
 40
3.0
 49
2.0
 49
-1.0
  0
ENDTAB
  0
TABLE
  2
LAYER
 70
     1
  0
LAYER
  2
0
 70
     0
 62
     7
  6
CONTINUOUS
  0
ENDTAB
  0
TABLE
  2
STYLE
 70
     6
  0
STYLE
  2
STANDARD
 70
     0
 40
0.0
 41
1.0
 50
0.0
 71
     0
 42
0.2
  3
txt
  4

  0
STYLE
  2
ANNOTATIVE
 70
     0
 40
0.0
 41
1.0
 50
0.0
 71
     0
 42
0.2
  3
txt
  4

  0
STYLE
  2

 70
     1
 40
0.0
 41
1.0
 50
0.0
 71
     0
 42
0.2
  3
ltypeshp.shx
  4

  0
STYLE
  2
ACANSTS
 70
     0
 40
1.0
 41
1.0
 50
0.0
 71
     0
 42
0.2
  3
romans.shx
  4
extfont.shx
  0
STYLE
  2
ACANSGDT
 70
     0
 40
0.0
 41
1.0
 50
0.0
 71
     0
 42
0.2
  3
amgdt.shx
  4

  0
STYLE
  2
ACISOGDT
 70
     0
 40
0.0
 41
1.0
 50
0.0
 71
     0
 42
2.5
  3
amgdt.shx
  4

  0
ENDTAB
  0
TABLE
  2
VIEW
 70
     0
  0
ENDTAB
  0
TABLE
  2
UCS
 70
     0
  0
ENDTAB
  0
TABLE
  2
APPID
 70
    12
  0
APPID
  2
ACAD
 70
     0
  0
APPID
  2
ACADANNOTATIVE
 70
     0
  0
APPID
  2
MCAD_NO_VIS
 70
     0
  0
APPID
  2
ACAD_TEMP_GRAPHIC
 70
     0
  0
APPID
  2
ACATTRIBSERVICES
 70
     0
  0
APPID
  2
DESIGNERASSEMBLIES
 70
     0
  0
APPID
  2
ACAD_DSTYLE_DIMBREAK
 70
     0
  0
APPID
  2
ACAD_DSTYLE_DIMJAG
 70
     0
  0
APPID
  2
ACAD_NAV_VCDISPLAY
 70
     0
  0
APPID
  2
ACAD_PSEXT
 70
     0
  0
APPID
  2
ACAD_EXEMPT_FROM_CAD_STANDARDS
 70
     0
  0
APPID
  2
ACAD_MLEADERVER
 70
     0
  0
ENDTAB
  0
TABLE
  2
DIMSTYLE
 70
    16
  0
DIMSTYLE
  2
STANDARD
 70
     0
  3

  4

  5

  6

  7

 40
1.0
 41
0.18
 42
0.0625
 43
0.38
 44
0.18
 45
0.0
 46
0.0
 47
0.0
 48
0.0
140
0.18
141
0.09
142
0.0
143
25.399999999999999
144
1.0
145
0.0
146
1.0
147
0.09
 71
     0
 72
     0
 73
     1
 74
     1
 75
     0
 76
     0
 77
     0
 78
     0
170
     0
171
     2
172
     0
173
     0
174
     0
175
     0
176
     0
177
     0
178
     0
  0
DIMSTYLE
  2
ANNOTATIVE
 70
     0
  3

  4

  5

  6

  7

 40
1.0
 41
0.18
 42
0.0625
 43
0.38
 44
0.18
 45
0.0
 46
0.0
 47
0.0
 48
0.0
140
0.18
141
0.09
142
0.0
143
25.399999999999999
144
1.0
145
0.0
146
1.0
147
0.09
 71
     0
 72
     0
 73
     1
 74
     1
 75
     0
 76
     0
 77
     0
 78
     0
170
     0
171
     2
172
     0
173
     0
174
     0
175
     0
176
     0
177
     0
178
     0
  0
DIMSTYLE
  2
AM_ANSI
 70
     0
  3

  4
mm
  5

  6

  7

 40
1.0
 41
0.1
 42
0.05
 43
0.5
 44
0.1
 45
0.0
 46
0.0
 47
0.1
 48
0.1
140
0.12
141
0.0
142
0.0
143
25.399999999999999
144
1.0
145
0.0
146
0.71
147
0.06
 71
     0
 72
     0
 73
     1
 74
     1
 75
     0
 76
     0
 77
     0
 78
     7
170
     0
171
     2
172
     0
173
     0
174
     0
175
     0
176
   256
177
   256
178
     2
  0
DIMSTYLE
  2
AM_ANSI$3
 70
     0
  3

  4
mm
  5

  6

  7

 40
1.0
 41
0.1
 42
0.05
 43
0.5
 44
0.1
 45
0.0
 46
0.0
 47
0.1
 48
0.1
140
0.12
141
0.0
142
0.0
143
25.399999999999999
144
1.0
145
0.0
146
0.71
147
0.06
 71
     0
 72
     0
 73
     1
 74
     1
 75
     0
 76
     0
 77
     0
 78
     7
170
     0
171
     2
172
     0
173
     0
174
     0
175
     0
176
   256
177
   256
178
     2
  0
DIMSTYLE
  2
AM_ANSI$4
 70
     0
  3

  4
mm
  5

  6

  7

 40
1.0
 41
0.1
 42
0.05
 43
0.5
 44
0.1
 45
0.0
 46
0.0
 47
0.1
 48
0.1
140
0.12
141
0.0
142
0.0
143
25.399999999999999
144
1.0
145
0.0
146
0.71
147
0.06
 71
     0
 72
     0
 73
     1
 74
     1
 75
     0
 76
     0
 77
     0
 78
     7
170
     0
171
     2
172
     0
173
     0
174
     0
175
     0
176
   256
177
   256
178
     2
  0
DIMSTYLE
  2
AM_ANSI$7
 70
     0
  3

  4
mm
  5

  6

  7

 40
1.0
 41
0.1
 42
0.05
 43
0.5
 44
0.1
 45
0.0
 46
0.0
 47
0.1
 48
0.1
140
0.24
141
0.0
142
0.0
143
25.399999999999999
144
1.0
145
0.0
146
0.71
147
0.06
 71
     0
 72
     0
 73
     1
 74
     1
 75
     0
 76
     0
 77
     0
 78
     7
170
     0
171
     2
172
     0
173
     0
174
     0
175
     0
176
   256
177
   256
178
     2
  0
DIMSTYLE
  2
AM_ANSI$SF
 70
     0
  3

  4
mm
  5

  6

  7

 40
1.0
 41
0.1
 42
0.05
 43
0.5
 44
0.1
 45
0.0
 46
0.0
 47
0.1
 48
0.1
140
0.12
141
0.0
142
0.0
143
25.399999999999999
144
1.0
145
0.0
146
0.71
147
0.06
 71
     0
 72
     0
 73
     1
 74
     1
 75
     1
 76
     1
 77
     0
 78
     7
170
     0
171
     2
172
     0
173
     0
174
     0
175
     0
176
   256
177
   256
178
     2
  0
DIMSTYLE
  2
AM_ANSI$SH
 70
     0
  3

  4
mm
  5

  6

  7

 40
1.0
 41
0.1
 42
0.05
 43
0.5
 44
0.1
 45
0.0
 46
0.0
 47
0.1
 48
0.1
140
0.12
141
0.0
142
0.0
143
25.399999999999999
144
1.0
145
0.0
146
0.71
147
0.06
 71
     0
 72
     0
 73
     1
 74
     1
 75
     1
 76
     1
 77
     0
 78
     7
170
     0
171
     2
172
     0
173
     1
174
     0
175
     0
176
   256
177
   256
178
     2
  0
DIMSTYLE
  2
AM_ISO
 70
     0
  3

  4
"
  5

  6

  7

 40
1.0
 41
2.5
 42
1.0
 43
10.0
 44
1.0
 45
0.0
 46
0.0
 47
0.1
 48
0.1
140
3.5
141
0.0
142
0.0
143
0.0393701
144
1.0
145
0.0
146
0.71
147
1.5
 71
     0
 72
     0
 73
     0
 74
     0
 75
     0
 76
     0
 77
     1
 78
     8
170
     0
171
     2
172
     1
173
     0
174
     0
175
     0
176
   256
177
   256
178
     2
  0
DIMSTYLE
  2
AM_ISO$3
 70
     0
  3

  4
"
  5

  6

  7

 40
1.0
 41
2.5
 42
1.0
 43
10.0
 44
1.0
 45
0.0
 46
0.0
 47
0.1
 48
0.1
140
3.5
141
0.0
142
0.0
143
0.0393701
144
1.0
145
0.0
146
0.71
147
1.5
 71
     0
 72
     0
 73
     0
 74
     1
 75
     0
 76
     0
 77
     1
 78
     8
170
     0
171
     2
172
     0
173
     0
174
     0
175
     0
176
   256
177
   256
178
     2
  0
DIMSTYLE
  2
AM_ISO$4
 70
     0
  3

  4
"
  5

  6

  7

 40
1.0
 41
2.5
 42
1.0
 43
10.0
 44
1.0
 45
0.0
 46
0.0
 47
0.1
 48
0.1
140
3.5
141
0.0
142
0.0
143
0.0393701
144
1.0
145
0.0
146
0.71
147
1.5
 71
     0
 72
     0
 73
     0
 74
     1
 75
     0
 76
     0
 77
     1
 78
     8
170
     0
171
     2
172
     0
173
     0
174
     0
175
     0
176
   256
177
   256
178
     2
  0
DIMSTYLE
  2
AM_ISO$6
 70
     0
  3

  4
"
  5

  6

  7

 40
1.0
 41
2.5
 42
1.0
 43
10.0
 44
1.0
 45
0.0
 46
0.0
 47
0.1
 48
0.1
140
3.5
141
0.0
142
0.0
143
0.0393701
144
1.0
145
0.0
146
0.71
147
1.5
 71
     0
 72
     0
 73
     0
 74
     0
 75
     0
 76
     0
 77
     0
 78
     8
170
     0
171
     2
172
     1
173
     0
174
     0
175
     0
176
   256
177
   256
178
     2
  0
DIMSTYLE
  2
AM_ISO$7
 70
     0
  3

  4
"
  5

  6

  7

 40
1.0
 41
2.5
 42
1.0
 43
10.0
 44
1.0
 45
0.0
 46
0.0
 47
0.1
 48
0.1
140
5.0
141
0.0
142
0.0
143
0.0393701
144
1.0
145
0.0
146
0.71
147
1.5
 71
     0
 72
     0
 73
     0
 74
     0
 75
     0
 76
     0
 77
     1
 78
     8
170
     0
171
     2
172
     1
173
     0
174
     0
175
     0
176
   256
177
   256
178
     2
  0
DIMSTYLE
  2
AM_ISO$SF
 70
     0
  3

  4
"
  5

  6

  7

 40
1.0
 41
2.5
 42
1.0
 43
10.0
 44
1.0
 45
0.0
 46
0.0
 47
0.1
 48
0.1
140
3.5
141
0.0
142
0.0
143
0.0393701
144
1.0
145
0.0
146
0.71
147
1.5
 71
     0
 72
     0
 73
     0
 74
     0
 75
     1
 76
     1
 77
     1
 78
     8
170
     0
171
     2
172
     1
173
     0
174
     0
175
     0
176
   256
177
   256
178
     2
  0
DIMSTYLE
  2
AM_ISO$SH
 70
     0
  3

  4
"
  5

  6

  7

 40
1.0
 41
2.5
 42
1.0
 43
10.0
 44
1.0
 45
0.0
 46
0.0
 47
0.1
 48
0.1
140
3.5
141
0.0
142
0.0
143
0.0393701
144
2.0
145
0.0
146
0.71
147
1.5
 71
     0
 72
     0
 73
     0
 74
     0
 75
     1
 76
     1
 77
     1
 78
     8
170
     0
171
     2
172
     1
173
     1
174
     0
175
     0
176
   256
177
   256
178
     2
  0
DIMSTYLE
  2
AM_JIS
 70
     0
  3

  4
"
  5

  6

  7

 40
1.0
 41
2.0
 42
1.0
 43
8.0
 44
1.0
 45
0.0
 46
0.0
 47
0.1
 48
0.1
140
2.5
141
0.0
142
0.0
143
0.0393701
144
1.0
145
0.0
146
0.71
147
1.5
 71
     0
 72
     0
 73
     0
 74
     0
 75
     0
 76
     0
 77
     3
 78
     8
170
     0
171
     2
172
     1
173
     0
174
     0
175
     0
176
     2
177
     2
178
     4
  0
ENDTAB
  0
ENDSEC
  0
SECTION
  2
BLOCKS
  0
BLOCK
  8
0
  2
$MODEL_SPACE
 70
     0
 10
0.0
 20
0.0
 30
0.0
  3
$MODEL_SPACE
  1

  0
ENDBLK
  5
C0E
  8
0
  0
BLOCK
 67
     1
  8
0
  2
$PAPER_SPACE
 70
     0
 10
0.0
 20
0.0
 30
0.0
  3
$PAPER_SPACE
  1

  0
ENDBLK
  5
C0A
 67
     1
  8
0
  0
BLOCK
  8
0
  2
GENAXEH
 70
     0
 10
0.0
 20
0.0
 30
0.0
  3
GENAXEH
  1

  0
LINE
  5
532
  8
0
 10
-1.0
 20
0.0
 30
0.0
 11
1.0
 21
0.0
 31
0.0
  0
ENDBLK
  5
533
  8
0
  0
BLOCK
  8
0
  2
_ACMFILLEDHALF
 70
     0
 10
0.0
 20
0.0
 30
0.0
  3
_ACMFILLEDHALF
  1

  0
TRACE
  5
AC0
  8
0
  6
CONTINUOUS
 62
     0
 10
-0.8
 20
0.0
 30
0.0
 11
-1.0
 21
0.166666666
 31
0.0
 12
0.0
 22
0.0
 32
0.0
 13
0.0
 23
0.0
 33
0.0
  0
LINE
  5
AC1
  8
0
  6
CONTINUOUS
 62
     0
 10
-1.0
 20
0.0
 30
0.0
 11
-0.8
 21
0.0
 31
0.0
  0
ENDBLK
  5
ABF
  8
0
  0
BLOCK
  8
0
  2
*U4
 70
     1
 10
0.0
 20
0.0
 30
0.0
  3
*U4
  1

  0
TEXT
  5
B96
  8
0
  6
CONTINUOUS
 62
     0
 10
5.0768189741019842
 20
5.9826223594979648
 30
0.0
 40
15.0
  1
ＶＸ０８－００３ＥＭ～ＶＸ０８
  0
TEXT
  5
B97
  8
0
  6
CONTINUOUS
 62
     0
 10
2.1790917013747091
 20
-19.18783218595658
 30
0.0
 40
15.0
  1
－０３０ＥＭ
  0
ENDBLK
  5
B99
  8
0
  0
BLOCK
  8
0
  2
*U5
 70
     1
 10
0.0
 20
0.0
 30
0.0
  3
*U5
  1

  0
TEXT
  5
B9B
  8
0
  6
CONTINUOUS
 62
     0
 10
-246.9546458921794
 20
385.03218234853807
 30
0.0
 40
10.0
  1
ＶＸ０１－２４０ＭＦ～ＶＸ０１－６００ＭＦ
  0
ENDBLK
  5
B9D
  8
0
  0
ENDSEC
  0
SECTION
  2
ENTITIES
  0
LINE
  5
534
  8
0
  6
CENTER
 62
     7
 10
-684.01470999999981
 20
413.09485000000001
 30
0.0
 11
-309.92682000000002
 21
413.09485000000001
 31
0.0
  0
LINE
  5
535
  8
0
  6
CONTINUOUS
 62
     7
 10
-314.63385
 20
427.09485000000001
 30
0.0
 11
-314.63385
 21
399.09485000000001
 31
0.0
  0
LINE
  5
536
  8
0
  6
CONTINUOUS
 62
     7
 10
-356.63382000000001
 20
427.09485000000001
 30
0.0
 11
-314.63385
 21
427.09485000000001
 31
0.0
  0
LINE
  5
537
  8
0
  6
CONTINUOUS
 62
     7
 10
-356.63382000000001
 20
399.09485000000001
 30
0.0
 11
-314.63385
 21
399.09485000000001
 31
0.0
  0
LINE
  5
538
  8
0
  6
CONTINUOUS
 62
     7
 10
-346.63384999999982
 20
417.09484999999989
 30
0.0
 11
-346.63384999999982
 21
409.09485000000001
 31
0.0
  0
LINE
  5
539
  8
0
  6
CONTINUOUS
 62
     7
 10
-435.63382000000001
 20
330.84390000000002
 30
0.0
 11
-435.63382000000001
 21
495.34579000000002
 31
0.0
  0
LINE
  5
53A
  8
0
  6
CONTINUOUS
 62
     7
 10
-346.63384999999982
 20
409.09485000000001
 30
0.0
 11
-314.63385
 21
409.09485000000001
 31
0.0
  0
LINE
  5
53B
  8
0
  6
CONTINUOUS
 62
     7
 10
-346.63384999999982
 20
417.09484999999989
 30
0.0
 11
-314.63385
 21
417.09484999999989
 31
0.0
  0
LINE
  5
53C
  8
0
  6
CONTINUOUS
 62
     7
 10
-375.68908999999991
 20
328.7505799999999
 30
0.0
 11
-435.63382000000001
 21
330.84390000000002
 31
0.0
  0
LINE
  5
53D
  8
0
  6
CONTINUOUS
 62
     7
 10
-375.68912
 20
497.43912
 30
0.0
 11
-435.63382000000001
 21
495.34579000000002
 31
0.0
  0
LINE
  5
53E
  8
0
  6
CONTINUOUS
 62
     7
 10
-452.63382000000001
 20
336.26598999999999
 30
0.0
 11
-452.63382000000001
 21
489.92370999999991
 31
0.0
  0
LINE
  5
53F
  8
0
  6
CONTINUOUS
 62
     7
 10
-452.63382000000001
 20
472.40334999999988
 30
0.0
 11
-442.63384999999988
 21
472.40334999999988
 31
0.0
  0
LINE
  5
540
  8
0
  6
CONTINUOUS
 62
     7
 10
-452.63382000000001
 20
353.78635000000008
 30
0.0
 11
-442.63384999999988
 21
353.78635000000008
 31
0.0
  0
LINE
  5
541
  8
0
  6
CONTINUOUS
 62
     7
 10
-442.63384999999988
 20
342.00470000000001
 30
0.0
 11
-442.63384999999988
 21
484.18499999999989
 31
0.0
  0
LINE
  5
542
  8
0
  6
CONTINUOUS
 62
     7
 10
-479.13382000000001
 20
349.59485000000001
 30
0.0
 11
-479.13382000000001
 21
476.59485000000001
 31
0.0
  0
LINE
  5
543
  8
0
  6
CONTINUOUS
 62
     7
 10
-479.13382000000001
 20
465.13482999999991
 30
0.0
 11
-452.63385
 21
465.13482999999991
 31
0.0
  0
LINE
  5
544
  8
0
  6
CONTINUOUS
 62
     7
 10
-479.13382000000001
 20
450.24279999999999
 30
0.0
 11
-452.63385
 21
450.24279999999999
 31
0.0
  0
LINE
  5
545
  8
0
  6
CONTINUOUS
 62
     7
 10
-479.13382000000001
 20
476.59485000000001
 30
0.0
 11
-455.52910999999989
 21
477.41915999999992
 31
0.0
  0
LINE
  5
546
  8
0
  6
CONTINUOUS
 62
     7
 10
-479.13378999999998
 20
349.59482000000008
 30
0.0
 11
-455.52913999999993
 21
348.77053999999993
 31
0.0
  0
LINE
  5
547
  8
0
  6
CONTINUOUS
 62
     7
 10
-479.13382000000001
 20
375.94690000000003
 30
0.0
 11
-452.63385
 21
375.94690000000003
 31
0.0
  0
LINE
  5
548
  8
0
  6
CONTINUOUS
 62
     7
 10
-479.13382000000001
 20
361.05486999999988
 30
0.0
 11
-452.63385
 21
361.05486999999988
 31
0.0
  0
LINE
  5
549
  8
0
  6
CENTER
 62
     7
 10
-240.80933999999991
 20
150.54793000000001
 30
0.0
 11
-50.568996000000013
 21
150.54793000000001
 31
0.0
  0
LINE
  5
54A
  8
0
  6
CENTER
 62
     7
 10
-145.2809399999999
 20
37.940334
 30
0.0
 11
-145.2809399999999
 21
248.2885599999999
 31
0.0
  0
LINE
  5
54B
  8
0
  6
CONTINUOUS
 62
     7
 10
-488.13387999999992
 20
352.59485000000001
 30
0.0
 11
-488.13387999999992
 21
473.59485000000001
 31
0.0
  0
LINE
  5
54C
  8
0
  6
CONTINUOUS
 62
     7
 10
-479.13378999999998
 20
349.59485000000001
 30
0.0
 11
-485.13387999999992
 21
349.59485000000001
 31
0.0
  0
LINE
  5
54D
  8
0
  6
CONTINUOUS
 62
     7
 10
-479.13382000000001
 20
476.59485000000001
 30
0.0
 11
-485.13387999999992
 21
476.59485000000001
 31
0.0
  0
LINE
  5
54E
  8
0
  6
CONTINUOUS
 62
     7
 10
-479.13382000000001
 20
361.05486999999988
 30
0.0
 11
-488.13387999999992
 21
361.05486999999988
 31
0.0
  0
LINE
  5
54F
  8
0
  6
CONTINUOUS
 62
     7
 10
-479.13382000000001
 20
375.94690000000003
 30
0.0
 11
-488.13387999999992
 21
375.94690000000003
 31
0.0
  0
LINE
  5
550
  8
0
  6
CONTINUOUS
 62
     7
 10
-479.13382000000001
 20
450.24279999999999
 30
0.0
 11
-488.13387999999992
 21
450.24279999999999
 31
0.0
  0
LINE
  5
551
  8
0
  6
CONTINUOUS
 62
     7
 10
-479.13382000000001
 20
465.13482999999991
 30
0.0
 11
-488.13387999999992
 21
465.13482999999991
 31
0.0
  0
LINE
  5
552
  8
0
  6
CONTINUOUS
 62
     7
 10
-547.63385000000005
 20
357.09485000000001
 30
0.0
 11
-547.63385000000005
 21
469.09485000000001
 31
0.0
  0
LINE
  5
553
  8
0
  6
CONTINUOUS
 62
     7
 10
-547.63385000000005
 20
357.09485000000001
 30
0.0
 11
-491.01030999999989
 21
355.11748999999992
 31
0.0
  0
LINE
  5
554
  8
0
  6
CONTINUOUS
 62
     7
 10
-491.01030999999989
 20
471.07217000000003
 30
0.0
 11
-547.63385000000005
 21
469.09485000000001
 31
0.0
  0
LINE
  5
555
  8
0
  6
CONTINUOUS
 62
     7
 10
-527.63385000000005
 20
360.53856999999988
 30
0.0
 11
-527.63385000000005
 21
465.65114999999992
 31
0.0
  0
LINE
  5
556
  8
0
  6
CONTINUOUS
 62
     7
 10
-524.63385000000005
 20
410.09485000000001
 30
0.0
 11
-491.13387999999998
 21
410.09485000000001
 31
0.0
  0
LINE
  5
557
  8
0
  6
CONTINUOUS
 62
     7
 10
-524.63385000000005
 20
416.09484999999989
 30
0.0
 11
-491.13387999999998
 21
416.09484999999989
 31
0.0
  0
LINE
  5
558
  8
0
  6
CONTINUOUS
 62
     7
 10
-547.63385000000005
 20
459.09514999999999
 30
0.0
 11
-527.63385000000005
 21
459.09514999999999
 31
0.0
  0
LINE
  5
559
  8
0
  6
CONTINUOUS
 62
     7
 10
-547.63385000000005
 20
367.09453999999988
 30
0.0
 11
-527.63385000000005
 21
367.09453999999988
 31
0.0
  0
LINE
  5
55A
  8
0
  6
CONTINUOUS
 62
     3
 10
-655.9067399999999
 20
347.59485000000001
 30
0.0
 11
-575.90686000000005
 21
347.59485000000001
 31
0.0
  0
LINE
  5
55B
  8
0
  6
CONTINUOUS
 62
     3
 10
-575.90686000000005
 20
347.59485000000001
 30
0.0
 11
-575.90686000000005
 21
340.59485000000001
 31
0.0
  0
LINE
  5
55C
  8
0
  6
CONTINUOUS
 62
     3
 10
-577.40686000000005
 20
324.09485000000001
 30
0.0
 11
-577.40686000000005
 21
340.59485000000001
 31
0.0
  0
LINE
  5
55D
  8
0
  6
CONTINUOUS
 62
     3
 10
-635.40686000000005
 20
336.59485000000001
 30
0.0
 11
-635.40686000000005
 21
344.09485000000001
 31
0.0
  0
LINE
  5
55E
  8
0
  6
CONTINUOUS
 62
     3
 10
-650.40674000000001
 20
344.09485000000001
 30
0.0
 11
-650.40674000000001
 21
336.59485000000001
 31
0.0
  0
LINE
  5
55F
  8
0
  6
CONTINUOUS
 62
     3
 10
-654.40674000000001
 20
344.09485000000001
 30
0.0
 11
-654.40674000000001
 21
324.09485000000001
 31
0.0
  0
LINE
  5
560
  8
0
  6
CONTINUOUS
 62
     3
 10
-625.20685000000003
 20
321.09485000000001
 30
0.0
 11
-589.60686999999984
 21
321.09485000000001
 31
0.0
  0
LINE
  5
561
  8
0
  6
CONTINUOUS
 62
     3
 10
-654.40674000000001
 20
324.09485000000001
 30
0.0
 11
-577.40686000000005
 21
324.09485000000001
 31
0.0
  0
LINE
  5
562
  8
0
  6
CONTINUOUS
 62
     3
 10
-654.40674000000001
 20
340.59485000000001
 30
0.0
 11
-650.40674000000001
 21
340.59485000000001
 31
0.0
  0
LINE
  5
563
  8
0
  6
CONTINUOUS
 62
     3
 10
-584.40679999999998
 20
324.09482000000008
 30
0.0
 11
-589.60680999999988
 21
321.09478999999982
 31
0.0
  0
LINE
  5
564
  8
0
  6
CONTINUOUS
 62
     3
 10
-625.20685000000003
 20
321.09487999999999
 30
0.0
 11
-630.40679999999998
 21
324.09485000000001
 31
0.0
  0
LINE
  5
565
  8
0
  6
CONTINUOUS
 62
     3
 10
-657.90674000000001
 20
344.09485000000001
 30
0.0
 11
-657.90674000000001
 21
329.09582999999992
 31
0.0
  0
LINE
  5
566
  8
0
  6
CONTINUOUS
 62
     3
 10
-654.40674000000001
 20
329.09582999999992
 30
0.0
 11
-657.90674000000001
 21
329.09582999999992
 31
0.0
  0
LINE
  5
567
  8
0
  6
CONTINUOUS
 62
     3
 10
-638.90686000000005
 20
344.09485000000001
 30
0.0
 11
-638.90686000000005
 21
336.59485000000001
 31
0.0
  0
LINE
  5
568
  8
0
  6
CONTINUOUS
 62
     3
 10
-646.90674000000001
 20
344.09485000000001
 30
0.0
 11
-646.90674000000001
 21
336.59485000000001
 31
0.0
  0
LINE
  5
569
  8
0
  6
CONTINUOUS
 62
     3
 10
-635.40686000000005
 20
340.59485000000001
 30
0.0
 11
-575.90686000000005
 21
340.59485000000001
 31
0.0
  0
LINE
  5
56A
  8
0
  6
CONTINUOUS
 62
     3
 10
-657.90674000000001
 20
344.09485000000001
 30
0.0
 11
-575.90686000000005
 21
344.09485000000001
 31
0.0
  0
LINE
  5
56B
  8
0
  6
CONTINUOUS
 62
     3
 10
-655.9067399999999
 20
347.59485000000001
 30
0.0
 11
-655.9067399999999
 21
344.09485000000001
 31
0.0
  0
LINE
  5
56C
  8
0
  6
CONTINUOUS
 62
     7
 10
-577.13385000000005
 20
348.59485000000001
 30
0.0
 11
-577.13385000000005
 21
347.59485000000001
 31
0.0
  0
LINE
  5
56D
  8
0
  6
CONTINUOUS
 62
     7
 10
-636.13385000000017
 20
348.59485000000001
 30
0.0
 11
-636.13385000000017
 21
347.59485000000001
 31
0.0
  0
LINE
  5
56E
  8
0
  6
CONTINUOUS
 62
     7
 10
-557.42815999999993
 20
458.02373999999992
 30
0.0
 11
-561.57384999999988
 21
473.50487999999962
 31
0.0
  0
LINE
  5
56F
  8
0
  6
CONTINUOUS
 62
     7
 10
-557.42815999999993
 20
457.11374000000001
 30
0.0
 11
-561.57390999999996
 21
472.59487999999999
 31
0.0
  0
LINE
  5
570
  8
0
  6
CONTINUOUS
 62
     7
 10
-557.42815999999993
 20
455.26378999999991
 30
0.0
 11
-561.57384999999988
 21
470.74492999999961
 31
0.0
  0
LINE
  5
571
  8
0
  6
CONTINUOUS
 62
     7
 10
-555.63385000000005
 20
469.09485000000001
 30
0.0
 11
-555.63385000000005
 21
357.09485000000001
 31
0.0
  0
LINE
  5
572
  8
0
  6
CONTINUOUS
 62
     7
 10
-677.63385000000005
 20
461.11487
 30
0.0
 11
-677.63385000000005
 21
418.09485000000001
 31
0.0
  0
LINE
  5
573
  8
0
  6
CONTINUOUS
 62
     7
 10
-675.3638900000002
 20
462.84485000000001
 30
0.0
 11
-673.13385000000005
 21
462.84485000000001
 31
0.0
  0
LINE
  5
574
  8
0
  6
CONTINUOUS
 62
     7
 10
-675.43384000000003
 20
448.78478999999999
 30
0.0
 11
-673.33385999999985
 21
448.78478999999999
 31
0.0
  0
LINE
  5
575
  8
0
  6
CONTINUOUS
 62
     7
 10
-675.86383000000001
 20
462.71480999999989
 30
0.0
 11
-677.13385000000005
 21
461.97482000000002
 31
0.0
  0
LINE
  5
576
  8
0
  6
CONTINUOUS
 62
     7
 10
-675.87390000000016
 20
460.59487999999999
 30
0.0
 11
-677.15392999999995
 21
459.82485999999989
 31
0.0
  0
LINE
  5
577
  8
0
  6
CONTINUOUS
 62
     7
 10
-675.88396999999998
 20
456.05484000000001
 30
0.0
 11
-677.18395999999996
 21
455.20485999999988
 31
0.0
  0
LINE
  5
578
  8
0
  6
CONTINUOUS
 62
     7
 10
-675.82384999999999
 20
448.70485999999988
 30
0.0
 11
-677.02385999999979
 21
448.19484999999992
 31
0.0
  0
LINE
  5
579
  8
0
  6
CONTINUOUS
 62
     7
 10
-675.35388
 20
460.73485999999991
 30
0.0
 11
-672.63385000000005
 21
460.73485999999991
 31
0.0
  0
LINE
  5
57A
  8
0
  6
CONTINUOUS
 62
     7
 10
-675.33385999999985
 20
456.22484999999989
 30
0.0
 11
-672.63385000000005
 21
456.22484999999989
 31
0.0
  0
LINE
  5
57B
  8
0
  6
CONTINUOUS
 62
     7
 10
-675.48389000000009
 20
446.83483999999987
 30
0.0
 11
-673.63385000000017
 21
446.83483999999987
 31
0.0
  0
LINE
  5
57C
  8
0
  6
CONTINUOUS
 62
     7
 10
-675.3638900000002
 20
455.08483999999987
 30
0.0
 11
-673.63385000000017
 21
455.08483999999987
 31
0.0
  0
LINE
  5
57D
  8
0
  6
CONTINUOUS
 62
     7
 10
-675.38385000000005
 20
459.59485000000001
 30
0.0
 11
-673.63385000000017
 21
459.59485000000001
 31
0.0
  0
LINE
  5
57E
  8
0
  6
CONTINUOUS
 62
     7
 10
-675.39386000000002
 20
461.69481999999999
 30
0.0
 11
-673.13385000000005
 21
461.69481999999999
 31
0.0
  0
LINE
  5
57F
  8
0
  6
CONTINUOUS
 62
     7
 10
-675.8638900000002
 20
454.94484999999992
 30
0.0
 11
-677.14391999999975
 21
454.19488999999999
 31
0.0
  0
LINE
  5
580
  8
0
  6
CONTINUOUS
 62
     7
 10
-675.77386000000001
 20
446.7948599999998
 30
0.0
 11
-676.92389000000003
 21
446.44488999999987
 31
0.0
  0
LINE
  5
581
  8
0
  6
CONTINUOUS
 62
     7
 10
-675.84387000000004
 20
461.59487999999988
 30
0.0
 11
-677.08385999999985
 21
460.96487000000002
 31
0.0
  0
LINE
  5
582
  8
0
  6
CONTINUOUS
 62
     7
 10
-675.85382000000004
 20
459.48489000000001
 30
0.0
 11
-677.10388
 21
458.81484999999992
 31
0.0
  0
LINE
  5
583
  8
0
  6
CONTINUOUS
 62
     7
 10
-673.63385000000017
 20
439.09485000000001
 30
0.0
 11
-676.63385000000005
 21
439.09485000000001
 31
0.0
  0
LINE
  5
584
  8
0
  6
CONTINUOUS
 62
     7
 10
-673.63385000000017
 20
437.09484999999989
 30
0.0
 11
-676.63385000000005
 21
437.09484999999989
 31
0.0
  0
LINE
  5
585
  8
0
  6
CONTINUOUS
 62
     7
 10
-673.63385000000017
 20
429.09484999999989
 30
0.0
 11
-676.63385000000005
 21
429.09484999999989
 31
0.0
  0
LINE
  5
586
  8
0
  6
CONTINUOUS
 62
     7
 10
-673.63385000000017
 20
427.09485000000001
 30
0.0
 11
-676.63385000000005
 21
427.09485000000001
 31
0.0
  0
LINE
  5
587
  8
0
  6
CONTINUOUS
 62
     7
 10
-673.63385000000017
 20
419.09485000000001
 30
0.0
 11
-676.63385000000005
 21
419.09485000000001
 31
0.0
  0
LINE
  5
588
  8
0
  6
CONTINUOUS
 62
     7
 10
-673.63385000000017
 20
417.09484999999989
 30
0.0
 11
-676.63385000000005
 21
417.09484999999989
 31
0.0
  0
LINE
  5
589
  8
0
  6
CONTINUOUS
 62
     7
 10
-675.63385000000005
 20
428.70482999999962
 30
0.0
 11
-675.63385000000005
 21
427.49486999999999
 31
0.0
  0
LINE
  5
58A
  8
0
  6
CONTINUOUS
 62
     7
 10
-675.63385000000005
 20
418.70482999999979
 30
0.0
 11
-675.63385000000005
 21
417.54480000000001
 31
0.0
  0
LINE
  5
58B
  8
0
  6
CONTINUOUS
 62
     7
 10
-675.63385000000005
 20
438.72485
 30
0.0
 11
-675.63385000000005
 21
437.35485999999992
 31
0.0
  0
LINE
  5
58C
  8
0
  6
CONTINUOUS
 62
     7
 10
-675.63385000000005
 20
448.48485999999991
 30
0.0
 11
-675.63385000000005
 21
447.4248
 31
0.0
  0
LINE
  5
58D
  8
0
  6
CONTINUOUS
 62
     7
 10
-675.63385000000005
 20
455.9248
 30
0.0
 11
-675.63385000000005
 21
455.45482999999962
 31
0.0
  0
LINE
  5
58E
  8
0
  6
CONTINUOUS
 62
     7
 10
-675.63385000000005
 20
460.49486999999999
 30
0.0
 11
-675.63385000000005
 21
459.94481999999999
 31
0.0
  0
LINE
  5
58F
  8
0
  6
CONTINUOUS
 62
     7
 10
-675.63385000000005
 20
462.59484999999989
 30
0.0
 11
-675.63385000000005
 21
462.06481999999988
 31
0.0
  0
LINE
  5
590
  8
0
  6
CONTINUOUS
 62
     7
 10
-679.13385000000005
 20
433.09484999999989
 30
0.0
 11
-679.13385000000005
 21
413.09485000000001
 31
0.0
  0
LINE
  5
591
  8
0
  6
CONTINUOUS
 62
     7
 10
-679.13385000000005
 20
433.09478999999988
 30
0.0
 11
-677.63385000000005
 21
433.22478999999993
 31
0.0
  0
LINE
  5
592
  8
0
  6
CONTINUOUS
 62
     7
 10
-679.13385000000005
 20
428.24486999999988
 30
0.0
 11
-677.63385000000005
 21
428.24486999999988
 31
0.0
  0
LINE
  5
593
  8
0
  6
CONTINUOUS
 62
     7
 10
-679.13385000000005
 20
430.37488000000002
 30
0.0
 11
-677.63385000000005
 21
430.37488000000002
 31
0.0
  0
LINE
  5
594
  8
0
  6
CONTINUOUS
 62
     7
 10
-562.29387999999994
 20
449.09485000000001
 30
0.0
 11
-661.27386000000001
 21
449.09485000000001
 31
0.0
  0
LINE
  5
595
  8
0
  6
CONTINUOUS
 62
     7
 10
-562.29387999999994
 20
447.09485000000001
 30
0.0
 11
-661.27386000000001
 21
447.09485000000001
 31
0.0
  0
LINE
  5
596
  8
0
  6
CONTINUOUS
 62
     7
 10
-594.63385000000017
 20
439.09485000000001
 30
0.0
 11
-661.27386000000001
 21
439.09485000000001
 31
0.0
  0
LINE
  5
597
  8
0
  6
CONTINUOUS
 62
     7
 10
-562.30102999999986
 20
437.09484999999989
 30
0.0
 11
-661.27386000000001
 21
437.09484999999989
 31
0.0
  0
LINE
  5
598
  8
0
  6
CONTINUOUS
 62
     7
 10
-627.19512999999995
 20
429.09484999999989
 30
0.0
 11
-661.27386000000001
 21
429.09484999999989
 31
0.0
  0
LINE
  5
599
  8
0
  6
CONTINUOUS
 62
     7
 10
-627.19512999999995
 20
427.09485000000001
 30
0.0
 11
-661.27386000000001
 21
427.09485000000001
 31
0.0
  0
LINE
  5
59A
  8
0
  6
CONTINUOUS
 62
     7
 10
-627.19512999999995
 20
419.09485000000001
 30
0.0
 11
-661.27386000000001
 21
419.09485000000001
 31
0.0
  0
LINE
  5
59B
  8
0
  6
CONTINUOUS
 62
     7
 10
-627.19512999999995
 20
417.09484999999989
 30
0.0
 11
-661.27386000000001
 21
417.09484999999989
 31
0.0
  0
LINE
  5
59C
  8
0
  6
CONTINUOUS
 62
     7
 10
-661.95385999999985
 20
449.81482
 30
0.0
 11
-558.81384000000003
 21
449.81482
 31
0.0
  0
LINE
  5
59D
  8
0
  6
CONTINUOUS
 62
     7
 10
-661.95385999999985
 20
446.46483999999992
 30
0.0
 11
-594.61383000000001
 21
446.46483999999992
 31
0.0
  0
LINE
  5
59E
  8
0
  6
CONTINUOUS
 62
     7
 10
-662.17389000000003
 20
439.58483999999999
 30
0.0
 11
-594.63385000000017
 21
439.58483999999999
 31
0.0
  0
LINE
  5
59F
  8
0
  6
CONTINUOUS
 62
     7
 10
-662.17389000000003
 20
436.65490999999992
 30
0.0
 11
-558.59960999999998
 21
436.65490999999992
 31
0.0
  0
LINE
  5
5A0
  8
0
  6
CONTINUOUS
 62
     7
 10
-662.30382999999995
 20
429.43480999999991
 30
0.0
 11
-625.97515999999985
 21
429.43480999999991
 31
0.0
  0
LINE
  5
5A1
  8
0
  6
CONTINUOUS
 62
     7
 10
-662.30382999999995
 20
426.7749
 30
0.0
 11
-625.97515999999985
 21
426.7749
 31
0.0
  0
LINE
  5
5A2
  8
0
  6
CONTINUOUS
 62
     7
 10
-662.3638900000002
 20
419.36486999999988
 30
0.0
 11
-625.91516000000001
 21
419.36486999999988
 31
0.0
  0
LINE
  5
5A3
  8
0
  6
CONTINUOUS
 62
     7
 10
-662.3638900000002
 20
416.83483999999999
 30
0.0
 11
-625.91516000000001
 21
416.83483999999999
 31
0.0
  0
LINE
  5
5A4
  8
0
  6
CONTINUOUS
 62
     7
 10
-662.3638900000002
 20
409.36487
 30
0.0
 11
-625.91516000000001
 21
409.36487
 31
0.0
  0
LINE
  5
5A5
  8
0
  6
CONTINUOUS
 62
     7
 10
-627.19512999999995
 20
409.09485000000001
 30
0.0
 11
-661.27386000000001
 21
409.09485000000001
 31
0.0
  0
LINE
  5
5A6
  8
0
  6
CONTINUOUS
 62
     7
 10
-627.19512999999995
 20
407.09485000000001
 30
0.0
 11
-661.27386000000001
 21
407.09485000000001
 31
0.0
  0
LINE
  5
5A7
  8
0
  6
CONTINUOUS
 62
     7
 10
-662.3638900000002
 20
406.82482999999962
 30
0.0
 11
-625.91516000000001
 21
406.82482999999962
 31
0.0
  0
LINE
  5
5A8
  8
0
  6
CONTINUOUS
 62
     7
 10
-662.30382999999995
 20
399.41478999999993
 30
0.0
 11
-625.97515999999985
 21
399.41478999999993
 31
0.0
  0
LINE
  5
5A9
  8
0
  6
CONTINUOUS
 62
     7
 10
-627.19512999999995
 20
399.09485000000001
 30
0.0
 11
-661.27386000000001
 21
399.09485000000001
 31
0.0
  0
LINE
  5
5AA
  8
0
  6
CONTINUOUS
 62
     7
 10
-627.19512999999995
 20
397.09485000000001
 30
0.0
 11
-661.27386000000001
 21
397.09485000000001
 31
0.0
  0
LINE
  5
5AB
  8
0
  6
CONTINUOUS
 62
     7
 10
-662.30382999999995
 20
396.75487999999979
 30
0.0
 11
-625.9625900000002
 21
396.75487999999979
 31
0.0
  0
LINE
  5
5AC
  8
0
  6
CONTINUOUS
 62
     7
 10
-562.30102999999986
 20
389.09485000000001
 30
0.0
 11
-661.27386000000001
 21
389.09485000000001
 31
0.0
  0
LINE
  5
5AD
  8
0
  6
CONTINUOUS
 62
     7
 10
-662.17389000000003
 20
389.53478999999987
 30
0.0
 11
-558.59960999999998
 21
389.53478999999987
 31
0.0
  0
LINE
  5
5AE
  8
0
  6
CONTINUOUS
 62
     7
 10
-594.63385000000017
 20
387.09485000000001
 30
0.0
 11
-661.27386000000001
 21
387.09485000000001
 31
0.0
  0
LINE
  5
5AF
  8
0
  6
CONTINUOUS
 62
     7
 10
-662.17389000000003
 20
386.60485999999992
 30
0.0
 11
-594.63385000000017
 21
386.60485999999992
 31
0.0
  0
LINE
  5
5B0
  8
0
  6
CONTINUOUS
 62
     7
 10
-562.29387999999994
 20
379.09485000000001
 30
0.0
 11
-606.63385000000005
 21
379.09485000000001
 31
0.0
  0
LINE
  5
5B1
  8
0
  6
CONTINUOUS
 62
     7
 10
-562.29387999999994
 20
377.09485000000001
 30
0.0
 11
-606.63385000000005
 21
377.09485000000001
 31
0.0
  0
LINE
  5
5B2
  8
0
  6
CONTINUOUS
 62
     7
 10
-661.95385999999985
 20
376.37487999999991
 30
0.0
 11
-606.63385000000005
 21
376.37487999999991
 31
0.0
  0
LINE
  5
5B3
  8
0
  6
CONTINUOUS
 62
     7
 10
-558.81384000000003
 20
379.72485
 30
0.0
 11
-576.65386999999987
 21
379.72485
 31
0.0
  0
LINE
  5
5B4
  8
0
  6
CONTINUOUS
 62
     7
 10
-675.43384000000003
 20
377.40490999999992
 30
0.0
 11
-673.33385999999985
 21
377.40490999999992
 31
0.0
  0
LINE
  5
5B5
  8
0
  6
CONTINUOUS
 62
     7
 10
-675.82379000000003
 20
377.48486000000003
 30
0.0
 11
-677.02385999999979
 21
378.00484999999992
 31
0.0
  0
LINE
  5
5B6
  8
0
  6
CONTINUOUS
 62
     7
 10
-675.48389000000009
 20
379.35485999999992
 30
0.0
 11
-673.63385000000017
 21
379.35485999999992
 31
0.0
  0
LINE
  5
5B7
  8
0
  6
CONTINUOUS
 62
     7
 10
-675.77386000000001
 20
379.39483999999999
 30
0.0
 11
-676.92382999999995
 21
379.75482
 31
0.0
  0
LINE
  5
5B8
  8
0
  6
CONTINUOUS
 62
     7
 10
-673.63385000000017
 20
387.09485000000001
 30
0.0
 11
-676.63385000000005
 21
387.09485000000001
 31
0.0
  0
LINE
  5
5B9
  8
0
  6
CONTINUOUS
 62
     7
 10
-673.63385000000017
 20
389.09485000000001
 30
0.0
 11
-676.63385000000005
 21
389.09485000000001
 31
0.0
  0
LINE
  5
5BA
  8
0
  6
CONTINUOUS
 62
     7
 10
-673.63385000000017
 20
397.09485000000001
 30
0.0
 11
-676.63385000000005
 21
397.09485000000001
 31
0.0
  0
LINE
  5
5BB
  8
0
  6
CONTINUOUS
 62
     7
 10
-673.63385000000017
 20
399.09485000000001
 30
0.0
 11
-676.63385000000005
 21
399.09485000000001
 31
0.0
  0
LINE
  5
5BC
  8
0
  6
CONTINUOUS
 62
     7
 10
-673.63385000000017
 20
407.09485000000001
 30
0.0
 11
-676.63385000000005
 21
407.09485000000001
 31
0.0
  0
LINE
  5
5BD
  8
0
  6
CONTINUOUS
 62
     7
 10
-673.63385000000017
 20
409.09485000000001
 30
0.0
 11
-676.63385000000005
 21
409.09485000000001
 31
0.0
  0
LINE
  5
5BE
  8
0
  6
CONTINUOUS
 62
     7
 10
-675.63385000000005
 20
397.48486000000008
 30
0.0
 11
-675.63385000000005
 21
398.70482999999979
 31
0.0
  0
LINE
  5
5BF
  8
0
  6
CONTINUOUS
 62
     7
 10
-675.63385000000005
 20
407.48486000000003
 30
0.0
 11
-675.63385000000005
 21
408.64489999999989
 31
0.0
  0
LINE
  5
5C0
  8
0
  6
CONTINUOUS
 62
     7
 10
-675.63385000000005
 20
387.46483999999992
 30
0.0
 11
-675.63385000000005
 21
388.83483999999987
 31
0.0
  0
LINE
  5
5C1
  8
0
  6
CONTINUOUS
 62
     7
 10
-675.63385000000005
 20
377.70482999999979
 30
0.0
 11
-675.63385000000005
 21
378.76488999999992
 31
0.0
  0
LINE
  5
5C2
  8
0
  6
CONTINUOUS
 62
     7
 10
-679.13385000000005
 20
393.09484999999989
 30
0.0
 11
-679.13385000000005
 21
413.09485000000001
 31
0.0
  0
LINE
  5
5C3
  8
0
  6
CONTINUOUS
 62
     7
 10
-679.13391000000001
 20
393.09478999999988
 30
0.0
 11
-677.63391000000001
 21
392.96480999999989
 31
0.0
  0
LINE
  5
5C4
  8
0
  6
CONTINUOUS
 62
     7
 10
-679.13385000000005
 20
397.94481999999999
 30
0.0
 11
-677.63385000000005
 21
397.94481999999999
 31
0.0
  0
LINE
  5
5C5
  8
0
  6
CONTINUOUS
 62
     7
 10
-679.13385000000005
 20
395.81482
 30
0.0
 11
-677.63385000000005
 21
395.81482
 31
0.0
  0
LINE
  5
5C6
  8
0
  6
CONTINUOUS
 62
     7
 10
-661.95385999999985
 20
379.72485
 30
0.0
 11
-594.61383000000001
 21
379.72485
 31
0.0
  0
LINE
  5
5C7
  8
0
  6
CONTINUOUS
 62
     7
 10
-606.63385000000005
 20
379.09485000000001
 30
0.0
 11
-661.27386000000001
 21
379.09485000000001
 31
0.0
  0
LINE
  5
5C8
  8
0
  6
CONTINUOUS
 62
     7
 10
-606.63385000000005
 20
377.09485000000001
 30
0.0
 11
-661.27386000000001
 21
377.09485000000001
 31
0.0
  0
LINE
  5
5C9
  8
0
  6
CONTINUOUS
 62
     7
 10
-606.63385000000005
 20
376.37487999999991
 30
0.0
 11
-558.81384000000003
 21
376.37487999999991
 31
0.0
  0
LINE
  5
5CA
  8
0
  6
CONTINUOUS
 62
     7
 10
-671.63385000000005
 20
466.09484999999989
 30
0.0
 11
-671.63385000000005
 21
360.09485000000001
 31
0.0
  0
LINE
  5
5CB
  8
0
  6
CONTINUOUS
 62
     7
 10
-663.63385000000005
 20
466.09484999999989
 30
0.0
 11
-663.63385000000005
 21
360.09485000000001
 31
0.0
  0
LINE
  5
5CC
  8
0
  6
CONTINUOUS
 62
     7
 10
-677.14386000000002
 20
371.99480999999992
 30
0.0
 11
-677.16387999999995
 21
372.00479000000001
 31
0.0
  0
LINE
  5
5CD
  8
0
  6
CONTINUOUS
 62
     7
 10
-672.63385000000005
 20
463.09485000000001
 30
0.0
 11
-672.63385000000005
 21
363.09485000000001
 31
0.0
  0
LINE
  5
5CE
  8
0
  6
CONTINUOUS
 62
     7
 10
-672.63385000000005
 20
463.09485000000001
 30
0.0
 11
-671.63385000000005
 21
463.09485000000001
 31
0.0
  0
LINE
  5
5CF
  8
0
  6
CONTINUOUS
 62
     7
 10
-671.63385000000005
 20
466.09484999999989
 30
0.0
 11
-663.63385000000005
 21
466.09484999999989
 31
0.0
  0
LINE
  5
5D0
  8
0
  6
CONTINUOUS
 62
     7
 10
-670.93384000000003
 20
456.28478999999999
 30
0.0
 11
-664.70385999999996
 21
456.28478999999999
 31
0.0
  0
LINE
  5
5D1
  8
0
  6
CONTINUOUS
 62
     7
 10
-555.63385000000005
 20
459.09485000000001
 30
0.0
 11
-547.63385000000005
 21
459.09485000000001
 31
0.0
  0
LINE
  5
5D2
  8
0
  6
CONTINUOUS
 62
     7
 10
-555.63385000000005
 20
445.03478999999987
 30
0.0
 11
-547.63385000000005
 21
445.03478999999987
 31
0.0
  0
LINE
  5
5D3
  8
0
  6
CONTINUOUS
 62
     7
 10
-555.63385000000005
 20
469.09485000000001
 30
0.0
 11
-547.63385000000005
 21
469.09485000000001
 31
0.0
  0
LINE
  5
5D4
  8
0
  6
CONTINUOUS
 62
     7
 10
-660.42389000000003
 20
469.37487999999979
 30
0.0
 11
-563.50385000000017
 21
469.37487999999979
 31
0.0
  0
LINE
  5
5D5
  8
0
  6
CONTINUOUS
 62
     7
 10
-663.63385000000005
 20
461.19488999999987
 30
0.0
 11
-662.39386000000002
 21
467.75487999999962
 31
0.0
  0
LINE
  5
5D6
  8
0
  6
CONTINUOUS
 62
     7
 10
-658.27380000000005
 20
449.7448099999998
 30
0.0
 11
-663.63378999999998
 21
461.19479000000001
 31
0.0
  0
LINE
  5
5D7
  8
0
  6
CONTINUOUS
 62
     7
 10
-658.27385999999979
 20
376.44479000000001
 30
0.0
 11
-663.63385000000005
 21
365.00490999999988
 31
0.0
  0
LINE
  5
5D8
  8
0
  6
CONTINUOUS
 62
     7
 10
-660.38385000000005
 20
472.22485
 30
0.0
 11
-563.50385000000017
 21
472.22485
 31
0.0
  0
LINE
  5
5D9
  8
0
  6
CONTINUOUS
 62
     7
 10
-660.36388999999986
 20
474.07482999999991
 30
0.0
 11
-563.50385000000017
 21
474.07482999999991
 31
0.0
  0
LINE
  5
5DA
  8
0
  6
CONTINUOUS
 62
     7
 10
-660.34387000000004
 20
474.98485999999991
 30
0.0
 11
-563.50378000000001
 21
474.98485999999991
 31
0.0
  0
LINE
  5
5DB
  8
0
  6
CONTINUOUS
 62
     7
 10
-663.63385000000005
 20
462.53487999999999
 30
0.0
 11
-662.35382000000004
 21
470.54482999999988
 31
0.0
  0
LINE
  5
5DC
  8
0
  6
CONTINUOUS
 62
     7
 10
-663.63391000000001
 20
463.88482999999991
 30
0.0
 11
-662.34387000000004
 21
472.37490999999989
 31
0.0
  0
LINE
  5
5DD
  8
0
  6
CONTINUOUS
 62
     7
 10
-663.63385000000005
 20
463.88485999999989
 30
0.0
 11
-662.32384999999999
 21
473.26488999999998
 31
0.0
  0
LINE
  5
5DE
  8
0
  6
CONTINUOUS
 62
     7
 10
-557.43384000000003
 20
452.43477999999999
 30
0.0
 11
-561.57384999999988
 21
467.89480999999989
 31
0.0
  0
LINE
  5
5DF
  8
0
  6
CONTINUOUS
 62
     7
 10
-561.09387000000004
 20
466.09484999999989
 30
0.0
 11
-555.63385000000005
 21
466.09484999999989
 31
0.0
  0
LINE
  5
5E0
  8
0
  6
CONTINUOUS
 62
     7
 10
-677.63385000000005
 20
365.07482999999991
 30
0.0
 11
-677.63385000000005
 21
408.09484999999989
 31
0.0
  0
LINE
  5
5E1
  8
0
  6
CONTINUOUS
 62
     7
 10
-675.3638900000002
 20
363.34485000000001
 30
0.0
 11
-673.13385000000005
 21
363.34485000000001
 31
0.0
  0
LINE
  5
5E2
  8
0
  6
CONTINUOUS
 62
     7
 10
-675.86383000000001
 20
363.48480000000001
 30
0.0
 11
-677.13385000000005
 21
364.21480999999989
 31
0.0
  0
LINE
  5
5E3
  8
0
  6
CONTINUOUS
 62
     7
 10
-675.8738400000002
 20
365.59485000000001
 30
0.0
 11
-677.15380999999979
 21
366.36486999999988
 31
0.0
  0
LINE
  5
5E4
  8
0
  6
CONTINUOUS
 62
     7
 10
-675.88385000000017
 20
370.13482999999991
 30
0.0
 11
-677.18389999999988
 21
370.98482999999987
 31
0.0
  0
LINE
  5
5E5
  8
0
  6
CONTINUOUS
 62
     7
 10
-675.35388
 20
365.45482999999979
 30
0.0
 11
-672.63385000000005
 21
365.45482999999979
 31
0.0
  0
LINE
  5
5E6
  8
0
  6
CONTINUOUS
 62
     7
 10
-675.33385999999985
 20
369.97485
 30
0.0
 11
-672.63385000000005
 21
369.97485
 31
0.0
  0
LINE
  5
5E7
  8
0
  6
CONTINUOUS
 62
     7
 10
-675.3638900000002
 20
371.11486999999988
 30
0.0
 11
-673.63385000000017
 21
371.11486999999988
 31
0.0
  0
LINE
  5
5E8
  8
0
  6
CONTINUOUS
 62
     7
 10
-675.38385000000005
 20
366.59485000000001
 30
0.0
 11
-673.63385000000017
 21
366.59485000000001
 31
0.0
  0
LINE
  5
5E9
  8
0
  6
CONTINUOUS
 62
     7
 10
-675.39386000000002
 20
364.49486999999999
 30
0.0
 11
-673.13385000000005
 21
364.49486999999999
 31
0.0
  0
LINE
  5
5EA
  8
0
  6
CONTINUOUS
 62
     7
 10
-675.8638900000002
 20
371.24486999999988
 30
0.0
 11
-677.14386000000002
 21
371.99486999999988
 31
0.0
  0
LINE
  5
5EB
  8
0
  6
CONTINUOUS
 62
     7
 10
-675.84387000000004
 20
364.60480000000001
 30
0.0
 11
-677.08385999999985
 21
365.23479999999989
 31
0.0
  0
LINE
  5
5EC
  8
0
  6
CONTINUOUS
 62
     7
 10
-675.85388
 20
366.71480999999989
 30
0.0
 11
-677.10388
 21
367.37481999999989
 31
0.0
  0
LINE
  5
5ED
  8
0
  6
CONTINUOUS
 62
     7
 10
-675.63385000000005
 20
370.26488999999992
 30
0.0
 11
-675.63385000000005
 21
370.73486000000003
 31
0.0
  0
LINE
  5
5EE
  8
0
  6
CONTINUOUS
 62
     7
 10
-675.63385000000005
 20
365.69481999999988
 30
0.0
 11
-675.63385000000005
 21
366.24486999999999
 31
0.0
  0
LINE
  5
5EF
  8
0
  6
CONTINUOUS
 62
     7
 10
-675.63385000000005
 20
363.59485000000001
 30
0.0
 11
-675.63385000000005
 21
364.12487999999991
 31
0.0
  0
LINE
  5
5F0
  8
0
  6
CONTINUOUS
 62
     7
 10
-672.63385000000005
 20
363.09485000000001
 30
0.0
 11
-671.63385000000005
 21
363.09485000000001
 31
0.0
  0
LINE
  5
5F1
  8
0
  6
CONTINUOUS
 62
     7
 10
-671.63385000000005
 20
360.09485000000001
 30
0.0
 11
-663.63385000000005
 21
360.09485000000001
 31
0.0
  0
LINE
  5
5F2
  8
0
  6
CONTINUOUS
 62
     7
 10
-670.93384000000003
 20
369.90490999999992
 30
0.0
 11
-664.70385999999996
 21
369.90490999999992
 31
0.0
  0
LINE
  5
5F3
  8
0
  6
CONTINUOUS
 62
     7
 10
-555.63385000000005
 20
367.09485000000001
 30
0.0
 11
-547.63385000000005
 21
367.09485000000001
 31
0.0
  0
LINE
  5
5F4
  8
0
  6
CONTINUOUS
 62
     7
 10
-555.63385000000005
 20
357.09485000000001
 30
0.0
 11
-547.63385000000005
 21
357.09485000000001
 31
0.0
  0
LINE
  5
5F5
  8
0
  6
CONTINUOUS
 62
     7
 10
-660.42389000000003
 20
356.81481999999983
 30
0.0
 11
-563.50385000000017
 21
356.81481999999983
 31
0.0
  0
LINE
  5
5F6
  8
0
  6
CONTINUOUS
 62
     7
 10
-663.63391000000001
 20
365.00479000000001
 30
0.0
 11
-662.39386000000002
 21
358.44481999999999
 31
0.0
  0
LINE
  5
5F7
  8
0
  6
CONTINUOUS
 62
     7
 10
-660.72760000000005
 20
353.96483999999992
 30
0.0
 11
-638.23572000000001
 21
353.96483999999992
 31
0.0
  0
LINE
  5
5F8
  8
0
  6
CONTINUOUS
 62
     7
 10
-663.63385000000005
 20
363.65481999999997
 30
0.0
 11
-662.35388
 21
355.65490999999992
 31
0.0
  0
LINE
  5
5F9
  8
0
  6
CONTINUOUS
 62
     7
 10
-663.63385000000005
 20
362.31491
 30
0.0
 11
-662.62463000000002
 21
355.66472999999979
 31
0.0
  0
LINE
  5
5FA
  8
0
  6
CONTINUOUS
 62
     7
 10
-663.63391000000001
 20
362.31484999999992
 30
0.0
 11
-662.70844
 21
355.68826000000001
 31
0.0
  0
LINE
  5
5FB
  8
0
  6
CONTINUOUS
 62
     7
 10
-557.42815999999993
 20
373.77600000000001
 30
0.0
 11
-561.57384999999988
 21
358.29489000000001
 31
0.0
  0
LINE
  5
5FC
  8
0
  6
CONTINUOUS
 62
     7
 10
-561.09185999999966
 20
360.09485000000001
 30
0.0
 11
-555.63385000000005
 21
360.09485000000001
 31
0.0
  0
LINE
  5
5FD
  8
0
  6
CONTINUOUS
 62
     7
 10
-555.63385000000005
 20
381.15490999999992
 30
0.0
 11
-547.63385000000005
 21
381.15490999999992
 31
0.0
  0
LINE
  5
5FE
  8
0
  6
CONTINUOUS
 62
     3
 10
-636.63391000000001
 20
348.59478999999988
 30
0.0
 11
-636.84911999999997
 21
356.81487999999979
 31
0.0
  0
LINE
  5
5FF
  8
0
  6
CONTINUOUS
 62
     3
 10
-576.63385000000005
 20
348.59482000000008
 30
0.0
 11
-576.41857999999979
 21
356.81490999999983
 31
0.0
  0
LINE
  5
600
  8
0
  6
CONTINUOUS
 62
     3
 10
-556.63385000000005
 20
360.09482000000008
 30
0.0
 11
-562.35961999999995
 21
351.27791999999999
 31
0.0
  0
LINE
  5
601
  8
0
  6
CONTINUOUS
 62
     7
 10
-576.63385000000005
 20
348.59485000000001
 30
0.0
 11
-636.63385000000017
 21
348.59485000000001
 31
0.0
  0
LINE
  5
602
  8
0
  6
CONTINUOUS
 62
     7
 10
-575.12024000000019
 20
350.59485000000001
 30
0.0
 11
-563.61767999999995
 21
350.59485000000001
 31
0.0
  0
LINE
  5
603
  8
0
  6
CONTINUOUS
 62
     7
 10
-577.65386999999976
 20
440.59485000000001
 30
0.0
 11
-577.65386999999976
 21
445.45482999999979
 31
0.0
  0
LINE
  5
604
  8
0
  6
CONTINUOUS
 62
     7
 10
-593.61383000000001
 20
440.59485000000001
 30
0.0
 11
-593.61383000000001
 21
445.45482999999979
 31
0.0
  0
LINE
  5
605
  8
0
  6
CONTINUOUS
 62
     7
 10
-578.13385000000017
 20
440.59485000000001
 30
0.0
 11
-578.13385000000017
 21
445.59484999999989
 31
0.0
  0
LINE
  5
606
  8
0
  6
CONTINUOUS
 62
     7
 10
-593.13385000000005
 20
440.59485000000001
 30
0.0
 11
-593.13385000000005
 21
445.59484999999989
 31
0.0
  0
LINE
  5
607
  8
0
  6
CONTINUOUS
 62
     7
 10
-621.63385000000005
 20
426.09485000000001
 30
0.0
 11
-558.63385000000005
 21
426.09485000000001
 31
0.0
  0
LINE
  5
608
  8
0
  6
CONTINUOUS
 62
     7
 10
-621.63385000000005
 20
392.59485000000001
 30
0.0
 11
-558.63385000000005
 21
392.59485000000001
 31
0.0
  0
LINE
  5
609
  8
0
  6
CONTINUOUS
 62
     7
 10
-621.63385000000005
 20
433.59484999999989
 30
0.0
 11
-558.63385000000005
 21
433.59484999999989
 31
0.0
  0
LINE
  5
60A
  8
0
  6
CONTINUOUS
 62
     3
 10
-558.63385000000005
 20
433.59484999999989
 30
0.0
 11
-558.63385000000005
 21
392.59485000000001
 31
0.0
  0
LINE
  5
60B
  8
0
  6
CONTINUOUS
 62
     3
 10
-621.63385000000005
 20
433.59484999999989
 30
0.0
 11
-621.63385000000005
 21
392.59485000000001
 31
0.0
  0
LINE
  5
60C
  8
0
  6
CONTINUOUS
 62
     7
 10
-576.63385000000005
 20
439.58483999999999
 30
0.0
 11
-558.58812999999986
 21
439.58483999999999
 31
0.0
  0
LINE
  5
60D
  8
0
  6
CONTINUOUS
 62
     7
 10
-576.63385000000005
 20
386.61487
 30
0.0
 11
-558.59960999999998
 21
386.61487
 31
0.0
  0
LINE
  5
60E
  8
0
  6
CONTINUOUS
 62
     7
 10
-577.65386999999976
 20
385.59485000000001
 30
0.0
 11
-577.65386999999976
 21
380.73486000000003
 31
0.0
  0
LINE
  5
60F
  8
0
  6
CONTINUOUS
 62
     7
 10
-593.61383000000001
 20
385.59485000000001
 30
0.0
 11
-593.61383000000001
 21
380.73486000000003
 31
0.0
  0
LINE
  5
610
  8
0
  6
CONTINUOUS
 62
     7
 10
-578.13385000000017
 20
385.59485000000001
 30
0.0
 11
-578.13385000000017
 21
380.59484999999989
 31
0.0
  0
LINE
  5
611
  8
0
  6
CONTINUOUS
 62
     7
 10
-593.13385000000005
 20
385.59485000000001
 30
0.0
 11
-593.13385000000005
 21
380.59484999999989
 31
0.0
  0
LINE
  5
612
  8
0
  6
CONTINUOUS
 62
     7
 10
-562.30102999999986
 20
387.09485000000001
 30
0.0
 11
-576.63385000000005
 21
387.09485000000001
 31
0.0
  0
LINE
  5
613
  8
0
  6
CONTINUOUS
 62
     7
 10
-562.28674000000001
 20
439.09485000000001
 30
0.0
 11
-576.63385000000005
 21
439.09485000000001
 31
0.0
  0
LINE
  5
614
  8
0
  6
CONTINUOUS
 62
     3
 10
-576.65386999999987
 20
446.45482999999967
 30
0.0
 11
-558.81384000000003
 21
446.45482999999967
 31
0.0
  0
LINE
  5
615
  8
0
  6
CONTINUOUS
 62
     7
 10
-547.63385000000005
 20
381.15490999999992
 30
0.0
 11
-527.63385000000005
 21
381.15490999999992
 31
0.0
  0
LINE
  5
616
  8
0
  6
CONTINUOUS
 62
     7
 10
-547.63385000000005
 20
445.03478999999987
 30
0.0
 11
-527.63385000000005
 21
445.03478999999987
 31
0.0
  0
LINE
  5
617
  8
0
  6
CONTINUOUS
 62
     7
 10
-149.28093999999979
 20
167.5479399999999
 30
0.0
 11
-141.28095999999991
 21
167.5479399999999
 31
0.0
  0
LINE
  5
618
  8
0
  6
CONTINUOUS
 62
     7
 10
-149.28093999999979
 20
160.54793000000001
 30
0.0
 11
-141.28095999999991
 21
160.54793000000001
 31
0.0
  0
LINE
  5
619
  8
0
  6
CONTINUOUS
 62
     7
 10
-141.28095999999991
 20
160.54793000000001
 30
0.0
 11
-141.28095999999991
 21
167.5479399999999
 31
0.0
  0
LINE
  5
61A
  8
0
  6
CONTINUOUS
 62
     7
 10
-346.63382000000001
 20
167.5479399999999
 30
0.0
 11
-346.63382000000001
 21
164.5479399999999
 31
0.0
  0
LINE
  5
61B
  8
0
  6
CONTINUOUS
 62
     7
 10
-346.63382000000001
 20
167.5479399999999
 30
0.0
 11
-314.63378999999992
 21
167.5479399999999
 31
0.0
  0
LINE
  5
61C
  8
0
  6
CENTER
 62
     7
 10
-501.53676999999988
 20
150.54793000000001
 30
0.0
 11
-309.68603999999999
 21
150.54793000000001
 31
0.0
  0
LINE
  5
61D
  8
0
  6
CONTINUOUS
 62
     7
 10
-356.63378999999992
 20
136.5479399999999
 30
0.0
 11
-314.63378999999992
 21
136.5479399999999
 31
0.0
  0
LINE
  5
61E
  8
0
  6
CONTINUOUS
 62
     7
 10
-356.63378999999992
 20
235.54792999999981
 30
0.0
 11
-356.63378999999992
 21
65.547934999999995
 31
0.0
  0
LINE
  5
61F
  8
0
  6
CONTINUOUS
 62
     7
 10
-356.63378999999992
 20
164.5479399999999
 30
0.0
 11
-314.63378999999992
 21
164.5479399999999
 31
0.0
  0
LINE
  5
620
  8
0
  6
CONTINUOUS
 62
     7
 10
-149.28093999999979
 20
160.54793000000001
 30
0.0
 11
-149.28093999999979
 21
167.5479399999999
 31
0.0
  0
LINE
  5
621
  8
0
  6
CONTINUOUS
 62
     7
 10
-314.63378999999992
 20
167.5479399999999
 30
0.0
 11
-314.63378999999992
 21
136.5479399999999
 31
0.0
  0
LINE
  5
622
  8
0
  6
CONTINUOUS
 62
     7
 10
-435.63382000000001
 20
208.34792999999999
 30
0.0
 11
-435.63382000000001
 21
46.347931000000003
 31
0.0
  0
LINE
  5
623
  8
0
  6
CONTINUOUS
 62
     7
 10
-479.13382000000001
 20
75.847938999999982
 30
0.0
 11
-452.63378999999992
 21
75.847938999999982
 31
0.0
  0
LINE
  5
624
  8
0
  6
CONTINUOUS
 62
     7
 10
-479.13382000000001
 20
90.199996999999996
 30
0.0
 11
-452.63378999999992
 21
90.199996999999996
 31
0.0
  0
LINE
  5
625
  8
0
  6
CONTINUOUS
 62
     7
 10
-452.63378999999992
 20
198.17028999999991
 30
0.0
 11
-452.63378999999992
 21
48.872967000000003
 31
0.0
  0
LINE
  5
626
  8
0
  6
CONTINUOUS
 62
     7
 10
-447.80829
 20
203.16724999999991
 30
0.0
 11
-447.16314999999992
 21
203.18977000000001
 31
0.0
  0
LINE
  5
627
  8
0
  6
CONTINUOUS
 62
     7
 10
-479.13382000000001
 20
178.84795
 30
0.0
 11
-452.63378999999992
 21
178.84795
 31
0.0
  0
LINE
  5
628
  8
0
  6
CONTINUOUS
 62
     7
 10
-456.35297000000003
 20
191.69214999999991
 30
0.0
 11
-455.11287999999979
 21
191.91081
 31
0.0
  0
LINE
  5
629
  8
0
  6
CONTINUOUS
 62
     7
 10
-456.49074999999999
 20
63.028018999999993
 30
0.0
 11
-455.11284999999992
 21
62.785057000000002
 31
0.0
  0
LINE
  5
62A
  8
0
  6
CONTINUOUS
 62
     7
 10
-435.63378999999981
 20
208.34795999999989
 30
0.0
 11
-440.70361000000003
 21
208.17090999999991
 31
0.0
  0
LINE
  5
62B
  8
0
  6
CONTINUOUS
 62
     7
 10
-442.63378999999998
 20
206.17212000000001
 30
0.0
 11
-442.63378999999998
 21
183.68201999999999
 31
0.0
  0
LINE
  5
62C
  8
0
  6
CONTINUOUS
 62
     7
 10
-479.13382000000001
 20
63.847945999999993
 30
0.0
 11
-456.90697999999998
 21
63.071769999999987
 31
0.0
  0
LINE
  5
62D
  8
0
  6
CONTINUOUS
 62
     7
 10
-479.13378999999998
 20
190.84795
 30
0.0
 11
-457.04669000000001
 21
191.61924999999999
 31
0.0
  0
LINE
  5
62E
  8
0
  6
CONTINUOUS
 62
     7
 10
-479.13382000000001
 20
164.49590000000001
 30
0.0
 11
-452.63378999999992
 21
164.49590000000001
 31
0.0
  0
LINE
  5
62F
  8
0
  6
CONTINUOUS
 62
     7
 10
-479.13382000000001
 20
63.847938999999997
 30
0.0
 11
-479.13382000000001
 21
190.84795
 31
0.0
  0
LINE
  5
630
  8
0
  6
CONTINUOUS
 62
     7
 10
-450.63382000000001
 20
160.49714999999981
 30
0.0
 11
-444.63382000000001
 21
160.49714999999981
 31
0.0
  0
LINE
  5
631
  8
0
  6
CONTINUOUS
 62
     7
 10
-450.63382000000001
 20
181.68204
 30
0.0
 11
-444.63382000000001
 21
181.68204
 31
0.0
  0
LINE
  5
632
  8
0
  6
CONTINUOUS
 62
     7
 10
-451.71834999999987
 20
154.0200199999999
 30
0.0
 11
-444.63382000000001
 21
154.0200199999999
 31
0.0
  0
LINE
  5
633
  8
0
  6
CONTINUOUS
 62
     7
 10
-450.63382000000001
 20
65.803946999999994
 30
0.0
 11
-444.63382000000001
 21
65.803946999999994
 31
0.0
  0
LINE
  5
634
  8
0
  6
CONTINUOUS
 62
     7
 10
-442.63378999999998
 20
158.49714999999981
 30
0.0
 11
-442.63378999999998
 21
67.803955000000002
 31
0.0
  0
LINE
  5
635
  8
0
  6
CONTINUOUS
 62
     7
 10
-539.63378999999986
 20
196.34792999999991
 30
0.0
 11
-539.63378999999986
 21
186.28493999999981
 31
0.0
  0
LINE
  5
636
  8
0
  6
CONTINUOUS
 62
     7
 10
-547.63385000000005
 20
208.34792999999999
 30
0.0
 11
-526.56395999999995
 21
207.61216999999991
 31
0.0
  0
LINE
  5
637
  8
0
  6
CONTINUOUS
 62
     7
 10
-510.46762000000001
 20
94.243622000000002
 30
0.0
 11
-485.01247999999993
 21
68.788466999999997
 31
0.0
  0
LINE
  5
638
  8
0
  6
CONTINUOUS
 62
     7
 10
-547.63378999999986
 20
184.28493
 30
0.0
 11
-541.63379000000009
 21
184.28493
 31
0.0
  0
LINE
  5
639
  8
0
  6
CONTINUOUS
 62
     7
 10
-520.52910999999995
 20
95.401413000000005
 30
0.0
 11
-512.48431000000005
 21
95.120482999999993
 31
0.0
  0
LINE
  5
63A
  8
0
  6
CONTINUOUS
 62
     7
 10
-521.52910999999995
 20
185.48018999999999
 30
0.0
 11
-486.06400000000002
 21
186.7186699999998
 31
0.0
  0
LINE
  5
63B
  8
0
  6
CONTINUOUS
 62
     7
 10
-484.13378999999998
 20
65.953902999999997
 30
0.0
 11
-484.13378999999998
 21
161.49628000000001
 31
0.0
  0
LINE
  5
63C
  8
0
  6
CONTINUOUS
 62
     7
 10
-482.06402999999989
 20
190.95023999999981
 30
0.0
 11
-479.13382000000001
 21
190.84791999999999
 31
0.0
  0
LINE
  5
63D
  8
0
  6
CONTINUOUS
 62
     7
 10
-524.63379000000009
 20
205.61337
 30
0.0
 11
-524.63379000000009
 21
169.49628000000001
 31
0.0
  0
LINE
  5
63E
  8
0
  6
CONTINUOUS
 62
     7
 10
-547.63378999999986
 20
96.347899999999996
 30
0.0
 11
-547.63378999999986
 21
208.3479199999999
 31
0.0
  0
LINE
  5
63F
  8
0
  6
CONTINUOUS
 62
     7
 10
-547.63385000000005
 20
96.347931000000017
 30
0.0
 11
-520.52910999999995
 21
95.401413000000005
 31
0.0
  0
LINE
  5
640
  8
0
  6
CONTINUOUS
 62
     7
 10
-517.63378999999998
 20
71.976676999999995
 30
0.0
 11
-517.63378999999998
 21
92.403236000000007
 31
0.0
  0
LINE
  5
641
  8
0
  6
CONTINUOUS
 62
     7
 10
-482.20361000000003
 20
63.955112
 30
0.0
 11
-479.13382000000001
 21
63.847912000000001
 31
0.0
  0
LINE
  5
642
  8
0
  6
CONTINUOUS
 62
     7
 10
-514.73852999999986
 20
68.978507999999991
 30
0.0
 11
-486.06403
 21
67.977164999999985
 31
0.0
  0
LINE
  5
643
  8
0
  6
CONTINUOUS
 62
     7
 10
-547.63378999999986
 20
198.34792999999991
 30
0.0
 11
-541.63379000000009
 21
198.34792999999991
 31
0.0
  0
LINE
  5
644
  8
0
  6
CONTINUOUS
 62
     7
 10
-539.63378999999986
 20
118.41092999999999
 30
0.0
 11
-539.63378999999986
 21
108.34793000000001
 31
0.0
  0
LINE
  5
645
  8
0
  6
CONTINUOUS
 62
     7
 10
-547.63378999999986
 20
120.4109199999999
 30
0.0
 11
-541.63379000000009
 21
120.4109199999999
 31
0.0
  0
LINE
  5
646
  8
0
  6
CONTINUOUS
 62
     7
 10
-547.63378999999986
 20
106.3479399999998
 30
0.0
 11
-541.63379000000009
 21
106.3479399999998
 31
0.0
  0
LINE
  5
647
  8
0
  6
CONTINUOUS
 62
     7
 10
-484.13378999999998
 20
90.199562000000014
 30
0.0
 11
-479.13382000000001
 21
90.199562000000014
 31
0.0
  0
LINE
  5
648
  8
0
  6
CONTINUOUS
 62
     7
 10
-484.13378999999998
 20
75.847915999999984
 30
0.0
 11
-479.13382000000001
 21
75.847915999999984
 31
0.0
  0
LINE
  5
649
  8
0
  6
CONTINUOUS
 62
     7
 10
-511.30324999999999
 20
97.221587999999997
 30
0.0
 11
-511.30324999999999
 21
161.8636799999999
 31
0.0
  0
LINE
  5
64A
  8
0
  6
CONTINUOUS
 62
     7
 10
-524.63379000000009
 20
178.84792999999991
 30
0.0
 11
-479.13382000000001
 21
178.84792999999991
 31
0.0
  0
LINE
  5
64B
  8
0
  6
CONTINUOUS
 62
     7
 10
-519.63379000000009
 20
164.49628000000001
 30
0.0
 11
-479.13382000000001
 21
164.49628000000001
 31
0.0
  0
LINE
  5
64C
  8
0
  6
CONTINUOUS
 62
     7
 10
-484.13378999999998
 20
181.84792999999991
 30
0.0
 11
-484.13378999999998
 21
188.95146
 31
0.0
  0
LINE
  5
64D
  8
0
  6
CENTER
 62
     7
 10
-606.63378999999975
 20
190.94179
 30
0.0
 11
-606.63378999999975
 21
109.6951999999999
 31
0.0
  0
LINE
  5
64E
  8
0
  6
CONTINUOUS
 62
     3
 10
-649.63427999999976
 20
118.84815999999999
 30
0.0
 11
-649.63427999999976
 21
122.34815
 31
0.0
  0
LINE
  5
64F
  8
0
  6
CONTINUOUS
 62
     3
 10
-634.63378999999986
 20
118.84815999999999
 30
0.0
 11
-634.63378999999986
 21
122.34815
 31
0.0
  0
LINE
  5
650
  8
0
  6
CONTINUOUS
 62
     3
 10
-634.63378999999986
 20
120.8481499999999
 30
0.0
 11
-575.1337900000002
 21
120.8481499999999
 31
0.0
  0
LINE
  5
651
  8
0
  6
CONTINUOUS
 62
     3
 10
-634.63378999999986
 20
183.84766999999999
 30
0.0
 11
-575.1337900000002
 21
183.84766999999999
 31
0.0
  0
LINE
  5
652
  8
0
  6
CONTINUOUS
 62
     3
 10
-657.13427999999999
 20
144.84766999999999
 30
0.0
 11
-653.63427999999988
 21
144.84766999999999
 31
0.0
  0
LINE
  5
653
  8
0
  6
CONTINUOUS
 62
     3
 10
-634.63378999999986
 20
118.84815999999999
 30
0.0
 11
-649.63427999999976
 21
118.84815999999999
 31
0.0
  0
LINE
  5
654
  8
0
  6
CONTINUOUS
 62
     7
 10
-576.63378999999986
 20
180.8479199999999
 30
0.0
 11
-576.63378999999986
 21
123.8478999999999
 31
0.0
  0
LINE
  5
655
  8
0
  6
CONTINUOUS
 62
     7
 10
-555.63378999999986
 20
208.3479199999999
 30
0.0
 11
-555.63378999999986
 21
96.347899999999996
 31
0.0
  0
LINE
  5
656
  8
0
  6
CONTINUOUS
 62
     7
 10
-565.86377000000005
 20
182.3479199999999
 30
0.0
 11
-565.86377000000005
 21
122.3478999999999
 31
0.0
  0
LINE
  5
657
  8
0
  6
CONTINUOUS
 62
     7
 10
-677.63385000000005
 20
200.36426
 30
0.0
 11
-677.63385000000005
 21
157.3479199999999
 31
0.0
  0
LINE
  5
658
  8
0
  6
CONTINUOUS
 62
     7
 10
-675.36559999999963
 20
202.09730999999991
 30
0.0
 11
-673.13385000000005
 21
202.09730999999991
 31
0.0
  0
LINE
  5
659
  8
0
  6
CONTINUOUS
 62
     7
 10
-675.42913999999985
 20
188.0371199999999
 30
0.0
 11
-673.33379999999977
 21
188.0371199999999
 31
0.0
  0
LINE
  5
65A
  8
0
  6
CONTINUOUS
 62
     7
 10
-675.86596999999995
 20
201.9629699999999
 30
0.0
 11
-677.13415999999995
 21
201.2299999999999
 31
0.0
  0
LINE
  5
65B
  8
0
  6
CONTINUOUS
 62
     7
 10
-675.87134000000003
 20
199.8470199999999
 30
0.0
 11
-677.14837999999975
 21
199.08070000000001
 31
0.0
  0
LINE
  5
65C
  8
0
  6
CONTINUOUS
 62
     7
 10
-675.88354000000004
 20
195.30902
 30
0.0
 11
-677.18213000000003
 21
194.45745999999991
 31
0.0
  0
LINE
  5
65D
  8
0
  6
CONTINUOUS
 62
     7
 10
-675.82195999999999
 20
187.95677000000001
 30
0.0
 11
-677.02655000000004
 21
187.4422899999999
 31
0.0
  0
LINE
  5
65E
  8
0
  6
CONTINUOUS
 62
     7
 10
-675.35675000000003
 20
199.98952
 30
0.0
 11
-672.63378999999975
 21
199.98952
 31
0.0
  0
LINE
  5
65F
  8
0
  6
CONTINUOUS
 62
     7
 10
-675.33514000000002
 20
195.47278
 30
0.0
 11
-672.63378999999975
 21
195.47278
 31
0.0
  0
LINE
  5
660
  8
0
  6
CONTINUOUS
 62
     7
 10
-675.4834599999997
 20
186.09099999999981
 30
0.0
 11
-673.6337900000002
 21
186.09099999999981
 31
0.0
  0
LINE
  5
661
  8
0
  6
CONTINUOUS
 62
     7
 10
-675.36249000000009
 20
194.33284
 30
0.0
 11
-673.6337900000002
 21
194.33284
 31
0.0
  0
LINE
  5
662
  8
0
  6
CONTINUOUS
 62
     7
 10
-675.38513
 20
198.84956
 30
0.0
 11
-673.6337900000002
 21
198.84956
 31
0.0
  0
LINE
  5
663
  8
0
  6
CONTINUOUS
 62
     7
 10
-675.39453000000003
 20
200.95099999999999
 30
0.0
 11
-673.13385000000005
 21
200.95099999999999
 31
0.0
  0
LINE
  5
664
  8
0
  6
CONTINUOUS
 62
     7
 10
-675.86792000000003
 20
194.19570999999991
 30
0.0
 11
-677.13927999999999
 21
193.45105000000001
 31
0.0
  0
LINE
  5
665
  8
0
  6
CONTINUOUS
 62
     7
 10
-675.77746999999965
 20
186.04680999999999
 30
0.0
 11
-676.92780000000005
 21
185.69297999999981
 31
0.0
  0
LINE
  5
666
  8
0
  6
CONTINUOUS
 62
     7
 10
-675.84717000000001
 20
200.84272999999999
 30
0.0
 11
-677.08649000000003
 21
200.21368000000001
 31
0.0
  0
LINE
  5
667
  8
0
  6
CONTINUOUS
 62
     7
 10
-675.85351999999978
 20
198.73308
 30
0.0
 11
-677.10210999999981
 21
198.07123000000001
 31
0.0
  0
LINE
  5
668
  8
0
  6
CONTINUOUS
 62
     7
 10
-673.6337900000002
 20
178.3479199999999
 30
0.0
 11
-676.63378999999986
 21
178.3479199999999
 31
0.0
  0
LINE
  5
669
  8
0
  6
CONTINUOUS
 62
     7
 10
-673.6337900000002
 20
176.3479199999999
 30
0.0
 11
-676.63378999999986
 21
176.3479199999999
 31
0.0
  0
LINE
  5
66A
  8
0
  6
CONTINUOUS
 62
     7
 10
-673.6337900000002
 20
168.34790000000001
 30
0.0
 11
-676.63378999999986
 21
168.34790000000001
 31
0.0
  0
LINE
  5
66B
  8
0
  6
CONTINUOUS
 62
     7
 10
-673.6337900000002
 20
166.3479199999999
 30
0.0
 11
-676.63378999999986
 21
166.3479199999999
 31
0.0
  0
LINE
  5
66C
  8
0
  6
CONTINUOUS
 62
     7
 10
-673.6337900000002
 20
158.34791999999999
 30
0.0
 11
-676.63378999999986
 21
158.34791999999999
 31
0.0
  0
LINE
  5
66D
  8
0
  6
CONTINUOUS
 62
     7
 10
-673.6337900000002
 20
156.34790000000001
 30
0.0
 11
-676.63378999999986
 21
156.34790000000001
 31
0.0
  0
LINE
  5
66E
  8
0
  6
CONTINUOUS
 62
     7
 10
-675.63379000000009
 20
167.95502999999999
 30
0.0
 11
-675.63379000000009
 21
166.7436099999999
 31
0.0
  0
LINE
  5
66F
  8
0
  6
CONTINUOUS
 62
     7
 10
-675.63379000000009
 20
157.96114
 30
0.0
 11
-675.63379000000009
 21
156.80025000000001
 31
0.0
  0
LINE
  5
670
  8
0
  6
CONTINUOUS
 62
     7
 10
-675.63379000000009
 20
177.9740799999999
 30
0.0
 11
-675.63379000000009
 21
176.61126999999991
 31
0.0
  0
LINE
  5
671
  8
0
  6
CONTINUOUS
 62
     7
 10
-675.63379000000009
 20
187.74078
 30
0.0
 11
-675.63379000000009
 21
186.6808599999998
 31
0.0
  0
LINE
  5
672
  8
0
  6
CONTINUOUS
 62
     7
 10
-675.63379000000009
 20
195.17833999999999
 30
0.0
 11
-675.63379000000009
 21
194.70618999999991
 31
0.0
  0
LINE
  5
673
  8
0
  6
CONTINUOUS
 62
     7
 10
-675.63379000000009
 20
199.74445
 30
0.0
 11
-675.63379000000009
 21
199.1983799999999
 31
0.0
  0
LINE
  5
674
  8
0
  6
CONTINUOUS
 62
     7
 10
-675.63379000000009
 20
201.8440699999999
 30
0.0
 11
-675.63379000000009
 21
201.31831
 31
0.0
  0
LINE
  5
675
  8
0
  6
CONTINUOUS
 62
     7
 10
-679.13385000000005
 20
172.3479199999999
 30
0.0
 11
-679.13385000000005
 21
152.34791999999979
 31
0.0
  0
LINE
  5
676
  8
0
  6
CONTINUOUS
 62
     7
 10
-679.13385000000005
 20
172.34790000000001
 30
0.0
 11
-677.63385000000005
 21
172.47912999999991
 31
0.0
  0
LINE
  5
677
  8
0
  6
CONTINUOUS
 62
     7
 10
-679.13385000000005
 20
167.49791999999991
 30
0.0
 11
-674.45630000000017
 21
167.49791999999991
 31
0.0
  0
LINE
  5
678
  8
0
  6
CONTINUOUS
 62
     7
 10
-679.13385000000005
 20
169.62989999999991
 30
0.0
 11
-677.63385000000005
 21
169.62989999999991
 31
0.0
  0
LINE
  5
679
  8
0
  6
CONTINUOUS
 62
     7
 10
-562.28942999999992
 20
188.34791999999999
 30
0.0
 11
-661.26842999999985
 21
188.34791999999999
 31
0.0
  0
LINE
  5
67A
  8
0
  6
CONTINUOUS
 62
     7
 10
-562.28942999999992
 20
186.34790000000001
 30
0.0
 11
-661.26842999999985
 21
186.34790000000001
 31
0.0
  0
LINE
  5
67B
  8
0
  6
CONTINUOUS
 62
     7
 10
-655.13427999999999
 20
178.3479199999999
 30
0.0
 11
-661.26842999999985
 21
178.3479199999999
 31
0.0
  0
LINE
  5
67C
  8
0
  6
CONTINUOUS
 62
     7
 10
-655.13427999999999
 20
176.3479199999999
 30
0.0
 11
-661.26842999999985
 21
176.3479199999999
 31
0.0
  0
LINE
  5
67D
  8
0
  6
CONTINUOUS
 62
     7
 10
-655.13427999999999
 20
168.34790000000001
 30
0.0
 11
-661.26842999999985
 21
168.34790000000001
 31
0.0
  0
LINE
  5
67E
  8
0
  6
CONTINUOUS
 62
     7
 10
-655.13427999999999
 20
166.3479199999999
 30
0.0
 11
-661.26842999999985
 21
166.3479199999999
 31
0.0
  0
LINE
  5
67F
  8
0
  6
CONTINUOUS
 62
     7
 10
-657.13427999999999
 20
158.34791999999999
 30
0.0
 11
-661.26842999999985
 21
158.34791999999999
 31
0.0
  0
LINE
  5
680
  8
0
  6
CONTINUOUS
 62
     7
 10
-657.13427999999999
 20
156.34790000000001
 30
0.0
 11
-661.26842999999985
 21
156.34790000000001
 31
0.0
  0
LINE
  5
681
  8
0
  6
CONTINUOUS
 62
     7
 10
-661.95653999999979
 20
189.07093999999981
 30
0.0
 11
-558.81170999999995
 21
189.07093999999981
 31
0.0
  0
LINE
  5
682
  8
0
  6
CONTINUOUS
 62
     7
 10
-661.95653999999979
 20
185.71509
 30
0.0
 11
-649.63427999999976
 21
185.71509
 31
0.0
  0
LINE
  5
683
  8
0
  6
CONTINUOUS
 62
     7
 10
-662.17229999999995
 20
178.83405999999991
 30
0.0
 11
-655.13427999999999
 21
178.83405999999991
 31
0.0
  0
LINE
  5
684
  8
0
  6
CONTINUOUS
 62
     7
 10
-662.17229999999995
 20
175.91106999999991
 30
0.0
 11
-655.13427999999999
 21
175.91106999999991
 31
0.0
  0
LINE
  5
685
  8
0
  6
CONTINUOUS
 62
     7
 10
-662.30286000000001
 20
168.69140999999991
 30
0.0
 11
-655.13427999999999
 21
168.69140999999991
 31
0.0
  0
LINE
  5
686
  8
0
  6
CONTINUOUS
 62
     7
 10
-662.30286000000001
 20
166.0295599999998
 30
0.0
 11
-655.13427999999999
 21
166.0295599999998
 31
0.0
  0
LINE
  5
687
  8
0
  6
CONTINUOUS
 62
     7
 10
-662.36487
 20
158.62067999999999
 30
0.0
 11
-657.13427999999999
 21
158.62067999999999
 31
0.0
  0
LINE
  5
688
  8
0
  6
CONTINUOUS
 62
     7
 10
-662.36487
 20
156.08284
 30
0.0
 11
-657.13427999999999
 21
156.08284
 31
0.0
  0
LINE
  5
689
  8
0
  6
CONTINUOUS
 62
     7
 10
-558.81170999999995
 20
185.71509
 30
0.0
 11
-575.3338
 21
185.71509
 31
0.0
  0
LINE
  5
68A
  8
0
  6
CONTINUOUS
 62
     7
 10
-576.3338
 20
184.71510000000001
 30
0.0
 11
-576.3338
 21
183.84766999999999
 31
0.0
  0
LINE
  5
68B
  8
0
  6
CONTINUOUS
 62
     7
 10
-662.36487
 20
148.61295000000001
 30
0.0
 11
-657.13427999999999
 21
148.61295000000001
 31
0.0
  0
LINE
  5
68C
  8
0
  6
CONTINUOUS
 62
     7
 10
-657.13427999999999
 20
148.34791999999979
 30
0.0
 11
-661.26842999999985
 21
148.34791999999979
 31
0.0
  0
LINE
  5
68D
  8
0
  6
CONTINUOUS
 62
     7
 10
-657.13427999999999
 20
146.34792999999991
 30
0.0
 11
-661.26842999999985
 21
146.34792999999991
 31
0.0
  0
LINE
  5
68E
  8
0
  6
CONTINUOUS
 62
     7
 10
-662.36487
 20
146.07509999999991
 30
0.0
 11
-657.13427999999999
 21
146.07509999999991
 31
0.0
  0
LINE
  5
68F
  8
0
  6
CONTINUOUS
 62
     7
 10
-662.30286000000001
 20
138.66629
 30
0.0
 11
-655.13427999999999
 21
138.66629
 31
0.0
  0
LINE
  5
690
  8
0
  6
CONTINUOUS
 62
     7
 10
-655.13427999999999
 20
138.3479199999999
 30
0.0
 11
-661.26842999999985
 21
138.3479199999999
 31
0.0
  0
LINE
  5
691
  8
0
  6
CONTINUOUS
 62
     7
 10
-655.13427999999999
 20
136.34791999999999
 30
0.0
 11
-661.26842999999985
 21
136.34791999999999
 31
0.0
  0
LINE
  5
692
  8
0
  6
CONTINUOUS
 62
     7
 10
-662.30286000000001
 20
136.00441000000001
 30
0.0
 11
-655.13427999999999
 21
136.00441000000001
 31
0.0
  0
LINE
  5
693
  8
0
  6
CONTINUOUS
 62
     7
 10
-655.13427999999999
 20
128.34790000000001
 30
0.0
 11
-661.26842999999985
 21
128.34790000000001
 31
0.0
  0
LINE
  5
694
  8
0
  6
CONTINUOUS
 62
     7
 10
-662.17223999999999
 20
128.78468000000001
 30
0.0
 11
-655.13427999999999
 21
128.78468000000001
 31
0.0
  0
LINE
  5
695
  8
0
  6
CONTINUOUS
 62
     7
 10
-655.13427999999999
 20
126.34791
 30
0.0
 11
-661.26842999999985
 21
126.34791
 31
0.0
  0
LINE
  5
696
  8
0
  6
CONTINUOUS
 62
     7
 10
-662.17223999999999
 20
125.86169
 30
0.0
 11
-655.13427999999999
 21
125.86169
 31
0.0
  0
LINE
  5
697
  8
0
  6
CONTINUOUS
 62
     7
 10
-562.28942999999992
 20
118.34792
 30
0.0
 11
-606.63378999999975
 21
118.34792
 31
0.0
  0
LINE
  5
698
  8
0
  6
CONTINUOUS
 62
     7
 10
-562.28942999999992
 20
116.3478999999999
 30
0.0
 11
-606.63378999999975
 21
116.3478999999999
 31
0.0
  0
LINE
  5
699
  8
0
  6
CONTINUOUS
 62
     7
 10
-661.95586999999978
 20
115.62482
 30
0.0
 11
-606.63378999999975
 21
115.62482
 31
0.0
  0
LINE
  5
69A
  8
0
  6
CONTINUOUS
 62
     7
 10
-575.1337900000002
 20
122.08226999999999
 30
0.0
 11
-565.86382999999978
 21
122.34788999999979
 31
0.0
  0
LINE
  5
69B
  8
0
  6
CONTINUOUS
 62
     7
 10
-576.3338
 20
119.9806699999999
 30
0.0
 11
-576.3338
 21
120.8481499999999
 31
0.0
  0
LINE
  5
69C
  8
0
  6
CONTINUOUS
 62
     7
 10
-558.81170999999995
 20
118.98066
 30
0.0
 11
-575.3338
 21
118.98066
 31
0.0
  0
LINE
  5
69D
  8
0
  6
CONTINUOUS
 62
     7
 10
-675.42913999999985
 20
116.65863
 30
0.0
 11
-673.33379999999977
 21
116.65863
 31
0.0
  0
LINE
  5
69E
  8
0
  6
CONTINUOUS
 62
     7
 10
-675.82202000000018
 20
116.7390399999999
 30
0.0
 11
-677.02661000000001
 21
117.2535199999999
 31
0.0
  0
LINE
  5
69F
  8
0
  6
CONTINUOUS
 62
     7
 10
-675.4834599999997
 20
118.60473999999979
 30
0.0
 11
-673.6337900000002
 21
118.60473999999979
 31
0.0
  0
LINE
  5
6A0
  8
0
  6
CONTINUOUS
 62
     7
 10
-675.77752999999996
 20
118.6489899999999
 30
0.0
 11
-676.92791999999963
 21
119.00283999999991
 31
0.0
  0
LINE
  5
6A1
  8
0
  6
CONTINUOUS
 62
     7
 10
-673.6337900000002
 20
126.34791
 30
0.0
 11
-676.63378999999986
 21
126.34791
 31
0.0
  0
LINE
  5
6A2
  8
0
  6
CONTINUOUS
 62
     7
 10
-673.6337900000002
 20
128.34790000000001
 30
0.0
 11
-676.63378999999986
 21
128.34790000000001
 31
0.0
  0
LINE
  5
6A3
  8
0
  6
CONTINUOUS
 62
     7
 10
-673.6337900000002
 20
136.34791999999999
 30
0.0
 11
-676.63378999999986
 21
136.34791999999999
 31
0.0
  0
LINE
  5
6A4
  8
0
  6
CONTINUOUS
 62
     7
 10
-675.63379000000009
 20
146.73464999999979
 30
0.0
 11
-675.63379000000009
 21
147.89553999999981
 31
0.0
  0
LINE
  5
6A5
  8
0
  6
CONTINUOUS
 62
     7
 10
-673.6337900000002
 20
138.3479199999999
 30
0.0
 11
-676.63378999999986
 21
138.3479199999999
 31
0.0
  0
LINE
  5
6A6
  8
0
  6
CONTINUOUS
 62
     7
 10
-673.6337900000002
 20
146.34792999999991
 30
0.0
 11
-676.63378999999986
 21
146.34792999999991
 31
0.0
  0
LINE
  5
6A7
  8
0
  6
CONTINUOUS
 62
     7
 10
-673.6337900000002
 20
148.34791999999979
 30
0.0
 11
-676.63378999999986
 21
148.34791999999979
 31
0.0
  0
LINE
  5
6A8
  8
0
  6
CONTINUOUS
 62
     7
 10
-675.63379000000009
 20
136.74080000000001
 30
0.0
 11
-675.63379000000009
 21
137.95218
 31
0.0
  0
LINE
  5
6A9
  8
0
  6
CONTINUOUS
 62
     7
 10
-675.63379000000009
 20
126.7216899999999
 30
0.0
 11
-675.63379000000009
 21
128.08455000000001
 31
0.0
  0
LINE
  5
6AA
  8
0
  6
CONTINUOUS
 62
     7
 10
-675.63379000000009
 20
116.95502999999999
 30
0.0
 11
-675.63379000000009
 21
118.01496
 31
0.0
  0
LINE
  5
6AB
  8
0
  6
CONTINUOUS
 62
     7
 10
-661.95586999999978
 20
118.98066
 30
0.0
 11
-649.63427999999976
 21
118.98066
 31
0.0
  0
LINE
  5
6AC
  8
0
  6
CONTINUOUS
 62
     7
 10
-679.13385000000005
 20
132.3479199999999
 30
0.0
 11
-679.13385000000005
 21
152.34791999999979
 31
0.0
  0
LINE
  5
6AD
  8
0
  6
CONTINUOUS
 62
     7
 10
-679.13385000000005
 20
132.34792999999999
 30
0.0
 11
-677.63373000000001
 21
132.21669
 31
0.0
  0
LINE
  5
6AE
  8
0
  6
CONTINUOUS
 62
     7
 10
-679.13385000000005
 20
137.19789
 30
0.0
 11
-675.84014999999965
 21
137.19789
 31
0.0
  0
LINE
  5
6AF
  8
0
  6
CONTINUOUS
 62
     7
 10
-679.13385000000005
 20
135.06588999999991
 30
0.0
 11
-677.63385000000005
 21
135.06588999999991
 31
0.0
  0
LINE
  5
6B0
  8
0
  6
CONTINUOUS
 62
     7
 10
-606.63378999999975
 20
118.34792
 30
0.0
 11
-661.26842999999985
 21
118.34792
 31
0.0
  0
LINE
  5
6B1
  8
0
  6
CONTINUOUS
 62
     7
 10
-653.63427999999988
 20
122.3478999999999
 30
0.0
 11
-578.1337900000002
 21
122.3478999999999
 31
0.0
  0
LINE
  5
6B2
  8
0
  6
CONTINUOUS
 62
     7
 10
-606.63378999999975
 20
116.3478999999999
 30
0.0
 11
-661.26842999999985
 21
116.3478999999999
 31
0.0
  0
LINE
  5
6B3
  8
0
  6
CONTINUOUS
 62
     7
 10
-606.63378999999975
 20
115.62482
 30
0.0
 11
-558.81170999999995
 21
115.62482
 31
0.0
  0
LINE
  5
6B4
  8
0
  6
CONTINUOUS
 62
     7
 10
-671.63385000000005
 20
205.3479199999999
 30
0.0
 11
-671.63385000000005
 21
99.347899999999996
 31
0.0
  0
LINE
  5
6B5
  8
0
  6
CONTINUOUS
 62
     7
 10
-663.63378999999998
 20
205.3479199999999
 30
0.0
 11
-663.63378999999998
 21
102.90766000000001
 31
0.0
  0
LINE
  5
6B6
  8
0
  6
CONTINUOUS
 62
     7
 10
-677.13922000000002
 20
111.24476
 30
0.0
 11
-677.16283999999985
 21
111.25861
 31
0.0
  0
LINE
  5
6B7
  8
0
  6
CONTINUOUS
 62
     7
 10
-672.63378999999975
 20
202.3479199999999
 30
0.0
 11
-672.63378999999975
 21
101.22466
 31
0.0
  0
LINE
  5
6B8
  8
0
  6
CONTINUOUS
 62
     7
 10
-672.63378999999975
 20
202.3479199999999
 30
0.0
 11
-671.63385000000005
 21
202.3479199999999
 31
0.0
  0
LINE
  5
6B9
  8
0
  6
CONTINUOUS
 62
     7
 10
-671.63385000000005
 20
205.3479199999999
 30
0.0
 11
-663.63378999999998
 21
205.3479199999999
 31
0.0
  0
LINE
  5
6BA
  8
0
  6
CONTINUOUS
 62
     7
 10
-670.93566999999985
 20
195.5393199999998
 30
0.0
 11
-664.70587
 21
195.5393199999998
 31
0.0
  0
LINE
  5
6BB
  8
0
  6
CONTINUOUS
 62
     7
 10
-555.63378999999986
 20
198.34790000000001
 30
0.0
 11
-547.63378999999986
 21
198.34790000000001
 31
0.0
  0
LINE
  5
6BC
  8
0
  6
CONTINUOUS
 62
     7
 10
-555.63378999999986
 20
184.28534999999999
 30
0.0
 11
-547.63378999999986
 21
184.28534999999999
 31
0.0
  0
LINE
  5
6BD
  8
0
  6
CONTINUOUS
 62
     7
 10
-555.63378999999986
 20
208.3479199999999
 30
0.0
 11
-547.63378999999986
 21
208.3479199999999
 31
0.0
  0
LINE
  5
6BE
  8
0
  6
CONTINUOUS
 62
     7
 10
-639.63378999999975
 20
189.07093999999981
 30
0.0
 11
-639.63378999999975
 21
189.07093999999981
 31
0.0
  0
LINE
  5
6BF
  8
0
  6
CONTINUOUS
 62
     7
 10
-639.63378999999975
 20
115.62482
 30
0.0
 11
-639.63378999999975
 21
114.1248199999999
 31
0.0
  0
LINE
  5
6C0
  8
0
  6
CONTINUOUS
 62
     7
 10
-660.42742999999996
 20
208.6311799999998
 30
0.0
 11
-563.50762999999995
 21
208.6311799999998
 31
0.0
  0
LINE
  5
6C1
  8
0
  6
CONTINUOUS
 62
     7
 10
-663.63391000000001
 20
200.44363000000001
 30
0.0
 11
-662.39264000000003
 21
207.00307000000001
 31
0.0
  0
LINE
  5
6C2
  8
0
  6
CONTINUOUS
 62
     7
 10
-658.26837
 20
188.99903999999981
 30
0.0
 11
-663.63378999999998
 21
200.44351
 31
0.0
  0
LINE
  5
6C3
  8
0
  6
CONTINUOUS
 62
     7
 10
-658.26837
 20
115.6966699999999
 30
0.0
 11
-663.63378999999998
 21
104.2521999999999
 31
0.0
  0
LINE
  5
6C4
  8
0
  6
CONTINUOUS
 62
     7
 10
-638.13379000000009
 20
190.57093999999989
 30
0.0
 11
-555.63378999999986
 21
190.57093999999989
 31
0.0
  0
LINE
  5
6C5
  8
0
  6
CONTINUOUS
 62
     7
 10
-660.37878000000001
 20
211.47754999999989
 30
0.0
 11
-626.63378999999986
 21
211.47754999999989
 31
0.0
  0
LINE
  5
6C6
  8
0
  6
CONTINUOUS
 62
     7
 10
-660.36541999999997
 20
213.3252699999999
 30
0.0
 11
-626.63378999999986
 21
213.3252699999999
 31
0.0
  0
LINE
  5
6C7
  8
0
  6
CONTINUOUS
 62
     7
 10
-660.34411999999975
 20
214.23577999999981
 30
0.0
 11
-626.63378999999986
 21
214.23577999999981
 31
0.0
  0
LINE
  5
6C8
  8
0
  6
CONTINUOUS
 62
     7
 10
-663.63378999999998
 20
201.78815999999989
 30
0.0
 11
-662.35369999999978
 21
209.79332999999991
 31
0.0
  0
LINE
  5
6C9
  8
0
  6
CONTINUOUS
 62
     7
 10
-663.63378999999998
 20
203.1327399999999
 30
0.0
 11
-662.34276999999975
 21
211.62581999999981
 31
0.0
  0
LINE
  5
6CA
  8
0
  6
CONTINUOUS
 62
     7
 10
-663.63385000000005
 20
203.13276999999991
 30
0.0
 11
-662.32500999999979
 21
212.51222000000001
 31
0.0
  0
LINE
  5
6CB
  8
0
  6
CONTINUOUS
 62
     7
 10
-624.6337900000002
 20
212.23578999999989
 30
0.0
 11
-624.6337900000002
 21
208.6311799999998
 31
0.0
  0
LINE
  5
6CC
  8
0
  6
CONTINUOUS
 62
     7
 10
-557.43169999999986
 20
191.6827199999999
 30
0.0
 11
-561.57580999999993
 21
207.14878999999999
 31
0.0
  0
LINE
  5
6CD
  8
0
  6
CONTINUOUS
 62
     7
 10
-561.09325999999987
 20
205.3479199999999
 30
0.0
 11
-555.63378999999986
 21
205.3479199999999
 31
0.0
  0
LINE
  5
6CE
  8
0
  6
CONTINUOUS
 62
     7
 10
-677.63385000000005
 20
104.3314899999999
 30
0.0
 11
-677.63385000000005
 21
147.34791999999979
 31
0.0
  0
LINE
  5
6CF
  8
0
  6
CONTINUOUS
 62
     7
 10
-675.36559999999963
 20
102.59850999999991
 30
0.0
 11
-673.13385000000005
 21
102.59850999999991
 31
0.0
  0
LINE
  5
6D0
  8
0
  6
CONTINUOUS
 62
     7
 10
-675.86603000000002
 20
102.7327199999999
 30
0.0
 11
-677.13422000000003
 21
103.46569
 31
0.0
  0
LINE
  5
6D1
  8
0
  6
CONTINUOUS
 62
     7
 10
-675.87139999999999
 20
104.8488499999999
 30
0.0
 11
-677.14832000000001
 21
105.6151
 31
0.0
  0
LINE
  5
6D2
  8
0
  6
CONTINUOUS
 62
     7
 10
-675.88354000000004
 20
109.38673
 30
0.0
 11
-677.18213000000003
 21
110.23829000000001
 31
0.0
  0
LINE
  5
6D3
  8
0
  6
CONTINUOUS
 62
     7
 10
-675.35675000000003
 20
104.7062399999998
 30
0.0
 11
-672.63378999999975
 21
104.7062399999998
 31
0.0
  0
LINE
  5
6D4
  8
0
  6
CONTINUOUS
 62
     7
 10
-675.33514000000002
 20
109.2229699999998
 30
0.0
 11
-672.63378999999975
 21
109.2229699999998
 31
0.0
  0
LINE
  5
6D5
  8
0
  6
CONTINUOUS
 62
     7
 10
-675.36249000000009
 20
110.36297999999979
 30
0.0
 11
-673.6337900000002
 21
110.36297999999979
 31
0.0
  0
LINE
  5
6D6
  8
0
  6
CONTINUOUS
 62
     7
 10
-675.38513
 20
105.84625
 30
0.0
 11
-673.6337900000002
 21
105.84625
 31
0.0
  0
LINE
  5
6D7
  8
0
  6
CONTINUOUS
 62
     7
 10
-675.39453000000003
 20
103.7448199999999
 30
0.0
 11
-673.13385000000005
 21
103.7448199999999
 31
0.0
  0
LINE
  5
6D8
  8
0
  6
CONTINUOUS
 62
     7
 10
-675.86792000000003
 20
110.50008
 30
0.0
 11
-677.13922000000002
 21
111.24473
 31
0.0
  0
LINE
  5
6D9
  8
0
  6
CONTINUOUS
 62
     7
 10
-675.84717000000001
 20
103.8531499999999
 30
0.0
 11
-677.08642999999995
 21
104.48218
 31
0.0
  0
LINE
  5
6DA
  8
0
  6
CONTINUOUS
 62
     7
 10
-675.85351999999978
 20
105.9627
 30
0.0
 11
-677.10210999999981
 21
106.62456
 31
0.0
  0
LINE
  5
6DB
  8
0
  6
CONTINUOUS
 62
     7
 10
-675.63379000000009
 20
109.5174699999999
 30
0.0
 11
-675.63379000000009
 21
109.98956
 31
0.0
  0
LINE
  5
6DC
  8
0
  6
CONTINUOUS
 62
     7
 10
-675.63379000000009
 20
104.9513699999998
 30
0.0
 11
-675.63379000000009
 21
105.49739
 31
0.0
  0
LINE
  5
6DD
  8
0
  6
CONTINUOUS
 62
     7
 10
-675.63379000000009
 20
102.8517499999999
 30
0.0
 11
-675.63379000000009
 21
103.3775099999999
 31
0.0
  0
LINE
  5
6DE
  8
0
  6
CONTINUOUS
 62
     7
 10
-672.63378999999975
 20
102.34791
 30
0.0
 11
-671.63385000000005
 21
102.34791
 31
0.0
  0
LINE
  5
6DF
  8
0
  6
CONTINUOUS
 62
     7
 10
-671.63385000000005
 20
99.347899999999996
 30
0.0
 11
-663.63378999999998
 21
99.347899999999996
 31
0.0
  0
LINE
  5
6E0
  8
0
  6
CONTINUOUS
 62
     7
 10
-670.93566999999985
 20
109.1564299999999
 30
0.0
 11
-664.70587
 21
109.1564299999999
 31
0.0
  0
LINE
  5
6E1
  8
0
  6
CONTINUOUS
 62
     7
 10
-555.63378999999986
 20
106.3479199999999
 30
0.0
 11
-547.63378999999986
 21
106.3479199999999
 31
0.0
  0
LINE
  5
6E2
  8
0
  6
CONTINUOUS
 62
     7
 10
-555.63378999999986
 20
96.347899999999996
 30
0.0
 11
-547.63378999999986
 21
96.347899999999996
 31
0.0
  0
LINE
  5
6E3
  8
0
  6
CONTINUOUS
 62
     7
 10
-660.42742999999996
 20
96.064635999999993
 30
0.0
 11
-563.50762999999995
 21
96.064635999999993
 31
0.0
  0
LINE
  5
6E4
  8
0
  6
CONTINUOUS
 62
     7
 10
-663.63391000000001
 20
104.2521299999998
 30
0.0
 11
-662.39264000000003
 21
97.692757000000015
 31
0.0
  0
LINE
  5
6E5
  8
0
  6
CONTINUOUS
 62
     7
 10
-660.37878000000001
 20
93.218261999999996
 30
0.0
 11
-626.63378999999986
 21
93.218261999999996
 31
0.0
  0
LINE
  5
6E6
  8
0
  6
CONTINUOUS
 62
     7
 10
-660.36541999999997
 20
91.370475999999996
 30
0.0
 11
-626.63378999999986
 21
91.370475999999996
 31
0.0
  0
LINE
  5
6E7
  8
0
  6
CONTINUOUS
 62
     7
 10
-660.34411999999975
 20
90.459961000000007
 30
0.0
 11
-626.63378999999986
 21
90.459961000000007
 31
0.0
  0
LINE
  5
6E8
  8
0
  6
CONTINUOUS
 62
     7
 10
-663.63378999999998
 20
102.90764
 30
0.0
 11
-662.35369999999978
 21
94.902450999999999
 31
0.0
  0
LINE
  5
6E9
  8
0
  6
CONTINUOUS
 62
     7
 10
-663.63391000000001
 20
101.5630699999999
 30
0.0
 11
-662.34283000000005
 21
93.069939000000005
 31
0.0
  0
LINE
  5
6EA
  8
0
  6
CONTINUOUS
 62
     7
 10
-663.63391000000001
 20
101.5630199999999
 30
0.0
 11
-662.32500999999979
 21
92.183577999999969
 31
0.0
  0
LINE
  5
6EB
  8
0
  6
CONTINUOUS
 62
     7
 10
-624.6337900000002
 20
92.459953000000013
 30
0.0
 11
-624.6337900000002
 21
96.064635999999993
 31
0.0
  0
LINE
  5
6EC
  8
0
  6
CONTINUOUS
 62
     7
 10
-557.13373000000001
 20
114.12486
 30
0.0
 11
-561.57573999999966
 21
97.547011999999995
 31
0.0
  0
LINE
  5
6ED
  8
0
  6
CONTINUOUS
 62
     7
 10
-561.09325999999987
 20
99.347899999999996
 30
0.0
 11
-555.63378999999986
 21
99.347899999999996
 31
0.0
  0
LINE
  5
6EE
  8
0
  6
CONTINUOUS
 62
     7
 10
-555.63378999999986
 20
120.41046
 30
0.0
 11
-547.63378999999986
 21
120.41046
 31
0.0
  0
LINE
  5
6EF
  8
0
  6
CONTINUOUS
 62
     7
 10
-639.63378999999975
 20
115.62482
 30
0.0
 11
-639.63378999999975
 21
115.62482
 31
0.0
  0
LINE
  5
6F0
  8
0
  6
CONTINUOUS
 62
     7
 10
-638.13379000000009
 20
114.1248199999999
 30
0.0
 11
-555.63378999999986
 21
114.1248199999999
 31
0.0
  0
LINE
  5
6F1
  8
0
  6
CONTINUOUS
 62
     7
 10
-575.1337900000002
 20
122.3478999999999
 30
0.0
 11
-565.86377000000005
 21
122.3478999999999
 31
0.0
  0
LINE
  5
6F2
  8
0
  6
CONTINUOUS
 62
     3
 10
-631.26177999999982
 20
174.84766999999991
 30
0.0
 11
-627.05676000000005
 21
174.84766999999991
 31
0.0
  0
LINE
  5
6F3
  8
0
  6
CONTINUOUS
 62
     3
 10
-629.1337900000002
 20
172.78564
 30
0.0
 11
-629.1337900000002
 21
176.8116599999999
 31
0.0
  0
LINE
  5
6F4
  8
0
  6
CONTINUOUS
 62
     3
 10
-655.13427999999999
 20
159.84766999999991
 30
0.0
 11
-655.13427999999999
 21
183.84766999999999
 31
0.0
  0
LINE
  5
6F5
  8
0
  6
CONTINUOUS
 62
     3
 10
-655.13427999999999
 20
120.8481499999999
 30
0.0
 11
-655.13427999999999
 21
144.84766999999999
 31
0.0
  0
LINE
  5
6F6
  8
0
  6
CONTINUOUS
 62
     3
 10
-629.63379000000009
 20
129.34816000000001
 30
0.0
 11
-629.63379000000009
 21
169.37067999999999
 31
0.0
  0
LINE
  5
6F7
  8
0
  6
CONTINUOUS
 62
     3
 10
-583.63379000000009
 20
135.32563999999999
 30
0.0
 11
-583.63379000000009
 21
175.34765999999991
 31
0.0
  0
LINE
  5
6F8
  8
0
  6
CONTINUOUS
 62
     3
 10
-575.1337900000002
 20
120.8481499999999
 30
0.0
 11
-575.1337900000002
 21
183.84766999999999
 31
0.0
  0
LINE
  5
6F9
  8
0
  6
CONTINUOUS
 62
     3
 10
-623.65679999999998
 20
175.34765999999991
 30
0.0
 11
-583.63379000000009
 21
175.34765999999991
 31
0.0
  0
LINE
  5
6FA
  8
0
  6
CONTINUOUS
 62
     3
 10
-629.63379000000009
 20
129.34816000000001
 30
0.0
 11
-589.61181999999997
 21
129.34816000000001
 31
0.0
  0
LINE
  5
6FB
  8
0
  6
CONTINUOUS
 62
     3
 10
-655.13427999999999
 20
183.84766999999999
 30
0.0
 11
-649.63427999999976
 21
183.84766999999999
 31
0.0
  0
LINE
  5
6FC
  8
0
  6
CONTINUOUS
 62
     3
 10
-655.13427999999999
 20
120.8481499999999
 30
0.0
 11
-649.63427999999976
 21
120.8481499999999
 31
0.0
  0
LINE
  5
6FD
  8
0
  6
CONTINUOUS
 62
     3
 10
-584.13378999999998
 20
127.78613
 30
0.0
 11
-584.13378999999998
 21
131.81207000000001
 31
0.0
  0
LINE
  5
6FE
  8
0
  6
CONTINUOUS
 62
     3
 10
-586.2617799999997
 20
129.84816000000001
 30
0.0
 11
-582.05676000000017
 21
129.84816000000001
 31
0.0
  0
LINE
  5
6FF
  8
0
  6
CONTINUOUS
 62
     3
 10
-624.43377999999996
 20
170.15166999999991
 30
0.0
 11
-588.8338
 21
170.15166999999991
 31
0.0
  0
LINE
  5
700
  8
0
  6
CONTINUOUS
 62
     3
 10
-624.43377999999996
 20
134.54769999999999
 30
0.0
 11
-588.8338
 21
134.54769999999999
 31
0.0
  0
LINE
  5
701
  8
0
  6
CONTINUOUS
 62
     3
 10
-588.8338
 20
134.54769999999999
 30
0.0
 11
-588.8338
 21
170.15166999999991
 31
0.0
  0
LINE
  5
702
  8
0
  6
CONTINUOUS
 62
     3
 10
-624.43377999999996
 20
134.54769999999999
 30
0.0
 11
-624.43377999999996
 21
170.15166999999991
 31
0.0
  0
LINE
  5
703
  8
0
  6
CONTINUOUS
 62
     3
 10
-653.63427999999988
 20
182.34766999999999
 30
0.0
 11
-578.1337900000002
 21
182.34766999999999
 31
0.0
  0
LINE
  5
704
  8
0
  6
CONTINUOUS
 62
     3
 10
-653.63427999999988
 20
122.34815
 30
0.0
 11
-653.63427999999988
 21
182.34766999999999
 31
0.0
  0
LINE
  5
705
  8
0
  6
CONTINUOUS
 62
     3
 10
-634.63378999999986
 20
185.84765999999991
 30
0.0
 11
-634.63378999999986
 21
182.34766999999999
 31
0.0
  0
LINE
  5
706
  8
0
  6
CONTINUOUS
 62
     3
 10
-649.63427999999976
 20
185.84765999999991
 30
0.0
 11
-634.63378999999986
 21
185.84765999999991
 31
0.0
  0
LINE
  5
707
  8
0
  6
CONTINUOUS
 62
     3
 10
-649.63427999999976
 20
185.84765999999991
 30
0.0
 11
-649.63427999999976
 21
182.34766999999999
 31
0.0
  0
LINE
  5
708
  8
0
  6
CONTINUOUS
 62
     3
 10
-657.13427999999999
 20
159.84766999999991
 30
0.0
 11
-653.63427999999988
 21
159.84766999999991
 31
0.0
  0
LINE
  5
709
  8
0
  6
CONTINUOUS
 62
     3
 10
-657.13427999999999
 20
144.84766999999999
 30
0.0
 11
-657.13427999999999
 21
159.84766999999991
 31
0.0
  0
LINE
  5
70A
  8
0
  6
CONTINUOUS
 62
     7
 10
-575.1337900000002
 20
182.3479199999999
 30
0.0
 11
-565.86377000000005
 21
182.3479199999999
 31
0.0
  0
LINE
  5
70B
  8
0
  6
CONTINUOUS
 62
     7
 10
-410.63378999999981
 20
75.26314499999998
 30
0.0
 11
-410.63378999999981
 21
87.583145000000002
 31
0.0
  0
LINE
  5
70C
  8
0
  6
CONTINUOUS
 62
     7
 10
-410.63378999999981
 20
88.743461999999965
 30
0.0
 11
-370.63382000000001
 21
88.743461999999965
 31
0.0
  0
LINE
  5
70D
  8
0
  6
CONTINUOUS
 62
     7
 10
-410.63378999999981
 20
74.080153999999979
 30
0.0
 11
-370.63382000000001
 21
74.080153999999979
 31
0.0
  0
LINE
  5
70E
  8
0
  6
CONTINUOUS
 62
     7
 10
-145.2809399999999
 20
58.047924000000002
 30
0.0
 11
-115.2809399999999
 21
58.047924000000002
 31
0.0
  0
LINE
  5
70F
  8
0
  6
CONTINUOUS
 62
     7
 10
-145.2809399999999
 20
58.047924000000002
 30
0.0
 11
-175.2809399999999
 21
58.047924000000002
 31
0.0
  0
LINE
  5
710
  8
0
  6
CONTINUOUS
 62
     7
 10
-237.7809399999999
 20
180.54791
 30
0.0
 11
-235.37542999999991
 21
226.4479799999998
 31
0.0
  0
LINE
  5
711
  8
0
  6
CONTINUOUS
 62
     7
 10
-237.78093000000001
 20
150.54793000000001
 30
0.0
 11
-237.78093000000001
 21
180.54793000000001
 31
0.0
  0
LINE
  5
712
  8
0
  6
CONTINUOUS
 62
     7
 10
-372.05905000000001
 20
169.02222
 30
0.0
 11
-376.39550999999989
 21
145.89143000000001
 31
0.0
  0
LINE
  5
713
  8
0
  6
CONTINUOUS
 62
     7
 10
-115.2809399999999
 20
243.04790999999989
 30
0.0
 11
-69.380859000000001
 21
240.64240000000001
 31
0.0
  0
LINE
  5
714
  8
0
  6
CONTINUOUS
 62
     7
 10
-145.2809399999999
 20
243.04793000000001
 30
0.0
 11
-115.2809399999999
 21
243.04793000000001
 31
0.0
  0
LINE
  5
715
  8
0
  6
CONTINUOUS
 62
     7
 10
-175.2809399999999
 20
58.047924000000002
 30
0.0
 11
-221.1810199999999
 21
60.453444999999981
 31
0.0
  0
LINE
  5
716
  8
0
  6
CONTINUOUS
 62
     7
 10
-142.7809399999999
 20
211.16768999999991
 30
0.0
 11
-142.7809399999999
 21
221.73577999999981
 31
0.0
  0
LINE
  5
717
  8
0
  6
CONTINUOUS
 62
     7
 10
-52.780951999999999
 20
150.54793000000001
 30
0.0
 11
-52.780951999999999
 21
120.54792999999979
 31
0.0
  0
LINE
  5
718
  8
0
  6
CONTINUOUS
 62
     7
 10
-52.780937000000002
 20
120.5479399999999
 30
0.0
 11
-55.186458999999999
 21
74.647850000000005
 31
0.0
  0
LINE
  5
719
  8
0
  6
CONTINUOUS
 62
     7
 10
-52.780951999999999
 20
180.54793000000001
 30
0.0
 11
-55.186469999999993
 21
226.44799999999981
 31
0.0
  0
LINE
  5
71A
  8
0
  6
CONTINUOUS
 62
     7
 10
-52.780951999999999
 20
150.54793000000001
 30
0.0
 11
-52.780951999999999
 21
180.54793000000001
 31
0.0
  0
LINE
  5
71B
  8
0
  6
CONTINUOUS
 62
     7
 10
-237.7809399999999
 20
120.54791999999991
 30
0.0
 11
-235.37542999999991
 21
74.647850000000005
 31
0.0
  0
LINE
  5
71C
  8
0
  6
CONTINUOUS
 62
     7
 10
-379.70370000000003
 20
191.91905
 30
0.0
 11
-379.70370000000003
 21
191.91905
 31
0.0
  0
LINE
  5
71D
  8
0
  6
CONTINUOUS
 62
     7
 10
-399.05648999999988
 20
209.6252299999999
 30
0.0
 11
-379.70370000000003
 21
191.91903999999991
 31
0.0
  0
LINE
  5
71E
  8
0
  6
CONTINUOUS
 62
     7
 10
-368.70357999999987
 20
242.76613
 30
0.0
 11
-360.63382000000001
 21
243.04793000000001
 31
0.0
  0
LINE
  5
71F
  8
0
  6
CONTINUOUS
 62
     7
 10
-392.87987999999979
 20
44.854922999999992
 30
0.0
 11
-370.63382000000001
 21
57.698689000000002
 31
0.0
  0
LINE
  5
720
  8
0
  6
CONTINUOUS
 62
     7
 10
-370.63382000000001
 20
126.63758
 30
0.0
 11
-370.63382000000001
 21
201.67317
 31
0.0
  0
LINE
  5
721
  8
0
  6
CONTINUOUS
 62
     7
 10
-435.63378999999981
 20
208.34792999999999
 30
0.0
 11
-400.23752000000002
 21
209.58399999999989
 31
0.0
  0
LINE
  5
722
  8
0
  6
CONTINUOUS
 62
     7
 10
-435.63378999999981
 20
46.347931000000003
 30
0.0
 11
-392.87987999999979
 21
44.854931000000001
 31
0.0
  0
LINE
  5
723
  8
0
  6
CENTER
 62
     7
 10
-373.74155000000002
 20
74.533935999999983
 30
0.0
 11
-354.44931000000008
 21
74.533935999999983
 31
0.0
  0
LINE
  5
724
  8
0
  6
CONTINUOUS
 62
     7
 10
-172.5535099999999
 20
182.06314
 30
0.0
 11
-197.44127999999981
 21
206.95089999999999
 31
0.0
  0
LINE
  5
725
  8
0
  6
CONTINUOUS
 62
     7
 10
-176.7961599999999
 20
177.8204999999999
 30
0.0
 11
-201.68393
 21
202.70827
 31
0.0
  0
LINE
  5
726
  8
0
  6
CONTINUOUS
 62
     7
 10
-435.63382000000001
 20
173.59795
 30
0.0
 11
-373.68851000000001
 21
173.59795
 31
0.0
  0
LINE
  5
727
  8
0
  6
CONTINUOUS
 62
     7
 10
-370.63382000000001
 20
60.805298000000001
 30
0.0
 11
-370.63382000000001
 21
96.177291999999994
 31
0.0
  0
LINE
  5
728
  8
0
  6
CONTINUOUS
 62
     7
 10
-398.22086000000002
 20
210.4608299999999
 30
0.0
 11
-370.63378999999992
 21
238.0479
 31
0.0
  0
LINE
  5
729
  8
0
  6
CONTINUOUS
 62
     7
 10
-220.14587
 20
122.34795
 30
0.0
 11
-189.28095999999991
 21
122.34795
 31
0.0
  0
LINE
  5
72A
  8
0
  6
CONTINUOUS
 62
     7
 10
-70.415999999999997
 20
122.34795
 30
0.0
 11
-101.28094
 21
122.34795
 31
0.0
  0
LINE
  5
72B
  8
0
  6
CONTINUOUS
 62
     7
 10
-369.00475999999992
 20
124.6375899999998
 30
0.0
 11
-366.63382000000001
 21
124.6375899999998
 31
0.0
  0
LINE
  5
72C
  8
0
  6
CONTINUOUS
 62
     7
 10
-115.28095
 20
58.047924000000002
 30
0.0
 11
-69.380875000000003
 21
60.453444999999981
 31
0.0
  0
LINE
  5
72D
  8
0
  6
CENTER
 62
     7
 10
-75.042923000000002
 20
220.78595000000001
 30
0.0
 11
-63.801281000000003
 21
232.02758999999989
 31
0.0
  0
LINE
  5
72E
  8
0
  6
CENTER
 62
     7
 10
-215.5877799999999
 20
220.85477
 30
0.0
 11
-226.77260000000001
 21
232.03957999999989
 31
0.0
  0
LINE
  5
72F
  8
0
  6
CONTINUOUS
 62
     7
 10
-237.78093000000001
 20
150.54793000000001
 30
0.0
 11
-237.78093000000001
 21
120.54792999999979
 31
0.0
  0
LINE
  5
730
  8
0
  6
CENTER
 62
     7
 10
-215.67093999999989
 20
80.157927999999984
 30
0.0
 11
-227.07065
 21
68.758217000000002
 31
0.0
  0
LINE
  5
731
  8
0
  6
CONTINUOUS
 62
     7
 10
-360.63382000000001
 20
58.047913000000001
 30
0.0
 11
-360.63382000000001
 21
150.54793000000001
 31
0.0
  0
LINE
  5
732
  8
0
  6
CONTINUOUS
 62
     7
 10
-370.63378999999992
 20
57.698718999999997
 30
0.0
 11
-360.63382000000001
 21
58.047928000000013
 31
0.0
  0
LINE
  5
733
  8
0
  6
CONTINUOUS
 62
     7
 10
-147.78093000000001
 20
211.16768999999991
 30
0.0
 11
-147.78093000000001
 21
221.73577999999981
 31
0.0
  0
LINE
  5
734
  8
0
  6
CONTINUOUS
 62
     7
 10
-113.76573999999979
 20
177.8204999999999
 30
0.0
 11
-88.877944999999983
 21
202.70828
 31
0.0
  0
LINE
  5
735
  8
0
  6
CONTINUOUS
 62
     7
 10
-175.2809399999999
 20
243.04790999999989
 30
0.0
 11
-221.18102999999991
 21
240.64240000000001
 31
0.0
  0
LINE
  5
736
  8
0
  6
CONTINUOUS
 62
     7
 10
-184.2809399999999
 20
150.54793000000001
 30
0.0
 11
-184.2809399999999
 21
127.34793999999999
 31
0.0
  0
LINE
  5
737
  8
0
  6
CONTINUOUS
 62
     7
 10
-360.63382000000001
 20
235.54792999999981
 30
0.0
 11
-356.63378999999992
 21
235.54792999999981
 31
0.0
  0
LINE
  5
738
  8
0
  6
CONTINUOUS
 62
     7
 10
-106.2809399999999
 20
150.54793000000001
 30
0.0
 11
-106.2809399999999
 21
127.34793999999999
 31
0.0
  0
LINE
  5
739
  8
0
  6
CENTER
 62
     7
 10
-372.54910000000001
 20
226.56188999999981
 30
0.0
 11
-354.32802999999979
 21
226.56188999999981
 31
0.0
  0
LINE
  5
73A
  8
0
  6
CONTINUOUS
 62
     7
 10
-118.00838
 20
182.06313
 30
0.0
 11
-93.120590000000007
 21
206.95092999999989
 31
0.0
  0
LINE
  5
73B
  8
0
  6
CENTER
 62
     7
 10
-75.379761000000002
 20
80.646743999999984
 30
0.0
 11
-63.049469000000002
 21
68.316451999999998
 31
0.0
  0
LINE
  5
73C
  8
0
  6
CONTINUOUS
 62
     7
 10
-366.63382000000001
 20
80.047920000000005
 30
0.0
 11
-366.63382000000001
 21
220.72022999999999
 31
0.0
  0
LINE
  5
73D
  8
0
  6
CONTINUOUS
 62
     7
 10
-435.63382000000001
 20
61.237712999999999
 30
0.0
 11
-370.63382000000001
 21
61.237712999999999
 31
0.0
  0
LINE
  5
73E
  8
0
  6
CONTINUOUS
 62
     7
 10
-145.2809399999999
 20
243.04793000000001
 30
0.0
 11
-175.2809399999999
 21
243.04793000000001
 31
0.0
  0
LINE
  5
73F
  8
0
  6
CONTINUOUS
 62
     7
 10
-360.63382000000001
 20
65.547934999999995
 30
0.0
 11
-356.63378999999992
 21
65.547934999999995
 31
0.0
  0
LINE
  5
740
  8
0
  6
CONTINUOUS
 62
     7
 10
-360.63382000000001
 20
150.54793000000001
 30
0.0
 11
-360.63382000000001
 21
243.04793000000001
 31
0.0
  0
LINE
  5
741
  8
0
  6
CONTINUOUS
 62
     7
 10
-370.63382000000001
 20
201.67317
 30
0.0
 11
-370.63382000000001
 21
240.7673299999999
 31
0.0
  0
LINE
  5
742
  8
0
  6
CONTINUOUS
 62
     7
 10
-435.63378999999981
 20
46.347931000000003
 30
0.0
 11
-450.70360999999991
 21
46.874180000000003
 31
0.0
  0
LINE
  5
743
  8
0
  6
DASHED
 62
     7
 10
-213.2809299999999
 20
118.84791
 30
0.0
 11
-213.2809299999999
 21
185.8479199999999
 31
0.0
  0
LINE
  5
744
  8
0
  6
DASHED
 62
     7
 10
-230.2809299999999
 20
122.3478999999999
 30
0.0
 11
-230.2809299999999
 21
118.84791
 31
0.0
  0
LINE
  5
745
  8
0
  6
DASHED
 62
     7
 10
-210.2809299999999
 20
118.84791
 30
0.0
 11
-230.2809299999999
 21
118.84791
 31
0.0
  0
LINE
  5
746
  8
0
  6
DASHED
 62
     7
 10
-235.2809399999999
 20
122.3478999999999
 30
0.0
 11
-220.14587
 21
122.3478999999999
 31
0.0
  0
LINE
  5
747
  8
0
  6
DASHED
 62
     7
 10
-235.2809399999999
 20
182.34790000000001
 30
0.0
 11
-216.78093000000001
 21
182.34790000000001
 31
0.0
  0
LINE
  5
748
  8
0
  6
DASHED
 62
     7
 10
-235.2809399999999
 20
122.3478999999999
 30
0.0
 11
-235.2809399999999
 21
182.34790000000001
 31
0.0
  0
LINE
  5
749
  8
0
  6
DASHED
 62
     7
 10
-216.78093000000001
 20
120.8479
 30
0.0
 11
-213.2809299999999
 21
120.8479
 31
0.0
  0
LINE
  5
74A
  8
0
  6
DASHED
 62
     7
 10
-235.2809399999999
 20
175.34790000000001
 30
0.0
 11
-237.7809399999999
 21
171.02289999999991
 31
0.0
  0
LINE
  5
74B
  8
0
  6
DASHED
 62
     7
 10
-216.78093000000001
 20
120.8479
 30
0.0
 11
-216.78093000000001
 21
183.84790000000001
 31
0.0
  0
LINE
  5
74C
  8
0
  6
DASHED
 62
     7
 10
-235.2809399999999
 20
129.34788999999969
 30
0.0
 11
-237.78093000000001
 21
133.6811999999999
 31
0.0
  0
LINE
  5
74D
  8
0
  6
CONTINUOUS
 62
     7
 10
-238.2809399999999
 20
134.5479
 30
0.0
 11
-238.2809399999999
 21
170.15790000000001
 31
0.0
  0
LINE
  5
74E
  8
0
  6
DASHED
 62
     7
 10
-210.2809299999999
 20
185.8479199999999
 30
0.0
 11
-230.2809299999999
 21
185.8479199999999
 31
0.0
  0
LINE
  5
74F
  8
0
  6
DASHED
 62
     7
 10
-230.2809299999999
 20
182.34790000000001
 30
0.0
 11
-230.2809299999999
 21
185.8479199999999
 31
0.0
  0
LINE
  5
750
  8
0
  6
CONTINUOUS
 62
     7
 10
-237.7809399999999
 20
171.02289999999991
 30
0.0
 11
-238.2809399999999
 21
170.15790000000001
 31
0.0
  0
LINE
  5
751
  8
0
  6
CONTINUOUS
 62
     7
 10
-237.78093000000001
 20
133.6811999999999
 30
0.0
 11
-238.2809399999999
 21
134.54787999999991
 31
0.0
  0
LINE
  5
752
  8
0
  6
DASHED
 62
     7
 10
-216.78093000000001
 20
183.84790000000001
 30
0.0
 11
-213.2809299999999
 21
183.84790000000001
 31
0.0
  0
LINE
  5
753
  8
0
  6
DASHED
 62
     7
 10
-210.2809299999999
 20
118.84791
 30
0.0
 11
-210.2809299999999
 21
185.8479199999999
 31
0.0
  0
LINE
  5
754
  8
0
  6
CENTER
 62
     1
 10
-489.01330999999988
 20
152.34791999999979
 30
0.0
 11
-684.43480999999986
 21
152.34791999999979
 31
0.0
  0
LINE
  5
755
  8
0
  6
CONTINUOUS
 62
     7
 10
-356.63378999999992
 20
498.09485000000001
 30
0.0
 11
-356.63378999999992
 21
328.09485000000001
 31
0.0
  0
LINE
  5
756
  8
0
  6
CONTINUOUS
 62
     7
 10
-368.70357999999987
 20
505.31304999999992
 30
0.0
 11
-360.63382000000001
 21
505.59485000000001
 31
0.0
  0
LINE
  5
757
  8
0
  6
CONTINUOUS
 62
     7
 10
-372.32805999999988
 20
498.90050999999988
 30
0.0
 11
-370.63378999999992
 21
500.59482000000003
 31
0.0
  0
LINE
  5
758
  8
0
  6
CONTINUOUS
 62
     7
 10
-360.63382000000001
 20
498.09485000000001
 30
0.0
 11
-356.63378999999992
 21
498.09485000000001
 31
0.0
  0
LINE
  5
759
  8
0
  6
CENTER
 62
     7
 10
-372.05538999999999
 20
489.10882999999978
 30
0.0
 11
-354.86437999999993
 21
489.10882999999978
 31
0.0
  0
LINE
  5
75A
  8
0
  6
CONTINUOUS
 62
     7
 10
-366.63382000000001
 20
342.59485000000001
 30
0.0
 11
-366.63382000000001
 21
483.26715000000002
 31
0.0
  0
LINE
  5
75B
  8
0
  6
CONTINUOUS
 62
     7
 10
-360.63382000000001
 20
320.59485000000001
 30
0.0
 11
-360.63382000000001
 21
505.59485000000001
 31
0.0
  0
LINE
  5
75C
  8
0
  6
CONTINUOUS
 62
     7
 10
-370.63382000000001
 20
322.87545999999992
 30
0.0
 11
-370.63382000000001
 21
503.31423999999998
 31
0.0
  0
LINE
  5
75D
  8
0
  6
CONTINUOUS
 62
     7
 10
-368.70361000000003
 20
320.87664999999993
 30
0.0
 11
-360.63385
 21
320.59485000000001
 31
0.0
  0
LINE
  5
75E
  8
0
  6
CONTINUOUS
 62
     7
 10
-360.63382000000001
 20
328.09485000000001
 30
0.0
 11
-356.63378999999992
 21
328.09485000000001
 31
0.0
  0
LINE
  5
75F
  8
0
  6
CENTER
 62
     7
 10
-372.73556999999988
 20
337.08086999999989
 30
0.0
 11
-354.88745
 21
337.08086999999989
 31
0.0
  0
LINE
  5
760
  8
0
  6
CONTINUOUS
 62
     7
 10
-372.32808999999992
 20
327.28915000000001
 30
0.0
 11
-370.63378999999992
 21
325.59487999999999
 31
0.0
  0
LINE
  5
761
  8
0
  6
CONTINUOUS
 62
     7
 10
-435.63382000000001
 20
495.34579000000002
 30
0.0
 11
-447.80835000000002
 21
494.92065000000002
 31
0.0
  0
LINE
  5
762
  8
0
  6
CONTINUOUS
 62
     7
 10
-435.63382000000001
 20
330.84390000000002
 30
0.0
 11
-447.80831999999992
 21
331.26904000000002
 31
0.0
  0
ARC
  5
763
  8
0
  6
CONTINUOUS
 62
     7
 10
-346.63384999999982
 20
413.09485000000001
 30
0.0
 40
3.9999962
 50
90.000003000000007
 51
270.0
  0
ARC
  5
764
  8
0
  6
CONTINUOUS
 62
     7
 10
-447.63381999999979
 20
336.26598999999999
 30
0.0
 40
5.0
 50
180.00001
 51
268.0
  0
ARC
  5
765
  8
0
  6
CONTINUOUS
 62
     7
 10
-447.63381999999979
 20
489.92370999999991
 30
0.0
 40
5.0
 50
91.999998000000005
 51
180.00001
  0
ARC
  5
766
  8
0
  6
CONTINUOUS
 62
     7
 10
-455.63381999999979
 20
345.77237000000002
 30
0.0
 40
3.0
 50
0.0
 51
88.0
  0
ARC
  5
767
  8
0
  6
CONTINUOUS
 62
     7
 10
-455.63381999999979
 20
480.41730000000001
 30
0.0
 40
3.0
 50
272.0
 51
0.0
  0
ARC
  5
768
  8
0
  6
CONTINUOUS
 62
     7
 10
-485.13387999999992
 20
352.59485000000001
 30
0.0
 40
3.0
 50
180.00001
 51
270.0
  0
ARC
  5
769
  8
0
  6
CONTINUOUS
 62
     7
 10
-485.13387999999992
 20
473.59485000000001
 30
0.0
 40
3.0
 50
90.000003000000007
 51
180.00001
  0
ARC
  5
76A
  8
0
  6
CONTINUOUS
 62
     7
 10
-491.11498999999981
 20
352.11932000000002
 30
0.0
 40
3.0
 50
4.545488299999997
 51
88.0
  0
ARC
  5
76B
  8
0
  6
CONTINUOUS
 62
     7
 10
-491.11498999999981
 20
474.07037000000003
 30
0.0
 40
3.0
 50
272.0
 51
355.45442999999977
  0
ARC
  5
76C
  8
0
  6
CONTINUOUS
 62
     7
 10
-531.63385000000005
 20
360.53856999999988
 30
0.0
 40
4.0
 50
268.0
 51
0.00000068324543
  0
ARC
  5
76D
  8
0
  6
CONTINUOUS
 62
     7
 10
-531.63385000000005
 20
465.65114999999992
 30
0.0
 40
4.0
 50
0.0
 51
91.999998000000005
  0
ARC
  5
76E
  8
0
  6
CONTINUOUS
 62
     7
 10
-524.63385000000005
 20
419.09485000000001
 30
0.0
 40
3.0
 50
180.00001
 51
270.0
  0
ARC
  5
76F
  8
0
  6
CONTINUOUS
 62
     7
 10
-524.63385000000005
 20
407.09485000000001
 30
0.0
 40
3.0
 50
90.000003000000007
 51
180.00001
  0
ARC
  5
770
  8
0
  6
CONTINUOUS
 62
     7
 10
-491.13387999999998
 20
407.09485000000001
 30
0.0
 40
3.0
 50
0.0
 51
90.000003000000007
  0
ARC
  5
771
  8
0
  6
CONTINUOUS
 62
     7
 10
-491.13387999999998
 20
419.09485000000001
 30
0.0
 40
3.0
 50
270.0
 51
0.0
  0
ARC
  5
772
  8
0
  6
CONTINUOUS
 62
     3
 10
-642.90674000000001
 20
336.59485000000001
 30
0.0
 40
7.5
 50
179.99997999999991
 51
0.000010017913
  0
ARC
  5
773
  8
0
  6
CONTINUOUS
 62
     3
 10
-642.90674000000001
 20
336.59485000000001
 30
0.0
 40
4.0
 50
179.99997999999991
 51
0.000010017912
  0
ARC
  5
774
  8
0
  6
CONTINUOUS
 62
     7
 10
-555.98064999999986
 20
458.42760999999962
 30
0.0
 40
1.502775999999999
 50
194.75642999999991
 51
269.87757999999991
  0
ARC
  5
775
  8
0
  6
CONTINUOUS
 62
     7
 10
-555.98064999999986
 20
457.51758000000001
 30
0.0
 40
1.502775999999999
 50
194.75642999999991
 51
269.87757999999991
  0
ARC
  5
776
  8
0
  6
CONTINUOUS
 62
     7
 10
-555.98064999999986
 20
455.66759999999999
 30
0.0
 40
1.502775999999999
 50
194.75642999999991
 51
269.87757999999991
  0
ARC
  5
777
  8
0
  6
CONTINUOUS
 62
     7
 10
-563.50873000000001
 20
472.98009999999999
 30
0.0
 40
2.0047290000000002
 50
15.173496
 51
89.861677999999998
  0
ARC
  5
778
  8
0
  6
CONTINUOUS
 62
     7
 10
-563.50873000000001
 20
472.07006999999999
 30
0.0
 40
2.0047290000000002
 50
15.173496
 51
89.861677999999998
  0
ARC
  5
779
  8
0
  6
CONTINUOUS
 62
     7
 10
-563.50873000000001
 20
470.22009000000003
 30
0.0
 40
2.0047290000000002
 50
15.173496
 51
89.861677999999998
  0
ARC
  5
77A
  8
0
  6
CONTINUOUS
 62
     7
 10
-555.98064999999986
 20
373.37207000000001
 30
0.0
 40
1.502775999999999
 50
90.122413000000037
 51
165.24357000000001
  0
ARC
  5
77B
  8
0
  6
CONTINUOUS
 62
     7
 10
-676.64068999999995
 20
461.11279000000002
 30
0.0
 40
0.99319202
 50
119.77338
 51
179.87958999999981
  0
ARC
  5
77C
  8
0
  6
CONTINUOUS
 62
     7
 10
-676.63830999999982
 20
460.07457999999991
 30
0.0
 40
0.995579
 50
116.5870899999999
 51
179.98264
  0
ARC
  5
77D
  8
0
  6
CONTINUOUS
 62
     7
 10
-675.37182999999982
 20
461.84899999999999
 30
0.0
 40
0.9959030199999999
 50
89.541267000000005
 51
119.60717
  0
ARC
  5
77E
  8
0
  6
CONTINUOUS
 62
     7
 10
-675.40905999999995
 20
460.70080999999988
 30
0.0
 40
0.99411702
 50
89.122643999999966
 51
115.93498
  0
ARC
  5
77F
  8
0
  6
CONTINUOUS
 62
     7
 10
-675.36505
 20
459.74059999999992
 30
0.0
 40
0.99427301
 50
89.356065999999984
 51
120.78091000000001
  0
ARC
  5
780
  8
0
  6
CONTINUOUS
 62
     7
 10
-675.39880000000005
 20
458.59949000000012
 30
0.0
 40
0.99545902
 50
89.141291000000024
 51
117.20381999999999
  0
ARC
  5
781
  8
0
  6
CONTINUOUS
 62
     7
 10
-675.32720999999981
 20
455.22863999999981
 30
0.0
 40
0.99617702
 50
90.381317999999979
 51
123.9704899999999
  0
ARC
  5
782
  8
0
  6
CONTINUOUS
 62
     7
 10
-675.35442999999975
 20
454.08837999999992
 30
0.0
 40
0.99648702
 50
90.540720999999976
 51
120.74377
  0
ARC
  5
783
  8
0
  6
CONTINUOUS
 62
     7
 10
-676.63982999999985
 20
453.33800999999988
 30
0.0
 40
0.99404597
 50
120.4682
 51
180.18563999999989
  0
ARC
  5
784
  8
0
  6
CONTINUOUS
 62
     7
 10
-676.63904000000002
 20
454.37243999999998
 30
0.0
 40
0.9948369899999999
 50
123.20496
 51
180.4378599999998
  0
ARC
  5
785
  8
0
  6
CONTINUOUS
 62
     7
 10
-676.64062999999976
 20
457.93627999999961
 30
0.0
 40
0.9932109699999999
 50
117.7993199999999
 51
180.08187000000001
  0
ARC
  5
786
  8
0
  6
CONTINUOUS
 62
     7
 10
-676.63940000000002
 20
458.97388000000001
 30
0.0
 40
0.9944329899999999
 50
121.15213
 51
179.9405099999999
  0
ARC
  5
787
  8
0
  6
CONTINUOUS
 62
     7
 10
-675.43286000000001
 20
447.78942999999992
 30
0.0
 40
0.9954450099999999
 50
90.056905000000043
 51
113.1274499999999
  0
ARC
  5
788
  8
0
  6
CONTINUOUS
 62
     7
 10
-675.49468999999999
 20
445.84215999999998
 30
0.0
 40
0.9927430199999999
 50
89.374555000000001
 51
106.33207
  0
ARC
  5
789
  8
0
  6
CONTINUOUS
 62
     7
 10
-676.63756999999998
 20
445.49059999999997
 30
0.0
 40
0.9962710099999999
 50
106.69792
 51
180.3300499999998
  0
ARC
  5
78A
  8
0
  6
CONTINUOUS
 62
     7
 10
-676.63744999999994
 20
447.27636999999987
 30
0.0
 40
0.9963999999999998
 50
112.81735999999979
 51
180.09041999999991
  0
ARC
  5
78B
  8
0
  6
CONTINUOUS
 62
     7
 10
-676.63878999999963
 20
438.09972999999968
 30
0.0
 40
0.99507803
 50
89.715886999999981
 51
180.28411
  0
ARC
  5
78C
  8
0
  6
CONTINUOUS
 62
     7
 10
-676.63367000000005
 20
438.09509000000003
 30
0.0
 40
1.000203
 50
180.01165
 51
269.98835000000003
  0
ARC
  5
78D
  8
0
  6
CONTINUOUS
 62
     7
 10
-676.63878999999963
 20
428.09973000000002
 30
0.0
 40
0.99508202
 50
89.716099
 51
180.28390999999991
  0
ARC
  5
78E
  8
0
  6
CONTINUOUS
 62
     7
 10
-676.63367000000005
 20
428.09509000000003
 30
0.0
 40
1.0001999999999991
 50
180.0114299999999
 51
269.98856999999992
  0
ARC
  5
78F
  8
0
  6
CONTINUOUS
 62
     7
 10
-676.63878999999963
 20
418.09972999999991
 30
0.0
 40
0.9950849999999999
 50
89.716311000000005
 51
180.28368999999981
  0
ARC
  5
790
  8
0
  6
CONTINUOUS
 62
     7
 10
-676.63367000000005
 20
418.09509000000003
 30
0.0
 40
1.0001959999999981
 50
180.01122000000001
 51
269.98877999999991
  0
ARC
  5
791
  8
0
  6
CONTINUOUS
 62
     7
 10
-673.63367000000005
 20
416.09496999999988
 30
0.0
 40
0.9998249999999999
 50
359.98995000000002
 51
90.010050000000007
  0
ARC
  5
792
  8
0
  6
CONTINUOUS
 62
     7
 10
-673.6387900000002
 20
420.09973000000002
 30
0.0
 40
1.0049469
 50
270.28134999999992
 51
359.71866
  0
ARC
  5
793
  8
0
  6
CONTINUOUS
 62
     7
 10
-673.63367000000005
 20
426.09496999999999
 30
0.0
 40
0.9998210099999999
 50
359.98975000000002
 51
90.010255000000001
  0
ARC
  5
794
  8
0
  6
CONTINUOUS
 62
     7
 10
-673.6387900000002
 20
430.09972999999968
 30
0.0
 40
1.004939
 50
270.28091000000001
 51
359.71910000000008
  0
ARC
  5
795
  8
0
  6
CONTINUOUS
 62
     7
 10
-673.63367000000005
 20
436.09496999999988
 30
0.0
 40
0.9998289899999999
 50
359.99018999999993
 51
90.009810999999985
  0
ARC
  5
796
  8
0
  6
CONTINUOUS
 62
     7
 10
-673.6387900000002
 20
440.09972999999991
 30
0.0
 40
1.004942999999999
 50
270.28111000000001
 51
359.71888999999987
  0
ARC
  5
797
  8
0
  6
CONTINUOUS
 62
     7
 10
-673.63214000000005
 20
445.83654999999999
 30
0.0
 40
0.9982839799999999
 50
359.90141999999992
 51
90.098575999999994
  0
ARC
  5
798
  8
0
  6
CONTINUOUS
 62
     7
 10
-673.63622999999995
 20
454.08251999999987
 30
0.0
 40
1.002353
 50
0.13432682
 51
89.865673000000001
  0
ARC
  5
799
  8
0
  6
CONTINUOUS
 62
     7
 10
-673.33843999999999
 20
449.48937999999981
 30
0.0
 40
0.704566
 50
270.37009999999992
 51
359.62990999999982
  0
ARC
  5
79A
  8
0
  6
CONTINUOUS
 62
     7
 10
-673.63287000000003
 20
458.59582999999992
 30
0.0
 40
0.9990100299999999
 50
359.94319000000002
 51
90.056808999999959
  0
ARC
  5
79B
  8
0
  6
CONTINUOUS
 62
     7
 10
-673.13214000000005
 20
461.19653
 30
0.0
 40
0.4983060100000002
 50
359.80489
 51
90.195107000000007
  0
ARC
  5
79C
  8
0
  6
CONTINUOUS
 62
     7
 10
-673.13849000000005
 20
463.34949
 30
0.0
 40
0.50463498
 50
270.52382999999992
 51
359.47617000000002
  0
ARC
  5
79D
  8
0
  6
CONTINUOUS
 62
     7
 10
-661.0892299999997
 20
378.09485000000001
 30
0.0
 40
1.000013899999999
 50
89.691659999999985
 51
270.30833999999999
  0
ARC
  5
79E
  8
0
  6
CONTINUOUS
 62
     7
 10
-558.81384000000003
 20
448.13988999999998
 30
0.0
 40
1.6750020000000001
 50
269.99998999999991
 51
90.000003000000007
  0
ARC
  5
79F
  8
0
  6
CONTINUOUS
 62
     7
 10
-562.29387999999994
 20
448.09485000000001
 30
0.0
 40
1.0
 50
269.99998999999991
 51
90.000003000000007
  0
ARC
  5
7A0
  8
0
  6
CONTINUOUS
 62
     7
 10
-562.29387999999994
 20
378.09485000000001
 30
0.0
 40
1.0
 50
269.99998999999991
 51
90.000003000000007
  0
ARC
  5
7A1
  8
0
  6
CONTINUOUS
 62
     7
 10
-558.81384000000003
 20
378.0498
 30
0.0
 40
1.6750020000000001
 50
269.99998999999991
 51
90.000003000000007
  0
ARC
  5
7A2
  8
0
  6
CONTINUOUS
 62
     7
 10
-673.63720999999975
 20
380.35815000000002
 30
0.0
 40
1.003352
 50
270.19110999999992
 51
359.80889999999982
  0
ARC
  5
7A3
  8
0
  6
CONTINUOUS
 62
     7
 10
-673.6387900000002
 20
390.09972999999991
 30
0.0
 40
1.0049469
 50
270.28136999999992
 51
359.71863000000002
  0
ARC
  5
7A4
  8
0
  6
CONTINUOUS
 62
     7
 10
-673.63367000000005
 20
386.09496999999988
 30
0.0
 40
0.9998239899999999
 50
359.98991999999993
 51
90.010076999999981
  0
ARC
  5
7A5
  8
0
  6
CONTINUOUS
 62
     7
 10
-673.33330999999998
 20
376.70544000000001
 30
0.0
 40
0.6994530000000001
 50
359.95517000000001
 51
90.044829000000021
  0
ARC
  5
7A6
  8
0
  6
CONTINUOUS
 62
     7
 10
-675.43084999999985
 20
378.41002999999989
 30
0.0
 40
1.005233
 50
246.98638999999989
 51
269.82924999999989
  0
ARC
  5
7A7
  8
0
  6
CONTINUOUS
 62
     7
 10
-675.49334999999985
 20
380.35753999999991
 30
0.0
 40
1.002699
 50
253.7527199999999
 51
270.54064
  0
ARC
  5
7A8
  8
0
  6
CONTINUOUS
 62
     7
 10
-676.63744999999994
 20
380.70922999999988
 30
0.0
 40
0.99638802
 50
180.24991
 51
253.29664
  0
ARC
  5
7A9
  8
0
  6
CONTINUOUS
 62
     7
 10
-676.63733000000002
 20
378.92334
 30
0.0
 40
0.9965090199999998
 50
179.91374999999999
 51
247.17845
  0
ARC
  5
7AA
  8
0
  6
CONTINUOUS
 62
     7
 10
-676.63367000000005
 20
388.09508999999991
 30
0.0
 40
1.0001959999999981
 50
180.01124999999999
 51
269.98874999999992
  0
ARC
  5
7AB
  8
0
  6
CONTINUOUS
 62
     7
 10
-676.63878999999963
 20
388.09972999999991
 30
0.0
 40
0.9950849999999999
 50
89.716282999999976
 51
180.2837199999999
  0
ARC
  5
7AC
  8
0
  6
CONTINUOUS
 62
     7
 10
-676.63367000000005
 20
398.09508999999991
 30
0.0
 40
1.0001999999999991
 50
180.01146
 51
269.98853999999972
  0
ARC
  5
7AD
  8
0
  6
CONTINUOUS
 62
     7
 10
-676.63878999999963
 20
398.09972999999979
 30
0.0
 40
0.9950810099999999
 50
89.716071999999997
 51
180.28391999999999
  0
ARC
  5
7AE
  8
0
  6
CONTINUOUS
 62
     7
 10
-676.63367000000005
 20
408.09508999999991
 30
0.0
 40
1.0002040000000001
 50
180.01166000000001
 51
269.9883200000001
  0
ARC
  5
7AF
  8
0
  6
CONTINUOUS
 62
     7
 10
-676.63878999999963
 20
408.09972999999991
 30
0.0
 40
0.9950770099999999
 50
89.715860000000006
 51
180.28413999999989
  0
ARC
  5
7B0
  8
0
  6
CONTINUOUS
 62
     7
 10
-673.6387900000002
 20
410.09972999999991
 30
0.0
 40
1.004942999999999
 50
270.28113999999988
 51
359.71886999999992
  0
ARC
  5
7B1
  8
0
  6
CONTINUOUS
 62
     7
 10
-673.63367000000005
 20
406.09496999999999
 30
0.0
 40
0.9998279799999998
 50
359.99015999999978
 51
90.009838000000002
  0
ARC
  5
7B2
  8
0
  6
CONTINUOUS
 62
     7
 10
-673.6387900000002
 20
400.09972999999979
 30
0.0
 40
1.004939
 50
270.28093999999999
 51
359.71906999999999
  0
ARC
  5
7B3
  8
0
  6
CONTINUOUS
 62
     7
 10
-673.63367000000005
 20
396.09496999999999
 30
0.0
 40
0.9998210099999999
 50
359.98971999999998
 51
90.010281999999961
  0
ARC
  5
7B4
  8
0
  6
CONTINUOUS
 62
     7
 10
-661.96130000000005
 20
448.13988999999998
 30
0.0
 40
1.6750160000000001
 50
89.746144999999984
 51
270.25387000000001
  0
ARC
  5
7B5
  8
0
  6
CONTINUOUS
 62
     7
 10
-661.0892299999997
 20
448.09485000000001
 30
0.0
 40
1.000013899999999
 50
89.691659999999985
 51
270.30833999999999
  0
ARC
  5
7B6
  8
0
  6
CONTINUOUS
 62
     7
 10
-661.0892299999997
 20
438.09485000000001
 30
0.0
 40
1.000013899999999
 50
89.691659999999985
 51
270.30833999999999
  0
ARC
  5
7B7
  8
0
  6
CONTINUOUS
 62
     7
 10
-661.0892299999997
 20
428.09485000000001
 30
0.0
 40
1.000013899999999
 50
89.691659999999985
 51
270.30833999999999
  0
ARC
  5
7B8
  8
0
  6
CONTINUOUS
 62
     7
 10
-661.0892299999997
 20
418.09485000000001
 30
0.0
 40
1.000013899999999
 50
89.691659999999985
 51
270.30833999999999
  0
ARC
  5
7B9
  8
0
  6
CONTINUOUS
 62
     7
 10
-661.0892299999997
 20
408.09484999999989
 30
0.0
 40
1.000013899999999
 50
89.691659999999985
 51
270.30833999999999
  0
ARC
  5
7BA
  8
0
  6
CONTINUOUS
 62
     7
 10
-661.0892299999997
 20
398.09485000000001
 30
0.0
 40
1.000013899999999
 50
89.691659999999985
 51
270.30833999999999
  0
ARC
  5
7BB
  8
0
  6
CONTINUOUS
 62
     7
 10
-661.0892299999997
 20
388.09485000000001
 30
0.0
 40
1.000013899999999
 50
89.691659999999985
 51
270.30833999999999
  0
ARC
  5
7BC
  8
0
  6
CONTINUOUS
 62
     7
 10
-662.17389000000003
 20
438.11986999999988
 30
0.0
 40
1.465004
 50
90.000003000000007
 51
270.0
  0
ARC
  5
7BD
  8
0
  6
CONTINUOUS
 62
     7
 10
-662.30382999999995
 20
428.10485999999997
 30
0.0
 40
1.3300049999999981
 50
90.000003000000007
 51
270.0
  0
ARC
  5
7BE
  8
0
  6
CONTINUOUS
 62
     7
 10
-662.36968999999965
 20
418.09985
 30
0.0
 40
1.2650129999999991
 50
89.735579000000016
 51
270.26441
  0
ARC
  5
7BF
  8
0
  6
CONTINUOUS
 62
     7
 10
-662.36968999999965
 20
408.09484999999989
 30
0.0
 40
1.2700129999999981
 50
89.736616999999995
 51
270.26337000000001
  0
ARC
  5
7C0
  8
0
  6
CONTINUOUS
 62
     7
 10
-662.30382999999995
 20
398.08483999999987
 30
0.0
 40
1.3300049999999981
 50
90.000003000000007
 51
270.0
  0
ARC
  5
7C1
  8
0
  6
CONTINUOUS
 62
     7
 10
-662.17389000000003
 20
388.06981999999988
 30
0.0
 40
1.465004
 50
90.000003000000007
 51
270.0
  0
ARC
  5
7C2
  8
0
  6
CONTINUOUS
 62
     7
 10
-661.96068999999989
 20
378.0498
 30
0.0
 40
1.675014
 50
89.766498999999982
 51
270.23351000000002
  0
ARC
  5
7C3
  8
0
  6
CONTINUOUS
 62
     7
 10
-673.63715000000002
 20
372.12157999999988
 30
0.0
 40
1.0032760000000001
 50
334.19810000000001
 51
359.61810999999977
  0
ARC
  5
7C4
  8
0
  6
CONTINUOUS
 62
     7
 10
-676.63538000000005
 20
372.85412999999988
 30
0.0
 40
0.9984580299999999
 50
179.9595799999999
 51
239.38657000000001
  0
ARC
  5
7C5
  8
0
  6
CONTINUOUS
 62
     7
 10
-660.43517999999995
 20
467.38074
 30
0.0
 40
1.994108999999999
 50
89.675548000000006
 51
169.18777
  0
ARC
  5
7C6
  8
0
  6
CONTINUOUS
 62
     7
 10
-660.38367000000017
 20
470.22960999999981
 30
0.0
 40
1.995282999999997
 50
90.006203999999983
 51
170.90835000000001
  0
ARC
  5
7C7
  8
0
  6
CONTINUOUS
 62
     7
 10
-660.36932000000002
 20
472.07812999999987
 30
0.0
 40
1.9967330000000001
 50
89.843967000000006
 51
171.45387999999991
  0
ARC
  5
7C8
  8
0
  6
CONTINUOUS
 62
     7
 10
-660.34734999999966
 20
472.98925999999989
 30
0.0
 40
1.995633
 50
89.899708000000004
 51
172.06112999999991
  0
ARC
  5
7C9
  8
0
  6
CONTINUOUS
 62
     7
 10
-563.50378000000001
 20
467.37659000000002
 30
0.0
 40
1.9982919999999991
 50
15.032547999999981
 51
90.002631999999977
  0
ARC
  5
7CA
  8
0
  6
CONTINUOUS
 62
     7
 10
-555.98064999999986
 20
452.81763000000001
 30
0.0
 40
1.502775999999999
 50
194.75642999999991
 51
269.87757999999991
  0
ARC
  5
7CB
  8
0
  6
CONTINUOUS
 62
     7
 10
-563.50873000000001
 20
358.81957999999992
 30
0.0
 40
2.0047290000000002
 50
270.13832000000002
 51
344.82650000000001
  0
ARC
  5
7CC
  8
0
  6
CONTINUOUS
 62
     7
 10
-676.63622999999995
 20
365.07947000000001
 30
0.0
 40
0.9976310099999999
 50
180.26780999999991
 51
240.07924
  0
ARC
  5
7CD
  8
0
  6
CONTINUOUS
 62
     7
 10
-676.63818000000003
 20
366.12523999999991
 30
0.0
 40
0.9956849800000001
 50
180.02112999999991
 51
243.40913999999981
  0
ARC
  5
7CE
  8
0
  6
CONTINUOUS
 62
     7
 10
-675.35315000000003
 20
364.34595000000002
 30
0.0
 40
1.001123999999999
 50
239.32782000000009
 51
269.38767999999988
  0
ARC
  5
7CF
  8
0
  6
CONTINUOUS
 62
     7
 10
-675.38800000000003
 20
365.49414000000002
 30
0.0
 40
0.9993420200000001
 50
242.86199999999999
 51
269.66546
  0
ARC
  5
7D0
  8
0
  6
CONTINUOUS
 62
     7
 10
-675.36249000000009
 20
366.45850000000002
 30
0.0
 40
1.0037439999999991
 50
239.37112999999999
 51
270.49189999999987
  0
ARC
  5
7D1
  8
0
  6
CONTINUOUS
 62
     7
 10
-675.37865999999985
 20
367.59546
 30
0.0
 40
1.0006820000000001
 50
241.65062
 51
269.7039299999999
  0
ARC
  5
7D2
  8
0
  6
CONTINUOUS
 62
     7
 10
-675.34105999999986
 20
370.97534000000002
 30
0.0
 40
1.000521999999999
 50
237.14617999999999
 51
270.41343999999998
  0
ARC
  5
7D3
  8
0
  6
CONTINUOUS
 62
     7
 10
-675.37047999999982
 20
372.11583999999999
 30
0.0
 40
1.0010449999999991
 50
240.47187
 51
270.37970999999999
  0
ARC
  5
7D4
  8
0
  6
CONTINUOUS
 62
     7
 10
-676.63538000000005
 20
372.85412999999988
 30
0.0
 40
0.9984580299999999
 50
179.9595799999999
 51
239.38657000000001
  0
ARC
  5
7D5
  8
0
  6
CONTINUOUS
 62
     7
 10
-676.63476999999978
 20
371.81957999999992
 30
0.0
 40
0.9990889999999998
 50
179.69508999999991
 51
236.66209000000001
  0
ARC
  5
7D6
  8
0
  6
CONTINUOUS
 62
     7
 10
-676.63616999999999
 20
368.2561
 30
0.0
 40
0.9977070099999998
 50
180.0740199999999
 51
242.04481000000001
  0
ARC
  5
7D7
  8
0
  6
CONTINUOUS
 62
     7
 10
-676.63507000000004
 20
367.21837999999991
 30
0.0
 40
0.9987969999999998
 50
179.62728000000001
 51
238.70795000000001
  0
ARC
  5
7D8
  8
0
  6
CONTINUOUS
 62
     7
 10
-673.63634999999999
 20
372.11730999999992
 30
0.0
 40
1.002470999999999
 50
270.14107000000001
 51
359.85892999999987
  0
ARC
  5
7D9
  8
0
  6
CONTINUOUS
 62
     7
 10
-673.63800000000003
 20
367.59899999999999
 30
0.0
 40
1.004119999999999
 50
270.23460999999992
 51
359.76538999999991
  0
ARC
  5
7DA
  8
0
  6
CONTINUOUS
 62
     7
 10
-673.13726999999994
 20
364.99828999999988
 30
0.0
 40
0.5033929900000002
 50
270.38490999999982
 51
359.61509999999993
  0
ARC
  5
7DB
  8
0
  6
CONTINUOUS
 62
     7
 10
-673.13335999999981
 20
362.84533999999991
 30
0.0
 40
0.49952301
 50
359.94522999999992
 51
90.054773999999981
  0
ARC
  5
7DC
  8
0
  6
CONTINUOUS
 62
     7
 10
-660.42902000000004
 20
358.81408999999991
 30
0.0
 40
1.9992490000000001
 50
190.64309999999981
 51
270.14742999999999
  0
ARC
  5
7DD
  8
0
  6
CONTINUOUS
 62
     7
 10
-660.37769000000003
 20
355.96521000000001
 30
0.0
 40
2.000420099999999
 50
188.92681999999991
 51
269.82270999999992
  0
ARC
  5
7DE
  8
0
  6
CONTINUOUS
 62
     7
 10
-575.12024000000019
 20
349.09485000000001
 30
0.0
 40
1.5
 50
90.000003000000007
 51
178.5
  0
ARC
  5
7DF
  8
0
  6
CONTINUOUS
 62
     3
 10
-563.61767999999995
 20
352.09485000000001
 30
0.0
 40
1.5
 50
269.99998999999991
 51
327.0
  0
ARC
  5
7E0
  8
0
  6
CONTINUOUS
 62
     7
 10
-660.64728000000002
 20
355.96483999999992
 30
0.0
 40
2.0
 50
188.6296199999999
 51
269.99998999999991
  0
ARC
  5
7E1
  8
0
  6
CONTINUOUS
 62
     7
 10
-660.72760000000005
 20
355.96483999999992
 30
0.0
 40
2.0
 50
187.9504399999999
 51
269.99998999999991
  0
ARC
  5
7E2
  8
0
  6
CONTINUOUS
 62
     7
 10
-638.23572000000001
 20
352.46483999999992
 30
0.0
 40
1.5
 50
1.500002699999998
 51
90.000003000000007
  0
ARC
  5
7E3
  8
0
  6
CONTINUOUS
 62
     7
 10
-627.19512999999995
 20
428.09485000000001
 30
0.0
 40
1.0000056999999991
 50
269.99998999999991
 51
90.000003000000007
  0
ARC
  5
7E4
  8
0
  6
CONTINUOUS
 62
     7
 10
-627.19512999999995
 20
418.09485000000001
 30
0.0
 40
1.0000056999999991
 50
269.99998999999991
 51
90.000003000000007
  0
ARC
  5
7E5
  8
0
  6
CONTINUOUS
 62
     7
 10
-627.19512999999995
 20
408.09484999999989
 30
0.0
 40
1.0000056999999991
 50
269.99998999999991
 51
90.000003000000007
  0
ARC
  5
7E6
  8
0
  6
CONTINUOUS
 62
     7
 10
-627.19512999999995
 20
398.09485000000001
 30
0.0
 40
1.0000056999999991
 50
269.99998999999991
 51
90.000003000000007
  0
ARC
  5
7E7
  8
0
  6
CONTINUOUS
 62
     7
 10
-576.63385000000005
 20
380.59484999999989
 30
0.0
 40
1.5
 50
179.99998999999991
 51
270.0
  0
ARC
  5
7E8
  8
0
  6
CONTINUOUS
 62
     7
 10
-594.63385000000017
 20
380.59484999999989
 30
0.0
 40
1.5
 50
269.99998999999991
 51
0.00000068324516
  0
ARC
  5
7E9
  8
0
  6
CONTINUOUS
 62
     7
 10
-594.61383000000001
 20
380.73486000000003
 30
0.0
 40
1.0
 50
269.99998999999991
 51
0.00000068324625
  0
ARC
  5
7EA
  8
0
  6
CONTINUOUS
 62
     7
 10
-576.65386999999987
 20
380.73486000000003
 30
0.0
 40
1.0
 50
179.99998999999991
 51
270.0
  0
CIRCLE
  5
7EB
  8
0
  6
CONTINUOUS
 62
     3
 10
-588.13385000000005
 20
441.59484999999989
 30
0.0
 40
1.1000000000000001
  0
CIRCLE
  5
7EC
  8
0
  6
CONTINUOUS
 62
     3
 10
-588.13385000000005
 20
441.59484999999989
 30
0.0
 40
1.149999999999999
  0
CIRCLE
  5
7ED
  8
0
  6
CONTINUOUS
 62
     3
 10
-583.13385000000005
 20
441.59484999999989
 30
0.0
 40
1.0
  0
ARC
  5
7EE
  8
0
  6
CONTINUOUS
 62
     7
 10
-594.63385000000017
 20
440.59485000000001
 30
0.0
 40
1.02
 50
269.99998999999991
 51
0.00000068324403
  0
ARC
  5
7EF
  8
0
  6
CONTINUOUS
 62
     7
 10
-576.63385000000005
 20
440.59485000000001
 30
0.0
 40
1.02
 50
179.99998999999991
 51
270.0
  0
ARC
  5
7F0
  8
0
  6
CONTINUOUS
 62
     7
 10
-594.63385000000017
 20
440.59485000000001
 30
0.0
 40
1.5
 50
269.99998999999991
 51
0.00000068324516
  0
ARC
  5
7F1
  8
0
  6
CONTINUOUS
 62
     7
 10
-576.63385000000005
 20
440.59485000000001
 30
0.0
 40
1.5
 50
179.99998999999991
 51
270.0
  0
CIRCLE
  5
7F2
  8
0
  6
CONTINUOUS
 62
     3
 10
-583.13385000000005
 20
384.59485000000001
 30
0.0
 40
1.0
  0
CIRCLE
  5
7F3
  8
0
  6
CONTINUOUS
 62
     3
 10
-588.13385000000005
 20
384.59485000000001
 30
0.0
 40
1.149999999999999
  0
CIRCLE
  5
7F4
  8
0
  6
CONTINUOUS
 62
     3
 10
-588.13385000000005
 20
384.59485000000001
 30
0.0
 40
1.1000000000000001
  0
ARC
  5
7F5
  8
0
  6
CONTINUOUS
 62
     7
 10
-594.63385000000017
 20
385.59485000000001
 30
0.0
 40
1.02
 50
0.0
 51
90.000003000000007
  0
ARC
  5
7F6
  8
0
  6
CONTINUOUS
 62
     7
 10
-576.63385000000005
 20
385.59485000000001
 30
0.0
 40
1.02
 50
90.000003000000007
 51
180.00001
  0
ARC
  5
7F7
  8
0
  6
CONTINUOUS
 62
     7
 10
-594.63385000000017
 20
385.59485000000001
 30
0.0
 40
1.5
 50
0.0
 51
90.000003000000007
  0
ARC
  5
7F8
  8
0
  6
CONTINUOUS
 62
     7
 10
-576.63385000000005
 20
385.59485000000001
 30
0.0
 40
1.5
 50
90.000003000000007
 51
180.00001
  0
ARC
  5
7F9
  8
0
  6
CONTINUOUS
 62
     7
 10
-625.96887000000004
 20
398.08483999999987
 30
0.0
 40
1.3300148000000001
 50
269.72941999999989
 51
90.270567000000014
  0
ARC
  5
7FA
  8
0
  6
CONTINUOUS
 62
     7
 10
-625.9069199999999
 20
408.09484999999989
 30
0.0
 40
1.2700266
 50
269.62931999999989
 51
90.370669999999961
  0
ARC
  5
7FB
  8
0
  6
CONTINUOUS
 62
     7
 10
-625.9069199999999
 20
418.10485999999992
 30
0.0
 40
1.2700266
 50
269.62931999999989
 51
90.370669999999961
  0
ARC
  5
7FC
  8
0
  6
CONTINUOUS
 62
     7
 10
-625.96887000000004
 20
428.10985999999991
 30
0.0
 40
1.3350147999999991
 50
269.73043000000001
 51
90.269555999999994
  0
ARC
  5
7FD
  8
0
  6
CONTINUOUS
 62
     7
 10
-562.29387999999994
 20
438.09485000000001
 30
0.0
 40
1.0000255999999981
 50
269.58947000000001
 51
90.410531000000006
  0
ARC
  5
7FE
  8
0
  6
CONTINUOUS
 62
     7
 10
-558.59387000000004
 20
438.12487999999979
 30
0.0
 40
1.460011199999999
 50
269.77525000000003
 51
90.224749999999986
  0
ARC
  5
7FF
  8
0
  6
CONTINUOUS
 62
     7
 10
-562.29387999999994
 20
388.09485000000001
 30
0.0
 40
1.0000255999999981
 50
269.58947000000001
 51
90.410531000000006
  0
ARC
  5
800
  8
0
  6
CONTINUOUS
 62
     7
 10
-558.59387000000004
 20
388.06481999999988
 30
0.0
 40
1.460011199999999
 50
269.77525000000003
 51
90.224749999999986
  0
ARC
  5
801
  8
0
  6
CONTINUOUS
 62
     7
 10
-576.65386999999987
 20
445.45482999999979
 30
0.0
 40
1.0
 50
90.000003000000007
 51
180.00001
  0
ARC
  5
802
  8
0
  6
CONTINUOUS
 62
     7
 10
-576.63385000000005
 20
445.59484999999989
 30
0.0
 40
1.5
 50
90.000003000000007
 51
180.00001
  0
ARC
  5
803
  8
0
  6
CONTINUOUS
 62
     7
 10
-594.63385000000017
 20
445.59484999999989
 30
0.0
 40
1.5
 50
0.0
 51
90.000003000000007
  0
ARC
  5
804
  8
0
  6
CONTINUOUS
 62
     7
 10
-594.61383000000001
 20
445.45482999999979
 30
0.0
 40
1.0
 50
0.0
 51
90.000003000000007
  0
CIRCLE
  5
805
  8
0
  6
CONTINUOUS
 62
     7
 10
-145.2809399999999
 20
150.54793000000001
 30
0.0
 40
4.0
  0
ARC
  5
806
  8
0
  6
CONTINUOUS
 62
     7
 10
-145.2809399999999
 20
150.54793000000001
 30
0.0
 40
14.00000099999999
 50
106.6015399999999
 51
73.398452000000006
  0
CIRCLE
  5
807
  8
0
  6
CONTINUOUS
 62
     7
 10
-145.2809399999999
 20
150.54793000000001
 30
0.0
 40
3.0
  0
ARC
  5
808
  8
0
  6
CONTINUOUS
 62
     7
 10
-447.63381999999979
 20
198.17028999999991
 30
0.0
 40
5.0
 50
91.999998000000005
 51
180.00001
  0
ARC
  5
809
  8
0
  6
CONTINUOUS
 62
     7
 10
-450.63382000000001
 20
63.803958999999992
 30
0.0
 40
2.0
 50
90.000003000000007
 51
180.00001
  0
ARC
  5
80A
  8
0
  6
CONTINUOUS
 62
     7
 10
-455.63378999999992
 20
194.86523
 30
0.0
 40
3.0
 50
280.0
 51
0.0
  0
ARC
  5
80B
  8
0
  6
CONTINUOUS
 62
     7
 10
-444.63382000000001
 20
67.803955000000002
 30
0.0
 40
2.0
 50
270.0
 51
0.0
  0
ARC
  5
80C
  8
0
  6
CONTINUOUS
 62
     7
 10
-440.63378999999992
 20
206.17212000000001
 30
0.0
 40
2.0
 50
91.999998000000005
 51
163.27365
  0
ARC
  5
80D
  8
0
  6
CONTINUOUS
 62
     7
 10
-444.63382000000001
 20
152.02001999999979
 30
0.0
 40
2.0
 50
0.0
 51
90.000003000000007
  0
ARC
  5
80E
  8
0
  6
CONTINUOUS
 62
     7
 10
-447.33764999999988
 20
208.1867399999999
 30
0.0
 40
5.0
 50
272.0
 51
343.27366000000001
  0
ARC
  5
80F
  8
0
  6
CONTINUOUS
 62
     7
 10
-455.63378999999992
 20
59.830638999999998
 30
0.0
 40
3.0
 50
0.0
 51
79.999998000000005
  0
ARC
  5
810
  8
0
  6
CONTINUOUS
 62
     7
 10
-450.63382000000001
 20
179.68201999999991
 30
0.0
 40
2.0
 50
90.000003000000007
 51
180.00001
  0
ARC
  5
811
  8
0
  6
CONTINUOUS
 62
     7
 10
-457.01165999999989
 20
60.073585999999992
 30
0.0
 40
3.0
 50
79.999998000000005
 51
88.0
  0
ARC
  5
812
  8
0
  6
CONTINUOUS
 62
     7
 10
-457.22115999999988
 20
196.61621
 30
0.0
 40
5.0
 50
272.0
 51
280.0
  0
ARC
  5
813
  8
0
  6
CONTINUOUS
 62
     7
 10
-444.63382000000001
 20
158.49714999999981
 30
0.0
 40
2.0
 50
0.0
 51
90.000003000000007
  0
ARC
  5
814
  8
0
  6
CONTINUOUS
 62
     7
 10
-450.63382000000001
 20
162.49716000000001
 30
0.0
 40
2.0
 50
179.99998999999991
 51
270.0
  0
ARC
  5
815
  8
0
  6
CONTINUOUS
 62
     7
 10
-444.63382000000001
 20
183.68201999999999
 30
0.0
 40
2.0
 50
270.0
 51
0.0
  0
ARC
  5
816
  8
0
  6
CONTINUOUS
 62
     7
 10
-526.63378999999986
 20
205.61337
 30
0.0
 40
2.0
 50
0.0
 51
88.0
  0
ARC
  5
817
  8
0
  6
CONTINUOUS
 62
     7
 10
-521.63378999999998
 20
188.4783799999999
 30
0.0
 40
3.0
 50
179.99998999999991
 51
271.99998999999991
  0
ARC
  5
818
  8
0
  6
CONTINUOUS
 62
     7
 10
-520.63379000000009
 20
92.403236000000007
 30
0.0
 40
3.0
 50
0.0
 51
88.0
  0
ARC
  5
819
  8
0
  6
CONTINUOUS
 62
     7
 10
-514.63378999999986
 20
71.976676999999995
 30
0.0
 40
3.0
 50
179.99998999999991
 51
268.00000999999992
  0
ARC
  5
81A
  8
0
  6
CONTINUOUS
 62
     7
 10
-487.13378999999992
 20
66.667121999999992
 30
0.0
 40
3.0
 50
0.0
 51
45.00000099999999
  0
ARC
  5
81B
  8
0
  6
CONTINUOUS
 62
     7
 10
-512.58898999999985
 20
92.122307000000006
 30
0.0
 40
3.0
 50
45.00000099999999
 51
88.0
  0
ARC
  5
81C
  8
0
  6
CONTINUOUS
 62
     7
 10
-486.13378999999992
 20
188.71745000000001
 30
0.0
 40
2.0
 50
272.0
 51
0.0
  0
ARC
  5
81D
  8
0
  6
CONTINUOUS
 62
     7
 10
-482.13382000000001
 20
188.95146
 30
0.0
 40
2.0
 50
88.0
 51
180.00001
  0
ARC
  5
81E
  8
0
  6
CONTINUOUS
 62
     7
 10
-486.13378999999992
 20
65.978393999999994
 30
0.0
 40
2.0
 50
0.0
 51
88.0
  0
ARC
  5
81F
  8
0
  6
CONTINUOUS
 62
     7
 10
-482.13382000000001
 20
65.953902999999997
 30
0.0
 40
2.0
 50
179.99998999999991
 51
268.00000999999992
  0
ARC
  5
820
  8
0
  6
CONTINUOUS
 62
     7
 10
-541.63379000000009
 20
196.34792999999991
 30
0.0
 40
2.0
 50
0.0
 51
90.000003000000007
  0
ARC
  5
821
  8
0
  6
CONTINUOUS
 62
     7
 10
-541.63379000000009
 20
108.34793000000001
 30
0.0
 40
2.0
 50
270.0
 51
0.0
  0
ARC
  5
822
  8
0
  6
CONTINUOUS
 62
     7
 10
-541.63379000000009
 20
118.41092999999999
 30
0.0
 40
2.0
 50
0.0
 51
90.000003000000007
  0
ARC
  5
823
  8
0
  6
CONTINUOUS
 62
     7
 10
-541.63379000000009
 20
186.28493999999981
 30
0.0
 40
2.0
 50
270.0
 51
0.0
  0
ARC
  5
824
  8
0
  6
CONTINUOUS
 62
     7
 10
-487.13378999999992
 20
181.84792999999991
 30
0.0
 40
3.0
 50
270.0
 51
0.0
  0
ARC
  5
825
  8
0
  6
CONTINUOUS
 62
     7
 10
-519.63379000000009
 20
169.49628000000001
 30
0.0
 40
5.0
 50
179.99998999999991
 51
270.0
  0
ARC
  5
826
  8
0
  6
CONTINUOUS
 62
     7
 10
-487.13378999999992
 20
161.49628000000001
 30
0.0
 40
3.0
 50
0.0
 51
90.000003000000007
  0
ARC
  5
827
  8
0
  6
CONTINUOUS
 62
     3
 10
-629.1337900000002
 20
174.84766999999991
 30
0.0
 40
5.5
 50
264.78411999999992
 51
5.2159094000000001
  0
ARC
  5
828
  8
0
  6
CONTINUOUS
 62
     7
 10
-676.63378999999986
 20
200.36426
 30
0.0
 40
1.0
 50
120.0264
 51
180.00001
  0
ARC
  5
829
  8
0
  6
CONTINUOUS
 62
     7
 10
-676.63378999999986
 20
199.32198
 30
0.0
 40
1.0
 50
116.91126
 51
180.00001
  0
ARC
  5
82A
  8
0
  6
CONTINUOUS
 62
     7
 10
-675.36559999999963
 20
201.09730999999999
 30
0.0
 40
1.0
 50
90.000003000000007
 51
120.0264
  0
ARC
  5
82B
  8
0
  6
CONTINUOUS
 62
     7
 10
-675.39453000000003
 20
199.9509899999999
 30
0.0
 40
1.0
 50
90.000003000000007
 51
116.91126
  0
ARC
  5
82C
  8
0
  6
CONTINUOUS
 62
     7
 10
-675.35675000000003
 20
198.98949999999991
 30
0.0
 40
1.0
 50
90.000003000000007
 51
120.9666
  0
ARC
  5
82D
  8
0
  6
CONTINUOUS
 62
     7
 10
-675.38513
 20
197.84956
 30
0.0
 40
1.0
 50
90.000003000000007
 51
117.92659999999979
  0
ARC
  5
82E
  8
0
  6
CONTINUOUS
 62
     7
 10
-675.33514000000002
 20
194.47279
 30
0.0
 40
1.0
 50
90.000003000000007
 51
123.25473
  0
ARC
  5
82F
  8
0
  6
CONTINUOUS
 62
     7
 10
-675.36249000000009
 20
193.33282
 30
0.0
 40
1.0
 50
90.000003000000007
 51
120.3594999999999
  0
ARC
  5
830
  8
0
  6
CONTINUOUS
 62
     7
 10
-676.63378999999986
 20
192.58813000000001
 30
0.0
 40
1.0
 50
120.3594999999999
 51
180.00001
  0
ARC
  5
831
  8
0
  6
CONTINUOUS
 62
     7
 10
-676.63378999999986
 20
193.62121999999991
 30
0.0
 40
1.0
 50
123.25473
 51
180.00001
  0
ARC
  5
832
  8
0
  6
CONTINUOUS
 62
     7
 10
-676.63378999999986
 20
197.18763999999999
 30
0.0
 40
1.0
 50
117.92659999999979
 51
180.00001
  0
ARC
  5
833
  8
0
  6
CONTINUOUS
 62
     7
 10
-676.63378999999986
 20
198.22320999999999
 30
0.0
 40
1.0
 50
120.9666
 51
180.00001
  0
ARC
  5
834
  8
0
  6
CONTINUOUS
 62
     7
 10
-675.42913999999985
 20
187.03711000000001
 30
0.0
 40
1.0
 50
90.000003000000007
 51
113.12703
  0
ARC
  5
835
  8
0
  6
CONTINUOUS
 62
     7
 10
-675.4834599999997
 20
185.0910199999999
 30
0.0
 40
1.0
 50
90.000003000000007
 51
107.0976299999999
  0
ARC
  5
836
  8
0
  6
CONTINUOUS
 62
     7
 10
-676.63378999999986
 20
184.7372
 30
0.0
 40
1.0
 50
107.0976299999999
 51
180.00001
  0
ARC
  5
837
  8
0
  6
CONTINUOUS
 62
     7
 10
-676.63378999999986
 20
186.5226599999998
 30
0.0
 40
1.0
 50
113.12703
 51
180.00001
  0
ARC
  5
838
  8
0
  6
CONTINUOUS
 62
     7
 10
-676.63378999999986
 20
177.34790000000001
 30
0.0
 40
1.0
 50
90.000003000000007
 51
180.00001
  0
ARC
  5
839
  8
0
  6
CONTINUOUS
 62
     7
 10
-676.63378999999986
 20
177.34790000000001
 30
0.0
 40
1.0
 50
179.99998999999991
 51
270.0
  0
ARC
  5
83A
  8
0
  6
CONTINUOUS
 62
     7
 10
-676.63378999999986
 20
167.3479199999999
 30
0.0
 40
1.0
 50
90.000003000000007
 51
180.00001
  0
ARC
  5
83B
  8
0
  6
CONTINUOUS
 62
     7
 10
-676.63378999999986
 20
167.3479199999999
 30
0.0
 40
1.0
 50
179.99998999999991
 51
270.0
  0
ARC
  5
83C
  8
0
  6
CONTINUOUS
 62
     7
 10
-676.63378999999986
 20
157.3479199999999
 30
0.0
 40
1.0
 50
90.000003000000007
 51
180.00001
  0
ARC
  5
83D
  8
0
  6
CONTINUOUS
 62
     7
 10
-676.63378999999986
 20
157.3479199999999
 30
0.0
 40
1.0
 50
179.99998999999991
 51
270.0
  0
ARC
  5
83E
  8
0
  6
CONTINUOUS
 62
     7
 10
-673.6337900000002
 20
155.3479199999999
 30
0.0
 40
1.0
 50
0.0
 51
90.000003000000007
  0
ARC
  5
83F
  8
0
  6
CONTINUOUS
 62
     7
 10
-673.6337900000002
 20
159.34790000000001
 30
0.0
 40
1.0
 50
270.0
 51
0.0
  0
ARC
  5
840
  8
0
  6
CONTINUOUS
 62
     7
 10
-673.6337900000002
 20
165.34790000000001
 30
0.0
 40
1.0
 50
0.0
 51
90.000003000000007
  0
ARC
  5
841
  8
0
  6
CONTINUOUS
 62
     7
 10
-673.6337900000002
 20
169.34791999999979
 30
0.0
 40
1.0
 50
270.0
 51
0.0
  0
ARC
  5
842
  8
0
  6
CONTINUOUS
 62
     7
 10
-673.6337900000002
 20
175.3479199999999
 30
0.0
 40
1.0
 50
0.0
 51
90.000003000000007
  0
ARC
  5
843
  8
0
  6
CONTINUOUS
 62
     7
 10
-673.6337900000002
 20
179.3479199999999
 30
0.0
 40
1.0
 50
270.0
 51
0.0
  0
ARC
  5
844
  8
0
  6
CONTINUOUS
 62
     7
 10
-673.6337900000002
 20
185.0910199999999
 30
0.0
 40
1.0
 50
0.0
 51
90.000003000000007
  0
ARC
  5
845
  8
0
  6
CONTINUOUS
 62
     7
 10
-673.6337900000002
 20
193.33282
 30
0.0
 40
1.0
 50
0.0
 51
90.000003000000007
  0
ARC
  5
846
  8
0
  6
CONTINUOUS
 62
     7
 10
-673.33379999999977
 20
188.7371399999999
 30
0.0
 40
0.6999999900000004
 50
270.0
 51
0.0
  0
ARC
  5
847
  8
0
  6
CONTINUOUS
 62
     7
 10
-673.6337900000002
 20
197.84956
 30
0.0
 40
1.0
 50
0.0
 51
90.000003000000007
  0
ARC
  5
848
  8
0
  6
CONTINUOUS
 62
     7
 10
-673.13385000000005
 20
200.45099999999991
 30
0.0
 40
0.5
 50
0.0
 51
90.000003000000007
  0
ARC
  5
849
  8
0
  6
CONTINUOUS
 62
     7
 10
-673.13385000000005
 20
202.59730999999991
 30
0.0
 40
0.5
 50
270.0
 51
0.0
  0
ARC
  5
84A
  8
0
  6
CONTINUOUS
 62
     7
 10
-661.08440999999982
 20
117.34791
 30
0.0
 40
1.0
 50
90.000003000000007
 51
270.0
  0
ARC
  5
84B
  8
0
  6
CONTINUOUS
 62
     7
 10
-575.3338
 20
184.71510000000001
 30
0.0
 40
1.0
 50
90.000003000000007
 51
180.00001
  0
ARC
  5
84C
  8
0
  6
CONTINUOUS
 62
     7
 10
-575.3338
 20
119.9806699999999
 30
0.0
 40
1.0
 50
179.99998999999991
 51
270.0
  0
ARC
  5
84D
  8
0
  6
CONTINUOUS
 62
     7
 10
-558.81170999999995
 20
187.39302000000001
 30
0.0
 40
1.6779127
 50
270.0
 51
90.000003000000007
  0
ARC
  5
84E
  8
0
  6
CONTINUOUS
 62
     7
 10
-562.28942999999992
 20
187.34791999999999
 30
0.0
 40
1.0
 50
270.0
 51
90.000003000000007
  0
ARC
  5
84F
  8
0
  6
CONTINUOUS
 62
     7
 10
-562.28942999999992
 20
117.34791
 30
0.0
 40
1.0
 50
270.0
 51
90.000003000000007
  0
ARC
  5
850
  8
0
  6
CONTINUOUS
 62
     7
 10
-558.81170999999995
 20
117.30275
 30
0.0
 40
1.6779127
 50
270.0
 51
90.000003000000007
  0
ARC
  5
851
  8
0
  6
CONTINUOUS
 62
     7
 10
-673.6337900000002
 20
119.6047499999999
 30
0.0
 40
1.0
 50
270.0
 51
0.0
  0
ARC
  5
852
  8
0
  6
CONTINUOUS
 62
     7
 10
-673.6337900000002
 20
129.3479199999999
 30
0.0
 40
1.0
 50
270.0
 51
0.0
  0
ARC
  5
853
  8
0
  6
CONTINUOUS
 62
     7
 10
-673.6337900000002
 20
125.3479
 30
0.0
 40
1.0
 50
0.0
 51
90.000003000000007
  0
ARC
  5
854
  8
0
  6
CONTINUOUS
 62
     7
 10
-673.33379999999977
 20
115.95868999999981
 30
0.0
 40
0.6999999900000004
 50
0.0
 51
90.000003000000007
  0
ARC
  5
855
  8
0
  6
CONTINUOUS
 62
     7
 10
-675.42913999999985
 20
117.65863999999991
 30
0.0
 40
1.0
 50
246.87297000000001
 51
270.0
  0
ARC
  5
856
  8
0
  6
CONTINUOUS
 62
     7
 10
-675.4834599999997
 20
119.6047499999999
 30
0.0
 40
1.0
 50
252.90236999999999
 51
270.0
  0
ARC
  5
857
  8
0
  6
CONTINUOUS
 62
     7
 10
-676.63378999999986
 20
119.9586299999999
 30
0.0
 40
1.0
 50
179.99998999999991
 51
252.90236999999999
  0
ARC
  5
858
  8
0
  6
CONTINUOUS
 62
     7
 10
-676.63378999999986
 20
118.17316
 30
0.0
 40
1.0
 50
179.99998999999991
 51
246.8729799999999
  0
ARC
  5
859
  8
0
  6
CONTINUOUS
 62
     7
 10
-676.63378999999986
 20
127.34792
 30
0.0
 40
1.0
 50
179.99998999999991
 51
270.0
  0
ARC
  5
85A
  8
0
  6
CONTINUOUS
 62
     7
 10
-676.63378999999986
 20
127.34792
 30
0.0
 40
1.0
 50
90.000003000000007
 51
180.00001
  0
ARC
  5
85B
  8
0
  6
CONTINUOUS
 62
     7
 10
-676.63378999999986
 20
137.34792999999991
 30
0.0
 40
1.0
 50
179.99998999999991
 51
270.0
  0
ARC
  5
85C
  8
0
  6
CONTINUOUS
 62
     7
 10
-676.63378999999986
 20
137.34792999999991
 30
0.0
 40
1.0
 50
90.000003000000007
 51
180.00001
  0
ARC
  5
85D
  8
0
  6
CONTINUOUS
 62
     7
 10
-676.63378999999986
 20
147.34791999999979
 30
0.0
 40
1.0
 50
179.99998999999991
 51
270.0
  0
ARC
  5
85E
  8
0
  6
CONTINUOUS
 62
     7
 10
-676.63378999999986
 20
147.34791999999979
 30
0.0
 40
1.0
 50
90.000003000000007
 51
180.00001
  0
ARC
  5
85F
  8
0
  6
CONTINUOUS
 62
     7
 10
-673.6337900000002
 20
149.34792999999991
 30
0.0
 40
1.0
 50
270.0
 51
0.0
  0
ARC
  5
860
  8
0
  6
CONTINUOUS
 62
     7
 10
-673.6337900000002
 20
145.34791999999979
 30
0.0
 40
1.0
 50
0.0
 51
90.000003000000007
  0
ARC
  5
861
  8
0
  6
CONTINUOUS
 62
     7
 10
-673.6337900000002
 20
139.3479199999999
 30
0.0
 40
1.0
 50
270.0
 51
0.0
  0
ARC
  5
862
  8
0
  6
CONTINUOUS
 62
     7
 10
-673.6337900000002
 20
135.3479199999999
 30
0.0
 40
1.0
 50
0.0
 51
90.000003000000007
  0
ARC
  5
863
  8
0
  6
CONTINUOUS
 62
     7
 10
-578.1337900000002
 20
123.8478999999999
 30
0.0
 40
1.5
 50
270.0
 51
0.0
  0
ARC
  5
864
  8
0
  6
CONTINUOUS
 62
     7
 10
-578.1337900000002
 20
180.8479199999999
 30
0.0
 40
1.5
 50
0.0
 51
90.000003000000007
  0
ARC
  5
865
  8
0
  6
CONTINUOUS
 62
     7
 10
-661.95653999999979
 20
187.39302000000001
 30
0.0
 40
1.6779127
 50
90.000003000000007
 51
270.0
  0
ARC
  5
866
  8
0
  6
CONTINUOUS
 62
     7
 10
-661.08440999999982
 20
187.34791999999999
 30
0.0
 40
1.0
 50
90.000003000000007
 51
270.0
  0
ARC
  5
867
  8
0
  6
CONTINUOUS
 62
     7
 10
-661.08440999999982
 20
177.34790000000001
 30
0.0
 40
1.0
 50
90.000003000000007
 51
270.0
  0
ARC
  5
868
  8
0
  6
CONTINUOUS
 62
     7
 10
-661.08440999999982
 20
167.3479199999999
 30
0.0
 40
1.0
 50
90.000003000000007
 51
270.0
  0
ARC
  5
869
  8
0
  6
CONTINUOUS
 62
     7
 10
-661.08440999999982
 20
157.3479199999999
 30
0.0
 40
1.0
 50
90.000003000000007
 51
270.0
  0
ARC
  5
86A
  8
0
  6
CONTINUOUS
 62
     7
 10
-661.08440999999982
 20
147.34791999999979
 30
0.0
 40
1.0
 50
90.000003000000007
 51
270.0
  0
ARC
  5
86B
  8
0
  6
CONTINUOUS
 62
     7
 10
-661.08440999999982
 20
137.34792999999991
 30
0.0
 40
1.0
 50
90.000003000000007
 51
270.0
  0
ARC
  5
86C
  8
0
  6
CONTINUOUS
 62
     7
 10
-661.08440999999982
 20
127.34792
 30
0.0
 40
1.0
 50
90.000003000000007
 51
270.0
  0
ARC
  5
86D
  8
0
  6
CONTINUOUS
 62
     7
 10
-662.17229999999995
 20
177.37256999999991
 30
0.0
 40
1.4614868000000001
 50
90.000003000000007
 51
270.0
  0
ARC
  5
86E
  8
0
  6
CONTINUOUS
 62
     7
 10
-662.30286000000001
 20
167.36048999999991
 30
0.0
 40
1.330932599999999
 50
90.000003000000007
 51
270.0
  0
ARC
  5
86F
  8
0
  6
CONTINUOUS
 62
     7
 10
-662.36487
 20
157.35176000000001
 30
0.0
 40
1.268920899999999
 50
90.000003000000007
 51
270.0
  0
ARC
  5
870
  8
0
  6
CONTINUOUS
 62
     7
 10
-662.36487
 20
147.3440199999998
 30
0.0
 40
1.268920899999999
 50
90.000003000000007
 51
270.0
  0
ARC
  5
871
  8
0
  6
CONTINUOUS
 62
     7
 10
-662.30286000000001
 20
137.33534
 30
0.0
 40
1.330932599999999
 50
90.000003000000007
 51
270.0
  0
ARC
  5
872
  8
0
  6
CONTINUOUS
 62
     7
 10
-662.17223999999999
 20
127.3231999999999
 30
0.0
 40
1.461502099999997
 50
90.000003000000007
 51
270.0
  0
ARC
  5
873
  8
0
  6
CONTINUOUS
 62
     7
 10
-661.95586999999978
 20
117.30275
 30
0.0
 40
1.6779174999999991
 50
90.000003000000007
 51
270.0
  0
ARC
  5
874
  8
0
  6
CONTINUOUS
 62
     7
 10
-673.6337900000002
 20
111.36299
 30
0.0
 40
1.0
 50
334.63675999999998
 51
0.0
  0
ARC
  5
875
  8
0
  6
CONTINUOUS
 62
     7
 10
-676.63378999999986
 20
112.1076799999999
 30
0.0
 40
1.0
 50
179.99998999999991
 51
239.64048999999989
  0
ARC
  5
876
  8
0
  6
CONTINUOUS
 62
     7
 10
-660.42742999999996
 20
206.63118
 30
0.0
 40
2.0
 50
90.000003000000007
 51
169.28431
  0
ARC
  5
877
  8
0
  6
CONTINUOUS
 62
     7
 10
-638.13379000000009
 20
189.07093999999981
 30
0.0
 40
1.5
 50
90.000003000000007
 51
180.00001
  0
ARC
  5
878
  8
0
  6
CONTINUOUS
 62
     7
 10
-660.37878000000001
 20
209.47754999999989
 30
0.0
 40
2.0
 50
90.000003000000007
 51
170.91503
  0
ARC
  5
879
  8
0
  6
CONTINUOUS
 62
     7
 10
-660.36541999999997
 20
211.3252699999999
 30
0.0
 40
2.0
 50
90.000003000000007
 51
171.3566099999999
  0
ARC
  5
87A
  8
0
  6
CONTINUOUS
 62
     7
 10
-660.34411999999975
 20
212.23578999999989
 30
0.0
 40
2.0
 50
90.000003000000007
 51
172.05596
  0
ARC
  5
87B
  8
0
  6
CONTINUOUS
 62
     7
 10
-626.63378999999986
 20
209.47754999999989
 30
0.0
 40
2.0
 50
0.0
 51
90.000003000000007
  0
ARC
  5
87C
  8
0
  6
CONTINUOUS
 62
     7
 10
-626.63378999999986
 20
211.3252699999999
 30
0.0
 40
2.0
 50
0.0
 51
90.000003000000007
  0
ARC
  5
87D
  8
0
  6
CONTINUOUS
 62
     7
 10
-626.63378999999986
 20
212.23578999999989
 30
0.0
 40
2.0
 50
0.0
 51
90.000003000000007
  0
ARC
  5
87E
  8
0
  6
CONTINUOUS
 62
     7
 10
-563.50762999999995
 20
206.63118
 30
0.0
 40
2.0
 50
15.0
 51
90.000003000000007
  0
ARC
  5
87F
  8
0
  6
CONTINUOUS
 62
     7
 10
-555.98279000000002
 20
192.07093999999981
 30
0.0
 40
1.5
 50
195.00001
 51
270.0
  0
ARC
  5
880
  8
0
  6
CONTINUOUS
 62
     7
 10
-660.34411999999975
 20
92.459953000000013
 30
0.0
 40
2.0
 50
187.9440399999998
 51
270.0
  0
ARC
  5
881
  8
0
  6
CONTINUOUS
 62
     7
 10
-626.63378999999986
 20
92.459953000000013
 30
0.0
 40
2.0
 50
270.0
 51
0.0
  0
ARC
  5
882
  8
0
  6
CONTINUOUS
 62
     7
 10
-563.50762999999995
 20
98.064628999999996
 30
0.0
 40
2.0
 50
270.0
 51
345.0
  0
ARC
  5
883
  8
0
  6
CONTINUOUS
 62
     7
 10
-626.63378999999986
 20
93.370490999999987
 30
0.0
 40
2.0
 50
270.0
 51
0.0
  0
ARC
  5
884
  8
0
  6
CONTINUOUS
 62
     7
 10
-626.63378999999986
 20
95.218254000000002
 30
0.0
 40
2.0
 50
270.0
 51
0.0
  0
ARC
  5
885
  8
0
  6
CONTINUOUS
 62
     7
 10
-676.63378999999986
 20
104.3314899999999
 30
0.0
 40
1.0
 50
179.99998999999991
 51
239.97361000000001
  0
ARC
  5
886
  8
0
  6
CONTINUOUS
 62
     7
 10
-676.63378999999986
 20
105.3738399999998
 30
0.0
 40
1.0
 50
179.99998999999991
 51
243.08874999999981
  0
ARC
  5
887
  8
0
  6
CONTINUOUS
 62
     7
 10
-675.36559999999963
 20
103.59851999999999
 30
0.0
 40
1.0
 50
239.9736
 51
270.0
  0
ARC
  5
888
  8
0
  6
CONTINUOUS
 62
     7
 10
-675.39453000000003
 20
104.74482999999979
 30
0.0
 40
1.0
 50
243.08874
 51
270.0
  0
ARC
  5
889
  8
0
  6
CONTINUOUS
 62
     7
 10
-675.35675000000003
 20
105.70625
 30
0.0
 40
1.0
 50
239.0334
 51
270.0
  0
ARC
  5
88A
  8
0
  6
CONTINUOUS
 62
     7
 10
-675.38513
 20
106.84626
 30
0.0
 40
1.0
 50
242.07339999999999
 51
270.0
  0
ARC
  5
88B
  8
0
  6
CONTINUOUS
 62
     7
 10
-675.33514000000002
 20
110.22298000000001
 30
0.0
 40
1.0
 50
236.74527
 51
270.0
  0
ARC
  5
88C
  8
0
  6
CONTINUOUS
 62
     7
 10
-675.36249000000009
 20
111.36299
 30
0.0
 40
1.0
 50
239.6405
 51
270.0
  0
ARC
  5
88D
  8
0
  6
CONTINUOUS
 62
     7
 10
-676.63378999999986
 20
112.1076799999999
 30
0.0
 40
1.0
 50
179.99998999999991
 51
239.64048999999989
  0
ARC
  5
88E
  8
0
  6
CONTINUOUS
 62
     7
 10
-676.63378999999986
 20
111.07453
 30
0.0
 40
1.0
 50
179.99998999999991
 51
236.74527999999981
  0
ARC
  5
88F
  8
0
  6
CONTINUOUS
 62
     7
 10
-676.63378999999986
 20
107.50811999999991
 30
0.0
 40
1.0
 50
179.99998999999991
 51
242.07341
  0
ARC
  5
890
  8
0
  6
CONTINUOUS
 62
     7
 10
-676.63378999999986
 20
106.4725399999999
 30
0.0
 40
1.0
 50
179.99998999999991
 51
239.0334
  0
ARC
  5
891
  8
0
  6
CONTINUOUS
 62
     7
 10
-673.6337900000002
 20
111.36299
 30
0.0
 40
1.0
 50
270.0
 51
0.0
  0
ARC
  5
892
  8
0
  6
CONTINUOUS
 62
     7
 10
-673.6337900000002
 20
106.84626
 30
0.0
 40
1.0
 50
270.0
 51
0.0
  0
ARC
  5
893
  8
0
  6
CONTINUOUS
 62
     7
 10
-673.13385000000005
 20
104.24481
 30
0.0
 40
0.5
 50
270.0
 51
0.0
  0
ARC
  5
894
  8
0
  6
CONTINUOUS
 62
     7
 10
-673.13385000000005
 20
102.09851999999979
 30
0.0
 40
0.5
 50
0.0
 51
90.000003000000007
  0
ARC
  5
895
  8
0
  6
CONTINUOUS
 62
     7
 10
-660.42742999999996
 20
98.064628999999996
 30
0.0
 40
2.0
 50
190.71569
 51
270.0
  0
ARC
  5
896
  8
0
  6
CONTINUOUS
 62
     7
 10
-660.37878000000001
 20
95.218254000000002
 30
0.0
 40
2.0
 50
189.08497
 51
270.0
  0
ARC
  5
897
  8
0
  6
CONTINUOUS
 62
     7
 10
-660.36541999999997
 20
93.370490999999987
 30
0.0
 40
2.0
 50
188.6433899999999
 51
270.0
  0
ARC
  5
898
  8
0
  6
CONTINUOUS
 62
     3
 10
-584.13378999999998
 20
129.84816000000001
 30
0.0
 40
5.5
 50
84.784087999999983
 51
185.21596
  0
ARC
  5
899
  8
0
  6
CONTINUOUS
 62
     7
 10
-410.63213999999988
 20
81.411811999999998
 30
0.0
 40
7.331658799999996
 50
90.000003000000007
 51
270.0
  0
ARC
  5
89A
  8
0
  6
CONTINUOUS
 62
     7
 10
-145.2809399999999
 20
127.34793999999999
 30
0.0
 40
81.0
 50
93.75419500000001
 51
121.13906
  0
ARC
  5
89B
  8
0
  6
CONTINUOUS
 62
     7
 10
-145.2809399999999
 20
127.34793999999999
 30
0.0
 40
76.0
 50
358.60644999999982
 51
12.760202
  0
ARC
  5
89C
  8
0
  6
CONTINUOUS
 62
     7
 10
-145.2809399999999
 20
127.34793999999999
 30
0.0
 40
76.0
 50
167.2398
 51
181.39354
  0
ARC
  5
89D
  8
0
  6
CONTINUOUS
 62
     7
 10
-145.2809399999999
 20
150.54793000000001
 30
0.0
 40
74.400002000000001
 50
171.8834499999999
 51
184.9454199999999
  0
ARC
  5
89E
  8
0
  6
CONTINUOUS
 62
     7
 10
-220.39597999999981
 20
225.66296
 30
0.0
 40
15.0
 50
92.999999000000017
 51
176.99999
  0
ARC
  5
89F
  8
0
  6
CONTINUOUS
 62
     7
 10
-70.165908999999999
 20
225.66296
 30
0.0
 40
15.0
 50
3.0000000999999981
 51
86.999998999999988
  0
ARC
  5
8A0
  8
0
  6
CONTINUOUS
 62
     7
 10
-70.165908999999999
 20
75.432884000000001
 30
0.0
 40
15.0
 50
273.0
 51
357.0
  0
ARC
  5
8A1
  8
0
  6
CONTINUOUS
 62
     7
 10
-139.78093999999979
 20
211.16768999999991
 30
0.0
 40
3.0
 50
180.00001
 51
266.24579999999992
  0
ARC
  5
8A2
  8
0
  6
CONTINUOUS
 62
     7
 10
-70.165908999999999
 20
225.66296
 30
0.0
 40
15.0
 50
3.0000000999999981
 51
86.999998999999988
  0
ARC
  5
8A3
  8
0
  6
CONTINUOUS
 62
     7
 10
-150.78093000000001
 20
221.73577999999981
 30
0.0
 40
3.0
 50
0.0
 51
94.417918999999998
  0
ARC
  5
8A4
  8
0
  6
CONTINUOUS
 62
     7
 10
-70.165908999999999
 20
75.432884000000001
 30
0.0
 40
15.0
 50
273.0
 51
357.0
  0
ARC
  5
8A5
  8
0
  6
CONTINUOUS
 62
     7
 10
-139.78093999999979
 20
221.73577999999981
 30
0.0
 40
3.0
 50
85.582086000000032
 51
180.00001
  0
ARC
  5
8A6
  8
0
  6
CONTINUOUS
 62
     7
 10
-145.2809399999999
 20
150.54793000000001
 30
0.0
 40
74.400002000000001
 50
355.05457999999999
 51
8.1165494000000002
  0
ARC
  5
8A7
  8
0
  6
CONTINUOUS
 62
     7
 10
-220.39597999999981
 20
75.432884000000001
 30
0.0
 40
15.0
 50
183.00001
 51
267.0
  0
ARC
  5
8A8
  8
0
  6
CONTINUOUS
 62
     7
 10
-351.98849000000001
 20
141.31569999999991
 30
0.0
 40
24.83221099999999
 50
169.38167999999999
 51
218.79320999999999
  0
ARC
  5
8A9
  8
0
  6
CONTINUOUS
 62
     7
 10
-145.2809399999999
 20
127.34793999999999
 30
0.0
 40
81.0
 50
125.47417
 51
155.4112299999999
  0
ARC
  5
8AA
  8
0
  6
CONTINUOUS
 62
     7
 10
-396.46600000000001
 20
173.59795
 30
0.0
 40
24.83221099999999
 50
349.38167999999979
 51
47.544066000000001
  0
ARC
  5
8AB
  8
0
  6
CONTINUOUS
 62
     7
 10
-101.28094
 20
127.34793999999999
 30
0.0
 40
5.0
 50
179.99998999999991
 51
270.0
  0
ARC
  5
8AC
  8
0
  6
CONTINUOUS
 62
     7
 10
-367.63382000000001
 20
60.805298000000001
 30
0.0
 40
3.0
 50
179.99998999999991
 51
271.99998999999991
  0
ARC
  5
8AD
  8
0
  6
CONTINUOUS
 62
     7
 10
-367.63382000000001
 20
96.177291999999994
 30
0.0
 40
3.0
 50
90.000003000000007
 51
180.00001
  0
ARC
  5
8AE
  8
0
  6
CONTINUOUS
 62
     7
 10
-145.2809399999999
 20
150.54793000000001
 30
0.0
 40
39.000011000000001
 50
0.0
 51
36.786791000000001
  0
ARC
  5
8AF
  8
0
  6
CONTINUOUS
 62
     7
 10
-369.63382000000001
 20
220.72022999999999
 30
0.0
 40
3.0
 50
0.0
 51
91.999998000000005
  0
ARC
  5
8B0
  8
0
  6
CONTINUOUS
 62
     7
 10
-369.63382000000001
 20
80.047920000000005
 30
0.0
 40
3.0
 50
270.0
 51
0.0
  0
ARC
  5
8B1
  8
0
  6
CONTINUOUS
 62
     7
 10
-170.4321699999999
 20
184.1844599999998
 30
0.0
 40
3.0
 50
225.0
 51
306.78678999999988
  0
ARC
  5
8B2
  8
0
  6
CONTINUOUS
 62
     7
 10
-178.91747000000001
 20
175.69917000000001
 30
0.0
 40
3.0
 50
323.21321
 51
45.00000099999999
  0
ARC
  5
8B3
  8
0
  6
CONTINUOUS
 62
     7
 10
-145.2809399999999
 20
150.54793000000001
 30
0.0
 40
39.000011000000001
 50
53.213208000000002
 51
126.78679
  0
ARC
  5
8B4
  8
0
  6
CONTINUOUS
 62
     7
 10
-195.3199599999999
 20
209.07225
 30
0.0
 40
3.0
 50
130.5308599999999
 51
225.0
  0
ARC
  5
8B5
  8
0
  6
CONTINUOUS
 62
     7
 10
-145.2809399999999
 20
127.34793999999999
 30
0.0
 40
81.0
 50
58.860945000000001
 51
86.245803000000024
  0
ARC
  5
8B6
  8
0
  6
CONTINUOUS
 62
     7
 10
-145.2809399999999
 20
150.54793000000001
 30
0.0
 40
39.000011000000001
 50
143.21321
 51
180.00001
  0
ARC
  5
8B7
  8
0
  6
CONTINUOUS
 62
     7
 10
-189.28095999999991
 20
127.34793999999999
 30
0.0
 40
5.0
 50
270.0
 51
0.0
  0
ARC
  5
8B8
  8
0
  6
CONTINUOUS
 62
     7
 10
-176.6131
 20
47.258628999999999
 30
0.0
 40
5.0
 50
68.633797999999999
 51
143.26125999999991
  0
ARC
  5
8B9
  8
0
  6
CONTINUOUS
 62
     7
 10
-187.03093000000001
 20
55.034808999999989
 30
0.0
 40
8.0
 50
156.73873999999981
 51
323.26127000000002
  0
ARC
  5
8BA
  8
0
  6
CONTINUOUS
 62
     7
 10
-103.53095
 20
55.034808999999989
 30
0.0
 40
8.0
 50
216.73873999999989
 51
23.26125799999998
  0
ARC
  5
8BB
  8
0
  6
CENTER
 62
     7
 10
-145.2809399999999
 20
150.54793000000001
 30
0.0
 40
107.50001
 50
40.497985
 51
49.041356
  0
ARC
  5
8BC
  8
0
  6
CONTINUOUS
 62
     7
 10
-145.2809399999999
 20
127.34793999999999
 30
0.0
 40
81.0
 50
248.63379999999989
 51
270.0
  0
ARC
  5
8BD
  8
0
  6
CONTINUOUS
 62
     7
 10
-113.9487799999999
 20
47.258628999999999
 30
0.0
 40
5.0
 50
36.738737
 51
111.36621
  0
CIRCLE
  5
8BE
  8
0
  6
CONTINUOUS
 62
     7
 10
-69.266968000000006
 20
226.5619199999999
 30
0.0
 40
6.0
  0
CIRCLE
  5
8BF
  8
0
  6
CONTINUOUS
 62
     7
 10
-221.2949099999999
 20
226.5619199999999
 30
0.0
 40
6.0
  0
ARC
  5
8C0
  8
0
  6
CENTER
 62
     7
 10
-145.2809399999999
 20
150.54793000000001
 30
0.0
 40
107.50001
 50
130.76811000000001
 51
139.57376999999991
  0
ARC
  5
8C1
  8
0
  6
CONTINUOUS
 62
     7
 10
-203.80525
 20
200.58696
 30
0.0
 40
3.0
 50
45.00000099999999
 51
139.4691399999999
  0
ARC
  5
8C2
  8
0
  6
CONTINUOUS
 62
     7
 10
-220.39597999999981
 20
75.432884000000001
 30
0.0
 40
15.0
 50
183.00001
 51
267.0
  0
ARC
  5
8C3
  8
0
  6
CENTER
 62
     7
 10
-145.2809399999999
 20
150.54793000000001
 30
0.0
 40
107.50001
 50
220.60860999999991
 51
229.74119999999991
  0
CIRCLE
  5
8C4
  8
0
  6
CONTINUOUS
 62
     7
 10
-221.2949099999999
 20
74.533951000000002
 30
0.0
 40
6.0
  0
ARC
  5
8C5
  8
0
  6
CONTINUOUS
 62
     7
 10
-368.63378999999992
 20
240.7673299999999
 30
0.0
 40
2.0
 50
91.999998000000005
 51
180.00001
  0
CIRCLE
  5
8C6
  8
0
  6
CONTINUOUS
 62
     7
 10
-145.2809399999999
 20
150.54793999999981
 30
0.0
 40
29.0
  0
CIRCLE
  5
8C7
  8
0
  6
CONTINUOUS
 62
     7
 10
-69.266968000000006
 20
74.533951000000002
 30
0.0
 40
6.0
  0
CIRCLE
  5
8C8
  8
0
  6
CONTINUOUS
 62
     7
 10
-145.2809399999999
 20
150.54793000000001
 30
0.0
 40
80.0
  0
ARC
  5
8C9
  8
0
  6
CONTINUOUS
 62
     7
 10
-145.2809399999999
 20
127.34793999999999
 30
0.0
 40
81.0
 50
24.588774999999998
 51
54.525830000000013
  0
CIRCLE
  5
8CA
  8
0
  6
CONTINUOUS
 62
     7
 10
-145.2809399999999
 20
150.54793000000001
 30
0.0
 40
85.0
  0
ARC
  5
8CB
  8
0
  6
CONTINUOUS
 62
     7
 10
-86.756637999999981
 20
200.58696
 30
0.0
 40
3.0
 50
40.530864999999999
 51
135.0
  0
ARC
  5
8CC
  8
0
  6
CONTINUOUS
 62
     7
 10
-120.12971
 20
184.1844599999998
 30
0.0
 40
3.0
 50
233.21321
 51
315.0
  0
ARC
  5
8CD
  8
0
  6
CENTER
 62
     7
 10
-145.2809399999999
 20
150.54793000000001
 30
0.0
 40
107.50001
 50
310.41476999999992
 51
319.63004000000001
  0
ARC
  5
8CE
  8
0
  6
CONTINUOUS
 62
     7
 10
-111.6444199999999
 20
175.69917000000001
 30
0.0
 40
3.0
 50
135.0
 51
216.78679
  0
ARC
  5
8CF
  8
0
  6
CONTINUOUS
 62
     7
 10
-95.241919999999993
 20
209.07225
 30
0.0
 40
3.0
 50
315.0
 51
49.469136999999989
  0
ARC
  5
8D0
  8
0
  6
CONTINUOUS
 62
     7
 10
-220.39597999999981
 20
225.66296
 30
0.0
 40
15.0
 50
92.999999000000017
 51
176.99999
  0
ARC
  5
8D1
  8
0
  6
CONTINUOUS
 62
     7
 10
-145.2809399999999
 20
127.34793999999999
 30
0.0
 40
81.0
 50
270.0
 51
291.36619999999999
  0
ARC
  5
8D2
  8
0
  6
CONTINUOUS
 62
     7
 10
-150.78093000000001
 20
211.16768999999991
 30
0.0
 40
3.0
 50
273.75420000000003
 51
0.0
  0
ARC
  5
8D3
  8
0
  6
CONTINUOUS
 62
     7
 10
-400.34222
 20
212.58217999999991
 30
0.0
 40
3.0
 50
272.0
 51
315.0
  0
ARC
  5
8D4
  8
0
  6
CONTINUOUS
 62
     7
 10
-367.63382000000001
 20
201.67317
 30
0.0
 40
3.0
 50
179.99998999999991
 51
270.0
  0
ARC
  5
8D5
  8
0
  6
CONTINUOUS
 62
     7
 10
-369.00475999999992
 20
127.6375899999999
 30
0.0
 40
3.0
 50
218.79321999999999
 51
270.0
  0
ARC
  5
8D6
  8
0
  6
CONTINUOUS
 62
     7
 10
-450.63382000000001
 20
48.872967000000003
 30
0.0
 40
2.0
 50
179.99998999999991
 51
268.00000999999992
  0
ARC
  5
8D7
  8
0
  6
CONTINUOUS
 62
     7
 10
-369.63382000000001
 20
483.26715000000002
 30
0.0
 40
3.0
 50
0.0
 51
91.999998000000005
  0
ARC
  5
8D8
  8
0
  6
CONTINUOUS
 62
     7
 10
-368.63378999999992
 20
503.31423999999998
 30
0.0
 40
2.0
 50
91.999998000000005
 51
180.00001
  0
ARC
  5
8D9
  8
0
  6
CONTINUOUS
 62
     7
 10
-367.63382000000001
 20
464.22009000000003
 30
0.0
 40
3.0
 50
179.99998999999991
 51
270.0
  0
ARC
  5
8DA
  8
0
  6
CONTINUOUS
 62
     7
 10
-375.86362000000003
 20
502.43606999999992
 30
0.0
 40
5.0
 50
272.0
 51
315.0
  0
ARC
  5
8DB
  8
0
  6
CONTINUOUS
 62
     7
 10
-375.86362000000003
 20
323.75362999999982
 30
0.0
 40
5.0
 50
45.00000099999999
 51
88.0
  0
ARC
  5
8DC
  8
0
  6
CONTINUOUS
 62
     7
 10
-369.63382000000001
 20
342.92255
 30
0.0
 40
3.0
 50
268.0
 51
0.0
  0
ARC
  5
8DD
  8
0
  6
CONTINUOUS
 62
     7
 10
-368.63378999999992
 20
322.87545999999992
 30
0.0
 40
2.0
 50
179.99998999999991
 51
268.00000999999992
  0
ARC
  5
8DE
  8
0
  6
CONTINUOUS
 62
     7
 10
-367.63382000000001
 20
361.96960000000001
 30
0.0
 40
3.0
 50
90.000003000000007
 51
180.00001
  0
POLYLINE
  5
8DF
  8
0
  6
CONTINUOUS
 62
     7
 66
     1
 10
0.0
 20
0.0
 30
0.0
  0
VERTEX
  5
8E0
  8
0
  6
CONTINUOUS
 62
     7
 10
-661.27386000000001
 20
413.09485000000001
 30
0.0
 42
0.00039106592
  0
VERTEX
  5
8E1
  8
0
  6
CONTINUOUS
 62
     7
 10
-661.27621999999985
 20
412.78372000000002
 30
0.0
 42
0.00035488583
  0
VERTEX
  5
8E2
  8
0
  6
CONTINUOUS
 62
     7
 10
-661.27810999999986
 20
412.47260999999997
 30
0.0
 42
0.00039705231
  0
VERTEX
  5
8E3
  8
0
  6
CONTINUOUS
 62
     7
 10
-661.27954
 20
412.16149999999999
 30
0.0
 42
0.00038766493
  0
VERTEX
  5
8E4
  8
0
  6
CONTINUOUS
 62
     7
 10
-661.28047000000004
 20
411.85036000000002
 30
0.0
 42
0.00035527306
  0
VERTEX
  5
8E5
  8
0
  6
CONTINUOUS
 62
     7
 10
-661.28093999999965
 20
411.53924999999992
 30
0.0
 42
0.00039931891
  0
VERTEX
  5
8E6
  8
0
  6
CONTINUOUS
 62
     7
 10
-661.28093999999965
 20
411.22814999999991
 30
0.0
 42
0.00038547361
  0
VERTEX
  5
8E7
  8
0
  6
CONTINUOUS
 62
     7
 10
-661.28044999999997
 20
410.91701
 30
0.0
 42
0.00040585667
  0
VERTEX
  5
8E8
  8
0
  6
CONTINUOUS
 62
     7
 10
-661.27948000000004
 20
410.60590999999999
 30
0.0
 42
0.00035762025
  0
VERTEX
  5
8E9
  8
0
  6
CONTINUOUS
 62
     7
 10
-661.27801999999986
 20
410.2946799999998
 30
0.0
 42
0.00038319869
  0
VERTEX
  5
8EA
  8
0
  6
CONTINUOUS
 62
     7
 10
-661.27610000000004
 20
409.98353999999989
 30
0.0
 42
0.00035656354
  0
VERTEX
  5
8EB
  8
0
  6
CONTINUOUS
 62
     7
 10
-661.27372000000003
 20
409.67230999999998
 30
0.0
 42
0.0004014099
  0
VERTEX
  5
8EC
  8
0
  6
CONTINUOUS
 62
     7
 10
-661.27086999999995
 20
409.36121000000003
 30
0.0
  0
SEQEND
  5
8ED
  8
0
 62
     7
  0
POLYLINE
  5
8EE
  8
0
  6
CONTINUOUS
 62
     7
 66
     1
 10
0.0
 20
0.0
 30
0.0
  0
VERTEX
  5
8EF
  8
0
  6
CONTINUOUS
 62
     7
 10
-661.22979999999995
 20
406.82445999999982
 30
0.0
 42
0.00074501067
  0
VERTEX
  5
8F0
  8
0
  6
CONTINUOUS
 62
     7
 10
-661.21505000000002
 20
406.20669999999978
 30
0.0
 42
0.00078382347
  0
VERTEX
  5
8F1
  8
0
  6
CONTINUOUS
 62
     7
 10
-661.19840999999985
 20
405.58909999999992
 30
0.0
 42
0.00074332124
  0
VERTEX
  5
8F2
  8
0
  6
CONTINUOUS
 62
     7
 10
-661.17987000000005
 20
404.97143999999997
 30
0.0
 42
0.00075144491
  0
VERTEX
  5
8F3
  8
0
  6
CONTINUOUS
 62
     7
 10
-661.15949999999998
 20
404.35382999999979
 30
0.0
 42
0.00076035095
  0
VERTEX
  5
8F4
  8
0
  6
CONTINUOUS
 62
     7
 10
-661.13726999999994
 20
403.7364
 30
0.0
 42
0.00075543153
  0
VERTEX
  5
8F5
  8
0
  6
CONTINUOUS
 62
     7
 10
-661.11315999999999
 20
403.11901999999998
 30
0.0
 42
0.00075773253
  0
VERTEX
  5
8F6
  8
0
  6
CONTINUOUS
 62
     7
 10
-661.08717999999988
 20
402.50162
 30
0.0
 42
0.00076034584
  0
VERTEX
  5
8F7
  8
0
  6
CONTINUOUS
 62
     7
 10
-661.0593299999997
 20
401.88423
 30
0.0
 42
0.00074823141
  0
VERTEX
  5
8F8
  8
0
  6
CONTINUOUS
 62
     7
 10
-661.02959999999985
 20
401.26684999999998
 30
0.0
 42
0.00074896608
  0
VERTEX
  5
8F9
  8
0
  6
CONTINUOUS
 62
     7
 10
-660.99805000000003
 20
400.64971000000003
 30
0.0
 42
0.00076039762
  0
VERTEX
  5
8FA
  8
0
  6
CONTINUOUS
 62
     7
 10
-660.96461999999997
 20
400.0326799999998
 30
0.0
 42
0.00075616125
  0
VERTEX
  5
8FB
  8
0
  6
CONTINUOUS
 62
     7
 10
-660.92931999999985
 20
399.41565000000003
 30
0.0
  0
SEQEND
  5
8FC
  8
0
 62
     7
  0
POLYLINE
  5
8FD
  8
0
  6
CONTINUOUS
 62
     7
 66
     1
 10
0.0
 20
0.0
 30
0.0
  0
VERTEX
  5
8FE
  8
0
  6
CONTINUOUS
 62
     7
 10
-660.75562000000002
 20
396.75427000000002
 30
0.0
 42
0.00073721997
  0
VERTEX
  5
8FF
  8
0
  6
CONTINUOUS
 62
     7
 10
-660.71145999999999
 20
396.15186
 30
0.0
 42
0.00074398494
  0
VERTEX
  5
900
  8
0
  6
CONTINUOUS
 62
     7
 10
-660.66552999999988
 20
395.54958999999991
 30
0.0
 42
0.00073322622
  0
VERTEX
  5
901
  8
0
  6
CONTINUOUS
 62
     7
 10
-660.61779999999976
 20
394.94727
 30
0.0
 42
0.00073594295
  0
VERTEX
  5
902
  8
0
  6
CONTINUOUS
 62
     7
 10
-660.56831999999963
 20
394.34527000000003
 30
0.0
 42
0.00072133179
  0
VERTEX
  5
903
  8
0
  6
CONTINUOUS
 62
     7
 10
-660.51706999999999
 20
393.74340999999993
 30
0.0
 42
0.00075453052
  0
VERTEX
  5
904
  8
0
  6
CONTINUOUS
 62
     7
 10
-660.46405000000004
 20
393.14159999999998
 30
0.0
 42
0.0007418407
  0
VERTEX
  5
905
  8
0
  6
CONTINUOUS
 62
     7
 10
-660.40922999999975
 20
392.54007000000001
 30
0.0
 42
0.00074685393
  0
VERTEX
  5
906
  8
0
  6
CONTINUOUS
 62
     7
 10
-660.35263999999995
 20
391.93883999999991
 30
0.0
 42
0.00072742995
  0
VERTEX
  5
907
  8
0
  6
CONTINUOUS
 62
     7
 10
-660.29425000000003
 20
391.33765
 30
0.0
 42
0.00074288893
  0
VERTEX
  5
908
  8
0
  6
CONTINUOUS
 62
     7
 10
-660.23410000000001
 20
390.73662000000002
 30
0.0
 42
0.00072503676
  0
VERTEX
  5
909
  8
0
  6
CONTINUOUS
 62
     7
 10
-660.17219
 20
390.13587999999999
 30
0.0
 42
0.00074640581
  0
VERTEX
  5
90A
  8
0
  6
CONTINUOUS
 62
     7
 10
-660.10851999999988
 20
389.53527999999989
 30
0.0
  0
SEQEND
  5
90B
  8
0
 62
     7
  0
POLYLINE
  5
90C
  8
0
  6
CONTINUOUS
 62
     7
 66
     1
 10
0.0
 20
0.0
 30
0.0
  0
VERTEX
  5
90D
  8
0
  6
CONTINUOUS
 62
     7
 10
-659.77295000000004
 20
386.61182000000002
 30
0.0
 42
0.0006890002
  0
VERTEX
  5
90E
  8
0
  6
CONTINUOUS
 62
     7
 10
-659.70207000000005
 20
386.03705999999988
 30
0.0
 42
0.00067934106
  0
VERTEX
  5
90F
  8
0
  6
CONTINUOUS
 62
     7
 10
-659.62959000000001
 20
385.46238
 30
0.0
 42
0.00071569314
  0
VERTEX
  5
910
  8
0
  6
CONTINUOUS
 62
     7
 10
-659.55554000000018
 20
384.88806
 30
0.0
 42
0.00071908359
  0
VERTEX
  5
911
  8
0
  6
CONTINUOUS
 62
     7
 10
-659.47982000000002
 20
384.31392999999991
 30
0.0
 42
0.00066272258
  0
VERTEX
  5
912
  8
0
  6
CONTINUOUS
 62
     7
 10
-659.40250000000003
 20
383.73991999999998
 30
0.0
 42
0.00072079191
  0
VERTEX
  5
913
  8
0
  6
CONTINUOUS
 62
     7
 10
-659.3236099999998
 20
383.16613999999993
 30
0.0
 42
0.00071003152
  0
VERTEX
  5
914
  8
0
  6
CONTINUOUS
 62
     7
 10
-659.24306999999999
 20
382.59266000000002
 30
0.0
 42
0.00069954538
  0
VERTEX
  5
915
  8
0
  6
CONTINUOUS
 62
     7
 10
-659.16093000000001
 20
382.01956000000001
 30
0.0
 42
0.00071888515
  0
VERTEX
  5
916
  8
0
  6
CONTINUOUS
 62
     7
 10
-659.07714999999985
 20
381.44653
 30
0.0
 42
0.00073581337
  0
VERTEX
  5
917
  8
0
  6
CONTINUOUS
 62
     7
 10
-658.99167999999997
 20
380.87376999999998
 30
0.0
 42
0.0006891394
  0
VERTEX
  5
918
  8
0
  6
CONTINUOUS
 62
     7
 10
-658.90462999999966
 20
380.30142000000001
 30
0.0
 42
0.00072290801
  0
VERTEX
  5
919
  8
0
  6
CONTINUOUS
 62
     7
 10
-658.81591999999966
 20
379.72912999999988
 30
0.0
  0
SEQEND
  5
91A
  8
0
 62
     7
  0
POLYLINE
  5
91B
  8
0
  6
CONTINUOUS
 62
     7
 66
     1
 10
0.0
 20
0.0
 30
0.0
  0
VERTEX
  5
91C
  8
0
  6
CONTINUOUS
 62
     7
 10
-661.27386000000001
 20
413.09485000000001
 30
0.0
 42
-0.00039106652
  0
VERTEX
  5
91D
  8
0
  6
CONTINUOUS
 62
     7
 10
-661.27621999999985
 20
413.40598
 30
0.0
 42
-0.00035488197
  0
VERTEX
  5
91E
  8
0
  6
CONTINUOUS
 62
     7
 10
-661.27810999999986
 20
413.71708999999998
 30
0.0
 42
-0.00039706112
  0
VERTEX
  5
91F
  8
0
  6
CONTINUOUS
 62
     7
 10
-661.27954
 20
414.02820000000003
 30
0.0
 42
-0.00038765721
  0
VERTEX
  5
920
  8
0
  6
CONTINUOUS
 62
     7
 10
-661.28047000000004
 20
414.33933999999988
 30
0.0
 42
-0.00035526961
  0
VERTEX
  5
921
  8
0
  6
CONTINUOUS
 62
     7
 10
-661.28093999999965
 20
414.65044
 30
0.0
 42
-0.0003993348
  0
VERTEX
  5
922
  8
0
  6
CONTINUOUS
 62
     7
 10
-661.28093999999965
 20
414.96154999999999
 30
0.0
 42
-0.00038545887
  0
VERTEX
  5
923
  8
0
  6
CONTINUOUS
 62
     7
 10
-661.28044999999997
 20
415.27269000000001
 30
0.0
 42
-0.0004058537
  0
VERTEX
  5
924
  8
0
  6
CONTINUOUS
 62
     7
 10
-661.27948000000004
 20
415.58378999999979
 30
0.0
 42
-0.00035764179
  0
VERTEX
  5
925
  8
0
  6
CONTINUOUS
 62
     7
 10
-661.27801999999986
 20
415.89501999999987
 30
0.0
 42
-0.0003831782
  0
VERTEX
  5
926
  8
0
  6
CONTINUOUS
 62
     7
 10
-661.27610000000004
 20
416.20616000000001
 30
0.0
 42
-0.00035656082
  0
VERTEX
  5
927
  8
0
  6
CONTINUOUS
 62
     7
 10
-661.27372000000003
 20
416.51738999999998
 30
0.0
 42
-0.00040143614
  0
VERTEX
  5
928
  8
0
  6
CONTINUOUS
 62
     7
 10
-661.27086999999995
 20
416.82848999999987
 30
0.0
  0
SEQEND
  5
929
  8
0
 62
     7
  0
POLYLINE
  5
92A
  8
0
  6
CONTINUOUS
 62
     7
 66
     1
 10
0.0
 20
0.0
 30
0.0
  0
VERTEX
  5
92B
  8
0
  6
CONTINUOUS
 62
     7
 10
-661.22979999999995
 20
419.36523
 30
0.0
 42
-0.00074497821
  0
VERTEX
  5
92C
  8
0
  6
CONTINUOUS
 62
     7
 10
-661.21505000000002
 20
419.983
 30
0.0
 42
-0.00078382095
  0
VERTEX
  5
92D
  8
0
  6
CONTINUOUS
 62
     7
 10
-661.19840999999985
 20
420.60059999999999
 30
0.0
 42
-0.00074335669
  0
VERTEX
  5
92E
  8
0
  6
CONTINUOUS
 62
     7
 10
-661.17987000000005
 20
421.21825999999999
 30
0.0
 42
-0.000751411
  0
VERTEX
  5
92F
  8
0
  6
CONTINUOUS
 62
     7
 10
-661.15949999999998
 20
421.83587
 30
0.0
 42
-0.00075841686
  0
VERTEX
  5
930
  8
0
  6
CONTINUOUS
 62
     7
 10
-661.13726999999994
 20
422.45328999999981
 30
0.0
 42
-0.00075711786
  0
VERTEX
  5
931
  8
0
  6
CONTINUOUS
 62
     7
 10
-661.11315999999999
 20
423.07079999999991
 30
0.0
 42
-0.00075976006
  0
VERTEX
  5
932
  8
0
  6
CONTINUOUS
 62
     7
 10
-661.08717999999988
 20
423.68819000000002
 30
0.0
 42
-0.0007579731
  0
VERTEX
  5
933
  8
0
  6
CONTINUOUS
 62
     7
 10
-661.0593299999997
 20
424.30547000000001
 30
0.0
 42
-0.00074826129
  0
VERTEX
  5
934
  8
0
  6
CONTINUOUS
 62
     7
 10
-661.02959999999985
 20
424.92284999999998
 30
0.0
 42
-0.00074893564
  0
VERTEX
  5
935
  8
0
  6
CONTINUOUS
 62
     7
 10
-660.99805000000003
 20
425.53997999999962
 30
0.0
 42
-0.00076039837
  0
VERTEX
  5
936
  8
0
  6
CONTINUOUS
 62
     7
 10
-660.96461999999997
 20
426.15700999999979
 30
0.0
 42
-0.00075618784
  0
VERTEX
  5
937
  8
0
  6
CONTINUOUS
 62
     7
 10
-660.92931999999985
 20
426.77404999999999
 30
0.0
  0
SEQEND
  5
938
  8
0
 62
     7
  0
POLYLINE
  5
939
  8
0
  6
CONTINUOUS
 62
     7
 66
     1
 10
0.0
 20
0.0
 30
0.0
  0
VERTEX
  5
93A
  8
0
  6
CONTINUOUS
 62
     7
 10
-660.75562000000002
 20
429.43541999999991
 30
0.0
 42
-0.00073370515
  0
VERTEX
  5
93B
  8
0
  6
CONTINUOUS
 62
     7
 10
-660.71146999999985
 20
430.03784000000002
 30
0.0
 42
-0.0007521132
  0
VERTEX
  5
93C
  8
0
  6
CONTINUOUS
 62
     7
 10
-660.66552999999988
 20
430.64022999999997
 30
0.0
 42
-0.00072974907
  0
VERTEX
  5
93D
  8
0
  6
CONTINUOUS
 62
     7
 10
-660.61779999999976
 20
431.24242999999979
 30
0.0
 42
-0.00073593047
  0
VERTEX
  5
93E
  8
0
  6
CONTINUOUS
 62
     7
 10
-660.56831999999963
 20
431.84442999999999
 30
0.0
 42
-0.0007213335
  0
VERTEX
  5
93F
  8
0
  6
CONTINUOUS
 62
     7
 10
-660.51706999999999
 20
432.44628999999992
 30
0.0
 42
-0.00075453664
  0
VERTEX
  5
940
  8
0
  6
CONTINUOUS
 62
     7
 10
-660.46405000000004
 20
433.04809999999981
 30
0.0
 42
-0.00073754173
  0
VERTEX
  5
941
  8
0
  6
CONTINUOUS
 62
     7
 10
-660.40923999999995
 20
433.64963
 30
0.0
 42
-0.00075683458
  0
VERTEX
  5
942
  8
0
  6
CONTINUOUS
 62
     7
 10
-660.35263999999995
 20
434.25099
 30
0.0
 42
-0.00072314512
  0
VERTEX
  5
943
  8
0
  6
CONTINUOUS
 62
     7
 10
-660.29425000000003
 20
434.85205000000002
 30
0.0
 42
-0.00074288421
  0
VERTEX
  5
944
  8
0
  6
CONTINUOUS
 62
     7
 10
-660.23410000000001
 20
435.45307000000003
 30
0.0
 42
-0.00072503998
  0
VERTEX
  5
945
  8
0
  6
CONTINUOUS
 62
     7
 10
-660.17219
 20
436.05381999999992
 30
0.0
 42
-0.00074640664
  0
VERTEX
  5
946
  8
0
  6
CONTINUOUS
 62
     7
 10
-660.10851999999988
 20
436.65441999999979
 30
0.0
  0
SEQEND
  5
947
  8
0
 62
     7
  0
POLYLINE
  5
948
  8
0
  6
CONTINUOUS
 62
     7
 66
     1
 10
0.0
 20
0.0
 30
0.0
  0
VERTEX
  5
949
  8
0
  6
CONTINUOUS
 62
     7
 10
-659.77295000000004
 20
439.57787999999999
 30
0.0
 42
-0.00068898293
  0
VERTEX
  5
94A
  8
0
  6
CONTINUOUS
 62
     7
 10
-659.70207000000005
 20
440.15262999999987
 30
0.0
 42
-0.00067933813
  0
VERTEX
  5
94B
  8
0
  6
CONTINUOUS
 62
     7
 10
-659.62959000000001
 20
440.72732000000002
 30
0.0
 42
-0.000715718
  0
VERTEX
  5
94C
  8
0
  6
CONTINUOUS
 62
     7
 10
-659.55554000000018
 20
441.30164000000002
 30
0.0
 42
-0.00071906223
  0
VERTEX
  5
94D
  8
0
  6
CONTINUOUS
 62
     7
 10
-659.47982000000002
 20
441.87576999999987
 30
0.0
 42
-0.00066272437
  0
VERTEX
  5
94E
  8
0
  6
CONTINUOUS
 62
     7
 10
-659.40250000000003
 20
442.44977999999998
 30
0.0
 42
-0.00072080101
  0
VERTEX
  5
94F
  8
0
  6
CONTINUOUS
 62
     7
 10
-659.3236099999998
 20
443.02355999999992
 30
0.0
 42
-0.00071002313
  0
VERTEX
  5
950
  8
0
  6
CONTINUOUS
 62
     7
 10
-659.24306999999999
 20
443.59703000000002
 30
0.0
 42
-0.00069954883
  0
VERTEX
  5
951
  8
0
  6
CONTINUOUS
 62
     7
 10
-659.16093000000001
 20
444.17012999999997
 30
0.0
 42
-0.00071887942
  0
VERTEX
  5
952
  8
0
  6
CONTINUOUS
 62
     7
 10
-659.07714999999985
 20
444.74315999999988
 30
0.0
 42
-0.00073582106
  0
VERTEX
  5
953
  8
0
  6
CONTINUOUS
 62
     7
 10
-658.99167999999997
 20
445.31591999999989
 30
0.0
 42
-0.00068913793
  0
VERTEX
  5
954
  8
0
  6
CONTINUOUS
 62
     7
 10
-658.90462999999966
 20
445.88826999999998
 30
0.0
 42
-0.00072288972
  0
VERTEX
  5
955
  8
0
  6
CONTINUOUS
 62
     7
 10
-658.81591999999966
 20
446.4605699999999
 30
0.0
  0
SEQEND
  5
956
  8
0
 62
     7
  0
POLYLINE
  5
957
  8
0
  6
CONTINUOUS
 62
     7
 66
     1
 10
0.0
 20
0.0
 30
0.0
  0
VERTEX
  5
958
  8
0
  6
CONTINUOUS
 62
     7
 10
-661.26842999999985
 20
152.34791999999979
 30
0.0
  0
VERTEX
  5
959
  8
0
  6
CONTINUOUS
 62
     7
 10
-661.26571999999999
 20
148.61543999999981
 30
0.0
 42
-1.0
  0
SEQEND
  5
95A
  8
0
 62
     7
  0
POLYLINE
  5
95B
  8
0
  6
CONTINUOUS
 62
     7
 66
     1
 10
0.0
 20
0.0
 30
0.0
  0
VERTEX
  5
95C
  8
0
  6
CONTINUOUS
 62
     7
 10
-661.22506999999985
 20
146.07661999999991
 30
0.0
  0
VERTEX
  5
95D
  8
0
  6
CONTINUOUS
 62
     7
 10
-660.92639999999994
 20
138.66655
 30
0.0
 42
-1.0
  0
SEQEND
  5
95E
  8
0
 62
     7
  0
POLYLINE
  5
95F
  8
0
  6
CONTINUOUS
 62
     7
 66
     1
 10
0.0
 20
0.0
 30
0.0
  0
VERTEX
  5
960
  8
0
  6
CONTINUOUS
 62
     7
 10
-660.75340000000017
 20
136.00531999999981
 30
0.0
  0
VERTEX
  5
961
  8
0
  6
CONTINUOUS
 62
     7
 10
-660.10735
 20
128.78437
 30
0.0
 42
-1.0
  0
SEQEND
  5
962
  8
0
 62
     7
  0
POLYLINE
  5
963
  8
0
  6
CONTINUOUS
 62
     7
 66
     1
 10
0.0
 20
0.0
 30
0.0
  0
VERTEX
  5
964
  8
0
  6
CONTINUOUS
 62
     7
 10
-659.77166
 20
125.86091999999979
 30
0.0
  0
VERTEX
  5
965
  8
0
  6
CONTINUOUS
 62
     7
 10
-658.81116999999995
 20
118.9793199999999
 30
0.0
 42
-1.0
  0
SEQEND
  5
966
  8
0
 62
     7
  0
POLYLINE
  5
967
  8
0
  6
CONTINUOUS
 62
     7
 66
     1
 10
0.0
 20
0.0
 30
0.0
  0
VERTEX
  5
968
  8
0
  6
CONTINUOUS
 62
     7
 10
-661.26842999999985
 20
152.34791999999979
 30
0.0
  0
VERTEX
  5
969
  8
0
  6
CONTINUOUS
 62
     7
 10
-661.26571999999999
 20
156.08038999999991
 30
0.0
 42
-1.0
  0
SEQEND
  5
96A
  8
0
 62
     7
  0
POLYLINE
  5
96B
  8
0
  6
CONTINUOUS
 62
     7
 66
     1
 10
0.0
 20
0.0
 30
0.0
  0
VERTEX
  5
96C
  8
0
  6
CONTINUOUS
 62
     7
 10
-661.22506999999985
 20
158.61920000000001
 30
0.0
  0
VERTEX
  5
96D
  8
0
  6
CONTINUOUS
 62
     7
 10
-660.92639999999994
 20
166.02922000000001
 30
0.0
 42
-1.0
  0
SEQEND
  5
96E
  8
0
 62
     7
  0
POLYLINE
  5
96F
  8
0
  6
CONTINUOUS
 62
     7
 66
     1
 10
0.0
 20
0.0
 30
0.0
  0
VERTEX
  5
970
  8
0
  6
CONTINUOUS
 62
     7
 10
-660.75340000000017
 20
168.69044999999991
 30
0.0
  0
VERTEX
  5
971
  8
0
  6
CONTINUOUS
 62
     7
 10
-660.10735
 20
175.91136
 30
0.0
 42
-1.0
  0
SEQEND
  5
972
  8
0
 62
     7
  0
POLYLINE
  5
973
  8
0
  6
CONTINUOUS
 62
     7
 66
     1
 10
0.0
 20
0.0
 30
0.0
  0
VERTEX
  5
974
  8
0
  6
CONTINUOUS
 62
     7
 10
-659.77166
 20
178.83483000000001
 30
0.0
  0
VERTEX
  5
975
  8
0
  6
CONTINUOUS
 62
     7
 10
-658.81116999999995
 20
185.71648999999991
 30
0.0
 42
-1.0
  0
SEQEND
  5
976
  8
0
 62
     7
  0
POLYLINE
  5
977
  8
0
  6
CONTINUOUS
 62
     7
 66
     1
 10
0.0
 20
0.0
 30
0.0
  0
VERTEX
  5
978
  8
0
  6
CONTINUOUS
 62
     7
 10
-373.72075999999998
 20
497.50783999999999
 30
0.0
 42
0.081985852
  0
VERTEX
  5
979
  8
0
  6
CONTINUOUS
 62
     7
 10
-395.83665000000002
 20
442.59615999999988
 30
0.0
 42
0.10914194
  0
VERTEX
  5
97A
  8
0
  6
CONTINUOUS
 62
     7
 10
-395.83656000000002
 20
383.59314999999998
 30
0.0
 42
0.081985219
  0
VERTEX
  5
97B
  8
0
  6
CONTINUOUS
 62
     7
 10
-373.72075999999998
 20
328.68184999999983
 30
0.0
  0
SEQEND
  5
97C
  8
0
 62
     7
  0
TEXT
  5
CBD
  8
0
  6
CONTINUOUS
 62
     0
 10
-248.54162805692621
 20
383.56735249124921
 30
0.0
 40
10.0
  1
VX01-240MF~VX01-600MF
  0
ENDSEC
  0
EOF
