  0
SECTION
  2
HEADER
  9
$ACADVER
  1
AC1009
  9
$INSBASE
 10
0.0
 20
0.0
 30
0.0
  9
$EXTMIN
 10
-771.36311685420628
 20
48.060391694113378
 30
-0.0000000349181948
  9
$EXTMAX
 10
6.7646719941299116
 20
614.87563767532038
 30
0.0000000814935747
  9
$LIMMIN
 10
0.0
 20
0.0
  9
$LIMMAX
 10
12.0
 20
9.0
  9
$ORTHOMODE
 70
     0
  9
$REGENMODE
 70
     1
  9
$FILLMODE
 70
     1
  9
$QTEXTMODE
 70
     0
  9
$MIRRTEXT
 70
     1
  9
$DRAGMODE
 70
     2
  9
$LTSCALE
 40
1.0
  9
$OSMODE
 70
   551
  9
$ATTMODE
 70
     1
  9
$TEXTSIZE
 40
0.2
  9
$TRACEWID
 40
0.05
  9
$TEXTSTYLE
  7
STANDARD
  9
$CLAYER
  8
0
  9
$CELTYPE
  6
CONTINUOUS
  9
$CECOLOR
 62
   256
  9
$DIMSCALE
 40
1.0
  9
$DIMASZ
 40
0.18
  9
$DIMEXO
 40
0.0625
  9
$DIMDLI
 40
0.38
  9
$DIMRND
 40
0.0
  9
$DIMDLE
 40
0.0
  9
$DIMEXE
 40
0.18
  9
$DIMTP
 40
0.0
  9
$DIMTM
 40
0.0
  9
$DIMTXT
 40
0.18
  9
$DIMCEN
 40
0.09
  9
$DIMTSZ
 40
0.0
  9
$DIMTOL
 70
     0
  9
$DIMLIM
 70
     0
  9
$DIMTIH
 70
     1
  9
$DIMTOH
 70
     1
  9
$DIMSE1
 70
     0
  9
$DIMSE2
 70
     0
  9
$DIMTAD
 70
     0
  9
$DIMZIN
 70
     0
  9
$DIMBLK
  1

  9
$DIMASO
 70
     1
  9
$DIMSHO
 70
     1
  9
$DIMPOST
  1

  9
$DIMAPOST
  1

  9
$DIMALT
 70
     0
  9
$DIMALTD
 70
     2
  9
$DIMALTF
 40
25.399999999999999
  9
$DIMLFAC
 40
1.0
  9
$DIMTOFL
 70
     0
  9
$DIMTVP
 40
0.0
  9
$DIMTIX
 70
     0
  9
$DIMSOXD
 70
     0
  9
$DIMSAH
 70
     0
  9
$DIMBLK1
  1

  9
$DIMBLK2
  1

  9
$DIMSTYLE
  2
STANDARD
  9
$DIMCLRD
 70
     0
  9
$DIMCLRE
 70
     0
  9
$DIMCLRT
 70
     0
  9
$DIMTFAC
 40
1.0
  9
$DIMGAP
 40
0.09
  9
$LUNITS
 70
     2
  9
$LUPREC
 70
     4
  9
$SKETCHINC
 40
0.1
  9
$FILLETRAD
 40
0.0
  9
$AUNITS
 70
     0
  9
$AUPREC
 70
     0
  9
$MENU
  1
.
  9
$ELEVATION
 40
0.0
  9
$PELEVATION
 40
0.0
  9
$THICKNESS
 40
0.0
  9
$LIMCHECK
 70
     0
  9
$BLIPMODE
 70
     0
  9
$CHAMFERA
 40
0.0
  9
$CHAMFERB
 40
0.0
  9
$SKPOLY
 70
     0
  9
$TDCREATE
 40
2452300.422772164
  9
$TDUPDATE
 40
2458540.645147176
  9
$TDINDWG
 40
0.0257651157
  9
$TDUSRTIMER
 40
0.0257651042
  9
$USRTIMER
 70
     1
  9
$ANGBASE
 50
0.0
  9
$ANGDIR
 70
     0
  9
$PDMODE
 70
     0
  9
$PDSIZE
 40
0.0
  9
$PLINEWID
 40
0.0
  9
$COORDS
 70
     1
  9
$SPLFRAME
 70
     0
  9
$SPLINETYPE
 70
     6
  9
$SPLINESEGS
 70
     8
  9
$ATTDIA
 70
     1
  9
$ATTREQ
 70
     1
  9
$HANDLING
 70
     1
  9
$HANDSEED
  5
BB0
  9
$SURFTAB1
 70
     6
  9
$SURFTAB2
 70
     6
  9
$SURFTYPE
 70
     6
  9
$SURFU
 70
     6
  9
$SURFV
 70
     6
  9
$UCSNAME
  2

  9
$UCSORG
 10
0.0
 20
0.0
 30
0.0
  9
$UCSXDIR
 10
1.0
 20
0.0
 30
0.0
  9
$UCSYDIR
 10
0.0
 20
1.0
 30
0.0
  9
$PUCSNAME
  2

  9
$PUCSORG
 10
0.0
 20
0.0
 30
0.0
  9
$PUCSXDIR
 10
1.0
 20
0.0
 30
0.0
  9
$PUCSYDIR
 10
0.0
 20
1.0
 30
0.0
  9
$USERI1
 70
     0
  9
$USERI2
 70
     0
  9
$USERI3
 70
     0
  9
$USERI4
 70
     0
  9
$USERI5
 70
     0
  9
$USERR1
 40
0.0
  9
$USERR2
 40
0.0
  9
$USERR3
 40
0.0
  9
$USERR4
 40
0.0
  9
$USERR5
 40
0.0
  9
$WORLDVIEW
 70
     1
  9
$SHADEDGE
 70
     3
  9
$SHADEDIF
 70
    70
  9
$TILEMODE
 70
     1
  9
$MAXACTVP
 70
    64
  9
$PLIMCHECK
 70
     0
  9
$PEXTMIN
 10
1.0000000000000000E+020
 20
1.0000000000000000E+020
 30
1.0000000000000000E+020
  9
$PEXTMAX
 10
-1.0000000000000000E+020
 20
-1.0000000000000000E+020
 30
-1.0000000000000000E+020
  9
$PLIMMIN
 10
0.0
 20
0.0
  9
$PLIMMAX
 10
12.0
 20
9.0
  9
$UNITMODE
 70
     0
  9
$VISRETAIN
 70
     1
  9
$PLINEGEN
 70
     0
  9
$PSLTSCALE
 70
     1
  0
ENDSEC
  0
SECTION
  2
TABLES
  0
TABLE
  2
VPORT
 70
     1
  0
VPORT
  2
*ACTIVE
 70
     0
 10
0.0
 20
0.0
 11
1.0
 21
1.0
 12
-382.29922243003818
 22
331.46801468471688
 13
0.0
 23
0.0
 14
1.0
 24
1.0
 15
0.0
 25
0.0
 16
0.0
 26
0.0
 36
1.0
 17
0.0
 27
0.0
 37
0.0
 40
570.70642615956763
 41
1.7571592210767459
 42
50.0
 43
0.0
 44
0.0
 50
0.0
 51
0.0
 71
     0
 72
   100
 73
     1
 74
     1
 75
     0
 76
     0
 77
     0
 78
     0
  0
ENDTAB
  0
TABLE
  2
LTYPE
 70
    23
  0
LTYPE
  2
CONTINUOUS
 70
     0
  3
Solid line
 72
    65
 73
     0
 40
0.0
  0
LTYPE
  2
DASHED
 70
     0
  3
__ __ __ __ __ __ __ __ __ __ __ __ __ __ __
 72
    65
 73
     2
 40
3.5
 49
2.0
 49
-1.5
  0
LTYPE
  2
CENTER
 70
     0
  3
____ _ ____ _ ____ _ ____ _ ____ _ ____ _ ____
 72
    65
 73
     4
 40
17.5
 49
13.0
 49
-1.5
 49
1.5
 49
-1.5
  0
LTYPE
  2
PHANTOM
 70
     0
  3
_____ _ _ _____ _ _ _____ _ _ _____ _ _ ____  
 72
    65
 73
     6
 40
15.5
 49
8.0
 49
-1.5
 49
1.5
 49
-1.5
 49
1.5
 49
-1.5
  0
LTYPE
  2
DOT
 70
     0
  3
. . . . . . . . . . . . . . . . . . . . . . . .
 72
    65
 73
     2
 40
0.25
 49
0.0
 49
-0.25
  0
LTYPE
  2
AM_ISO02W050
 70
     0
  3
__ __ __ __ __ __ __ __ __ __ __ __ __ __ __
 72
    65
 73
     2
 40
7.5
 49
6.0
 49
-1.5
  0
LTYPE
  2
AM_ISO08W050
 70
     0
  3
____ . ____ . ____ . ____ . ____ . ____ . ____
 72
    65
 73
     4
 40
18.0
 49
12.0
 49
-1.5
 49
3.0
 49
-1.5
  0
LTYPE
  2
AM_ISO09W050
 70
     0
  3
_____ . . _____ . . _____ . . ____ .. ____
 72
    65
 73
     6
 40
22.5
 49
12.0
 49
-1.5
 49
3.0
 49
-1.5
 49
3.0
 49
-1.5
  0
LTYPE
  2
AMCONSTR
 70
     0
  3
_______________________
 72
    65
 73
     2
 40
9999.0
 49
9999.0
 49
0.0
  0
LTYPE
  2
AM_ISO08W050X2
 70
     0
  3
__ . __ . __ . __ . __ . __
 72
    65
 73
     4
 40
9.0
 49
6.0
 49
-0.75
 49
1.5
 49
-0.75
  0
LTYPE
  2
AM_ISO02W050X2
 70
     0
  3
 _ _ _ _ _ _ _ _ _ _ _ _
 72
    65
 73
     2
 40
3.75
 49
3.0
 49
-0.75
  0
LTYPE
  2
AMZIGZAG
 70
     0
  3
/\/-/\/-/\/-/\/-/\/-/\/
 72
    65
 73
     2
 40
11.000099999999991
 49
0.0001
 49
-11.0
  0
LTYPE
  2
HIDDEN
 70
     0
  3
Hidden __ __ __ __ __ __ __ __ __ __ __ __ __ _
 72
    65
 73
     2
 40
0.375
 49
0.25
 49
-0.125
  0
LTYPE
  2
PHANTOM2
 70
     0
  3
Phantom (.5x) ___ _ _ ___ _ _ ___ _ _ ___ _ _
 72
    65
 73
     6
 40
1.25
 49
0.625
 49
-0.125
 49
0.125
 49
-0.125
 49
0.125
 49
-0.125
  0
LTYPE
  2
CENTER2
 70
     0
  3
Center (.5x) ___ _ ___ _ ___ _ ___ _ ___ _ ___
 72
    65
 73
     4
 40
1.125
 49
0.75
 49
-0.125
 49
0.125
 49
-0.125
  0
LTYPE
  2
HIDDEN2
 70
     0
  3
Hidden (.5x) _ _ _ _ _ _ _ _ _ _ _ _ _ _ _ _ _
 72
    65
 73
     2
 40
0.1875
 49
0.125
 49
-0.0625
  0
LTYPE
  2
AMZIGZAG2
 70
     0
  3
/\/-/\/-/\/-/\/-/\/-/\/
 72
    65
 73
     2
 40
0.4401
 49
0.0001
 49
-0.4400000000000003
  0
LTYPE
  2
ACANSTGB
 70
     0
  3
__ . . __ . .
 72
    65
 73
     6
 40
0.35433070866
 49
0.15748031496
 49
-0.03937007874
 49
0.03937007874
 49
-0.03937007874
 49
0.03937007874
 49
-0.03937007874
  0
LTYPE
  2
ACANSTGL
 70
     0
  3
_ _ _ _ _
 72
    65
 73
     2
 40
0.11811023622
 49
0.07874015748
 49
-0.03937007874
  0
LTYPE
  2
ACISOWELD
 70
     0
  3
_ _ _ _ _
 72
    65
 73
     2
 40
2.0
 49
2.0
 49
-1.0
  0
LTYPE
  2
ACISOTGB
 70
     0
  3
__ . . __ . .
 72
    65
 73
     6
 40
9.0
 49
4.0
 49
-1.0
 49
1.0
 49
-1.0
 49
1.0
 49
-1.0
  0
LTYPE
  2
ACISOTGL
 70
     0
  3
_ _ _ _ _
 72
    65
 73
     2
 40
3.0
 49
2.0
 49
-1.0
  0
ENDTAB
  0
TABLE
  2
LAYER
 70
     1
  0
LAYER
  2
0
 70
     0
 62
     7
  6
CONTINUOUS
  0
ENDTAB
  0
TABLE
  2
STYLE
 70
     6
  0
STYLE
  2
STANDARD
 70
     0
 40
0.0
 41
1.0
 50
0.0
 71
     0
 42
0.2
  3
txt
  4

  0
STYLE
  2
ANNOTATIVE
 70
     0
 40
0.0
 41
1.0
 50
0.0
 71
     0
 42
0.2
  3
txt
  4

  0
STYLE
  2

 70
     1
 40
0.0
 41
1.0
 50
0.0
 71
     0
 42
0.2
  3
ltypeshp.shx
  4

  0
STYLE
  2
ACANSTS
 70
     0
 40
1.0
 41
1.0
 50
0.0
 71
     0
 42
0.2
  3
romans.shx
  4
extfont.shx
  0
STYLE
  2
ACANSGDT
 70
     0
 40
0.0
 41
1.0
 50
0.0
 71
     0
 42
0.2
  3
amgdt.shx
  4

  0
STYLE
  2
ACISOGDT
 70
     0
 40
0.0
 41
1.0
 50
0.0
 71
     0
 42
2.5
  3
amgdt.shx
  4

  0
ENDTAB
  0
TABLE
  2
VIEW
 70
     0
  0
ENDTAB
  0
TABLE
  2
UCS
 70
     0
  0
ENDTAB
  0
TABLE
  2
APPID
 70
    12
  0
APPID
  2
ACAD
 70
     0
  0
APPID
  2
ACADANNOTATIVE
 70
     0
  0
APPID
  2
MCAD_NO_VIS
 70
     0
  0
APPID
  2
ACAD_TEMP_GRAPHIC
 70
     0
  0
APPID
  2
ACATTRIBSERVICES
 70
     0
  0
APPID
  2
DESIGNERASSEMBLIES
 70
     0
  0
APPID
  2
ACAD_DSTYLE_DIMBREAK
 70
     0
  0
APPID
  2
ACAD_DSTYLE_DIMJAG
 70
     0
  0
APPID
  2
ACAD_NAV_VCDISPLAY
 70
     0
  0
APPID
  2
ACAD_PSEXT
 70
     0
  0
APPID
  2
ACAD_EXEMPT_FROM_CAD_STANDARDS
 70
     0
  0
APPID
  2
ACAD_MLEADERVER
 70
     0
  0
ENDTAB
  0
TABLE
  2
DIMSTYLE
 70
    16
  0
DIMSTYLE
  2
STANDARD
 70
     0
  3

  4

  5

  6

  7

 40
1.0
 41
0.18
 42
0.0625
 43
0.38
 44
0.18
 45
0.0
 46
0.0
 47
0.0
 48
0.0
140
0.18
141
0.09
142
0.0
143
25.399999999999999
144
1.0
145
0.0
146
1.0
147
0.09
 71
     0
 72
     0
 73
     1
 74
     1
 75
     0
 76
     0
 77
     0
 78
     0
170
     0
171
     2
172
     0
173
     0
174
     0
175
     0
176
     0
177
     0
178
     0
  0
DIMSTYLE
  2
ANNOTATIVE
 70
     0
  3

  4

  5

  6

  7

 40
1.0
 41
0.18
 42
0.0625
 43
0.38
 44
0.18
 45
0.0
 46
0.0
 47
0.0
 48
0.0
140
0.18
141
0.09
142
0.0
143
25.399999999999999
144
1.0
145
0.0
146
1.0
147
0.09
 71
     0
 72
     0
 73
     1
 74
     1
 75
     0
 76
     0
 77
     0
 78
     0
170
     0
171
     2
172
     0
173
     0
174
     0
175
     0
176
     0
177
     0
178
     0
  0
DIMSTYLE
  2
AM_ANSI
 70
     0
  3

  4
mm
  5

  6

  7

 40
1.0
 41
0.1
 42
0.05
 43
0.5
 44
0.1
 45
0.0
 46
0.0
 47
0.1
 48
0.1
140
0.12
141
0.0
142
0.0
143
25.399999999999999
144
1.0
145
0.0
146
0.71
147
0.06
 71
     0
 72
     0
 73
     1
 74
     1
 75
     0
 76
     0
 77
     0
 78
     7
170
     0
171
     2
172
     0
173
     0
174
     0
175
     0
176
   256
177
   256
178
     2
  0
DIMSTYLE
  2
AM_ANSI$3
 70
     0
  3

  4
mm
  5

  6

  7

 40
1.0
 41
0.1
 42
0.05
 43
0.5
 44
0.1
 45
0.0
 46
0.0
 47
0.1
 48
0.1
140
0.12
141
0.0
142
0.0
143
25.399999999999999
144
1.0
145
0.0
146
0.71
147
0.06
 71
     0
 72
     0
 73
     1
 74
     1
 75
     0
 76
     0
 77
     0
 78
     7
170
     0
171
     2
172
     0
173
     0
174
     0
175
     0
176
   256
177
   256
178
     2
  0
DIMSTYLE
  2
AM_ANSI$4
 70
     0
  3

  4
mm
  5

  6

  7

 40
1.0
 41
0.1
 42
0.05
 43
0.5
 44
0.1
 45
0.0
 46
0.0
 47
0.1
 48
0.1
140
0.12
141
0.0
142
0.0
143
25.399999999999999
144
1.0
145
0.0
146
0.71
147
0.06
 71
     0
 72
     0
 73
     1
 74
     1
 75
     0
 76
     0
 77
     0
 78
     7
170
     0
171
     2
172
     0
173
     0
174
     0
175
     0
176
   256
177
   256
178
     2
  0
DIMSTYLE
  2
AM_ANSI$7
 70
     0
  3

  4
mm
  5

  6

  7

 40
1.0
 41
0.1
 42
0.05
 43
0.5
 44
0.1
 45
0.0
 46
0.0
 47
0.1
 48
0.1
140
0.24
141
0.0
142
0.0
143
25.399999999999999
144
1.0
145
0.0
146
0.71
147
0.06
 71
     0
 72
     0
 73
     1
 74
     1
 75
     0
 76
     0
 77
     0
 78
     7
170
     0
171
     2
172
     0
173
     0
174
     0
175
     0
176
   256
177
   256
178
     2
  0
DIMSTYLE
  2
AM_ANSI$SF
 70
     0
  3

  4
mm
  5

  6

  7

 40
1.0
 41
0.1
 42
0.05
 43
0.5
 44
0.1
 45
0.0
 46
0.0
 47
0.1
 48
0.1
140
0.12
141
0.0
142
0.0
143
25.399999999999999
144
1.0
145
0.0
146
0.71
147
0.06
 71
     0
 72
     0
 73
     1
 74
     1
 75
     1
 76
     1
 77
     0
 78
     7
170
     0
171
     2
172
     0
173
     0
174
     0
175
     0
176
   256
177
   256
178
     2
  0
DIMSTYLE
  2
AM_ANSI$SH
 70
     0
  3

  4
mm
  5

  6

  7

 40
1.0
 41
0.1
 42
0.05
 43
0.5
 44
0.1
 45
0.0
 46
0.0
 47
0.1
 48
0.1
140
0.12
141
0.0
142
0.0
143
25.399999999999999
144
1.0
145
0.0
146
0.71
147
0.06
 71
     0
 72
     0
 73
     1
 74
     1
 75
     1
 76
     1
 77
     0
 78
     7
170
     0
171
     2
172
     0
173
     1
174
     0
175
     0
176
   256
177
   256
178
     2
  0
DIMSTYLE
  2
AM_ISO
 70
     0
  3

  4
"
  5

  6

  7

 40
1.0
 41
2.5
 42
1.0
 43
10.0
 44
1.0
 45
0.0
 46
0.0
 47
0.1
 48
0.1
140
3.5
141
0.0
142
0.0
143
0.0393701
144
1.0
145
0.0
146
0.71
147
1.5
 71
     0
 72
     0
 73
     0
 74
     0
 75
     0
 76
     0
 77
     1
 78
     8
170
     0
171
     2
172
     1
173
     0
174
     0
175
     0
176
   256
177
   256
178
     2
  0
DIMSTYLE
  2
AM_ISO$3
 70
     0
  3

  4
"
  5

  6

  7

 40
1.0
 41
2.5
 42
1.0
 43
10.0
 44
1.0
 45
0.0
 46
0.0
 47
0.1
 48
0.1
140
3.5
141
0.0
142
0.0
143
0.0393701
144
1.0
145
0.0
146
0.71
147
1.5
 71
     0
 72
     0
 73
     0
 74
     1
 75
     0
 76
     0
 77
     1
 78
     8
170
     0
171
     2
172
     0
173
     0
174
     0
175
     0
176
   256
177
   256
178
     2
  0
DIMSTYLE
  2
AM_ISO$4
 70
     0
  3

  4
"
  5

  6

  7

 40
1.0
 41
2.5
 42
1.0
 43
10.0
 44
1.0
 45
0.0
 46
0.0
 47
0.1
 48
0.1
140
3.5
141
0.0
142
0.0
143
0.0393701
144
1.0
145
0.0
146
0.71
147
1.5
 71
     0
 72
     0
 73
     0
 74
     1
 75
     0
 76
     0
 77
     1
 78
     8
170
     0
171
     2
172
     0
173
     0
174
     0
175
     0
176
   256
177
   256
178
     2
  0
DIMSTYLE
  2
AM_ISO$6
 70
     0
  3

  4
"
  5

  6

  7

 40
1.0
 41
2.5
 42
1.0
 43
10.0
 44
1.0
 45
0.0
 46
0.0
 47
0.1
 48
0.1
140
3.5
141
0.0
142
0.0
143
0.0393701
144
1.0
145
0.0
146
0.71
147
1.5
 71
     0
 72
     0
 73
     0
 74
     0
 75
     0
 76
     0
 77
     0
 78
     8
170
     0
171
     2
172
     1
173
     0
174
     0
175
     0
176
   256
177
   256
178
     2
  0
DIMSTYLE
  2
AM_ISO$7
 70
     0
  3

  4
"
  5

  6

  7

 40
1.0
 41
2.5
 42
1.0
 43
10.0
 44
1.0
 45
0.0
 46
0.0
 47
0.1
 48
0.1
140
5.0
141
0.0
142
0.0
143
0.0393701
144
1.0
145
0.0
146
0.71
147
1.5
 71
     0
 72
     0
 73
     0
 74
     0
 75
     0
 76
     0
 77
     1
 78
     8
170
     0
171
     2
172
     1
173
     0
174
     0
175
     0
176
   256
177
   256
178
     2
  0
DIMSTYLE
  2
AM_ISO$SF
 70
     0
  3

  4
"
  5

  6

  7

 40
1.0
 41
2.5
 42
1.0
 43
10.0
 44
1.0
 45
0.0
 46
0.0
 47
0.1
 48
0.1
140
3.5
141
0.0
142
0.0
143
0.0393701
144
1.0
145
0.0
146
0.71
147
1.5
 71
     0
 72
     0
 73
     0
 74
     0
 75
     1
 76
     1
 77
     1
 78
     8
170
     0
171
     2
172
     1
173
     0
174
     0
175
     0
176
   256
177
   256
178
     2
  0
DIMSTYLE
  2
AM_ISO$SH
 70
     0
  3

  4
"
  5

  6
GENAXEH
  7

 40
1.0
 41
2.5
 42
1.0
 43
10.0
 44
1.0
 45
0.0
 46
0.0
 47
0.1
 48
0.1
140
3.5
141
0.0
142
0.0
143
0.0393701
144
2.0
145
0.0
146
0.71
147
1.5
 71
     0
 72
     0
 73
     0
 74
     0
 75
     1
 76
     1
 77
     1
 78
     8
170
     0
171
     2
172
     1
173
     1
174
     0
175
     0
176
   256
177
   256
178
     2
  0
DIMSTYLE
  2
AM_JIS
 70
     0
  3

  4
"
  5

  6

  7

 40
1.0
 41
2.0
 42
1.0
 43
8.0
 44
1.0
 45
0.0
 46
0.0
 47
0.1
 48
0.1
140
2.5
141
0.0
142
0.0
143
0.0393701
144
1.0
145
0.0
146
0.71
147
1.5
 71
     0
 72
     0
 73
     0
 74
     0
 75
     0
 76
     0
 77
     3
 78
     8
170
     0
171
     2
172
     1
173
     0
174
     0
175
     0
176
     2
177
     2
178
     4
  0
ENDTAB
  0
ENDSEC
  0
SECTION
  2
BLOCKS
  0
BLOCK
  8
0
  2
$MODEL_SPACE
 70
     0
 10
0.0
 20
0.0
 30
0.0
  3
$MODEL_SPACE
  1

  0
ENDBLK
  5
A56
  8
0
  0
BLOCK
 67
     1
  8
0
  2
$PAPER_SPACE
 70
     0
 10
0.0
 20
0.0
 30
0.0
  3
$PAPER_SPACE
  1

  0
ENDBLK
  5
A52
 67
     1
  8
0
  0
BLOCK
  8
0
  2
GENAXEH
 70
     0
 10
0.0
 20
0.0
 30
0.0
  3
GENAXEH
  1

  0
LINE
  5
53F
  8
0
 10
-1.0
 20
0.0
 30
0.0
 11
1.0
 21
0.0
 31
0.0
  0
ENDBLK
  5
540
  8
0
  0
BLOCK
  8
0
  2
_ACMFILLEDHALF
 70
     0
 10
0.0
 20
0.0
 30
0.0
  3
_ACMFILLEDHALF
  1

  0
TRACE
  5
ACF
  8
0
  6
CONTINUOUS
 62
     0
 10
-0.8
 20
0.0
 30
0.0
 11
-1.0
 21
0.166666666
 31
0.0
 12
0.0
 22
0.0
 32
0.0
 13
0.0
 23
0.0
 33
0.0
  0
LINE
  5
AD0
  8
0
  6
CONTINUOUS
 62
     0
 10
-1.0
 20
0.0
 30
0.0
 11
-0.8
 21
0.0
 31
0.0
  0
ENDBLK
  5
ACE
  8
0
  0
BLOCK
  8
0
  2
*U7
 70
     1
 10
0.0
 20
0.0
 30
0.0
  3
*U7
  1

  0
TEXT
  5
BAC
  8
0
  6
CONTINUOUS
 62
     0
 10
5.0768189741019834
 20
5.9826223594979657
 30
0.0
 40
15.0
  1
ＶＸ０８－００３ＥＭ～ＶＸ０８
  0
TEXT
  5
BAD
  8
0
  6
CONTINUOUS
 62
     0
 10
2.17909170137471
 20
-19.18783218595658
 30
0.0
 40
15.0
  1
－０３０ＥＭ
  0
ENDBLK
  5
BAF
  8
0
  0
ENDSEC
  0
SECTION
  2
ENTITIES
  0
LINE
  5
541
  8
0
  6
CENTER
 62
     7
 10
-771.31530999999984
 20
497.36660999999992
 30
0.0
 11
-344.97030999999993
 21
497.36660999999992
 31
0.0
  0
LINE
  5
542
  8
0
  6
CENTER
 62
     1
 10
-145.2809399999999
 20
48.097552999999991
 30
0.0
 11
-145.2809399999999
 21
306.54651000000001
 31
0.0
  0
LINE
  5
543
  8
0
  6
CONTINUOUS
 62
     7
 10
-527.88317999999981
 20
397.86660999999992
 30
0.0
 11
-527.88317999999981
 21
596.86658
 31
0.0
  0
LINE
  5
544
  8
0
  6
CONTINUOUS
 62
     7
 10
-565.38317999999981
 20
549.40661999999986
 30
0.0
 11
-552.88317999999981
 21
549.40661999999986
 31
0.0
  0
LINE
  5
545
  8
0
  6
CONTINUOUS
 62
     7
 10
-565.38317999999981
 20
534.51660000000004
 30
0.0
 11
-552.88317999999981
 21
534.51660000000004
 31
0.0
  0
LINE
  5
546
  8
0
  6
CONTINUOUS
 62
     7
 10
-552.88317999999981
 20
425.43768
 30
0.0
 11
-552.88317999999981
 21
569.29552999999999
 31
0.0
  0
LINE
  5
547
  8
0
  6
CONTINUOUS
 62
     7
 10
-537.88317999999992
 20
400.14722
 30
0.0
 11
-537.88317999999992
 21
594.58600000000001
 31
0.0
  0
LINE
  5
548
  8
0
  6
CONTINUOUS
 62
     7
 10
-565.38317999999981
 20
460.21660999999989
 30
0.0
 11
-552.88317999999981
 21
460.21660999999989
 31
0.0
  0
LINE
  5
549
  8
0
  6
CONTINUOUS
 62
     7
 10
-565.38317999999981
 20
445.32659999999998
 30
0.0
 11
-552.88317999999981
 21
445.32659999999998
 31
0.0
  0
LINE
  5
54A
  8
0
  6
CONTINUOUS
 62
     7
 10
-565.38317999999981
 20
560.86663999999985
 30
0.0
 11
-557.70867999999996
 21
561.13458000000003
 31
0.0
  0
LINE
  5
54B
  8
0
  6
CONTINUOUS
 62
     7
 10
-551.41869999999994
 20
421.90215999999992
 30
0.0
 11
-538.76184000000001
 21
409.24529999999987
 31
0.0
  0
LINE
  5
54C
  8
0
  6
CONTINUOUS
 62
     7
 10
-535.95294000000001
 20
596.58478000000002
 30
0.0
 11
-527.88317999999981
 21
596.86658
 31
0.0
  0
LINE
  5
54D
  8
0
  6
CONTINUOUS
 62
     7
 10
-551.41869999999994
 20
572.83105
 30
0.0
 11
-538.76184000000001
 21
585.48792000000003
 31
0.0
  0
LINE
  5
54E
  8
0
  6
CONTINUOUS
 62
     7
 10
-565.38317999999981
 20
560.86657999999977
 30
0.0
 11
-565.38317999999981
 21
433.86655000000002
 31
0.0
  0
LINE
  5
54F
  8
0
  6
CONTINUOUS
 62
     7
 10
-565.38311999999985
 20
433.86655000000002
 30
0.0
 11
-557.70867999999996
 21
433.59859999999998
 31
0.0
  0
LINE
  5
550
  8
0
  6
CONTINUOUS
 62
     7
 10
-535.95299999999986
 20
398.14841000000001
 30
0.0
 11
-527.88317999999981
 21
397.86660999999992
 31
0.0
  0
LINE
  5
551
  8
0
  6
CENTER
 62
     7
 10
-271.46185000000003
 20
181.5479399999999
 30
0.0
 11
-21.497326000000001
 21
181.5479399999999
 31
0.0
  0
LINE
  5
552
  8
0
  6
CONTINUOUS
 62
     3
 10
-662.90319999999986
 20
530.72655999999995
 30
0.0
 11
-645.06322999999975
 21
530.72655999999995
 31
0.0
  0
LINE
  5
553
  8
0
  6
CONTINUOUS
 62
     7
 10
-648.53612999999996
 20
523.36657999999977
 30
0.0
 11
-662.88317999999981
 21
523.36657999999977
 31
0.0
  0
LINE
  5
554
  8
0
  6
CONTINUOUS
 62
     7
 10
-648.55042000000003
 20
471.36660999999998
 30
0.0
 11
-662.88317999999981
 21
471.36660999999998
 31
0.0
  0
LINE
  5
555
  8
0
  6
CONTINUOUS
 62
     7
 10
-679.38317999999981
 20
469.86660999999992
 30
0.0
 11
-679.38317999999981
 21
464.86660999999981
 31
0.0
  0
LINE
  5
556
  8
0
  6
CONTINUOUS
 62
     7
 10
-664.38317999999981
 20
469.86660999999992
 30
0.0
 11
-664.38317999999981
 21
464.86660999999981
 31
0.0
  0
LINE
  5
557
  8
0
  6
CONTINUOUS
 62
     7
 10
-679.86315999999999
 20
469.86660999999992
 30
0.0
 11
-679.86315999999999
 21
465.00662
 31
0.0
  0
LINE
  5
558
  8
0
  6
CONTINUOUS
 62
     7
 10
-663.90319999999997
 20
469.86660999999992
 30
0.0
 11
-663.90319999999997
 21
465.00662
 31
0.0
  0
LINE
  5
559
  8
0
  6
CONTINUOUS
 62
     7
 10
-662.88317999999981
 20
470.88662999999991
 30
0.0
 11
-644.84900000000005
 21
470.88662999999991
 31
0.0
  0
LINE
  5
55A
  8
0
  6
CONTINUOUS
 62
     7
 10
-662.88317999999981
 20
523.85657000000003
 30
0.0
 11
-644.83752000000004
 21
523.85657000000003
 31
0.0
  0
LINE
  5
55B
  8
0
  6
CONTINUOUS
 62
     3
 10
-707.8831799999997
 20
517.86658
 30
0.0
 11
-707.8831799999997
 21
476.86660999999992
 31
0.0
  0
LINE
  5
55C
  8
0
  6
CONTINUOUS
 62
     3
 10
-644.88317999999981
 20
517.86658
 30
0.0
 11
-644.88317999999981
 21
476.86660999999992
 31
0.0
  0
LINE
  5
55D
  8
0
  6
CONTINUOUS
 62
     7
 10
-707.8831799999997
 20
517.86658
 30
0.0
 11
-644.88317999999981
 21
517.86658
 31
0.0
  0
LINE
  5
55E
  8
0
  6
CONTINUOUS
 62
     7
 10
-707.8831799999997
 20
476.86660999999992
 30
0.0
 11
-644.88317999999981
 21
476.86660999999992
 31
0.0
  0
LINE
  5
55F
  8
0
  6
CONTINUOUS
 62
     7
 10
-707.8831799999997
 20
510.36660999999981
 30
0.0
 11
-644.88317999999981
 21
510.36660999999981
 31
0.0
  0
LINE
  5
560
  8
0
  6
CONTINUOUS
 62
     7
 10
-679.38317999999981
 20
524.86658
 30
0.0
 11
-679.38317999999981
 21
529.86658
 31
0.0
  0
LINE
  5
561
  8
0
  6
CONTINUOUS
 62
     7
 10
-664.38317999999981
 20
524.86658
 30
0.0
 11
-664.38317999999981
 21
529.86658
 31
0.0
  0
LINE
  5
562
  8
0
  6
CONTINUOUS
 62
     7
 10
-679.86315999999999
 20
524.86658
 30
0.0
 11
-679.86315999999999
 21
529.72655999999995
 31
0.0
  0
LINE
  5
563
  8
0
  6
CONTINUOUS
 62
     7
 10
-663.90319999999997
 20
524.86658
 30
0.0
 11
-663.90319999999997
 21
529.72655999999995
 31
0.0
  0
LINE
  5
564
  8
0
  6
CONTINUOUS
 62
     7
 10
-661.36963000000003
 20
434.86660999999992
 30
0.0
 11
-649.8670699999999
 21
434.86660999999992
 31
0.0
  0
LINE
  5
565
  8
0
  6
CONTINUOUS
 62
     7
 10
-662.88317999999981
 20
432.86660999999992
 30
0.0
 11
-722.88317999999981
 21
432.86660999999992
 31
0.0
  0
LINE
  5
566
  8
0
  6
CONTINUOUS
 62
     3
 10
-642.88317999999981
 20
444.36660999999992
 30
0.0
 11
-648.60895000000016
 21
435.54971
 31
0.0
  0
LINE
  5
567
  8
0
  6
CONTINUOUS
 62
     3
 10
-662.88317999999981
 20
432.86658
 30
0.0
 11
-662.66791000000001
 21
441.08667000000003
 31
0.0
  0
LINE
  5
568
  8
0
  6
CONTINUOUS
 62
     3
 10
-722.88323999999989
 20
432.86658
 30
0.0
 11
-723.09844999999984
 21
441.08663999999987
 31
0.0
  0
LINE
  5
569
  8
0
  6
CONTINUOUS
 62
     7
 10
-641.88317999999981
 20
465.42666999999989
 30
0.0
 11
-633.88317999999981
 21
465.42666999999989
 31
0.0
  0
LINE
  5
56A
  8
0
  6
CONTINUOUS
 62
     7
 10
-647.34118999999998
 20
444.36660999999992
 30
0.0
 11
-641.88317999999981
 21
444.36660999999992
 31
0.0
  0
LINE
  5
56B
  8
0
  6
CONTINUOUS
 62
     7
 10
-643.67742999999984
 20
458.04775999999998
 30
0.0
 11
-647.82317999999975
 21
442.56662
 31
0.0
  0
LINE
  5
56C
  8
0
  6
CONTINUOUS
 62
     7
 10
-749.88317999999958
 20
446.58663999999999
 30
0.0
 11
-748.95770000000005
 21
439.96001999999999
 31
0.0
  0
LINE
  5
56D
  8
0
  6
CONTINUOUS
 62
     7
 10
-749.88324
 20
446.58663999999999
 30
0.0
 11
-748.87396000000001
 21
439.93649000000011
 31
0.0
  0
LINE
  5
56E
  8
0
  6
CONTINUOUS
 62
     7
 10
-749.88317999999958
 20
447.92657000000003
 30
0.0
 11
-748.60315000000003
 21
439.92667
 31
0.0
  0
LINE
  5
56F
  8
0
  6
CONTINUOUS
 62
     7
 10
-746.97692999999981
 20
438.23660000000001
 30
0.0
 11
-724.48510999999985
 21
438.23660000000001
 31
0.0
  0
LINE
  5
570
  8
0
  6
CONTINUOUS
 62
     7
 10
-749.88317999999958
 20
449.27657999999991
 30
0.0
 11
-748.64319
 21
442.71660999999989
 31
0.0
  0
LINE
  5
571
  8
0
  6
CONTINUOUS
 62
     7
 10
-746.67322000000001
 20
441.0865799999998
 30
0.0
 11
-649.75316999999995
 21
441.0865799999998
 31
0.0
  0
LINE
  5
572
  8
0
  6
CONTINUOUS
 62
     7
 10
-641.88317999999981
 20
441.36660999999992
 30
0.0
 11
-633.88317999999981
 21
441.36660999999992
 31
0.0
  0
LINE
  5
573
  8
0
  6
CONTINUOUS
 62
     7
 10
-641.88317999999981
 20
451.36660999999998
 30
0.0
 11
-633.88317999999981
 21
451.36660999999998
 31
0.0
  0
LINE
  5
574
  8
0
  6
CONTINUOUS
 62
     7
 10
-757.18322999999964
 20
454.17667
 30
0.0
 11
-750.95325000000003
 21
454.17667
 31
0.0
  0
LINE
  5
575
  8
0
  6
CONTINUOUS
 62
     7
 10
-757.8831799999997
 20
444.36660999999992
 30
0.0
 11
-749.88317999999958
 21
444.36660999999992
 31
0.0
  0
LINE
  5
576
  8
0
  6
CONTINUOUS
 62
     7
 10
-758.88317999999981
 20
447.36660999999992
 30
0.0
 11
-757.8831799999997
 21
447.36660999999992
 31
0.0
  0
LINE
  5
577
  8
0
  6
CONTINUOUS
 62
     7
 10
-761.8831799999997
 20
447.86660999999981
 30
0.0
 11
-761.8831799999997
 21
448.39663999999988
 31
0.0
  0
LINE
  5
578
  8
0
  6
CONTINUOUS
 62
     7
 10
-761.8831799999997
 20
449.96657999999979
 30
0.0
 11
-761.8831799999997
 21
450.51662999999991
 31
0.0
  0
LINE
  5
579
  8
0
  6
CONTINUOUS
 62
     7
 10
-761.8831799999997
 20
454.53665000000001
 30
0.0
 11
-761.8831799999997
 21
455.00661999999988
 31
0.0
  0
LINE
  5
57A
  8
0
  6
CONTINUOUS
 62
     7
 10
-762.10320999999988
 20
450.9865699999998
 30
0.0
 11
-763.35326999999984
 21
451.64660999999973
 31
0.0
  0
LINE
  5
57B
  8
0
  6
CONTINUOUS
 62
     7
 10
-762.09320000000002
 20
448.87659000000002
 30
0.0
 11
-763.33318999999983
 21
449.50659000000002
 31
0.0
  0
LINE
  5
57C
  8
0
  6
CONTINUOUS
 62
     7
 10
-762.11321999999984
 20
455.51662999999979
 30
0.0
 11
-763.39319
 21
456.26663000000002
 31
0.0
  0
LINE
  5
57D
  8
0
  6
CONTINUOUS
 62
     7
 10
-761.64319
 20
448.76662999999979
 30
0.0
 11
-759.38317999999981
 21
448.76662999999979
 31
0.0
  0
LINE
  5
57E
  8
0
  6
CONTINUOUS
 62
     7
 10
-761.63317999999981
 20
450.86660999999998
 30
0.0
 11
-759.88317999999981
 21
450.86660999999998
 31
0.0
  0
LINE
  5
57F
  8
0
  6
CONTINUOUS
 62
     7
 10
-761.61328000000003
 20
455.38663000000003
 30
0.0
 11
-759.88317999999981
 21
455.38663000000003
 31
0.0
  0
LINE
  5
580
  8
0
  6
CONTINUOUS
 62
     7
 10
-761.58325000000002
 20
454.24660999999992
 30
0.0
 11
-758.88317999999981
 21
454.24660999999992
 31
0.0
  0
LINE
  5
581
  8
0
  6
CONTINUOUS
 62
     7
 10
-761.60326999999984
 20
449.72658999999999
 30
0.0
 11
-758.88317999999981
 21
449.72658999999999
 31
0.0
  0
LINE
  5
582
  8
0
  6
CONTINUOUS
 62
     7
 10
-762.13324
 20
454.40658999999988
 30
0.0
 11
-763.43322999999964
 21
455.25659000000002
 31
0.0
  0
LINE
  5
583
  8
0
  6
CONTINUOUS
 62
     7
 10
-762.12311
 20
449.86664000000002
 30
0.0
 11
-763.40314000000001
 21
450.6366299999998
 31
0.0
  0
LINE
  5
584
  8
0
  6
CONTINUOUS
 62
     7
 10
-762.11315999999999
 20
447.75653
 30
0.0
 11
-763.38317999999981
 21
448.48650999999973
 31
0.0
  0
LINE
  5
585
  8
0
  6
CONTINUOUS
 62
     7
 10
-761.61328000000003
 20
447.61660999999992
 30
0.0
 11
-759.38317999999981
 21
447.61660999999992
 31
0.0
  0
LINE
  5
586
  8
0
  6
CONTINUOUS
 62
     7
 10
-763.88317999999981
 20
449.34658999999999
 30
0.0
 11
-763.88317999999981
 21
492.36660999999998
 31
0.0
  0
LINE
  5
587
  8
0
  6
CONTINUOUS
 62
     7
 10
-647.34325999999965
 20
550.36658
 30
0.0
 11
-641.88317999999981
 21
550.36658
 31
0.0
  0
LINE
  5
588
  8
0
  6
CONTINUOUS
 62
     7
 10
-643.68316999999979
 20
536.70654000000002
 30
0.0
 11
-647.82317999999975
 21
552.16656
 31
0.0
  0
LINE
  5
589
  8
0
  6
CONTINUOUS
 62
     7
 10
-749.88317999999958
 20
548.15661999999986
 30
0.0
 11
-748.57317999999987
 21
557.53661999999986
 31
0.0
  0
LINE
  5
58A
  8
0
  6
CONTINUOUS
 62
     7
 10
-749.88324
 20
548.15661999999986
 30
0.0
 11
-748.59320000000002
 21
556.64666999999986
 31
0.0
  0
LINE
  5
58B
  8
0
  6
CONTINUOUS
 62
     7
 10
-749.88317999999958
 20
546.80664000000002
 30
0.0
 11
-748.60315000000003
 21
554.81658999999979
 31
0.0
  0
LINE
  5
58C
  8
0
  6
CONTINUOUS
 62
     7
 10
-746.59325999999999
 20
559.25659000000007
 30
0.0
 11
-649.75316999999995
 21
559.25659000000007
 31
0.0
  0
LINE
  5
58D
  8
0
  6
CONTINUOUS
 62
     7
 10
-746.61328000000003
 20
558.34655999999995
 30
0.0
 11
-649.75316999999995
 21
558.34655999999995
 31
0.0
  0
LINE
  5
58E
  8
0
  6
CONTINUOUS
 62
     7
 10
-746.63317999999981
 20
556.49657999999999
 30
0.0
 11
-649.75316999999995
 21
556.49657999999999
 31
0.0
  0
LINE
  5
58F
  8
0
  6
CONTINUOUS
 62
     7
 10
-744.52319
 20
460.71654999999993
 30
0.0
 11
-749.88317999999958
 21
449.27667000000002
 31
0.0
  0
LINE
  5
590
  8
0
  6
CONTINUOUS
 62
     7
 10
-744.52313000000004
 20
534.01660000000004
 30
0.0
 11
-749.88311999999985
 21
545.46654999999987
 31
0.0
  0
LINE
  5
591
  8
0
  6
CONTINUOUS
 62
     7
 10
-749.88317999999958
 20
545.46667000000002
 30
0.0
 11
-748.64319
 21
552.02666999999985
 31
0.0
  0
LINE
  5
592
  8
0
  6
CONTINUOUS
 62
     7
 10
-746.67322000000001
 20
553.64661000000001
 30
0.0
 11
-649.75316999999995
 21
553.64661000000001
 31
0.0
  0
LINE
  5
593
  8
0
  6
CONTINUOUS
 62
     7
 10
-641.88317999999981
 20
553.36658
 30
0.0
 11
-633.88317999999981
 21
553.36658
 31
0.0
  0
LINE
  5
594
  8
0
  6
CONTINUOUS
 62
     7
 10
-641.88317999999981
 20
529.30651999999998
 30
0.0
 11
-633.88317999999981
 21
529.30651999999998
 31
0.0
  0
LINE
  5
595
  8
0
  6
CONTINUOUS
 62
     7
 10
-641.88317999999981
 20
543.36657999999989
 30
0.0
 11
-633.88317999999981
 21
543.36657999999989
 31
0.0
  0
LINE
  5
596
  8
0
  6
CONTINUOUS
 62
     7
 10
-757.18322999999964
 20
540.55651999999986
 30
0.0
 11
-750.95325000000003
 21
540.55651999999986
 31
0.0
  0
LINE
  5
597
  8
0
  6
CONTINUOUS
 62
     7
 10
-757.8831799999997
 20
550.36658
 30
0.0
 11
-749.88317999999958
 21
550.36658
 31
0.0
  0
LINE
  5
598
  8
0
  6
CONTINUOUS
 62
     7
 10
-758.88317999999981
 20
547.36658
 30
0.0
 11
-757.8831799999997
 21
547.36658
 31
0.0
  0
LINE
  5
599
  8
0
  6
CONTINUOUS
 62
     7
 10
-758.88317999999981
 20
547.36658
 30
0.0
 11
-758.88317999999981
 21
447.36660999999992
 31
0.0
  0
LINE
  5
59A
  8
0
  6
CONTINUOUS
 62
     7
 10
-763.39330999999981
 20
456.26657
 30
0.0
 11
-763.41327000000001
 21
456.27654999999999
 31
0.0
  0
LINE
  5
59B
  8
0
  6
CONTINUOUS
 62
     7
 10
-749.88317999999958
 20
550.36658
 30
0.0
 11
-749.88317999999958
 21
444.36660999999992
 31
0.0
  0
LINE
  5
59C
  8
0
  6
CONTINUOUS
 62
     7
 10
-757.8831799999997
 20
550.36658
 30
0.0
 11
-757.8831799999997
 21
444.36660999999992
 31
0.0
  0
LINE
  5
59D
  8
0
  6
CONTINUOUS
 62
     7
 10
-692.88317999999981
 20
460.64663999999999
 30
0.0
 11
-645.06322999999975
 21
460.64663999999999
 31
0.0
  0
LINE
  5
59E
  8
0
  6
CONTINUOUS
 62
     7
 10
-692.88317999999981
 20
461.36660999999992
 30
0.0
 11
-747.52318999999989
 21
461.36660999999992
 31
0.0
  0
LINE
  5
59F
  8
0
  6
CONTINUOUS
 62
     7
 10
-692.88317999999981
 20
463.36660999999998
 30
0.0
 11
-747.52318999999989
 21
463.36660999999998
 31
0.0
  0
LINE
  5
5A0
  8
0
  6
CONTINUOUS
 62
     7
 10
-748.20325000000003
 20
463.99660999999992
 30
0.0
 11
-680.86315999999999
 21
463.99660999999992
 31
0.0
  0
LINE
  5
5A1
  8
0
  6
CONTINUOUS
 62
     7
 10
-765.38317999999981
 20
480.08657999999991
 30
0.0
 11
-763.88317999999981
 21
480.08657999999991
 31
0.0
  0
LINE
  5
5A2
  8
0
  6
CONTINUOUS
 62
     7
 10
-765.38317999999981
 20
482.21657999999991
 30
0.0
 11
-763.88317999999981
 21
482.21657999999991
 31
0.0
  0
LINE
  5
5A3
  8
0
  6
CONTINUOUS
 62
     7
 10
-765.38317999999981
 20
477.36657999999989
 30
0.0
 11
-763.88324
 21
477.23656999999992
 31
0.0
  0
LINE
  5
5A4
  8
0
  6
CONTINUOUS
 62
     7
 10
-765.38317999999981
 20
477.36660999999981
 30
0.0
 11
-765.38317999999981
 21
497.36660999999992
 31
0.0
  0
LINE
  5
5A5
  8
0
  6
CONTINUOUS
 62
     7
 10
-761.8831799999997
 20
461.97658999999987
 30
0.0
 11
-761.8831799999997
 21
463.03665000000001
 31
0.0
  0
LINE
  5
5A6
  8
0
  6
CONTINUOUS
 62
     7
 10
-761.8831799999997
 20
471.73660000000001
 30
0.0
 11
-761.8831799999997
 21
473.10660000000001
 31
0.0
  0
LINE
  5
5A7
  8
0
  6
CONTINUOUS
 62
     7
 10
-761.8831799999997
 20
491.75662
 30
0.0
 11
-761.8831799999997
 21
492.91665999999998
 31
0.0
  0
LINE
  5
5A8
  8
0
  6
CONTINUOUS
 62
     7
 10
-761.8831799999997
 20
481.75661999999988
 30
0.0
 11
-761.8831799999997
 21
482.97658999999987
 31
0.0
  0
LINE
  5
5A9
  8
0
  6
CONTINUOUS
 62
     7
 10
-759.88317999999981
 20
493.36660999999992
 30
0.0
 11
-762.88317999999981
 21
493.36660999999992
 31
0.0
  0
LINE
  5
5AA
  8
0
  6
CONTINUOUS
 62
     7
 10
-759.88317999999981
 20
491.36660999999992
 30
0.0
 11
-762.88317999999981
 21
491.36660999999992
 31
0.0
  0
LINE
  5
5AB
  8
0
  6
CONTINUOUS
 62
     7
 10
-759.88317999999981
 20
483.36660999999998
 30
0.0
 11
-762.88317999999981
 21
483.36660999999998
 31
0.0
  0
LINE
  5
5AC
  8
0
  6
CONTINUOUS
 62
     7
 10
-759.88317999999981
 20
481.36660999999981
 30
0.0
 11
-762.88317999999981
 21
481.36660999999981
 31
0.0
  0
LINE
  5
5AD
  8
0
  6
CONTINUOUS
 62
     7
 10
-759.88317999999981
 20
473.36660999999992
 30
0.0
 11
-762.88317999999981
 21
473.36660999999992
 31
0.0
  0
LINE
  5
5AE
  8
0
  6
CONTINUOUS
 62
     7
 10
-759.88317999999981
 20
471.36660999999998
 30
0.0
 11
-762.88317999999981
 21
471.36660999999998
 31
0.0
  0
LINE
  5
5AF
  8
0
  6
CONTINUOUS
 62
     7
 10
-762.02319
 20
463.66659999999979
 30
0.0
 11
-763.17315999999983
 21
464.0265799999998
 31
0.0
  0
LINE
  5
5B0
  8
0
  6
CONTINUOUS
 62
     7
 10
-761.73328000000004
 20
463.62662
 30
0.0
 11
-759.88317999999981
 21
463.62662
 31
0.0
  0
LINE
  5
5B1
  8
0
  6
CONTINUOUS
 62
     7
 10
-762.07312000000002
 20
461.75661999999988
 30
0.0
 11
-763.27313000000004
 21
462.27663999999987
 31
0.0
  0
LINE
  5
5B2
  8
0
  6
CONTINUOUS
 62
     7
 10
-761.68322999999964
 20
461.67667
 30
0.0
 11
-759.58325000000002
 21
461.67667
 31
0.0
  0
LINE
  5
5B3
  8
0
  6
CONTINUOUS
 62
     7
 10
-645.06322999999975
 20
463.99660999999992
 30
0.0
 11
-662.90319999999986
 21
463.99660999999992
 31
0.0
  0
LINE
  5
5B4
  8
0
  6
CONTINUOUS
 62
     7
 10
-748.20325000000003
 20
460.64663999999999
 30
0.0
 11
-692.88317999999981
 21
460.64663999999999
 31
0.0
  0
LINE
  5
5B5
  8
0
  6
CONTINUOUS
 62
     7
 10
-648.5432099999997
 20
461.36660999999992
 30
0.0
 11
-692.88317999999981
 21
461.36660999999992
 31
0.0
  0
LINE
  5
5B6
  8
0
  6
CONTINUOUS
 62
     7
 10
-648.5432099999997
 20
463.36660999999998
 30
0.0
 11
-692.88317999999981
 21
463.36660999999998
 31
0.0
  0
LINE
  5
5B7
  8
0
  6
CONTINUOUS
 62
     7
 10
-748.42322000000001
 20
470.87662
 30
0.0
 11
-680.88317999999981
 21
470.87662
 31
0.0
  0
LINE
  5
5B8
  8
0
  6
CONTINUOUS
 62
     7
 10
-680.88317999999981
 20
471.36660999999998
 30
0.0
 11
-747.52318999999989
 21
471.36660999999998
 31
0.0
  0
LINE
  5
5B9
  8
0
  6
CONTINUOUS
 62
     7
 10
-748.42322000000001
 20
473.80655000000002
 30
0.0
 11
-644.84900000000005
 21
473.80655000000002
 31
0.0
  0
LINE
  5
5BA
  8
0
  6
CONTINUOUS
 62
     7
 10
-648.55042000000003
 20
473.36660999999992
 30
0.0
 11
-747.52318999999989
 21
473.36660999999992
 31
0.0
  0
LINE
  5
5BB
  8
0
  6
CONTINUOUS
 62
     7
 10
-748.55322000000001
 20
481.02663999999987
 30
0.0
 11
-712.21190999999988
 21
481.02663999999987
 31
0.0
  0
LINE
  5
5BC
  8
0
  6
CONTINUOUS
 62
     7
 10
-713.44446000000005
 20
481.36660999999981
 30
0.0
 11
-747.52318999999989
 21
481.36660999999981
 31
0.0
  0
LINE
  5
5BD
  8
0
  6
CONTINUOUS
 62
     7
 10
-713.44446000000005
 20
483.36660999999998
 30
0.0
 11
-747.52318999999989
 21
483.36660999999998
 31
0.0
  0
LINE
  5
5BE
  8
0
  6
CONTINUOUS
 62
     7
 10
-748.55322000000001
 20
483.68655000000001
 30
0.0
 11
-712.22448999999995
 21
483.68655000000001
 31
0.0
  0
LINE
  5
5BF
  8
0
  6
CONTINUOUS
 62
     7
 10
-748.61328000000003
 20
491.09658999999988
 30
0.0
 11
-712.16454999999985
 21
491.09658999999988
 31
0.0
  0
LINE
  5
5C0
  8
0
  6
CONTINUOUS
 62
     7
 10
-713.44446000000005
 20
491.36660999999992
 30
0.0
 11
-747.52318999999989
 21
491.36660999999992
 31
0.0
  0
LINE
  5
5C1
  8
0
  6
CONTINUOUS
 62
     7
 10
-713.44446000000005
 20
493.36660999999992
 30
0.0
 11
-747.52318999999989
 21
493.36660999999992
 31
0.0
  0
LINE
  5
5C2
  8
0
  6
CONTINUOUS
 62
     7
 10
-748.61328000000003
 20
493.63662999999991
 30
0.0
 11
-712.16454999999985
 21
493.63662999999991
 31
0.0
  0
LINE
  5
5C3
  8
0
  6
CONTINUOUS
 62
     7
 10
-748.61328000000003
 20
501.10660000000001
 30
0.0
 11
-712.16454999999985
 21
501.10660000000001
 31
0.0
  0
LINE
  5
5C4
  8
0
  6
CONTINUOUS
 62
     7
 10
-748.61328000000003
 20
503.63663000000003
 30
0.0
 11
-712.16454999999985
 21
503.63663000000003
 31
0.0
  0
LINE
  5
5C5
  8
0
  6
CONTINUOUS
 62
     7
 10
-748.55322000000001
 20
511.04665999999992
 30
0.0
 11
-712.22448999999995
 21
511.04665999999992
 31
0.0
  0
LINE
  5
5C6
  8
0
  6
CONTINUOUS
 62
     7
 10
-748.55322000000001
 20
513.70654000000002
 30
0.0
 11
-712.22448999999995
 21
513.70654000000002
 31
0.0
  0
LINE
  5
5C7
  8
0
  6
CONTINUOUS
 62
     7
 10
-748.42322000000001
 20
520.92664000000002
 30
0.0
 11
-644.84900000000005
 21
520.92664000000002
 31
0.0
  0
LINE
  5
5C8
  8
0
  6
CONTINUOUS
 62
     7
 10
-748.42322000000001
 20
523.85657000000003
 30
0.0
 11
-680.88317999999981
 21
523.85657000000003
 31
0.0
  0
LINE
  5
5C9
  8
0
  6
CONTINUOUS
 62
     7
 10
-748.20325000000003
 20
530.73657000000003
 30
0.0
 11
-680.86315999999999
 21
530.73657000000003
 31
0.0
  0
LINE
  5
5CA
  8
0
  6
CONTINUOUS
 62
     7
 10
-748.20325000000003
 20
534.08654999999965
 30
0.0
 11
-645.06322999999975
 21
534.08654999999965
 31
0.0
  0
LINE
  5
5CB
  8
0
  6
CONTINUOUS
 62
     7
 10
-713.44446000000005
 20
501.36660999999998
 30
0.0
 11
-747.52318999999989
 21
501.36660999999998
 31
0.0
  0
LINE
  5
5CC
  8
0
  6
CONTINUOUS
 62
     7
 10
-713.44446000000005
 20
503.36660999999992
 30
0.0
 11
-747.52318999999989
 21
503.36660999999992
 31
0.0
  0
LINE
  5
5CD
  8
0
  6
CONTINUOUS
 62
     7
 10
-713.44446000000005
 20
511.36660999999992
 30
0.0
 11
-747.52318999999989
 21
511.36660999999992
 31
0.0
  0
LINE
  5
5CE
  8
0
  6
CONTINUOUS
 62
     7
 10
-713.44446000000005
 20
513.36658
 30
0.0
 11
-747.52318999999989
 21
513.36658
 31
0.0
  0
LINE
  5
5CF
  8
0
  6
CONTINUOUS
 62
     7
 10
-648.55042000000003
 20
521.36658
 30
0.0
 11
-747.52318999999989
 21
521.36658
 31
0.0
  0
LINE
  5
5D0
  8
0
  6
CONTINUOUS
 62
     7
 10
-680.88317999999981
 20
523.36657999999977
 30
0.0
 11
-747.52318999999989
 21
523.36657999999977
 31
0.0
  0
LINE
  5
5D1
  8
0
  6
CONTINUOUS
 62
     7
 10
-648.5432099999997
 20
531.36657999999977
 30
0.0
 11
-747.52318999999989
 21
531.36657999999977
 31
0.0
  0
LINE
  5
5D2
  8
0
  6
CONTINUOUS
 62
     7
 10
-648.5432099999997
 20
533.36658
 30
0.0
 11
-747.52318999999989
 21
533.36658
 31
0.0
  0
LINE
  5
5D3
  8
0
  6
CONTINUOUS
 62
     7
 10
-765.38317999999981
 20
514.64661000000001
 30
0.0
 11
-763.88317999999981
 21
514.64661000000001
 31
0.0
  0
LINE
  5
5D4
  8
0
  6
CONTINUOUS
 62
     7
 10
-765.38317999999981
 20
512.51660000000004
 30
0.0
 11
-763.88317999999981
 21
512.51660000000004
 31
0.0
  0
LINE
  5
5D5
  8
0
  6
CONTINUOUS
 62
     7
 10
-765.38317999999981
 20
517.36652000000004
 30
0.0
 11
-763.88317999999981
 21
517.49652000000003
 31
0.0
  0
LINE
  5
5D6
  8
0
  6
CONTINUOUS
 62
     7
 10
-765.38317999999981
 20
517.36658
 30
0.0
 11
-765.38317999999981
 21
497.36660999999992
 31
0.0
  0
LINE
  5
5D7
  8
0
  6
CONTINUOUS
 62
     7
 10
-761.8831799999997
 20
546.86658
 30
0.0
 11
-761.8831799999997
 21
546.33654999999999
 31
0.0
  0
LINE
  5
5D8
  8
0
  6
CONTINUOUS
 62
     7
 10
-761.8831799999997
 20
544.76660000000004
 30
0.0
 11
-761.8831799999997
 21
544.21654999999976
 31
0.0
  0
LINE
  5
5D9
  8
0
  6
CONTINUOUS
 62
     7
 10
-761.8831799999997
 20
540.19653000000005
 30
0.0
 11
-761.8831799999997
 21
539.72655999999995
 31
0.0
  0
LINE
  5
5DA
  8
0
  6
CONTINUOUS
 62
     7
 10
-761.8831799999997
 20
532.75658999999985
 30
0.0
 11
-761.8831799999997
 21
531.69653000000005
 31
0.0
  0
LINE
  5
5DB
  8
0
  6
CONTINUOUS
 62
     7
 10
-761.8831799999997
 20
522.99657999999999
 30
0.0
 11
-761.8831799999997
 21
521.62658999999985
 31
0.0
  0
LINE
  5
5DC
  8
0
  6
CONTINUOUS
 62
     7
 10
-761.8831799999997
 20
502.97658999999999
 30
0.0
 11
-761.8831799999997
 21
501.81655999999992
 31
0.0
  0
LINE
  5
5DD
  8
0
  6
CONTINUOUS
 62
     7
 10
-761.8831799999997
 20
512.97655999999995
 30
0.0
 11
-761.8831799999997
 21
511.76662999999979
 31
0.0
  0
LINE
  5
5DE
  8
0
  6
CONTINUOUS
 62
     7
 10
-759.88317999999981
 20
501.36660999999998
 30
0.0
 11
-762.88317999999981
 21
501.36660999999998
 31
0.0
  0
LINE
  5
5DF
  8
0
  6
CONTINUOUS
 62
     7
 10
-759.88317999999981
 20
503.36660999999992
 30
0.0
 11
-762.88317999999981
 21
503.36660999999992
 31
0.0
  0
LINE
  5
5E0
  8
0
  6
CONTINUOUS
 62
     7
 10
-759.88317999999981
 20
511.36660999999992
 30
0.0
 11
-762.88317999999981
 21
511.36660999999992
 31
0.0
  0
LINE
  5
5E1
  8
0
  6
CONTINUOUS
 62
     7
 10
-759.88317999999981
 20
513.36658
 30
0.0
 11
-762.88317999999981
 21
513.36658
 31
0.0
  0
LINE
  5
5E2
  8
0
  6
CONTINUOUS
 62
     7
 10
-759.88317999999981
 20
521.36658
 30
0.0
 11
-762.88317999999981
 21
521.36658
 31
0.0
  0
LINE
  5
5E3
  8
0
  6
CONTINUOUS
 62
     7
 10
-759.88317999999981
 20
523.36657999999977
 30
0.0
 11
-762.88317999999981
 21
523.36657999999977
 31
0.0
  0
LINE
  5
5E4
  8
0
  6
CONTINUOUS
 62
     7
 10
-762.10315000000003
 20
543.75665000000004
 30
0.0
 11
-763.35320999999999
 21
543.08660999999995
 31
0.0
  0
LINE
  5
5E5
  8
0
  6
CONTINUOUS
 62
     7
 10
-762.09320000000002
 20
545.86658
 30
0.0
 11
-763.33318999999983
 21
545.23657000000003
 31
0.0
  0
LINE
  5
5E6
  8
0
  6
CONTINUOUS
 62
     7
 10
-762.02319
 20
531.06664999999987
 30
0.0
 11
-763.17322000000001
 21
530.71660999999995
 31
0.0
  0
LINE
  5
5E7
  8
0
  6
CONTINUOUS
 62
     7
 10
-762.11321999999984
 20
539.21660999999995
 30
0.0
 11
-763.39319
 21
538.46660999999995
 31
0.0
  0
LINE
  5
5E8
  8
0
  6
CONTINUOUS
 62
     7
 10
-761.64319
 20
545.96654999999976
 30
0.0
 11
-759.38317999999981
 21
545.96654999999976
 31
0.0
  0
LINE
  5
5E9
  8
0
  6
CONTINUOUS
 62
     7
 10
-761.63317999999981
 20
543.86657999999977
 30
0.0
 11
-759.88317999999981
 21
543.86657999999977
 31
0.0
  0
LINE
  5
5EA
  8
0
  6
CONTINUOUS
 62
     7
 10
-761.61328000000003
 20
539.35657000000003
 30
0.0
 11
-759.88317999999981
 21
539.35657000000003
 31
0.0
  0
LINE
  5
5EB
  8
0
  6
CONTINUOUS
 62
     7
 10
-761.73328000000004
 20
531.10657000000003
 30
0.0
 11
-759.88317999999981
 21
531.10657000000003
 31
0.0
  0
LINE
  5
5EC
  8
0
  6
CONTINUOUS
 62
     7
 10
-761.58325000000002
 20
540.49657999999999
 30
0.0
 11
-758.88317999999981
 21
540.49657999999999
 31
0.0
  0
LINE
  5
5ED
  8
0
  6
CONTINUOUS
 62
     7
 10
-761.60326999999984
 20
545.00659000000007
 30
0.0
 11
-758.88317999999981
 21
545.00659000000007
 31
0.0
  0
LINE
  5
5EE
  8
0
  6
CONTINUOUS
 62
     7
 10
-762.07317999999964
 20
532.97662000000003
 30
0.0
 11
-763.27319
 21
532.46660999999995
 31
0.0
  0
LINE
  5
5EF
  8
0
  6
CONTINUOUS
 62
     7
 10
-762.13324
 20
540.32659999999998
 30
0.0
 11
-763.43322999999964
 21
539.47662000000003
 31
0.0
  0
LINE
  5
5F0
  8
0
  6
CONTINUOUS
 62
     7
 10
-762.12323000000004
 20
544.86663999999985
 30
0.0
 11
-763.40325999999982
 21
544.09662000000003
 31
0.0
  0
LINE
  5
5F1
  8
0
  6
CONTINUOUS
 62
     7
 10
-762.11315999999999
 20
546.98657000000003
 30
0.0
 11
-763.38311999999985
 21
546.24657999999999
 31
0.0
  0
LINE
  5
5F2
  8
0
  6
CONTINUOUS
 62
     7
 10
-761.68322999999964
 20
533.05651999999986
 30
0.0
 11
-759.58325000000002
 21
533.05651999999986
 31
0.0
  0
LINE
  5
5F3
  8
0
  6
CONTINUOUS
 62
     7
 10
-761.61328000000003
 20
547.11658
 30
0.0
 11
-759.38317999999981
 21
547.11658
 31
0.0
  0
LINE
  5
5F4
  8
0
  6
CONTINUOUS
 62
     7
 10
-763.88317999999981
 20
545.38660000000004
 30
0.0
 11
-763.88317999999981
 21
502.36660999999981
 31
0.0
  0
LINE
  5
5F5
  8
0
  6
CONTINUOUS
 62
     7
 10
-641.88317999999981
 20
553.36658
 30
0.0
 11
-641.88317999999981
 21
441.36660999999992
 31
0.0
  0
LINE
  5
5F6
  8
0
  6
CONTINUOUS
 62
     7
 10
-565.38317999999981
 20
433.86660999999998
 30
0.0
 11
-565.38317999999981
 21
560.86657999999977
 31
0.0
  0
LINE
  5
5F7
  8
0
  6
CONTINUOUS
 62
     7
 10
-565.38317999999981
 20
445.32659999999998
 30
0.0
 11
-574.3831799999997
 21
445.32659999999998
 31
0.0
  0
LINE
  5
5F8
  8
0
  6
CONTINUOUS
 62
     7
 10
-565.38317999999981
 20
560.86657999999977
 30
0.0
 11
-571.38317999999981
 21
560.86657999999977
 31
0.0
  0
LINE
  5
5F9
  8
0
  6
CONTINUOUS
 62
     7
 10
-565.38317999999981
 20
433.86660999999998
 30
0.0
 11
-571.38317999999981
 21
433.86660999999998
 31
0.0
  0
LINE
  5
5FA
  8
0
  6
CONTINUOUS
 62
     7
 10
-574.3831799999997
 20
436.86660999999992
 30
0.0
 11
-574.3831799999997
 21
557.86658
 31
0.0
  0
LINE
  5
5FB
  8
0
  6
CONTINUOUS
 62
     7
 10
-633.88317999999981
 20
441.36660999999992
 30
0.0
 11
-633.88317999999981
 21
553.36658
 31
0.0
  0
LINE
  5
5FC
  8
0
  6
CONTINUOUS
 62
     7
 10
-633.88317999999981
 20
465.40493999999978
 30
0.0
 11
-588.06421
 21
465.40493999999978
 31
0.0
  0
LINE
  5
5FD
  8
0
  6
CONTINUOUS
 62
     7
 10
-633.88317999999981
 20
451.36630000000002
 30
0.0
 11
-583.59411999999975
 21
451.36630000000002
 31
0.0
  0
LINE
  5
5FE
  8
0
  6
CONTINUOUS
 62
     7
 10
-565.38317999999981
 20
460.21868999999992
 30
0.0
 11
-574.3831799999997
 21
460.21868999999992
 31
0.0
  0
LINE
  5
5FF
  8
0
  6
CONTINUOUS
 62
     7
 10
-565.38317999999981
 20
534.51453000000004
 30
0.0
 11
-574.3831799999997
 21
534.51453000000004
 31
0.0
  0
LINE
  5
600
  8
0
  6
CONTINUOUS
 62
     7
 10
-565.38317999999981
 20
549.40661999999986
 30
0.0
 11
-574.3831799999997
 21
549.40661999999986
 31
0.0
  0
LINE
  5
601
  8
0
  6
CONTINUOUS
 62
     7
 10
-633.88317999999981
 20
441.36660999999992
 30
0.0
 11
-577.25963999999999
 21
439.38924999999989
 31
0.0
  0
LINE
  5
602
  8
0
  6
CONTINUOUS
 62
     7
 10
-577.25958000000003
 20
555.34398999999985
 30
0.0
 11
-633.88317999999981
 21
553.36663999999985
 31
0.0
  0
LINE
  5
603
  8
0
  6
CONTINUOUS
 62
     7
 10
-643.67749000000003
 20
539.53552000000002
 30
0.0
 11
-647.82317999999975
 21
555.01665999999977
 31
0.0
  0
LINE
  5
604
  8
0
  6
CONTINUOUS
 62
     7
 10
-643.67749000000003
 20
541.38549999999987
 30
0.0
 11
-647.82324000000017
 21
556.86663999999985
 31
0.0
  0
LINE
  5
605
  8
0
  6
CONTINUOUS
 62
     7
 10
-643.67749000000003
 20
542.29547000000002
 30
0.0
 11
-647.82324000000017
 21
557.77660999999978
 31
0.0
  0
LINE
  5
606
  8
0
  6
CONTINUOUS
 62
     7
 10
-722.38317999999981
 20
432.86660999999992
 30
0.0
 11
-722.38317999999981
 21
431.86660999999992
 31
0.0
  0
LINE
  5
607
  8
0
  6
CONTINUOUS
 62
     7
 10
-663.38317999999981
 20
432.86660999999992
 30
0.0
 11
-663.38317999999981
 21
431.86660999999992
 31
0.0
  0
LINE
  5
608
  8
0
  6
CONTINUOUS
 62
     3
 10
-742.15612999999985
 20
431.86660999999992
 30
0.0
 11
-742.15612999999985
 21
428.36660999999992
 31
0.0
  0
LINE
  5
609
  8
0
  6
CONTINUOUS
 62
     3
 10
-744.15612999999985
 20
428.36660999999992
 30
0.0
 11
-662.15625
 21
428.36660999999992
 31
0.0
  0
LINE
  5
60A
  8
0
  6
CONTINUOUS
 62
     3
 10
-721.65625
 20
424.86660999999992
 30
0.0
 11
-662.15625
 21
424.86660999999992
 31
0.0
  0
LINE
  5
60B
  8
0
  6
CONTINUOUS
 62
     3
 10
-733.15612999999985
 20
428.36660999999992
 30
0.0
 11
-733.15612999999985
 21
420.86660999999998
 31
0.0
  0
LINE
  5
60C
  8
0
  6
CONTINUOUS
 62
     3
 10
-725.15625
 20
428.36660999999992
 30
0.0
 11
-725.15625
 21
420.86660999999998
 31
0.0
  0
LINE
  5
60D
  8
0
  6
CONTINUOUS
 62
     3
 10
-740.65612999999985
 20
413.3675799999998
 30
0.0
 11
-744.15612999999985
 21
413.3675799999998
 31
0.0
  0
LINE
  5
60E
  8
0
  6
CONTINUOUS
 62
     3
 10
-744.15612999999985
 20
428.36660999999992
 30
0.0
 11
-744.15612999999985
 21
413.3675799999998
 31
0.0
  0
LINE
  5
60F
  8
0
  6
CONTINUOUS
 62
     3
 10
-711.45618000000002
 20
405.36664000000002
 30
0.0
 11
-716.65619000000004
 21
408.36660999999998
 31
0.0
  0
LINE
  5
610
  8
0
  6
CONTINUOUS
 62
     3
 10
-670.65619000000004
 20
408.36655000000002
 30
0.0
 11
-675.85619999999994
 21
405.36655000000002
 31
0.0
  0
LINE
  5
611
  8
0
  6
CONTINUOUS
 62
     3
 10
-740.65612999999985
 20
424.86660999999992
 30
0.0
 11
-736.65612999999985
 21
424.86660999999992
 31
0.0
  0
LINE
  5
612
  8
0
  6
CONTINUOUS
 62
     3
 10
-740.65612999999985
 20
408.36660999999998
 30
0.0
 11
-663.65625
 21
408.36660999999998
 31
0.0
  0
LINE
  5
613
  8
0
  6
CONTINUOUS
 62
     3
 10
-711.45618000000002
 20
405.36660999999998
 30
0.0
 11
-675.85619999999994
 21
405.36660999999998
 31
0.0
  0
LINE
  5
614
  8
0
  6
CONTINUOUS
 62
     3
 10
-740.65612999999985
 20
428.36660999999992
 30
0.0
 11
-740.65612999999985
 21
408.36660999999998
 31
0.0
  0
LINE
  5
615
  8
0
  6
CONTINUOUS
 62
     3
 10
-736.65612999999985
 20
428.36660999999992
 30
0.0
 11
-736.65612999999985
 21
420.86660999999998
 31
0.0
  0
LINE
  5
616
  8
0
  6
CONTINUOUS
 62
     3
 10
-721.65625
 20
420.86660999999998
 30
0.0
 11
-721.65625
 21
428.36660999999992
 31
0.0
  0
LINE
  5
617
  8
0
  6
CONTINUOUS
 62
     3
 10
-663.65625
 20
408.36660999999998
 30
0.0
 11
-663.65625
 21
424.86660999999992
 31
0.0
  0
LINE
  5
618
  8
0
  6
CONTINUOUS
 62
     3
 10
-662.15625
 20
431.86660999999992
 30
0.0
 11
-662.15625
 21
424.86660999999992
 31
0.0
  0
LINE
  5
619
  8
0
  6
CONTINUOUS
 62
     3
 10
-742.15612999999985
 20
431.86660999999992
 30
0.0
 11
-662.15625
 21
431.86660999999992
 31
0.0
  0
LINE
  5
61A
  8
0
  6
CONTINUOUS
 62
     7
 10
-603.8831799999997
 20
487.36660999999998
 30
0.0
 11
-603.8831799999997
 21
507.36660999999992
 31
0.0
  0
LINE
  5
61B
  8
0
  6
CONTINUOUS
 62
     7
 10
-600.88317999999981
 20
484.36660999999998
 30
0.0
 11
-577.38317999999981
 21
484.36660999999998
 31
0.0
  0
LINE
  5
61C
  8
0
  6
CONTINUOUS
 62
     7
 10
-600.88317999999981
 20
510.36660999999981
 30
0.0
 11
-577.38317999999981
 21
510.36660999999981
 31
0.0
  0
LINE
  5
61D
  8
0
  6
CONTINUOUS
 62
     7
 10
-633.88317999999981
 20
543.36694
 30
0.0
 11
-583.59411999999975
 21
543.36694
 31
0.0
  0
LINE
  5
61E
  8
0
  6
CONTINUOUS
 62
     7
 10
-633.88317999999981
 20
529.32825000000003
 30
0.0
 11
-588.06421
 21
529.32825000000003
 31
0.0
  0
LINE
  5
61F
  8
0
  6
CONTINUOUS
 62
     7
 10
-352.88314999999977
 20
197.5479399999999
 30
0.0
 11
-410.88314999999989
 21
197.5479399999999
 31
0.0
  0
LINE
  5
620
  8
0
  6
CONTINUOUS
 62
     7
 10
-352.88314999999977
 20
200.54794000000001
 30
0.0
 11
-397.88317999999998
 21
200.54794000000001
 31
0.0
  0
LINE
  5
621
  8
0
  6
CONTINUOUS
 62
     7
 10
-352.88314999999977
 20
165.5479599999999
 30
0.0
 11
-410.88314999999989
 21
165.5479599999999
 31
0.0
  0
LINE
  5
622
  8
0
  6
CONTINUOUS
 62
     7
 10
-397.88317999999998
 20
197.5479399999999
 30
0.0
 11
-397.88317999999998
 21
200.54794000000001
 31
0.0
  0
LINE
  5
623
  8
0
  6
CONTINUOUS
 62
     7
 10
-527.88317999999981
 20
54.047947000000001
 30
0.0
 11
-527.88317999999981
 21
253.0479399999999
 31
0.0
  0
LINE
  5
624
  8
0
  6
CONTINUOUS
 62
     7
 10
-352.88314999999977
 20
165.5479599999999
 30
0.0
 11
-352.88314999999977
 21
200.54794000000001
 31
0.0
  0
LINE
  5
625
  8
0
  6
CONTINUOUS
 62
     7
 10
-527.88311999999985
 20
183.73328000000001
 30
0.0
 11
-527.88158999999985
 21
183.73328000000001
 31
0.0
  0
LINE
  5
626
  8
0
  6
CONTINUOUS
 62
     7
 10
-565.38317999999981
 20
90.047950999999998
 30
0.0
 11
-557.70867999999996
 21
89.779944999999984
 31
0.0
  0
LINE
  5
627
  8
0
  6
CONTINUOUS
 62
     7
 10
-551.41869999999994
 20
229.01243999999991
 30
0.0
 11
-538.76184000000001
 21
241.66929999999991
 31
0.0
  0
LINE
  5
628
  8
0
  6
CONTINUOUS
 62
     7
 10
-535.95294000000001
 20
252.76613999999989
 30
0.0
 11
-527.88317999999981
 21
253.0479399999999
 31
0.0
  0
LINE
  5
629
  8
0
  6
CONTINUOUS
 62
     7
 10
-552.88311999999985
 20
81.61901899999998
 30
0.0
 11
-552.88311999999985
 21
225.47687999999991
 31
0.0
  0
LINE
  5
62A
  8
0
  6
CONTINUOUS
 62
     7
 10
-565.38311999999985
 20
205.0479399999999
 30
0.0
 11
-552.88311999999985
 21
205.0479399999999
 31
0.0
  0
LINE
  5
62B
  8
0
  6
CONTINUOUS
 62
     7
 10
-551.41863999999975
 20
78.083488000000003
 30
0.0
 11
-538.76184000000001
 21
65.426651000000007
 31
0.0
  0
LINE
  5
62C
  8
0
  6
CONTINUOUS
 62
     7
 10
-565.38311999999985
 20
217.0479599999999
 30
0.0
 11
-557.70867999999996
 21
217.31594999999999
 31
0.0
  0
LINE
  5
62D
  8
0
  6
CONTINUOUS
 62
     7
 10
-565.38311999999985
 20
190.69588999999999
 30
0.0
 11
-552.88311999999985
 21
190.69588999999999
 31
0.0
  0
LINE
  5
62E
  8
0
  6
CONTINUOUS
 62
     7
 10
-565.38311999999985
 20
116.40002
 30
0.0
 11
-552.88311999999985
 21
116.40002
 31
0.0
  0
LINE
  5
62F
  8
0
  6
CONTINUOUS
 62
     7
 10
-565.38311999999985
 20
102.04796
 30
0.0
 11
-552.88311999999985
 21
102.04796
 31
0.0
  0
LINE
  5
630
  8
0
  6
CONTINUOUS
 62
     7
 10
-537.88311999999985
 20
56.328536999999997
 30
0.0
 11
-537.88311999999985
 21
250.76735999999991
 31
0.0
  0
LINE
  5
631
  8
0
  6
CONTINUOUS
 62
     7
 10
-574.38311999999985
 20
93.318091999999993
 30
0.0
 11
-574.38311999999985
 21
214.75752
 31
0.0
  0
LINE
  5
632
  8
0
  6
CONTINUOUS
 62
     7
 10
-633.88311999999985
 20
174.5479399999999
 30
0.0
 11
-582.14972
 21
174.5479399999999
 31
0.0
  0
LINE
  5
633
  8
0
  6
CONTINUOUS
 62
     7
 10
-574.38311999999985
 20
92.759292999999985
 30
0.0
 11
-574.38311999999985
 21
93.318091999999993
 31
0.0
  0
LINE
  5
634
  8
0
  6
CONTINUOUS
 62
     7
 10
-600.98784999999998
 20
211.91734
 30
0.0
 11
-577.10973999999999
 21
212.75119000000001
 31
0.0
  0
LINE
  5
635
  8
0
  6
CONTINUOUS
 62
     7
 10
-633.88311999999985
 20
72.047943000000004
 30
0.0
 11
-617.74352999999985
 21
72.611548999999982
 31
0.0
  0
LINE
  5
636
  8
0
  6
CONTINUOUS
 62
     7
 10
-574.38311999999985
 20
102.0479399999999
 30
0.0
 11
-565.38311999999985
 21
102.0479399999999
 31
0.0
  0
LINE
  5
637
  8
0
  6
CONTINUOUS
 62
     7
 10
-633.88311999999985
 20
72.047943000000004
 30
0.0
 11
-633.88311999999985
 21
185.04793000000001
 31
0.0
  0
LINE
  5
638
  8
0
  6
CONTINUOUS
 62
     7
 10
-603.88311999999985
 20
208.9191899999999
 30
0.0
 11
-603.88311999999985
 21
188.99261000000001
 31
0.0
  0
LINE
  5
639
  8
0
  6
CONTINUOUS
 62
     7
 10
-633.88311999999985
 20
160.48495
 30
0.0
 11
-584.14160000000004
 21
160.48495
 31
0.0
  0
LINE
  5
63A
  8
0
  6
CONTINUOUS
 62
     7
 10
-571.48784999999998
 20
89.761116000000015
 30
0.0
 11
-565.38317999999981
 21
89.547934999999995
 31
0.0
  0
LINE
  5
63B
  8
0
  6
CONTINUOUS
 62
     7
 10
-609.74359000000004
 20
96.484275999999994
 30
0.0
 11
-576.31329000000005
 21
95.316872000000004
 31
0.0
  0
LINE
  5
63C
  8
0
  6
CONTINUOUS
 62
     7
 10
-606.77844000000005
 20
185.99446
 30
0.0
 11
-599.00287000000003
 21
186.2659899999999
 31
0.0
  0
LINE
  5
63D
  8
0
  6
CONTINUOUS
 62
     7
 10
-571.48779000000002
 20
217.33475999999999
 30
0.0
 11
-565.38311999999985
 21
217.5479399999999
 31
0.0
  0
LINE
  5
63E
  8
0
  6
CONTINUOUS
 62
     7
 10
-574.38311999999985
 20
190.69627
 30
0.0
 11
-565.38311999999985
 21
190.69627
 31
0.0
  0
LINE
  5
63F
  8
0
  6
CENTER
 62
     1
 10
-580.03502999999978
 20
128.5479599999999
 30
0.0
 11
-769.26739999999984
 21
128.5479599999999
 31
0.0
  0
LINE
  5
640
  8
0
  6
CONTINUOUS
 62
     7
 10
-608.88311999999985
 20
136.48793000000001
 30
0.0
 11
-574.38311999999985
 21
136.48793000000001
 31
0.0
  0
LINE
  5
641
  8
0
  6
CONTINUOUS
 62
     7
 10
-633.88311999999985
 20
96.610939000000002
 30
0.0
 11
-613.88317999999981
 21
96.610939000000002
 31
0.0
  0
LINE
  5
642
  8
0
  6
CONTINUOUS
 62
     7
 10
-574.38311999999985
 20
116.3995899999999
 30
0.0
 11
-565.38311999999985
 21
116.3995899999999
 31
0.0
  0
LINE
  5
643
  8
0
  6
CONTINUOUS
 62
     7
 10
-584.14166
 20
160.48495
 30
0.0
 11
-574.3831799999997
 21
141.04793999999981
 31
0.0
  0
LINE
  5
644
  8
0
  6
CONTINUOUS
 62
     7
 10
-633.88311999999985
 20
82.547943000000004
 30
0.0
 11
-613.88317999999981
 21
82.547943000000004
 31
0.0
  0
LINE
  5
645
  8
0
  6
CONTINUOUS
 62
     7
 10
-565.38311999999985
 20
89.547943000000004
 30
0.0
 11
-565.38311999999985
 21
217.5479399999999
 31
0.0
  0
LINE
  5
646
  8
0
  6
CONTINUOUS
 62
     7
 10
-611.70000999999979
 20
77.473526000000007
 30
0.0
 11
-574.52825999999982
 21
89.814025999999998
 31
0.0
  0
LINE
  5
647
  8
0
  6
CONTINUOUS
 62
     7
 10
-574.38311999999985
 20
205.0479399999999
 30
0.0
 11
-565.38311999999985
 21
205.0479399999999
 31
0.0
  0
LINE
  5
648
  8
0
  6
CONTINUOUS
 62
     7
 10
-595.6417799999997
 20
187.72737000000001
 30
0.0
 11
-575.26177999999982
 21
208.1073899999999
 31
0.0
  0
LINE
  5
649
  8
0
  6
CONTINUOUS
 62
     7
 10
-584.14166
 20
160.48495
 30
0.0
 11
-578.61419999999987
 21
166.01241999999999
 31
0.0
  0
LINE
  5
64A
  8
0
  6
CONTINUOUS
 62
     7
 10
-633.88317999999981
 20
185.0479399999999
 30
0.0
 11
-606.77844000000005
 21
185.99446
 31
0.0
  0
LINE
  5
64B
  8
0
  6
CONTINUOUS
 62
     7
 10
-613.88317999999981
 20
76.609116
 30
0.0
 11
-613.88317999999981
 21
131.48795000000001
 31
0.0
  0
LINE
  5
64C
  8
0
  6
CONTINUOUS
 62
     7
 10
-597.03454999999985
 20
186.16509999999991
 30
0.0
 11
-591.20203000000004
 21
174.54793000000001
 31
0.0
  0
LINE
  5
64D
  8
0
  6
CENTER
 62
     7
 10
-692.88311999999985
 20
167.14183
 30
0.0
 11
-692.88311999999985
 21
85.895240999999999
 31
0.0
  0
LINE
  5
64E
  8
0
  6
CONTINUOUS
 62
     3
 10
-735.88360999999975
 20
95.048203000000001
 30
0.0
 11
-735.88360999999975
 21
98.548195000000007
 31
0.0
  0
LINE
  5
64F
  8
0
  6
CONTINUOUS
 62
     3
 10
-720.88311999999985
 20
95.048203000000001
 30
0.0
 11
-720.88311999999985
 21
98.548195000000007
 31
0.0
  0
LINE
  5
650
  8
0
  6
CONTINUOUS
 62
     3
 10
-720.88311999999985
 20
97.048195000000007
 30
0.0
 11
-661.38311999999985
 21
97.048195000000007
 31
0.0
  0
LINE
  5
651
  8
0
  6
CONTINUOUS
 62
     3
 10
-720.88311999999985
 20
160.04769999999979
 30
0.0
 11
-661.38311999999985
 21
160.04769999999979
 31
0.0
  0
LINE
  5
652
  8
0
  6
CONTINUOUS
 62
     3
 10
-743.38360999999975
 20
121.04770000000001
 30
0.0
 11
-739.88360999999975
 21
121.04770000000001
 31
0.0
  0
LINE
  5
653
  8
0
  6
CONTINUOUS
 62
     3
 10
-720.88311999999985
 20
95.048203000000001
 30
0.0
 11
-735.88360999999975
 21
95.048203000000001
 31
0.0
  0
LINE
  5
654
  8
0
  6
CONTINUOUS
 62
     7
 10
-662.88311999999985
 20
157.0479599999999
 30
0.0
 11
-662.88311999999985
 21
100.0479499999999
 31
0.0
  0
LINE
  5
655
  8
0
  6
CONTINUOUS
 62
     7
 10
-641.88311999999985
 20
184.5479399999999
 30
0.0
 11
-641.88311999999985
 21
72.547950999999983
 31
0.0
  0
LINE
  5
656
  8
0
  6
CONTINUOUS
 62
     7
 10
-652.11310000000003
 20
158.54795999999999
 30
0.0
 11
-652.11310000000003
 21
98.547950999999998
 31
0.0
  0
LINE
  5
657
  8
0
  6
CONTINUOUS
 62
     7
 10
-763.88317999999981
 20
176.56432000000001
 30
0.0
 11
-763.88317999999981
 21
133.54793999999981
 31
0.0
  0
LINE
  5
658
  8
0
  6
CONTINUOUS
 62
     7
 10
-761.61492999999984
 20
178.29734999999991
 30
0.0
 11
-759.38317999999981
 21
178.29734999999991
 31
0.0
  0
LINE
  5
659
  8
0
  6
CONTINUOUS
 62
     7
 10
-761.67846999999983
 20
164.23715000000001
 30
0.0
 11
-759.58318999999983
 21
164.23715000000001
 31
0.0
  0
LINE
  5
65A
  8
0
  6
CONTINUOUS
 62
     7
 10
-762.11530000000005
 20
178.16311999999991
 30
0.0
 11
-763.38354000000004
 21
177.43011000000001
 31
0.0
  0
LINE
  5
65B
  8
0
  6
CONTINUOUS
 62
     7
 10
-762.12072999999998
 20
176.04706999999991
 30
0.0
 11
-763.39777000000004
 21
175.2807599999999
 31
0.0
  0
LINE
  5
65C
  8
0
  6
CONTINUOUS
 62
     7
 10
-762.13287000000003
 20
171.50911999999991
 30
0.0
 11
-763.43151999999975
 21
170.65753000000001
 31
0.0
  0
LINE
  5
65D
  8
0
  6
CONTINUOUS
 62
     7
 10
-762.07135000000005
 20
164.15685999999999
 30
0.0
 11
-763.27593999999999
 21
163.64238
 31
0.0
  0
LINE
  5
65E
  8
0
  6
CONTINUOUS
 62
     7
 10
-761.60613999999964
 20
176.18953999999999
 30
0.0
 11
-758.88317999999981
 21
176.18953999999999
 31
0.0
  0
LINE
  5
65F
  8
0
  6
CONTINUOUS
 62
     7
 10
-761.58452999999975
 20
171.67283999999981
 30
0.0
 11
-758.88317999999981
 21
171.67283999999981
 31
0.0
  0
LINE
  5
660
  8
0
  6
CONTINUOUS
 62
     7
 10
-761.73284999999998
 20
162.2910599999999
 30
0.0
 11
-759.88311999999985
 21
162.2910599999999
 31
0.0
  0
LINE
  5
661
  8
0
  6
CONTINUOUS
 62
     7
 10
-761.61181999999985
 20
170.53287
 30
0.0
 11
-759.88311999999985
 21
170.53287
 31
0.0
  0
LINE
  5
662
  8
0
  6
CONTINUOUS
 62
     7
 10
-761.63451999999984
 20
175.04961
 30
0.0
 11
-759.88311999999985
 21
175.04961
 31
0.0
  0
LINE
  5
663
  8
0
  6
CONTINUOUS
 62
     7
 10
-761.64386000000002
 20
177.15102999999991
 30
0.0
 11
-759.38317999999981
 21
177.15102999999991
 31
0.0
  0
LINE
  5
664
  8
0
  6
CONTINUOUS
 62
     7
 10
-762.11725000000001
 20
170.39568
 30
0.0
 11
-763.38854999999967
 21
169.65102999999991
 31
0.0
  0
LINE
  5
665
  8
0
  6
CONTINUOUS
 62
     7
 10
-762.02685999999983
 20
162.2469199999999
 30
0.0
 11
-763.17719
 21
161.89306999999991
 31
0.0
  0
LINE
  5
666
  8
0
  6
CONTINUOUS
 62
     7
 10
-762.09649999999988
 20
177.0427699999999
 30
0.0
 11
-763.33574999999985
 21
176.4137399999999
 31
0.0
  0
LINE
  5
667
  8
0
  6
CONTINUOUS
 62
     7
 10
-762.10277999999983
 20
174.93312
 30
0.0
 11
-763.35149999999999
 21
174.27123999999981
 31
0.0
  0
LINE
  5
668
  8
0
  6
CONTINUOUS
 62
     7
 10
-759.88311999999985
 20
154.54793999999981
 30
0.0
 11
-762.88311999999985
 21
154.54793999999981
 31
0.0
  0
LINE
  5
669
  8
0
  6
CONTINUOUS
 62
     7
 10
-759.88311999999985
 20
152.5479599999999
 30
0.0
 11
-762.88311999999985
 21
152.5479599999999
 31
0.0
  0
LINE
  5
66A
  8
0
  6
CONTINUOUS
 62
     7
 10
-759.88311999999985
 20
144.5479599999999
 30
0.0
 11
-762.88311999999985
 21
144.5479599999999
 31
0.0
  0
LINE
  5
66B
  8
0
  6
CONTINUOUS
 62
     7
 10
-759.88311999999985
 20
142.5479399999999
 30
0.0
 11
-762.88311999999985
 21
142.5479399999999
 31
0.0
  0
LINE
  5
66C
  8
0
  6
CONTINUOUS
 62
     7
 10
-759.88311999999985
 20
134.5479599999999
 30
0.0
 11
-762.88311999999985
 21
134.5479599999999
 31
0.0
  0
LINE
  5
66D
  8
0
  6
CONTINUOUS
 62
     7
 10
-759.88311999999985
 20
132.5479599999999
 30
0.0
 11
-762.88311999999985
 21
132.5479599999999
 31
0.0
  0
LINE
  5
66E
  8
0
  6
CONTINUOUS
 62
     7
 10
-761.8831799999997
 20
144.15505999999999
 30
0.0
 11
-761.8831799999997
 21
142.94363000000001
 31
0.0
  0
LINE
  5
66F
  8
0
  6
CONTINUOUS
 62
     7
 10
-761.8831799999997
 20
134.16116
 30
0.0
 11
-761.8831799999997
 21
133.00027
 31
0.0
  0
LINE
  5
670
  8
0
  6
CONTINUOUS
 62
     7
 10
-761.8831799999997
 20
154.17411999999979
 30
0.0
 11
-761.8831799999997
 21
152.81133
 31
0.0
  0
LINE
  5
671
  8
0
  6
CONTINUOUS
 62
     7
 10
-761.8831799999997
 20
163.94083999999981
 30
0.0
 11
-761.8831799999997
 21
162.88088999999991
 31
0.0
  0
LINE
  5
672
  8
0
  6
CONTINUOUS
 62
     7
 10
-761.8831799999997
 20
171.37839999999991
 30
0.0
 11
-761.8831799999997
 21
170.90621999999991
 31
0.0
  0
LINE
  5
673
  8
0
  6
CONTINUOUS
 62
     7
 10
-761.8831799999997
 20
175.94450000000001
 30
0.0
 11
-761.8831799999997
 21
175.3984199999999
 31
0.0
  0
LINE
  5
674
  8
0
  6
CONTINUOUS
 62
     7
 10
-761.8831799999997
 20
178.0441099999999
 30
0.0
 11
-761.8831799999997
 21
177.51833999999991
 31
0.0
  0
LINE
  5
675
  8
0
  6
CONTINUOUS
 62
     7
 10
-765.38317999999981
 20
148.54793999999981
 30
0.0
 11
-765.38317999999981
 21
128.5479599999999
 31
0.0
  0
LINE
  5
676
  8
0
  6
CONTINUOUS
 62
     7
 10
-765.38317999999981
 20
148.54793000000001
 30
0.0
 11
-763.88317999999981
 21
148.67916999999991
 31
0.0
  0
LINE
  5
677
  8
0
  6
CONTINUOUS
 62
     7
 10
-765.38317999999981
 20
143.69798
 30
0.0
 11
-760.70562999999981
 21
143.69798
 31
0.0
  0
LINE
  5
678
  8
0
  6
CONTINUOUS
 62
     7
 10
-765.38317999999981
 20
145.82992999999999
 30
0.0
 11
-763.88317999999981
 21
145.82992999999999
 31
0.0
  0
LINE
  5
679
  8
0
  6
CONTINUOUS
 62
     7
 10
-648.53881999999999
 20
164.5479599999999
 30
0.0
 11
-747.51775999999984
 21
164.5479599999999
 31
0.0
  0
LINE
  5
67A
  8
0
  6
CONTINUOUS
 62
     7
 10
-648.53881999999999
 20
162.54795999999999
 30
0.0
 11
-747.51775999999984
 21
162.54795999999999
 31
0.0
  0
LINE
  5
67B
  8
0
  6
CONTINUOUS
 62
     7
 10
-741.38360999999998
 20
154.54793999999981
 30
0.0
 11
-747.51775999999984
 21
154.54793999999981
 31
0.0
  0
LINE
  5
67C
  8
0
  6
CONTINUOUS
 62
     7
 10
-741.38360999999998
 20
152.5479599999999
 30
0.0
 11
-747.51775999999984
 21
152.5479599999999
 31
0.0
  0
LINE
  5
67D
  8
0
  6
CONTINUOUS
 62
     7
 10
-741.38360999999998
 20
144.5479599999999
 30
0.0
 11
-747.51775999999984
 21
144.5479599999999
 31
0.0
  0
LINE
  5
67E
  8
0
  6
CONTINUOUS
 62
     7
 10
-741.38360999999998
 20
142.5479399999999
 30
0.0
 11
-747.51775999999984
 21
142.5479399999999
 31
0.0
  0
LINE
  5
67F
  8
0
  6
CONTINUOUS
 62
     7
 10
-743.38360999999975
 20
134.5479599999999
 30
0.0
 11
-747.51775999999984
 21
134.5479599999999
 31
0.0
  0
LINE
  5
680
  8
0
  6
CONTINUOUS
 62
     7
 10
-743.38360999999975
 20
132.5479599999999
 30
0.0
 11
-747.51775999999984
 21
132.5479599999999
 31
0.0
  0
LINE
  5
681
  8
0
  6
CONTINUOUS
 62
     7
 10
-748.20587
 20
165.27097000000001
 30
0.0
 11
-645.06110000000001
 21
165.27097000000001
 31
0.0
  0
LINE
  5
682
  8
0
  6
CONTINUOUS
 62
     7
 10
-748.20587
 20
161.91515000000001
 30
0.0
 11
-735.88360999999975
 21
161.91515000000001
 31
0.0
  0
LINE
  5
683
  8
0
  6
CONTINUOUS
 62
     7
 10
-748.42162999999982
 20
155.03408999999991
 30
0.0
 11
-741.38360999999998
 21
155.03408999999991
 31
0.0
  0
LINE
  5
684
  8
0
  6
CONTINUOUS
 62
     7
 10
-748.42162999999982
 20
152.11113
 30
0.0
 11
-741.38360999999998
 21
152.11113
 31
0.0
  0
LINE
  5
685
  8
0
  6
CONTINUOUS
 62
     7
 10
-748.55219
 20
144.89146
 30
0.0
 11
-741.38360999999998
 21
144.89146
 31
0.0
  0
LINE
  5
686
  8
0
  6
CONTINUOUS
 62
     7
 10
-748.55219
 20
142.2296
 30
0.0
 11
-741.38360999999998
 21
142.2296
 31
0.0
  0
LINE
  5
687
  8
0
  6
CONTINUOUS
 62
     7
 10
-748.61419999999998
 20
134.82070999999991
 30
0.0
 11
-743.38360999999975
 21
134.82070999999991
 31
0.0
  0
LINE
  5
688
  8
0
  6
CONTINUOUS
 62
     7
 10
-748.61419999999998
 20
132.28287
 30
0.0
 11
-743.38360999999975
 21
132.28287
 31
0.0
  0
LINE
  5
689
  8
0
  6
CONTINUOUS
 62
     7
 10
-645.06110000000001
 20
161.91515000000001
 30
0.0
 11
-661.58312999999987
 21
161.91515000000001
 31
0.0
  0
LINE
  5
68A
  8
0
  6
CONTINUOUS
 62
     7
 10
-662.58318999999995
 20
160.91515000000001
 30
0.0
 11
-662.58318999999995
 21
160.04769999999979
 31
0.0
  0
LINE
  5
68B
  8
0
  6
CONTINUOUS
 62
     7
 10
-748.61419999999998
 20
124.81297000000001
 30
0.0
 11
-743.38360999999975
 21
124.81297000000001
 31
0.0
  0
LINE
  5
68C
  8
0
  6
CONTINUOUS
 62
     7
 10
-743.38360999999975
 20
124.54794
 30
0.0
 11
-747.51775999999984
 21
124.54794
 31
0.0
  0
LINE
  5
68D
  8
0
  6
CONTINUOUS
 62
     7
 10
-743.38360999999975
 20
122.54795
 30
0.0
 11
-747.51775999999984
 21
122.54795
 31
0.0
  0
LINE
  5
68E
  8
0
  6
CONTINUOUS
 62
     7
 10
-748.61419999999998
 20
122.27512
 30
0.0
 11
-743.38360999999975
 21
122.27512
 31
0.0
  0
LINE
  5
68F
  8
0
  6
CONTINUOUS
 62
     7
 10
-748.55219
 20
114.86631
 30
0.0
 11
-741.38360999999998
 21
114.86631
 31
0.0
  0
LINE
  5
690
  8
0
  6
CONTINUOUS
 62
     7
 10
-741.38360999999998
 20
114.54796
 30
0.0
 11
-747.51775999999984
 21
114.54796
 31
0.0
  0
LINE
  5
691
  8
0
  6
CONTINUOUS
 62
     7
 10
-741.38360999999998
 20
112.5479399999999
 30
0.0
 11
-747.51775999999984
 21
112.5479399999999
 31
0.0
  0
LINE
  5
692
  8
0
  6
CONTINUOUS
 62
     7
 10
-748.55219
 20
112.20443999999991
 30
0.0
 11
-741.38360999999998
 21
112.20443999999991
 31
0.0
  0
LINE
  5
693
  8
0
  6
CONTINUOUS
 62
     7
 10
-741.38360999999998
 20
104.54795
 30
0.0
 11
-747.51775999999984
 21
104.54795
 31
0.0
  0
LINE
  5
694
  8
0
  6
CONTINUOUS
 62
     7
 10
-748.42156999999986
 20
104.9847199999999
 30
0.0
 11
-741.38360999999998
 21
104.9847199999999
 31
0.0
  0
LINE
  5
695
  8
0
  6
CONTINUOUS
 62
     7
 10
-741.38360999999998
 20
102.54795
 30
0.0
 11
-747.51775999999984
 21
102.54795
 31
0.0
  0
LINE
  5
696
  8
0
  6
CONTINUOUS
 62
     7
 10
-748.42156999999986
 20
102.06174
 30
0.0
 11
-741.38360999999998
 21
102.06174
 31
0.0
  0
LINE
  5
697
  8
0
  6
CONTINUOUS
 62
     7
 10
-648.53881999999999
 20
94.547957999999994
 30
0.0
 11
-692.88311999999985
 21
94.547957999999994
 31
0.0
  0
LINE
  5
698
  8
0
  6
CONTINUOUS
 62
     7
 10
-648.53881999999999
 20
92.547950999999998
 30
0.0
 11
-692.88311999999985
 21
92.547950999999998
 31
0.0
  0
LINE
  5
699
  8
0
  6
CONTINUOUS
 62
     7
 10
-748.20519999999999
 20
91.824866999999998
 30
0.0
 11
-692.88311999999985
 21
91.824866999999998
 31
0.0
  0
LINE
  5
69A
  8
0
  6
CONTINUOUS
 62
     7
 10
-661.38317999999981
 20
98.282318000000004
 30
0.0
 11
-652.11315999999999
 21
98.547934999999995
 31
0.0
  0
LINE
  5
69B
  8
0
  6
CONTINUOUS
 62
     7
 10
-662.58318999999995
 20
96.180710000000005
 30
0.0
 11
-662.58318999999995
 21
97.048195000000007
 31
0.0
  0
LINE
  5
69C
  8
0
  6
CONTINUOUS
 62
     7
 10
-645.06110000000001
 20
95.180701999999997
 30
0.0
 11
-661.58312999999987
 21
95.180701999999997
 31
0.0
  0
LINE
  5
69D
  8
0
  6
CONTINUOUS
 62
     7
 10
-761.67846999999983
 20
92.858681000000004
 30
0.0
 11
-759.58318999999983
 21
92.858681000000004
 31
0.0
  0
LINE
  5
69E
  8
0
  6
CONTINUOUS
 62
     7
 10
-762.07135000000005
 20
92.939079000000007
 30
0.0
 11
-763.27593999999999
 21
93.453536999999997
 31
0.0
  0
LINE
  5
69F
  8
0
  6
CONTINUOUS
 62
     7
 10
-761.73284999999998
 20
94.804787000000005
 30
0.0
 11
-759.88311999999985
 21
94.804787000000005
 31
0.0
  0
LINE
  5
6A0
  8
0
  6
CONTINUOUS
 62
     7
 10
-762.02678999999989
 20
94.849007
 30
0.0
 11
-763.17711999999983
 21
95.202858000000006
 31
0.0
  0
LINE
  5
6A1
  8
0
  6
CONTINUOUS
 62
     7
 10
-759.88311999999985
 20
102.54795
 30
0.0
 11
-762.88311999999985
 21
102.54795
 31
0.0
  0
LINE
  5
6A2
  8
0
  6
CONTINUOUS
 62
     7
 10
-759.88311999999985
 20
104.54795
 30
0.0
 11
-762.88311999999985
 21
104.54795
 31
0.0
  0
LINE
  5
6A3
  8
0
  6
CONTINUOUS
 62
     7
 10
-759.88311999999985
 20
112.5479399999999
 30
0.0
 11
-762.88311999999985
 21
112.5479399999999
 31
0.0
  0
LINE
  5
6A4
  8
0
  6
CONTINUOUS
 62
     7
 10
-761.8831799999997
 20
122.93467
 30
0.0
 11
-761.8831799999997
 21
124.09556000000001
 31
0.0
  0
LINE
  5
6A5
  8
0
  6
CONTINUOUS
 62
     7
 10
-759.88311999999985
 20
114.54796
 30
0.0
 11
-762.88311999999985
 21
114.54796
 31
0.0
  0
LINE
  5
6A6
  8
0
  6
CONTINUOUS
 62
     7
 10
-759.88311999999985
 20
122.54795
 30
0.0
 11
-762.88311999999985
 21
122.54795
 31
0.0
  0
LINE
  5
6A7
  8
0
  6
CONTINUOUS
 62
     7
 10
-759.88311999999985
 20
124.54794
 30
0.0
 11
-762.88311999999985
 21
124.54794
 31
0.0
  0
LINE
  5
6A8
  8
0
  6
CONTINUOUS
 62
     7
 10
-761.8831799999997
 20
112.9408399999998
 30
0.0
 11
-761.8831799999997
 21
114.15219999999979
 31
0.0
  0
LINE
  5
6A9
  8
0
  6
CONTINUOUS
 62
     7
 10
-761.8831799999997
 20
102.92174
 30
0.0
 11
-761.8831799999997
 21
104.2845899999998
 31
0.0
  0
LINE
  5
6AA
  8
0
  6
CONTINUOUS
 62
     7
 10
-761.8831799999997
 20
93.155074999999997
 30
0.0
 11
-761.8831799999997
 21
94.215003999999993
 31
0.0
  0
LINE
  5
6AB
  8
0
  6
CONTINUOUS
 62
     7
 10
-748.20519999999999
 20
95.180701999999997
 30
0.0
 11
-735.88360999999975
 21
95.180701999999997
 31
0.0
  0
LINE
  5
6AC
  8
0
  6
CONTINUOUS
 62
     7
 10
-765.38317999999981
 20
108.5479599999999
 30
0.0
 11
-765.38317999999981
 21
128.5479599999999
 31
0.0
  0
LINE
  5
6AD
  8
0
  6
CONTINUOUS
 62
     7
 10
-765.38311999999985
 20
108.54797000000001
 30
0.0
 11
-763.88306
 21
108.41673
 31
0.0
  0
LINE
  5
6AE
  8
0
  6
CONTINUOUS
 62
     7
 10
-765.38317999999981
 20
113.3979199999999
 30
0.0
 11
-762.08947999999998
 21
113.3979199999999
 31
0.0
  0
LINE
  5
6AF
  8
0
  6
CONTINUOUS
 62
     7
 10
-765.38317999999981
 20
111.26591000000001
 30
0.0
 11
-763.88317999999981
 21
111.26591000000001
 31
0.0
  0
LINE
  5
6B0
  8
0
  6
CONTINUOUS
 62
     7
 10
-692.88311999999985
 20
94.547957999999994
 30
0.0
 11
-747.51775999999984
 21
94.547957999999994
 31
0.0
  0
LINE
  5
6B1
  8
0
  6
CONTINUOUS
 62
     7
 10
-739.88360999999975
 20
98.547950999999998
 30
0.0
 11
-664.38311999999996
 21
98.547950999999998
 31
0.0
  0
LINE
  5
6B2
  8
0
  6
CONTINUOUS
 62
     7
 10
-692.88311999999985
 20
92.547950999999998
 30
0.0
 11
-747.51775999999984
 21
92.547950999999998
 31
0.0
  0
LINE
  5
6B3
  8
0
  6
CONTINUOUS
 62
     7
 10
-692.88311999999985
 20
91.824866999999998
 30
0.0
 11
-645.06110000000001
 21
91.824866999999998
 31
0.0
  0
LINE
  5
6B4
  8
0
  6
CONTINUOUS
 62
     7
 10
-757.8831799999997
 20
181.5479399999999
 30
0.0
 11
-757.8831799999997
 21
75.547950999999983
 31
0.0
  0
LINE
  5
6B5
  8
0
  6
CONTINUOUS
 62
     7
 10
-749.88311999999985
 20
181.5479399999999
 30
0.0
 11
-749.88311999999985
 21
79.107703999999998
 31
0.0
  0
LINE
  5
6B6
  8
0
  6
CONTINUOUS
 62
     7
 10
-763.38860999999974
 20
87.444855000000004
 30
0.0
 11
-763.41216999999983
 21
87.458679000000004
 31
0.0
  0
LINE
  5
6B7
  8
0
  6
CONTINUOUS
 62
     7
 10
-758.88317999999981
 20
178.5479399999999
 30
0.0
 11
-758.88317999999981
 21
77.424720999999977
 31
0.0
  0
LINE
  5
6B8
  8
0
  6
CONTINUOUS
 62
     7
 10
-758.88317999999981
 20
178.5479399999999
 30
0.0
 11
-757.8831799999997
 21
178.5479399999999
 31
0.0
  0
LINE
  5
6B9
  8
0
  6
CONTINUOUS
 62
     7
 10
-757.8831799999997
 20
181.5479399999999
 30
0.0
 11
-749.88311999999985
 21
181.5479399999999
 31
0.0
  0
LINE
  5
6BA
  8
0
  6
CONTINUOUS
 62
     7
 10
-757.18505999999957
 20
171.73935
 30
0.0
 11
-750.95519999999999
 21
171.73935
 31
0.0
  0
LINE
  5
6BB
  8
0
  6
CONTINUOUS
 62
     7
 10
-641.88311999999985
 20
174.5479599999999
 30
0.0
 11
-633.88311999999985
 21
174.5479599999999
 31
0.0
  0
LINE
  5
6BC
  8
0
  6
CONTINUOUS
 62
     7
 10
-641.88311999999985
 20
184.5479399999999
 30
0.0
 11
-633.88311999999985
 21
184.5479399999999
 31
0.0
  0
LINE
  5
6BD
  8
0
  6
CONTINUOUS
 62
     7
 10
-725.88311999999985
 20
165.27097000000001
 30
0.0
 11
-725.88311999999985
 21
165.27097000000001
 31
0.0
  0
LINE
  5
6BE
  8
0
  6
CONTINUOUS
 62
     7
 10
-725.88311999999985
 20
91.824866999999998
 30
0.0
 11
-725.88311999999985
 21
90.324866999999969
 31
0.0
  0
LINE
  5
6BF
  8
0
  6
CONTINUOUS
 62
     7
 10
-746.67675999999983
 20
184.83121
 30
0.0
 11
-649.75702000000001
 21
184.83121
 31
0.0
  0
LINE
  5
6C0
  8
0
  6
CONTINUOUS
 62
     7
 10
-749.88317999999958
 20
176.64365000000001
 30
0.0
 11
-748.64190999999983
 21
183.20308
 31
0.0
  0
LINE
  5
6C1
  8
0
  6
CONTINUOUS
 62
     7
 10
-744.51769999999999
 20
165.19916000000001
 30
0.0
 11
-749.88311999999985
 21
176.64363
 31
0.0
  0
LINE
  5
6C2
  8
0
  6
CONTINUOUS
 62
     7
 10
-744.51775999999984
 20
91.896736000000004
 30
0.0
 11
-749.88317999999958
 21
80.452263000000016
 31
0.0
  0
LINE
  5
6C3
  8
0
  6
CONTINUOUS
 62
     7
 10
-724.38311999999985
 20
166.77097000000001
 30
0.0
 11
-641.88311999999985
 21
166.77097000000001
 31
0.0
  0
LINE
  5
6C4
  8
0
  6
CONTINUOUS
 62
     7
 10
-746.62810999999988
 20
187.67758000000001
 30
0.0
 11
-712.88317999999981
 21
187.67758000000001
 31
0.0
  0
LINE
  5
6C5
  8
0
  6
CONTINUOUS
 62
     7
 10
-746.61474999999984
 20
189.5252999999999
 30
0.0
 11
-712.88317999999981
 21
189.5252999999999
 31
0.0
  0
LINE
  5
6C6
  8
0
  6
CONTINUOUS
 62
     7
 10
-746.59343999999999
 20
190.4358399999999
 30
0.0
 11
-712.88317999999981
 21
190.4358399999999
 31
0.0
  0
LINE
  5
6C7
  8
0
  6
CONTINUOUS
 62
     7
 10
-749.88317999999958
 20
177.98820000000001
 30
0.0
 11
-748.60308999999984
 21
185.99338999999981
 31
0.0
  0
LINE
  5
6C8
  8
0
  6
CONTINUOUS
 62
     7
 10
-749.88311999999985
 20
179.3327899999999
 30
0.0
 11
-748.59204
 21
187.82587000000001
 31
0.0
  0
LINE
  5
6C9
  8
0
  6
CONTINUOUS
 62
     7
 10
-749.88311999999985
 20
179.33280999999999
 30
0.0
 11
-748.5742799999997
 21
188.7122699999999
 31
0.0
  0
LINE
  5
6CA
  8
0
  6
CONTINUOUS
 62
     7
 10
-710.88311999999996
 20
188.43582000000001
 30
0.0
 11
-710.88311999999996
 21
184.83121
 31
0.0
  0
LINE
  5
6CB
  8
0
  6
CONTINUOUS
 62
     7
 10
-643.68102999999985
 20
167.88273999999981
 30
0.0
 11
-647.82512999999994
 21
183.3488199999999
 31
0.0
  0
LINE
  5
6CC
  8
0
  6
CONTINUOUS
 62
     7
 10
-647.3425900000002
 20
181.5479399999999
 30
0.0
 11
-641.88311999999985
 21
181.5479399999999
 31
0.0
  0
LINE
  5
6CD
  8
0
  6
CONTINUOUS
 62
     7
 10
-763.88317999999981
 20
80.531531999999999
 30
0.0
 11
-763.88317999999981
 21
123.54796
 31
0.0
  0
LINE
  5
6CE
  8
0
  6
CONTINUOUS
 62
     7
 10
-761.61492999999984
 20
78.798560999999964
 30
0.0
 11
-759.38317999999981
 21
78.798560999999964
 31
0.0
  0
LINE
  5
6CF
  8
0
  6
CONTINUOUS
 62
     7
 10
-762.11536000000001
 20
78.932769999999977
 30
0.0
 11
-763.38354000000004
 21
79.665749000000005
 31
0.0
  0
LINE
  5
6D0
  8
0
  6
CONTINUOUS
 62
     7
 10
-762.12072999999998
 20
81.048866000000004
 30
0.0
 11
-763.39764000000002
 21
81.815108999999964
 31
0.0
  0
LINE
  5
6D1
  8
0
  6
CONTINUOUS
 62
     7
 10
-762.13292999999999
 20
85.58678399999998
 30
0.0
 11
-763.43151999999975
 21
86.438346999999965
 31
0.0
  0
LINE
  5
6D2
  8
0
  6
CONTINUOUS
 62
     7
 10
-761.60613999999964
 20
80.906288000000004
 30
0.0
 11
-758.88317999999981
 21
80.906288000000004
 31
0.0
  0
LINE
  5
6D3
  8
0
  6
CONTINUOUS
 62
     7
 10
-761.58452999999975
 20
85.423012
 30
0.0
 11
-758.88317999999981
 21
85.423012
 31
0.0
  0
LINE
  5
6D4
  8
0
  6
CONTINUOUS
 62
     7
 10
-761.61181999999985
 20
86.563025999999979
 30
0.0
 11
-759.88311999999985
 21
86.563025999999979
 31
0.0
  0
LINE
  5
6D5
  8
0
  6
CONTINUOUS
 62
     7
 10
-761.63451999999984
 20
82.046303000000023
 30
0.0
 11
-759.88311999999985
 21
82.046303000000023
 31
0.0
  0
LINE
  5
6D6
  8
0
  6
CONTINUOUS
 62
     7
 10
-761.64386000000002
 20
79.944862000000001
 30
0.0
 11
-759.38317999999981
 21
79.944862000000001
 31
0.0
  0
LINE
  5
6D7
  8
0
  6
CONTINUOUS
 62
     7
 10
-762.11725000000001
 20
86.700142
 30
0.0
 11
-763.38860999999974
 21
87.444831999999948
 31
0.0
  0
LINE
  5
6D8
  8
0
  6
CONTINUOUS
 62
     7
 10
-762.09649999999988
 20
80.053191999999981
 30
0.0
 11
-763.33574999999985
 21
80.682213000000004
 31
0.0
  0
LINE
  5
6D9
  8
0
  6
CONTINUOUS
 62
     7
 10
-762.10277999999983
 20
82.162757999999982
 30
0.0
 11
-763.35144000000003
 21
82.824623000000003
 31
0.0
  0
LINE
  5
6DA
  8
0
  6
CONTINUOUS
 62
     7
 10
-761.8831799999997
 20
85.71751399999998
 30
0.0
 11
-761.8831799999997
 21
86.18961299999998
 31
0.0
  0
LINE
  5
6DB
  8
0
  6
CONTINUOUS
 62
     7
 10
-761.8831799999997
 20
81.151413000000005
 30
0.0
 11
-761.8831799999997
 21
81.697432999999975
 31
0.0
  0
LINE
  5
6DC
  8
0
  6
CONTINUOUS
 62
     7
 10
-761.8831799999997
 20
79.051795999999982
 30
0.0
 11
-761.8831799999997
 21
79.577553000000023
 31
0.0
  0
LINE
  5
6DD
  8
0
  6
CONTINUOUS
 62
     7
 10
-758.88317999999981
 20
78.547950999999998
 30
0.0
 11
-757.8831799999997
 21
78.547950999999998
 31
0.0
  0
LINE
  5
6DE
  8
0
  6
CONTINUOUS
 62
     7
 10
-757.8831799999997
 20
75.547950999999983
 30
0.0
 11
-749.88311999999985
 21
75.547950999999983
 31
0.0
  0
LINE
  5
6DF
  8
0
  6
CONTINUOUS
 62
     7
 10
-757.18505999999957
 20
85.356482999999983
 30
0.0
 11
-750.95519999999999
 21
85.356482999999983
 31
0.0
  0
LINE
  5
6E0
  8
0
  6
CONTINUOUS
 62
     7
 10
-641.88311999999985
 20
82.54795799999998
 30
0.0
 11
-633.88311999999985
 21
82.54795799999998
 31
0.0
  0
LINE
  5
6E1
  8
0
  6
CONTINUOUS
 62
     7
 10
-641.88311999999985
 20
160.4854
 30
0.0
 11
-633.88311999999985
 21
160.4854
 31
0.0
  0
LINE
  5
6E2
  8
0
  6
CONTINUOUS
 62
     7
 10
-641.88311999999985
 20
72.547950999999983
 30
0.0
 11
-633.88311999999985
 21
72.547950999999983
 31
0.0
  0
LINE
  5
6E3
  8
0
  6
CONTINUOUS
 62
     7
 10
-746.67675999999983
 20
72.264686999999981
 30
0.0
 11
-649.75702000000001
 21
72.264686999999981
 31
0.0
  0
LINE
  5
6E4
  8
0
  6
CONTINUOUS
 62
     7
 10
-749.88317999999958
 20
80.452179000000001
 30
0.0
 11
-748.64190999999983
 21
73.892821999999981
 31
0.0
  0
LINE
  5
6E5
  8
0
  6
CONTINUOUS
 62
     7
 10
-746.62810999999988
 20
69.418312
 30
0.0
 11
-712.88317999999981
 21
69.418312
 31
0.0
  0
LINE
  5
6E6
  8
0
  6
CONTINUOUS
 62
     7
 10
-746.61474999999984
 20
67.570533999999995
 30
0.0
 11
-712.88317999999981
 21
67.570533999999995
 31
0.0
  0
LINE
  5
6E7
  8
0
  6
CONTINUOUS
 62
     7
 10
-746.59343999999999
 20
66.660010999999983
 30
0.0
 11
-712.88317999999981
 21
66.660010999999983
 31
0.0
  0
LINE
  5
6E8
  8
0
  6
CONTINUOUS
 62
     7
 10
-749.88317999999958
 20
79.107680999999999
 30
0.0
 11
-748.60308999999984
 21
71.102493000000024
 31
0.0
  0
LINE
  5
6E9
  8
0
  6
CONTINUOUS
 62
     7
 10
-749.88317999999958
 20
77.763122999999979
 30
0.0
 11
-748.59215999999981
 21
69.269974000000005
 31
0.0
  0
LINE
  5
6EA
  8
0
  6
CONTINUOUS
 62
     7
 10
-749.88317999999958
 20
77.763083999999964
 30
0.0
 11
-748.5742799999997
 21
68.383613999999994
 31
0.0
  0
LINE
  5
6EB
  8
0
  6
CONTINUOUS
 62
     7
 10
-710.88311999999996
 20
68.660010999999997
 30
0.0
 11
-710.88311999999996
 21
72.264686999999981
 31
0.0
  0
LINE
  5
6EC
  8
0
  6
CONTINUOUS
 62
     7
 10
-643.38311999999996
 20
90.324921000000003
 30
0.0
 11
-647.82512999999994
 21
73.747062999999983
 31
0.0
  0
LINE
  5
6ED
  8
0
  6
CONTINUOUS
 62
     7
 10
-647.3425900000002
 20
75.547950999999983
 30
0.0
 11
-641.88311999999985
 21
75.547950999999983
 31
0.0
  0
LINE
  5
6EE
  8
0
  6
CONTINUOUS
 62
     7
 10
-641.88311999999985
 20
96.610512000000014
 30
0.0
 11
-633.88311999999985
 21
96.610512000000014
 31
0.0
  0
LINE
  5
6EF
  8
0
  6
CONTINUOUS
 62
     7
 10
-725.88311999999985
 20
91.824866999999998
 30
0.0
 11
-725.88311999999985
 21
91.824866999999998
 31
0.0
  0
LINE
  5
6F0
  8
0
  6
CONTINUOUS
 62
     7
 10
-724.38311999999985
 20
90.324866999999969
 30
0.0
 11
-641.88311999999985
 21
90.324866999999969
 31
0.0
  0
LINE
  5
6F1
  8
0
  6
CONTINUOUS
 62
     7
 10
-661.38311999999985
 20
98.547950999999998
 30
0.0
 11
-652.11310000000003
 21
98.547950999999998
 31
0.0
  0
LINE
  5
6F2
  8
0
  6
CONTINUOUS
 62
     3
 10
-717.51116999999999
 20
151.04769999999991
 30
0.0
 11
-713.30615
 21
151.04769999999991
 31
0.0
  0
LINE
  5
6F3
  8
0
  6
CONTINUOUS
 62
     3
 10
-715.38311999999985
 20
148.98570000000001
 30
0.0
 11
-715.38311999999985
 21
153.0116899999999
 31
0.0
  0
LINE
  5
6F4
  8
0
  6
CONTINUOUS
 62
     3
 10
-741.38360999999998
 20
136.04769999999991
 30
0.0
 11
-741.38360999999998
 21
160.04769999999979
 31
0.0
  0
LINE
  5
6F5
  8
0
  6
CONTINUOUS
 62
     3
 10
-741.38360999999998
 20
97.048195000000007
 30
0.0
 11
-741.38360999999998
 21
121.04770000000001
 31
0.0
  0
LINE
  5
6F6
  8
0
  6
CONTINUOUS
 62
     3
 10
-715.8831799999997
 20
105.54819999999999
 30
0.0
 11
-715.8831799999997
 21
145.57071999999991
 31
0.0
  0
LINE
  5
6F7
  8
0
  6
CONTINUOUS
 62
     3
 10
-669.88311999999985
 20
111.52566999999991
 30
0.0
 11
-669.88311999999985
 21
151.54771
 31
0.0
  0
LINE
  5
6F8
  8
0
  6
CONTINUOUS
 62
     3
 10
-661.38311999999985
 20
97.048195000000007
 30
0.0
 11
-661.38311999999985
 21
160.04769999999979
 31
0.0
  0
LINE
  5
6F9
  8
0
  6
CONTINUOUS
 62
     3
 10
-709.90612999999985
 20
151.54771
 30
0.0
 11
-669.88311999999985
 21
151.54771
 31
0.0
  0
LINE
  5
6FA
  8
0
  6
CONTINUOUS
 62
     3
 10
-715.8831799999997
 20
105.54819999999999
 30
0.0
 11
-675.86114999999995
 21
105.54819999999999
 31
0.0
  0
LINE
  5
6FB
  8
0
  6
CONTINUOUS
 62
     3
 10
-741.38360999999998
 20
160.04769999999979
 30
0.0
 11
-735.88360999999975
 21
160.04769999999979
 31
0.0
  0
LINE
  5
6FC
  8
0
  6
CONTINUOUS
 62
     3
 10
-741.38360999999998
 20
97.048195000000007
 30
0.0
 11
-735.88360999999975
 21
97.048195000000007
 31
0.0
  0
LINE
  5
6FD
  8
0
  6
CONTINUOUS
 62
     3
 10
-670.38311999999985
 20
103.98618
 30
0.0
 11
-670.38311999999985
 21
108.0121199999999
 31
0.0
  0
LINE
  5
6FE
  8
0
  6
CONTINUOUS
 62
     3
 10
-672.51116999999999
 20
106.0481999999998
 30
0.0
 11
-668.30614999999989
 21
106.0481999999998
 31
0.0
  0
LINE
  5
6FF
  8
0
  6
CONTINUOUS
 62
     3
 10
-710.68317000000002
 20
146.35173
 30
0.0
 11
-675.08312999999976
 21
146.35173
 31
0.0
  0
LINE
  5
700
  8
0
  6
CONTINUOUS
 62
     3
 10
-710.68317000000002
 20
110.7477199999999
 30
0.0
 11
-675.08312999999976
 21
110.7477199999999
 31
0.0
  0
LINE
  5
701
  8
0
  6
CONTINUOUS
 62
     3
 10
-675.08312999999976
 20
110.7477199999999
 30
0.0
 11
-675.08312999999976
 21
146.35173
 31
0.0
  0
LINE
  5
702
  8
0
  6
CONTINUOUS
 62
     3
 10
-710.68317000000002
 20
110.7477199999999
 30
0.0
 11
-710.68317000000002
 21
146.35173
 31
0.0
  0
LINE
  5
703
  8
0
  6
CONTINUOUS
 62
     3
 10
-739.88360999999975
 20
158.54769999999999
 30
0.0
 11
-664.38311999999996
 21
158.54769999999999
 31
0.0
  0
LINE
  5
704
  8
0
  6
CONTINUOUS
 62
     3
 10
-739.88360999999975
 20
98.548195000000007
 30
0.0
 11
-739.88360999999975
 21
158.54769999999999
 31
0.0
  0
LINE
  5
705
  8
0
  6
CONTINUOUS
 62
     3
 10
-720.88311999999985
 20
162.04771
 30
0.0
 11
-720.88311999999985
 21
158.54769999999999
 31
0.0
  0
LINE
  5
706
  8
0
  6
CONTINUOUS
 62
     3
 10
-735.88360999999975
 20
162.04771
 30
0.0
 11
-720.88311999999985
 21
162.04771
 31
0.0
  0
LINE
  5
707
  8
0
  6
CONTINUOUS
 62
     3
 10
-735.88360999999975
 20
162.04771
 30
0.0
 11
-735.88360999999975
 21
158.54769999999999
 31
0.0
  0
LINE
  5
708
  8
0
  6
CONTINUOUS
 62
     3
 10
-743.38360999999975
 20
136.04769999999991
 30
0.0
 11
-739.88360999999975
 21
136.04769999999991
 31
0.0
  0
LINE
  5
709
  8
0
  6
CONTINUOUS
 62
     3
 10
-743.38360999999975
 20
121.04770000000001
 30
0.0
 11
-743.38360999999975
 21
136.04769999999991
 31
0.0
  0
LINE
  5
70A
  8
0
  6
CONTINUOUS
 62
     7
 10
-661.38311999999985
 20
158.54795999999999
 30
0.0
 11
-652.11310000000003
 21
158.54795999999999
 31
0.0
  0
LINE
  5
70B
  8
0
  6
CONTINUOUS
 62
     7
 10
-97.280945000000003
 20
181.5479399999999
 30
0.0
 11
-97.280945000000003
 21
143.5479599999999
 31
0.0
  0
LINE
  5
70C
  8
0
  6
CONTINUOUS
 62
     7
 10
-142.28093999999999
 20
262.06265000000002
 30
0.0
 11
-142.28093999999999
 21
255.87218999999999
 31
0.0
  0
LINE
  5
70D
  8
0
  6
CONTINUOUS
 62
     7
 10
-148.28093999999979
 20
262.06265000000002
 30
0.0
 11
-148.28093999999979
 21
255.87218999999999
 31
0.0
  0
LINE
  5
70E
  8
0
  6
CONTINUOUS
 62
     7
 10
-145.2809399999999
 20
64.047950999999998
 30
0.0
 11
-115.2809399999999
 21
64.047950999999998
 31
0.0
  0
LINE
  5
70F
  8
0
  6
CONTINUOUS
 62
     7
 10
-27.780949
 20
151.54793999999981
 30
0.0
 11
-31.195800999999999
 21
86.388671999999985
 31
0.0
  0
LINE
  5
710
  8
0
  6
CONTINUOUS
 62
     7
 10
-27.780951000000002
 20
181.5479399999999
 30
0.0
 11
-27.780951000000002
 21
211.5479399999999
 31
0.0
  0
LINE
  5
711
  8
0
  6
CONTINUOUS
 62
     7
 10
-115.28095
 20
64.047950999999998
 30
0.0
 11
-50.121670000000002
 21
67.462806999999984
 31
0.0
  0
LINE
  5
712
  8
0
  6
CONTINUOUS
 62
     7
 10
-145.2809399999999
 20
299.04793999999993
 30
0.0
 11
-115.2809399999999
 21
299.04793999999993
 31
0.0
  0
LINE
  5
713
  8
0
  6
CONTINUOUS
 62
     7
 10
-115.28095
 20
299.04793999999993
 30
0.0
 11
-50.121681000000002
 21
295.63308999999992
 31
0.0
  0
LINE
  5
714
  8
0
  6
CONTINUOUS
 62
     7
 10
-410.88314999999989
 20
76.54795799999998
 30
0.0
 11
-410.88314999999989
 21
286.54797000000002
 31
0.0
  0
LINE
  5
715
  8
0
  6
CONTINUOUS
 62
     7
 10
-414.88315
 20
286.54797000000002
 30
0.0
 11
-410.88314999999989
 21
286.54797000000002
 31
0.0
  0
LINE
  5
716
  8
0
  6
CONTINUOUS
 62
     7
 10
-426.16768999999999
 20
275.13956000000002
 30
0.0
 11
-425.98784999999998
 21
275.14583999999991
 31
0.0
  0
LINE
  5
717
  8
0
  6
CENTER
 62
     7
 10
-60.738482999999981
 20
266.09041999999999
 30
0.0
 11
-39.700316999999991
 21
287.12859999999989
 31
0.0
  0
LINE
  5
718
  8
0
  6
CONTINUOUS
 62
     7
 10
-105.5201599999999
 20
215.65190000000001
 30
0.0
 11
-76.289847999999964
 21
244.88220000000001
 31
0.0
  0
LINE
  5
719
  8
0
  6
CONTINUOUS
 62
     7
 10
-111.17700000000001
 20
221.3087499999998
 30
0.0
 11
-81.946693000000025
 21
250.53905
 31
0.0
  0
LINE
  5
71A
  8
0
  6
CONTINUOUS
 62
     7
 10
-185.04175000000001
 20
215.65190000000001
 30
0.0
 11
-214.27205000000001
 21
244.88220000000001
 31
0.0
  0
LINE
  5
71B
  8
0
  6
CENTER
 62
     7
 10
-231.20308999999989
 20
95.625815999999986
 30
0.0
 11
-251.5171399999999
 21
75.311768000000001
 31
0.0
  0
LINE
  5
71C
  8
0
  6
CENTER
 62
     7
 10
-229.40897000000001
 20
265.67595999999992
 30
0.0
 11
-251.0779299999999
 21
287.34491000000008
 31
0.0
  0
LINE
  5
71D
  8
0
  6
CONTINUOUS
 62
     7
 10
-262.78093999999987
 20
151.5479599999999
 30
0.0
 11
-259.36608999999987
 21
86.388671999999985
 31
0.0
  0
LINE
  5
71E
  8
0
  6
CONTINUOUS
 62
     7
 10
-27.780951000000002
 20
181.5479399999999
 30
0.0
 11
-27.780951000000002
 21
151.54793999999981
 31
0.0
  0
LINE
  5
71F
  8
0
  6
CONTINUOUS
 62
     7
 10
-27.780949
 20
211.54795999999999
 30
0.0
 11
-31.195803000000002
 21
276.70720999999992
 31
0.0
  0
LINE
  5
720
  8
0
  6
CONTINUOUS
 62
     7
 10
-175.2809399999999
 20
299.04793999999993
 30
0.0
 11
-240.44022000000001
 21
295.63308999999992
 31
0.0
  0
LINE
  5
721
  8
0
  6
CONTINUOUS
 62
     7
 10
-262.78093999999987
 20
211.5479399999999
 30
0.0
 11
-259.36608999999987
 21
276.7072399999999
 31
0.0
  0
LINE
  5
722
  8
0
  6
CONTINUOUS
 62
     7
 10
-175.2809399999999
 20
64.047950999999998
 30
0.0
 11
-240.44023000000001
 21
67.462806999999984
 31
0.0
  0
LINE
  5
723
  8
0
  6
CENTER
 62
     7
 10
-59.593552000000003
 20
95.860557999999997
 30
0.0
 11
-38.837890999999992
 21
75.10489699999998
 31
0.0
  0
LINE
  5
724
  8
0
  6
CONTINUOUS
 62
     7
 10
-262.78093999999987
 20
181.5479399999999
 30
0.0
 11
-262.78093999999987
 21
211.5479399999999
 31
0.0
  0
LINE
  5
725
  8
0
  6
CONTINUOUS
 62
     7
 10
-262.78093999999987
 20
181.5479399999999
 30
0.0
 11
-262.78093999999987
 21
151.54793999999981
 31
0.0
  0
LINE
  5
726
  8
0
  6
CONTINUOUS
 62
     7
 10
-145.2809399999999
 20
64.047950999999998
 30
0.0
 11
-175.28095999999991
 21
64.047950999999998
 31
0.0
  0
LINE
  5
727
  8
0
  6
CONTINUOUS
 62
     7
 10
-145.2809399999999
 20
299.04793999999993
 30
0.0
 11
-175.28095999999991
 21
299.04793999999993
 31
0.0
  0
LINE
  5
728
  8
0
  6
CONTINUOUS
 62
     7
 10
-466.78320000000002
 20
254.64789999999999
 30
0.0
 11
-459.55297999999999
 21
253.48662999999999
 31
0.0
  0
LINE
  5
729
  8
0
  6
CONTINUOUS
 62
     7
 10
-426.88315
 20
119.85868000000001
 30
0.0
 11
-422.88315
 21
119.85868000000001
 31
0.0
  0
LINE
  5
72A
  8
0
  6
CONTINUOUS
 62
     7
 10
-426.88315
 20
149.78371000000001
 30
0.0
 11
-422.88315
 21
149.78371000000001
 31
0.0
  0
LINE
  5
72B
  8
0
  6
CONTINUOUS
 62
     7
 10
-426.88315
 20
237.45868999999999
 30
0.0
 11
-422.88315
 21
237.45868999999999
 31
0.0
  0
LINE
  5
72C
  8
0
  6
CONTINUOUS
 62
     7
 10
-193.28095999999991
 20
181.5479399999999
 30
0.0
 11
-193.28095999999991
 21
143.5479599999999
 31
0.0
  0
LINE
  5
72D
  8
0
  6
CENTER
 62
     7
 10
-405.39950999999979
 20
86.088538999999969
 30
0.0
 11
-434.96255000000002
 21
86.088538999999969
 31
0.0
  0
LINE
  5
72E
  8
0
  6
CONTINUOUS
 62
     7
 10
-537.88311999999985
 20
93.167708999999988
 30
0.0
 11
-431.61965999999973
 21
93.167708999999988
 31
0.0
  0
LINE
  5
72F
  8
0
  6
CONTINUOUS
 62
     7
 10
-442.64617999999967
 20
51.815940999999981
 30
0.0
 11
-421.88315
 21
63.803489999999982
 31
0.0
  0
LINE
  5
730
  8
0
  6
CONTINUOUS
 62
     7
 10
-441.99527
 20
230.58499
 30
0.0
 11
-446.41602
 21
187.9811099999998
 31
0.0
  0
LINE
  5
731
  8
0
  6
CONTINUOUS
 62
     7
 10
-537.88311999999985
 20
232.7523799999999
 30
0.0
 11
-442.88968
 21
232.7523799999999
 31
0.0
  0
LINE
  5
732
  8
0
  6
CONTINUOUS
 62
     7
 10
-429.88315
 20
152.78371000000001
 30
0.0
 11
-429.88315
 21
240.4586899999999
 31
0.0
  0
LINE
  5
733
  8
0
  6
CONTINUOUS
 62
     7
 10
-198.2809399999999
 20
138.5479599999999
 30
0.0
 11
-231.25768999999991
 21
138.5479599999999
 31
0.0
  0
LINE
  5
734
  8
0
  6
CONTINUOUS
 62
     7
 10
-429.88315
 20
66.630736999999996
 30
0.0
 11
-429.88315
 21
119.85868000000001
 31
0.0
  0
LINE
  5
735
  8
0
  6
CONTINUOUS
 62
     7
 10
-179.3848899999999
 20
221.3087499999998
 30
0.0
 11
-208.6151899999999
 21
250.53905
 31
0.0
  0
LINE
  5
736
  8
0
  6
CONTINUOUS
 62
     7
 10
-537.88311999999985
 20
73.130165000000005
 30
0.0
 11
-431.61965999999973
 21
73.130165000000005
 31
0.0
  0
LINE
  5
737
  8
0
  6
CONTINUOUS
 62
     7
 10
-414.88315
 20
64.047950999999998
 30
0.0
 11
-414.88315
 21
181.5479399999999
 31
0.0
  0
LINE
  5
738
  8
0
  6
CONTINUOUS
 62
     7
 10
-414.88315
 20
181.5479399999999
 30
0.0
 11
-414.88315
 21
299.04793999999993
 31
0.0
  0
LINE
  5
739
  8
0
  6
CONTINUOUS
 62
     7
 10
-92.280945000000003
 20
138.5479599999999
 30
0.0
 11
-59.304211000000002
 21
138.5479599999999
 31
0.0
  0
LINE
  5
73A
  8
0
  6
CONTINUOUS
 62
     7
 10
-426.98781999999989
 20
298.62523999999991
 30
0.0
 11
-414.88315
 21
299.04797000000002
 31
0.0
  0
LINE
  5
73B
  8
0
  6
CENTER
 62
     7
 10
-206.54831999999999
 20
153.5479599999999
 30
0.0
 11
-90.851333999999994
 21
153.5479599999999
 31
0.0
  0
LINE
  5
73C
  8
0
  6
CENTER
 62
     7
 10
-349.76482999999979
 20
181.5479399999999
 30
0.0
 11
-592.88482999999985
 21
181.5479399999999
 31
0.0
  0
LINE
  5
73D
  8
0
  6
CONTINUOUS
 62
     7
 10
-427.59859999999992
 20
87.11824799999998
 30
0.0
 11
-425.77843999999999
 21
87.181807999999975
 31
0.0
  0
LINE
  5
73E
  8
0
  6
CONTINUOUS
 62
     7
 10
-422.88315
 20
181.5479399999999
 30
0.0
 11
-422.88315
 21
272.14767000000001
 31
0.0
  0
LINE
  5
73F
  8
0
  6
CONTINUOUS
 62
     7
 10
-414.88315
 20
76.54795799999998
 30
0.0
 11
-410.88314999999989
 21
76.54795799999998
 31
0.0
  0
LINE
  5
740
  8
0
  6
CONTINUOUS
 62
     7
 10
-422.88315
 20
90.179976999999994
 30
0.0
 11
-422.88315
 21
181.5479399999999
 31
0.0
  0
LINE
  5
741
  8
0
  6
CENTER
 62
     7
 10
-405.39950999999979
 20
277.00734999999992
 30
0.0
 11
-434.96255000000002
 21
277.00734999999992
 31
0.0
  0
LINE
  5
742
  8
0
  6
CONTINUOUS
 62
     7
 10
-426.77843999999999
 20
63.632561000000003
 30
0.0
 11
-414.88315
 21
64.047957999999994
 31
0.0
  0
LINE
  5
743
  8
0
  6
CONTINUOUS
 62
     7
 10
-527.88311999999985
 20
54.047950999999998
 30
0.0
 11
-442.64620999999988
 21
51.815940999999981
 31
0.0
  0
LINE
  5
744
  8
0
  6
CONTINUOUS
 62
     7
 10
-527.88317999999981
 20
253.0479399999999
 30
0.0
 11
-468.77727999999991
 21
254.59568999999991
 31
0.0
  0
LINE
  5
745
  8
0
  6
CONTINUOUS
 62
     7
 10
-465.37265000000002
 20
256.05844000000002
 30
0.0
 11
-429.88315
 21
291.54793999999993
 31
0.0
  0
LINE
  5
746
  8
0
  6
CONTINUOUS
 62
     7
 10
-429.88315
 20
240.4586899999999
 30
0.0
 11
-429.88315
 21
295.62707999999998
 31
0.0
  0
LINE
  5
747
  8
0
  6
CONTINUOUS
 62
     7
 10
-150.28093999999979
 20
192.5479599999999
 30
0.0
 11
-140.28095999999991
 21
192.5479599999999
 31
0.0
  0
LINE
  5
748
  8
0
  6
CONTINUOUS
 62
     1
 10
-150.28093999999979
 20
192.5479599999999
 30
0.0
 11
-150.28093999999979
 21
200.54794000000001
 31
0.0
  0
LINE
  5
749
  8
0
  6
CONTINUOUS
 62
     1
 10
-140.28095999999991
 20
192.5479599999999
 30
0.0
 11
-140.28095999999991
 21
200.54794000000001
 31
0.0
  0
LINE
  5
74A
  8
0
  6
CONTINUOUS
 62
     7
 10
-150.28093999999979
 20
200.54794000000001
 30
0.0
 11
-140.28095999999991
 21
200.54794000000001
 31
0.0
  0
LINE
  5
74B
  8
0
  6
CONTINUOUS
 62
     7
 10
-535.95299999999986
 20
54.329749999999983
 30
0.0
 11
-527.88311999999985
 21
54.047947000000001
 31
0.0
  0
LINE
  5
74C
  8
0
  6
CONTINUOUS
 62
     7
 10
-527.88311999999985
 20
596.86658
 30
0.0
 11
-439.18538999999998
 21
599.96398999999997
 31
0.0
  0
LINE
  5
74D
  8
0
  6
CONTINUOUS
 62
     7
 10
-414.88315
 20
392.36658
 30
0.0
 11
-410.88314999999989
 21
392.36658
 31
0.0
  0
LINE
  5
74E
  8
0
  6
CENTER
 62
     7
 10
-405.40117999999973
 20
401.90719999999988
 30
0.0
 11
-436.48714999999987
 21
401.90719999999988
 31
0.0
  0
LINE
  5
74F
  8
0
  6
CONTINUOUS
 62
     7
 10
-429.88315
 20
383.28747999999979
 30
0.0
 11
-429.88315
 21
611.44574
 31
0.0
  0
LINE
  5
750
  8
0
  6
CONTINUOUS
 62
     7
 10
-435.82434000000001
 20
601.42542000000003
 30
0.0
 11
-429.88315
 21
607.36663999999985
 31
0.0
  0
LINE
  5
751
  8
0
  6
CENTER
 62
     7
 10
-405.40117999999973
 20
592.82605000000001
 30
0.0
 11
-436.48714999999987
 21
592.82605000000001
 31
0.0
  0
LINE
  5
752
  8
0
  6
CONTINUOUS
 62
     7
 10
-422.88315
 20
406.76687999999979
 30
0.0
 11
-422.88315
 21
587.96636999999998
 31
0.0
  0
LINE
  5
753
  8
0
  6
CONTINUOUS
 62
     7
 10
-426.98781999999989
 20
614.44390999999985
 30
0.0
 11
-414.88315
 21
614.86657999999977
 31
0.0
  0
LINE
  5
754
  8
0
  6
CONTINUOUS
 62
     7
 10
-414.88315
 20
379.86660999999992
 30
0.0
 11
-414.88315
 21
614.86663999999985
 31
0.0
  0
LINE
  5
755
  8
0
  6
CONTINUOUS
 62
     7
 10
-426.88315
 20
553.27733999999987
 30
0.0
 11
-422.88315
 21
553.27733999999987
 31
0.0
  0
LINE
  5
756
  8
0
  6
CONTINUOUS
 62
     7
 10
-426.16768999999999
 20
590.95818999999995
 30
0.0
 11
-425.98784999999998
 21
590.96447999999975
 31
0.0
  0
LINE
  5
757
  8
0
  6
CONTINUOUS
 62
     7
 10
-414.88315
 20
602.36663999999985
 30
0.0
 11
-410.88314999999989
 21
602.36663999999985
 31
0.0
  0
LINE
  5
758
  8
0
  6
CONTINUOUS
 62
     7
 10
-410.88314999999989
 20
392.36658
 30
0.0
 11
-410.88314999999989
 21
602.36663999999985
 31
0.0
  0
LINE
  5
759
  8
0
  6
CONTINUOUS
 62
     7
 10
-426.88315
 20
441.45586999999989
 30
0.0
 11
-422.88315
 21
441.45586999999989
 31
0.0
  0
LINE
  5
75A
  8
0
  6
CONTINUOUS
 62
     7
 10
-352.88312000000002
 20
481.36664000000002
 30
0.0
 11
-352.88312000000002
 21
513.36663999999996
 31
0.0
  0
LINE
  5
75B
  8
0
  6
CONTINUOUS
 62
     7
 10
-352.88312000000002
 20
481.36664000000002
 30
0.0
 11
-410.88314999999989
 21
481.36664000000002
 31
0.0
  0
LINE
  5
75C
  8
0
  6
CONTINUOUS
 62
     7
 10
-426.98784999999992
 20
380.28931
 30
0.0
 11
-414.88315
 21
379.86660999999992
 31
0.0
  0
LINE
  5
75D
  8
0
  6
CONTINUOUS
 62
     7
 10
-352.88312000000002
 20
513.36663999999996
 30
0.0
 11
-410.88314999999989
 21
513.36663999999996
 31
0.0
  0
LINE
  5
75E
  8
0
  6
CONTINUOUS
 62
     7
 10
-426.16768999999999
 20
403.77498999999989
 30
0.0
 11
-425.98784999999998
 21
403.76871
 31
0.0
  0
LINE
  5
75F
  8
0
  6
CONTINUOUS
 62
     7
 10
-527.88311999999985
 20
397.86660999999992
 30
0.0
 11
-439.18538999999998
 21
394.76922999999988
 31
0.0
  0
LINE
  5
760
  8
0
  6
CONTINUOUS
 62
     7
 10
-435.82436999999999
 20
393.30779999999999
 30
0.0
 11
-429.88315
 21
387.36657999999989
 31
0.0
  0
LINE
  5
761
  8
0
  6
CONTINUOUS
 62
     7
 10
-397.88315
 20
502.36660999999981
 30
0.0
 11
-397.88315
 21
492.36660999999998
 31
0.0
  0
LINE
  5
762
  8
0
  6
CONTINUOUS
 62
     7
 10
-397.88315
 20
502.36660999999981
 30
0.0
 11
-352.88312000000002
 21
502.36660999999981
 31
0.0
  0
LINE
  5
763
  8
0
  6
CONTINUOUS
 62
     7
 10
-397.88315
 20
492.36660999999998
 30
0.0
 11
-352.88312000000002
 21
492.36660999999998
 31
0.0
  0
ARC
  5
764
  8
0
  6
CONTINUOUS
 62
     7
 10
-540.88317999999992
 20
587.60924999999975
 30
0.0
 40
3.0
 50
315.0
 51
0.0
  0
ARC
  5
765
  8
0
  6
CONTINUOUS
 62
     7
 10
-557.88317999999992
 20
428.60165000000001
 30
0.0
 40
5.0
 50
0.0
 51
88.0
  0
ARC
  5
766
  8
0
  6
CONTINUOUS
 62
     7
 10
-535.88317999999992
 20
594.58600000000001
 30
0.0
 40
2.0
 50
91.999998000000005
 51
180.00001
  0
ARC
  5
767
  8
0
  6
CONTINUOUS
 62
     7
 10
-547.88317999999992
 20
569.29552999999999
 30
0.0
 40
5.0
 50
135.0
 51
180.00001
  0
ARC
  5
768
  8
0
  6
CONTINUOUS
 62
     7
 10
-557.88317999999992
 20
566.13158999999985
 30
0.0
 40
5.0
 50
272.0
 51
0.0
  0
ARC
  5
769
  8
0
  6
CONTINUOUS
 62
     7
 10
-547.88317999999992
 20
425.43768
 30
0.0
 40
5.0
 50
179.99998999999991
 51
225.0
  0
ARC
  5
76A
  8
0
  6
CONTINUOUS
 62
     7
 10
-535.88317999999992
 20
400.14722
 30
0.0
 40
2.0
 50
179.99998999999991
 51
268.00000999999992
  0
ARC
  5
76B
  8
0
  6
CONTINUOUS
 62
     7
 10
-540.88317999999992
 20
407.12396000000001
 30
0.0
 40
3.0
 50
0.0
 51
44.999997999999998
  0
ARC
  5
76C
  8
0
  6
CONTINUOUS
 62
     7
 10
-680.86315999999999
 20
529.72655999999995
 30
0.0
 40
1.0
 50
0.0
 51
90.000003000000007
  0
ARC
  5
76D
  8
0
  6
CONTINUOUS
 62
     7
 10
-680.88317999999981
 20
529.86658
 30
0.0
 40
1.5
 50
0.0
 51
90.000003000000007
  0
ARC
  5
76E
  8
0
  6
CONTINUOUS
 62
     7
 10
-662.88317999999981
 20
529.86658
 30
0.0
 40
1.5
 50
90.000003000000007
 51
180.00001
  0
ARC
  5
76F
  8
0
  6
CONTINUOUS
 62
     7
 10
-662.90319999999986
 20
529.72655999999995
 30
0.0
 40
1.0
 50
90.000003000000007
 51
180.00001
  0
ARC
  5
770
  8
0
  6
CONTINUOUS
 62
     7
 10
-644.84325999999999
 20
472.3365799999998
 30
0.0
 40
1.460011199999999
 50
269.77525000000003
 51
90.224749999999986
  0
ARC
  5
771
  8
0
  6
CONTINUOUS
 62
     7
 10
-648.5432099999997
 20
472.36660999999992
 30
0.0
 40
1.0000255999999981
 50
269.58947000000001
 51
90.410531000000006
  0
ARC
  5
772
  8
0
  6
CONTINUOUS
 62
     7
 10
-644.84325999999999
 20
522.39661000000001
 30
0.0
 40
1.460011199999999
 50
269.77525000000003
 51
90.224749999999986
  0
ARC
  5
773
  8
0
  6
CONTINUOUS
 62
     7
 10
-648.5432099999997
 20
522.36658
 30
0.0
 40
1.0000255999999981
 50
269.58947000000001
 51
90.410531000000006
  0
ARC
  5
774
  8
0
  6
CONTINUOUS
 62
     7
 10
-712.21825999999999
 20
512.38159000000007
 30
0.0
 40
1.3350147999999991
 50
269.73043000000001
 51
90.269555999999994
  0
ARC
  5
775
  8
0
  6
CONTINUOUS
 62
     7
 10
-712.15625
 20
502.37661999999989
 30
0.0
 40
1.2700266
 50
269.62931999999989
 51
90.370669999999961
  0
ARC
  5
776
  8
0
  6
CONTINUOUS
 62
     7
 10
-712.15625
 20
492.36660999999998
 30
0.0
 40
1.2700266
 50
269.62931999999989
 51
90.370669999999961
  0
ARC
  5
777
  8
0
  6
CONTINUOUS
 62
     7
 10
-712.21825999999999
 20
482.35660000000001
 30
0.0
 40
1.3300148000000001
 50
269.72941999999989
 51
90.270567000000014
  0
ARC
  5
778
  8
0
  6
CONTINUOUS
 62
     7
 10
-662.88317999999981
 20
469.86660999999992
 30
0.0
 40
1.5
 50
90.000003000000007
 51
180.00001
  0
ARC
  5
779
  8
0
  6
CONTINUOUS
 62
     7
 10
-680.88317999999981
 20
469.86660999999992
 30
0.0
 40
1.5
 50
0.0
 51
90.000003000000007
  0
ARC
  5
77A
  8
0
  6
CONTINUOUS
 62
     7
 10
-662.88317999999981
 20
469.86660999999992
 30
0.0
 40
1.02
 50
90.000003000000007
 51
180.00001
  0
ARC
  5
77B
  8
0
  6
CONTINUOUS
 62
     7
 10
-680.88317999999981
 20
469.86660999999992
 30
0.0
 40
1.02
 50
0.0
 51
90.000003000000007
  0
CIRCLE
  5
77C
  8
0
  6
CONTINUOUS
 62
     3
 10
-674.3831799999997
 20
468.86660999999981
 30
0.0
 40
1.1000000000000001
  0
CIRCLE
  5
77D
  8
0
  6
CONTINUOUS
 62
     3
 10
-674.3831799999997
 20
468.86660999999981
 30
0.0
 40
1.149999999999999
  0
CIRCLE
  5
77E
  8
0
  6
CONTINUOUS
 62
     3
 10
-669.38317999999981
 20
468.86660999999981
 30
0.0
 40
1.0
  0
ARC
  5
77F
  8
0
  6
CONTINUOUS
 62
     7
 10
-662.88317999999981
 20
524.86658
 30
0.0
 40
1.5
 50
179.99998999999991
 51
270.0
  0
ARC
  5
780
  8
0
  6
CONTINUOUS
 62
     7
 10
-680.88317999999981
 20
524.86658
 30
0.0
 40
1.5
 50
269.99998999999991
 51
0.00000068324733
  0
ARC
  5
781
  8
0
  6
CONTINUOUS
 62
     7
 10
-662.88317999999981
 20
524.86658
 30
0.0
 40
1.02
 50
179.99998999999991
 51
270.0
  0
ARC
  5
782
  8
0
  6
CONTINUOUS
 62
     7
 10
-680.88317999999981
 20
524.86658
 30
0.0
 40
1.02
 50
269.99998999999991
 51
0.00000068324403
  0
CIRCLE
  5
783
  8
0
  6
CONTINUOUS
 62
     3
 10
-669.38317999999981
 20
525.86658
 30
0.0
 40
1.0
  0
CIRCLE
  5
784
  8
0
  6
CONTINUOUS
 62
     3
 10
-674.3831799999997
 20
525.86658
 30
0.0
 40
1.149999999999999
  0
CIRCLE
  5
785
  8
0
  6
CONTINUOUS
 62
     3
 10
-674.3831799999997
 20
525.86658
 30
0.0
 40
1.1000000000000001
  0
ARC
  5
786
  8
0
  6
CONTINUOUS
 62
     7
 10
-662.90319999999986
 20
465.00662
 30
0.0
 40
1.0
 50
179.99998999999991
 51
270.0
  0
ARC
  5
787
  8
0
  6
CONTINUOUS
 62
     7
 10
-680.86315999999999
 20
465.00662
 30
0.0
 40
1.0
 50
269.99998999999991
 51
0.00000068324625
  0
ARC
  5
788
  8
0
  6
CONTINUOUS
 62
     7
 10
-680.88317999999981
 20
464.86660999999981
 30
0.0
 40
1.5
 50
269.99998999999991
 51
0.00000068324516
  0
ARC
  5
789
  8
0
  6
CONTINUOUS
 62
     7
 10
-662.88317999999981
 20
464.86660999999981
 30
0.0
 40
1.5
 50
179.99998999999991
 51
270.0
  0
ARC
  5
78A
  8
0
  6
CONTINUOUS
 62
     7
 10
-713.44446000000005
 20
482.36660999999992
 30
0.0
 40
1.0000056999999991
 50
269.99998999999991
 51
90.000003000000007
  0
ARC
  5
78B
  8
0
  6
CONTINUOUS
 62
     7
 10
-713.44446000000005
 20
492.36660999999998
 30
0.0
 40
1.0000056999999991
 50
269.99998999999991
 51
90.000003000000007
  0
ARC
  5
78C
  8
0
  6
CONTINUOUS
 62
     7
 10
-713.44446000000005
 20
502.36660999999981
 30
0.0
 40
1.0000056999999991
 50
269.99998999999991
 51
90.000003000000007
  0
ARC
  5
78D
  8
0
  6
CONTINUOUS
 62
     7
 10
-713.44446000000005
 20
512.36658
 30
0.0
 40
1.0000056999999991
 50
269.99998999999991
 51
90.000003000000007
  0
ARC
  5
78E
  8
0
  6
CONTINUOUS
 62
     7
 10
-724.48510999999985
 20
436.73660000000001
 30
0.0
 40
1.5
 50
1.5000026999999989
 51
90.000003000000007
  0
ARC
  5
78F
  8
0
  6
CONTINUOUS
 62
     7
 10
-746.97692999999981
 20
440.23659999999978
 30
0.0
 40
2.0
 50
187.9504399999999
 51
269.99998999999991
  0
ARC
  5
790
  8
0
  6
CONTINUOUS
 62
     7
 10
-746.89661000000001
 20
440.23659999999978
 30
0.0
 40
2.0
 50
188.6296199999999
 51
269.99998999999991
  0
ARC
  5
791
  8
0
  6
CONTINUOUS
 62
     3
 10
-649.8670699999999
 20
436.36660999999992
 30
0.0
 40
1.5
 50
269.99998999999991
 51
327.0
  0
ARC
  5
792
  8
0
  6
CONTINUOUS
 62
     7
 10
-661.36963000000003
 20
433.36660999999998
 30
0.0
 40
1.5
 50
90.000003000000007
 51
178.5
  0
ARC
  5
793
  8
0
  6
CONTINUOUS
 62
     7
 10
-746.62707999999998
 20
440.23696999999999
 30
0.0
 40
2.000420099999999
 50
188.92681999999991
 51
269.82270999999992
  0
ARC
  5
794
  8
0
  6
CONTINUOUS
 62
     7
 10
-746.67834000000005
 20
443.08584999999999
 30
0.0
 40
1.9992490000000001
 50
190.64309999999981
 51
270.14742999999999
  0
ARC
  5
795
  8
0
  6
CONTINUOUS
 62
     7
 10
-759.38269000000003
 20
447.11709999999999
 30
0.0
 40
0.49952301
 50
359.94522999999992
 51
90.054773999999981
  0
ARC
  5
796
  8
0
  6
CONTINUOUS
 62
     7
 10
-759.38660000000004
 20
449.27005000000003
 30
0.0
 40
0.5033929900000002
 50
270.38490999999982
 51
359.61509999999993
  0
ARC
  5
797
  8
0
  6
CONTINUOUS
 62
     7
 10
-759.88733000000002
 20
451.87075999999979
 30
0.0
 40
1.004119999999999
 50
270.23460999999992
 51
359.76538999999991
  0
ARC
  5
798
  8
0
  6
CONTINUOUS
 62
     7
 10
-759.88574000000006
 20
456.38906999999989
 30
0.0
 40
1.002470999999999
 50
270.14107000000001
 51
359.85892999999987
  0
ARC
  5
799
  8
0
  6
CONTINUOUS
 62
     7
 10
-762.88440000000003
 20
451.49014
 30
0.0
 40
0.9987969999999998
 50
179.62728000000001
 51
238.70795000000001
  0
ARC
  5
79A
  8
0
  6
CONTINUOUS
 62
     7
 10
-762.88549999999964
 20
452.52785999999998
 30
0.0
 40
0.9977070099999998
 50
180.0740199999999
 51
242.04481000000001
  0
ARC
  5
79B
  8
0
  6
CONTINUOUS
 62
     7
 10
-762.88415999999984
 20
456.09134
 30
0.0
 40
0.9990889999999998
 50
179.69508999999991
 51
236.66209000000001
  0
ARC
  5
79C
  8
0
  6
CONTINUOUS
 62
     7
 10
-762.88477
 20
457.12589000000003
 30
0.0
 40
0.9984580299999999
 50
179.9595799999999
 51
239.38657000000001
  0
ARC
  5
79D
  8
0
  6
CONTINUOUS
 62
     7
 10
-761.61986999999988
 20
456.38760000000002
 30
0.0
 40
1.0010449999999991
 50
240.47187
 51
270.37970999999999
  0
ARC
  5
79E
  8
0
  6
CONTINUOUS
 62
     7
 10
-761.59045000000003
 20
455.24709999999988
 30
0.0
 40
1.000521999999999
 50
237.14617999999999
 51
270.41343999999998
  0
ARC
  5
79F
  8
0
  6
CONTINUOUS
 62
     7
 10
-761.62805000000003
 20
451.86721999999997
 30
0.0
 40
1.0006820000000001
 50
241.65062
 51
269.7039299999999
  0
ARC
  5
7A0
  8
0
  6
CONTINUOUS
 62
     7
 10
-761.61181999999985
 20
450.73025999999999
 30
0.0
 40
1.0037439999999991
 50
239.37112999999999
 51
270.49189999999987
  0
ARC
  5
7A1
  8
0
  6
CONTINUOUS
 62
     7
 10
-761.63733000000002
 20
449.76589999999987
 30
0.0
 40
0.9993420200000001
 50
242.86199999999999
 51
269.66546
  0
ARC
  5
7A2
  8
0
  6
CONTINUOUS
 62
     7
 10
-761.60253999999975
 20
448.61770999999987
 30
0.0
 40
1.001123999999999
 50
239.32782000000009
 51
269.38767999999988
  0
ARC
  5
7A3
  8
0
  6
CONTINUOUS
 62
     7
 10
-762.88756999999998
 20
450.39699999999988
 30
0.0
 40
0.9956849800000001
 50
180.02112999999991
 51
243.40913999999981
  0
ARC
  5
7A4
  8
0
  6
CONTINUOUS
 62
     7
 10
-762.88562000000002
 20
449.35122999999987
 30
0.0
 40
0.9976310099999999
 50
180.26780999999991
 51
240.07924
  0
ARC
  5
7A5
  8
0
  6
CONTINUOUS
 62
     7
 10
-649.75806
 20
443.09134
 30
0.0
 40
2.0047290000000002
 50
270.13832000000002
 51
344.82650000000001
  0
ARC
  5
7A6
  8
0
  6
CONTINUOUS
 62
     7
 10
-642.22997999999995
 20
537.08936000000006
 30
0.0
 40
1.502775999999999
 50
194.75642999999991
 51
269.87757999999991
  0
ARC
  5
7A7
  8
0
  6
CONTINUOUS
 62
     7
 10
-649.75316999999995
 20
551.64832000000001
 30
0.0
 40
1.9982919999999991
 50
15.032547999999981
 51
90.002631999999977
  0
ARC
  5
7A8
  8
0
  6
CONTINUOUS
 62
     7
 10
-746.59667999999999
 20
557.26098999999977
 30
0.0
 40
1.995633
 50
89.899708000000004
 51
172.06112999999991
  0
ARC
  5
7A9
  8
0
  6
CONTINUOUS
 62
     7
 10
-746.61865
 20
556.34984999999995
 30
0.0
 40
1.9967330000000001
 50
89.843967000000006
 51
171.45387999999991
  0
ARC
  5
7AA
  8
0
  6
CONTINUOUS
 62
     7
 10
-746.63306
 20
554.50134000000003
 30
0.0
 40
1.9952829999999979
 50
90.006203999999983
 51
170.90835000000001
  0
ARC
  5
7AB
  8
0
  6
CONTINUOUS
 62
     7
 10
-746.68457000000001
 20
551.65246999999965
 30
0.0
 40
1.994108999999999
 50
89.675548000000006
 51
169.18777
  0
ARC
  5
7AC
  8
0
  6
CONTINUOUS
 62
     7
 10
-762.88477
 20
457.12589000000003
 30
0.0
 40
0.9984580299999999
 50
179.9595799999999
 51
239.38657000000001
  0
ARC
  5
7AD
  8
0
  6
CONTINUOUS
 62
     7
 10
-759.88647000000003
 20
456.39334000000002
 30
0.0
 40
1.0032760000000001
 50
334.19810000000001
 51
359.61810999999977
  0
ARC
  5
7AE
  8
0
  6
CONTINUOUS
 62
     7
 10
-748.21007999999983
 20
462.32155999999992
 30
0.0
 40
1.675014
 50
89.766498999999982
 51
270.23351000000002
  0
ARC
  5
7AF
  8
0
  6
CONTINUOUS
 62
     7
 10
-748.42322000000001
 20
472.34157999999968
 30
0.0
 40
1.465004
 50
90.000003000000007
 51
270.0
  0
ARC
  5
7B0
  8
0
  6
CONTINUOUS
 62
     7
 10
-748.55322000000001
 20
482.35660000000001
 30
0.0
 40
1.3300049999999981
 50
90.000003000000007
 51
270.0
  0
ARC
  5
7B1
  8
0
  6
CONTINUOUS
 62
     7
 10
-748.61901999999998
 20
492.36660999999998
 30
0.0
 40
1.2700129999999981
 50
89.736616999999995
 51
270.26337000000001
  0
ARC
  5
7B2
  8
0
  6
CONTINUOUS
 62
     7
 10
-748.61901999999998
 20
502.37160999999992
 30
0.0
 40
1.2650129999999991
 50
89.735579000000016
 51
270.26441
  0
ARC
  5
7B3
  8
0
  6
CONTINUOUS
 62
     7
 10
-748.55322000000001
 20
512.37659000000008
 30
0.0
 40
1.3300049999999981
 50
90.000003000000007
 51
270.0
  0
ARC
  5
7B4
  8
0
  6
CONTINUOUS
 62
     7
 10
-748.42322000000001
 20
522.39160000000004
 30
0.0
 40
1.465004
 50
90.000003000000007
 51
270.0
  0
ARC
  5
7B5
  8
0
  6
CONTINUOUS
 62
     7
 10
-747.33861999999999
 20
472.36660999999992
 30
0.0
 40
1.000013899999999
 50
89.691659999999985
 51
270.30833999999999
  0
ARC
  5
7B6
  8
0
  6
CONTINUOUS
 62
     7
 10
-747.33861999999999
 20
482.36660999999992
 30
0.0
 40
1.000013899999999
 50
89.691659999999985
 51
270.30833999999999
  0
ARC
  5
7B7
  8
0
  6
CONTINUOUS
 62
     7
 10
-747.33861999999999
 20
492.36660999999998
 30
0.0
 40
1.000013899999999
 50
89.691659999999985
 51
270.30833999999999
  0
ARC
  5
7B8
  8
0
  6
CONTINUOUS
 62
     7
 10
-747.33861999999999
 20
502.36660999999981
 30
0.0
 40
1.000013899999999
 50
89.691659999999985
 51
270.30833999999999
  0
ARC
  5
7B9
  8
0
  6
CONTINUOUS
 62
     7
 10
-747.33861999999999
 20
512.36658
 30
0.0
 40
1.000013899999999
 50
89.691659999999985
 51
270.30833999999999
  0
ARC
  5
7BA
  8
0
  6
CONTINUOUS
 62
     7
 10
-747.33861999999999
 20
522.36658
 30
0.0
 40
1.000013899999999
 50
89.691659999999985
 51
270.30833999999999
  0
ARC
  5
7BB
  8
0
  6
CONTINUOUS
 62
     7
 10
-747.33861999999999
 20
532.36657999999966
 30
0.0
 40
1.000013899999999
 50
89.691659999999985
 51
270.30833999999999
  0
ARC
  5
7BC
  8
0
  6
CONTINUOUS
 62
     7
 10
-748.21068999999989
 20
532.41161999999986
 30
0.0
 40
1.6750160000000001
 50
89.746144999999984
 51
270.25387000000001
  0
ARC
  5
7BD
  8
0
  6
CONTINUOUS
 62
     7
 10
-759.88306
 20
480.36672999999979
 30
0.0
 40
0.9998210099999999
 50
359.98971999999998
 51
90.010281999999961
  0
ARC
  5
7BE
  8
0
  6
CONTINUOUS
 62
     7
 10
-759.88818000000003
 20
484.37149000000011
 30
0.0
 40
1.004939
 50
270.28093999999999
 51
359.71906999999999
  0
ARC
  5
7BF
  8
0
  6
CONTINUOUS
 62
     7
 10
-759.88306
 20
490.36672999999968
 30
0.0
 40
0.9998279799999998
 50
359.99015999999978
 51
90.009838000000002
  0
ARC
  5
7C0
  8
0
  6
CONTINUOUS
 62
     7
 10
-759.88818000000003
 20
494.37148999999988
 30
0.0
 40
1.004942999999999
 50
270.28113999999988
 51
359.71886999999992
  0
ARC
  5
7C1
  8
0
  6
CONTINUOUS
 62
     7
 10
-762.88818000000003
 20
492.37148999999999
 30
0.0
 40
0.9950770099999999
 50
89.715860000000006
 51
180.28413999999989
  0
ARC
  5
7C2
  8
0
  6
CONTINUOUS
 62
     7
 10
-762.88306
 20
492.36684999999989
 30
0.0
 40
1.0002040000000001
 50
180.01166000000001
 51
269.9883200000001
  0
ARC
  5
7C3
  8
0
  6
CONTINUOUS
 62
     7
 10
-762.88818000000003
 20
482.37148999999988
 30
0.0
 40
0.9950810099999999
 50
89.716071999999997
 51
180.28391999999999
  0
ARC
  5
7C4
  8
0
  6
CONTINUOUS
 62
     7
 10
-762.88306
 20
482.36685
 30
0.0
 40
1.0001999999999991
 50
180.01146
 51
269.98853999999972
  0
ARC
  5
7C5
  8
0
  6
CONTINUOUS
 62
     7
 10
-762.88818000000003
 20
472.37148999999999
 30
0.0
 40
0.9950849999999999
 50
89.716282999999976
 51
180.2837199999999
  0
ARC
  5
7C6
  8
0
  6
CONTINUOUS
 62
     7
 10
-762.88306
 20
472.36685
 30
0.0
 40
1.0001959999999981
 50
180.01124999999999
 51
269.98874999999992
  0
ARC
  5
7C7
  8
0
  6
CONTINUOUS
 62
     7
 10
-762.88671999999985
 20
463.19509999999991
 30
0.0
 40
0.9965090199999998
 50
179.91374999999999
 51
247.17845
  0
ARC
  5
7C8
  8
0
  6
CONTINUOUS
 62
     7
 10
-762.88683999999989
 20
464.98099000000002
 30
0.0
 40
0.99638802
 50
180.24991
 51
253.29664
  0
ARC
  5
7C9
  8
0
  6
CONTINUOUS
 62
     7
 10
-761.74267999999984
 20
464.6293
 30
0.0
 40
1.002699
 50
253.7527199999999
 51
270.54064
  0
ARC
  5
7CA
  8
0
  6
CONTINUOUS
 62
     7
 10
-761.68017999999984
 20
462.68178999999981
 30
0.0
 40
1.005233
 50
246.98638999999989
 51
269.82924999999989
  0
ARC
  5
7CB
  8
0
  6
CONTINUOUS
 62
     7
 10
-759.58263999999986
 20
460.97719999999993
 30
0.0
 40
0.6994530000000001
 50
359.95517000000001
 51
90.044829000000021
  0
ARC
  5
7CC
  8
0
  6
CONTINUOUS
 62
     7
 10
-759.88306
 20
470.36672999999979
 30
0.0
 40
0.9998239899999999
 50
359.98991999999993
 51
90.010076999999981
  0
ARC
  5
7CD
  8
0
  6
CONTINUOUS
 62
     7
 10
-759.88818000000003
 20
474.37148999999988
 30
0.0
 40
1.0049469
 50
270.28136999999992
 51
359.71863000000002
  0
ARC
  5
7CE
  8
0
  6
CONTINUOUS
 62
     7
 10
-759.88660000000004
 20
464.62990999999988
 30
0.0
 40
1.003352
 50
270.19110999999992
 51
359.80889999999982
  0
ARC
  5
7CF
  8
0
  6
CONTINUOUS
 62
     7
 10
-645.06322999999975
 20
462.32155999999992
 30
0.0
 40
1.6750020000000001
 50
269.99998999999991
 51
90.000003000000007
  0
ARC
  5
7D0
  8
0
  6
CONTINUOUS
 62
     7
 10
-648.5432099999997
 20
462.36660999999998
 30
0.0
 40
1.0
 50
269.99998999999991
 51
90.000003000000007
  0
ARC
  5
7D1
  8
0
  6
CONTINUOUS
 62
     7
 10
-648.5432099999997
 20
532.36657999999966
 30
0.0
 40
1.0
 50
269.99998999999991
 51
90.000003000000007
  0
ARC
  5
7D2
  8
0
  6
CONTINUOUS
 62
     7
 10
-645.06322999999975
 20
532.41161999999986
 30
0.0
 40
1.6750020000000001
 50
269.99998999999991
 51
90.000003000000007
  0
ARC
  5
7D3
  8
0
  6
CONTINUOUS
 62
     7
 10
-747.33861999999999
 20
462.36660999999998
 30
0.0
 40
1.000013899999999
 50
89.691659999999985
 51
270.30833999999999
  0
ARC
  5
7D4
  8
0
  6
CONTINUOUS
 62
     7
 10
-759.38782000000003
 20
547.62121999999988
 30
0.0
 40
0.50463498
 50
270.52382999999992
 51
359.47617000000002
  0
ARC
  5
7D5
  8
0
  6
CONTINUOUS
 62
     7
 10
-759.38147000000004
 20
545.46825999999987
 30
0.0
 40
0.4983060100000002
 50
359.80489
 51
90.195107000000007
  0
ARC
  5
7D6
  8
0
  6
CONTINUOUS
 62
     7
 10
-759.88220000000001
 20
542.86755000000005
 30
0.0
 40
0.9990100299999999
 50
359.94319000000002
 51
90.056808999999959
  0
ARC
  5
7D7
  8
0
  6
CONTINUOUS
 62
     7
 10
-759.58776999999986
 20
533.76110999999992
 30
0.0
 40
0.704566
 50
270.37009999999992
 51
359.62990999999982
  0
ARC
  5
7D8
  8
0
  6
CONTINUOUS
 62
     7
 10
-759.88562000000002
 20
538.35424999999987
 30
0.0
 40
1.002353
 50
0.13432682
 51
89.865673000000001
  0
ARC
  5
7D9
  8
0
  6
CONTINUOUS
 62
     7
 10
-759.88147000000004
 20
530.10828000000004
 30
0.0
 40
0.9982839799999999
 50
359.90141999999992
 51
90.098575999999994
  0
ARC
  5
7DA
  8
0
  6
CONTINUOUS
 62
     7
 10
-759.88818000000003
 20
524.37145999999996
 30
0.0
 40
1.004942999999999
 50
270.28111000000001
 51
359.71888999999987
  0
ARC
  5
7DB
  8
0
  6
CONTINUOUS
 62
     7
 10
-759.88306
 20
520.36670000000004
 30
0.0
 40
0.9998289899999999
 50
359.99018999999993
 51
90.009810999999985
  0
ARC
  5
7DC
  8
0
  6
CONTINUOUS
 62
     7
 10
-759.88818000000003
 20
514.37145999999996
 30
0.0
 40
1.004939
 50
270.28091000000001
 51
359.71910000000008
  0
ARC
  5
7DD
  8
0
  6
CONTINUOUS
 62
     7
 10
-759.88306
 20
510.36672999999968
 30
0.0
 40
0.9998210099999999
 50
359.98975000000002
 51
90.010255000000001
  0
ARC
  5
7DE
  8
0
  6
CONTINUOUS
 62
     7
 10
-571.38317999999981
 20
557.86658
 30
0.0
 40
3.0
 50
90.000003000000007
 51
180.00001
  0
ARC
  5
7DF
  8
0
  6
CONTINUOUS
 62
     7
 10
-577.36437999999998
 20
436.39111000000003
 30
0.0
 40
3.0
 50
4.5454882999999979
 51
88.0
  0
ARC
  5
7E0
  8
0
  6
CONTINUOUS
 62
     7
 10
-571.38317999999981
 20
436.86660999999992
 30
0.0
 40
3.0
 50
180.00001
 51
270.0
  0
ARC
  5
7E1
  8
0
  6
CONTINUOUS
 62
     7
 10
-759.88818000000003
 20
504.37148999999999
 30
0.0
 40
1.0049469
 50
270.28134999999992
 51
359.71866
  0
ARC
  5
7E2
  8
0
  6
CONTINUOUS
 62
     7
 10
-759.88306
 20
500.36673000000002
 30
0.0
 40
0.9998249999999999
 50
359.98995000000002
 51
90.010050000000007
  0
ARC
  5
7E3
  8
0
  6
CONTINUOUS
 62
     7
 10
-577.36437999999998
 20
558.34209999999985
 30
0.0
 40
3.0
 50
272.0
 51
355.45442999999977
  0
ARC
  5
7E4
  8
0
  6
CONTINUOUS
 62
     7
 10
-762.88306
 20
502.36685
 30
0.0
 40
1.0001959999999981
 50
180.01122000000001
 51
269.98877999999991
  0
ARC
  5
7E5
  8
0
  6
CONTINUOUS
 62
     7
 10
-762.88818000000003
 20
502.37148999999988
 30
0.0
 40
0.9950849999999999
 50
89.716311000000005
 51
180.28368999999981
  0
ARC
  5
7E6
  8
0
  6
CONTINUOUS
 62
     7
 10
-762.88306
 20
512.36681999999996
 30
0.0
 40
1.0001999999999991
 50
180.0114299999999
 51
269.98856999999992
  0
ARC
  5
7E7
  8
0
  6
CONTINUOUS
 62
     7
 10
-762.88818000000003
 20
512.37145999999996
 30
0.0
 40
0.99508202
 50
89.716099
 51
180.28390999999991
  0
ARC
  5
7E8
  8
0
  6
CONTINUOUS
 62
     7
 10
-762.88306
 20
522.36681999999985
 30
0.0
 40
1.000203
 50
180.01165
 51
269.98835000000003
  0
ARC
  5
7E9
  8
0
  6
CONTINUOUS
 62
     7
 10
-762.88818000000003
 20
522.37145999999996
 30
0.0
 40
0.99507803
 50
89.715886999999981
 51
180.28411
  0
ARC
  5
7EA
  8
0
  6
CONTINUOUS
 62
     7
 10
-762.88683999999989
 20
531.54809999999998
 30
0.0
 40
0.9963999999999998
 50
112.81735999999979
 51
180.09041999999991
  0
ARC
  5
7EB
  8
0
  6
CONTINUOUS
 62
     7
 10
-762.88695999999982
 20
529.76233000000002
 30
0.0
 40
0.9962710099999999
 50
106.69792
 51
180.3300499999998
  0
ARC
  5
7EC
  8
0
  6
CONTINUOUS
 62
     7
 10
-761.74401999999975
 20
530.11388999999986
 30
0.0
 40
0.9927430199999999
 50
89.374555000000001
 51
106.33207
  0
ARC
  5
7ED
  8
0
  6
CONTINUOUS
 62
     7
 10
-761.68224999999984
 20
532.06115999999986
 30
0.0
 40
0.9954450099999999
 50
90.056905000000043
 51
113.1274499999999
  0
ARC
  5
7EE
  8
0
  6
CONTINUOUS
 62
     7
 10
-762.88879000000031
 20
543.24561000000006
 30
0.0
 40
0.9944329899999999
 50
121.15213
 51
179.9405099999999
  0
ARC
  5
7EF
  8
0
  6
CONTINUOUS
 62
     7
 10
-762.89000999999985
 20
542.20800999999994
 30
0.0
 40
0.9932109699999999
 50
117.7993199999999
 51
180.08187000000001
  0
ARC
  5
7F0
  8
0
  6
CONTINUOUS
 62
     7
 10
-762.88842999999974
 20
538.64417000000003
 30
0.0
 40
0.9948369899999999
 50
123.20496
 51
180.4378599999998
  0
ARC
  5
7F1
  8
0
  6
CONTINUOUS
 62
     7
 10
-762.88915999999983
 20
537.60973999999987
 30
0.0
 40
0.99404597
 50
120.4682
 51
180.18563999999989
  0
ARC
  5
7F2
  8
0
  6
CONTINUOUS
 62
     7
 10
-761.60375999999985
 20
538.36010999999985
 30
0.0
 40
0.99648702
 50
90.540720999999976
 51
120.74377
  0
ARC
  5
7F3
  8
0
  6
CONTINUOUS
 62
     7
 10
-761.57654000000002
 20
539.50036999999998
 30
0.0
 40
0.99617702
 50
90.381317999999979
 51
123.9704899999999
  0
ARC
  5
7F4
  8
0
  6
CONTINUOUS
 62
     7
 10
-761.64819
 20
542.87121999999965
 30
0.0
 40
0.99545902
 50
89.141291000000024
 51
117.20381999999999
  0
ARC
  5
7F5
  8
0
  6
CONTINUOUS
 62
     7
 10
-761.61437999999964
 20
544.01233000000002
 30
0.0
 40
0.99427301
 50
89.356065999999984
 51
120.78091000000001
  0
ARC
  5
7F6
  8
0
  6
CONTINUOUS
 62
     7
 10
-761.65845000000002
 20
544.97252999999978
 30
0.0
 40
0.99411702
 50
89.122643999999966
 51
115.93498
  0
ARC
  5
7F7
  8
0
  6
CONTINUOUS
 62
     7
 10
-761.62121999999988
 20
546.12072999999987
 30
0.0
 40
0.9959030199999999
 50
89.541267000000005
 51
119.60717
  0
ARC
  5
7F8
  8
0
  6
CONTINUOUS
 62
     7
 10
-762.8877
 20
544.34631000000002
 30
0.0
 40
0.995579
 50
116.5870899999999
 51
179.98264
  0
ARC
  5
7F9
  8
0
  6
CONTINUOUS
 62
     7
 10
-762.89000999999985
 20
545.38451999999995
 30
0.0
 40
0.99319202
 50
119.77338
 51
179.87958999999981
  0
ARC
  5
7FA
  8
0
  6
CONTINUOUS
 62
     7
 10
-642.22997999999995
 20
457.64382999999992
 30
0.0
 40
1.502775999999999
 50
90.122413000000037
 51
165.24357000000001
  0
ARC
  5
7FB
  8
0
  6
CONTINUOUS
 62
     7
 10
-649.75806
 20
554.49181999999985
 30
0.0
 40
2.0047290000000002
 50
15.173496
 51
89.861677999999998
  0
ARC
  5
7FC
  8
0
  6
CONTINUOUS
 62
     7
 10
-649.75806
 20
556.34180000000003
 30
0.0
 40
2.0047290000000002
 50
15.173496
 51
89.861677999999998
  0
ARC
  5
7FD
  8
0
  6
CONTINUOUS
 62
     7
 10
-649.75806
 20
557.25182999999993
 30
0.0
 40
2.0047290000000002
 50
15.173496
 51
89.861677999999998
  0
ARC
  5
7FE
  8
0
  6
CONTINUOUS
 62
     7
 10
-642.22997999999995
 20
539.93932999999981
 30
0.0
 40
1.502775999999999
 50
194.75642999999991
 51
269.87757999999991
  0
ARC
  5
7FF
  8
0
  6
CONTINUOUS
 62
     7
 10
-642.22997999999995
 20
541.78930999999966
 30
0.0
 40
1.502775999999999
 50
194.75642999999991
 51
269.87757999999991
  0
ARC
  5
800
  8
0
  6
CONTINUOUS
 62
     7
 10
-642.22997999999995
 20
542.69933999999967
 30
0.0
 40
1.502775999999999
 50
194.75642999999991
 51
269.87757999999991
  0
ARC
  5
801
  8
0
  6
CONTINUOUS
 62
     3
 10
-729.15612999999985
 20
420.86660999999998
 30
0.0
 40
4.0
 50
179.99997999999991
 51
0.000010017912
  0
ARC
  5
802
  8
0
  6
CONTINUOUS
 62
     3
 10
-729.15612999999985
 20
420.86660999999998
 30
0.0
 40
7.5
 50
179.99997999999991
 51
0.000010017913
  0
ARC
  5
803
  8
0
  6
CONTINUOUS
 62
     7
 10
-584.38317999999981
 20
437.89550999999989
 30
0.0
 40
10.0
 50
0.0
 51
37.523536
  0
ARC
  5
804
  8
0
  6
CONTINUOUS
 62
     7
 10
-584.38317999999981
 20
556.83771000000002
 30
0.0
 40
10.0
 50
322.47645999999992
 51
0.0
  0
ARC
  5
805
  8
0
  6
CONTINUOUS
 62
     7
 10
-600.88317999999981
 20
487.36660999999998
 30
0.0
 40
3.0
 50
180.00001
 51
270.0
  0
ARC
  5
806
  8
0
  6
CONTINUOUS
 62
     7
 10
-600.88317999999981
 20
507.36660999999992
 30
0.0
 40
3.0
 50
90.000003000000007
 51
180.00001
  0
ARC
  5
807
  8
0
  6
CONTINUOUS
 62
     7
 10
-577.38317999999981
 20
481.36660999999981
 30
0.0
 40
3.0
 50
0.0
 51
90.000003000000007
  0
ARC
  5
808
  8
0
  6
CONTINUOUS
 62
     7
 10
-577.38317999999981
 20
513.36658
 30
0.0
 40
3.0
 50
270.0
 51
0.0
  0
ARC
  5
809
  8
0
  6
CONTINUOUS
 62
     7
 10
-583.59411999999975
 20
454.36630000000002
 30
0.0
 40
3.0
 50
270.0
 51
31.460203
  0
ARC
  5
80A
  8
0
  6
CONTINUOUS
 62
     7
 10
-588.06421
 20
462.40494000000001
 30
0.0
 40
3.0
 50
26.614998
 51
90.000003000000007
  0
ARC
  5
80B
  8
0
  6
CONTINUOUS
 62
     7
 10
-583.59411999999975
 20
540.36694
 30
0.0
 40
3.0
 50
328.53980000000001
 51
90.000003000000007
  0
ARC
  5
80C
  8
0
  6
CONTINUOUS
 62
     7
 10
-588.06421
 20
532.32825000000003
 30
0.0
 40
3.0
 50
270.0
 51
333.38499999999982
  0
ARC
  5
80D
  8
0
  6
CONTINUOUS
 62
     7
 10
-547.88317999999992
 20
81.61901899999998
 30
0.0
 40
5.0
 50
179.99998999999991
 51
225.0
  0
ARC
  5
80E
  8
0
  6
CONTINUOUS
 62
     7
 10
-557.88311999999985
 20
222.31290000000001
 30
0.0
 40
5.0
 50
272.0
 51
0.0
  0
ARC
  5
80F
  8
0
  6
CONTINUOUS
 62
     7
 10
-547.88317999999992
 20
225.47687999999991
 30
0.0
 40
5.0
 50
135.0
 51
180.00001
  0
ARC
  5
810
  8
0
  6
CONTINUOUS
 62
     7
 10
-608.88311999999985
 20
131.48795000000001
 30
0.0
 40
5.0
 50
90.000003000000007
 51
180.00001
  0
ARC
  5
811
  8
0
  6
CONTINUOUS
 62
     7
 10
-535.88317999999992
 20
250.76735999999991
 30
0.0
 40
2.0
 50
91.999998000000005
 51
180.00001
  0
ARC
  5
812
  8
0
  6
CONTINUOUS
 62
     7
 10
-540.88311999999985
 20
63.305312999999998
 30
0.0
 40
3.0
 50
0.0
 51
45.00000099999999
  0
ARC
  5
813
  8
0
  6
CONTINUOUS
 62
     7
 10
-557.88311999999985
 20
84.782996999999995
 30
0.0
 40
5.0
 50
0.0
 51
88.0
  0
ARC
  5
814
  8
0
  6
CONTINUOUS
 62
     7
 10
-540.88311999999985
 20
243.79059000000001
 30
0.0
 40
3.0
 50
315.0
 51
0.0
  0
ARC
  5
815
  8
0
  6
CONTINUOUS
 62
     7
 10
-571.38311999999985
 20
92.759292999999985
 30
0.0
 40
3.0
 50
179.99998999999991
 51
268.00000999999992
  0
ARC
  5
816
  8
0
  6
CONTINUOUS
 62
     7
 10
-576.38317999999981
 20
93.318091999999993
 30
0.0
 40
2.0
 50
0.0
 51
88.0
  0
ARC
  5
817
  8
0
  6
CONTINUOUS
 62
     7
 10
-609.88311999999985
 20
92.486716999999999
 30
0.0
 40
4.0
 50
88.0
 51
180.00001
  0
ARC
  5
818
  8
0
  6
CONTINUOUS
 62
     7
 10
-571.38311999999985
 20
214.33659
 30
0.0
 40
3.0
 50
91.999998000000005
 51
166.38106999999991
  0
ARC
  5
819
  8
0
  6
CONTINUOUS
 62
     7
 10
-573.26787999999999
 20
86.017806999999976
 30
0.0
 40
4.0
 50
74.380296000000001
 51
108.3654199999999
  0
ARC
  5
81A
  8
0
  6
CONTINUOUS
 62
     7
 10
-577.21447999999975
 20
215.74936
 30
0.0
 40
3.0
 50
272.0
 51
346.38107000000002
  0
ARC
  5
81B
  8
0
  6
CONTINUOUS
 62
     7
 10
-599.17737
 20
191.2629399999999
 30
0.0
 40
5.0
 50
272.0
 51
315.0
  0
ARC
  5
81C
  8
0
  6
CONTINUOUS
 62
     7
 10
-577.38311999999996
 20
210.2287299999999
 30
0.0
 40
3.0
 50
315.0
 51
0.0
  0
ARC
  5
81D
  8
0
  6
CONTINUOUS
 62
     7
 10
-582.14972
 20
169.5479399999999
 30
0.0
 40
5.0
 50
315.0
 51
90.000003000000007
  0
ARC
  5
81E
  8
0
  6
CONTINUOUS
 62
     7
 10
-600.88311999999985
 20
208.9191899999999
 30
0.0
 40
3.0
 50
91.999998000000005
 51
180.00001
  0
ARC
  5
81F
  8
0
  6
CONTINUOUS
 62
     7
 10
-606.88311999999985
 20
188.99261000000001
 30
0.0
 40
3.0
 50
272.0
 51
0.0
  0
ARC
  5
820
  8
0
  6
CONTINUOUS
 62
     7
 10
-617.88311999999985
 20
76.609116
 30
0.0
 40
4.0
 50
272.0
 51
0.0
  0
ARC
  5
821
  8
0
  6
CONTINUOUS
 62
     3
 10
-715.38311999999985
 20
151.04769999999991
 30
0.0
 40
5.5
 50
264.78411999999992
 51
5.2159094000000001
  0
ARC
  5
822
  8
0
  6
CONTINUOUS
 62
     7
 10
-610.43970000000002
 20
73.677284
 30
0.0
 40
4.0
 50
108.3654199999999
 51
158.50144999999981
  0
ARC
  5
823
  8
0
  6
CONTINUOUS
 62
     7
 10
-762.88311999999985
 20
176.56432000000001
 30
0.0
 40
1.0
 50
120.0264
 51
180.00001
  0
ARC
  5
824
  8
0
  6
CONTINUOUS
 62
     7
 10
-762.88311999999985
 20
175.52202
 30
0.0
 40
1.0
 50
116.91126
 51
180.00001
  0
ARC
  5
825
  8
0
  6
CONTINUOUS
 62
     7
 10
-761.61492999999984
 20
177.2973299999999
 30
0.0
 40
1.0
 50
90.000003000000007
 51
120.0264
  0
ARC
  5
826
  8
0
  6
CONTINUOUS
 62
     7
 10
-761.64386000000002
 20
176.15104999999991
 30
0.0
 40
1.0
 50
90.000003000000007
 51
116.91126
  0
ARC
  5
827
  8
0
  6
CONTINUOUS
 62
     7
 10
-761.60613999999964
 20
175.18956
 30
0.0
 40
1.0
 50
90.000003000000007
 51
120.9666
  0
ARC
  5
828
  8
0
  6
CONTINUOUS
 62
     7
 10
-761.63451999999984
 20
174.04958999999991
 30
0.0
 40
1.0
 50
90.000003000000007
 51
117.92659999999979
  0
ARC
  5
829
  8
0
  6
CONTINUOUS
 62
     7
 10
-761.58452999999975
 20
170.67283999999981
 30
0.0
 40
1.0
 50
90.000003000000007
 51
123.25473
  0
ARC
  5
82A
  8
0
  6
CONTINUOUS
 62
     7
 10
-761.61181999999985
 20
169.53288000000001
 30
0.0
 40
1.0
 50
90.000003000000007
 51
120.3594999999999
  0
ARC
  5
82B
  8
0
  6
CONTINUOUS
 62
     7
 10
-762.88311999999985
 20
168.78818999999979
 30
0.0
 40
1.0
 50
120.3594999999999
 51
180.00001
  0
ARC
  5
82C
  8
0
  6
CONTINUOUS
 62
     7
 10
-762.88311999999985
 20
169.82127
 30
0.0
 40
1.0
 50
123.25473
 51
180.00001
  0
ARC
  5
82D
  8
0
  6
CONTINUOUS
 62
     7
 10
-762.88311999999985
 20
173.38766000000001
 30
0.0
 40
1.0
 50
117.92659999999979
 51
180.00001
  0
ARC
  5
82E
  8
0
  6
CONTINUOUS
 62
     7
 10
-762.88311999999985
 20
174.42326
 30
0.0
 40
1.0
 50
120.9666
 51
180.00001
  0
ARC
  5
82F
  8
0
  6
CONTINUOUS
 62
     7
 10
-761.67846999999983
 20
163.23716999999999
 30
0.0
 40
1.0
 50
90.000003000000007
 51
113.12703
  0
ARC
  5
830
  8
0
  6
CONTINUOUS
 62
     7
 10
-761.73284999999998
 20
161.29105999999999
 30
0.0
 40
1.0
 50
90.000003000000007
 51
107.0976299999999
  0
ARC
  5
831
  8
0
  6
CONTINUOUS
 62
     7
 10
-762.88311999999985
 20
160.9372299999998
 30
0.0
 40
1.0
 50
107.0976299999999
 51
180.00001
  0
ARC
  5
832
  8
0
  6
CONTINUOUS
 62
     7
 10
-762.88311999999985
 20
162.72269
 30
0.0
 40
1.0
 50
113.12703
 51
180.00001
  0
ARC
  5
833
  8
0
  6
CONTINUOUS
 62
     7
 10
-762.88311999999985
 20
153.5479599999999
 30
0.0
 40
1.0
 50
90.000003000000007
 51
180.00001
  0
ARC
  5
834
  8
0
  6
CONTINUOUS
 62
     7
 10
-762.88311999999985
 20
153.5479599999999
 30
0.0
 40
1.0
 50
179.99998999999991
 51
270.0
  0
ARC
  5
835
  8
0
  6
CONTINUOUS
 62
     7
 10
-762.88311999999985
 20
143.5479599999999
 30
0.0
 40
1.0
 50
90.000003000000007
 51
180.00001
  0
ARC
  5
836
  8
0
  6
CONTINUOUS
 62
     7
 10
-762.88311999999985
 20
143.5479599999999
 30
0.0
 40
1.0
 50
179.99998999999991
 51
270.0
  0
ARC
  5
837
  8
0
  6
CONTINUOUS
 62
     7
 10
-762.88311999999985
 20
133.54793999999981
 30
0.0
 40
1.0
 50
90.000003000000007
 51
180.00001
  0
ARC
  5
838
  8
0
  6
CONTINUOUS
 62
     7
 10
-762.88311999999985
 20
133.54793999999981
 30
0.0
 40
1.0
 50
179.99998999999991
 51
270.0
  0
ARC
  5
839
  8
0
  6
CONTINUOUS
 62
     7
 10
-759.88311999999985
 20
131.5479599999999
 30
0.0
 40
1.0
 50
0.0
 51
90.000003000000007
  0
ARC
  5
83A
  8
0
  6
CONTINUOUS
 62
     7
 10
-759.88311999999985
 20
135.54795999999999
 30
0.0
 40
1.0
 50
270.0
 51
0.0
  0
ARC
  5
83B
  8
0
  6
CONTINUOUS
 62
     7
 10
-759.88311999999985
 20
141.5479599999999
 30
0.0
 40
1.0
 50
0.0
 51
90.000003000000007
  0
ARC
  5
83C
  8
0
  6
CONTINUOUS
 62
     7
 10
-759.88311999999985
 20
145.5479399999999
 30
0.0
 40
1.0
 50
270.0
 51
0.0
  0
ARC
  5
83D
  8
0
  6
CONTINUOUS
 62
     7
 10
-759.88311999999985
 20
151.54793999999981
 30
0.0
 40
1.0
 50
0.0
 51
90.000003000000007
  0
ARC
  5
83E
  8
0
  6
CONTINUOUS
 62
     7
 10
-759.88311999999985
 20
155.5479599999999
 30
0.0
 40
1.0
 50
270.0
 51
0.0
  0
ARC
  5
83F
  8
0
  6
CONTINUOUS
 62
     7
 10
-759.88311999999985
 20
161.29105999999999
 30
0.0
 40
1.0
 50
0.0
 51
90.000003000000007
  0
ARC
  5
840
  8
0
  6
CONTINUOUS
 62
     7
 10
-759.88311999999985
 20
169.53288000000001
 30
0.0
 40
1.0
 50
0.0
 51
90.000003000000007
  0
ARC
  5
841
  8
0
  6
CONTINUOUS
 62
     7
 10
-759.58318999999983
 20
164.93716000000001
 30
0.0
 40
0.6999999900000004
 50
270.0
 51
0.0
  0
ARC
  5
842
  8
0
  6
CONTINUOUS
 62
     7
 10
-759.88311999999985
 20
174.04958999999991
 30
0.0
 40
1.0
 50
0.0
 51
90.000003000000007
  0
ARC
  5
843
  8
0
  6
CONTINUOUS
 62
     7
 10
-759.38317999999981
 20
176.65105
 30
0.0
 40
0.5
 50
0.0
 51
90.000003000000007
  0
ARC
  5
844
  8
0
  6
CONTINUOUS
 62
     7
 10
-759.38317999999981
 20
178.7973299999999
 30
0.0
 40
0.5
 50
270.0
 51
0.0
  0
ARC
  5
845
  8
0
  6
CONTINUOUS
 62
     7
 10
-747.33374000000003
 20
93.547950999999998
 30
0.0
 40
1.0
 50
90.000003000000007
 51
270.0
  0
ARC
  5
846
  8
0
  6
CONTINUOUS
 62
     7
 10
-661.58312999999987
 20
160.91515000000001
 30
0.0
 40
1.0
 50
90.000003000000007
 51
180.00001
  0
ARC
  5
847
  8
0
  6
CONTINUOUS
 62
     7
 10
-661.58312999999987
 20
96.180710000000005
 30
0.0
 40
1.0
 50
179.99998999999991
 51
270.0
  0
ARC
  5
848
  8
0
  6
CONTINUOUS
 62
     7
 10
-645.06110000000001
 20
163.59306000000001
 30
0.0
 40
1.6779127
 50
270.0
 51
90.000003000000007
  0
ARC
  5
849
  8
0
  6
CONTINUOUS
 62
     7
 10
-648.53881999999999
 20
163.5479399999999
 30
0.0
 40
1.0
 50
270.0
 51
90.000003000000007
  0
ARC
  5
84A
  8
0
  6
CONTINUOUS
 62
     7
 10
-648.53881999999999
 20
93.547950999999998
 30
0.0
 40
1.0
 50
270.0
 51
90.000003000000007
  0
ARC
  5
84B
  8
0
  6
CONTINUOUS
 62
     7
 10
-645.06110000000001
 20
93.502792000000014
 30
0.0
 40
1.6779127
 50
270.0
 51
90.000003000000007
  0
ARC
  5
84C
  8
0
  6
CONTINUOUS
 62
     7
 10
-759.88311999999985
 20
95.804793999999987
 30
0.0
 40
1.0
 50
270.0
 51
0.0
  0
ARC
  5
84D
  8
0
  6
CONTINUOUS
 62
     7
 10
-759.88311999999985
 20
105.54795
 30
0.0
 40
1.0
 50
270.0
 51
0.0
  0
ARC
  5
84E
  8
0
  6
CONTINUOUS
 62
     7
 10
-759.88311999999985
 20
101.54795
 30
0.0
 40
1.0
 50
0.0
 51
90.000003000000007
  0
ARC
  5
84F
  8
0
  6
CONTINUOUS
 62
     7
 10
-759.58318999999983
 20
92.158730000000006
 30
0.0
 40
0.6999999900000004
 50
0.0
 51
90.000003000000007
  0
ARC
  5
850
  8
0
  6
CONTINUOUS
 62
     7
 10
-761.67846999999983
 20
93.858681000000004
 30
0.0
 40
1.0
 50
246.87297000000001
 51
270.0
  0
ARC
  5
851
  8
0
  6
CONTINUOUS
 62
     7
 10
-761.73284999999998
 20
95.804793999999987
 30
0.0
 40
1.0
 50
252.90236999999999
 51
270.0
  0
ARC
  5
852
  8
0
  6
CONTINUOUS
 62
     7
 10
-762.88311999999985
 20
96.158669000000003
 30
0.0
 40
1.0
 50
179.99998999999991
 51
252.90236999999999
  0
ARC
  5
853
  8
0
  6
CONTINUOUS
 62
     7
 10
-762.88311999999985
 20
94.373206999999994
 30
0.0
 40
1.0
 50
179.99998999999991
 51
246.8729799999999
  0
ARC
  5
854
  8
0
  6
CONTINUOUS
 62
     7
 10
-762.88311999999985
 20
103.5479599999999
 30
0.0
 40
1.0
 50
179.99998999999991
 51
270.0
  0
ARC
  5
855
  8
0
  6
CONTINUOUS
 62
     7
 10
-762.88311999999985
 20
103.5479599999999
 30
0.0
 40
1.0
 50
90.000003000000007
 51
180.00001
  0
ARC
  5
856
  8
0
  6
CONTINUOUS
 62
     7
 10
-762.88311999999985
 20
113.5479499999999
 30
0.0
 40
1.0
 50
179.99998999999991
 51
270.0
  0
ARC
  5
857
  8
0
  6
CONTINUOUS
 62
     7
 10
-762.88311999999985
 20
113.5479499999999
 30
0.0
 40
1.0
 50
90.000003000000007
 51
180.00001
  0
ARC
  5
858
  8
0
  6
CONTINUOUS
 62
     7
 10
-762.88311999999985
 20
123.54796
 30
0.0
 40
1.0
 50
179.99998999999991
 51
270.0
  0
ARC
  5
859
  8
0
  6
CONTINUOUS
 62
     7
 10
-762.88311999999985
 20
123.54796
 30
0.0
 40
1.0
 50
90.000003000000007
 51
180.00001
  0
ARC
  5
85A
  8
0
  6
CONTINUOUS
 62
     7
 10
-759.88311999999985
 20
125.54795
 30
0.0
 40
1.0
 50
270.0
 51
0.0
  0
ARC
  5
85B
  8
0
  6
CONTINUOUS
 62
     7
 10
-759.88311999999985
 20
121.5479399999999
 30
0.0
 40
1.0
 50
0.0
 51
90.000003000000007
  0
ARC
  5
85C
  8
0
  6
CONTINUOUS
 62
     7
 10
-759.88311999999985
 20
115.5479399999999
 30
0.0
 40
1.0
 50
270.0
 51
0.0
  0
ARC
  5
85D
  8
0
  6
CONTINUOUS
 62
     7
 10
-759.88311999999985
 20
111.54796
 30
0.0
 40
1.0
 50
0.0
 51
90.000003000000007
  0
ARC
  5
85E
  8
0
  6
CONTINUOUS
 62
     7
 10
-664.38311999999996
 20
100.0479499999999
 30
0.0
 40
1.5
 50
270.0
 51
0.0
  0
ARC
  5
85F
  8
0
  6
CONTINUOUS
 62
     7
 10
-664.38311999999996
 20
157.0479599999999
 30
0.0
 40
1.5
 50
0.0
 51
90.000003000000007
  0
ARC
  5
860
  8
0
  6
CONTINUOUS
 62
     7
 10
-748.20587
 20
163.59306000000001
 30
0.0
 40
1.6779127
 50
90.000003000000007
 51
270.0
  0
ARC
  5
861
  8
0
  6
CONTINUOUS
 62
     7
 10
-747.33374000000003
 20
163.5479399999999
 30
0.0
 40
1.0
 50
90.000003000000007
 51
270.0
  0
ARC
  5
862
  8
0
  6
CONTINUOUS
 62
     7
 10
-747.33374000000003
 20
153.5479599999999
 30
0.0
 40
1.0
 50
90.000003000000007
 51
270.0
  0
ARC
  5
863
  8
0
  6
CONTINUOUS
 62
     7
 10
-747.33374000000003
 20
143.5479599999999
 30
0.0
 40
1.0
 50
90.000003000000007
 51
270.0
  0
ARC
  5
864
  8
0
  6
CONTINUOUS
 62
     7
 10
-747.33374000000003
 20
133.54793999999981
 30
0.0
 40
1.0
 50
90.000003000000007
 51
270.0
  0
ARC
  5
865
  8
0
  6
CONTINUOUS
 62
     7
 10
-747.33374000000003
 20
123.54796
 30
0.0
 40
1.0
 50
90.000003000000007
 51
270.0
  0
ARC
  5
866
  8
0
  6
CONTINUOUS
 62
     7
 10
-747.33374000000003
 20
113.5479499999999
 30
0.0
 40
1.0
 50
90.000003000000007
 51
270.0
  0
ARC
  5
867
  8
0
  6
CONTINUOUS
 62
     7
 10
-747.33374000000003
 20
103.5479599999999
 30
0.0
 40
1.0
 50
90.000003000000007
 51
270.0
  0
ARC
  5
868
  8
0
  6
CONTINUOUS
 62
     7
 10
-748.42162999999982
 20
153.57262
 30
0.0
 40
1.4614868000000001
 50
90.000003000000007
 51
270.0
  0
ARC
  5
869
  8
0
  6
CONTINUOUS
 62
     7
 10
-748.55219
 20
143.56051999999991
 30
0.0
 40
1.330932599999999
 50
90.000003000000007
 51
270.0
  0
ARC
  5
86A
  8
0
  6
CONTINUOUS
 62
     7
 10
-748.61419999999998
 20
133.5517899999999
 30
0.0
 40
1.268920899999999
 50
90.000003000000007
 51
270.0
  0
ARC
  5
86B
  8
0
  6
CONTINUOUS
 62
     7
 10
-748.61419999999998
 20
123.5440399999999
 30
0.0
 40
1.268920899999999
 50
90.000003000000007
 51
270.0
  0
ARC
  5
86C
  8
0
  6
CONTINUOUS
 62
     7
 10
-748.55219
 20
113.53538999999979
 30
0.0
 40
1.330932599999999
 50
90.000003000000007
 51
270.0
  0
ARC
  5
86D
  8
0
  6
CONTINUOUS
 62
     7
 10
-748.42156999999986
 20
103.5232399999999
 30
0.0
 40
1.4615020999999979
 50
90.000003000000007
 51
270.0
  0
ARC
  5
86E
  8
0
  6
CONTINUOUS
 62
     7
 10
-748.20519999999999
 20
93.502792000000014
 30
0.0
 40
1.6779174999999991
 50
90.000003000000007
 51
270.0
  0
ARC
  5
86F
  8
0
  6
CONTINUOUS
 62
     7
 10
-759.88311999999985
 20
87.563034000000002
 30
0.0
 40
1.0
 50
334.63675999999998
 51
0.0
  0
ARC
  5
870
  8
0
  6
CONTINUOUS
 62
     7
 10
-762.88311999999985
 20
88.307723999999979
 30
0.0
 40
1.0
 50
179.99998999999991
 51
239.64048999999989
  0
ARC
  5
871
  8
0
  6
CONTINUOUS
 62
     7
 10
-746.67675999999983
 20
182.83120999999991
 30
0.0
 40
2.0
 50
90.000003000000007
 51
169.28431
  0
ARC
  5
872
  8
0
  6
CONTINUOUS
 62
     7
 10
-724.38311999999985
 20
165.27097000000001
 30
0.0
 40
1.5
 50
90.000003000000007
 51
180.00001
  0
ARC
  5
873
  8
0
  6
CONTINUOUS
 62
     7
 10
-746.62810999999988
 20
185.67758000000001
 30
0.0
 40
2.0
 50
90.000003000000007
 51
170.91503
  0
ARC
  5
874
  8
0
  6
CONTINUOUS
 62
     7
 10
-746.61474999999984
 20
187.5252999999999
 30
0.0
 40
2.0
 50
90.000003000000007
 51
171.3566099999999
  0
ARC
  5
875
  8
0
  6
CONTINUOUS
 62
     7
 10
-746.59343999999999
 20
188.43582000000001
 30
0.0
 40
2.0
 50
90.000003000000007
 51
172.05596
  0
ARC
  5
876
  8
0
  6
CONTINUOUS
 62
     7
 10
-712.88317999999981
 20
185.67758000000001
 30
0.0
 40
2.0
 50
0.0
 51
90.000003000000007
  0
ARC
  5
877
  8
0
  6
CONTINUOUS
 62
     7
 10
-712.88317999999981
 20
187.5252999999999
 30
0.0
 40
2.0
 50
0.0
 51
90.000003000000007
  0
ARC
  5
878
  8
0
  6
CONTINUOUS
 62
     7
 10
-712.88317999999981
 20
188.43582000000001
 30
0.0
 40
2.0
 50
0.0
 51
90.000003000000007
  0
ARC
  5
879
  8
0
  6
CONTINUOUS
 62
     7
 10
-649.75702000000001
 20
182.83120999999991
 30
0.0
 40
2.0
 50
15.0
 51
90.000003000000007
  0
ARC
  5
87A
  8
0
  6
CONTINUOUS
 62
     7
 10
-642.23211999999978
 20
168.27097000000001
 30
0.0
 40
1.5
 50
195.00001
 51
270.0
  0
ARC
  5
87B
  8
0
  6
CONTINUOUS
 62
     7
 10
-746.59343999999999
 20
68.660010999999997
 30
0.0
 40
2.0
 50
187.9440399999998
 51
270.0
  0
ARC
  5
87C
  8
0
  6
CONTINUOUS
 62
     7
 10
-712.88317999999981
 20
68.660010999999997
 30
0.0
 40
2.0
 50
270.0
 51
0.0
  0
ARC
  5
87D
  8
0
  6
CONTINUOUS
 62
     7
 10
-649.75702000000001
 20
74.264686999999981
 30
0.0
 40
2.0
 50
270.0
 51
345.0
  0
ARC
  5
87E
  8
0
  6
CONTINUOUS
 62
     7
 10
-712.88317999999981
 20
69.570526000000001
 30
0.0
 40
2.0
 50
270.0
 51
0.0
  0
ARC
  5
87F
  8
0
  6
CONTINUOUS
 62
     7
 10
-712.88317999999981
 20
71.418312
 30
0.0
 40
2.0
 50
270.0
 51
0.0
  0
ARC
  5
880
  8
0
  6
CONTINUOUS
 62
     7
 10
-762.88311999999985
 20
80.531531999999999
 30
0.0
 40
1.0
 50
179.99998999999991
 51
239.97361000000001
  0
ARC
  5
881
  8
0
  6
CONTINUOUS
 62
     7
 10
-762.88311999999985
 20
81.573891000000003
 30
0.0
 40
1.0
 50
179.99998999999991
 51
243.08874999999981
  0
ARC
  5
882
  8
0
  6
CONTINUOUS
 62
     7
 10
-761.61492999999984
 20
79.798560999999978
 30
0.0
 40
1.0
 50
239.9736
 51
270.0
  0
ARC
  5
883
  8
0
  6
CONTINUOUS
 62
     7
 10
-761.64386000000002
 20
80.944869999999995
 30
0.0
 40
1.0
 50
243.08874
 51
270.0
  0
ARC
  5
884
  8
0
  6
CONTINUOUS
 62
     7
 10
-761.60613999999964
 20
81.906288000000004
 30
0.0
 40
1.0
 50
239.0334
 51
270.0
  0
ARC
  5
885
  8
0
  6
CONTINUOUS
 62
     7
 10
-761.63451999999984
 20
83.046303000000023
 30
0.0
 40
1.0
 50
242.07339999999999
 51
270.0
  0
ARC
  5
886
  8
0
  6
CONTINUOUS
 62
     7
 10
-761.58452999999975
 20
86.423018999999968
 30
0.0
 40
1.0
 50
236.74527
 51
270.0
  0
ARC
  5
887
  8
0
  6
CONTINUOUS
 62
     7
 10
-761.61181999999985
 20
87.563034000000002
 30
0.0
 40
1.0
 50
239.6405
 51
270.0
  0
ARC
  5
888
  8
0
  6
CONTINUOUS
 62
     7
 10
-762.88311999999985
 20
88.307723999999979
 30
0.0
 40
1.0
 50
179.99998999999991
 51
239.64048999999989
  0
ARC
  5
889
  8
0
  6
CONTINUOUS
 62
     7
 10
-762.88311999999985
 20
87.274574000000001
 30
0.0
 40
1.0
 50
179.99998999999991
 51
236.74527999999981
  0
ARC
  5
88A
  8
0
  6
CONTINUOUS
 62
     7
 10
-762.88311999999985
 20
83.708168000000001
 30
0.0
 40
1.0
 50
179.99998999999991
 51
242.07341
  0
ARC
  5
88B
  8
0
  6
CONTINUOUS
 62
     7
 10
-762.88311999999985
 20
82.672584999999998
 30
0.0
 40
1.0
 50
179.99998999999991
 51
239.0334
  0
ARC
  5
88C
  8
0
  6
CONTINUOUS
 62
     7
 10
-759.88311999999985
 20
87.563034000000002
 30
0.0
 40
1.0
 50
270.0
 51
0.0
  0
ARC
  5
88D
  8
0
  6
CONTINUOUS
 62
     7
 10
-759.88311999999985
 20
83.046303000000023
 30
0.0
 40
1.0
 50
270.0
 51
0.0
  0
ARC
  5
88E
  8
0
  6
CONTINUOUS
 62
     7
 10
-759.38317999999981
 20
80.444861999999986
 30
0.0
 40
0.5
 50
270.0
 51
0.0
  0
ARC
  5
88F
  8
0
  6
CONTINUOUS
 62
     7
 10
-759.38317999999981
 20
78.298560999999964
 30
0.0
 40
0.5
 50
0.0
 51
90.000003000000007
  0
ARC
  5
890
  8
0
  6
CONTINUOUS
 62
     7
 10
-746.67675999999983
 20
74.264686999999981
 30
0.0
 40
2.0
 50
190.71569
 51
270.0
  0
ARC
  5
891
  8
0
  6
CONTINUOUS
 62
     7
 10
-746.62810999999988
 20
71.418312
 30
0.0
 40
2.0
 50
189.08497
 51
270.0
  0
ARC
  5
892
  8
0
  6
CONTINUOUS
 62
     7
 10
-746.61474999999984
 20
69.570526000000001
 30
0.0
 40
2.0
 50
188.6433899999999
 51
270.0
  0
ARC
  5
893
  8
0
  6
CONTINUOUS
 62
     3
 10
-670.38311999999985
 20
106.0481999999998
 30
0.0
 40
5.5
 50
84.784087999999983
 51
185.21596
  0
ARC
  5
894
  8
0
  6
CONTINUOUS
 62
     7
 10
-139.2809399999999
 20
262.06265000000002
 30
0.0
 40
3.0
 50
90.000003000000007
 51
180.00001
  0
ARC
  5
895
  8
0
  6
CONTINUOUS
 62
     7
 10
-114.7125399999999
 20
224.8442799999998
 30
0.0
 40
5.0
 50
234.77686
 51
315.0
  0
ARC
  5
896
  8
0
  6
CONTINUOUS
 62
     7
 10
-468.90816999999998
 20
259.59395999999992
 30
0.0
 40
5.0
 50
271.49999999999972
 51
315.0
  0
ARC
  5
897
  8
0
  6
CONTINUOUS
 62
     7
 10
-51.168391999999997
 20
87.435394000000016
 30
0.0
 40
20.0
 50
273.0
 51
357.0
  0
ARC
  5
898
  8
0
  6
CONTINUOUS
 62
     7
 10
-51.168391999999997
 20
275.66052000000002
 30
0.0
 40
20.0
 50
3.0000000999999981
 51
86.999998999999988
  0
ARC
  5
899
  8
0
  6
CONTINUOUS
 62
     7
 10
-151.28095999999991
 20
262.06265000000002
 30
0.0
 40
3.0
 50
0.0
 51
90.000003000000007
  0
ARC
  5
89A
  8
0
  6
CONTINUOUS
 62
     7
 10
-151.28095999999991
 20
255.87218999999999
 30
0.0
 40
3.0
 50
273.35581999999999
 51
0.0
  0
ARC
  5
89B
  8
0
  6
CONTINUOUS
 62
     7
 10
-145.2809399999999
 20
153.5479599999999
 30
0.0
 40
93.499999999999986
 50
162.14678999999981
 51
183.00788
  0
ARC
  5
89C
  8
0
  6
CONTINUOUS
 62
     7
 10
-145.2809399999999
 20
153.5479599999999
 30
0.0
 40
99.500000000000014
 50
93.355817999999985
 51
121.1615
  0
ARC
  5
89D
  8
0
  6
CONTINUOUS
 62
     7
 10
-101.98461999999979
 20
212.11635999999999
 30
0.0
 40
5.0
 50
135.0
 51
215.22315
  0
ARC
  5
89E
  8
0
  6
CONTINUOUS
 62
     7
 10
-139.2809399999999
 20
255.87218999999999
 30
0.0
 40
3.0
 50
179.99998999999991
 51
266.64418999999992
  0
ARC
  5
89F
  8
0
  6
CONTINUOUS
 62
     7
 10
-425.88315
 20
272.14767000000001
 30
0.0
 40
3.0
 50
0.0
 51
91.999998000000005
  0
ARC
  5
8A0
  8
0
  6
CONTINUOUS
 62
     7
 10
-426.88315
 20
295.62707999999998
 30
0.0
 40
3.0
 50
91.999998000000005
 51
180.00001
  0
ARC
  5
8A1
  8
0
  6
CONTINUOUS
 62
     7
 10
-145.2809399999999
 20
153.5479599999999
 30
0.0
 40
99.500000000000014
 50
242.88566
 51
297.11435
  0
ARC
  5
8A2
  8
0
  6
CENTER
 62
     7
 10
-145.2809399999999
 20
181.5479399999999
 30
0.0
 40
135.0
 50
38.36839299999999
 51
52.256346000000022
  0
CIRCLE
  5
8A3
  8
0
  6
CONTINUOUS
 62
     7
 10
-49.821533000000002
 20
277.00734999999992
 30
0.0
 40
7.5
  0
ARC
  5
8A4
  8
0
  6
CONTINUOUS
 62
     7
 10
-72.754311000000001
 20
241.34666000000001
 30
0.0
 40
5.0
 50
39.505817999999998
 51
135.0
  0
ARC
  5
8A5
  8
0
  6
CONTINUOUS
 62
     7
 10
-85.482224000000002
 20
254.07459999999989
 30
0.0
 40
5.0
 50
315.0
 51
50.494182000000002
  0
CIRCLE
  5
8A6
  8
0
  6
CONTINUOUS
 62
     7
 10
-145.2809399999999
 20
181.5479399999999
 30
0.0
 40
105.0
  0
CIRCLE
  5
8A7
  8
0
  6
CONTINUOUS
 62
     7
 10
-240.74036000000001
 20
277.00734999999992
 30
0.0
 40
7.5
  0
CIRCLE
  5
8A8
  8
0
  6
CONTINUOUS
 62
     7
 10
-145.2809399999999
 20
181.5479399999999
 30
0.0
 40
99.0
  0
ARC
  5
8A9
  8
0
  6
CENTER
 62
     7
 10
-145.2809399999999
 20
181.5479399999999
 30
0.0
 40
135.0
 50
127.41965
 51
142.25635
  0
ARC
  5
8AA
  8
0
  6
CENTER
 62
     7
 10
-145.2809399999999
 20
181.5479399999999
 30
0.0
 40
135.0
 50
218.36838999999981
 51
232.25635
  0
CIRCLE
  5
8AB
  8
0
  6
CONTINUOUS
 62
     7
 10
-240.74036000000001
 20
86.088538999999969
 30
0.0
 40
7.5
  0
ARC
  5
8AC
  8
0
  6
CONTINUOUS
 62
     7
 10
-239.39350999999991
 20
275.66052000000002
 30
0.0
 40
20.0
 50
92.999999000000017
 51
176.99999
  0
ARC
  5
8AD
  8
0
  6
CENTER
 62
     7
 10
-145.2809399999999
 20
181.5479399999999
 30
0.0
 40
135.0
 50
307.85882999999973
 51
322.25635
  0
CIRCLE
  5
8AE
  8
0
  6
CONTINUOUS
 62
     7
 10
-49.821533000000002
 20
86.088538999999969
 30
0.0
 40
7.5
  0
ARC
  5
8AF
  8
0
  6
CONTINUOUS
 62
     7
 10
-239.39350999999991
 20
87.435394000000016
 30
0.0
 40
20.0
 50
183.00001
 51
267.0
  0
ARC
  5
8B0
  8
0
  6
CONTINUOUS
 62
     7
 10
-426.88315
 20
240.4586899999999
 30
0.0
 40
3.0
 50
179.99998999999991
 51
270.0
  0
ARC
  5
8B1
  8
0
  6
CONTINUOUS
 62
     7
 10
-425.88315
 20
90.179976999999994
 30
0.0
 40
3.0
 50
272.0
 51
0.0
  0
ARC
  5
8B2
  8
0
  6
CONTINUOUS
 62
     7
 10
-426.88315
 20
152.78371000000001
 30
0.0
 40
3.0
 50
179.99998999999991
 51
270.0
  0
ARC
  5
8B3
  8
0
  6
CONTINUOUS
 62
     7
 10
-426.88315
 20
116.85868000000001
 30
0.0
 40
3.0
 50
90.000003000000007
 51
180.00001
  0
ARC
  5
8B4
  8
0
  6
CONTINUOUS
 62
     7
 10
-231.25768999999991
 20
143.5479599999999
 30
0.0
 40
5.0
 50
203.8444699999998
 51
270.0
  0
ARC
  5
8B5
  8
0
  6
CONTINUOUS
 62
     7
 10
-175.84936999999999
 20
224.8442799999998
 30
0.0
 40
5.0
 50
225.0
 51
305.22314999999992
  0
ARC
  5
8B6
  8
0
  6
CONTINUOUS
 62
     7
 10
-406.62966999999992
 20
183.85271
 30
0.0
 40
40.0
 50
174.07597999999999
 51
234.45533999999989
  0
ARC
  5
8B7
  8
0
  6
CONTINUOUS
 62
     7
 10
-462.88315
 20
232.7523799999999
 30
0.0
 40
21.0
 50
354.07597999999979
 51
80.875524999999996
  0
ARC
  5
8B8
  8
0
  6
CONTINUOUS
 62
     7
 10
-145.2809399999999
 20
153.5479599999999
 30
0.0
 40
99.500000000000014
 50
58.838493999999997
 51
86.644180000000006
  0
ARC
  5
8B9
  8
0
  6
CONTINUOUS
 62
     7
 10
-145.2809399999999
 20
153.5479599999999
 30
0.0
 40
99.500000000000014
 50
29.730242999999991
 51
54.136311999999997
  0
ARC
  5
8BA
  8
0
  6
CONTINUOUS
 62
     7
 10
-145.2809399999999
 20
153.5479599999999
 30
0.0
 40
93.499999999999986
 50
356.99212
 51
17.853213
  0
ARC
  5
8BB
  8
0
  6
CONTINUOUS
 62
     7
 10
-217.80759
 20
241.34666000000001
 30
0.0
 40
5.0
 50
45.00000099999999
 51
140.49418
  0
ARC
  5
8BC
  8
0
  6
CONTINUOUS
 62
     7
 10
-145.2809399999999
 20
181.5479399999999
 30
0.0
 40
48.0
 50
54.77685000000001
 51
125.22314
  0
ARC
  5
8BD
  8
0
  6
CONTINUOUS
 62
     7
 10
-145.2809399999999
 20
181.5479399999999
 30
0.0
 40
48.0
 50
0.0
 51
35.223151999999992
  0
ARC
  5
8BE
  8
0
  6
CONTINUOUS
 62
     7
 10
-145.2809399999999
 20
181.5479399999999
 30
0.0
 40
89.0
 50
0.42822786
 51
13.875764
  0
CIRCLE
  5
8BF
  8
0
  6
CONTINUOUS
 62
     7
 10
-145.2809399999999
 20
181.5479399999999
 30
0.0
 40
29.0
  0
ARC
  5
8C0
  8
0
  6
CONTINUOUS
 62
     7
 10
-145.2809399999999
 20
181.5479399999999
 30
0.0
 40
48.0
 50
144.77683999999991
 51
180.00001
  0
ARC
  5
8C1
  8
0
  6
CONTINUOUS
 62
     7
 10
-59.304211000000002
 20
143.5479599999999
 30
0.0
 40
5.0
 50
270.0
 51
336.15553
  0
ARC
  5
8C2
  8
0
  6
CONTINUOUS
 62
     7
 10
-205.07968
 20
254.07459999999989
 30
0.0
 40
5.0
 50
129.5058199999998
 51
225.0
  0
ARC
  5
8C3
  8
0
  6
CONTINUOUS
 62
     7
 10
-92.280945000000003
 20
143.5479599999999
 30
0.0
 40
5.0
 50
179.99998999999991
 51
270.0
  0
ARC
  5
8C4
  8
0
  6
CONTINUOUS
 62
     7
 10
-426.88315
 20
66.630736999999996
 30
0.0
 40
3.0
 50
179.99998999999991
 51
271.99998999999991
  0
ARC
  5
8C5
  8
0
  6
CONTINUOUS
 62
     7
 10
-145.2809399999999
 20
153.5479599999999
 30
0.0
 40
99.500000000000014
 50
125.86368999999991
 51
150.26975999999991
  0
ARC
  5
8C6
  8
0
  6
CONTINUOUS
 62
     7
 10
-198.2809399999999
 20
143.5479599999999
 30
0.0
 40
5.0
 50
270.0
 51
0.0
  0
ARC
  5
8C7
  8
0
  6
CONTINUOUS
 62
     7
 10
-188.57727
 20
212.11635999999999
 30
0.0
 40
5.0
 50
324.77685000000002
 51
45.00000099999999
  0
ARC
  5
8C8
  8
0
  6
CONTINUOUS
 62
     7
 10
-145.2809399999999
 20
181.5479399999999
 30
0.0
 40
89.0
 50
166.12423000000001
 51
179.57176999999999
  0
ARC
  5
8C9
  8
0
  6
CONTINUOUS
 62
     7
 10
-145.2809399999999
 20
181.5479399999999
 30
0.0
 40
16.0
 50
108.20996
 51
71.790052000000003
  0
CIRCLE
  5
8CA
  8
0
  6
CONTINUOUS
 62
     7
 10
-145.2809399999999
 20
181.5479399999999
 30
0.0
 40
4.0
  0
CIRCLE
  5
8CB
  8
0
  6
CONTINUOUS
 62
     7
 10
-145.2809399999999
 20
181.5479399999999
 30
0.0
 40
2.75
  0
ARC
  5
8CC
  8
0
  6
CONTINUOUS
 62
     7
 10
-145.2809399999999
 20
181.5479399999999
 30
0.0
 40
16.0
 50
108.20996
 51
71.790052000000003
  0
CIRCLE
  5
8CD
  8
0
  6
CONTINUOUS
 62
     7
 10
-145.2809399999999
 20
181.5479399999999
 30
0.0
 40
4.0
  0
CIRCLE
  5
8CE
  8
0
  6
CONTINUOUS
 62
     7
 10
-145.2809399999999
 20
181.5479399999999
 30
0.0
 40
2.75
  0
CIRCLE
  5
8CF
  8
0
  6
CONTINUOUS
 62
     7
 10
-145.2809399999999
 20
181.5479399999999
 30
0.0
 40
4.0
  0
CIRCLE
  5
8D0
  8
0
  6
CONTINUOUS
 62
     7
 10
-145.2809399999999
 20
181.5479399999999
 30
0.0
 40
2.75
  0
ARC
  5
8D1
  8
0
  6
CONTINUOUS
 62
     7
 10
-535.88317999999992
 20
56.328536999999997
 30
0.0
 40
2.0
 50
179.99998999999991
 51
268.00000999999992
  0
ARC
  5
8D2
  8
0
  6
CONTINUOUS
 62
     7
 10
-439.35988999999989
 20
604.96094000000005
 30
0.0
 40
5.0
 50
272.0
 51
315.0
  0
ARC
  5
8D3
  8
0
  6
CONTINUOUS
 62
     7
 10
-426.88315
 20
383.28747999999979
 30
0.0
 40
3.0
 50
179.99998999999991
 51
268.00000999999992
  0
ARC
  5
8D4
  8
0
  6
CONTINUOUS
 62
     7
 10
-426.88315
 20
556.27733999999998
 30
0.0
 40
3.0
 50
179.99998999999991
 51
270.0
  0
ARC
  5
8D5
  8
0
  6
CONTINUOUS
 62
     7
 10
-426.88315
 20
438.45587
 30
0.0
 40
3.0
 50
90.000003000000007
 51
180.00001
  0
ARC
  5
8D6
  8
0
  6
CONTINUOUS
 62
     7
 10
-426.88315
 20
611.44574
 30
0.0
 40
3.0
 50
91.999998000000005
 51
180.00001
  0
ARC
  5
8D7
  8
0
  6
CONTINUOUS
 62
     7
 10
-425.88315
 20
587.96636999999998
 30
0.0
 40
3.0
 50
0.0
 51
91.999998000000005
  0
ARC
  5
8D8
  8
0
  6
CONTINUOUS
 62
     7
 10
-425.88315
 20
406.76687999999979
 30
0.0
 40
3.0
 50
268.0
 51
0.0
  0
ARC
  5
8D9
  8
0
  6
CONTINUOUS
 62
     7
 10
-439.35988999999989
 20
389.77224999999999
 30
0.0
 40
5.0
 50
45.00000099999999
 51
88.0
  0
ARC
  5
8DA
  8
0
  6
CONTINUOUS
 62
     7
 10
-397.88315
 20
497.36660999999992
 30
0.0
 40
5.0
 50
90.000003000000007
 51
270.0
  0
POLYLINE
  5
8DB
  8
0
  6
CONTINUOUS
 62
     7
 66
     1
 10
0.0
 20
0.0
 30
0.0
  0
VERTEX
  5
8DC
  8
0
  6
CONTINUOUS
 62
     7
 10
-746.02233999999999
 20
523.84960999999976
 30
0.0
 42
-0.00068898288
  0
VERTEX
  5
8DD
  8
0
  6
CONTINUOUS
 62
     7
 10
-745.95146
 20
524.42435999999987
 30
0.0
 42
-0.00067933815
  0
VERTEX
  5
8DE
  8
0
  6
CONTINUOUS
 62
     7
 10
-745.87897999999984
 20
524.99905000000001
 30
0.0
 42
-0.00071571802
  0
VERTEX
  5
8DF
  8
0
  6
CONTINUOUS
 62
     7
 10
-745.80492999999979
 20
525.57335999999998
 30
0.0
 42
-0.00074226718
  0
VERTEX
  5
8E0
  8
0
  6
CONTINUOUS
 62
     7
 10
-745.72915999999975
 20
526.14748999999995
 30
0.0
 42
-0.0006085755
  0
VERTEX
  5
8E1
  8
0
  6
CONTINUOUS
 62
     7
 10
-745.65184999999985
 20
526.72150999999985
 30
0.0
 42
-0.00074400356
  0
VERTEX
  5
8E2
  8
0
  6
CONTINUOUS
 62
     7
 10
-745.57299999999987
 20
527.29528999999991
 30
0.0
 42
-0.0007332036
  0
VERTEX
  5
8E3
  8
0
  6
CONTINUOUS
 62
     7
 10
-745.49240999999984
 20
527.86874999999998
 30
0.0
 42
-0.00064546482
  0
VERTEX
  5
8E4
  8
0
  6
CONTINUOUS
 62
     7
 10
-745.41026999999985
 20
528.44185999999991
 30
0.0
 42
-0.00074205585
  0
VERTEX
  5
8E5
  8
0
  6
CONTINUOUS
 62
     7
 10
-745.32654000000002
 20
529.01489000000004
 30
0.0
 42
-0.00073582101
  0
VERTEX
  5
8E6
  8
0
  6
CONTINUOUS
 62
     7
 10
-745.24107000000004
 20
529.58765000000005
 30
0.0
 42
-0.00068913795
  0
VERTEX
  5
8E7
  8
0
  6
CONTINUOUS
 62
     7
 10
-745.15401999999983
 20
530.15999999999985
 30
0.0
 42
-0.00072288975
  0
VERTEX
  5
8E8
  8
0
  6
CONTINUOUS
 62
     7
 10
-745.06530999999984
 20
530.73230000000001
 30
0.0
  0
SEQEND
  5
8E9
  8
0
 62
     7
  0
POLYLINE
  5
8EA
  8
0
  6
CONTINUOUS
 62
     7
 66
     1
 10
0.0
 20
0.0
 30
0.0
  0
VERTEX
  5
8EB
  8
0
  6
CONTINUOUS
 62
     7
 10
-747.005
 20
513.70714999999996
 30
0.0
 42
-0.00073370504
  0
VERTEX
  5
8EC
  8
0
  6
CONTINUOUS
 62
     7
 10
-746.96085999999968
 20
514.30956999999989
 30
0.0
 42
-0.00075211326
  0
VERTEX
  5
8ED
  8
0
  6
CONTINUOUS
 62
     7
 10
-746.91492000000005
 20
514.91195999999968
 30
0.0
 42
-0.00072974913
  0
VERTEX
  5
8EE
  8
0
  6
CONTINUOUS
 62
     7
 10
-746.86719000000005
 20
515.51415999999995
 30
0.0
 42
-0.00075830266
  0
VERTEX
  5
8EF
  8
0
  6
CONTINUOUS
 62
     7
 10
-746.81765999999982
 20
516.11614999999995
 30
0.0
 42
-0.00069523362
  0
VERTEX
  5
8F0
  8
0
  6
CONTINUOUS
 62
     7
 10
-746.76638999999989
 20
516.71802000000002
 30
0.0
 42
-0.00075453669
  0
VERTEX
  5
8F1
  8
0
  6
CONTINUOUS
 62
     7
 10
-746.71338000000003
 20
517.31982000000005
 30
0.0
 42
-0.00073754162
  0
VERTEX
  5
8F2
  8
0
  6
CONTINUOUS
 62
     7
 10
-746.65855999999985
 20
517.92136000000005
 30
0.0
 42
-0.00075683463
  0
VERTEX
  5
8F3
  8
0
  6
CONTINUOUS
 62
     7
 10
-746.60195999999985
 20
518.52270999999985
 30
0.0
 42
-0.00072314518
  0
VERTEX
  5
8F4
  8
0
  6
CONTINUOUS
 62
     7
 10
-746.54358000000002
 20
519.12378000000001
 30
0.0
 42
-0.00072055031
  0
VERTEX
  5
8F5
  8
0
  6
CONTINUOUS
 62
     7
 10
-746.4834699999999
 20
519.72480999999993
 30
0.0
 42
-0.00075109448
  0
VERTEX
  5
8F6
  8
0
  6
CONTINUOUS
 62
     7
 10
-746.42157999999984
 20
520.32555000000002
 30
0.0
 42
-0.00074640669
  0
VERTEX
  5
8F7
  8
0
  6
CONTINUOUS
 62
     7
 10
-746.35790999999983
 20
520.92615000000001
 30
0.0
  0
SEQEND
  5
8F8
  8
0
 62
     7
  0
POLYLINE
  5
8F9
  8
0
  6
CONTINUOUS
 62
     7
 66
     1
 10
0.0
 20
0.0
 30
0.0
  0
VERTEX
  5
8FA
  8
0
  6
CONTINUOUS
 62
     7
 10
-747.47912999999983
 20
503.63699000000003
 30
0.0
 42
-0.00074497794
  0
VERTEX
  5
8FB
  8
0
  6
CONTINUOUS
 62
     7
 10
-747.46437999999989
 20
504.25475999999981
 30
0.0
 42
-0.00078382109
  0
VERTEX
  5
8FC
  8
0
  6
CONTINUOUS
 62
     7
 10
-747.44773999999984
 20
504.87234999999998
 30
0.0
 42
-0.00074335683
  0
VERTEX
  5
8FD
  8
0
  6
CONTINUOUS
 62
     7
 10
-747.42920000000004
 20
505.49002000000002
 30
0.0
 42
-0.00075141073
  0
VERTEX
  5
8FE
  8
0
  6
CONTINUOUS
 62
     7
 10
-747.40882999999985
 20
506.10762
 30
0.0
 42
-0.00073282878
  0
VERTEX
  5
8FF
  8
0
  6
CONTINUOUS
 62
     7
 10
-747.38661000000002
 20
506.72505000000001
 30
0.0
 42
-0.00077904704
  0
VERTEX
  5
900
  8
0
  6
CONTINUOUS
 62
     7
 10
-747.36255000000006
 20
507.34255999999988
 30
0.0
 42
-0.00075975979
  0
VERTEX
  5
901
  8
0
  6
CONTINUOUS
 62
     7
 10
-747.33655999999985
 20
507.95994999999988
 30
0.0
 42
-0.00078354578
  0
VERTEX
  5
902
  8
0
  6
CONTINUOUS
 62
     7
 10
-747.30870000000004
 20
508.57722000000001
 30
0.0
 42
-0.00072634782
  0
VERTEX
  5
903
  8
0
  6
CONTINUOUS
 62
     7
 10
-747.27892999999983
 20
509.19460999999973
 30
0.0
 42
-0.00072701816
  0
VERTEX
  5
904
  8
0
  6
CONTINUOUS
 62
     7
 10
-747.24742000000003
 20
509.81174999999979
 30
0.0
 42
-0.00078596601
  0
VERTEX
  5
905
  8
0
  6
CONTINUOUS
 62
     7
 10
-747.2140099999998
 20
510.42876999999987
 30
0.0
 42
-0.00075618798
  0
VERTEX
  5
906
  8
0
  6
CONTINUOUS
 62
     7
 10
-747.17870999999957
 20
511.04580999999979
 30
0.0
  0
SEQEND
  5
907
  8
0
 62
     7
  0
POLYLINE
  5
908
  8
0
  6
CONTINUOUS
 62
     7
 66
     1
 10
0.0
 20
0.0
 30
0.0
  0
VERTEX
  5
909
  8
0
  6
CONTINUOUS
 62
     7
 10
-747.52318999999989
 20
497.36660999999992
 30
0.0
 42
-0.00034747668
  0
VERTEX
  5
90A
  8
0
  6
CONTINUOUS
 62
     7
 10
-747.52558999999985
 20
497.67773999999991
 30
0.0
 42
-0.00040573841
  0
VERTEX
  5
90B
  8
0
  6
CONTINUOUS
 62
     7
 10
-747.52750000000003
 20
497.98885000000001
 30
0.0
 42
-0.00039706112
  0
VERTEX
  5
90C
  8
0
  6
CONTINUOUS
 62
     7
 10
-747.52892999999983
 20
498.29995999999988
 30
0.0
 42
-0.00038765721
  0
VERTEX
  5
90D
  8
0
  6
CONTINUOUS
 62
     7
 10
-747.52985999999999
 20
498.61110000000002
 30
0.0
 42
-0.00040613431
  0
VERTEX
  5
90E
  8
0
  6
CONTINUOUS
 62
     7
 10
-747.53030999999964
 20
498.9221999999998
 30
0.0
 42
-0.00035573432
  0
VERTEX
  5
90F
  8
0
  6
CONTINUOUS
 62
     7
 10
-747.53026999999975
 20
499.23330999999968
 30
0.0
 42
-0.00034185751
  0
VERTEX
  5
910
  8
0
  6
CONTINUOUS
 62
     7
 10
-747.52982999999983
 20
499.54444000000012
 30
0.0
 42
-0.00050754827
  0
VERTEX
  5
911
  8
0
  6
CONTINUOUS
 62
     7
 10
-747.52885000000003
 20
499.85554999999999
 30
0.0
 42
-0.00031407598
  0
VERTEX
  5
912
  8
0
  6
CONTINUOUS
 62
     7
 10
-747.52733999999964
 20
500.16677999999979
 30
0.0
 42
-0.0003831782
  0
VERTEX
  5
913
  8
0
  6
CONTINUOUS
 62
     7
 10
-747.52543000000003
 20
500.47791999999993
 30
0.0
 42
-0.00030570285
  0
VERTEX
  5
914
  8
0
  6
CONTINUOUS
 62
     7
 10
-747.52305999999965
 20
500.78915000000001
 30
0.0
 42
-0.00044503941
  0
VERTEX
  5
915
  8
0
  6
CONTINUOUS
 62
     7
 10
-747.52026000000001
 20
501.10025000000002
 30
0.0
  0
SEQEND
  5
916
  8
0
 62
     7
  0
POLYLINE
  5
917
  8
0
  6
CONTINUOUS
 62
     7
 66
     1
 10
0.0
 20
0.0
 30
0.0
  0
VERTEX
  5
918
  8
0
  6
CONTINUOUS
 62
     7
 10
-746.02233999999999
 20
470.88357999999999
 30
0.0
 42
0.00068900015
  0
VERTEX
  5
919
  8
0
  6
CONTINUOUS
 62
     7
 10
-745.95146
 20
470.30882000000003
 30
0.0
 42
0.00067934109
  0
VERTEX
  5
91A
  8
0
  6
CONTINUOUS
 62
     7
 10
-745.87897999999984
 20
469.73414000000002
 30
0.0
 42
0.00071569317
  0
VERTEX
  5
91B
  8
0
  6
CONTINUOUS
 62
     7
 10
-745.80492999999979
 20
469.15982000000002
 30
0.0
 42
0.00074228853
  0
VERTEX
  5
91C
  8
0
  6
CONTINUOUS
 62
     7
 10
-745.72915999999975
 20
468.58569
 30
0.0
 42
0.0006085737
  0
VERTEX
  5
91D
  8
0
  6
CONTINUOUS
 62
     7
 10
-745.65184999999985
 20
468.01167999999973
 30
0.0
 42
0.00074399443
  0
VERTEX
  5
91E
  8
0
  6
CONTINUOUS
 62
     7
 10
-745.57299999999987
 20
467.43790000000001
 30
0.0
 42
0.00073321195
  0
VERTEX
  5
91F
  8
0
  6
CONTINUOUS
 62
     7
 10
-745.49240999999984
 20
466.86442999999991
 30
0.0
 42
0.00064546135
  0
VERTEX
  5
920
  8
0
  6
CONTINUOUS
 62
     7
 10
-745.41026999999985
 20
466.29131999999998
 30
0.0
 42
0.00074206153
  0
VERTEX
  5
921
  8
0
  6
CONTINUOUS
 62
     7
 10
-745.32654000000002
 20
465.71829000000002
 30
0.0
 42
0.00073581332
  0
VERTEX
  5
922
  8
0
  6
CONTINUOUS
 62
     7
 10
-745.24107000000004
 20
465.14553000000001
 30
0.0
 42
0.00068913942
  0
VERTEX
  5
923
  8
0
  6
CONTINUOUS
 62
     7
 10
-745.15401999999983
 20
464.57317999999998
 30
0.0
 42
0.00072290803
  0
VERTEX
  5
924
  8
0
  6
CONTINUOUS
 62
     7
 10
-745.06530999999984
 20
464.00089000000003
 30
0.0
  0
SEQEND
  5
925
  8
0
 62
     7
  0
POLYLINE
  5
926
  8
0
  6
CONTINUOUS
 62
     7
 66
     1
 10
0.0
 20
0.0
 30
0.0
  0
VERTEX
  5
927
  8
0
  6
CONTINUOUS
 62
     7
 10
-747.005
 20
481.02602999999999
 30
0.0
 42
0.00073721987
  0
VERTEX
  5
928
  8
0
  6
CONTINUOUS
 62
     7
 10
-746.96085000000005
 20
480.42362000000003
 30
0.0
 42
0.00074398499
  0
VERTEX
  5
929
  8
0
  6
CONTINUOUS
 62
     7
 10
-746.91492000000005
 20
479.82135
 30
0.0
 42
0.00073322628
  0
VERTEX
  5
92A
  8
0
  6
CONTINUOUS
 62
     7
 10
-746.86719000000005
 20
479.21902
 30
0.0
 42
0.00075831517
  0
VERTEX
  5
92B
  8
0
  6
CONTINUOUS
 62
     7
 10
-746.81765999999982
 20
478.61703
 30
0.0
 42
0.00069523192
  0
VERTEX
  5
92C
  8
0
  6
CONTINUOUS
 62
     7
 10
-746.76638999999989
 20
478.01517000000001
 30
0.0
 42
0.00075453057
  0
VERTEX
  5
92D
  8
0
  6
CONTINUOUS
 62
     7
 10
-746.71338000000003
 20
477.41335999999978
 30
0.0
 42
0.00074184059
  0
VERTEX
  5
92E
  8
0
  6
CONTINUOUS
 62
     7
 10
-746.65855999999985
 20
476.81182999999999
 30
0.0
 42
0.00074685399
  0
VERTEX
  5
92F
  8
0
  6
CONTINUOUS
 62
     7
 10
-746.60197000000005
 20
476.2106
 30
0.0
 42
0.00072743001
  0
VERTEX
  5
930
  8
0
  6
CONTINUOUS
 62
     7
 10
-746.54358000000002
 20
475.60940999999991
 30
0.0
 42
0.00072055497
  0
VERTEX
  5
931
  8
0
  6
CONTINUOUS
 62
     7
 10
-746.4834699999999
 20
475.00837999999987
 30
0.0
 42
0.00075109124
  0
VERTEX
  5
932
  8
0
  6
CONTINUOUS
 62
     7
 10
-746.42157999999984
 20
474.40763999999979
 30
0.0
 42
0.00074640586
  0
VERTEX
  5
933
  8
0
  6
CONTINUOUS
 62
     7
 10
-746.35790999999983
 20
473.8070399999998
 30
0.0
  0
SEQEND
  5
934
  8
0
 62
     7
  0
POLYLINE
  5
935
  8
0
  6
CONTINUOUS
 62
     7
 66
     1
 10
0.0
 20
0.0
 30
0.0
  0
VERTEX
  5
936
  8
0
  6
CONTINUOUS
 62
     7
 10
-747.47912999999983
 20
491.09622000000002
 30
0.0
 42
0.0007450104
  0
VERTEX
  5
937
  8
0
  6
CONTINUOUS
 62
     7
 10
-747.46437999999989
 20
490.47845999999998
 30
0.0
 42
0.00078382361
  0
VERTEX
  5
938
  8
0
  6
CONTINUOUS
 62
     7
 10
-747.44773999999984
 20
489.86085999999989
 30
0.0
 42
0.00074332138
  0
VERTEX
  5
939
  8
0
  6
CONTINUOUS
 62
     7
 10
-747.42920000000004
 20
489.24319000000003
 30
0.0
 42
0.00075144464
  0
VERTEX
  5
93A
  8
0
  6
CONTINUOUS
 62
     7
 10
-747.40882999999985
 20
488.62558999999999
 30
0.0
 42
0.00073475784
  0
VERTEX
  5
93B
  8
0
  6
CONTINUOUS
 62
     7
 10
-747.38661000000002
 20
488.00815999999992
 30
0.0
 42
0.00077737161
  0
VERTEX
  5
93C
  8
0
  6
CONTINUOUS
 62
     7
 10
-747.36255000000006
 20
487.39078000000001
 30
0.0
 42
0.00075773226
  0
VERTEX
  5
93D
  8
0
  6
CONTINUOUS
 62
     7
 10
-747.33657000000005
 20
486.77337999999992
 30
0.0
 42
0.00078591853
  0
VERTEX
  5
93E
  8
0
  6
CONTINUOUS
 62
     7
 10
-747.30870000000004
 20
486.15598999999992
 30
0.0
 42
0.00072631796
  0
VERTEX
  5
93F
  8
0
  6
CONTINUOUS
 62
     7
 10
-747.27892999999983
 20
485.53859999999997
 30
0.0
 42
0.00072704863
  0
VERTEX
  5
940
  8
0
  6
CONTINUOUS
 62
     7
 10
-747.24742000000003
 20
484.92147
 30
0.0
 42
0.00078596526
  0
VERTEX
  5
941
  8
0
  6
CONTINUOUS
 62
     7
 10
-747.2140099999998
 20
484.30444000000011
 30
0.0
 42
0.00075616139
  0
VERTEX
  5
942
  8
0
  6
CONTINUOUS
 62
     7
 10
-747.17870999999957
 20
483.68740999999989
 30
0.0
  0
SEQEND
  5
943
  8
0
 62
     7
  0
POLYLINE
  5
944
  8
0
  6
CONTINUOUS
 62
     7
 66
     1
 10
0.0
 20
0.0
 30
0.0
  0
VERTEX
  5
945
  8
0
  6
CONTINUOUS
 62
     7
 10
-747.52318999999989
 20
497.36660999999992
 30
0.0
 42
0.00034747618
  0
VERTEX
  5
946
  8
0
  6
CONTINUOUS
 62
     7
 10
-747.52558999999985
 20
497.05547000000001
 30
0.0
 42
0.0004057423
  0
VERTEX
  5
947
  8
0
  6
CONTINUOUS
 62
     7
 10
-747.52750000000003
 20
496.74437
 30
0.0
 42
0.0003970523
  0
VERTEX
  5
948
  8
0
  6
CONTINUOUS
 62
     7
 10
-747.52892999999983
 20
496.43325999999968
 30
0.0
 42
0.00038766493
  0
VERTEX
  5
949
  8
0
  6
CONTINUOUS
 62
     7
 10
-747.52985999999999
 20
496.12211999999988
 30
0.0
 42
0.00040613777
  0
VERTEX
  5
94A
  8
0
  6
CONTINUOUS
 62
     7
 10
-747.53030999999964
 20
495.81100999999978
 30
0.0
 42
0.00035571853
  0
VERTEX
  5
94B
  8
0
  6
CONTINUOUS
 62
     7
 10
-747.53026999999975
 20
495.49990999999989
 30
0.0
 42
0.00034187235
  0
VERTEX
  5
94C
  8
0
  6
CONTINUOUS
 62
     7
 10
-747.52982999999983
 20
495.18876999999992
 30
0.0
 42
0.00050755129
  0
VERTEX
  5
94D
  8
0
  6
CONTINUOUS
 62
     7
 10
-747.52885000000003
 20
494.87767000000002
 30
0.0
 42
0.00031405455
  0
VERTEX
  5
94E
  8
0
  6
CONTINUOUS
 62
     7
 10
-747.52733999999964
 20
494.56644
 30
0.0
 42
0.0003831987
  0
VERTEX
  5
94F
  8
0
  6
CONTINUOUS
 62
     7
 10
-747.52543000000003
 20
494.25529999999998
 30
0.0
 42
0.00030570555
  0
VERTEX
  5
950
  8
0
  6
CONTINUOUS
 62
     7
 10
-747.52305999999965
 20
493.94407000000001
 30
0.0
 42
0.00044501308
  0
VERTEX
  5
951
  8
0
  6
CONTINUOUS
 62
     7
 10
-747.52026000000001
 20
493.63296999999989
 30
0.0
  0
SEQEND
  5
952
  8
0
 62
     7
  0
POLYLINE
  5
953
  8
0
  6
CONTINUOUS
 62
     7
 66
     1
 10
0.0
 20
0.0
 30
0.0
  0
VERTEX
  5
954
  8
0
  6
CONTINUOUS
 62
     7
 10
-576.45185000000004
 20
443.98597999999993
 30
0.0
  0
VERTEX
  5
955
  8
0
  6
CONTINUOUS
 62
     7
 10
-581.99527999999998
 20
451.82818999999989
 30
0.0
 42
-1.0
  0
SEQEND
  5
956
  8
0
 62
     7
  0
POLYLINE
  5
957
  8
0
  6
CONTINUOUS
 62
     7
 66
     1
 10
0.0
 20
0.0
 30
0.0
  0
VERTEX
  5
958
  8
0
  6
CONTINUOUS
 62
     7
 10
-581.03506999999979
 20
455.93202000000002
 30
0.0
 42
-0.0050917014
  0
VERTEX
  5
959
  8
0
  6
CONTINUOUS
 62
     7
 10
-582.18299000000002
 20
457.85167000000001
 30
0.0
 42
-0.0052112711
  0
VERTEX
  5
95A
  8
0
  6
CONTINUOUS
 62
     7
 10
-583.29112999999995
 20
459.79455999999999
 30
0.0
 42
-0.0053447966
  0
VERTEX
  5
95B
  8
0
  6
CONTINUOUS
 62
     7
 10
-584.35800999999958
 20
461.76040999999998
 30
0.0
 42
-0.0054924736
  0
VERTEX
  5
95C
  8
0
  6
CONTINUOUS
 62
     7
 10
-585.38205000000016
 20
463.74892999999992
 30
0.0
  0
SEQEND
  5
95D
  8
0
 62
     7
  0
POLYLINE
  5
95E
  8
0
  6
CONTINUOUS
 62
     7
 66
     1
 10
0.0
 20
0.0
 30
0.0
  0
VERTEX
  5
95F
  8
0
  6
CONTINUOUS
 62
     7
 10
-576.45185000000004
 20
550.74721
 30
0.0
  0
VERTEX
  5
960
  8
0
  6
CONTINUOUS
 62
     7
 10
-581.99527999999998
 20
542.90498999999977
 30
0.0
 42
-1.0
  0
SEQEND
  5
961
  8
0
 62
     7
  0
POLYLINE
  5
962
  8
0
  6
CONTINUOUS
 62
     7
 66
     1
 10
0.0
 20
0.0
 30
0.0
  0
VERTEX
  5
963
  8
0
  6
CONTINUOUS
 62
     7
 10
-581.03506999999979
 20
538.80116999999996
 30
0.0
 42
0.0050916976
  0
VERTEX
  5
964
  8
0
  6
CONTINUOUS
 62
     7
 10
-582.18299000000002
 20
536.88152000000002
 30
0.0
 42
0.005211269
  0
VERTEX
  5
965
  8
0
  6
CONTINUOUS
 62
     7
 10
-583.29112999999995
 20
534.93862999999988
 30
0.0
 42
0.005344796
  0
VERTEX
  5
966
  8
0
  6
CONTINUOUS
 62
     7
 10
-584.35800999999958
 20
532.97277999999994
 30
0.0
 42
0.0054924746
  0
VERTEX
  5
967
  8
0
  6
CONTINUOUS
 62
     7
 10
-585.38205000000016
 20
530.98427000000004
 30
0.0
  0
SEQEND
  5
968
  8
0
 62
     7
  0
POLYLINE
  5
969
  8
0
  6
CONTINUOUS
 62
     7
 66
     1
 10
0.0
 20
0.0
 30
0.0
  0
VERTEX
  5
96A
  8
0
  6
CONTINUOUS
 62
     7
 10
-589.50626999999952
 20
465.40413999999993
 30
0.0
  0
VERTEX
  5
96B
  8
0
  6
CONTINUOUS
 62
     7
 10
-595.79381999999998
 20
484.36607999999973
 30
0.0
 42
-1.0
  0
SEQEND
  5
96C
  8
0
 62
     7
  0
POLYLINE
  5
96D
  8
0
  6
CONTINUOUS
 62
     7
 66
     1
 10
0.0
 20
0.0
 30
0.0
  0
VERTEX
  5
96E
  8
0
  6
CONTINUOUS
 62
     7
 10
-589.50626999999952
 20
529.32905000000005
 30
0.0
  0
VERTEX
  5
96F
  8
0
  6
CONTINUOUS
 62
     7
 10
-595.79381999999998
 20
510.36712999999997
 30
0.0
 42
-1.0
  0
SEQEND
  5
970
  8
0
 62
     7
  0
POLYLINE
  5
971
  8
0
  6
CONTINUOUS
 62
     7
 66
     1
 10
0.0
 20
0.0
 30
0.0
  0
VERTEX
  5
972
  8
0
  6
CONTINUOUS
 62
     7
 10
-747.51775999999984
 20
128.5479599999999
 30
0.0
  0
VERTEX
  5
973
  8
0
  6
CONTINUOUS
 62
     7
 10
-747.51504
 20
124.81547999999999
 30
0.0
 42
-1.0
  0
SEQEND
  5
974
  8
0
 62
     7
  0
POLYLINE
  5
975
  8
0
  6
CONTINUOUS
 62
     7
 66
     1
 10
0.0
 20
0.0
 30
0.0
  0
VERTEX
  5
976
  8
0
  6
CONTINUOUS
 62
     7
 10
-747.47439999999983
 20
122.27666000000001
 30
0.0
  0
VERTEX
  5
977
  8
0
  6
CONTINUOUS
 62
     7
 10
-747.17572999999982
 20
114.86660000000001
 30
0.0
 42
-1.0
  0
SEQEND
  5
978
  8
0
 62
     7
  0
POLYLINE
  5
979
  8
0
  6
CONTINUOUS
 62
     7
 66
     1
 10
0.0
 20
0.0
 30
0.0
  0
VERTEX
  5
97A
  8
0
  6
CONTINUOUS
 62
     7
 10
-747.00272999999981
 20
112.20536
 30
0.0
  0
VERTEX
  5
97B
  8
0
  6
CONTINUOUS
 62
     7
 10
-746.35667999999964
 20
104.98441
 30
0.0
 42
-1.0
  0
SEQEND
  5
97C
  8
0
 62
     7
  0
POLYLINE
  5
97D
  8
0
  6
CONTINUOUS
 62
     7
 66
     1
 10
0.0
 20
0.0
 30
0.0
  0
VERTEX
  5
97E
  8
0
  6
CONTINUOUS
 62
     7
 10
-746.02098000000001
 20
102.06095999999999
 30
0.0
  0
VERTEX
  5
97F
  8
0
  6
CONTINUOUS
 62
     7
 10
-745.06050000000005
 20
95.179366999999985
 30
0.0
 42
-1.0
  0
SEQEND
  5
980
  8
0
 62
     7
  0
POLYLINE
  5
981
  8
0
  6
CONTINUOUS
 62
     7
 66
     1
 10
0.0
 20
0.0
 30
0.0
  0
VERTEX
  5
982
  8
0
  6
CONTINUOUS
 62
     7
 10
-747.51775999999984
 20
128.5479599999999
 30
0.0
  0
VERTEX
  5
983
  8
0
  6
CONTINUOUS
 62
     7
 10
-747.51504
 20
132.28044
 30
0.0
 42
-1.0
  0
SEQEND
  5
984
  8
0
 62
     7
  0
POLYLINE
  5
985
  8
0
  6
CONTINUOUS
 62
     7
 66
     1
 10
0.0
 20
0.0
 30
0.0
  0
VERTEX
  5
986
  8
0
  6
CONTINUOUS
 62
     7
 10
-747.47439999999983
 20
134.81925000000001
 30
0.0
  0
VERTEX
  5
987
  8
0
  6
CONTINUOUS
 62
     7
 10
-747.17572999999982
 20
142.22926999999979
 30
0.0
 42
-1.0
  0
SEQEND
  5
988
  8
0
 62
     7
  0
POLYLINE
  5
989
  8
0
  6
CONTINUOUS
 62
     7
 66
     1
 10
0.0
 20
0.0
 30
0.0
  0
VERTEX
  5
98A
  8
0
  6
CONTINUOUS
 62
     7
 10
-747.00272999999981
 20
144.8905
 30
0.0
  0
VERTEX
  5
98B
  8
0
  6
CONTINUOUS
 62
     7
 10
-746.35667999999964
 20
152.1114199999999
 30
0.0
 42
-1.0
  0
SEQEND
  5
98C
  8
0
 62
     7
  0
POLYLINE
  5
98D
  8
0
  6
CONTINUOUS
 62
     7
 66
     1
 10
0.0
 20
0.0
 30
0.0
  0
VERTEX
  5
98E
  8
0
  6
CONTINUOUS
 62
     7
 10
-746.02098000000001
 20
155.0348899999999
 30
0.0
  0
VERTEX
  5
98F
  8
0
  6
CONTINUOUS
 62
     7
 10
-745.06050000000005
 20
161.91651999999991
 30
0.0
 42
-1.0
  0
SEQEND
  5
990
  8
0
 62
     7
  0
POLYLINE
  5
991
  8
0
  6
CONTINUOUS
 62
     7
 66
     1
 10
0.0
 20
0.0
 30
0.0
  0
VERTEX
  5
992
  8
0
  6
CONTINUOUS
 62
     7
 10
-437.21704
 20
600.03270999999995
 30
0.0
 42
0.079826744
  0
VERTEX
  5
993
  8
0
  6
CONTINUOUS
 62
     7
 10
-463.05887000000001
 20
533.12626999999986
 30
0.0
 42
0.10414854
  0
VERTEX
  5
994
  8
0
  6
CONTINUOUS
 62
     7
 10
-463.05880000000002
 20
461.60656999999998
 30
0.0
 42
0.079826277
  0
VERTEX
  5
995
  8
0
  6
CONTINUOUS
 62
     7
 10
-437.21704
 20
394.70046999999988
 30
0.0
  0
SEQEND
  5
996
  8
0
 62
     7
  0
TEXT
  5
B53
  8
0
  6
CONTINUOUS
 62
     0
 10
-290.75033485666472
 20
471.62536529072707
 30
0.0
 40
15.0
  1
VX01-800MF~VX01-K20MF
  0
ENDSEC
  0
EOF
