  0
SECTION
  2
HEADER
  9
$ACADVER
  1
AC1009
  9
$INSBASE
 10
0.0
 20
0.0
 30
0.0
  9
$EXTMIN
 10
-587.08335584674955
 20
45.542820300269561
 30
-0.0000000000112498
  9
$EXTMAX
 10
-62.852279666620461
 20
437.00562935353361
 30
0.0000000000002956
  9
$LIMMIN
 10
0.0
 20
0.0
  9
$LIMMAX
 10
12.0
 20
9.0
  9
$ORTHOMODE
 70
     0
  9
$REGENMODE
 70
     1
  9
$FILLMODE
 70
     1
  9
$QTEXTMODE
 70
     0
  9
$MIRRTEXT
 70
     1
  9
$DRAGMODE
 70
     2
  9
$LTSCALE
 40
1.0
  9
$OSMODE
 70
   551
  9
$ATTMODE
 70
     1
  9
$TEXTSIZE
 40
0.2
  9
$TRACEWID
 40
0.05
  9
$TEXTSTYLE
  7
STANDARD
  9
$CLAYER
  8
0
  9
$CELTYPE
  6
CONTINUOUS
  9
$CECOLOR
 62
   256
  9
$DIMSCALE
 40
1.0
  9
$DIMASZ
 40
0.1
  9
$DIMEXO
 40
0.05
  9
$DIMDLI
 40
0.5
  9
$DIMRND
 40
0.0
  9
$DIMDLE
 40
0.0
  9
$DIMEXE
 40
0.1
  9
$DIMTP
 40
0.1
  9
$DIMTM
 40
0.1
  9
$DIMTXT
 40
0.12
  9
$DIMCEN
 40
0.0
  9
$DIMTSZ
 40
0.0
  9
$DIMTOL
 70
     0
  9
$DIMLIM
 70
     0
  9
$DIMTIH
 70
     1
  9
$DIMTOH
 70
     1
  9
$DIMSE1
 70
     0
  9
$DIMSE2
 70
     0
  9
$DIMTAD
 70
     0
  9
$DIMZIN
 70
     0
  9
$DIMBLK
  1

  9
$DIMASO
 70
     1
  9
$DIMSHO
 70
     1
  9
$DIMPOST
  1

  9
$DIMAPOST
  1
mm
  9
$DIMALT
 70
     0
  9
$DIMALTD
 70
     2
  9
$DIMALTF
 40
25.399999999999999
  9
$DIMLFAC
 40
1.0
  9
$DIMTOFL
 70
     0
  9
$DIMTVP
 40
0.0
  9
$DIMTIX
 70
     0
  9
$DIMSOXD
 70
     0
  9
$DIMSAH
 70
     0
  9
$DIMBLK1
  1

  9
$DIMBLK2
  1

  9
$DIMSTYLE
  2
AM_ANSI
  9
$DIMCLRD
 70
   256
  9
$DIMCLRE
 70
   256
  9
$DIMCLRT
 70
     2
  9
$DIMTFAC
 40
0.71
  9
$DIMGAP
 40
0.06
  9
$LUNITS
 70
     2
  9
$LUPREC
 70
     4
  9
$SKETCHINC
 40
0.1
  9
$FILLETRAD
 40
0.0
  9
$AUNITS
 70
     0
  9
$AUPREC
 70
     0
  9
$MENU
  1
.
  9
$ELEVATION
 40
0.0
  9
$PELEVATION
 40
0.0
  9
$THICKNESS
 40
0.0
  9
$LIMCHECK
 70
     0
  9
$BLIPMODE
 70
     0
  9
$CHAMFERA
 40
0.0
  9
$CHAMFERB
 40
0.0
  9
$SKPOLY
 70
     0
  9
$TDCREATE
 40
2452300.42514684
  9
$TDUPDATE
 40
2458540.645554537
  9
$TDINDWG
 40
0.0482550231
  9
$TDUSRTIMER
 40
0.048255
  9
$USRTIMER
 70
     1
  9
$ANGBASE
 50
0.0
  9
$ANGDIR
 70
     0
  9
$PDMODE
 70
     0
  9
$PDSIZE
 40
0.0
  9
$PLINEWID
 40
0.0
  9
$COORDS
 70
     1
  9
$SPLFRAME
 70
     0
  9
$SPLINETYPE
 70
     6
  9
$SPLINESEGS
 70
     8
  9
$ATTDIA
 70
     1
  9
$ATTREQ
 70
     1
  9
$HANDLING
 70
     1
  9
$HANDSEED
  5
10A6
  9
$SURFTAB1
 70
     6
  9
$SURFTAB2
 70
     6
  9
$SURFTYPE
 70
     6
  9
$SURFU
 70
     6
  9
$SURFV
 70
     6
  9
$UCSNAME
  2

  9
$UCSORG
 10
0.0
 20
0.0
 30
0.0
  9
$UCSXDIR
 10
1.0
 20
0.0
 30
0.0
  9
$UCSYDIR
 10
0.0
 20
1.0
 30
0.0
  9
$PUCSNAME
  2

  9
$PUCSORG
 10
0.0
 20
0.0
 30
0.0
  9
$PUCSXDIR
 10
1.0
 20
0.0
 30
0.0
  9
$PUCSYDIR
 10
0.0
 20
1.0
 30
0.0
  9
$USERI1
 70
     0
  9
$USERI2
 70
     0
  9
$USERI3
 70
     0
  9
$USERI4
 70
     0
  9
$USERI5
 70
     0
  9
$USERR1
 40
0.0
  9
$USERR2
 40
0.0
  9
$USERR3
 40
0.0
  9
$USERR4
 40
0.0
  9
$USERR5
 40
0.0
  9
$WORLDVIEW
 70
     1
  9
$SHADEDGE
 70
     3
  9
$SHADEDIF
 70
    70
  9
$TILEMODE
 70
     1
  9
$MAXACTVP
 70
    64
  9
$PLIMCHECK
 70
     0
  9
$PEXTMIN
 10
1.0000000000000000E+020
 20
1.0000000000000000E+020
 30
1.0000000000000000E+020
  9
$PEXTMAX
 10
-1.0000000000000000E+020
 20
-1.0000000000000000E+020
 30
-1.0000000000000000E+020
  9
$PLIMMIN
 10
0.0
 20
0.0
  9
$PLIMMAX
 10
12.0
 20
9.0
  9
$UNITMODE
 70
     0
  9
$VISRETAIN
 70
     1
  9
$PLINEGEN
 70
     0
  9
$PSLTSCALE
 70
     1
  0
ENDSEC
  0
SECTION
  2
TABLES
  0
TABLE
  2
VPORT
 70
     1
  0
VPORT
  2
*ACTIVE
 70
     0
 10
0.0
 20
0.0
 11
1.0
 21
1.0
 12
-324.96781775668501
 22
241.2742248269017
 13
0.0
 23
0.0
 14
1.0
 24
1.0
 15
0.0
 25
0.0
 16
0.0
 26
0.0
 36
1.0
 17
0.0
 27
0.0
 37
0.0
 40
394.1501967584353
 41
1.7571592210767459
 42
50.0
 43
0.0
 44
0.0
 50
0.0
 51
0.0
 71
     0
 72
   100
 73
     1
 74
     1
 75
     0
 76
     0
 77
     0
 78
     0
  0
ENDTAB
  0
TABLE
  2
LTYPE
 70
    23
  0
LTYPE
  2
CONTINUOUS
 70
     0
  3
Solid line
 72
    65
 73
     0
 40
0.0
  0
LTYPE
  2
DASHED
 70
     0
  3
__ __ __ __ __ __ __ __ __ __ __ __ __ __ __
 72
    65
 73
     2
 40
3.5
 49
2.0
 49
-1.5
  0
LTYPE
  2
CENTER
 70
     0
  3
____ _ ____ _ ____ _ ____ _ ____ _ ____ _ ____
 72
    65
 73
     4
 40
17.5
 49
13.0
 49
-1.5
 49
1.5
 49
-1.5
  0
LTYPE
  2
PHANTOM
 70
     0
  3
_____ _ _ _____ _ _ _____ _ _ _____ _ _ ____  
 72
    65
 73
     6
 40
15.5
 49
8.0
 49
-1.5
 49
1.5
 49
-1.5
 49
1.5
 49
-1.5
  0
LTYPE
  2
DOT
 70
     0
  3
. . . . . . . . . . . . . . . . . . . . . . . .
 72
    65
 73
     2
 40
0.25
 49
0.0
 49
-0.25
  0
LTYPE
  2
AM_ISO02W050
 70
     0
  3
__ __ __ __ __ __ __ __ __ __ __ __ __ __ __
 72
    65
 73
     2
 40
7.5
 49
6.0
 49
-1.5
  0
LTYPE
  2
AM_ISO08W050
 70
     0
  3
____ . ____ . ____ . ____ . ____ . ____ . ____
 72
    65
 73
     4
 40
18.0
 49
12.0
 49
-1.5
 49
3.0
 49
-1.5
  0
LTYPE
  2
AM_ISO09W050
 70
     0
  3
_____ . . _____ . . _____ . . ____ .. ____
 72
    65
 73
     6
 40
22.5
 49
12.0
 49
-1.5
 49
3.0
 49
-1.5
 49
3.0
 49
-1.5
  0
LTYPE
  2
AMCONSTR
 70
     0
  3
_______________________
 72
    65
 73
     2
 40
9999.0
 49
9999.0
 49
0.0
  0
LTYPE
  2
AM_ISO08W050X2
 70
     0
  3
__ . __ . __ . __ . __ . __
 72
    65
 73
     4
 40
9.0
 49
6.0
 49
-0.75
 49
1.5
 49
-0.75
  0
LTYPE
  2
AM_ISO02W050X2
 70
     0
  3
 _ _ _ _ _ _ _ _ _ _ _ _
 72
    65
 73
     2
 40
3.75
 49
3.0
 49
-0.75
  0
LTYPE
  2
AMZIGZAG
 70
     0
  3
/\/-/\/-/\/-/\/-/\/-/\/
 72
    65
 73
     2
 40
11.000099999999991
 49
0.0001
 49
-11.0
  0
LTYPE
  2
HIDDEN
 70
     0
  3
Hidden __ __ __ __ __ __ __ __ __ __ __ __ __ _
 72
    65
 73
     2
 40
0.375
 49
0.25
 49
-0.125
  0
LTYPE
  2
PHANTOM2
 70
     0
  3
Phantom (.5x) ___ _ _ ___ _ _ ___ _ _ ___ _ _
 72
    65
 73
     6
 40
1.25
 49
0.625
 49
-0.125
 49
0.125
 49
-0.125
 49
0.125
 49
-0.125
  0
LTYPE
  2
CENTER2
 70
     0
  3
Center (.5x) ___ _ ___ _ ___ _ ___ _ ___ _ ___
 72
    65
 73
     4
 40
1.125
 49
0.75
 49
-0.125
 49
0.125
 49
-0.125
  0
LTYPE
  2
HIDDEN2
 70
     0
  3
Hidden (.5x) _ _ _ _ _ _ _ _ _ _ _ _ _ _ _ _ _
 72
    65
 73
     2
 40
0.1875
 49
0.125
 49
-0.0625
  0
LTYPE
  2
AMZIGZAG2
 70
     0
  3
/\/-/\/-/\/-/\/-/\/-/\/
 72
    65
 73
     2
 40
0.4401
 49
0.0001
 49
-0.4400000000000003
  0
LTYPE
  2
ACANSTGB
 70
     0
  3
__ . . __ . .
 72
    65
 73
     6
 40
0.35433070866
 49
0.15748031496
 49
-0.03937007874
 49
0.03937007874
 49
-0.03937007874
 49
0.03937007874
 49
-0.03937007874
  0
LTYPE
  2
ACANSTGL
 70
     0
  3
_ _ _ _ _
 72
    65
 73
     2
 40
0.11811023622
 49
0.07874015748
 49
-0.03937007874
  0
LTYPE
  2
ACISOWELD
 70
     0
  3
_ _ _ _ _
 72
    65
 73
     2
 40
2.0
 49
2.0
 49
-1.0
  0
LTYPE
  2
ACISOTGB
 70
     0
  3
__ . . __ . .
 72
    65
 73
     6
 40
9.0
 49
4.0
 49
-1.0
 49
1.0
 49
-1.0
 49
1.0
 49
-1.0
  0
LTYPE
  2
ACISOTGL
 70
     0
  3
_ _ _ _ _
 72
    65
 73
     2
 40
3.0
 49
2.0
 49
-1.0
  0
ENDTAB
  0
TABLE
  2
LAYER
 70
     2
  0
LAYER
  2
0
 70
     0
 62
     7
  6
CONTINUOUS
  0
LAYER
  2
AM_5
 70
     0
 62
     3
  6
CONTINUOUS
  0
ENDTAB
  0
TABLE
  2
STYLE
 70
     6
  0
STYLE
  2
STANDARD
 70
     0
 40
0.0
 41
1.0
 50
0.0
 71
     0
 42
0.2
  3
txt
  4

  0
STYLE
  2
ANNOTATIVE
 70
     0
 40
0.0
 41
1.0
 50
0.0
 71
     0
 42
0.2
  3
txt
  4

  0
STYLE
  2

 70
     1
 40
0.0
 41
1.0
 50
0.0
 71
     0
 42
0.2
  3
ltypeshp.shx
  4

  0
STYLE
  2
ACANSTS
 70
     0
 40
1.0
 41
1.0
 50
0.0
 71
     0
 42
0.2
  3
romans.shx
  4
extfont.shx
  0
STYLE
  2
ACANSGDT
 70
     0
 40
0.0
 41
1.0
 50
0.0
 71
     0
 42
0.2
  3
amgdt.shx
  4

  0
STYLE
  2
ACISOGDT
 70
     0
 40
0.0
 41
1.0
 50
0.0
 71
     0
 42
2.5
  3
amgdt.shx
  4

  0
ENDTAB
  0
TABLE
  2
VIEW
 70
     0
  0
ENDTAB
  0
TABLE
  2
UCS
 70
     0
  0
ENDTAB
  0
TABLE
  2
APPID
 70
    12
  0
APPID
  2
ACAD
 70
     0
  0
APPID
  2
ACADANNOTATIVE
 70
     0
  0
APPID
  2
MCAD_NO_VIS
 70
     0
  0
APPID
  2
ACAD_TEMP_GRAPHIC
 70
     0
  0
APPID
  2
ACATTRIBSERVICES
 70
     0
  0
APPID
  2
DESIGNERASSEMBLIES
 70
     0
  0
APPID
  2
ACAD_DSTYLE_DIMBREAK
 70
     0
  0
APPID
  2
ACAD_DSTYLE_DIMJAG
 70
     0
  0
APPID
  2
ACAD_NAV_VCDISPLAY
 70
     0
  0
APPID
  2
ACAD_PSEXT
 70
     0
  0
APPID
  2
ACAD_EXEMPT_FROM_CAD_STANDARDS
 70
     0
  0
APPID
  2
ACAD_MLEADERVER
 70
     0
  0
ENDTAB
  0
TABLE
  2
DIMSTYLE
 70
    16
  0
DIMSTYLE
  2
STANDARD
 70
     0
  3

  4

  5

  6

  7

 40
1.0
 41
0.18
 42
0.0625
 43
0.38
 44
0.18
 45
0.0
 46
0.0
 47
0.0
 48
0.0
140
0.18
141
0.09
142
0.0
143
25.399999999999999
144
1.0
145
0.0
146
1.0
147
0.09
 71
     0
 72
     0
 73
     1
 74
     1
 75
     0
 76
     0
 77
     0
 78
     0
170
     0
171
     2
172
     0
173
     0
174
     0
175
     0
176
     0
177
     0
178
     0
  0
DIMSTYLE
  2
ANNOTATIVE
 70
     0
  3

  4

  5

  6

  7

 40
1.0
 41
0.18
 42
0.0625
 43
0.38
 44
0.18
 45
0.0
 46
0.0
 47
0.0
 48
0.0
140
0.18
141
0.09
142
0.0
143
25.399999999999999
144
1.0
145
0.0
146
1.0
147
0.09
 71
     0
 72
     0
 73
     1
 74
     1
 75
     0
 76
     0
 77
     0
 78
     0
170
     0
171
     2
172
     0
173
     0
174
     0
175
     0
176
     0
177
     0
178
     0
  0
DIMSTYLE
  2
AM_ANSI
 70
     0
  3

  4
mm
  5

  6

  7

 40
1.0
 41
0.1
 42
0.05
 43
0.5
 44
0.1
 45
0.0
 46
0.0
 47
0.1
 48
0.1
140
0.12
141
0.0
142
0.0
143
25.399999999999999
144
1.0
145
0.0
146
0.71
147
0.06
 71
     0
 72
     0
 73
     1
 74
     1
 75
     0
 76
     0
 77
     0
 78
     7
170
     0
171
     2
172
     0
173
     0
174
     0
175
     0
176
   256
177
   256
178
     2
  0
DIMSTYLE
  2
AM_ANSI$3
 70
     0
  3

  4
mm
  5

  6

  7

 40
1.0
 41
0.1
 42
0.05
 43
0.5
 44
0.1
 45
0.0
 46
0.0
 47
0.1
 48
0.1
140
0.12
141
0.0
142
0.0
143
25.399999999999999
144
1.0
145
0.0
146
0.71
147
0.06
 71
     0
 72
     0
 73
     1
 74
     1
 75
     0
 76
     0
 77
     0
 78
     7
170
     0
171
     2
172
     0
173
     0
174
     0
175
     0
176
   256
177
   256
178
     2
  0
DIMSTYLE
  2
AM_ANSI$4
 70
     0
  3

  4
mm
  5

  6

  7

 40
1.0
 41
0.1
 42
0.05
 43
0.5
 44
0.1
 45
0.0
 46
0.0
 47
0.1
 48
0.1
140
0.12
141
0.0
142
0.0
143
25.399999999999999
144
1.0
145
0.0
146
0.71
147
0.06
 71
     0
 72
     0
 73
     1
 74
     1
 75
     0
 76
     0
 77
     0
 78
     7
170
     0
171
     2
172
     0
173
     0
174
     0
175
     0
176
   256
177
   256
178
     2
  0
DIMSTYLE
  2
AM_ANSI$7
 70
     0
  3

  4
mm
  5

  6

  7

 40
1.0
 41
0.1
 42
0.05
 43
0.5
 44
0.1
 45
0.0
 46
0.0
 47
0.1
 48
0.1
140
0.24
141
0.0
142
0.0
143
25.399999999999999
144
1.0
145
0.0
146
0.71
147
0.06
 71
     0
 72
     0
 73
     1
 74
     1
 75
     0
 76
     0
 77
     0
 78
     7
170
     0
171
     2
172
     0
173
     0
174
     0
175
     0
176
   256
177
   256
178
     2
  0
DIMSTYLE
  2
AM_ANSI$SF
 70
     0
  3

  4
mm
  5

  6

  7

 40
1.0
 41
0.1
 42
0.05
 43
0.5
 44
0.1
 45
0.0
 46
0.0
 47
0.1
 48
0.1
140
0.12
141
0.0
142
0.0
143
25.399999999999999
144
1.0
145
0.0
146
0.71
147
0.06
 71
     0
 72
     0
 73
     1
 74
     1
 75
     1
 76
     1
 77
     0
 78
     7
170
     0
171
     2
172
     0
173
     0
174
     0
175
     0
176
   256
177
   256
178
     2
  0
DIMSTYLE
  2
AM_ANSI$SH
 70
     0
  3

  4
mm
  5

  6

  7

 40
1.0
 41
0.1
 42
0.05
 43
0.5
 44
0.1
 45
0.0
 46
0.0
 47
0.1
 48
0.1
140
0.12
141
0.0
142
0.0
143
25.399999999999999
144
1.0
145
0.0
146
0.71
147
0.06
 71
     0
 72
     0
 73
     1
 74
     1
 75
     1
 76
     1
 77
     0
 78
     7
170
     0
171
     2
172
     0
173
     1
174
     0
175
     0
176
   256
177
   256
178
     2
  0
DIMSTYLE
  2
AM_ISO
 70
     0
  3

  4
"
  5

  6

  7

 40
1.0
 41
2.5
 42
1.0
 43
10.0
 44
1.0
 45
0.0
 46
0.0
 47
0.1
 48
0.1
140
3.5
141
0.0
142
0.0
143
0.0393701
144
1.0
145
0.0
146
0.71
147
1.5
 71
     0
 72
     0
 73
     0
 74
     0
 75
     0
 76
     0
 77
     1
 78
     8
170
     0
171
     2
172
     1
173
     0
174
     0
175
     0
176
   256
177
   256
178
     2
  0
DIMSTYLE
  2
AM_ISO$3
 70
     0
  3

  4
"
  5

  6

  7

 40
1.0
 41
2.5
 42
1.0
 43
10.0
 44
1.0
 45
0.0
 46
0.0
 47
0.1
 48
0.1
140
3.5
141
0.0
142
0.0
143
0.0393701
144
1.0
145
0.0
146
0.71
147
1.5
 71
     0
 72
     0
 73
     0
 74
     1
 75
     0
 76
     0
 77
     1
 78
     8
170
     0
171
     2
172
     0
173
     0
174
     0
175
     0
176
   256
177
   256
178
     2
  0
DIMSTYLE
  2
AM_ISO$4
 70
     0
  3

  4
"
  5

  6

  7

 40
1.0
 41
2.5
 42
1.0
 43
10.0
 44
1.0
 45
0.0
 46
0.0
 47
0.1
 48
0.1
140
3.5
141
0.0
142
0.0
143
0.0393701
144
1.0
145
0.0
146
0.71
147
1.5
 71
     0
 72
     0
 73
     0
 74
     1
 75
     0
 76
     0
 77
     1
 78
     8
170
     0
171
     2
172
     0
173
     0
174
     0
175
     0
176
   256
177
   256
178
     2
  0
DIMSTYLE
  2
AM_ISO$6
 70
     0
  3

  4
"
  5

  6

  7

 40
1.0
 41
2.5
 42
1.0
 43
10.0
 44
1.0
 45
0.0
 46
0.0
 47
0.1
 48
0.1
140
3.5
141
0.0
142
0.0
143
0.0393701
144
1.0
145
0.0
146
0.71
147
1.5
 71
     0
 72
     0
 73
     0
 74
     0
 75
     0
 76
     0
 77
     0
 78
     8
170
     0
171
     2
172
     1
173
     0
174
     0
175
     0
176
   256
177
   256
178
     2
  0
DIMSTYLE
  2
AM_ISO$7
 70
     0
  3

  4
"
  5

  6

  7

 40
1.0
 41
2.5
 42
1.0
 43
10.0
 44
1.0
 45
0.0
 46
0.0
 47
0.1
 48
0.1
140
5.0
141
0.0
142
0.0
143
0.0393701
144
1.0
145
0.0
146
0.71
147
1.5
 71
     0
 72
     0
 73
     0
 74
     0
 75
     0
 76
     0
 77
     1
 78
     8
170
     0
171
     2
172
     1
173
     0
174
     0
175
     0
176
   256
177
   256
178
     2
  0
DIMSTYLE
  2
AM_ISO$SF
 70
     0
  3

  4
"
  5

  6

  7

 40
1.0
 41
2.5
 42
1.0
 43
10.0
 44
1.0
 45
0.0
 46
0.0
 47
0.1
 48
0.1
140
3.5
141
0.0
142
0.0
143
0.0393701
144
1.0
145
0.0
146
0.71
147
1.5
 71
     0
 72
     0
 73
     0
 74
     0
 75
     1
 76
     1
 77
     1
 78
     8
170
     0
171
     2
172
     1
173
     0
174
     0
175
     0
176
   256
177
   256
178
     2
  0
DIMSTYLE
  2
AM_ISO$SH
 70
     0
  3

  4
"
  5

  6
GENAXEH
  7

 40
1.0
 41
2.5
 42
1.0
 43
10.0
 44
1.0
 45
0.0
 46
0.0
 47
0.1
 48
0.1
140
3.5
141
0.0
142
0.0
143
0.0393701
144
2.0
145
0.0
146
0.71
147
1.5
 71
     0
 72
     0
 73
     0
 74
     0
 75
     1
 76
     1
 77
     1
 78
     8
170
     0
171
     2
172
     1
173
     1
174
     0
175
     0
176
   256
177
   256
178
     2
  0
DIMSTYLE
  2
AM_JIS
 70
     0
  3

  4
"
  5

  6

  7

 40
1.0
 41
2.0
 42
1.0
 43
8.0
 44
1.0
 45
0.0
 46
0.0
 47
0.1
 48
0.1
140
2.5
141
0.0
142
0.0
143
0.0393701
144
1.0
145
0.0
146
0.71
147
1.5
 71
     0
 72
     0
 73
     0
 74
     0
 75
     0
 76
     0
 77
     3
 78
     8
170
     0
171
     2
172
     1
173
     0
174
     0
175
     0
176
     2
177
     2
178
     4
  0
ENDTAB
  0
ENDSEC
  0
SECTION
  2
BLOCKS
  0
BLOCK
  8
0
  2
$MODEL_SPACE
 70
     0
 10
0.0
 20
0.0
 30
0.0
  3
$MODEL_SPACE
  1

  0
ENDBLK
  5
F49
  8
0
  0
BLOCK
 67
     1
  8
0
  2
$PAPER_SPACE
 70
     0
 10
0.0
 20
0.0
 30
0.0
  3
$PAPER_SPACE
  1

  0
ENDBLK
  5
F45
 67
     1
  8
0
  0
BLOCK
  8
0
  2
GENAXEH
 70
     0
 10
0.0
 20
0.0
 30
0.0
  3
GENAXEH
  1

  0
LINE
  5
9FF
  8
0
 10
-1.0
 20
0.0
 30
0.0
 11
1.0
 21
0.0
 31
0.0
  0
ENDBLK
  5
A00
  8
0
  0
BLOCK
  8
0
  2
_ACMFILLEDHALF
 70
     0
 10
0.0
 20
0.0
 30
0.0
  3
_ACMFILLEDHALF
  1

  0
TRACE
  5
FC3
  8
0
  6
CONTINUOUS
 62
     0
 10
-0.8
 20
0.0
 30
0.0
 11
-1.0
 21
0.166666666
 31
0.0
 12
0.0
 22
0.0
 32
0.0
 13
0.0
 23
0.0
 33
0.0
  0
LINE
  5
FC4
  8
0
  6
CONTINUOUS
 62
     0
 10
-1.0
 20
0.0
 30
0.0
 11
-0.8
 21
0.0
 31
0.0
  0
ENDBLK
  5
FC2
  8
0
  0
BLOCK
  8
0
  2
*U7
 70
     1
 10
0.0
 20
0.0
 30
0.0
  3
*U7
  1

  0
TEXT
  5
10A2
  8
0
  6
CONTINUOUS
 62
     0
 10
5.0768189741019834
 20
5.9826223594979657
 30
0.0
 40
15.0
  1
ＶＸ０８－００３ＥＭ～ＶＸ０８
  0
TEXT
  5
10A3
  8
0
  6
CONTINUOUS
 62
     0
 10
2.17909170137471
 20
-19.18783218595658
 30
0.0
 40
15.0
  1
－０３０ＥＭ
  0
ENDBLK
  5
10A5
  8
0
  0
ENDSEC
  0
SECTION
  2
ENTITIES
  0
LINE
  5
A01
  8
0
  6
CENTER
 62
     1
 10
-145.2809399999999
 20
45.565666
 30
0.0
 11
-145.2809399999999
 21
208.28599999999969
 31
0.0
  0
LINE
  5
A02
  8
0
  6
CENTER
 62
     1
 10
-65.933768999999984
 20
130.34795999999969
 30
0.0
 11
-223.18961999999991
 21
130.34795999999969
 31
0.0
  0
LINE
  5
A03
  8
0
  6
CENTER
 62
     7
 10
-582.41057999999987
 20
361.99090999999999
 30
0.0
 11
-327.46334999999999
 21
361.99090999999999
 31
0.0
  0
LINE
  5
A04
  8
0
  6
CONTINUOUS
 62
     7
 10
-446.82715000000002
 20
305.49090999999981
 30
0.0
 11
-446.82715000000002
 21
418.49093999999991
 31
0.0
  0
LINE
  5
A05
  8
0
  6
CONTINUOUS
 62
     3
 10
-555.10004000000004
 20
296.49090999999981
 30
0.0
 11
-475.10015999999962
 21
296.49090999999981
 31
0.0
  0
LINE
  5
A06
  8
0
  6
CONTINUOUS
 62
     3
 10
-475.10015999999962
 20
296.49090999999981
 30
0.0
 11
-475.10015999999962
 21
289.49090999999981
 31
0.0
  0
LINE
  5
A07
  8
0
  6
CONTINUOUS
 62
     3
 10
-476.60016000000002
 20
272.99090999999981
 30
0.0
 11
-476.60016000000002
 21
289.49090999999981
 31
0.0
  0
LINE
  5
A08
  8
0
  6
CONTINUOUS
 62
     3
 10
-534.60015999999996
 20
285.49090999999999
 30
0.0
 11
-534.60015999999996
 21
292.99090999999981
 31
0.0
  0
LINE
  5
A09
  8
0
  6
CONTINUOUS
 62
     3
 10
-549.60004000000004
 20
292.99090999999981
 30
0.0
 11
-549.60004000000004
 21
285.49090999999999
 31
0.0
  0
LINE
  5
A0A
  8
0
  6
CONTINUOUS
 62
     3
 10
-553.60004000000004
 20
292.99090999999981
 30
0.0
 11
-553.60004000000004
 21
272.99090999999981
 31
0.0
  0
LINE
  5
A0B
  8
0
  6
CONTINUOUS
 62
     3
 10
-524.40015000000005
 20
269.99090999999981
 30
0.0
 11
-488.80016999999998
 21
269.99090999999981
 31
0.0
  0
LINE
  5
A0C
  8
0
  6
CONTINUOUS
 62
     3
 10
-553.60004000000004
 20
272.99090999999981
 30
0.0
 11
-476.60016000000002
 21
272.99090999999981
 31
0.0
  0
LINE
  5
A0D
  8
0
  6
CONTINUOUS
 62
     3
 10
-553.60004000000004
 20
289.49090999999981
 30
0.0
 11
-549.60004000000004
 21
289.49090999999981
 31
0.0
  0
LINE
  5
A0E
  8
0
  6
CONTINUOUS
 62
     3
 10
-483.6001
 20
272.99088
 30
0.0
 11
-488.80010999999962
 21
269.99088
 31
0.0
  0
LINE
  5
A0F
  8
0
  6
CONTINUOUS
 62
     3
 10
-524.40015000000005
 20
269.99093999999991
 30
0.0
 11
-529.6001
 21
272.99093999999991
 31
0.0
  0
LINE
  5
A10
  8
0
  6
CONTINUOUS
 62
     3
 10
-557.10004000000004
 20
292.99090999999981
 30
0.0
 11
-557.10004000000004
 21
277.99187999999992
 31
0.0
  0
LINE
  5
A11
  8
0
  6
CONTINUOUS
 62
     3
 10
-553.60004000000004
 20
277.99187999999992
 30
0.0
 11
-557.10004000000004
 21
277.99187999999992
 31
0.0
  0
LINE
  5
A12
  8
0
  6
CONTINUOUS
 62
     3
 10
-538.10015999999985
 20
292.99090999999981
 30
0.0
 11
-538.10015999999985
 21
285.49090999999999
 31
0.0
  0
LINE
  5
A13
  8
0
  6
CONTINUOUS
 62
     3
 10
-546.10004000000004
 20
292.99090999999981
 30
0.0
 11
-546.10004000000004
 21
285.49090999999999
 31
0.0
  0
LINE
  5
A14
  8
0
  6
CONTINUOUS
 62
     3
 10
-534.60015999999996
 20
289.49090999999981
 30
0.0
 11
-475.10015999999962
 21
289.49090999999981
 31
0.0
  0
LINE
  5
A15
  8
0
  6
CONTINUOUS
 62
     3
 10
-557.10004000000004
 20
292.99090999999981
 30
0.0
 11
-475.10015999999962
 21
292.99090999999981
 31
0.0
  0
LINE
  5
A16
  8
0
  6
CONTINUOUS
 62
     3
 10
-555.10004000000004
 20
296.49090999999981
 30
0.0
 11
-555.10004000000004
 21
292.99090999999981
 31
0.0
  0
LINE
  5
A17
  8
0
  6
CONTINUOUS
 62
     7
 10
-476.32715000000002
 20
297.49090999999981
 30
0.0
 11
-476.32715000000002
 21
296.49090999999981
 31
0.0
  0
LINE
  5
A18
  8
0
  6
CONTINUOUS
 62
     7
 10
-535.32714999999985
 20
297.49090999999981
 30
0.0
 11
-535.32714999999985
 21
296.49090999999981
 31
0.0
  0
LINE
  5
A19
  8
0
  6
CONTINUOUS
 62
     7
 10
-456.62139999999999
 20
406.91982999999999
 30
0.0
 11
-460.76715000000002
 21
422.4009699999998
 31
0.0
  0
LINE
  5
A1A
  8
0
  6
CONTINUOUS
 62
     7
 10
-456.62142999999992
 20
406.00982999999991
 30
0.0
 11
-460.76715000000002
 21
421.49096999999989
 31
0.0
  0
LINE
  5
A1B
  8
0
  6
CONTINUOUS
 62
     7
 10
-456.62142999999992
 20
404.15985000000001
 30
0.0
 11
-460.76715000000002
 21
419.64102000000003
 31
0.0
  0
LINE
  5
A1C
  8
0
  6
CONTINUOUS
 62
     7
 10
-454.82715000000002
 20
417.99090999999987
 30
0.0
 11
-454.82715000000002
 21
305.99090999999999
 31
0.0
  0
LINE
  5
A1D
  8
0
  6
CONTINUOUS
 62
     7
 10
-576.82714999999985
 20
410.0109299999998
 30
0.0
 11
-576.82714999999985
 21
366.99090999999987
 31
0.0
  0
LINE
  5
A1E
  8
0
  6
CONTINUOUS
 62
     7
 10
-574.55713000000003
 20
411.74090999999987
 30
0.0
 11
-572.32714999999996
 21
411.74090999999987
 31
0.0
  0
LINE
  5
A1F
  8
0
  6
CONTINUOUS
 62
     7
 10
-574.62714000000017
 20
397.68085000000002
 30
0.0
 11
-572.52715999999998
 21
397.68085000000002
 31
0.0
  0
LINE
  5
A20
  8
0
  6
CONTINUOUS
 62
     7
 10
-575.05706999999995
 20
411.61086999999981
 30
0.0
 11
-576.32709
 21
410.87088
 31
0.0
  0
LINE
  5
A21
  8
0
  6
CONTINUOUS
 62
     7
 10
-575.06719999999984
 20
409.49099999999987
 30
0.0
 11
-576.34717000000001
 21
408.72098
 31
0.0
  0
LINE
  5
A22
  8
0
  6
CONTINUOUS
 62
     7
 10
-575.07720999999981
 20
404.95096000000001
 30
0.0
 11
-576.37720000000002
 21
404.10095000000001
 31
0.0
  0
LINE
  5
A23
  8
0
  6
CONTINUOUS
 62
     7
 10
-575.01715000000002
 20
397.60091999999997
 30
0.0
 11
-576.21709999999985
 21
397.09091000000001
 31
0.0
  0
LINE
  5
A24
  8
0
  6
CONTINUOUS
 62
     7
 10
-574.54711999999995
 20
409.63092
 30
0.0
 11
-571.82714999999985
 21
409.63092
 31
0.0
  0
LINE
  5
A25
  8
0
  6
CONTINUOUS
 62
     7
 10
-574.52710000000002
 20
405.12090999999992
 30
0.0
 11
-571.82714999999985
 21
405.12090999999992
 31
0.0
  0
LINE
  5
A26
  8
0
  6
CONTINUOUS
 62
     7
 10
-574.67711999999995
 20
395.73090000000002
 30
0.0
 11
-572.82714999999985
 21
395.73090000000002
 31
0.0
  0
LINE
  5
A27
  8
0
  6
CONTINUOUS
 62
     7
 10
-574.55713000000003
 20
403.98089999999991
 30
0.0
 11
-572.82714999999985
 21
403.98089999999991
 31
0.0
  0
LINE
  5
A28
  8
0
  6
CONTINUOUS
 62
     7
 10
-574.57714999999996
 20
408.49090999999987
 30
0.0
 11
-572.82714999999985
 21
408.49090999999987
 31
0.0
  0
LINE
  5
A29
  8
0
  6
CONTINUOUS
 62
     7
 10
-574.58715999999981
 20
410.59087999999991
 30
0.0
 11
-572.32714999999996
 21
410.59087999999991
 31
0.0
  0
LINE
  5
A2A
  8
0
  6
CONTINUOUS
 62
     7
 10
-575.05718999999965
 20
403.84093999999988
 30
0.0
 11
-576.33715999999981
 21
403.09097000000003
 31
0.0
  0
LINE
  5
A2B
  8
0
  6
CONTINUOUS
 62
     7
 10
-574.96715999999981
 20
395.69094999999999
 30
0.0
 11
-576.11719000000005
 21
395.34093999999988
 31
0.0
  0
LINE
  5
A2C
  8
0
  6
CONTINUOUS
 62
     7
 10
-575.03716999999995
 20
410.49093999999991
 30
0.0
 11
-576.27715999999975
 21
409.86092999999988
 31
0.0
  0
LINE
  5
A2D
  8
0
  6
CONTINUOUS
 62
     7
 10
-575.04705999999976
 20
408.38088999999991
 30
0.0
 11
-576.29711999999995
 21
407.71087999999992
 31
0.0
  0
LINE
  5
A2E
  8
0
  6
CONTINUOUS
 62
     7
 10
-572.82714999999985
 20
387.99090999999987
 30
0.0
 11
-575.82714999999985
 21
387.99090999999987
 31
0.0
  0
LINE
  5
A2F
  8
0
  6
CONTINUOUS
 62
     7
 10
-572.82714999999985
 20
385.99090999999987
 30
0.0
 11
-575.82714999999985
 21
385.99090999999987
 31
0.0
  0
LINE
  5
A30
  8
0
  6
CONTINUOUS
 62
     7
 10
-572.82714999999985
 20
377.99090999999987
 30
0.0
 11
-575.82714999999985
 21
377.99090999999987
 31
0.0
  0
LINE
  5
A31
  8
0
  6
CONTINUOUS
 62
     7
 10
-572.82714999999985
 20
375.99090999999987
 30
0.0
 11
-575.82714999999985
 21
375.99090999999987
 31
0.0
  0
LINE
  5
A32
  8
0
  6
CONTINUOUS
 62
     7
 10
-572.82714999999985
 20
367.99090999999987
 30
0.0
 11
-575.82714999999985
 21
367.99090999999987
 31
0.0
  0
LINE
  5
A33
  8
0
  6
CONTINUOUS
 62
     7
 10
-572.82714999999985
 20
365.99090999999999
 30
0.0
 11
-575.82714999999985
 21
365.99090999999999
 31
0.0
  0
LINE
  5
A34
  8
0
  6
CONTINUOUS
 62
     7
 10
-574.82714999999985
 20
377.60088999999988
 30
0.0
 11
-574.82714999999985
 21
376.39092999999991
 31
0.0
  0
LINE
  5
A35
  8
0
  6
CONTINUOUS
 62
     7
 10
-574.82714999999985
 20
367.60088999999988
 30
0.0
 11
-574.82714999999985
 21
366.44085999999987
 31
0.0
  0
LINE
  5
A36
  8
0
  6
CONTINUOUS
 62
     7
 10
-574.82714999999985
 20
387.62090999999998
 30
0.0
 11
-574.82714999999985
 21
386.25092000000001
 31
0.0
  0
LINE
  5
A37
  8
0
  6
CONTINUOUS
 62
     7
 10
-574.82714999999985
 20
397.38092
 30
0.0
 11
-574.82714999999985
 21
396.32085999999993
 31
0.0
  0
LINE
  5
A38
  8
0
  6
CONTINUOUS
 62
     7
 10
-574.82714999999985
 20
404.82085999999993
 30
0.0
 11
-574.82714999999985
 21
404.35088999999988
 31
0.0
  0
LINE
  5
A39
  8
0
  6
CONTINUOUS
 62
     7
 10
-574.82714999999985
 20
409.39092999999991
 30
0.0
 11
-574.82714999999985
 21
408.8408799999998
 31
0.0
  0
LINE
  5
A3A
  8
0
  6
CONTINUOUS
 62
     7
 10
-574.82714999999985
 20
411.49090999999999
 30
0.0
 11
-574.82714999999985
 21
410.96087999999997
 31
0.0
  0
LINE
  5
A3B
  8
0
  6
CONTINUOUS
 62
     7
 10
-578.32714999999985
 20
381.99090999999987
 30
0.0
 11
-578.32714999999985
 21
361.99090999999999
 31
0.0
  0
LINE
  5
A3C
  8
0
  6
CONTINUOUS
 62
     7
 10
-578.32708999999966
 20
381.99088
 30
0.0
 11
-576.82709
 21
382.12087999999989
 31
0.0
  0
LINE
  5
A3D
  8
0
  6
CONTINUOUS
 62
     7
 10
-578.32714999999985
 20
377.14092999999991
 30
0.0
 11
-576.82714999999985
 21
377.14092999999991
 31
0.0
  0
LINE
  5
A3E
  8
0
  6
CONTINUOUS
 62
     7
 10
-578.32714999999985
 20
379.27094
 30
0.0
 11
-576.82714999999985
 21
379.27094
 31
0.0
  0
LINE
  5
A3F
  8
0
  6
CONTINUOUS
 62
     7
 10
-461.48712
 20
397.99090999999999
 30
0.0
 11
-560.46715999999992
 21
397.99090999999999
 31
0.0
  0
LINE
  5
A40
  8
0
  6
CONTINUOUS
 62
     7
 10
-461.48712
 20
395.99090999999987
 30
0.0
 11
-560.46715999999992
 21
395.99090999999987
 31
0.0
  0
LINE
  5
A41
  8
0
  6
CONTINUOUS
 62
     7
 10
-493.82714999999979
 20
387.99090999999987
 30
0.0
 11
-560.46715999999992
 21
387.99090999999987
 31
0.0
  0
LINE
  5
A42
  8
0
  6
CONTINUOUS
 62
     7
 10
-461.49431999999979
 20
385.99090999999987
 30
0.0
 11
-560.46715999999992
 21
385.99090999999987
 31
0.0
  0
LINE
  5
A43
  8
0
  6
CONTINUOUS
 62
     7
 10
-526.38842999999986
 20
377.99090999999987
 30
0.0
 11
-560.46715999999992
 21
377.99090999999987
 31
0.0
  0
LINE
  5
A44
  8
0
  6
CONTINUOUS
 62
     7
 10
-526.38842999999986
 20
375.99090999999987
 30
0.0
 11
-560.46715999999992
 21
375.99090999999987
 31
0.0
  0
LINE
  5
A45
  8
0
  6
CONTINUOUS
 62
     7
 10
-526.38842999999986
 20
367.99090999999987
 30
0.0
 11
-560.46715999999992
 21
367.99090999999987
 31
0.0
  0
LINE
  5
A46
  8
0
  6
CONTINUOUS
 62
     7
 10
-526.38842999999986
 20
365.99090999999999
 30
0.0
 11
-560.46715999999992
 21
365.99090999999999
 31
0.0
  0
LINE
  5
A47
  8
0
  6
CONTINUOUS
 62
     7
 10
-561.14715999999976
 20
398.71087999999992
 30
0.0
 11
-458.00713999999999
 21
398.71087999999992
 31
0.0
  0
LINE
  5
A48
  8
0
  6
CONTINUOUS
 62
     7
 10
-561.14715999999976
 20
395.36090000000002
 30
0.0
 11
-493.8071299999998
 21
395.36090000000002
 31
0.0
  0
LINE
  5
A49
  8
0
  6
CONTINUOUS
 62
     7
 10
-561.36712999999997
 20
388.48090000000002
 30
0.0
 11
-493.82714999999979
 21
388.48090000000002
 31
0.0
  0
LINE
  5
A4A
  8
0
  6
CONTINUOUS
 62
     7
 10
-561.36712999999997
 20
385.55095999999992
 30
0.0
 11
-457.79290999999989
 21
385.55095999999992
 31
0.0
  0
LINE
  5
A4B
  8
0
  6
CONTINUOUS
 62
     7
 10
-561.49712999999986
 20
378.33087
 30
0.0
 11
-525.16845999999987
 21
378.33087
 31
0.0
  0
LINE
  5
A4C
  8
0
  6
CONTINUOUS
 62
     7
 10
-561.49712999999986
 20
375.67095999999992
 30
0.0
 11
-525.16845999999987
 21
375.67095999999992
 31
0.0
  0
LINE
  5
A4D
  8
0
  6
CONTINUOUS
 62
     7
 10
-561.55713000000003
 20
368.26092999999992
 30
0.0
 11
-525.10845999999992
 21
368.26092999999992
 31
0.0
  0
LINE
  5
A4E
  8
0
  6
CONTINUOUS
 62
     7
 10
-561.55713000000003
 20
365.73090000000002
 30
0.0
 11
-525.10845999999992
 21
365.73090000000002
 31
0.0
  0
LINE
  5
A4F
  8
0
  6
CONTINUOUS
 62
     7
 10
-561.55713000000003
 20
358.26092999999992
 30
0.0
 11
-525.10845999999992
 21
358.26092999999992
 31
0.0
  0
LINE
  5
A50
  8
0
  6
CONTINUOUS
 62
     7
 10
-526.38842999999986
 20
357.99090999999999
 30
0.0
 11
-560.46715999999992
 21
357.99090999999999
 31
0.0
  0
LINE
  5
A51
  8
0
  6
CONTINUOUS
 62
     7
 10
-526.38842999999986
 20
355.99090999999999
 30
0.0
 11
-560.46715999999992
 21
355.99090999999999
 31
0.0
  0
LINE
  5
A52
  8
0
  6
CONTINUOUS
 62
     7
 10
-561.55713000000003
 20
355.72089
 30
0.0
 11
-525.10845999999992
 21
355.72089
 31
0.0
  0
LINE
  5
A53
  8
0
  6
CONTINUOUS
 62
     7
 10
-561.49712999999986
 20
348.31085000000002
 30
0.0
 11
-525.16845999999987
 21
348.31085000000002
 31
0.0
  0
LINE
  5
A54
  8
0
  6
CONTINUOUS
 62
     7
 10
-526.38842999999986
 20
347.99090999999987
 30
0.0
 11
-560.46715999999992
 21
347.99090999999987
 31
0.0
  0
LINE
  5
A55
  8
0
  6
CONTINUOUS
 62
     7
 10
-526.38842999999986
 20
345.99090999999987
 30
0.0
 11
-560.46715999999992
 21
345.99090999999987
 31
0.0
  0
LINE
  5
A56
  8
0
  6
CONTINUOUS
 62
     7
 10
-561.49712999999986
 20
345.65093999999982
 30
0.0
 11
-525.15588000000002
 21
345.65093999999982
 31
0.0
  0
LINE
  5
A57
  8
0
  6
CONTINUOUS
 62
     7
 10
-461.49431999999979
 20
337.99090999999987
 30
0.0
 11
-560.46715999999992
 21
337.99090999999987
 31
0.0
  0
LINE
  5
A58
  8
0
  6
CONTINUOUS
 62
     7
 10
-561.36712999999997
 20
338.43085000000002
 30
0.0
 11
-457.79290999999989
 21
338.43085000000002
 31
0.0
  0
LINE
  5
A59
  8
0
  6
CONTINUOUS
 62
     7
 10
-493.82714999999979
 20
335.99090999999981
 30
0.0
 11
-560.46715999999992
 21
335.99090999999981
 31
0.0
  0
LINE
  5
A5A
  8
0
  6
CONTINUOUS
 62
     7
 10
-561.36712999999997
 20
335.50092000000001
 30
0.0
 11
-493.82714999999979
 21
335.50092000000001
 31
0.0
  0
LINE
  5
A5B
  8
0
  6
CONTINUOUS
 62
     7
 10
-461.48712
 20
327.99090999999981
 30
0.0
 11
-505.82715000000002
 21
327.99090999999981
 31
0.0
  0
LINE
  5
A5C
  8
0
  6
CONTINUOUS
 62
     7
 10
-461.48712
 20
325.99090999999981
 30
0.0
 11
-505.82715000000002
 21
325.99090999999981
 31
0.0
  0
LINE
  5
A5D
  8
0
  6
CONTINUOUS
 62
     7
 10
-561.14715999999976
 20
325.27094
 30
0.0
 11
-505.82715000000002
 21
325.27094
 31
0.0
  0
LINE
  5
A5E
  8
0
  6
CONTINUOUS
 62
     7
 10
-458.00713999999999
 20
328.62090999999992
 30
0.0
 11
-475.84710999999999
 21
328.62090999999992
 31
0.0
  0
LINE
  5
A5F
  8
0
  6
CONTINUOUS
 62
     7
 10
-574.62714000000017
 20
326.30095999999992
 30
0.0
 11
-572.52715999999998
 21
326.30095999999992
 31
0.0
  0
LINE
  5
A60
  8
0
  6
CONTINUOUS
 62
     7
 10
-575.01709000000005
 20
326.38094999999993
 30
0.0
 11
-576.21709999999985
 21
326.90096999999992
 31
0.0
  0
LINE
  5
A61
  8
0
  6
CONTINUOUS
 62
     7
 10
-574.67711999999995
 20
328.25092000000001
 30
0.0
 11
-572.82714999999985
 21
328.25092000000001
 31
0.0
  0
LINE
  5
A62
  8
0
  6
CONTINUOUS
 62
     7
 10
-574.96715999999981
 20
328.29092000000009
 30
0.0
 11
-576.11712999999986
 21
328.6509099999999
 31
0.0
  0
LINE
  5
A63
  8
0
  6
CONTINUOUS
 62
     7
 10
-572.82714999999985
 20
335.99090999999981
 30
0.0
 11
-575.82714999999985
 21
335.99090999999981
 31
0.0
  0
LINE
  5
A64
  8
0
  6
CONTINUOUS
 62
     7
 10
-572.82714999999985
 20
337.99090999999987
 30
0.0
 11
-575.82714999999985
 21
337.99090999999987
 31
0.0
  0
LINE
  5
A65
  8
0
  6
CONTINUOUS
 62
     7
 10
-572.82714999999985
 20
345.99090999999987
 30
0.0
 11
-575.82714999999985
 21
345.99090999999987
 31
0.0
  0
LINE
  5
A66
  8
0
  6
CONTINUOUS
 62
     7
 10
-572.82714999999985
 20
347.99090999999987
 30
0.0
 11
-575.82714999999985
 21
347.99090999999987
 31
0.0
  0
LINE
  5
A67
  8
0
  6
CONTINUOUS
 62
     7
 10
-572.82714999999985
 20
355.99090999999999
 30
0.0
 11
-575.82714999999985
 21
355.99090999999999
 31
0.0
  0
LINE
  5
A68
  8
0
  6
CONTINUOUS
 62
     7
 10
-572.82714999999985
 20
357.99090999999999
 30
0.0
 11
-575.82714999999985
 21
357.99090999999999
 31
0.0
  0
LINE
  5
A69
  8
0
  6
CONTINUOUS
 62
     7
 10
-574.82714999999985
 20
346.38092
 30
0.0
 11
-574.82714999999985
 21
347.60088999999999
 31
0.0
  0
LINE
  5
A6A
  8
0
  6
CONTINUOUS
 62
     7
 10
-574.82714999999985
 20
356.38092
 30
0.0
 11
-574.82714999999985
 21
357.54095000000001
 31
0.0
  0
LINE
  5
A6B
  8
0
  6
CONTINUOUS
 62
     7
 10
-574.82714999999985
 20
336.36090000000002
 30
0.0
 11
-574.82714999999985
 21
337.73090000000002
 31
0.0
  0
LINE
  5
A6C
  8
0
  6
CONTINUOUS
 62
     7
 10
-574.82714999999985
 20
326.60088999999999
 30
0.0
 11
-574.82714999999985
 21
327.66095000000001
 31
0.0
  0
LINE
  5
A6D
  8
0
  6
CONTINUOUS
 62
     7
 10
-578.32714999999985
 20
341.99090999999981
 30
0.0
 11
-578.32714999999985
 21
361.99090999999999
 31
0.0
  0
LINE
  5
A6E
  8
0
  6
CONTINUOUS
 62
     7
 10
-578.3272099999997
 20
341.99083999999999
 30
0.0
 11
-576.82720999999981
 21
341.86086999999998
 31
0.0
  0
LINE
  5
A6F
  8
0
  6
CONTINUOUS
 62
     7
 10
-578.32714999999985
 20
346.84087999999991
 30
0.0
 11
-576.82714999999985
 21
346.84087999999991
 31
0.0
  0
LINE
  5
A70
  8
0
  6
CONTINUOUS
 62
     7
 10
-578.32714999999985
 20
344.71087999999992
 30
0.0
 11
-576.82714999999985
 21
344.71087999999992
 31
0.0
  0
LINE
  5
A71
  8
0
  6
CONTINUOUS
 62
     7
 10
-561.14715999999976
 20
328.62090999999992
 30
0.0
 11
-493.8071299999998
 21
328.62090999999992
 31
0.0
  0
LINE
  5
A72
  8
0
  6
CONTINUOUS
 62
     7
 10
-505.82715000000002
 20
327.99090999999981
 30
0.0
 11
-560.46715999999992
 21
327.99090999999981
 31
0.0
  0
LINE
  5
A73
  8
0
  6
CONTINUOUS
 62
     7
 10
-505.82715000000002
 20
325.99090999999981
 30
0.0
 11
-560.46715999999992
 21
325.99090999999981
 31
0.0
  0
LINE
  5
A74
  8
0
  6
CONTINUOUS
 62
     7
 10
-505.82715000000002
 20
325.27094
 30
0.0
 11
-458.00713999999999
 21
325.27094
 31
0.0
  0
LINE
  5
A75
  8
0
  6
CONTINUOUS
 62
     7
 10
-570.82714999999985
 20
414.99090999999999
 30
0.0
 11
-570.82714999999985
 21
308.99090999999981
 31
0.0
  0
LINE
  5
A76
  8
0
  6
CONTINUOUS
 62
     7
 10
-562.82714999999985
 20
414.99090999999999
 30
0.0
 11
-562.82714999999985
 21
308.99090999999981
 31
0.0
  0
LINE
  5
A77
  8
0
  6
CONTINUOUS
 62
     7
 10
-576.33722
 20
320.89092999999991
 30
0.0
 11
-576.35724000000005
 21
320.90091000000001
 31
0.0
  0
LINE
  5
A78
  8
0
  6
CONTINUOUS
 62
     7
 10
-571.82714999999985
 20
411.99090999999999
 30
0.0
 11
-571.82714999999985
 21
311.99090999999999
 31
0.0
  0
LINE
  5
A79
  8
0
  6
CONTINUOUS
 62
     7
 10
-571.82714999999985
 20
411.99090999999999
 30
0.0
 11
-570.82714999999985
 21
411.99090999999999
 31
0.0
  0
LINE
  5
A7A
  8
0
  6
CONTINUOUS
 62
     7
 10
-570.82714999999985
 20
414.99090999999999
 30
0.0
 11
-562.82714999999985
 21
414.99090999999999
 31
0.0
  0
LINE
  5
A7B
  8
0
  6
CONTINUOUS
 62
     7
 10
-570.12714000000017
 20
405.18084999999991
 30
0.0
 11
-563.89715999999964
 21
405.18084999999991
 31
0.0
  0
LINE
  5
A7C
  8
0
  6
CONTINUOUS
 62
     7
 10
-454.82715000000002
 20
407.99090999999999
 30
0.0
 11
-446.82715000000002
 21
407.99090999999999
 31
0.0
  0
LINE
  5
A7D
  8
0
  6
CONTINUOUS
 62
     7
 10
-454.82715000000002
 20
393.93085000000002
 30
0.0
 11
-446.82715000000002
 21
393.93085000000002
 31
0.0
  0
LINE
  5
A7E
  8
0
  6
CONTINUOUS
 62
     7
 10
-454.82715000000002
 20
417.99090999999987
 30
0.0
 11
-446.82715000000002
 21
417.99090999999987
 31
0.0
  0
LINE
  5
A7F
  8
0
  6
CONTINUOUS
 62
     7
 10
-559.61712999999986
 20
418.27094
 30
0.0
 11
-462.69713999999999
 21
418.27094
 31
0.0
  0
LINE
  5
A80
  8
0
  6
CONTINUOUS
 62
     7
 10
-562.82714999999985
 20
410.09097000000003
 30
0.0
 11
-561.58715999999993
 21
416.65093999999988
 31
0.0
  0
LINE
  5
A81
  8
0
  6
CONTINUOUS
 62
     7
 10
-557.46709999999985
 20
398.64089999999999
 30
0.0
 11
-562.82709
 21
410.09088000000003
 31
0.0
  0
LINE
  5
A82
  8
0
  6
CONTINUOUS
 62
     7
 10
-557.46715999999992
 20
325.3408799999998
 30
0.0
 11
-562.82714999999985
 21
313.90100000000001
 31
0.0
  0
LINE
  5
A83
  8
0
  6
CONTINUOUS
 62
     7
 10
-559.57714999999985
 20
421.12090999999992
 30
0.0
 11
-462.69713999999999
 21
421.12090999999992
 31
0.0
  0
LINE
  5
A84
  8
0
  6
CONTINUOUS
 62
     7
 10
-559.55713000000003
 20
422.97089
 30
0.0
 11
-462.69713999999999
 21
422.97089
 31
0.0
  0
LINE
  5
A85
  8
0
  6
CONTINUOUS
 62
     7
 10
-559.53710999999998
 20
423.88092
 30
0.0
 11
-462.69707999999991
 21
423.88092
 31
0.0
  0
LINE
  5
A86
  8
0
  6
CONTINUOUS
 62
     7
 10
-562.82714999999985
 20
411.43093999999979
 30
0.0
 11
-561.54711999999995
 21
419.44088999999991
 31
0.0
  0
LINE
  5
A87
  8
0
  6
CONTINUOUS
 62
     7
 10
-562.82709
 20
412.78087999999991
 30
0.0
 11
-561.53705000000002
 21
421.27096999999992
 31
0.0
  0
LINE
  5
A88
  8
0
  6
CONTINUOUS
 62
     7
 10
-562.82714999999985
 20
412.78091000000001
 30
0.0
 11
-561.51715000000002
 21
422.16095000000001
 31
0.0
  0
LINE
  5
A89
  8
0
  6
CONTINUOUS
 62
     7
 10
-456.62707999999981
 20
401.33089999999987
 30
0.0
 11
-460.76709
 21
416.79092000000003
 31
0.0
  0
LINE
  5
A8A
  8
0
  6
CONTINUOUS
 62
     7
 10
-460.28710999999993
 20
414.99090999999999
 30
0.0
 11
-454.82715000000002
 21
414.99090999999999
 31
0.0
  0
LINE
  5
A8B
  8
0
  6
CONTINUOUS
 62
     7
 10
-576.82714999999985
 20
313.97089
 30
0.0
 11
-576.82714999999985
 21
356.99090999999987
 31
0.0
  0
LINE
  5
A8C
  8
0
  6
CONTINUOUS
 62
     7
 10
-574.55713000000003
 20
312.24090999999999
 30
0.0
 11
-572.32714999999996
 21
312.24090999999999
 31
0.0
  0
LINE
  5
A8D
  8
0
  6
CONTINUOUS
 62
     7
 10
-575.05713000000003
 20
312.38088999999991
 30
0.0
 11
-576.32709
 21
313.11090000000002
 31
0.0
  0
LINE
  5
A8E
  8
0
  6
CONTINUOUS
 62
     7
 10
-575.06708000000003
 20
314.49093999999991
 30
0.0
 11
-576.34710999999982
 21
315.26092999999992
 31
0.0
  0
LINE
  5
A8F
  8
0
  6
CONTINUOUS
 62
     7
 10
-575.07714999999985
 20
319.03087999999991
 30
0.0
 11
-576.37714000000017
 21
319.88088999999991
 31
0.0
  0
LINE
  5
A90
  8
0
  6
CONTINUOUS
 62
     7
 10
-574.54711999999995
 20
314.35088999999999
 30
0.0
 11
-571.82714999999985
 21
314.35088999999999
 31
0.0
  0
LINE
  5
A91
  8
0
  6
CONTINUOUS
 62
     7
 10
-574.52710000000002
 20
318.87090999999998
 30
0.0
 11
-571.82714999999985
 21
318.87090999999998
 31
0.0
  0
LINE
  5
A92
  8
0
  6
CONTINUOUS
 62
     7
 10
-574.55713000000003
 20
320.01092999999992
 30
0.0
 11
-572.82714999999985
 21
320.01092999999992
 31
0.0
  0
LINE
  5
A93
  8
0
  6
CONTINUOUS
 62
     7
 10
-574.57714999999996
 20
315.49090999999981
 30
0.0
 11
-572.82714999999985
 21
315.49090999999981
 31
0.0
  0
LINE
  5
A94
  8
0
  6
CONTINUOUS
 62
     7
 10
-574.58715999999981
 20
313.39092999999991
 30
0.0
 11
-572.32714999999996
 21
313.39092999999991
 31
0.0
  0
LINE
  5
A95
  8
0
  6
CONTINUOUS
 62
     7
 10
-575.05713000000003
 20
320.14096000000001
 30
0.0
 11
-576.33709999999985
 21
320.89096000000001
 31
0.0
  0
LINE
  5
A96
  8
0
  6
CONTINUOUS
 62
     7
 10
-575.03716999999995
 20
313.5008899999998
 30
0.0
 11
-576.27715999999975
 21
314.13088999999968
 31
0.0
  0
LINE
  5
A97
  8
0
  6
CONTINUOUS
 62
     7
 10
-575.04711999999995
 20
315.61090000000002
 30
0.0
 11
-576.29711999999995
 21
316.27089999999993
 31
0.0
  0
LINE
  5
A98
  8
0
  6
CONTINUOUS
 62
     7
 10
-574.82714999999985
 20
319.16095000000001
 30
0.0
 11
-574.82714999999985
 21
319.63091999999989
 31
0.0
  0
LINE
  5
A99
  8
0
  6
CONTINUOUS
 62
     7
 10
-574.82714999999985
 20
314.59087999999991
 30
0.0
 11
-574.82714999999985
 21
315.14092999999991
 31
0.0
  0
LINE
  5
A9A
  8
0
  6
CONTINUOUS
 62
     7
 10
-574.82714999999985
 20
312.49090999999981
 30
0.0
 11
-574.82714999999985
 21
313.02094
 31
0.0
  0
LINE
  5
A9B
  8
0
  6
CONTINUOUS
 62
     7
 10
-571.82714999999985
 20
311.99090999999999
 30
0.0
 11
-570.82714999999985
 21
311.99090999999999
 31
0.0
  0
LINE
  5
A9C
  8
0
  6
CONTINUOUS
 62
     7
 10
-570.82714999999985
 20
308.99090999999981
 30
0.0
 11
-562.82714999999985
 21
308.99090999999981
 31
0.0
  0
LINE
  5
A9D
  8
0
  6
CONTINUOUS
 62
     7
 10
-570.12714000000017
 20
318.80095999999992
 30
0.0
 11
-563.89715999999964
 21
318.80095999999992
 31
0.0
  0
LINE
  5
A9E
  8
0
  6
CONTINUOUS
 62
     7
 10
-454.82715000000002
 20
315.99090999999999
 30
0.0
 11
-446.82715000000002
 21
315.99090999999999
 31
0.0
  0
LINE
  5
A9F
  8
0
  6
CONTINUOUS
 62
     7
 10
-454.82715000000002
 20
305.99090999999999
 30
0.0
 11
-446.82715000000002
 21
305.99090999999999
 31
0.0
  0
LINE
  5
AA0
  8
0
  6
CONTINUOUS
 62
     7
 10
-559.61712999999986
 20
305.71087999999992
 30
0.0
 11
-462.69713999999999
 21
305.71087999999992
 31
0.0
  0
LINE
  5
AA1
  8
0
  6
CONTINUOUS
 62
     7
 10
-562.82709
 20
313.90087999999992
 30
0.0
 11
-561.58709999999985
 21
307.34091000000001
 31
0.0
  0
LINE
  5
AA2
  8
0
  6
CONTINUOUS
 62
     7
 10
-559.92089999999996
 20
302.86090000000002
 30
0.0
 11
-537.42902000000004
 21
302.86090000000002
 31
0.0
  0
LINE
  5
AA3
  8
0
  6
CONTINUOUS
 62
     7
 10
-562.82714999999985
 20
312.55086999999992
 30
0.0
 11
-561.54718000000003
 21
304.55095999999992
 31
0.0
  0
LINE
  5
AA4
  8
0
  6
CONTINUOUS
 62
     7
 10
-562.82714999999985
 20
311.21096999999992
 30
0.0
 11
-561.81786999999986
 21
304.56079
 31
0.0
  0
LINE
  5
AA5
  8
0
  6
CONTINUOUS
 62
     7
 10
-562.82714999999985
 20
311.21093999999999
 30
0.0
 11
-561.90166999999985
 21
304.58434999999992
 31
0.0
  0
LINE
  5
AA6
  8
0
  6
CONTINUOUS
 62
     7
 10
-456.62139999999999
 20
322.67203000000001
 30
0.0
 11
-460.76715000000002
 21
307.19092000000001
 31
0.0
  0
LINE
  5
AA7
  8
0
  6
CONTINUOUS
 62
     7
 10
-460.2851
 20
308.99090999999981
 30
0.0
 11
-454.82715000000002
 21
308.99090999999981
 31
0.0
  0
LINE
  5
AA8
  8
0
  6
CONTINUOUS
 62
     7
 10
-454.82715000000002
 20
330.05095999999992
 30
0.0
 11
-446.82715000000002
 21
330.05095999999992
 31
0.0
  0
LINE
  5
AA9
  8
0
  6
CONTINUOUS
 62
     3
 10
-535.82708999999988
 20
297.49088
 30
0.0
 11
-536.0423599999998
 21
305.71096999999992
 31
0.0
  0
LINE
  5
AAA
  8
0
  6
CONTINUOUS
 62
     3
 10
-475.82711999999998
 20
297.49090999999981
 30
0.0
 11
-475.61187999999999
 21
305.71100000000001
 31
0.0
  0
LINE
  5
AAB
  8
0
  6
CONTINUOUS
 62
     3
 10
-455.82715000000002
 20
308.99090999999981
 30
0.0
 11
-461.55291999999997
 21
300.17403999999999
 31
0.0
  0
LINE
  5
AAC
  8
0
  6
CONTINUOUS
 62
     7
 10
-475.82715000000002
 20
297.49090999999981
 30
0.0
 11
-535.82714999999985
 21
297.49090999999981
 31
0.0
  0
LINE
  5
AAD
  8
0
  6
CONTINUOUS
 62
     7
 10
-474.31353999999988
 20
299.49090999999999
 30
0.0
 11
-462.81090999999992
 21
299.49090999999999
 31
0.0
  0
LINE
  5
AAE
  8
0
  6
CONTINUOUS
 62
     7
 10
-476.84710999999999
 20
389.49090999999987
 30
0.0
 11
-476.84710999999999
 21
394.35088999999988
 31
0.0
  0
LINE
  5
AAF
  8
0
  6
CONTINUOUS
 62
     7
 10
-492.80712999999997
 20
389.49090999999987
 30
0.0
 11
-492.80712999999997
 21
394.35088999999988
 31
0.0
  0
LINE
  5
AB0
  8
0
  6
CONTINUOUS
 62
     7
 10
-477.3271499999999
 20
389.49090999999987
 30
0.0
 11
-477.3271499999999
 21
394.49090999999987
 31
0.0
  0
LINE
  5
AB1
  8
0
  6
CONTINUOUS
 62
     7
 10
-492.32715000000002
 20
389.49090999999987
 30
0.0
 11
-492.32715000000002
 21
394.49090999999987
 31
0.0
  0
LINE
  5
AB2
  8
0
  6
CONTINUOUS
 62
     7
 10
-520.82714999999985
 20
374.99090999999987
 30
0.0
 11
-457.82715000000002
 21
374.99090999999987
 31
0.0
  0
LINE
  5
AB3
  8
0
  6
CONTINUOUS
 62
     7
 10
-520.82714999999985
 20
341.49090999999999
 30
0.0
 11
-457.82715000000002
 21
341.49090999999999
 31
0.0
  0
LINE
  5
AB4
  8
0
  6
CONTINUOUS
 62
     7
 10
-520.82714999999985
 20
382.49090999999987
 30
0.0
 11
-457.82715000000002
 21
382.49090999999987
 31
0.0
  0
LINE
  5
AB5
  8
0
  6
CONTINUOUS
 62
     3
 10
-457.82715000000002
 20
382.49090999999987
 30
0.0
 11
-457.82715000000002
 21
341.49090999999999
 31
0.0
  0
LINE
  5
AB6
  8
0
  6
CONTINUOUS
 62
     3
 10
-520.82714999999985
 20
382.49090999999987
 30
0.0
 11
-520.82714999999985
 21
341.49090999999999
 31
0.0
  0
LINE
  5
AB7
  8
0
  6
CONTINUOUS
 62
     7
 10
-475.82715000000002
 20
388.48090000000002
 30
0.0
 11
-457.78143
 21
388.48090000000002
 31
0.0
  0
LINE
  5
AB8
  8
0
  6
CONTINUOUS
 62
     7
 10
-475.82715000000002
 20
335.51092999999992
 30
0.0
 11
-457.79290999999989
 21
335.51092999999992
 31
0.0
  0
LINE
  5
AB9
  8
0
  6
CONTINUOUS
 62
     7
 10
-476.84710999999999
 20
334.49090999999981
 30
0.0
 11
-476.84710999999999
 21
329.63092
 31
0.0
  0
LINE
  5
ABA
  8
0
  6
CONTINUOUS
 62
     7
 10
-492.80712999999997
 20
334.49090999999981
 30
0.0
 11
-492.80712999999997
 21
329.63092
 31
0.0
  0
LINE
  5
ABB
  8
0
  6
CONTINUOUS
 62
     7
 10
-477.3271499999999
 20
334.49090999999981
 30
0.0
 11
-477.3271499999999
 21
329.49090999999981
 31
0.0
  0
LINE
  5
ABC
  8
0
  6
CONTINUOUS
 62
     7
 10
-492.32715000000002
 20
334.49090999999981
 30
0.0
 11
-492.32715000000002
 21
329.49090999999981
 31
0.0
  0
LINE
  5
ABD
  8
0
  6
CONTINUOUS
 62
     7
 10
-461.49431999999979
 20
335.99090999999981
 30
0.0
 11
-475.82715000000002
 21
335.99090999999981
 31
0.0
  0
LINE
  5
ABE
  8
0
  6
CONTINUOUS
 62
     7
 10
-461.47997999999978
 20
387.99090999999987
 30
0.0
 11
-475.82715000000002
 21
387.99090999999987
 31
0.0
  0
LINE
  5
ABF
  8
0
  6
CONTINUOUS
 62
     3
 10
-475.84710999999999
 20
395.35088999999999
 30
0.0
 11
-458.00713999999999
 21
395.35088999999999
 31
0.0
  0
LINE
  5
AC0
  8
0
  6
CONTINUOUS
 62
     7
 10
-422.82717999999988
 20
48.53405399999999
 30
0.0
 11
-386.82715000000002
 21
47.276904999999999
 31
0.0
  0
LINE
  5
AC1
  8
0
  6
CONTINUOUS
 62
     1
 10
-121.3278699999999
 20
68.847954000000001
 30
0.0
 11
-169.23401999999979
 21
68.847954000000001
 31
0.0
  0
LINE
  5
AC2
  8
0
  6
CONTINUOUS
 62
     7
 10
-114.97295
 20
77.487480000000005
 30
0.0
 11
-113.9736199999999
 21
75.869986999999981
 31
0.0
  0
LINE
  5
AC3
  8
0
  6
CONTINUOUS
 62
     7
 10
-103.93447999999979
 20
145.39683999999991
 30
0.0
 11
-99.721542000000014
 21
133.82187999999991
 31
0.0
  0
LINE
  5
AC4
  8
0
  6
CENTER
 62
     7
 10
-91.538146999999995
 20
184.0907299999997
 30
0.0
 11
-78.992560999999981
 21
196.6363199999999
 31
0.0
  0
LINE
  5
AC5
  8
0
  6
CONTINUOUS
 62
     7
 10
-167.15271000000001
 20
105.64776000000001
 30
0.0
 11
-188.2739399999999
 21
84.526526999999987
 31
0.0
  0
LINE
  5
AC6
  8
0
  6
CONTINUOUS
 62
     7
 10
-363.82715000000002
 20
151.27510000000001
 30
0.0
 11
-363.41292999999968
 21
150.86088999999981
 31
0.0
  0
LINE
  5
AC7
  8
0
  6
CONTINUOUS
 62
     7
 10
-169.76027999999999
 20
108.69704
 30
0.0
 11
-191.10237000000001
 21
87.354957999999982
 31
0.0
  0
LINE
  5
AC8
  8
0
  6
CONTINUOUS
 62
     7
 10
-446.82718
 20
57.347968999999992
 30
0.0
 11
-446.82718
 21
169.34796
 31
0.0
  0
LINE
  5
AC9
  8
0
  6
CONTINUOUS
 62
     7
 10
-385.85336000000001
 20
64.271171999999993
 30
0.0
 11
-377.82715000000002
 21
64.481346000000002
 31
0.0
  0
LINE
  5
ACA
  8
0
  6
CONTINUOUS
 62
     7
 10
-386.82718
 20
63.546753000000002
 30
0.0
 11
-386.82718
 21
47.347960999999991
 31
0.0
  0
LINE
  5
ACB
  8
0
  6
CONTINUOUS
 62
     7
 10
-385.82718
 20
83.612670999999963
 30
0.0
 11
-377.82718
 21
83.612670999999963
 31
0.0
  0
LINE
  5
ACC
  8
0
  6
CONTINUOUS
 62
     7
 10
-354.82720999999992
 20
139.84798000000001
 30
0.0
 11
-354.82720999999992
 21
142.34796
 31
0.0
  0
LINE
  5
ACD
  8
0
  6
CONTINUOUS
 62
     7
 10
-422.82717999999988
 20
60.567329000000001
 30
0.0
 11
-386.82718
 21
60.567329000000001
 31
0.0
  0
LINE
  5
ACE
  8
0
  6
CONTINUOUS
 62
     7
 10
-422.82720999999981
 20
173.34796
 30
0.0
 11
-393.74865999999992
 21
174.10940999999991
 31
0.0
  0
LINE
  5
ACF
  8
0
  6
CENTER
 62
     7
 10
-380.28075999999987
 20
190.45203000000001
 30
0.0
 11
-361.68295000000001
 21
190.45203000000001
 31
0.0
  0
LINE
  5
AD0
  8
0
  6
CONTINUOUS
 62
     7
 10
-474.32718
 20
143.34796
 30
0.0
 11
-465.05715999999978
 21
143.34796
 31
0.0
  0
LINE
  5
AD1
  8
0
  6
CONTINUOUS
 62
     3
 10
-556.32770000000005
 20
105.84772
 30
0.0
 11
-556.32770000000005
 21
120.8477199999999
 31
0.0
  0
LINE
  5
AD2
  8
0
  6
CONTINUOUS
 62
     7
 10
-390.82715000000002
 20
194.57908999999981
 30
0.0
 11
-390.82715000000002
 21
88.612662999999998
 31
0.0
  0
LINE
  5
AD3
  8
0
  6
CONTINUOUS
 62
     3
 10
-556.32770000000005
 20
120.8477199999999
 30
0.0
 11
-552.82764000000009
 21
120.8477199999999
 31
0.0
  0
LINE
  5
AD4
  8
0
  6
CONTINUOUS
 62
     3
 10
-548.82770000000005
 20
146.8477
 30
0.0
 11
-548.82770000000005
 21
143.34771999999981
 31
0.0
  0
LINE
  5
AD5
  8
0
  6
CONTINUOUS
 62
     3
 10
-548.82770000000005
 20
146.8477
 30
0.0
 11
-533.82714999999985
 21
146.8477
 31
0.0
  0
LINE
  5
AD6
  8
0
  6
CONTINUOUS
 62
     7
 10
-126.17189999999999
 20
58.030312000000002
 30
0.0
 11
-126.17189999999999
 21
52.256790000000002
 31
0.0
  0
LINE
  5
AD7
  8
0
  6
CONTINUOUS
 62
     7
 10
-116.17188999999991
 20
52.256790000000002
 30
0.0
 11
-116.17188999999991
 21
58.030312000000002
 31
0.0
  0
LINE
  5
AD8
  8
0
  6
CONTINUOUS
 62
     7
 10
-95.299698000000006
 20
157.47345000000001
 30
0.0
 11
-100.2997
 21
154.58670000000001
 31
0.0
  0
LINE
  5
AD9
  8
0
  6
CONTINUOUS
 62
     7
 10
-200.2622199999999
 20
148.81316999999979
 30
0.0
 11
-195.26222000000001
 21
145.92641999999981
 31
0.0
  0
LINE
  5
ADA
  8
0
  6
CONTINUOUS
 62
     7
 10
-200.2622099999999
 20
154.58669
 30
0.0
 11
-200.2622099999999
 21
148.81318999999991
 31
0.0
  0
LINE
  5
ADB
  8
0
  6
CONTINUOUS
 62
     3
 10
-533.82714999999985
 20
146.8477
 30
0.0
 11
-533.82714999999985
 21
143.34771999999981
 31
0.0
  0
LINE
  5
ADC
  8
0
  6
CONTINUOUS
 62
     3
 10
-552.82764000000009
 20
83.348197999999982
 30
0.0
 11
-552.82764000000009
 21
143.34771999999981
 31
0.0
  0
LINE
  5
ADD
  8
0
  6
CONTINUOUS
 62
     3
 10
-475.82718
 20
84.847968999999964
 30
0.0
 11
-475.82718
 21
141.84795999999969
 31
0.0
  0
LINE
  5
ADE
  8
0
  6
CONTINUOUS
 62
     3
 10
-552.82764000000009
 20
143.34771999999981
 30
0.0
 11
-477.32717999999988
 21
143.34771999999981
 31
0.0
  0
LINE
  5
ADF
  8
0
  6
CONTINUOUS
 62
     3
 10
-523.62714000000005
 20
95.547736999999998
 30
0.0
 11
-523.62714000000005
 21
131.1517199999999
 31
0.0
  0
LINE
  5
AE0
  8
0
  6
CONTINUOUS
 62
     3
 10
-488.02719000000002
 20
95.547736999999998
 30
0.0
 11
-488.02719000000002
 21
131.1517199999999
 31
0.0
  0
LINE
  5
AE1
  8
0
  6
CONTINUOUS
 62
     3
 10
-523.62714000000005
 20
95.547736999999998
 30
0.0
 11
-488.02719000000002
 21
95.547736999999998
 31
0.0
  0
LINE
  5
AE2
  8
0
  6
CONTINUOUS
 62
     7
 10
-195.26218
 20
157.47341999999981
 30
0.0
 11
-200.26219
 21
154.58664999999991
 31
0.0
  0
LINE
  5
AE3
  8
0
  6
CONTINUOUS
 62
     3
 10
-523.62714000000005
 20
131.1517199999999
 30
0.0
 11
-488.02719000000002
 21
131.1517199999999
 31
0.0
  0
LINE
  5
AE4
  8
0
  6
CONTINUOUS
 62
     3
 10
-485.45513999999997
 20
90.848197999999996
 30
0.0
 11
-481.25011999999981
 21
90.848197999999996
 31
0.0
  0
LINE
  5
AE5
  8
0
  6
CONTINUOUS
 62
     3
 10
-483.32718
 20
88.786201000000005
 30
0.0
 11
-483.32718
 21
92.812140999999997
 31
0.0
  0
LINE
  5
AE6
  8
0
  6
CONTINUOUS
 62
     3
 10
-554.32763999999986
 20
81.848197999999968
 30
0.0
 11
-548.82770000000005
 21
81.848197999999968
 31
0.0
  0
LINE
  5
AE7
  8
0
  6
CONTINUOUS
 62
     3
 10
-554.32763999999986
 20
144.8477199999999
 30
0.0
 11
-548.82770000000005
 21
144.8477199999999
 31
0.0
  0
LINE
  5
AE8
  8
0
  6
CONTINUOUS
 62
     3
 10
-528.82714999999985
 20
90.348206000000005
 30
0.0
 11
-488.80520999999999
 21
90.348206000000005
 31
0.0
  0
LINE
  5
AE9
  8
0
  6
CONTINUOUS
 62
     3
 10
-522.85015999999985
 20
136.3477
 30
0.0
 11
-482.82718
 21
136.3477
 31
0.0
  0
LINE
  5
AEA
  8
0
  6
CONTINUOUS
 62
     3
 10
-474.32718
 20
81.848197999999968
 30
0.0
 11
-474.32718
 21
144.8477199999999
 31
0.0
  0
LINE
  5
AEB
  8
0
  6
CONTINUOUS
 62
     3
 10
-482.82718
 20
96.325683999999995
 30
0.0
 11
-482.82718
 21
136.3477
 31
0.0
  0
LINE
  5
AEC
  8
0
  6
CONTINUOUS
 62
     3
 10
-528.82714999999985
 20
90.348206000000005
 30
0.0
 11
-528.82714999999985
 21
130.37073000000001
 31
0.0
  0
LINE
  5
AED
  8
0
  6
CONTINUOUS
 62
     3
 10
-554.32763999999986
 20
81.848197999999968
 30
0.0
 11
-554.32763999999986
 21
105.84772
 31
0.0
  0
LINE
  5
AEE
  8
0
  6
CONTINUOUS
 62
     3
 10
-554.32763999999986
 20
120.8477199999999
 30
0.0
 11
-554.32763999999986
 21
144.8477199999999
 31
0.0
  0
LINE
  5
AEF
  8
0
  6
CONTINUOUS
 62
     3
 10
-528.32720999999992
 20
133.78568999999999
 30
0.0
 11
-528.32720999999992
 21
137.81171000000001
 31
0.0
  0
LINE
  5
AF0
  8
0
  6
CONTINUOUS
 62
     3
 10
-530.45514000000003
 20
135.8477199999997
 30
0.0
 11
-526.25012000000004
 21
135.8477199999997
 31
0.0
  0
LINE
  5
AF1
  8
0
  6
CONTINUOUS
 62
     3
 10
-552.82764000000009
 20
83.348197999999982
 30
0.0
 11
-477.32717999999988
 21
83.348197999999982
 31
0.0
  0
LINE
  5
AF2
  8
0
  6
CONTINUOUS
 62
     7
 10
-474.32718
 20
83.347968999999978
 30
0.0
 11
-465.05715999999978
 21
83.347968999999978
 31
0.0
  0
LINE
  5
AF3
  8
0
  6
CENTER
 62
     7
 10
-587.07421999999985
 20
113.34796999999971
 30
0.0
 11
-424.86361999999991
 21
113.34796999999971
 31
0.0
  0
LINE
  5
AF4
  8
0
  6
CONTINUOUS
 62
     7
 10
-190.26218999999969
 20
148.81318999999991
 30
0.0
 11
-190.26218999999969
 21
154.58669
 31
0.0
  0
LINE
  5
AF5
  8
0
  6
CONTINUOUS
 62
     7
 10
-121.1718999999997
 20
60.917088
 30
0.0
 11
-126.17191
 21
58.030330999999997
 31
0.0
  0
LINE
  5
AF6
  8
0
  6
CONTINUOUS
 62
     7
 10
-116.17191
 20
58.03029999999999
 30
0.0
 11
-121.1718999999997
 21
60.917045999999992
 31
0.0
  0
LINE
  5
AF7
  8
0
  6
CONTINUOUS
 62
     7
 10
-190.26223999999999
 20
154.58669
 30
0.0
 11
-195.26222000000001
 21
157.47341999999981
 31
0.0
  0
LINE
  5
AF8
  8
0
  6
CONTINUOUS
 62
     7
 10
-174.38999999999999
 20
52.256790000000002
 30
0.0
 11
-169.39000999999999
 21
49.370041000000001
 31
0.0
  0
LINE
  5
AF9
  8
0
  6
CONTINUOUS
 62
     7
 10
-195.26222000000001
 20
145.9264499999999
 30
0.0
 11
-190.26221000000001
 21
148.81319999999999
 31
0.0
  0
LINE
  5
AFA
  8
0
  6
CONTINUOUS
 62
     7
 10
-90.299689999999984
 20
154.58669
 30
0.0
 11
-95.299689999999984
 21
157.47343000000001
 31
0.0
  0
LINE
  5
AFB
  8
0
  6
CONTINUOUS
 62
     1
 10
-180.6044599999999
 20
64.847954000000001
 30
0.0
 11
-145.2809399999999
 21
64.847954000000001
 31
0.0
  0
LINE
  5
AFC
  8
0
  6
CONTINUOUS
 62
     7
 10
-174.38999999999999
 20
58.030312000000002
 30
0.0
 11
-174.38999999999999
 21
52.256790000000002
 31
0.0
  0
LINE
  5
AFD
  8
0
  6
CONTINUOUS
 62
     7
 10
-100.29969
 20
148.81316999999979
 30
0.0
 11
-95.299698000000006
 21
145.92641999999981
 31
0.0
  0
LINE
  5
AFE
  8
0
  6
CONTINUOUS
 62
     7
 10
-354.82720999999992
 20
142.34796
 30
0.0
 11
-332.82718
 21
142.34796
 31
0.0
  0
LINE
  5
AFF
  8
0
  6
CONTINUOUS
 62
     1
 10
-109.95743
 20
64.847954000000001
 30
0.0
 11
-145.2809399999999
 21
64.847954000000001
 31
0.0
  0
LINE
  5
B00
  8
0
  6
CONTINUOUS
 62
     1
 10
-145.2809399999999
 20
205.34796
 30
0.0
 11
-125.28095
 21
205.34796
 31
0.0
  0
LINE
  5
B01
  8
0
  6
CONTINUOUS
 62
     1
 10
-70.280959999999993
 20
130.34795999999969
 30
0.0
 11
-70.280959999999993
 21
150.34795
 31
0.0
  0
LINE
  5
B02
  8
0
  6
CONTINUOUS
 62
     1
 10
-362.82718
 20
120.34797999999969
 30
0.0
 11
-360.82720999999992
 21
120.34797999999969
 31
0.0
  0
LINE
  5
B03
  8
0
  6
CONTINUOUS
 62
     1
 10
-362.82718
 20
140.34796
 30
0.0
 11
-360.82720999999992
 21
140.34796
 31
0.0
  0
LINE
  5
B04
  8
0
  6
CONTINUOUS
 62
     7
 10
-360.82720999999992
 20
140.34796
 30
0.0
 11
-360.82720999999992
 21
130.34795999999969
 31
0.0
  0
LINE
  5
B05
  8
0
  6
CENTER
 62
     7
 10
-199.44382999999991
 20
76.185035999999982
 30
0.0
 11
-211.41193000000001
 21
64.216956999999994
 31
0.0
  0
LINE
  5
B06
  8
0
  6
CONTINUOUS
 62
     7
 10
-169.76027999999999
 20
151.99886999999981
 30
0.0
 11
-191.10236
 21
173.3409299999999
 31
0.0
  0
LINE
  5
B07
  8
0
  6
CONTINUOUS
 62
     7
 10
-360.82720999999992
 20
120.34797999999969
 30
0.0
 11
-360.82720999999992
 21
130.34795999999969
 31
0.0
  0
LINE
  5
B08
  8
0
  6
CONTINUOUS
 62
     7
 10
-422.82717999999988
 20
155.95481999999981
 30
0.0
 11
-392.63116000000002
 21
155.95481999999981
 31
0.0
  0
LINE
  5
B09
  8
0
  6
CONTINUOUS
 62
     7
 10
-174.97943000000001
 20
97.821037000000004
 30
0.0
 11
-151.12766999999991
 21
73.969268999999983
 31
0.0
  0
LINE
  5
B0A
  8
0
  6
CENTER
 62
     7
 10
-437.08755000000002
 20
130.34795999999969
 30
0.0
 11
-331.09366
 21
130.34795999999969
 31
0.0
  0
LINE
  5
B0B
  8
0
  6
CONTINUOUS
 62
     7
 10
-360.82720999999992
 20
120.8479699999999
 30
0.0
 11
-332.82718
 21
120.8479699999999
 31
0.0
  0
LINE
  5
B0C
  8
0
  6
CONTINUOUS
 62
     7
 10
-360.82720999999992
 20
139.84798000000001
 30
0.0
 11
-332.82718
 21
139.84798000000001
 31
0.0
  0
LINE
  5
B0D
  8
0
  6
CONTINUOUS
 62
     7
 10
-332.82718
 20
120.8479699999999
 30
0.0
 11
-332.82718
 21
142.3479599999998
 31
0.0
  0
LINE
  5
B0E
  8
0
  6
CONTINUOUS
 62
     7
 10
-142.28093999999999
 20
142.34796
 30
0.0
 11
-148.28093999999979
 21
142.34796
 31
0.0
  0
LINE
  5
B0F
  8
0
  6
CONTINUOUS
 62
     7
 10
-142.28093999999999
 20
136.34796
 30
0.0
 11
-142.28093999999999
 21
142.34796
 31
0.0
  0
LINE
  5
B10
  8
0
  6
CONTINUOUS
 62
     7
 10
-148.28093999999979
 20
136.34796
 30
0.0
 11
-142.28093999999999
 21
136.34796
 31
0.0
  0
LINE
  5
B11
  8
0
  6
CONTINUOUS
 62
     7
 10
-148.28093999999979
 20
142.34796
 30
0.0
 11
-148.28093999999979
 21
136.34796
 31
0.0
  0
LINE
  5
B12
  8
0
  6
CONTINUOUS
 62
     7
 10
-95.299698000000006
 20
145.9264499999999
 30
0.0
 11
-90.299698000000006
 21
148.81319999999999
 31
0.0
  0
LINE
  5
B13
  8
0
  6
CONTINUOUS
 62
     7
 10
-164.3900099999999
 20
58.030293000000007
 30
0.0
 11
-169.38999999999999
 21
60.917042000000002
 31
0.0
  0
LINE
  5
B14
  8
0
  6
CONTINUOUS
 62
     7
 10
-100.29969
 20
154.58669
 30
0.0
 11
-100.29969
 21
148.81318999999991
 31
0.0
  0
LINE
  5
B15
  8
0
  6
CONTINUOUS
 62
     7
 10
-121.17191
 20
49.370071000000003
 30
0.0
 11
-116.1718999999997
 21
52.256828000000013
 31
0.0
  0
LINE
  5
B16
  8
0
  6
CONTINUOUS
 62
     7
 10
-169.39000999999999
 20
49.370083000000001
 30
0.0
 11
-164.3900099999999
 21
52.256832000000003
 31
0.0
  0
LINE
  5
B17
  8
0
  6
CONTINUOUS
 62
     7
 10
-126.17191
 20
52.256790000000002
 30
0.0
 11
-121.17191
 21
49.370041000000001
 31
0.0
  0
LINE
  5
B18
  8
0
  6
CONTINUOUS
 62
     7
 10
-169.39000999999999
 20
60.917071999999997
 30
0.0
 11
-174.3900099999999
 21
58.030322999999989
 31
0.0
  0
LINE
  5
B19
  8
0
  6
CONTINUOUS
 62
     7
 10
-383.27193999999992
 20
52.268543000000001
 30
0.0
 11
-386.82718
 21
52.268543000000001
 31
0.0
  0
LINE
  5
B1A
  8
0
  6
CONTINUOUS
 62
     7
 10
-383.27193999999992
 20
58.018558999999989
 30
0.0
 11
-386.82718
 21
58.018558999999989
 31
0.0
  0
LINE
  5
B1B
  8
0
  6
CONTINUOUS
 62
     7
 10
-383.27193999999992
 20
49.393546999999991
 30
0.0
 11
-386.82718
 21
49.393546999999991
 31
0.0
  0
LINE
  5
B1C
  8
0
  6
CONTINUOUS
 62
     7
 10
-383.27193999999992
 20
60.893554999999992
 30
0.0
 11
-386.82718
 21
60.893554999999992
 31
0.0
  0
LINE
  5
B1D
  8
0
  6
CONTINUOUS
 62
     7
 10
-382.82717999999988
 20
59.456051000000002
 30
0.0
 11
-382.82717999999988
 21
50.831039000000011
 31
0.0
  0
LINE
  5
B1E
  8
0
  6
CONTINUOUS
 62
     7
 10
-428.82718
 20
60.556080000000001
 30
0.0
 11
-422.82717999999988
 21
60.556080000000001
 31
0.0
  0
LINE
  5
B1F
  8
0
  6
CONTINUOUS
 62
     7
 10
-169.38999999999999
 20
48.143543000000001
 30
0.0
 11
-121.17188
 21
48.143543000000001
 31
0.0
  0
LINE
  5
B20
  8
0
  6
CONTINUOUS
 62
     1
 10
-183.77987999999991
 20
59.347949999999997
 30
0.0
 11
-206.65572
 21
59.347949999999997
 31
0.0
  0
LINE
  5
B21
  8
0
  6
CONTINUOUS
 62
     1
 10
-70.280959999999993
 20
130.34795999999969
 30
0.0
 11
-70.280959999999993
 21
110.3479499999999
 31
0.0
  0
LINE
  5
B22
  8
0
  6
CONTINUOUS
 62
     1
 10
-220.28093999999999
 20
130.34795999999969
 30
0.0
 11
-220.28093999999999
 21
110.3479499999999
 31
0.0
  0
LINE
  5
B23
  8
0
  6
CONTINUOUS
 62
     7
 10
-537.32720999999992
 20
75.124886000000004
 30
0.0
 11
-454.82718
 21
75.124886000000004
 31
0.0
  0
LINE
  5
B24
  8
0
  6
CONTINUOUS
 62
     7
 10
-538.82720999999992
 20
76.624886000000004
 30
0.0
 11
-538.82720999999992
 21
76.624886000000004
 31
0.0
  0
LINE
  5
B25
  8
0
  6
CONTINUOUS
 62
     7
 10
-454.82718
 20
81.410529999999966
 30
0.0
 11
-446.82718
 21
81.410529999999966
 31
0.0
  0
LINE
  5
B26
  8
0
  6
CONTINUOUS
 62
     7
 10
-460.28665000000001
 20
60.347957999999998
 30
0.0
 11
-454.82718
 21
60.347957999999998
 31
0.0
  0
LINE
  5
B27
  8
0
  6
CONTINUOUS
 62
     7
 10
-456.32711999999992
 20
75.124923999999979
 30
0.0
 11
-460.76916999999997
 21
58.547072999999997
 31
0.0
  0
LINE
  5
B28
  8
0
  6
CONTINUOUS
 62
     7
 10
-523.82720999999992
 20
53.460022000000002
 30
0.0
 11
-523.82720999999992
 21
57.064693000000013
 31
0.0
  0
LINE
  5
B29
  8
0
  6
CONTINUOUS
 62
     7
 10
-562.82720999999992
 20
62.563094999999997
 30
0.0
 11
-561.51837
 21
53.183624000000002
 31
0.0
  0
LINE
  5
B2A
  8
0
  6
CONTINUOUS
 62
     7
 10
-562.82720999999992
 20
62.563132999999993
 30
0.0
 11
-561.53619000000003
 21
54.069988000000002
 31
0.0
  0
LINE
  5
B2B
  8
0
  6
CONTINUOUS
 62
     7
 10
-562.82714999999985
 20
63.907692000000011
 30
0.0
 11
-561.54705999999999
 21
55.902504
 31
0.0
  0
LINE
  5
B2C
  8
0
  6
CONTINUOUS
 62
     7
 10
-559.53754000000004
 20
51.460017999999998
 30
0.0
 11
-525.82714999999985
 21
51.460017999999998
 31
0.0
  0
LINE
  5
B2D
  8
0
  6
CONTINUOUS
 62
     7
 10
-559.55877999999996
 20
52.370544000000002
 30
0.0
 11
-525.82714999999985
 21
52.370544000000002
 31
0.0
  0
LINE
  5
B2E
  8
0
  6
CONTINUOUS
 62
     7
 10
-559.57213999999999
 20
54.218318999999987
 30
0.0
 11
-525.82714999999985
 21
54.218318999999987
 31
0.0
  0
LINE
  5
B2F
  8
0
  6
CONTINUOUS
 62
     7
 10
-562.82714999999985
 20
65.252205000000004
 30
0.0
 11
-561.58587999999986
 21
58.692818000000003
 31
0.0
  0
LINE
  5
B30
  8
0
  6
CONTINUOUS
 62
     7
 10
-559.62072999999987
 20
57.064693000000013
 30
0.0
 11
-462.70098999999999
 21
57.064693000000013
 31
0.0
  0
LINE
  5
B31
  8
0
  6
CONTINUOUS
 62
     7
 10
-454.82718
 20
57.347957999999998
 30
0.0
 11
-446.82718
 21
57.347957999999998
 31
0.0
  0
LINE
  5
B32
  8
0
  6
CONTINUOUS
 62
     7
 10
-454.82718
 20
67.347960999999998
 30
0.0
 11
-446.82718
 21
67.347960999999998
 31
0.0
  0
LINE
  5
B33
  8
0
  6
CONTINUOUS
 62
     7
 10
-570.12909000000002
 20
70.156493999999995
 30
0.0
 11
-563.89928999999995
 21
70.156493999999995
 31
0.0
  0
LINE
  5
B34
  8
0
  6
CONTINUOUS
 62
     7
 10
-570.82714999999985
 20
60.347957999999998
 30
0.0
 11
-562.82720999999992
 21
60.347957999999998
 31
0.0
  0
LINE
  5
B35
  8
0
  6
CONTINUOUS
 62
     7
 10
-571.82720999999981
 20
63.347957999999998
 30
0.0
 11
-570.82714999999985
 21
63.347957999999998
 31
0.0
  0
LINE
  5
B36
  8
0
  6
CONTINUOUS
 62
     7
 10
-574.82720999999981
 20
63.851806999999987
 30
0.0
 11
-574.82720999999981
 21
64.377556000000013
 31
0.0
  0
LINE
  5
B37
  8
0
  6
CONTINUOUS
 62
     7
 10
-574.82720999999981
 20
65.951416000000009
 30
0.0
 11
-574.82720999999981
 21
66.497437000000005
 31
0.0
  0
LINE
  5
B38
  8
0
  6
CONTINUOUS
 62
     7
 10
-574.82720999999981
 20
70.517516999999998
 30
0.0
 11
-574.82720999999981
 21
70.989623999999964
 31
0.0
  0
LINE
  5
B39
  8
0
  6
CONTINUOUS
 62
     7
 10
-575.04687999999999
 20
66.962768999999994
 30
0.0
 11
-576.29547000000002
 21
67.624634
 31
0.0
  0
LINE
  5
B3A
  8
0
  6
CONTINUOUS
 62
     7
 10
-575.04052999999965
 20
64.853232999999989
 30
0.0
 11
-576.27979000000005
 21
65.482253999999983
 31
0.0
  0
LINE
  5
B3B
  8
0
  6
CONTINUOUS
 62
     7
 10
-575.06133999999975
 20
71.500168000000002
 30
0.0
 11
-576.33258000000001
 21
72.244788999999983
 31
0.0
  0
LINE
  5
B3C
  8
0
  6
CONTINUOUS
 62
     7
 10
-574.58789000000002
 20
64.744865000000004
 30
0.0
 11
-572.32714999999996
 21
64.744865000000004
 31
0.0
  0
LINE
  5
B3D
  8
0
  6
CONTINUOUS
 62
     7
 10
-574.57854999999995
 20
66.846312999999995
 30
0.0
 11
-572.82714999999985
 21
66.846312999999995
 31
0.0
  0
LINE
  5
B3E
  8
0
  6
CONTINUOUS
 62
     7
 10
-574.55584999999985
 20
71.363028999999997
 30
0.0
 11
-572.82714999999985
 21
71.363028999999997
 31
0.0
  0
LINE
  5
B3F
  8
0
  6
CONTINUOUS
 62
     7
 10
-574.52855999999986
 20
70.223015000000004
 30
0.0
 11
-571.82720999999981
 21
70.223015000000004
 31
0.0
  0
LINE
  5
B40
  8
0
  6
CONTINUOUS
 62
     7
 10
-574.55016999999998
 20
65.706299000000001
 30
0.0
 11
-571.82720999999981
 21
65.706299000000001
 31
0.0
  0
LINE
  5
B41
  8
0
  6
CONTINUOUS
 62
     7
 10
-575.07690000000002
 20
70.386756999999974
 30
0.0
 11
-576.37549000000001
 21
71.238318999999976
 31
0.0
  0
LINE
  5
B42
  8
0
  6
CONTINUOUS
 62
     7
 10
-575.06464000000005
 20
65.848838999999998
 30
0.0
 11
-576.34167000000002
 21
66.61511999999999
 31
0.0
  0
LINE
  5
B43
  8
0
  6
CONTINUOUS
 62
     7
 10
-575.05939000000001
 20
63.732803000000011
 30
0.0
 11
-576.32750999999985
 21
64.465751999999995
 31
0.0
  0
LINE
  5
B44
  8
0
  6
CONTINUOUS
 62
     7
 10
-574.55895999999996
 20
63.598571999999997
 30
0.0
 11
-572.32714999999996
 21
63.598571999999997
 31
0.0
  0
LINE
  5
B45
  8
0
  6
CONTINUOUS
 62
     7
 10
-576.82714999999985
 20
65.331535000000002
 30
0.0
 11
-576.82714999999985
 21
108.3479499999999
 31
0.0
  0
LINE
  5
B46
  8
0
  6
CONTINUOUS
 62
     7
 10
-460.28665000000001
 20
166.34796
 30
0.0
 11
-454.82718
 21
166.34796
 31
0.0
  0
LINE
  5
B47
  8
0
  6
CONTINUOUS
 62
     7
 10
-456.62502999999998
 20
152.68277
 30
0.0
 11
-460.76916999999997
 21
168.14883
 31
0.0
  0
LINE
  5
B48
  8
0
  6
CONTINUOUS
 62
     7
 10
-523.82720999999992
 20
173.23584
 30
0.0
 11
-523.82720999999992
 21
169.6312299999999
 31
0.0
  0
LINE
  5
B49
  8
0
  6
CONTINUOUS
 62
     7
 10
-562.82714999999985
 20
164.13281000000001
 30
0.0
 11
-561.51830999999993
 21
173.5122699999998
 31
0.0
  0
LINE
  5
B4A
  8
0
  6
CONTINUOUS
 62
     7
 10
-562.82709
 20
164.1328
 30
0.0
 11
-561.53607
 21
172.62586999999991
 31
0.0
  0
LINE
  5
B4B
  8
0
  6
CONTINUOUS
 62
     7
 10
-562.82709
 20
162.78820999999979
 30
0.0
 11
-561.54705999999999
 21
170.79338000000001
 31
0.0
  0
LINE
  5
B4C
  8
0
  6
CONTINUOUS
 62
     7
 10
-559.53754000000004
 20
175.2358199999999
 30
0.0
 11
-525.82714999999985
 21
175.2358199999999
 31
0.0
  0
LINE
  5
B4D
  8
0
  6
CONTINUOUS
 62
     7
 10
-559.55877999999996
 20
174.32532
 30
0.0
 11
-525.82714999999985
 21
174.32532
 31
0.0
  0
LINE
  5
B4E
  8
0
  6
CONTINUOUS
 62
     7
 10
-559.57213999999999
 20
172.4776
 30
0.0
 11
-525.82714999999985
 21
172.4776
 31
0.0
  0
LINE
  5
B4F
  8
0
  6
CONTINUOUS
 62
     7
 10
-537.32720999999992
 20
151.57097999999991
 30
0.0
 11
-454.82718
 21
151.57097999999991
 31
0.0
  0
LINE
  5
B50
  8
0
  6
CONTINUOUS
 62
     7
 10
-557.46172999999976
 20
76.696724000000003
 30
0.0
 11
-562.82714999999985
 21
65.252251000000001
 31
0.0
  0
LINE
  5
B51
  8
0
  6
CONTINUOUS
 62
     7
 10
-557.46166999999991
 20
149.9991499999999
 30
0.0
 11
-562.82709
 21
161.4436199999999
 31
0.0
  0
LINE
  5
B52
  8
0
  6
CONTINUOUS
 62
     7
 10
-562.82720999999992
 20
161.44365999999991
 30
0.0
 11
-561.58594000000005
 21
168.0030999999999
 31
0.0
  0
LINE
  5
B53
  8
0
  6
CONTINUOUS
 62
     7
 10
-559.62072999999987
 20
169.6312299999999
 30
0.0
 11
-462.70098999999999
 21
169.6312299999999
 31
0.0
  0
LINE
  5
B54
  8
0
  6
CONTINUOUS
 62
     7
 10
-538.82720999999992
 20
76.624886000000004
 30
0.0
 11
-538.82720999999992
 21
75.124886000000004
 31
0.0
  0
LINE
  5
B55
  8
0
  6
CONTINUOUS
 62
     7
 10
-538.82720999999992
 20
150.07097999999991
 30
0.0
 11
-538.82720999999992
 21
150.07097999999991
 31
0.0
  0
LINE
  5
B56
  8
0
  6
CONTINUOUS
 62
     7
 10
-454.82718
 20
169.34796
 30
0.0
 11
-446.82718
 21
169.34796
 31
0.0
  0
LINE
  5
B57
  8
0
  6
CONTINUOUS
 62
     7
 10
-454.82718
 20
145.28540000000001
 30
0.0
 11
-446.82718
 21
145.28540000000001
 31
0.0
  0
LINE
  5
B58
  8
0
  6
CONTINUOUS
 62
     7
 10
-454.82718
 20
159.34794999999991
 30
0.0
 11
-446.82718
 21
159.34794999999991
 31
0.0
  0
LINE
  5
B59
  8
0
  6
CONTINUOUS
 62
     7
 10
-570.12909000000002
 20
156.53936999999991
 30
0.0
 11
-563.89928999999995
 21
156.53936999999991
 31
0.0
  0
LINE
  5
B5A
  8
0
  6
CONTINUOUS
 62
     7
 10
-570.82714999999985
 20
166.34796
 30
0.0
 11
-562.82720999999992
 21
166.34796
 31
0.0
  0
LINE
  5
B5B
  8
0
  6
CONTINUOUS
 62
     7
 10
-571.82720999999981
 20
163.34796
 30
0.0
 11
-570.82714999999985
 21
163.34796
 31
0.0
  0
LINE
  5
B5C
  8
0
  6
CONTINUOUS
 62
     7
 10
-571.82720999999981
 20
163.34796
 30
0.0
 11
-571.82720999999981
 21
62.224731000000013
 31
0.0
  0
LINE
  5
B5D
  8
0
  6
CONTINUOUS
 62
     7
 10
-576.33258000000001
 20
72.244834999999981
 30
0.0
 11
-576.35625999999979
 21
72.258713
 31
0.0
  0
LINE
  5
B5E
  8
0
  6
CONTINUOUS
 62
     7
 10
-562.82720999999992
 20
166.34796
 30
0.0
 11
-562.82720999999992
 21
63.907710999999999
 31
0.0
  0
LINE
  5
B5F
  8
0
  6
CONTINUOUS
 62
     7
 10
-570.82714999999985
 20
166.34796
 30
0.0
 11
-570.82714999999985
 21
60.347957999999998
 31
0.0
  0
LINE
  5
B60
  8
0
  6
CONTINUOUS
 62
     7
 10
-505.82717999999988
 20
76.624886000000004
 30
0.0
 11
-458.00506999999999
 21
76.624886000000004
 31
0.0
  0
LINE
  5
B61
  8
0
  6
CONTINUOUS
 62
     7
 10
-505.82717999999988
 20
77.347968999999978
 30
0.0
 11
-560.46172999999999
 21
77.347968999999978
 31
0.0
  0
LINE
  5
B62
  8
0
  6
CONTINUOUS
 62
     7
 10
-505.82717999999988
 20
79.347960999999984
 30
0.0
 11
-560.46172999999999
 21
79.347960999999984
 31
0.0
  0
LINE
  5
B63
  8
0
  6
CONTINUOUS
 62
     7
 10
-561.14922999999999
 20
79.980705
 30
0.0
 11
-548.82770000000005
 21
79.980705
 31
0.0
  0
LINE
  5
B64
  8
0
  6
CONTINUOUS
 62
     7
 10
-578.32714999999985
 20
96.065926000000005
 30
0.0
 11
-576.82714999999985
 21
96.065926000000005
 31
0.0
  0
LINE
  5
B65
  8
0
  6
CONTINUOUS
 62
     7
 10
-578.32714999999985
 20
98.197936999999996
 30
0.0
 11
-575.03345000000002
 21
98.197936999999996
 31
0.0
  0
LINE
  5
B66
  8
0
  6
CONTINUOUS
 62
     7
 10
-578.32714999999985
 20
93.347983999999997
 30
0.0
 11
-576.82709
 21
93.216742999999994
 31
0.0
  0
LINE
  5
B67
  8
0
  6
CONTINUOUS
 62
     7
 10
-578.32714999999985
 20
93.347954000000001
 30
0.0
 11
-578.32714999999985
 21
113.34796999999971
 31
0.0
  0
LINE
  5
B68
  8
0
  6
CONTINUOUS
 62
     7
 10
-574.82720999999981
 20
77.955078
 30
0.0
 11
-574.82720999999981
 21
79.015006999999983
 31
0.0
  0
LINE
  5
B69
  8
0
  6
CONTINUOUS
 62
     7
 10
-574.82720999999981
 20
87.721740999999994
 30
0.0
 11
-574.82720999999981
 21
89.084594999999965
 31
0.0
  0
LINE
  5
B6A
  8
0
  6
CONTINUOUS
 62
     7
 10
-574.82720999999981
 20
107.7346899999999
 30
0.0
 11
-574.82720999999981
 21
108.89558
 31
0.0
  0
LINE
  5
B6B
  8
0
  6
CONTINUOUS
 62
     7
 10
-574.82720999999981
 20
97.740837000000013
 30
0.0
 11
-574.82720999999981
 21
98.952217000000005
 31
0.0
  0
LINE
  5
B6C
  8
0
  6
CONTINUOUS
 62
     7
 10
-572.82714999999985
 20
109.34796
 30
0.0
 11
-575.82714999999985
 21
109.34796
 31
0.0
  0
LINE
  5
B6D
  8
0
  6
CONTINUOUS
 62
     7
 10
-572.82714999999985
 20
107.3479699999999
 30
0.0
 11
-575.82714999999985
 21
107.3479699999999
 31
0.0
  0
LINE
  5
B6E
  8
0
  6
CONTINUOUS
 62
     7
 10
-572.82714999999985
 20
99.347954000000001
 30
0.0
 11
-575.82714999999985
 21
99.347954000000001
 31
0.0
  0
LINE
  5
B6F
  8
0
  6
CONTINUOUS
 62
     7
 10
-572.82714999999985
 20
97.347960999999998
 30
0.0
 11
-575.82714999999985
 21
97.347960999999998
 31
0.0
  0
LINE
  5
B70
  8
0
  6
CONTINUOUS
 62
     7
 10
-572.82714999999985
 20
89.347969000000006
 30
0.0
 11
-575.82714999999985
 21
89.347969000000006
 31
0.0
  0
LINE
  5
B71
  8
0
  6
CONTINUOUS
 62
     7
 10
-572.82714999999985
 20
87.347954000000016
 30
0.0
 11
-575.82714999999985
 21
87.347954000000016
 31
0.0
  0
LINE
  5
B72
  8
0
  6
CONTINUOUS
 62
     7
 10
-574.97075999999981
 20
79.649017000000001
 30
0.0
 11
-576.12114999999994
 21
80.002860999999982
 31
0.0
  0
LINE
  5
B73
  8
0
  6
CONTINUOUS
 62
     7
 10
-574.67687999999987
 20
79.60478999999998
 30
0.0
 11
-572.82714999999985
 21
79.60478999999998
 31
0.0
  0
LINE
  5
B74
  8
0
  6
CONTINUOUS
 62
     7
 10
-575.01531999999975
 20
77.739067000000006
 30
0.0
 11
-576.2199099999998
 21
78.253547999999981
 31
0.0
  0
LINE
  5
B75
  8
0
  6
CONTINUOUS
 62
     7
 10
-574.62249999999995
 20
77.658698999999999
 30
0.0
 11
-572.52722000000006
 21
77.658698999999999
 31
0.0
  0
LINE
  5
B76
  8
0
  6
CONTINUOUS
 62
     7
 10
-458.00506999999999
 20
79.980705
 30
0.0
 11
-474.52719000000002
 21
79.980705
 31
0.0
  0
LINE
  5
B77
  8
0
  6
CONTINUOUS
 62
     7
 10
-475.52715999999992
 20
80.980712999999994
 30
0.0
 11
-475.52715999999992
 21
81.848197999999968
 31
0.0
  0
LINE
  5
B78
  8
0
  6
CONTINUOUS
 62
     7
 10
-474.32715000000002
 20
83.082320999999965
 30
0.0
 11
-465.05712999999997
 21
83.347938999999997
 31
0.0
  0
LINE
  5
B79
  8
0
  6
CONTINUOUS
 62
     7
 10
-561.14922999999999
 20
76.624886000000004
 30
0.0
 11
-505.82717999999988
 21
76.624886000000004
 31
0.0
  0
LINE
  5
B7A
  8
0
  6
CONTINUOUS
 62
     7
 10
-461.48279000000002
 20
77.347968999999978
 30
0.0
 11
-505.82717999999988
 21
77.347968999999978
 31
0.0
  0
LINE
  5
B7B
  8
0
  6
CONTINUOUS
 62
     7
 10
-461.48279000000002
 20
79.347960999999984
 30
0.0
 11
-505.82717999999988
 21
79.347960999999984
 31
0.0
  0
LINE
  5
B7C
  8
0
  6
CONTINUOUS
 62
     7
 10
-561.36565999999993
 20
86.861762999999968
 30
0.0
 11
-554.32763999999986
 21
86.861762999999968
 31
0.0
  0
LINE
  5
B7D
  8
0
  6
CONTINUOUS
 62
     7
 10
-554.32763999999986
 20
87.347954000000016
 30
0.0
 11
-560.46172999999999
 21
87.347954000000016
 31
0.0
  0
LINE
  5
B7E
  8
0
  6
CONTINUOUS
 62
     7
 10
-561.36565999999993
 20
89.784720999999948
 30
0.0
 11
-554.32763999999986
 21
89.784720999999948
 31
0.0
  0
LINE
  5
B7F
  8
0
  6
CONTINUOUS
 62
     7
 10
-554.32763999999986
 20
89.347969000000006
 30
0.0
 11
-560.46172999999999
 21
89.347969000000006
 31
0.0
  0
LINE
  5
B80
  8
0
  6
CONTINUOUS
 62
     7
 10
-561.49621999999988
 20
97.004456000000005
 30
0.0
 11
-554.32763999999986
 21
97.004456000000005
 31
0.0
  0
LINE
  5
B81
  8
0
  6
CONTINUOUS
 62
     7
 10
-554.32763999999986
 20
97.347960999999998
 30
0.0
 11
-560.46172999999999
 21
97.347960999999998
 31
0.0
  0
LINE
  5
B82
  8
0
  6
CONTINUOUS
 62
     7
 10
-554.32763999999986
 20
99.347954000000001
 30
0.0
 11
-560.46172999999999
 21
99.347954000000001
 31
0.0
  0
LINE
  5
B83
  8
0
  6
CONTINUOUS
 62
     7
 10
-561.49621999999988
 20
99.666327999999993
 30
0.0
 11
-554.32763999999986
 21
99.666327999999993
 31
0.0
  0
LINE
  5
B84
  8
0
  6
CONTINUOUS
 62
     7
 10
-561.55829000000006
 20
107.07514
 30
0.0
 11
-556.32770000000005
 21
107.07514
 31
0.0
  0
LINE
  5
B85
  8
0
  6
CONTINUOUS
 62
     7
 10
-556.32770000000005
 20
107.3479699999999
 30
0.0
 11
-560.46172999999999
 21
107.3479699999999
 31
0.0
  0
LINE
  5
B86
  8
0
  6
CONTINUOUS
 62
     7
 10
-556.32770000000005
 20
109.34796
 30
0.0
 11
-560.46172999999999
 21
109.34796
 31
0.0
  0
LINE
  5
B87
  8
0
  6
CONTINUOUS
 62
     7
 10
-561.55829000000006
 20
109.61297999999979
 30
0.0
 11
-556.32770000000005
 21
109.61297999999979
 31
0.0
  0
LINE
  5
B88
  8
0
  6
CONTINUOUS
 62
     7
 10
-475.52715999999992
 20
145.71514999999991
 30
0.0
 11
-475.52715999999992
 21
144.8477199999999
 31
0.0
  0
LINE
  5
B89
  8
0
  6
CONTINUOUS
 62
     7
 10
-458.00506999999999
 20
146.7151299999999
 30
0.0
 11
-474.52719000000002
 21
146.7151299999999
 31
0.0
  0
LINE
  5
B8A
  8
0
  6
CONTINUOUS
 62
     7
 10
-561.55829000000006
 20
117.08288999999991
 30
0.0
 11
-556.32770000000005
 21
117.08288999999991
 31
0.0
  0
LINE
  5
B8B
  8
0
  6
CONTINUOUS
 62
     7
 10
-561.55829000000006
 20
119.6207299999999
 30
0.0
 11
-556.32770000000005
 21
119.6207299999999
 31
0.0
  0
LINE
  5
B8C
  8
0
  6
CONTINUOUS
 62
     7
 10
-561.49621999999988
 20
127.02961000000001
 30
0.0
 11
-554.32763999999986
 21
127.02961000000001
 31
0.0
  0
LINE
  5
B8D
  8
0
  6
CONTINUOUS
 62
     7
 10
-561.49621999999988
 20
129.6914699999997
 30
0.0
 11
-554.32763999999986
 21
129.6914699999997
 31
0.0
  0
LINE
  5
B8E
  8
0
  6
CONTINUOUS
 62
     7
 10
-561.36565999999993
 20
136.9111199999997
 30
0.0
 11
-554.32763999999986
 21
136.9111199999997
 31
0.0
  0
LINE
  5
B8F
  8
0
  6
CONTINUOUS
 62
     7
 10
-561.36565999999993
 20
139.83411000000001
 30
0.0
 11
-554.32763999999986
 21
139.83411000000001
 31
0.0
  0
LINE
  5
B90
  8
0
  6
CONTINUOUS
 62
     7
 10
-561.14984000000004
 20
146.7151299999999
 30
0.0
 11
-548.82770000000005
 21
146.7151299999999
 31
0.0
  0
LINE
  5
B91
  8
0
  6
CONTINUOUS
 62
     7
 10
-561.14984000000004
 20
150.07097999999991
 30
0.0
 11
-458.00506999999999
 21
150.07097999999991
 31
0.0
  0
LINE
  5
B92
  8
0
  6
CONTINUOUS
 62
     7
 10
-556.32770000000005
 20
117.34795
 30
0.0
 11
-560.46172999999999
 21
117.34795
 31
0.0
  0
LINE
  5
B93
  8
0
  6
CONTINUOUS
 62
     7
 10
-556.32770000000005
 20
119.3479699999999
 30
0.0
 11
-560.46172999999999
 21
119.3479699999999
 31
0.0
  0
LINE
  5
B94
  8
0
  6
CONTINUOUS
 62
     7
 10
-554.32763999999986
 20
127.34796
 30
0.0
 11
-560.46172999999999
 21
127.34796
 31
0.0
  0
LINE
  5
B95
  8
0
  6
CONTINUOUS
 62
     7
 10
-554.32763999999986
 20
129.34795999999969
 30
0.0
 11
-560.46172999999999
 21
129.34795999999969
 31
0.0
  0
LINE
  5
B96
  8
0
  6
CONTINUOUS
 62
     7
 10
-554.32763999999986
 20
137.34796
 30
0.0
 11
-560.46172999999999
 21
137.34796
 31
0.0
  0
LINE
  5
B97
  8
0
  6
CONTINUOUS
 62
     7
 10
-554.32763999999986
 20
139.34796
 30
0.0
 11
-560.46172999999999
 21
139.34796
 31
0.0
  0
LINE
  5
B98
  8
0
  6
CONTINUOUS
 62
     7
 10
-461.48279000000002
 20
147.34795
 30
0.0
 11
-560.46172999999999
 21
147.34795
 31
0.0
  0
LINE
  5
B99
  8
0
  6
CONTINUOUS
 62
     7
 10
-461.48279000000002
 20
149.34796
 30
0.0
 11
-560.46172999999999
 21
149.34796
 31
0.0
  0
LINE
  5
B9A
  8
0
  6
CONTINUOUS
 62
     7
 10
-578.32714999999985
 20
130.62994
 30
0.0
 11
-576.82714999999985
 21
130.62994
 31
0.0
  0
LINE
  5
B9B
  8
0
  6
CONTINUOUS
 62
     7
 10
-578.32714999999985
 20
128.4979899999999
 30
0.0
 11
-573.6496599999997
 21
128.4979899999999
 31
0.0
  0
LINE
  5
B9C
  8
0
  6
CONTINUOUS
 62
     7
 10
-578.3272099999997
 20
133.34792999999999
 30
0.0
 11
-576.82714999999985
 21
133.4791699999997
 31
0.0
  0
LINE
  5
B9D
  8
0
  6
CONTINUOUS
 62
     7
 10
-578.32714999999985
 20
133.34795999999969
 30
0.0
 11
-578.32714999999985
 21
113.34796999999971
 31
0.0
  0
LINE
  5
B9E
  8
0
  6
CONTINUOUS
 62
     7
 10
-574.82720999999981
 20
162.84412
 30
0.0
 11
-574.82720999999981
 21
162.31836000000001
 31
0.0
  0
LINE
  5
B9F
  8
0
  6
CONTINUOUS
 62
     7
 10
-574.82720999999981
 20
160.7444899999999
 30
0.0
 11
-574.82720999999981
 21
160.1984299999998
 31
0.0
  0
LINE
  5
BA0
  8
0
  6
CONTINUOUS
 62
     7
 10
-574.82720999999981
 20
156.17838999999981
 30
0.0
 11
-574.82720999999981
 21
155.70623999999981
 31
0.0
  0
LINE
  5
BA1
  8
0
  6
CONTINUOUS
 62
     7
 10
-574.82720999999981
 20
148.74082999999999
 30
0.0
 11
-574.82720999999981
 21
147.68091000000001
 31
0.0
  0
LINE
  5
BA2
  8
0
  6
CONTINUOUS
 62
     7
 10
-574.82720999999981
 20
138.97412
 30
0.0
 11
-574.82720999999981
 21
137.61130999999969
 31
0.0
  0
LINE
  5
BA3
  8
0
  6
CONTINUOUS
 62
     7
 10
-574.82720999999981
 20
118.9611799999999
 30
0.0
 11
-574.82720999999981
 21
117.80028999999971
 31
0.0
  0
LINE
  5
BA4
  8
0
  6
CONTINUOUS
 62
     7
 10
-574.82720999999981
 20
128.95508000000001
 30
0.0
 11
-574.82720999999981
 21
127.74365
 31
0.0
  0
LINE
  5
BA5
  8
0
  6
CONTINUOUS
 62
     7
 10
-572.82714999999985
 20
117.34795
 30
0.0
 11
-575.82714999999985
 21
117.34795
 31
0.0
  0
LINE
  5
BA6
  8
0
  6
CONTINUOUS
 62
     7
 10
-572.82714999999985
 20
119.3479699999999
 30
0.0
 11
-575.82714999999985
 21
119.3479699999999
 31
0.0
  0
LINE
  5
BA7
  8
0
  6
CONTINUOUS
 62
     7
 10
-572.82714999999985
 20
127.34796
 30
0.0
 11
-575.82714999999985
 21
127.34796
 31
0.0
  0
LINE
  5
BA8
  8
0
  6
CONTINUOUS
 62
     7
 10
-572.82714999999985
 20
129.34795999999969
 30
0.0
 11
-575.82714999999985
 21
129.34795999999969
 31
0.0
  0
LINE
  5
BA9
  8
0
  6
CONTINUOUS
 62
     7
 10
-572.82714999999985
 20
137.34796
 30
0.0
 11
-575.82714999999985
 21
137.34796
 31
0.0
  0
LINE
  5
BAA
  8
0
  6
CONTINUOUS
 62
     7
 10
-572.82714999999985
 20
139.34796
 30
0.0
 11
-575.82714999999985
 21
139.34796
 31
0.0
  0
LINE
  5
BAB
  8
0
  6
CONTINUOUS
 62
     7
 10
-575.04681000000005
 20
159.73314999999991
 30
0.0
 11
-576.29552999999976
 21
159.07125999999991
 31
0.0
  0
LINE
  5
BAC
  8
0
  6
CONTINUOUS
 62
     7
 10
-575.04047000000003
 20
161.84275999999991
 30
0.0
 11
-576.27979000000005
 21
161.21373
 31
0.0
  0
LINE
  5
BAD
  8
0
  6
CONTINUOUS
 62
     7
 10
-574.97082999999986
 20
147.0469199999998
 30
0.0
 11
-576.12114999999994
 21
146.69306999999981
 31
0.0
  0
LINE
  5
BAE
  8
0
  6
CONTINUOUS
 62
     7
 10
-575.06127999999978
 20
155.19574
 30
0.0
 11
-576.33258000000001
 21
154.45107999999991
 31
0.0
  0
LINE
  5
BAF
  8
0
  6
CONTINUOUS
 62
     7
 10
-574.58789000000002
 20
161.95105000000001
 30
0.0
 11
-572.32714999999996
 21
161.95105000000001
 31
0.0
  0
LINE
  5
BB0
  8
0
  6
CONTINUOUS
 62
     7
 10
-574.57854999999995
 20
159.84961000000001
 30
0.0
 11
-572.82714999999985
 21
159.84961000000001
 31
0.0
  0
LINE
  5
BB1
  8
0
  6
CONTINUOUS
 62
     7
 10
-574.55584999999985
 20
155.33288999999991
 30
0.0
 11
-572.82714999999985
 21
155.33288999999991
 31
0.0
  0
LINE
  5
BB2
  8
0
  6
CONTINUOUS
 62
     7
 10
-574.67687999999987
 20
147.09105
 30
0.0
 11
-572.82714999999985
 21
147.09105
 31
0.0
  0
LINE
  5
BB3
  8
0
  6
CONTINUOUS
 62
     7
 10
-574.52855999999986
 20
156.4728199999999
 30
0.0
 11
-571.82720999999981
 21
156.4728199999999
 31
0.0
  0
LINE
  5
BB4
  8
0
  6
CONTINUOUS
 62
     7
 10
-574.55016999999998
 20
160.98956000000001
 30
0.0
 11
-571.82720999999981
 21
160.98956000000001
 31
0.0
  0
LINE
  5
BB5
  8
0
  6
CONTINUOUS
 62
     7
 10
-575.01531999999975
 20
148.95688000000001
 30
0.0
 11
-576.2199099999998
 21
148.44239999999991
 31
0.0
  0
LINE
  5
BB6
  8
0
  6
CONTINUOUS
 62
     7
 10
-575.07684000000006
 20
156.3091
 30
0.0
 11
-576.37549000000001
 21
155.45752999999991
 31
0.0
  0
LINE
  5
BB7
  8
0
  6
CONTINUOUS
 62
     7
 10
-575.06469999999979
 20
160.84708999999981
 30
0.0
 11
-576.34173999999985
 21
160.08080000000001
 31
0.0
  0
LINE
  5
BB8
  8
0
  6
CONTINUOUS
 62
     7
 10
-575.05932999999982
 20
162.96308999999991
 30
0.0
 11
-576.32758000000001
 21
162.23009999999999
 31
0.0
  0
LINE
  5
BB9
  8
0
  6
CONTINUOUS
 62
     7
 10
-574.62249999999995
 20
149.03717
 30
0.0
 11
-572.52722000000006
 21
149.03717
 31
0.0
  0
LINE
  5
BBA
  8
0
  6
CONTINUOUS
 62
     7
 10
-574.55895999999996
 20
163.09735000000001
 30
0.0
 11
-572.32714999999996
 21
163.09735000000001
 31
0.0
  0
LINE
  5
BBB
  8
0
  6
CONTINUOUS
 62
     7
 10
-576.82714999999985
 20
161.3642999999999
 30
0.0
 11
-576.82714999999985
 21
118.34796
 31
0.0
  0
LINE
  5
BBC
  8
0
  6
CONTINUOUS
 62
     7
 10
-465.05715999999978
 20
143.34796
 30
0.0
 11
-465.05715999999978
 21
83.347968999999978
 31
0.0
  0
LINE
  5
BBD
  8
0
  6
CONTINUOUS
 62
     7
 10
-165.28095999999991
 20
205.34792999999991
 30
0.0
 11
-207.49713
 21
201.65450000000001
 31
0.0
  0
LINE
  5
BBE
  8
0
  6
CONTINUOUS
 62
     7
 10
-454.82718
 20
169.34796
 30
0.0
 11
-454.82718
 21
57.347957999999998
 31
0.0
  0
LINE
  5
BBF
  8
0
  6
CONTINUOUS
 62
     7
 10
-70.280959999999993
 20
150.34795
 30
0.0
 11
-73.974395999999999
 21
192.56412
 31
0.0
  0
LINE
  5
BC0
  8
0
  6
CONTINUOUS
 62
     1
 10
-106.78201
 20
59.347949999999997
 30
0.0
 11
-83.906181000000004
 21
59.347949999999997
 31
0.0
  0
LINE
  5
BC1
  8
0
  6
CONTINUOUS
 62
     3
 10
-533.82714999999985
 20
79.848206000000005
 30
0.0
 11
-548.82770000000005
 21
79.848206000000005
 31
0.0
  0
LINE
  5
BC2
  8
0
  6
CONTINUOUS
 62
     7
 10
-220.28093999999999
 20
150.34795
 30
0.0
 11
-216.58751000000001
 21
192.56413000000001
 31
0.0
  0
LINE
  5
BC3
  8
0
  6
CONTINUOUS
 62
     3
 10
-556.32770000000005
 20
105.84772
 30
0.0
 11
-552.82764000000009
 21
105.84772
 31
0.0
  0
LINE
  5
BC4
  8
0
  6
CONTINUOUS
 62
     3
 10
-533.82714999999985
 20
144.8477199999999
 30
0.0
 11
-474.32718
 21
144.8477199999999
 31
0.0
  0
LINE
  5
BC5
  8
0
  6
CONTINUOUS
 62
     3
 10
-533.82714999999985
 20
81.848197999999968
 30
0.0
 11
-474.32718
 21
81.848197999999968
 31
0.0
  0
LINE
  5
BC6
  8
0
  6
CONTINUOUS
 62
     7
 10
-220.28093999999999
 20
110.3479499999999
 30
0.0
 11
-216.61766
 21
68.476394999999997
 31
0.0
  0
LINE
  5
BC7
  8
0
  6
CONTINUOUS
 62
     3
 10
-533.82714999999985
 20
79.848206000000005
 30
0.0
 11
-533.82714999999985
 21
83.348197999999982
 31
0.0
  0
LINE
  5
BC8
  8
0
  6
CONTINUOUS
 62
     7
 10
-70.280951999999999
 20
110.34796
 30
0.0
 11
-73.944243999999998
 21
68.476401999999993
 31
0.0
  0
LINE
  5
BC9
  8
0
  6
CONTINUOUS
 62
     1
 10
-220.28093999999999
 20
130.34795999999969
 30
0.0
 11
-220.28093999999999
 21
150.34795
 31
0.0
  0
LINE
  5
BCA
  8
0
  6
CONTINUOUS
 62
     7
 10
-125.28095
 20
205.34796
 30
0.0
 11
-83.064781000000025
 21
201.65452999999991
 31
0.0
  0
LINE
  5
BCB
  8
0
  6
CONTINUOUS
 62
     3
 10
-548.82770000000005
 20
79.848206000000005
 30
0.0
 11
-548.82770000000005
 21
83.348197999999982
 31
0.0
  0
LINE
  5
BCC
  8
0
  6
CONTINUOUS
 62
     1
 10
-145.2809399999999
 20
205.34796
 30
0.0
 11
-165.28093000000001
 21
205.34796
 31
0.0
  0
LINE
  5
BCD
  8
0
  6
CONTINUOUS
 62
     7
 10
-106.78203000000001
 20
59.347954000000001
 30
0.0
 11
-109.9574499999997
 21
64.847954000000001
 31
0.0
  0
LINE
  5
BCE
  8
0
  6
CENTER
 62
     7
 10
-505.82717999999988
 20
151.94183000000001
 30
0.0
 11
-505.82717999999988
 21
70.695243999999974
 31
0.0
  0
LINE
  5
BCF
  8
0
  6
CONTINUOUS
 62
     7
 10
-164.3900099999999
 20
52.256790000000002
 30
0.0
 11
-164.3900099999999
 21
58.030312000000002
 31
0.0
  0
LINE
  5
BD0
  8
0
  6
CONTINUOUS
 62
     7
 10
-90.299683000000002
 20
148.81318999999991
 30
0.0
 11
-90.299683000000002
 21
154.58669
 31
0.0
  0
LINE
  5
BD1
  8
0
  6
CONTINUOUS
 62
     7
 10
-104.66632
 20
101.5127699999997
 30
0.0
 11
-116.684
 21
139.41515999999979
 31
0.0
  0
LINE
  5
BD2
  8
0
  6
CONTINUOUS
 62
     7
 10
-137.6677399999999
 20
81.123412999999999
 30
0.0
 11
-166.18613999999999
 21
108.83114
 31
0.0
  0
LINE
  5
BD3
  8
0
  6
CONTINUOUS
 62
     7
 10
-433.36642000000001
 20
48.810032
 30
0.0
 11
-422.82717999999988
 21
48.53405399999999
 31
0.0
  0
LINE
  5
BD4
  8
0
  6
CONTINUOUS
 62
     7
 10
-377.82718
 20
62.724735000000003
 30
0.0
 11
-377.82718
 21
89.812965000000005
 31
0.0
  0
LINE
  5
BD5
  8
0
  6
CONTINUOUS
 62
     1
 10
-82.44188699999998
 20
128.84796
 30
0.0
 11
-93.626732000000004
 21
128.84796
 31
0.0
  0
LINE
  5
BD6
  8
0
  6
CONTINUOUS
 62
     1
 10
-82.44188699999998
 20
131.84796
 30
0.0
 11
-96.902443000000005
 21
131.84796
 31
0.0
  0
LINE
  5
BD7
  8
0
  6
CONTINUOUS
 62
     1
 10
-208.12001000000001
 20
131.84796
 30
0.0
 11
-192.06503000000001
 21
131.84796
 31
0.0
  0
LINE
  5
BD8
  8
0
  6
CONTINUOUS
 62
     1
 10
-208.12001000000001
 20
128.84796
 30
0.0
 11
-192.06503000000001
 21
128.84796
 31
0.0
  0
LINE
  5
BD9
  8
0
  6
CONTINUOUS
 62
     1
 10
-143.7809399999999
 20
193.18702999999991
 30
0.0
 11
-143.7809399999999
 21
177.1320199999999
 31
0.0
  0
LINE
  5
BDA
  8
0
  6
CONTINUOUS
 62
     1
 10
-146.7809399999999
 20
193.18702999999991
 30
0.0
 11
-146.7809399999999
 21
177.1320199999999
 31
0.0
  0
LINE
  5
BDB
  8
0
  6
CONTINUOUS
 62
     7
 10
-96.445807999999985
 20
124.82187999999979
 30
0.0
 11
-87.421599999999998
 21
100.02808
 31
0.0
  0
LINE
  5
BDC
  8
0
  6
CENTER
 62
     1
 10
-127.42624000000001
 20
113.34796999999971
 30
0.0
 11
-165.77703999999969
 21
113.34796999999971
 31
0.0
  0
LINE
  5
BDD
  8
0
  6
CONTINUOUS
 62
     7
 10
-235.28095999999999
 20
90.347983999999997
 30
0.0
 11
-238.2809399999999
 21
95.547966000000017
 31
0.0
  0
LINE
  5
BDE
  8
0
  6
CONTINUOUS
 62
     7
 10
-220.28093999999999
 20
146.84796
 30
0.0
 11
-230.28093999999999
 21
146.84796
 31
0.0
  0
LINE
  5
BDF
  8
0
  6
CONTINUOUS
 62
     7
 10
-238.2809399999999
 20
95.547966000000017
 30
0.0
 11
-238.2809399999999
 21
131.15797000000001
 31
0.0
  0
LINE
  5
BE0
  8
0
  6
CONTINUOUS
 62
     7
 10
-230.28093999999999
 20
143.34796
 30
0.0
 11
-230.28093999999999
 21
146.84796
 31
0.0
  0
LINE
  5
BE1
  8
0
  6
CONTINUOUS
 62
     7
 10
-235.28095999999999
 20
136.34798000000001
 30
0.0
 11
-238.28095999999991
 21
131.15797000000001
 31
0.0
  0
LINE
  5
BE2
  8
0
  6
CONTINUOUS
 62
     7
 10
-235.2809399999999
 20
83.347968999999978
 30
0.0
 11
-235.2809399999999
 21
143.34796
 31
0.0
  0
LINE
  5
BE3
  8
0
  6
CONTINUOUS
 62
     7
 10
-235.2809399999999
 20
143.34796
 30
0.0
 11
-220.28093999999999
 21
143.34796
 31
0.0
  0
LINE
  5
BE4
  8
0
  6
CONTINUOUS
 62
     7
 10
-235.2809399999999
 20
83.347968999999978
 30
0.0
 11
-217.9187499999999
 21
83.347968999999978
 31
0.0
  0
LINE
  5
BE5
  8
0
  6
CONTINUOUS
 62
     7
 10
-217.6125199999999
 20
79.847977
 30
0.0
 11
-230.28093999999999
 21
79.847977
 31
0.0
  0
LINE
  5
BE6
  8
0
  6
CONTINUOUS
 62
     7
 10
-230.28093999999999
 20
83.347968999999978
 30
0.0
 11
-230.28093999999999
 21
79.847977
 31
0.0
  0
LINE
  5
BE7
  8
0
  6
CONTINUOUS
 62
     7
 10
-120.80161
 20
151.99886000000001
 30
0.0
 11
-99.459525999999997
 21
173.34093999999999
 31
0.0
  0
LINE
  5
BE8
  8
0
  6
CONTINUOUS
 62
     7
 10
-434.82718
 20
60.977553999999998
 30
0.0
 11
-434.82718
 21
50.309520999999997
 31
0.0
  0
LINE
  5
BE9
  8
0
  6
CONTINUOUS
 62
     7
 10
-428.82718
 20
171.72961000000001
 30
0.0
 11
-428.82718
 21
157.34795999999969
 31
0.0
  0
LINE
  5
BEA
  8
0
  6
CONTINUOUS
 62
     7
 10
-446.82718
 20
145.28540000000001
 30
0.0
 11
-434.82718
 21
145.28540000000001
 31
0.0
  0
LINE
  5
BEB
  8
0
  6
CONTINUOUS
 62
     7
 10
-446.82718
 20
67.347954000000001
 30
0.0
 11
-428.82718
 21
67.347954000000001
 31
0.0
  0
LINE
  5
BEC
  8
0
  6
CONTINUOUS
 62
     7
 10
-446.82718
 20
81.410529999999966
 30
0.0
 11
-428.82718
 21
81.410529999999966
 31
0.0
  0
LINE
  5
BED
  8
0
  6
CONTINUOUS
 62
     7
 10
-446.82718
 20
159.34798000000001
 30
0.0
 11
-428.82718
 21
159.34798000000001
 31
0.0
  0
LINE
  5
BEE
  8
0
  6
CONTINUOUS
 62
     7
 10
-446.82715000000002
 20
169.34798000000001
 30
0.0
 11
-430.28792999999979
 21
169.7810699999998
 31
0.0
  0
LINE
  5
BEF
  8
0
  6
CONTINUOUS
 62
     7
 10
-427.36641999999989
 20
173.22910999999991
 30
0.0
 11
-422.82720999999981
 21
173.34798000000001
 31
0.0
  0
LINE
  5
BF0
  8
0
  6
CONTINUOUS
 62
     7
 10
-428.82718
 20
62.556083999999991
 30
0.0
 11
-428.82718
 21
113.34796999999971
 31
0.0
  0
LINE
  5
BF1
  8
0
  6
CONTINUOUS
 62
     7
 10
-434.82718
 20
139.13068000000001
 30
0.0
 11
-428.82718
 21
139.13068000000001
 31
0.0
  0
LINE
  5
BF2
  8
0
  6
CONTINUOUS
 62
     7
 10
-446.82720999999998
 20
57.347960999999998
 30
0.0
 11
-436.28792999999962
 21
57.071980000000003
 31
0.0
  0
LINE
  5
BF3
  8
0
  6
CONTINUOUS
 62
     7
 10
-362.82718
 20
149.37380999999991
 30
0.0
 11
-362.82718
 21
111.10353000000001
 31
0.0
  0
LINE
  5
BF4
  8
0
  6
CONTINUOUS
 62
     7
 10
-434.82718
 20
157.34795999999969
 30
0.0
 11
-434.82718
 21
139.13068000000001
 31
0.0
  0
LINE
  5
BF5
  8
0
  6
CONTINUOUS
 62
     7
 10
-428.82718
 20
153.22158999999991
 30
0.0
 11
-428.82718
 21
113.34796999999971
 31
0.0
  0
LINE
  5
BF6
  8
0
  6
CONTINUOUS
 62
     7
 10
-434.82718
 20
157.34795999999969
 30
0.0
 11
-428.82718
 21
157.34795999999969
 31
0.0
  0
LINE
  5
BF7
  8
0
  6
CONTINUOUS
 62
     7
 10
-377.82718
 20
203.06738000000001
 30
0.0
 11
-377.82718
 21
170.78832999999969
 31
0.0
  0
LINE
  5
BF8
  8
0
  6
CENTER
 62
     7
 10
-379.66492
 20
70.243881000000002
 30
0.0
 11
-362.20882999999992
 21
70.243881000000002
 31
0.0
  0
LINE
  5
BF9
  8
0
  6
CONTINUOUS
 62
     7
 10
-372.82715000000002
 20
189.8479599999998
 30
0.0
 11
-372.82715000000002
 21
75.732658000000001
 31
0.0
  0
LINE
  5
BFA
  8
0
  6
CONTINUOUS
 62
     7
 10
-386.00164999999998
 20
199.57605000000001
 30
0.0
 11
-380.72243999999989
 21
199.76041000000001
 31
0.0
  0
LINE
  5
BFB
  8
0
  6
CONTINUOUS
 62
     7
 10
-367.82718
 20
64.743201999999997
 30
0.0
 11
-363.82720999999998
 21
64.847945999999993
 31
0.0
  0
LINE
  5
BFC
  8
0
  6
CONTINUOUS
 62
     7
 10
-367.82718
 20
200.34795999999989
 30
0.0
 11
-363.82715000000002
 21
200.34795999999989
 31
0.0
  0
LINE
  5
BFD
  8
0
  6
CONTINUOUS
 62
     7
 10
-375.89693999999992
 20
60.725948000000002
 30
0.0
 11
-367.82718
 21
60.444144999999992
 31
0.0
  0
LINE
  5
BFE
  8
0
  6
CONTINUOUS
 62
     7
 10
-367.82718
 20
205.34796
 30
0.0
 11
-367.82718
 21
60.444144999999992
 31
0.0
  0
LINE
  5
BFF
  8
0
  6
CONTINUOUS
 62
     7
 10
-422.82717999999988
 20
173.34796
 30
0.0
 11
-422.82717999999988
 21
48.534050000000001
 31
0.0
  0
LINE
  5
C00
  8
0
  6
CONTINUOUS
 62
     7
 10
-183.77988999999991
 20
59.347957999999991
 30
0.0
 11
-180.6044599999999
 21
64.847960999999998
 31
0.0
  0
LINE
  5
C01
  8
0
  6
CONTINUOUS
 62
     7
 10
-363.82715000000002
 20
109.27507
 30
0.0
 11
-363.41292999999968
 21
109.6892899999997
 31
0.0
  0
LINE
  5
C02
  8
0
  6
CONTINUOUS
 62
     7
 10
-363.82715000000002
 20
130.34795999999969
 30
0.0
 11
-363.82715000000002
 21
64.847954000000001
 31
0.0
  0
LINE
  5
C03
  8
0
  6
CONTINUOUS
 62
     7
 10
-434.82718
 20
155.95481999999981
 30
0.0
 11
-422.82717999999988
 21
155.95481999999981
 31
0.0
  0
LINE
  5
C04
  8
0
  6
CONTINUOUS
 62
     7
 10
-363.82715000000002
 20
200.34795999999989
 30
0.0
 11
-363.82715000000002
 21
130.34795999999969
 31
0.0
  0
LINE
  5
C05
  8
0
  6
CENTER
 62
     7
 10
-199.68685999999991
 20
184.75386
 30
0.0
 11
-210.94112000000001
 21
196.00811999999991
 31
0.0
  0
LINE
  5
C06
  8
0
  6
CONTINUOUS
 62
     7
 10
-375.89697000000001
 20
205.06614999999991
 30
0.0
 11
-367.82718
 21
205.34796
 31
0.0
  0
LINE
  5
C07
  8
0
  6
CONTINUOUS
 62
     7
 10
-166.9318699999998
 20
154.82728999999981
 30
0.0
 11
-188.27393000000001
 21
176.16936000000001
 31
0.0
  0
LINE
  5
C08
  8
0
  6
CONTINUOUS
 62
     7
 10
-123.6300399999997
 20
154.82728999999981
 30
0.0
 11
-102.2879599999999
 21
176.1693699999999
 31
0.0
  0
LINE
  5
C09
  8
0
  6
CENTER
 62
     7
 10
-91.529518000000024
 20
76.596519000000001
 30
0.0
 11
-79.242294000000001
 21
64.309296000000003
 31
0.0
  0
LINE
  5
C0A
  8
0
  6
CONTINUOUS
 62
     7
 10
-111.5700499999999
 20
79.589905000000002
 30
0.0
 11
-110.57071000000001
 21
77.97242
 31
0.0
  0
LINE
  5
C0B
  8
0
  6
CONTINUOUS
 62
     7
 10
-390.82715000000002
 20
426.22201999999987
 30
0.0
 11
-390.82715000000002
 21
297.77727999999968
 31
0.0
  0
LINE
  5
C0C
  8
0
  6
CENTER
 62
     7
 10
-380.22408999999999
 20
422.09496999999999
 30
0.0
 11
-360.22643999999991
 21
422.09496999999999
 31
0.0
  0
LINE
  5
C0D
  8
0
  6
CONTINUOUS
 62
     7
 10
-363.82718
 20
382.91806000000003
 30
0.0
 11
-363.41296
 21
382.50380999999999
 31
0.0
  0
LINE
  5
C0E
  8
0
  6
CONTINUOUS
 62
     7
 10
-375.89697000000001
 20
436.70910999999973
 30
0.0
 11
-367.82715000000002
 21
436.99090999999999
 31
0.0
  0
LINE
  5
C0F
  8
0
  6
CONTINUOUS
 62
     7
 10
-363.82715000000002
 20
431.99090999999999
 30
0.0
 11
-363.82715000000002
 21
291.99087999999989
 31
0.0
  0
LINE
  5
C10
  8
0
  6
CONTINUOUS
 62
     7
 10
-367.82718
 20
436.99088
 30
0.0
 11
-367.82718
 21
286.99088
 31
0.0
  0
LINE
  5
C11
  8
0
  6
CONTINUOUS
 62
     7
 10
-367.82718
 20
431.99090999999999
 30
0.0
 11
-363.82715000000002
 21
431.99090999999999
 31
0.0
  0
LINE
  5
C12
  8
0
  6
CONTINUOUS
 62
     7
 10
-372.82715000000002
 20
421.49090999999981
 30
0.0
 11
-372.82715000000002
 21
302.49087999999989
 31
0.0
  0
LINE
  5
C13
  8
0
  6
CONTINUOUS
 62
     7
 10
-386.00162
 20
431.21895999999992
 30
0.0
 11
-380.72243999999989
 21
431.40331999999989
 31
0.0
  0
LINE
  5
C14
  8
0
  6
CONTINUOUS
 62
     7
 10
-362.82718
 20
381.01672000000002
 30
0.0
 11
-362.82718
 21
342.74646000000001
 31
0.0
  0
LINE
  5
C15
  8
0
  6
CONTINUOUS
 62
     7
 10
-377.82718
 20
434.71030000000002
 30
0.0
 11
-377.82718
 21
402.43126999999998
 31
0.0
  0
LINE
  5
C16
  8
0
  6
CONTINUOUS
 62
     7
 10
-446.82715000000002
 20
393.93085000000002
 30
0.0
 11
-430.82715000000002
 21
393.93085000000002
 31
0.0
  0
LINE
  5
C17
  8
0
  6
CONTINUOUS
 62
     7
 10
-422.82714999999979
 20
301.99090999999999
 30
0.0
 11
-422.82714999999979
 21
421.99090999999987
 31
0.0
  0
LINE
  5
C18
  8
0
  6
CONTINUOUS
 62
     7
 10
-390.82715000000002
 20
301.15291999999999
 30
0.0
 11
-426.87952000000001
 21
302.09697999999992
 31
0.0
  0
LINE
  5
C19
  8
0
  6
CENTER
 62
     7
 10
-379.70019999999988
 20
301.88681000000008
 30
0.0
 11
-360.22643999999991
 21
301.88681000000008
 31
0.0
  0
LINE
  5
C1A
  8
0
  6
CONTINUOUS
 62
     7
 10
-428.82715000000002
 20
304.09631000000002
 30
0.0
 11
-428.82715000000002
 21
419.88547
 31
0.0
  0
LINE
  5
C1B
  8
0
  6
CONTINUOUS
 62
     7
 10
-446.82718
 20
407.99117999999987
 30
0.0
 11
-430.77483999999998
 21
408.4115299999998
 31
0.0
  0
LINE
  5
C1C
  8
0
  6
CONTINUOUS
 62
     7
 10
-363.82718
 20
341.06371999999999
 30
0.0
 11
-363.41292999999968
 21
341.47797000000008
 31
0.0
  0
LINE
  5
C1D
  8
0
  6
CONTINUOUS
 62
     7
 10
-446.82715000000002
 20
315.99056999999988
 30
0.0
 11
-430.77483999999998
 21
315.57024999999982
 31
0.0
  0
LINE
  5
C1E
  8
0
  6
CONTINUOUS
 62
     7
 10
-446.82715000000002
 20
330.05095999999992
 30
0.0
 11
-430.82715000000002
 21
330.05095999999992
 31
0.0
  0
LINE
  5
C1F
  8
0
  6
CONTINUOUS
 62
     7
 10
-446.82718
 20
305.49090999999981
 30
0.0
 11
-436.83285999999993
 21
305.22919000000002
 31
0.0
  0
LINE
  5
C20
  8
0
  6
CONTINUOUS
 62
     7
 10
-435.87952000000001
 20
304.95862
 30
0.0
 11
-430.1985199999998
 21
304.80984000000001
 31
0.0
  0
LINE
  5
C21
  8
0
  6
CONTINUOUS
 62
     7
 10
-437.82715000000002
 20
410.17516999999992
 30
0.0
 11
-437.82715000000002
 21
417.02382999999992
 31
0.0
  0
LINE
  5
C22
  8
0
  6
CONTINUOUS
 62
     7
 10
-446.82718
 20
418.49088
 30
0.0
 11
-436.83285999999993
 21
418.75258999999988
 31
0.0
  0
LINE
  5
C23
  8
0
  6
CONTINUOUS
 62
     7
 10
-435.87952000000001
 20
419.02312999999981
 30
0.0
 11
-430.1985199999998
 21
419.17191000000003
 31
0.0
  0
LINE
  5
C24
  8
0
  6
CONTINUOUS
 62
     7
 10
-426.87954999999999
 20
421.88477
 30
0.0
 11
-390.82715000000002
 21
422.82885999999991
 31
0.0
  0
LINE
  5
C25
  8
0
  6
CONTINUOUS
 62
     7
 10
-354.82720999999992
 20
364.99090999999987
 30
0.0
 11
-332.82718
 21
364.99090999999987
 31
0.0
  0
LINE
  5
C26
  8
0
  6
CONTINUOUS
 62
     7
 10
-360.82720999999992
 20
351.99090999999999
 30
0.0
 11
-360.82720999999992
 21
371.99090999999987
 31
0.0
  0
LINE
  5
C27
  8
0
  6
CONTINUOUS
 62
     7
 10
-354.82720999999992
 20
358.99090999999987
 30
0.0
 11
-332.82718
 21
358.99090999999987
 31
0.0
  0
LINE
  5
C28
  8
0
  6
CONTINUOUS
 62
     7
 10
-332.82718
 20
352.49090999999987
 30
0.0
 11
-332.82718
 21
371.49090999999987
 31
0.0
  0
LINE
  5
C29
  8
0
  6
CONTINUOUS
 62
     7
 10
-360.82720999999992
 20
371.49090999999987
 30
0.0
 11
-332.82718
 21
371.49090999999987
 31
0.0
  0
LINE
  5
C2A
  8
0
  6
CONTINUOUS
 62
     7
 10
-360.82720999999992
 20
352.49090999999987
 30
0.0
 11
-332.82718
 21
352.49090999999987
 31
0.0
  0
LINE
  5
C2B
  8
0
  6
CONTINUOUS
 62
     7
 10
-386.00162
 20
292.76281999999998
 30
0.0
 11
-380.72243999999989
 21
292.57846000000001
 31
0.0
  0
LINE
  5
C2C
  8
0
  6
CONTINUOUS
 62
     7
 10
-377.82718
 20
289.27147999999983
 30
0.0
 11
-377.82718
 21
321.55050999999992
 31
0.0
  0
LINE
  5
C2D
  8
0
  6
CONTINUOUS
 62
     7
 10
-354.82720999999992
 20
358.99090999999987
 30
0.0
 11
-354.82720999999992
 21
364.99090999999987
 31
0.0
  0
LINE
  5
C2E
  8
0
  6
CONTINUOUS
 62
     7
 10
-375.89697000000001
 20
287.27271000000002
 30
0.0
 11
-367.82715000000002
 21
286.99090999999999
 31
0.0
  0
LINE
  5
C2F
  8
0
  6
CONTINUOUS
 62
     7
 10
-367.82718
 20
291.99087999999989
 30
0.0
 11
-363.82715000000002
 21
291.99087999999989
 31
0.0
  0
LINE
  5
C30
  8
0
  6
CONTINUOUS
 62
     1
 10
-362.82715000000002
 20
371.99090999999987
 30
0.0
 11
-360.82720999999992
 21
371.99090999999987
 31
0.0
  0
LINE
  5
C31
  8
0
  6
CONTINUOUS
 62
     1
 10
-362.82715000000002
 20
351.99090999999999
 30
0.0
 11
-360.82720999999992
 21
351.99090999999999
 31
0.0
  0
LINE
  5
C32
  8
0
  6
CONTINUOUS
 62
     7
 10
-422.82714999999979
 20
417.51724000000002
 30
0.0
 11
-390.82715000000002
 21
417.51724000000002
 31
0.0
  0
LINE
  5
C33
  8
0
  6
CONTINUOUS
 62
     7
 10
-422.82714999999979
 20
306.46453999999972
 30
0.0
 11
-390.82715000000002
 21
306.46453999999972
 31
0.0
  0
LINE
  5
C34
  8
0
  6
CONTINUOUS
 62
     7
 10
-437.82715000000002
 20
313.80660999999992
 30
0.0
 11
-437.82715000000002
 21
306.95794999999993
 31
0.0
  0
ARC
  5
C35
  8
0
  6
CONTINUOUS
 62
     3
 10
-542.10004000000004
 20
285.49090999999999
 30
0.0
 40
7.5
 50
179.99997999999991
 51
0.000010017913
  0
ARC
  5
C36
  8
0
  6
CONTINUOUS
 62
     3
 10
-542.10004000000004
 20
285.49090999999999
 30
0.0
 40
4.0
 50
179.99997999999991
 51
0.000010017912
  0
ARC
  5
C37
  8
0
  6
CONTINUOUS
 62
     7
 10
-455.17394999999999
 20
407.32366999999988
 30
0.0
 40
1.502775999999999
 50
194.75642999999991
 51
269.87757999999991
  0
ARC
  5
C38
  8
0
  6
CONTINUOUS
 62
     7
 10
-455.17394999999999
 20
406.41363999999987
 30
0.0
 40
1.502775999999999
 50
194.75642999999991
 51
269.87757999999991
  0
ARC
  5
C39
  8
0
  6
CONTINUOUS
 62
     7
 10
-455.17394999999999
 20
404.56365999999991
 30
0.0
 40
1.502775999999999
 50
194.75642999999991
 51
269.87757999999991
  0
ARC
  5
C3A
  8
0
  6
CONTINUOUS
 62
     7
 10
-462.70196999999979
 20
421.8761599999998
 30
0.0
 40
2.0047290000000002
 50
15.173496
 51
89.861677999999998
  0
ARC
  5
C3B
  8
0
  6
CONTINUOUS
 62
     7
 10
-462.70196999999979
 20
420.96612999999962
 30
0.0
 40
2.0047290000000002
 50
15.173496
 51
89.861677999999998
  0
ARC
  5
C3C
  8
0
  6
CONTINUOUS
 62
     7
 10
-462.70196999999979
 20
419.11614999999989
 30
0.0
 40
2.0047290000000002
 50
15.173496
 51
89.861677999999998
  0
ARC
  5
C3D
  8
0
  6
CONTINUOUS
 62
     7
 10
-455.17394999999999
 20
322.26812999999999
 30
0.0
 40
1.502775999999999
 50
90.122413000000037
 51
165.24357000000001
  0
ARC
  5
C3E
  8
0
  6
CONTINUOUS
 62
     7
 10
-575.83392000000003
 20
410.00885
 30
0.0
 40
0.99319202
 50
119.77338
 51
179.87958999999981
  0
ARC
  5
C3F
  8
0
  6
CONTINUOUS
 62
     7
 10
-575.83153999999979
 20
408.97063999999989
 30
0.0
 40
0.995579
 50
116.5870899999999
 51
179.98264
  0
ARC
  5
C40
  8
0
  6
CONTINUOUS
 62
     7
 10
-574.56511999999998
 20
410.74505999999991
 30
0.0
 40
0.9959030199999999
 50
89.541267000000005
 51
119.60717
  0
ARC
  5
C41
  8
0
  6
CONTINUOUS
 62
     7
 10
-574.60235999999998
 20
409.59685999999988
 30
0.0
 40
0.99411702
 50
89.122643999999966
 51
115.93498
  0
ARC
  5
C42
  8
0
  6
CONTINUOUS
 62
     7
 10
-574.55829000000006
 20
408.63665999999989
 30
0.0
 40
0.99427301
 50
89.356065999999984
 51
120.78091000000001
  0
ARC
  5
C43
  8
0
  6
CONTINUOUS
 62
     7
 10
-574.59204
 20
407.49554000000001
 30
0.0
 40
0.99545902
 50
89.141291000000024
 51
117.20381999999999
  0
ARC
  5
C44
  8
0
  6
CONTINUOUS
 62
     7
 10
-574.52050999999994
 20
404.12468999999987
 30
0.0
 40
0.99617702
 50
90.381317999999979
 51
123.9704899999999
  0
ARC
  5
C45
  8
0
  6
CONTINUOUS
 62
     7
 10
-574.54773
 20
402.98443999999989
 30
0.0
 40
0.99648702
 50
90.540720999999976
 51
120.74377
  0
ARC
  5
C46
  8
0
  6
CONTINUOUS
 62
     7
 10
-575.83307000000002
 20
402.23406999999992
 30
0.0
 40
0.99404597
 50
120.4682
 51
180.18563999999989
  0
ARC
  5
C47
  8
0
  6
CONTINUOUS
 62
     7
 10
-575.83234000000004
 20
403.26848999999987
 30
0.0
 40
0.9948369899999999
 50
123.20496
 51
180.43785999999969
  0
ARC
  5
C48
  8
0
  6
CONTINUOUS
 62
     7
 10
-575.83392000000003
 20
406.83233999999987
 30
0.0
 40
0.9932109699999999
 50
117.7993199999999
 51
180.08187000000001
  0
ARC
  5
C49
  8
0
  6
CONTINUOUS
 62
     7
 10
-575.83270000000005
 20
407.86992999999961
 30
0.0
 40
0.9944329899999999
 50
121.15213
 51
179.9405099999999
  0
ARC
  5
C4A
  8
0
  6
CONTINUOUS
 62
     7
 10
-574.62615999999946
 20
396.68549000000002
 30
0.0
 40
0.9954450099999999
 50
90.056905000000043
 51
113.1274499999999
  0
ARC
  5
C4B
  8
0
  6
CONTINUOUS
 62
     7
 10
-574.68799000000001
 20
394.73822000000001
 30
0.0
 40
0.9927430199999999
 50
89.374555000000001
 51
106.33207
  0
ARC
  5
C4C
  8
0
  6
CONTINUOUS
 62
     7
 10
-575.83086999999966
 20
394.38666000000001
 30
0.0
 40
0.9962710099999999
 50
106.69792
 51
180.33004999999969
  0
ARC
  5
C4D
  8
0
  6
CONTINUOUS
 62
     7
 10
-575.83074999999985
 20
396.17241999999987
 30
0.0
 40
0.9963999999999998
 50
112.8173599999997
 51
180.09041999999991
  0
ARC
  5
C4E
  8
0
  6
CONTINUOUS
 62
     7
 10
-575.83203000000003
 20
386.99579
 30
0.0
 40
0.99507803
 50
89.715886999999981
 51
180.28411
  0
ARC
  5
C4F
  8
0
  6
CONTINUOUS
 62
     7
 10
-575.82690000000002
 20
386.99115
 30
0.0
 40
1.000203
 50
180.01165
 51
269.98835000000003
  0
ARC
  5
C50
  8
0
  6
CONTINUOUS
 62
     7
 10
-575.83203000000003
 20
376.99579
 30
0.0
 40
0.99508202
 50
89.716099
 51
180.28390999999991
  0
ARC
  5
C51
  8
0
  6
CONTINUOUS
 62
     7
 10
-575.82690000000002
 20
376.99115
 30
0.0
 40
1.0001999999999991
 50
180.0114299999999
 51
269.98856999999992
  0
ARC
  5
C52
  8
0
  6
CONTINUOUS
 62
     7
 10
-575.83203000000003
 20
366.99578999999989
 30
0.0
 40
0.9950849999999999
 50
89.716311000000005
 51
180.28368999999981
  0
ARC
  5
C53
  8
0
  6
CONTINUOUS
 62
     7
 10
-575.82690000000002
 20
366.99114999999989
 30
0.0
 40
1.0001959999999981
 50
180.01122000000001
 51
269.98877999999991
  0
ARC
  5
C54
  8
0
  6
CONTINUOUS
 62
     7
 10
-572.82697000000019
 20
364.99102999999991
 30
0.0
 40
0.9998249999999999
 50
359.98995000000002
 51
90.010050000000007
  0
ARC
  5
C55
  8
0
  6
CONTINUOUS
 62
     7
 10
-572.83208999999988
 20
368.99579
 30
0.0
 40
1.0049469
 50
270.28134999999992
 51
359.71866
  0
ARC
  5
C56
  8
0
  6
CONTINUOUS
 62
     7
 10
-572.82697000000019
 20
374.99102999999991
 30
0.0
 40
0.9998210099999999
 50
359.98975000000002
 51
90.010255000000001
  0
ARC
  5
C57
  8
0
  6
CONTINUOUS
 62
     7
 10
-572.83208999999988
 20
378.99579
 30
0.0
 40
1.004939
 50
270.28091000000001
 51
359.71910000000008
  0
ARC
  5
C58
  8
0
  6
CONTINUOUS
 62
     7
 10
-572.82697000000019
 20
384.99102999999991
 30
0.0
 40
0.9998289899999999
 50
359.99018999999993
 51
90.009810999999985
  0
ARC
  5
C59
  8
0
  6
CONTINUOUS
 62
     7
 10
-572.83208999999988
 20
388.99579
 30
0.0
 40
1.004942999999999
 50
270.28111000000001
 51
359.71888999999987
  0
ARC
  5
C5A
  8
0
  6
CONTINUOUS
 62
     7
 10
-572.82543999999984
 20
394.73259999999988
 30
0.0
 40
0.9982839799999999
 50
359.90141999999992
 51
90.098575999999994
  0
ARC
  5
C5B
  8
0
  6
CONTINUOUS
 62
     7
 10
-572.82947000000001
 20
402.97857999999991
 30
0.0
 40
1.002353
 50
0.13432682
 51
89.865673000000001
  0
ARC
  5
C5C
  8
0
  6
CONTINUOUS
 62
     7
 10
-572.53168000000005
 20
398.38544000000002
 30
0.0
 40
0.704566
 50
270.37009999999992
 51
359.62990999999982
  0
ARC
  5
C5D
  8
0
  6
CONTINUOUS
 62
     7
 10
-572.82617000000005
 20
407.49187999999981
 30
0.0
 40
0.9990100299999999
 50
359.94319000000002
 51
90.056808999999959
  0
ARC
  5
C5E
  8
0
  6
CONTINUOUS
 62
     7
 10
-572.32543999999996
 20
410.09258999999997
 30
0.0
 40
0.4983060100000002
 50
359.80489
 51
90.195107000000007
  0
ARC
  5
C5F
  8
0
  6
CONTINUOUS
 62
     7
 10
-572.33172999999965
 20
412.24553999999989
 30
0.0
 40
0.50463498
 50
270.52382999999992
 51
359.47617000000002
  0
ARC
  5
C60
  8
0
  6
CONTINUOUS
 62
     7
 10
-560.28252999999995
 20
326.99090999999999
 30
0.0
 40
1.000013899999999
 50
89.691659999999985
 51
270.30833999999999
  0
ARC
  5
C61
  8
0
  6
CONTINUOUS
 62
     7
 10
-458.00713999999999
 20
397.03595000000001
 30
0.0
 40
1.6750020000000001
 50
269.99998999999991
 51
90.000003000000007
  0
ARC
  5
C62
  8
0
  6
CONTINUOUS
 62
     7
 10
-461.48712
 20
396.99090999999987
 30
0.0
 40
1.0
 50
269.99998999999991
 51
90.000003000000007
  0
ARC
  5
C63
  8
0
  6
CONTINUOUS
 62
     7
 10
-461.48712
 20
326.99090999999999
 30
0.0
 40
1.0
 50
269.99998999999991
 51
90.000003000000007
  0
ARC
  5
C64
  8
0
  6
CONTINUOUS
 62
     7
 10
-458.00713999999999
 20
326.94585999999998
 30
0.0
 40
1.6750020000000001
 50
269.99998999999991
 51
90.000003000000007
  0
ARC
  5
C65
  8
0
  6
CONTINUOUS
 62
     7
 10
-572.83051
 20
329.25420999999989
 30
0.0
 40
1.003352
 50
270.19110999999992
 51
359.80889999999982
  0
ARC
  5
C66
  8
0
  6
CONTINUOUS
 62
     7
 10
-572.83208999999988
 20
338.99579
 30
0.0
 40
1.0049469
 50
270.28136999999992
 51
359.71863000000002
  0
ARC
  5
C67
  8
0
  6
CONTINUOUS
 62
     7
 10
-572.82697000000019
 20
334.99102999999991
 30
0.0
 40
0.9998239899999999
 50
359.98991999999993
 51
90.010076999999981
  0
ARC
  5
C68
  8
0
  6
CONTINUOUS
 62
     7
 10
-572.52660999999978
 20
325.60149999999999
 30
0.0
 40
0.6994530000000001
 50
359.95517000000001
 51
90.044829000000021
  0
ARC
  5
C69
  8
0
  6
CONTINUOUS
 62
     7
 10
-574.62414999999999
 20
327.30608999999993
 30
0.0
 40
1.005233
 50
246.98638999999989
 51
269.82924999999989
  0
ARC
  5
C6A
  8
0
  6
CONTINUOUS
 62
     7
 10
-574.68658000000005
 20
329.25360000000001
 30
0.0
 40
1.002699
 50
253.7527199999999
 51
270.54064
  0
ARC
  5
C6B
  8
0
  6
CONTINUOUS
 62
     7
 10
-575.83074999999985
 20
329.60528999999991
 30
0.0
 40
0.99638802
 50
180.24991
 51
253.29664
  0
ARC
  5
C6C
  8
0
  6
CONTINUOUS
 62
     7
 10
-575.83062999999981
 20
327.81939999999992
 30
0.0
 40
0.9965090199999998
 50
179.91374999999999
 51
247.17845
  0
ARC
  5
C6D
  8
0
  6
CONTINUOUS
 62
     7
 10
-575.82690000000002
 20
336.99115
 30
0.0
 40
1.0001959999999981
 50
180.01124999999999
 51
269.98874999999992
  0
ARC
  5
C6E
  8
0
  6
CONTINUOUS
 62
     7
 10
-575.83203000000003
 20
336.99579
 30
0.0
 40
0.9950849999999999
 50
89.716282999999976
 51
180.2837199999999
  0
ARC
  5
C6F
  8
0
  6
CONTINUOUS
 62
     7
 10
-575.82690000000002
 20
346.99115
 30
0.0
 40
1.0001999999999991
 50
180.01146
 51
269.98853999999972
  0
ARC
  5
C70
  8
0
  6
CONTINUOUS
 62
     7
 10
-575.83203000000003
 20
346.99579
 30
0.0
 40
0.9950810099999999
 50
89.716071999999997
 51
180.28391999999999
  0
ARC
  5
C71
  8
0
  6
CONTINUOUS
 62
     7
 10
-575.82690000000002
 20
356.99114999999972
 30
0.0
 40
1.0002040000000001
 50
180.01166000000001
 51
269.9883200000001
  0
ARC
  5
C72
  8
0
  6
CONTINUOUS
 62
     7
 10
-575.83203000000003
 20
356.99578999999972
 30
0.0
 40
0.9950770099999999
 50
89.715860000000006
 51
180.28413999999989
  0
ARC
  5
C73
  8
0
  6
CONTINUOUS
 62
     7
 10
-572.83208999999988
 20
358.99578999999972
 30
0.0
 40
1.004942999999999
 50
270.28113999999988
 51
359.71886999999992
  0
ARC
  5
C74
  8
0
  6
CONTINUOUS
 62
     7
 10
-572.82697000000019
 20
354.99102999999991
 30
0.0
 40
0.9998279799999998
 50
359.99015999999972
 51
90.009838000000002
  0
ARC
  5
C75
  8
0
  6
CONTINUOUS
 62
     7
 10
-572.83208999999988
 20
348.99579
 30
0.0
 40
1.004939
 50
270.28093999999999
 51
359.71906999999999
  0
ARC
  5
C76
  8
0
  6
CONTINUOUS
 62
     7
 10
-572.82697000000019
 20
344.99102999999991
 30
0.0
 40
0.9998210099999999
 50
359.98971999999998
 51
90.010281999999961
  0
ARC
  5
C77
  8
0
  6
CONTINUOUS
 62
     7
 10
-561.15453999999977
 20
397.03595000000001
 30
0.0
 40
1.6750160000000001
 50
89.746144999999984
 51
270.25387000000001
  0
ARC
  5
C78
  8
0
  6
CONTINUOUS
 62
     7
 10
-560.28252999999995
 20
396.99090999999987
 30
0.0
 40
1.000013899999999
 50
89.691659999999985
 51
270.30833999999999
  0
ARC
  5
C79
  8
0
  6
CONTINUOUS
 62
     7
 10
-560.28252999999995
 20
386.99090999999999
 30
0.0
 40
1.000013899999999
 50
89.691659999999985
 51
270.30833999999999
  0
ARC
  5
C7A
  8
0
  6
CONTINUOUS
 62
     7
 10
-560.28252999999995
 20
376.99090999999999
 30
0.0
 40
1.000013899999999
 50
89.691659999999985
 51
270.30833999999999
  0
ARC
  5
C7B
  8
0
  6
CONTINUOUS
 62
     7
 10
-560.28252999999995
 20
366.99090999999987
 30
0.0
 40
1.000013899999999
 50
89.691659999999985
 51
270.30833999999999
  0
ARC
  5
C7C
  8
0
  6
CONTINUOUS
 62
     7
 10
-560.28252999999995
 20
356.99090999999987
 30
0.0
 40
1.000013899999999
 50
89.691659999999985
 51
270.30833999999999
  0
ARC
  5
C7D
  8
0
  6
CONTINUOUS
 62
     7
 10
-560.28252999999995
 20
346.99090999999987
 30
0.0
 40
1.000013899999999
 50
89.691659999999985
 51
270.30833999999999
  0
ARC
  5
C7E
  8
0
  6
CONTINUOUS
 62
     7
 10
-560.28252999999995
 20
336.99090999999999
 30
0.0
 40
1.000013899999999
 50
89.691659999999985
 51
270.30833999999999
  0
ARC
  5
C7F
  8
0
  6
CONTINUOUS
 62
     7
 10
-561.36712999999997
 20
387.01592999999991
 30
0.0
 40
1.465004
 50
90.000003000000007
 51
270.0
  0
ARC
  5
C80
  8
0
  6
CONTINUOUS
 62
     7
 10
-561.49712999999986
 20
377.00092000000001
 30
0.0
 40
1.3300049999999981
 50
90.000003000000007
 51
270.0
  0
ARC
  5
C81
  8
0
  6
CONTINUOUS
 62
     7
 10
-561.56299000000001
 20
366.99590999999992
 30
0.0
 40
1.2650129999999991
 50
89.735579000000016
 51
270.26441
  0
ARC
  5
C82
  8
0
  6
CONTINUOUS
 62
     7
 10
-561.56299000000001
 20
356.99090999999987
 30
0.0
 40
1.2700129999999981
 50
89.736616999999995
 51
270.26337000000001
  0
ARC
  5
C83
  8
0
  6
CONTINUOUS
 62
     7
 10
-561.49712999999986
 20
346.98090000000002
 30
0.0
 40
1.3300049999999981
 50
90.000003000000007
 51
270.0
  0
ARC
  5
C84
  8
0
  6
CONTINUOUS
 62
     7
 10
-561.36712999999997
 20
336.96587999999991
 30
0.0
 40
1.465004
 50
90.000003000000007
 51
270.0
  0
ARC
  5
C85
  8
0
  6
CONTINUOUS
 62
     7
 10
-561.15399000000002
 20
326.94585999999998
 30
0.0
 40
1.675014
 50
89.766498999999982
 51
270.23351000000002
  0
ARC
  5
C86
  8
0
  6
CONTINUOUS
 62
     7
 10
-572.83037999999988
 20
321.01763999999991
 30
0.0
 40
1.0032760000000001
 50
334.19810000000001
 51
359.61810999999972
  0
ARC
  5
C87
  8
0
  6
CONTINUOUS
 62
     7
 10
-575.82866999999999
 20
321.75017999999989
 30
0.0
 40
0.9984580299999999
 50
179.9595799999999
 51
239.38657000000001
  0
ARC
  5
C88
  8
0
  6
CONTINUOUS
 62
     7
 10
-559.62842000000001
 20
416.27679000000001
 30
0.0
 40
1.994108999999999
 50
89.675548000000006
 51
169.18777
  0
ARC
  5
C89
  8
0
  6
CONTINUOUS
 62
     7
 10
-559.57690000000002
 20
419.12567000000001
 30
0.0
 40
1.995282999999997
 50
90.006203999999983
 51
170.90835000000001
  0
ARC
  5
C8A
  8
0
  6
CONTINUOUS
 62
     7
 10
-559.56255999999985
 20
420.97417999999988
 30
0.0
 40
1.9967330000000001
 50
89.843967000000006
 51
171.45387999999991
  0
ARC
  5
C8B
  8
0
  6
CONTINUOUS
 62
     7
 10
-559.54065000000003
 20
421.88530999999989
 30
0.0
 40
1.995633
 50
89.899708000000004
 51
172.06112999999991
  0
ARC
  5
C8C
  8
0
  6
CONTINUOUS
 62
     7
 10
-462.69702000000001
 20
416.27263999999991
 30
0.0
 40
1.9982919999999991
 50
15.032547999999981
 51
90.002631999999977
  0
ARC
  5
C8D
  8
0
  6
CONTINUOUS
 62
     7
 10
-455.17394999999999
 20
401.71367999999961
 30
0.0
 40
1.502775999999999
 50
194.75642999999991
 51
269.87757999999991
  0
ARC
  5
C8E
  8
0
  6
CONTINUOUS
 62
     7
 10
-462.70196999999979
 20
307.71564000000001
 30
0.0
 40
2.0047290000000002
 50
270.13832000000002
 51
344.82650000000001
  0
ARC
  5
C8F
  8
0
  6
CONTINUOUS
 62
     7
 10
-575.82952999999975
 20
313.97552000000002
 30
0.0
 40
0.9976310099999999
 50
180.26780999999991
 51
240.07924
  0
ARC
  5
C90
  8
0
  6
CONTINUOUS
 62
     7
 10
-575.83141999999998
 20
315.02129999999988
 30
0.0
 40
0.9956849800000001
 50
180.02112999999991
 51
243.40913999999981
  0
ARC
  5
C91
  8
0
  6
CONTINUOUS
 62
     7
 10
-574.54645000000005
 20
313.24200000000002
 30
0.0
 40
1.001123999999999
 50
239.32782000000009
 51
269.38767999999988
  0
ARC
  5
C92
  8
0
  6
CONTINUOUS
 62
     7
 10
-574.58130000000006
 20
314.39019999999999
 30
0.0
 40
0.9993420200000001
 50
242.86199999999999
 51
269.66546
  0
ARC
  5
C93
  8
0
  6
CONTINUOUS
 62
     7
 10
-574.5557299999997
 20
315.35455000000002
 30
0.0
 40
1.0037439999999991
 50
239.37112999999999
 51
270.49189999999987
  0
ARC
  5
C94
  8
0
  6
CONTINUOUS
 62
     7
 10
-574.57195999999999
 20
316.49151999999992
 30
0.0
 40
1.0006820000000001
 50
241.65062
 51
269.7039299999999
  0
ARC
  5
C95
  8
0
  6
CONTINUOUS
 62
     7
 10
-574.53435999999988
 20
319.87139999999982
 30
0.0
 40
1.000521999999999
 50
237.14617999999999
 51
270.41343999999998
  0
ARC
  5
C96
  8
0
  6
CONTINUOUS
 62
     7
 10
-574.56377999999995
 20
321.01190000000008
 30
0.0
 40
1.0010449999999991
 50
240.47187
 51
270.37970999999999
  0
ARC
  5
C97
  8
0
  6
CONTINUOUS
 62
     7
 10
-575.82866999999999
 20
321.75017999999989
 30
0.0
 40
0.9984580299999999
 50
179.9595799999999
 51
239.38657000000001
  0
ARC
  5
C98
  8
0
  6
CONTINUOUS
 62
     7
 10
-575.82806000000005
 20
320.71564000000001
 30
0.0
 40
0.9990889999999998
 50
179.69508999999991
 51
236.66209000000001
  0
ARC
  5
C99
  8
0
  6
CONTINUOUS
 62
     7
 10
-575.82941000000005
 20
317.15215999999992
 30
0.0
 40
0.9977070099999998
 50
180.0740199999999
 51
242.04481000000001
  0
ARC
  5
C9A
  8
0
  6
CONTINUOUS
 62
     7
 10
-575.82836999999995
 20
316.11443999999989
 30
0.0
 40
0.9987969999999998
 50
179.62728000000001
 51
238.70795000000001
  0
ARC
  5
C9B
  8
0
  6
CONTINUOUS
 62
     7
 10
-572.82959000000005
 20
321.01337000000001
 30
0.0
 40
1.002470999999999
 50
270.14107000000001
 51
359.85892999999987
  0
ARC
  5
C9C
  8
0
  6
CONTINUOUS
 62
     7
 10
-572.83123999999998
 20
316.49506000000002
 30
0.0
 40
1.004119999999999
 50
270.23460999999992
 51
359.76538999999991
  0
ARC
  5
C9D
  8
0
  6
CONTINUOUS
 62
     7
 10
-572.33051
 20
313.89434999999992
 30
0.0
 40
0.5033929900000002
 50
270.38490999999982
 51
359.61509999999993
  0
ARC
  5
C9E
  8
0
  6
CONTINUOUS
 62
     7
 10
-572.32665999999995
 20
311.7413899999998
 30
0.0
 40
0.49952301
 50
359.94522999999992
 51
90.054773999999981
  0
ARC
  5
C9F
  8
0
  6
CONTINUOUS
 62
     7
 10
-559.62225000000001
 20
307.71013999999991
 30
0.0
 40
1.9992490000000001
 50
190.64309999999969
 51
270.14742999999999
  0
ARC
  5
CA0
  8
0
  6
CONTINUOUS
 62
     7
 10
-559.57091999999989
 20
304.86126999999999
 30
0.0
 40
2.000420099999999
 50
188.92681999999991
 51
269.82270999999992
  0
ARC
  5
CA1
  8
0
  6
CONTINUOUS
 62
     7
 10
-474.31353999999988
 20
297.99090999999999
 30
0.0
 40
1.5
 50
90.000003000000007
 51
178.5
  0
ARC
  5
CA2
  8
0
  6
CONTINUOUS
 62
     3
 10
-462.81090999999992
 20
300.99090999999981
 30
0.0
 40
1.5
 50
269.99998999999991
 51
327.0
  0
ARC
  5
CA3
  8
0
  6
CONTINUOUS
 62
     7
 10
-559.84051999999997
 20
304.86090000000002
 30
0.0
 40
2.0
 50
188.6296199999999
 51
269.99998999999991
  0
ARC
  5
CA4
  8
0
  6
CONTINUOUS
 62
     7
 10
-559.92089999999996
 20
304.86090000000002
 30
0.0
 40
2.0
 50
187.9504399999999
 51
269.99998999999991
  0
ARC
  5
CA5
  8
0
  6
CONTINUOUS
 62
     7
 10
-537.42902000000004
 20
301.36090000000002
 30
0.0
 40
1.5
 50
1.5000026999999989
 51
90.000003000000007
  0
ARC
  5
CA6
  8
0
  6
CONTINUOUS
 62
     7
 10
-526.38842999999986
 20
376.99090999999999
 30
0.0
 40
1.0000056999999991
 50
269.99998999999991
 51
90.000003000000007
  0
ARC
  5
CA7
  8
0
  6
CONTINUOUS
 62
     7
 10
-526.38842999999986
 20
366.99090999999987
 30
0.0
 40
1.0000056999999991
 50
269.99998999999991
 51
90.000003000000007
  0
ARC
  5
CA8
  8
0
  6
CONTINUOUS
 62
     7
 10
-526.38842999999986
 20
356.99090999999987
 30
0.0
 40
1.0000056999999991
 50
269.99998999999991
 51
90.000003000000007
  0
ARC
  5
CA9
  8
0
  6
CONTINUOUS
 62
     7
 10
-526.38842999999986
 20
346.99090999999987
 30
0.0
 40
1.0000056999999991
 50
269.99998999999991
 51
90.000003000000007
  0
ARC
  5
CAA
  8
0
  6
CONTINUOUS
 62
     7
 10
-475.82715000000002
 20
329.49090999999981
 30
0.0
 40
1.5
 50
179.99998999999991
 51
270.0
  0
ARC
  5
CAB
  8
0
  6
CONTINUOUS
 62
     7
 10
-493.82714999999979
 20
329.49090999999981
 30
0.0
 40
1.5
 50
269.99998999999991
 51
0.00000068324516
  0
ARC
  5
CAC
  8
0
  6
CONTINUOUS
 62
     7
 10
-493.8071299999998
 20
329.63092
 30
0.0
 40
1.0
 50
269.99998999999991
 51
0.00000068324625
  0
ARC
  5
CAD
  8
0
  6
CONTINUOUS
 62
     7
 10
-475.84710999999999
 20
329.63092
 30
0.0
 40
1.0
 50
179.99998999999991
 51
270.0
  0
CIRCLE
  5
CAE
  8
0
  6
CONTINUOUS
 62
     3
 10
-487.32715000000002
 20
390.49090999999987
 30
0.0
 40
1.1000000000000001
  0
CIRCLE
  5
CAF
  8
0
  6
CONTINUOUS
 62
     3
 10
-487.32715000000002
 20
390.49090999999987
 30
0.0
 40
1.149999999999999
  0
CIRCLE
  5
CB0
  8
0
  6
CONTINUOUS
 62
     3
 10
-482.32715000000002
 20
390.49090999999987
 30
0.0
 40
1.0
  0
ARC
  5
CB1
  8
0
  6
CONTINUOUS
 62
     7
 10
-493.82714999999979
 20
389.49090999999987
 30
0.0
 40
1.02
 50
269.99998999999991
 51
0.00000068324403
  0
ARC
  5
CB2
  8
0
  6
CONTINUOUS
 62
     7
 10
-475.82715000000002
 20
389.49090999999987
 30
0.0
 40
1.02
 50
179.99998999999991
 51
270.0
  0
ARC
  5
CB3
  8
0
  6
CONTINUOUS
 62
     7
 10
-493.82714999999979
 20
389.49090999999987
 30
0.0
 40
1.5
 50
269.99998999999991
 51
0.00000068324516
  0
ARC
  5
CB4
  8
0
  6
CONTINUOUS
 62
     7
 10
-475.82715000000002
 20
389.49090999999987
 30
0.0
 40
1.5
 50
179.99998999999991
 51
270.0
  0
CIRCLE
  5
CB5
  8
0
  6
CONTINUOUS
 62
     3
 10
-482.32715000000002
 20
333.49090999999981
 30
0.0
 40
1.0
  0
CIRCLE
  5
CB6
  8
0
  6
CONTINUOUS
 62
     3
 10
-487.32715000000002
 20
333.49090999999981
 30
0.0
 40
1.149999999999999
  0
CIRCLE
  5
CB7
  8
0
  6
CONTINUOUS
 62
     3
 10
-487.32715000000002
 20
333.49090999999981
 30
0.0
 40
1.1000000000000001
  0
ARC
  5
CB8
  8
0
  6
CONTINUOUS
 62
     7
 10
-493.82714999999979
 20
334.49090999999981
 30
0.0
 40
1.02
 50
0.0
 51
90.000003000000007
  0
ARC
  5
CB9
  8
0
  6
CONTINUOUS
 62
     7
 10
-475.82715000000002
 20
334.49090999999981
 30
0.0
 40
1.02
 50
90.000003000000007
 51
180.00001
  0
ARC
  5
CBA
  8
0
  6
CONTINUOUS
 62
     7
 10
-493.82714999999979
 20
334.49090999999981
 30
0.0
 40
1.5
 50
0.0
 51
90.000003000000007
  0
ARC
  5
CBB
  8
0
  6
CONTINUOUS
 62
     7
 10
-475.82715000000002
 20
334.49090999999981
 30
0.0
 40
1.5
 50
90.000003000000007
 51
180.00001
  0
ARC
  5
CBC
  8
0
  6
CONTINUOUS
 62
     7
 10
-525.16216999999995
 20
346.98090000000002
 30
0.0
 40
1.3300148000000001
 50
269.72941999999989
 51
90.270567000000014
  0
ARC
  5
CBD
  8
0
  6
CONTINUOUS
 62
     7
 10
-525.10022000000004
 20
356.99090999999987
 30
0.0
 40
1.2700266
 50
269.62931999999989
 51
90.370669999999961
  0
ARC
  5
CBE
  8
0
  6
CONTINUOUS
 62
     7
 10
-525.10022000000004
 20
367.00091999999989
 30
0.0
 40
1.2700266
 50
269.62931999999989
 51
90.370669999999961
  0
ARC
  5
CBF
  8
0
  6
CONTINUOUS
 62
     7
 10
-525.16216999999995
 20
377.00591999999989
 30
0.0
 40
1.3350147999999991
 50
269.73043000000001
 51
90.269555999999994
  0
ARC
  5
CC0
  8
0
  6
CONTINUOUS
 62
     7
 10
-461.48717999999991
 20
386.99090999999999
 30
0.0
 40
1.0000255999999981
 50
269.58947000000001
 51
90.410531000000006
  0
ARC
  5
CC1
  8
0
  6
CONTINUOUS
 62
     7
 10
-457.78717
 20
387.02094
 30
0.0
 40
1.460011199999999
 50
269.77525000000003
 51
90.224749999999986
  0
ARC
  5
CC2
  8
0
  6
CONTINUOUS
 62
     7
 10
-461.48717999999991
 20
336.99090999999999
 30
0.0
 40
1.0000255999999981
 50
269.58947000000001
 51
90.410531000000006
  0
ARC
  5
CC3
  8
0
  6
CONTINUOUS
 62
     7
 10
-457.78717
 20
336.96087999999992
 30
0.0
 40
1.460011199999999
 50
269.77525000000003
 51
90.224749999999986
  0
ARC
  5
CC4
  8
0
  6
CONTINUOUS
 62
     7
 10
-475.84710999999999
 20
394.35088999999988
 30
0.0
 40
1.0
 50
90.000003000000007
 51
180.00001
  0
ARC
  5
CC5
  8
0
  6
CONTINUOUS
 62
     7
 10
-475.82715000000002
 20
394.49090999999987
 30
0.0
 40
1.5
 50
90.000003000000007
 51
180.00001
  0
ARC
  5
CC6
  8
0
  6
CONTINUOUS
 62
     7
 10
-493.82714999999979
 20
394.49090999999987
 30
0.0
 40
1.5
 50
0.0
 51
90.000003000000007
  0
ARC
  5
CC7
  8
0
  6
CONTINUOUS
 62
     7
 10
-493.8071299999998
 20
394.35088999999988
 30
0.0
 40
1.0
 50
0.0
 51
90.000003000000007
  0
ARC
  5
CC8
  8
0
  6
CONTINUOUS
 62
     7
 10
-125.7513499999999
 20
156.94860999999969
 30
0.0
 40
3.0
 50
233.7147499999999
 51
315.0
  0
ARC
  5
CC9
  8
0
  6
CONTINUOUS
 62
     7
 10
-186.1526199999999
 20
178.2906999999999
 30
0.0
 40
3.0
 50
130.44793000000001
 51
225.0
  0
ARC
  5
CCA
  8
0
  6
CONTINUOUS
 62
     7
 10
-149.7809399999999
 20
193.18702999999991
 30
0.0
 40
3.0
 50
0.0
 51
94.096045999999987
  0
ARC
  5
CCB
  8
0
  6
CONTINUOUS
 62
     7
 10
-186.1526199999999
 20
82.405204999999981
 30
0.0
 40
3.0
 50
135.0
 51
229.55207999999999
  0
ARC
  5
CCC
  8
0
  6
CONTINUOUS
 62
     7
 10
-145.2809399999999
 20
130.34795999999969
 30
0.0
 40
20.0
 50
270.0
 51
90.000003000000007
  0
ARC
  5
CCD
  8
0
  6
CONTINUOUS
 62
     7
 10
-145.2809399999999
 20
130.34795999999969
 30
0.0
 40
44.0
 50
137.5473199999997
 51
174.50581
  0
ARC
  5
CCE
  8
0
  6
CONTINUOUS
 62
     7
 10
-171.88160999999991
 20
149.87753000000001
 30
0.0
 40
3.0
 50
323.71474000000001
 51
45.00000099999999
  0
ARC
  5
CCF
  8
0
  6
CONTINUOUS
 62
     7
 10
-380.82717999999988
 20
202.75857999999991
 30
0.0
 40
3.0
 50
272.0
 51
0.0
  0
ARC
  5
CD0
  8
0
  6
CONTINUOUS
 62
     7
 10
-375.82715000000002
 20
170.78832999999969
 30
0.0
 40
2.0
 50
179.99998999999991
 51
271.51463999999999
  0
ARC
  5
CD1
  8
0
  6
CONTINUOUS
 62
     3
 10
-483.32718
 20
90.848197999999996
 30
0.0
 40
5.5
 50
84.784087999999983
 51
185.21596
  0
ARC
  5
CD2
  8
0
  6
CONTINUOUS
 62
     7
 10
-559.55877999999996
 20
54.370547999999999
 30
0.0
 40
2.0
 50
188.6433899999999
 51
270.0
  0
ARC
  5
CD3
  8
0
  6
CONTINUOUS
 62
     7
 10
-559.57213999999999
 20
56.218322999999998
 30
0.0
 40
2.0
 50
189.08497
 51
270.0
  0
ARC
  5
CD4
  8
0
  6
CONTINUOUS
 62
     7
 10
-559.62072999999987
 20
59.064696999999981
 30
0.0
 40
2.0
 50
190.71569
 51
270.0
  0
ARC
  5
CD5
  8
0
  6
CONTINUOUS
 62
     7
 10
-572.32714999999996
 20
63.098568000000007
 30
0.0
 40
0.5
 50
0.0
 51
90.000003000000007
  0
ARC
  5
CD6
  8
0
  6
CONTINUOUS
 62
     7
 10
-572.32714999999996
 20
65.244872999999998
 30
0.0
 40
0.5
 50
270.0
 51
0.0
  0
ARC
  5
CD7
  8
0
  6
CONTINUOUS
 62
     7
 10
-572.82714999999985
 20
67.846306000000013
 30
0.0
 40
1.0
 50
270.0
 51
0.0
  0
ARC
  5
CD8
  8
0
  6
CONTINUOUS
 62
     7
 10
-572.82714999999985
 20
72.363037000000006
 30
0.0
 40
1.0
 50
270.0
 51
0.0
  0
ARC
  5
CD9
  8
0
  6
CONTINUOUS
 62
     7
 10
-575.82714999999985
 20
67.472588000000002
 30
0.0
 40
1.0
 50
179.99998999999991
 51
239.0334
  0
ARC
  5
CDA
  8
0
  6
CONTINUOUS
 62
     7
 10
-575.82714999999985
 20
68.508178999999998
 30
0.0
 40
1.0
 50
179.99998999999991
 51
242.07341
  0
ARC
  5
CDB
  8
0
  6
CONTINUOUS
 62
     7
 10
-575.82714999999985
 20
72.074577000000005
 30
0.0
 40
1.0
 50
179.99998999999991
 51
236.7452799999997
  0
ARC
  5
CDC
  8
0
  6
CONTINUOUS
 62
     7
 10
-575.82714999999985
 20
73.107726999999983
 30
0.0
 40
1.0
 50
179.99998999999991
 51
239.64048999999989
  0
ARC
  5
CDD
  8
0
  6
CONTINUOUS
 62
     7
 10
-574.55584999999985
 20
72.363037000000006
 30
0.0
 40
1.0
 50
239.6405
 51
270.0
  0
ARC
  5
CDE
  8
0
  6
CONTINUOUS
 62
     7
 10
-574.52855999999986
 20
71.223022
 30
0.0
 40
1.0
 50
236.74527
 51
270.0
  0
ARC
  5
CDF
  8
0
  6
CONTINUOUS
 62
     7
 10
-574.57854999999995
 20
67.846306000000013
 30
0.0
 40
1.0
 50
242.07339999999999
 51
270.0
  0
ARC
  5
CE0
  8
0
  6
CONTINUOUS
 62
     7
 10
-574.55016999999998
 20
66.706291000000007
 30
0.0
 40
1.0
 50
239.0334
 51
270.0
  0
ARC
  5
CE1
  8
0
  6
CONTINUOUS
 62
     7
 10
-574.58789000000002
 20
65.744872999999998
 30
0.0
 40
1.0
 50
243.08874
 51
270.0
  0
ARC
  5
CE2
  8
0
  6
CONTINUOUS
 62
     7
 10
-574.55895999999996
 20
64.598563999999996
 30
0.0
 40
1.0
 50
239.9736
 51
270.0
  0
ARC
  5
CE3
  8
0
  6
CONTINUOUS
 62
     7
 10
-575.82714999999985
 20
66.373901000000004
 30
0.0
 40
1.0
 50
179.99998999999991
 51
243.08874999999981
  0
ARC
  5
CE4
  8
0
  6
CONTINUOUS
 62
     7
 10
-575.82714999999985
 20
65.331535000000002
 30
0.0
 40
1.0
 50
179.99998999999991
 51
239.97361000000001
  0
ARC
  5
CE5
  8
0
  6
CONTINUOUS
 62
     7
 10
-525.82714999999985
 20
56.218322999999998
 30
0.0
 40
2.0
 50
270.0
 51
0.0
  0
ARC
  5
CE6
  8
0
  6
CONTINUOUS
 62
     7
 10
-525.82714999999985
 20
54.370547999999999
 30
0.0
 40
2.0
 50
270.0
 51
0.0
  0
ARC
  5
CE7
  8
0
  6
CONTINUOUS
 62
     7
 10
-462.70098999999999
 20
59.064696999999981
 30
0.0
 40
2.0
 50
270.0
 51
345.0
  0
ARC
  5
CE8
  8
0
  6
CONTINUOUS
 62
     7
 10
-525.82714999999985
 20
53.460022000000002
 30
0.0
 40
2.0
 50
270.0
 51
0.0
  0
ARC
  5
CE9
  8
0
  6
CONTINUOUS
 62
     7
 10
-559.53754000000004
 20
53.460022000000002
 30
0.0
 40
2.0
 50
187.9440399999998
 51
270.0
  0
ARC
  5
CEA
  8
0
  6
CONTINUOUS
 62
     7
 10
-455.17617999999999
 20
153.07097999999991
 30
0.0
 40
1.5
 50
195.00001
 51
270.0
  0
ARC
  5
CEB
  8
0
  6
CONTINUOUS
 62
     7
 10
-462.70098999999999
 20
167.63122999999999
 30
0.0
 40
2.0
 50
15.0
 51
90.000003000000007
  0
ARC
  5
CEC
  8
0
  6
CONTINUOUS
 62
     7
 10
-525.82714999999985
 20
173.23584
 30
0.0
 40
2.0
 50
0.0
 51
90.000003000000007
  0
ARC
  5
CED
  8
0
  6
CONTINUOUS
 62
     7
 10
-525.82714999999985
 20
172.32532
 30
0.0
 40
2.0
 50
0.0
 51
90.000003000000007
  0
ARC
  5
CEE
  8
0
  6
CONTINUOUS
 62
     7
 10
-525.82714999999985
 20
170.4776
 30
0.0
 40
2.0
 50
0.0
 51
90.000003000000007
  0
ARC
  5
CEF
  8
0
  6
CONTINUOUS
 62
     7
 10
-559.53754000000004
 20
173.23584
 30
0.0
 40
2.0
 50
90.000003000000007
 51
172.05596
  0
ARC
  5
CF0
  8
0
  6
CONTINUOUS
 62
     7
 10
-559.55877999999996
 20
172.32532
 30
0.0
 40
2.0
 50
90.000003000000007
 51
171.3566099999999
  0
ARC
  5
CF1
  8
0
  6
CONTINUOUS
 62
     7
 10
-559.57213999999999
 20
170.4776
 30
0.0
 40
2.0
 50
90.000003000000007
 51
170.91503
  0
ARC
  5
CF2
  8
0
  6
CONTINUOUS
 62
     7
 10
-537.32720999999992
 20
150.07097999999991
 30
0.0
 40
1.5
 50
90.000003000000007
 51
180.00001
  0
ARC
  5
CF3
  8
0
  6
CONTINUOUS
 62
     7
 10
-559.62072999999987
 20
167.63122999999999
 30
0.0
 40
2.0
 50
90.000003000000007
 51
169.28431
  0
ARC
  5
CF4
  8
0
  6
CONTINUOUS
 62
     7
 10
-575.82714999999985
 20
73.107726999999983
 30
0.0
 40
1.0
 50
179.99998999999991
 51
239.64048999999989
  0
ARC
  5
CF5
  8
0
  6
CONTINUOUS
 62
     7
 10
-572.82714999999985
 20
72.363037000000006
 30
0.0
 40
1.0
 50
334.63675999999998
 51
0.0
  0
ARC
  5
CF6
  8
0
  6
CONTINUOUS
 62
     7
 10
-561.14922999999999
 20
78.302795000000003
 30
0.0
 40
1.6779174999999991
 50
90.000003000000007
 51
270.0
  0
ARC
  5
CF7
  8
0
  6
CONTINUOUS
 62
     7
 10
-561.36565999999993
 20
88.323241999999979
 30
0.0
 40
1.461502099999997
 50
90.000003000000007
 51
270.0
  0
ARC
  5
CF8
  8
0
  6
CONTINUOUS
 62
     7
 10
-561.49621999999988
 20
98.335380999999998
 30
0.0
 40
1.330932599999999
 50
90.000003000000007
 51
270.0
  0
ARC
  5
CF9
  8
0
  6
CONTINUOUS
 62
     7
 10
-561.55829000000006
 20
108.34406
 30
0.0
 40
1.268920899999999
 50
90.000003000000007
 51
270.0
  0
ARC
  5
CFA
  8
0
  6
CONTINUOUS
 62
     7
 10
-561.55829000000006
 20
118.35181
 30
0.0
 40
1.268920899999999
 50
90.000003000000007
 51
270.0
  0
ARC
  5
CFB
  8
0
  6
CONTINUOUS
 62
     7
 10
-561.49621999999988
 20
128.36053000000001
 30
0.0
 40
1.330932599999999
 50
90.000003000000007
 51
270.0
  0
ARC
  5
CFC
  8
0
  6
CONTINUOUS
 62
     7
 10
-561.36565999999993
 20
138.3726199999999
 30
0.0
 40
1.4614868000000001
 50
90.000003000000007
 51
270.0
  0
ARC
  5
CFD
  8
0
  6
CONTINUOUS
 62
     7
 10
-560.27782999999965
 20
88.347960999999998
 30
0.0
 40
1.0
 50
90.000003000000007
 51
270.0
  0
ARC
  5
CFE
  8
0
  6
CONTINUOUS
 62
     7
 10
-560.27782999999965
 20
98.347969000000006
 30
0.0
 40
1.0
 50
90.000003000000007
 51
270.0
  0
ARC
  5
CFF
  8
0
  6
CONTINUOUS
 62
     7
 10
-560.27782999999965
 20
108.3479499999999
 30
0.0
 40
1.0
 50
90.000003000000007
 51
270.0
  0
ARC
  5
D00
  8
0
  6
CONTINUOUS
 62
     7
 10
-560.27782999999965
 20
118.34796
 30
0.0
 40
1.0
 50
90.000003000000007
 51
270.0
  0
ARC
  5
D01
  8
0
  6
CONTINUOUS
 62
     7
 10
-560.27782999999965
 20
128.34798000000001
 30
0.0
 40
1.0
 50
90.000003000000007
 51
270.0
  0
ARC
  5
D02
  8
0
  6
CONTINUOUS
 62
     7
 10
-560.27782999999965
 20
138.34794999999991
 30
0.0
 40
1.0
 50
90.000003000000007
 51
270.0
  0
ARC
  5
D03
  8
0
  6
CONTINUOUS
 62
     7
 10
-560.27782999999965
 20
148.34796
 30
0.0
 40
1.0
 50
90.000003000000007
 51
270.0
  0
ARC
  5
D04
  8
0
  6
CONTINUOUS
 62
     7
 10
-561.14984000000004
 20
148.39306999999991
 30
0.0
 40
1.6779127
 50
90.000003000000007
 51
270.0
  0
ARC
  5
D05
  8
0
  6
CONTINUOUS
 62
     7
 10
-477.32717999999988
 20
141.84795999999969
 30
0.0
 40
1.5
 50
0.0
 51
90.000003000000007
  0
ARC
  5
D06
  8
0
  6
CONTINUOUS
 62
     7
 10
-477.32717999999988
 20
84.847968999999964
 30
0.0
 40
1.5
 50
270.0
 51
0.0
  0
ARC
  5
D07
  8
0
  6
CONTINUOUS
 62
     7
 10
-572.82714999999985
 20
96.347954000000016
 30
0.0
 40
1.0
 50
0.0
 51
90.000003000000007
  0
ARC
  5
D08
  8
0
  6
CONTINUOUS
 62
     7
 10
-572.82714999999985
 20
100.3479599999999
 30
0.0
 40
1.0
 50
270.0
 51
0.0
  0
ARC
  5
D09
  8
0
  6
CONTINUOUS
 62
     7
 10
-572.82714999999985
 20
106.34796
 30
0.0
 40
1.0
 50
0.0
 51
90.000003000000007
  0
ARC
  5
D0A
  8
0
  6
CONTINUOUS
 62
     7
 10
-572.82714999999985
 20
110.3479699999999
 30
0.0
 40
1.0
 50
270.0
 51
0.0
  0
ARC
  5
D0B
  8
0
  6
CONTINUOUS
 62
     7
 10
-575.82714999999985
 20
108.3479499999999
 30
0.0
 40
1.0
 50
90.000003000000007
 51
180.00001
  0
ARC
  5
D0C
  8
0
  6
CONTINUOUS
 62
     7
 10
-575.82714999999985
 20
108.3479499999999
 30
0.0
 40
1.0
 50
179.99998999999991
 51
270.0
  0
ARC
  5
D0D
  8
0
  6
CONTINUOUS
 62
     7
 10
-575.82714999999985
 20
98.347969000000006
 30
0.0
 40
1.0
 50
90.000003000000007
 51
180.00001
  0
ARC
  5
D0E
  8
0
  6
CONTINUOUS
 62
     7
 10
-575.82714999999985
 20
98.347969000000006
 30
0.0
 40
1.0
 50
179.99998999999991
 51
270.0
  0
ARC
  5
D0F
  8
0
  6
CONTINUOUS
 62
     7
 10
-575.82714999999985
 20
88.347960999999998
 30
0.0
 40
1.0
 50
90.000003000000007
 51
180.00001
  0
ARC
  5
D10
  8
0
  6
CONTINUOUS
 62
     7
 10
-575.82714999999985
 20
88.347960999999998
 30
0.0
 40
1.0
 50
179.99998999999991
 51
270.0
  0
ARC
  5
D11
  8
0
  6
CONTINUOUS
 62
     7
 10
-575.82714999999985
 20
79.173209999999983
 30
0.0
 40
1.0
 50
179.99998999999991
 51
246.8729799999999
  0
ARC
  5
D12
  8
0
  6
CONTINUOUS
 62
     7
 10
-575.82714999999985
 20
80.958671999999979
 30
0.0
 40
1.0
 50
179.99998999999991
 51
252.90236999999999
  0
ARC
  5
D13
  8
0
  6
CONTINUOUS
 62
     7
 10
-574.67687999999987
 20
80.604797000000005
 30
0.0
 40
1.0
 50
252.90236999999999
 51
270.0
  0
ARC
  5
D14
  8
0
  6
CONTINUOUS
 62
     7
 10
-574.62249999999995
 20
78.65868399999998
 30
0.0
 40
1.0
 50
246.87297000000001
 51
270.0
  0
ARC
  5
D15
  8
0
  6
CONTINUOUS
 62
     7
 10
-572.52722000000006
 20
76.958732999999981
 30
0.0
 40
0.6999999900000004
 50
0.0
 51
90.000003000000007
  0
ARC
  5
D16
  8
0
  6
CONTINUOUS
 62
     7
 10
-572.82714999999985
 20
86.347968999999964
 30
0.0
 40
1.0
 50
0.0
 51
90.000003000000007
  0
ARC
  5
D17
  8
0
  6
CONTINUOUS
 62
     7
 10
-572.82714999999985
 20
90.347954000000001
 30
0.0
 40
1.0
 50
270.0
 51
0.0
  0
ARC
  5
D18
  8
0
  6
CONTINUOUS
 62
     7
 10
-572.82714999999985
 20
80.604797000000005
 30
0.0
 40
1.0
 50
270.0
 51
0.0
  0
ARC
  5
D19
  8
0
  6
CONTINUOUS
 62
     7
 10
-458.00506999999999
 20
78.302795000000003
 30
0.0
 40
1.6779127
 50
270.0
 51
90.000003000000007
  0
ARC
  5
D1A
  8
0
  6
CONTINUOUS
 62
     7
 10
-461.48279000000002
 20
78.347954000000001
 30
0.0
 40
1.0
 50
270.0
 51
90.000003000000007
  0
ARC
  5
D1B
  8
0
  6
CONTINUOUS
 62
     7
 10
-461.48279000000002
 20
148.34796
 30
0.0
 40
1.0
 50
270.0
 51
90.000003000000007
  0
ARC
  5
D1C
  8
0
  6
CONTINUOUS
 62
     7
 10
-458.00506999999999
 20
148.39306999999991
 30
0.0
 40
1.6779127
 50
270.0
 51
90.000003000000007
  0
ARC
  5
D1D
  8
0
  6
CONTINUOUS
 62
     7
 10
-474.52719000000002
 20
80.980712999999994
 30
0.0
 40
1.0
 50
179.99998999999991
 51
270.0
  0
ARC
  5
D1E
  8
0
  6
CONTINUOUS
 62
     7
 10
-474.52719000000002
 20
145.71514999999991
 30
0.0
 40
1.0
 50
90.000003000000007
 51
180.00001
  0
CIRCLE
  5
D1F
  8
0
  6
CONTINUOUS
 62
     7
 10
-195.26221000000001
 20
151.69993999999991
 30
0.0
 40
4.9999995000000004
  0
CIRCLE
  5
D20
  8
0
  6
CONTINUOUS
 62
     7
 10
-121.17188
 20
55.143562000000003
 30
0.0
 40
4.9999995000000004
  0
ARC
  5
D21
  8
0
  6
CONTINUOUS
 62
     7
 10
-560.27782999999965
 20
78.347954000000001
 30
0.0
 40
1.0
 50
90.000003000000007
 51
270.0
  0
ARC
  5
D22
  8
0
  6
CONTINUOUS
 62
     7
 10
-572.32714999999996
 20
163.59735000000001
 30
0.0
 40
0.5
 50
270.0
 51
0.0
  0
ARC
  5
D23
  8
0
  6
CONTINUOUS
 62
     7
 10
-572.32714999999996
 20
161.45105000000001
 30
0.0
 40
0.5
 50
0.0
 51
90.000003000000007
  0
ARC
  5
D24
  8
0
  6
CONTINUOUS
 62
     7
 10
-572.82714999999985
 20
158.84961000000001
 30
0.0
 40
1.0
 50
0.0
 51
90.000003000000007
  0
ARC
  5
D25
  8
0
  6
CONTINUOUS
 62
     7
 10
-572.52722000000006
 20
149.73717999999991
 30
0.0
 40
0.6999999900000004
 50
270.0
 51
0.0
  0
ARC
  5
D26
  8
0
  6
CONTINUOUS
 62
     7
 10
-572.82714999999985
 20
154.3328699999999
 30
0.0
 40
1.0
 50
0.0
 51
90.000003000000007
  0
ARC
  5
D27
  8
0
  6
CONTINUOUS
 62
     7
 10
-572.82714999999985
 20
146.09106
 30
0.0
 40
1.0
 50
0.0
 51
90.000003000000007
  0
ARC
  5
D28
  8
0
  6
CONTINUOUS
 62
     7
 10
-572.82714999999985
 20
140.34796
 30
0.0
 40
1.0
 50
270.0
 51
0.0
  0
ARC
  5
D29
  8
0
  6
CONTINUOUS
 62
     7
 10
-572.82714999999985
 20
136.34796
 30
0.0
 40
1.0
 50
0.0
 51
90.000003000000007
  0
ARC
  5
D2A
  8
0
  6
CONTINUOUS
 62
     7
 10
-572.82714999999985
 20
130.34795999999969
 30
0.0
 40
1.0
 50
270.0
 51
0.0
  0
ARC
  5
D2B
  8
0
  6
CONTINUOUS
 62
     7
 10
-572.82714999999985
 20
126.34795
 30
0.0
 40
1.0
 50
0.0
 51
90.000003000000007
  0
ARC
  5
D2C
  8
0
  6
CONTINUOUS
 62
     7
 10
-572.82714999999985
 20
120.34795
 30
0.0
 40
1.0
 50
270.0
 51
0.0
  0
ARC
  5
D2D
  8
0
  6
CENTER
 62
     7
 10
-145.2809399999999
 20
130.34795999999969
 30
0.0
 40
85.0
 50
219.2643799999999
 51
230.99042999999989
  0
CIRCLE
  5
D2E
  8
0
  6
CONTINUOUS
 62
     7
 10
-205.38500999999999
 20
190.45203000000001
 30
0.0
 40
5.0
  0
ARC
  5
D2F
  8
0
  6
CONTINUOUS
 62
     7
 10
-145.2809399999999
 20
113.3479499999999
 30
0.0
 40
60.0
 50
303.10913999999991
 51
304.41151000000002
  0
ARC
  5
D30
  8
0
  6
CONTINUOUS
 62
     7
 10
-145.2809399999999
 20
113.3479499999999
 30
0.0
 40
60.0
 50
233.93341000000001
 51
236.89085
  0
ARC
  5
D31
  8
0
  6
CONTINUOUS
 62
     7
 10
-169.38999999999999
 20
55.14353899999999
 30
0.0
 40
7.0000004999999987
 50
161.74801999999991
 51
270.0
  0
CIRCLE
  5
D32
  8
0
  6
CONTINUOUS
 62
     7
 10
-205.38500999999999
 20
70.243881000000002
 30
0.0
 40
5.0
  0
CIRCLE
  5
D33
  8
0
  6
CONTINUOUS
 62
     7
 10
-85.176888000000005
 20
190.45203000000001
 30
0.0
 40
5.0
  0
ARC
  5
D34
  8
0
  6
CONTINUOUS
 62
     7
 10
-123.73094
 20
95.467949000000004
 30
0.0
 40
20.0
 50
225.82602999999969
 51
17.592213999999991
  0
ARC
  5
D35
  8
0
  6
CONTINUOUS
 62
     7
 10
-145.2809399999999
 20
130.34795999999969
 30
0.0
 40
66.0
 50
291.2799599999999
 51
248.72002999999989
  0
ARC
  5
D36
  8
0
  6
CONTINUOUS
 62
     7
 10
-145.2809399999999
 20
130.34795999999969
 30
0.0
 40
70.0
 50
290.65615000000008
 51
249.3438399999998
  0
ARC
  5
D37
  8
0
  6
CONTINUOUS
 62
     7
 10
-108.0184999999999
 20
79.549216999999985
 30
0.0
 40
3.0
 50
211.70912000000001
 51
306.26119999999992
  0
ARC
  5
D38
  8
0
  6
CONTINUOUS
 62
     7
 10
-116.5257899999997
 20
74.293152000000006
 30
0.0
 40
3.0
 50
297.15705000000008
 51
31.70912199999999
  0
ARC
  5
D39
  8
0
  6
CONTINUOUS
 62
     7
 10
-193.22368
 20
89.476279999999988
 30
0.0
 40
3.0
 50
220.44792000000001
 51
315.0
  0
ARC
  5
D3A
  8
0
  6
CONTINUOUS
 62
     7
 10
-180.78624999999971
 20
58.901904999999999
 30
0.0
 40
5.0
 50
341.74801999999988
 51
56.890858999999999
  0
ARC
  5
D3B
  8
0
  6
CONTINUOUS
 62
     7
 10
-109.77563000000001
 20
58.901904999999999
 30
0.0
 40
5.0
 50
123.10912999999979
 51
198.25198
  0
ARC
  5
D3C
  8
0
  6
CONTINUOUS
 62
     7
 10
-145.2809399999999
 20
130.34795999999969
 30
0.0
 40
44.0
 50
95.494178999999988
 51
132.4526799999999
  0
CIRCLE
  5
D3D
  8
0
  6
CONTINUOUS
 62
     7
 10
-85.176888000000005
 20
70.243881000000002
 30
0.0
 40
5.0
  0
ARC
  5
D3E
  8
0
  6
CONTINUOUS
 62
     7
 10
-145.2809399999999
 20
130.34795999999969
 30
0.0
 40
44.0
 50
19.999998999999981
 51
42.452682000000003
  0
ARC
  5
D3F
  8
0
  6
CONTINUOUS
 62
     7
 10
-165.03138999999999
 20
103.52643999999979
 30
0.0
 40
3.0
 50
45.826031
 51
135.0
  0
CIRCLE
  5
D40
  8
0
  6
CONTINUOUS
 62
     7
 10
-145.2809399999999
 20
130.34795999999969
 30
0.0
 40
2.4999997999999981
  0
CIRCLE
  5
D41
  8
0
  6
CONTINUOUS
 62
     2
 10
-145.2809399999999
 20
130.34795999999969
 30
0.0
 40
3.0
  0
ARC
  5
D42
  8
0
  6
CONTINUOUS
 62
     7
 10
-145.2809399999999
 20
130.34795999999969
 30
0.0
 40
9.5
 50
108.40848
 51
71.591511999999994
  0
CIRCLE
  5
D43
  8
0
  6
CONTINUOUS
 62
     7
 10
-169.38999999999999
 20
55.143562000000003
 30
0.0
 40
4.9999995000000004
  0
ARC
  5
D44
  8
0
  6
CONTINUOUS
 62
     7
 10
-145.2809399999999
 20
130.34795999999969
 30
0.0
 40
44.0
 50
47.547316999999993
 51
84.505819000000017
  0
ARC
  5
D45
  8
0
  6
CONTINUOUS
 62
     7
 10
-392.34167000000002
 20
55.143551000000002
 30
0.0
 40
9.5144920000000006
 50
342.41196000000002
 51
17.588032999999999
  0
ARC
  5
D46
  8
0
  6
CONTINUOUS
 62
     7
 10
-385.37259
 20
59.456051000000002
 30
0.0
 40
2.545406299999998
 50
325.61556999999982
 51
34.384439
  0
ARC
  5
D47
  8
0
  6
CONTINUOUS
 62
     7
 10
-385.37259
 20
50.831039000000011
 30
0.0
 40
2.545406299999998
 50
325.61556999999982
 51
34.384439
  0
ARC
  5
D48
  8
0
  6
CONTINUOUS
 62
     7
 10
-436.32717999999988
 20
55.57249800000001
 30
0.0
 40
1.5
 50
0.0
 51
88.499996999999965
  0
ARC
  5
D49
  8
0
  6
CONTINUOUS
 62
     7
 10
-436.82718
 20
60.977553999999998
 30
0.0
 40
2.0
 50
0.0
 51
90.000003000000007
  0
ARC
  5
D4A
  8
0
  6
CONTINUOUS
 62
     7
 10
-121.17188
 20
55.14353899999999
 30
0.0
 40
7.0000004999999987
 50
270.0
 51
18.251978000000001
  0
ARC
  5
D4B
  8
0
  6
CONTINUOUS
 62
     7
 10
-153.24897999999999
 20
71.847960999999984
 30
0.0
 40
3.0
 50
270.0
 51
45.00000099999999
  0
ARC
  5
D4C
  8
0
  6
CONTINUOUS
 62
     7
 10
-206.65572
 20
69.347954000000001
 30
0.0
 40
10.0
 50
184.99999
 51
270.0
  0
ARC
  5
D4D
  8
0
  6
CONTINUOUS
 62
     7
 10
-83.906181000000004
 20
69.347954000000001
 30
0.0
 40
10.0
 50
270.0
 51
355.0
  0
ARC
  5
D4E
  8
0
  6
CONTINUOUS
 62
     7
 10
-206.62555
 20
191.6925699999999
 30
0.0
 40
10.0
 50
95.000001999999995
 51
175.00001
  0
ARC
  5
D4F
  8
0
  6
CONTINUOUS
 62
     7
 10
-145.2809399999999
 20
113.3479499999999
 30
0.0
 40
60.0
 50
303.10913999999991
 51
306.06658999999991
  0
ARC
  5
D50
  8
0
  6
CONTINUOUS
 62
     7
 10
-572.82714999999985
 20
116.3479699999999
 30
0.0
 40
1.0
 50
0.0
 51
90.000003000000007
  0
ARC
  5
D51
  8
0
  6
CONTINUOUS
 62
     7
 10
-575.82714999999985
 20
118.34796
 30
0.0
 40
1.0
 50
179.99998999999991
 51
270.0
  0
ARC
  5
D52
  8
0
  6
CONTINUOUS
 62
     7
 10
-575.82714999999985
 20
118.34796
 30
0.0
 40
1.0
 50
90.000003000000007
 51
180.00001
  0
ARC
  5
D53
  8
0
  6
CONTINUOUS
 62
     7
 10
-575.82714999999985
 20
128.34798000000001
 30
0.0
 40
1.0
 50
179.99998999999991
 51
270.0
  0
ARC
  5
D54
  8
0
  6
CONTINUOUS
 62
     7
 10
-575.82714999999985
 20
128.34798000000001
 30
0.0
 40
1.0
 50
90.000003000000007
 51
180.00001
  0
ARC
  5
D55
  8
0
  6
CONTINUOUS
 62
     7
 10
-575.82714999999985
 20
138.34794999999991
 30
0.0
 40
1.0
 50
179.99998999999991
 51
270.0
  0
ARC
  5
D56
  8
0
  6
CONTINUOUS
 62
     7
 10
-575.82714999999985
 20
138.34794999999991
 30
0.0
 40
1.0
 50
90.000003000000007
 51
180.00001
  0
ARC
  5
D57
  8
0
  6
CONTINUOUS
 62
     7
 10
-575.82714999999985
 20
147.52270999999979
 30
0.0
 40
1.0
 50
113.12703
 51
180.00001
  0
ARC
  5
D58
  8
0
  6
CONTINUOUS
 62
     7
 10
-575.82714999999985
 20
145.73723999999979
 30
0.0
 40
1.0
 50
107.0976299999999
 51
180.00001
  0
ARC
  5
D59
  8
0
  6
CONTINUOUS
 62
     7
 10
-574.67687999999987
 20
146.09106
 30
0.0
 40
1.0
 50
90.000003000000007
 51
107.0976299999999
  0
ARC
  5
D5A
  8
0
  6
CONTINUOUS
 62
     7
 10
-574.62249999999995
 20
148.0371599999998
 30
0.0
 40
1.0
 50
90.000003000000007
 51
113.12703
  0
ARC
  5
D5B
  8
0
  6
CONTINUOUS
 62
     7
 10
-575.82714999999985
 20
159.22325000000001
 30
0.0
 40
1.0
 50
120.9666
 51
180.00001
  0
ARC
  5
D5C
  8
0
  6
CONTINUOUS
 62
     7
 10
-575.82714999999985
 20
158.18768
 30
0.0
 40
1.0
 50
117.92659999999979
 51
180.00001
  0
ARC
  5
D5D
  8
0
  6
CONTINUOUS
 62
     7
 10
-575.82714999999985
 20
154.62126000000001
 30
0.0
 40
1.0
 50
123.25473
 51
180.00001
  0
ARC
  5
D5E
  8
0
  6
CONTINUOUS
 62
     7
 10
-575.82714999999985
 20
153.58817999999999
 30
0.0
 40
1.0
 50
120.3594999999999
 51
180.00001
  0
ARC
  5
D5F
  8
0
  6
CONTINUOUS
 62
     7
 10
-574.55584999999985
 20
154.3328699999999
 30
0.0
 40
1.0
 50
90.000003000000007
 51
120.3594999999999
  0
ARC
  5
D60
  8
0
  6
CONTINUOUS
 62
     7
 10
-574.52855999999986
 20
155.47283999999991
 30
0.0
 40
1.0
 50
90.000003000000007
 51
123.25473
  0
ARC
  5
D61
  8
0
  6
CONTINUOUS
 62
     7
 10
-574.57854999999995
 20
158.84961000000001
 30
0.0
 40
1.0
 50
90.000003000000007
 51
117.92659999999979
  0
ARC
  5
D62
  8
0
  6
CONTINUOUS
 62
     7
 10
-574.55016999999998
 20
159.98955000000001
 30
0.0
 40
1.0
 50
90.000003000000007
 51
120.9666
  0
ARC
  5
D63
  8
0
  6
CONTINUOUS
 62
     7
 10
-574.58789000000002
 20
160.95103
 30
0.0
 40
1.0
 50
90.000003000000007
 51
116.91126
  0
ARC
  5
D64
  8
0
  6
CONTINUOUS
 62
     7
 10
-574.55895999999996
 20
162.09735000000001
 30
0.0
 40
1.0
 50
90.000003000000007
 51
120.0264
  0
ARC
  5
D65
  8
0
  6
CONTINUOUS
 62
     7
 10
-575.82714999999985
 20
160.32202000000001
 30
0.0
 40
1.0
 50
116.91126
 51
180.00001
  0
ARC
  5
D66
  8
0
  6
CONTINUOUS
 62
     7
 10
-575.82714999999985
 20
161.3642999999999
 30
0.0
 40
1.0
 50
120.0264
 51
180.00001
  0
ARC
  5
D67
  8
0
  6
CONTINUOUS
 62
     3
 10
-528.32720999999992
 20
135.8477199999997
 30
0.0
 40
5.5
 50
264.78411999999992
 51
5.2159094000000001
  0
ARC
  5
D68
  8
0
  6
CONTINUOUS
 62
     7
 10
-83.936347999999995
 20
191.6925699999999
 30
0.0
 40
10.0
 50
4.9999998999999971
 51
84.999996999999979
  0
CIRCLE
  5
D69
  8
0
  6
CONTINUOUS
 62
     7
 10
-95.299698000000006
 20
151.69993999999991
 30
0.0
 40
4.9999995000000004
  0
ARC
  5
D6A
  8
0
  6
CONTINUOUS
 62
     7
 10
-433.32718
 20
50.309520999999997
 30
0.0
 40
1.5
 50
179.99998999999991
 51
268.50000999999992
  0
ARC
  5
D6B
  8
0
  6
CONTINUOUS
 62
     7
 10
-164.81053
 20
156.94860999999969
 30
0.0
 40
3.0
 50
225.0
 51
306.28525999999982
  0
ARC
  5
D6C
  8
0
  6
CONTINUOUS
 62
     7
 10
-118.68026999999969
 20
149.87753000000001
 30
0.0
 40
3.0
 50
135.0
 51
216.28525999999991
  0
ARC
  5
D6D
  8
0
  6
CONTINUOUS
 62
     7
 10
-145.2809399999999
 20
130.34795999999969
 30
0.0
 40
30.0
 50
17.592213999999991
 51
225.82602999999969
  0
ARC
  5
D6E
  8
0
  6
CENTER
 62
     7
 10
-145.2809399999999
 20
130.34795999999969
 30
0.0
 40
85.0
 50
38.309049000000002
 51
50.918537999999991
  0
ARC
  5
D6F
  8
0
  6
CONTINUOUS
 62
     7
 10
-374.82717999999988
 20
75.732658000000001
 30
0.0
 40
2.0
 50
268.0
 51
0.0
  0
ARC
  5
D70
  8
0
  6
CONTINUOUS
 62
     7
 10
-375.82715000000002
 20
62.724735000000003
 30
0.0
 40
2.0
 50
179.99998999999991
 51
268.00000999999992
  0
ARC
  5
D71
  8
0
  6
CONTINUOUS
 62
     7
 10
-375.82715000000002
 20
89.812965000000005
 30
0.0
 40
2.0
 50
90.000003000000007
 51
180.00001
  0
ARC
  5
D72
  8
0
  6
CONTINUOUS
 62
     7
 10
-96.902443000000005
 20
134.84796
 30
0.0
 40
3.0
 50
200.0
 51
270.0
  0
ARC
  5
D73
  8
0
  6
CONTINUOUS
 62
     7
 10
-93.626732000000004
 20
125.84796
 30
0.0
 40
3.0
 50
90.000003000000007
 51
200.0
  0
ARC
  5
D74
  8
0
  6
CONTINUOUS
 62
     7
 10
-82.44188699999998
 20
125.84796
 30
0.0
 40
3.0
 50
355.90395999999993
 51
90.000003000000007
  0
ARC
  5
D75
  8
0
  6
CONTINUOUS
 62
     7
 10
-82.44188699999998
 20
134.84796
 30
0.0
 40
3.0
 50
270.0
 51
4.096044
  0
ARC
  5
D76
  8
0
  6
CONTINUOUS
 62
     7
 10
-192.06503000000001
 20
134.84796
 30
0.0
 40
3.0
 50
270.0
 51
354.50582000000009
  0
ARC
  5
D77
  8
0
  6
CONTINUOUS
 62
     7
 10
-192.06503000000001
 20
125.84796
 30
0.0
 40
3.0
 50
5.494178999999999
 51
90.000003000000007
  0
ARC
  5
D78
  8
0
  6
CONTINUOUS
 62
     7
 10
-208.12001000000001
 20
134.84796
 30
0.0
 40
3.0
 50
175.90395000000001
 51
270.0
  0
ARC
  5
D79
  8
0
  6
CONTINUOUS
 62
     7
 10
-140.78093999999979
 20
177.1320199999999
 30
0.0
 40
3.0
 50
179.99998999999991
 51
264.50582000000003
  0
ARC
  5
D7A
  8
0
  6
CONTINUOUS
 62
     7
 10
-149.7809399999999
 20
177.1320199999999
 30
0.0
 40
3.0
 50
275.49417999999991
 51
0.0
  0
ARC
  5
D7B
  8
0
  6
CONTINUOUS
 62
     7
 10
-145.2809399999999
 20
130.34795999999969
 30
0.0
 40
44.0
 50
185.49419
 51
222.45267999999999
  0
ARC
  5
D7C
  8
0
  6
CONTINUOUS
 62
     7
 10
-208.12001000000001
 20
125.84796
 30
0.0
 40
3.0
 50
90.000003000000007
 51
184.09603999999999
  0
ARC
  5
D7D
  8
0
  6
CONTINUOUS
 62
     7
 10
-140.78093999999979
 20
193.18702999999991
 30
0.0
 40
3.0
 50
85.903959
 51
180.00001
  0
ARC
  5
D7E
  8
0
  6
CONTINUOUS
 62
     7
 10
-145.2809399999999
 20
130.34795999999969
 30
0.0
 40
20.0
 50
90.000003000000007
 51
270.0
  0
ARC
  5
D7F
  8
0
  6
CONTINUOUS
 62
     7
 10
-375.82715000000002
 20
203.06738000000001
 30
0.0
 40
2.0
 50
91.999998000000005
 51
180.00001
  0
ARC
  5
D80
  8
0
  6
CONTINUOUS
 62
     7
 10
-104.40926
 20
178.2906999999999
 30
0.0
 40
3.0
 50
315.0
 51
49.552073
  0
ARC
  5
D81
  8
0
  6
CONTINUOUS
 62
     7
 10
-193.22368
 20
171.21961999999991
 30
0.0
 40
3.0
 50
45.00000099999999
 51
139.5520799999999
  0
ARC
  5
D82
  8
0
  6
CONTINUOUS
 62
     7
 10
-430.32718
 20
171.28054999999981
 30
0.0
 40
1.5
 50
271.49999999999972
 51
0.0
  0
ARC
  5
D83
  8
0
  6
CONTINUOUS
 62
     7
 10
-427.32717999999988
 20
171.72961000000001
 30
0.0
 40
1.5
 50
91.500000999999969
 51
180.00001
  0
ARC
  5
D84
  8
0
  6
CONTINUOUS
 62
     7
 10
-393.82715000000002
 20
177.10838000000001
 30
0.0
 40
3.0
 50
271.49999999999972
 51
0.0
  0
ARC
  5
D85
  8
0
  6
CONTINUOUS
 62
     7
 10
-145.2809399999999
 20
130.34795999999969
 30
0.0
 40
20.0
 50
270.0
 51
90.000003000000007
  0
ARC
  5
D86
  8
0
  6
CONTINUOUS
 62
     7
 10
-364.82717999999988
 20
111.10353000000001
 30
0.0
 40
2.0
 50
315.0
 51
0.0
  0
ARC
  5
D87
  8
0
  6
CONTINUOUS
 62
     7
 10
-375.82715000000002
 20
189.8479599999998
 30
0.0
 40
3.0
 50
0.0
 51
90.000003000000007
  0
ARC
  5
D88
  8
0
  6
CONTINUOUS
 62
     7
 10
-145.2809399999999
 20
130.34795999999969
 30
0.0
 40
20.0
 50
90.000003000000007
 51
270.0
  0
ARC
  5
D89
  8
0
  6
CONTINUOUS
 62
     7
 10
-385.82718
 20
63.271534000000003
 30
0.0
 40
1.0
 50
91.500000999999969
 51
180.00001
  0
ARC
  5
D8A
  8
0
  6
CONTINUOUS
 62
     7
 10
-364.82717999999988
 20
149.44666000000001
 30
0.0
 40
2.0
 50
0.0
 51
45.00000099999999
  0
ARC
  5
D8B
  8
0
  6
CONTINUOUS
 62
     7
 10
-430.82717999999988
 20
62.556083999999991
 30
0.0
 40
2.0
 50
270.0
 51
0.0
  0
ARC
  5
D8C
  8
0
  6
CONTINUOUS
 62
     7
 10
-385.82718
 20
88.612662999999998
 30
0.0
 40
5.0
 50
179.99998999999991
 51
270.0
  0
ARC
  5
D8D
  8
0
  6
CENTER
 62
     7
 10
-145.2809399999999
 20
130.34795999999969
 30
0.0
 40
85.0
 50
309.01229999999993
 51
320.94396
  0
ARC
  5
D8E
  8
0
  6
CONTINUOUS
 62
     7
 10
-385.82718
 20
194.57908999999981
 30
0.0
 40
5.0
 50
91.999998000000005
 51
180.00001
  0
ARC
  5
D8F
  8
0
  6
CONTINUOUS
 62
     7
 10
-97.338211000000001
 20
171.21961999999991
 30
0.0
 40
3.0
 50
40.447929000000002
 51
135.0
  0
ARC
  5
D90
  8
0
  6
CENTER
 62
     7
 10
-145.2809399999999
 20
130.34795999999969
 30
0.0
 40
85.0
 50
128.65526
 51
140.90127000000001
  0
ARC
  5
D91
  8
0
  6
CONTINUOUS
 62
     7
 10
-171.88160999999991
 20
110.81837
 30
0.0
 40
3.0
 50
315.0
 51
36.285257000000001
  0
ARC
  5
D92
  8
0
  6
CONTINUOUS
 62
     7
 10
-375.82715000000002
 20
402.43126999999998
 30
0.0
 40
2.0
 50
179.99998999999991
 51
271.51463999999999
  0
ARC
  5
D93
  8
0
  6
CONTINUOUS
 62
     7
 10
-380.82717999999988
 20
434.40149000000002
 30
0.0
 40
3.0
 50
272.0
 51
0.0
  0
ARC
  5
D94
  8
0
  6
CONTINUOUS
 62
     7
 10
-385.82718
 20
426.22201999999987
 30
0.0
 40
5.0
 50
91.999998000000005
 51
180.00001
  0
ARC
  5
D95
  8
0
  6
CONTINUOUS
 62
     7
 10
-364.82717999999988
 20
381.08959999999968
 30
0.0
 40
2.0
 50
0.0
 51
45.00000099999999
  0
ARC
  5
D96
  8
0
  6
CONTINUOUS
 62
     7
 10
-375.82715000000002
 20
421.49090999999981
 30
0.0
 40
3.0
 50
0.0
 51
90.000003000000007
  0
ARC
  5
D97
  8
0
  6
CONTINUOUS
 62
     7
 10
-375.82715000000002
 20
434.71030000000002
 30
0.0
 40
2.0
 50
91.999998000000005
 51
180.00001
  0
ARC
  5
D98
  8
0
  6
CONTINUOUS
 62
     7
 10
-430.82715000000002
 20
328.05095999999992
 30
0.0
 40
2.0
 50
0.0
 51
90.000003000000007
  0
ARC
  5
D99
  8
0
  6
CONTINUOUS
 62
     7
 10
-385.82718
 20
297.75977
 30
0.0
 40
5.0
 50
179.99998999999991
 51
268.00000999999992
  0
ARC
  5
D9A
  8
0
  6
CONTINUOUS
 62
     7
 10
-439.8271499999999
 20
313.80660999999992
 30
0.0
 40
2.0
 50
0.0
 51
88.499996999999965
  0
ARC
  5
D9B
  8
0
  6
CONTINUOUS
 62
     7
 10
-430.82715000000002
 20
410.41085999999979
 30
0.0
 40
2.0
 50
271.49999999999972
 51
0.0
  0
ARC
  5
D9C
  8
0
  6
CONTINUOUS
 62
     7
 10
-426.82714999999979
 20
419.88547
 30
0.0
 40
2.0
 50
91.500000999999969
 51
180.00001
  0
ARC
  5
D9D
  8
0
  6
CONTINUOUS
 62
     7
 10
-430.82715000000002
 20
313.57091999999989
 30
0.0
 40
2.0
 50
0.0
 51
88.499996999999965
  0
ARC
  5
D9E
  8
0
  6
CONTINUOUS
 62
     7
 10
-430.23779000000002
 20
303.31038999999993
 30
0.0
 40
1.5
 50
12.976653000000001
 51
88.499996999999965
  0
ARC
  5
D9F
  8
0
  6
CONTINUOUS
 62
     7
 10
-430.23779000000002
 20
420.67142000000001
 30
0.0
 40
1.5
 50
271.49999999999972
 51
347.02334999999982
  0
ARC
  5
DA0
  8
0
  6
CONTINUOUS
 62
     7
 10
-435.82714999999979
 20
306.95794999999993
 30
0.0
 40
2.0
 50
180.00001
 51
268.5
  0
ARC
  5
DA1
  8
0
  6
CONTINUOUS
 62
     7
 10
-430.82715000000002
 20
395.93085000000002
 30
0.0
 40
2.0
 50
270.0
 51
0.0
  0
ARC
  5
DA2
  8
0
  6
CONTINUOUS
 62
     7
 10
-435.82714999999979
 20
417.02382999999992
 30
0.0
 40
2.0
 50
91.500000999999969
 51
180.00001
  0
ARC
  5
DA3
  8
0
  6
CONTINUOUS
 62
     7
 10
-426.82714999999979
 20
304.09631000000002
 30
0.0
 40
2.0
 50
180.00001
 51
268.5
  0
ARC
  5
DA4
  8
0
  6
CONTINUOUS
 62
     7
 10
-380.82717999999988
 20
289.58028999999982
 30
0.0
 40
3.0
 50
0.0
 51
88.0
  0
ARC
  5
DA5
  8
0
  6
CONTINUOUS
 62
     7
 10
-375.82715000000002
 20
302.49087999999989
 30
0.0
 40
3.0
 50
270.0
 51
0.0
  0
ARC
  5
DA6
  8
0
  6
CONTINUOUS
 62
     7
 10
-364.82717999999988
 20
342.89217999999988
 30
0.0
 40
2.0
 50
315.0
 51
0.0
  0
ARC
  5
DA7
  8
0
  6
CONTINUOUS
 62
     7
 10
-375.82715000000002
 20
321.55050999999992
 30
0.0
 40
2.0
 50
88.485352999999989
 51
180.00001
  0
ARC
  5
DA8
  8
0
  6
CONTINUOUS
 62
     7
 10
-354.82720999999992
 20
361.99090999999999
 30
0.0
 40
3.0
 50
89.986013999999983
 51
270.01398999999992
  0
ARC
  5
DA9
  8
0
  6
CONTINUOUS
 62
     7
 10
-439.8271499999999
 20
410.17516999999992
 30
0.0
 40
2.0
 50
271.49999999999972
 51
0.0
  0
ARC
  5
DAA
  8
0
  6
CONTINUOUS
 62
     7
 10
-375.82715000000002
 20
289.27147999999983
 30
0.0
 40
2.0
 50
179.99998999999991
 51
268.00000999999992
  0
POLYLINE
  5
DAB
  8
0
  6
CONTINUOUS
 62
     7
 66
     1
 10
0.0
 20
0.0
 30
0.0
  0
VERTEX
  5
DAC
  8
0
  6
CONTINUOUS
 62
     7
 10
-560.46715999999992
 20
361.99090999999999
 30
0.0
 42
0.00039106593
  0
VERTEX
  5
DAD
  8
0
  6
CONTINUOUS
 62
     7
 10
-560.46951999999999
 20
361.67977000000002
 30
0.0
 42
0.00040574899
  0
VERTEX
  5
DAE
  8
0
  6
CONTINUOUS
 62
     7
 10
-560.47139000000004
 20
361.36865999999992
 30
0.0
 42
0.0003534546
  0
VERTEX
  5
DAF
  8
0
  6
CONTINUOUS
 62
     7
 10
-560.47277999999994
 20
361.05756000000002
 30
0.0
 42
0.00034407327
  0
VERTEX
  5
DB0
  8
0
  6
CONTINUOUS
 62
     7
 10
-560.47375999999986
 20
360.74641999999989
 30
0.0
 42
0.00045699408
  0
VERTEX
  5
DB1
  8
0
  6
CONTINUOUS
 62
     7
 10
-560.47421999999995
 20
360.43531000000002
 30
0.0
 42
0.00035571853
  0
VERTEX
  5
DB2
  8
0
  6
CONTINUOUS
 62
     7
 10
-560.47417999999993
 20
360.12421000000001
 30
0.0
 42
0.00038547362
  0
VERTEX
  5
DB3
  8
0
  6
CONTINUOUS
 62
     7
 10
-560.47369000000003
 20
359.81306999999998
 30
0.0
 42
0.00035501498
  0
VERTEX
  5
DB4
  8
0
  6
CONTINUOUS
 62
     7
 10
-560.47272999999996
 20
359.50196999999991
 30
0.0
 42
0.00040118614
  0
VERTEX
  5
DB5
  8
0
  6
CONTINUOUS
 62
     7
 10
-560.47131000000002
 20
359.19072999999992
 30
0.0
 42
0.00038319871
  0
VERTEX
  5
DB6
  8
0
  6
CONTINUOUS
 62
     7
 10
-560.46939999999995
 20
358.87959999999993
 30
0.0
 42
0.00040742136
  0
VERTEX
  5
DB7
  8
0
  6
CONTINUOUS
 62
     7
 10
-560.46699999999964
 20
358.56837000000002
 30
0.0
 42
0.0003578071
  0
VERTEX
  5
DB8
  8
0
  6
CONTINUOUS
 62
     7
 10
-560.46411000000001
 20
358.25725999999992
 30
0.0
  0
SEQEND
  5
DB9
  8
0
 62
     7
  0
POLYLINE
  5
DBA
  8
0
  6
CONTINUOUS
 62
     7
 66
     1
 10
0.0
 20
0.0
 30
0.0
  0
VERTEX
  5
DBB
  8
0
  6
CONTINUOUS
 62
     7
 10
-560.42309999999986
 20
355.72052000000002
 30
0.0
 42
0.00076695232
  0
VERTEX
  5
DBC
  8
0
  6
CONTINUOUS
 62
     7
 10
-560.40830000000005
 20
355.10275999999988
 30
0.0
 42
0.00073263044
  0
VERTEX
  5
DBD
  8
0
  6
CONTINUOUS
 62
     7
 10
-560.39165999999977
 20
354.48516000000001
 30
0.0
 42
0.0007652599
  0
VERTEX
  5
DBE
  8
0
  6
CONTINUOUS
 62
     7
 10
-560.37316999999985
 20
353.86748999999992
 30
0.0
 42
0.00075144485
  0
VERTEX
  5
DBF
  8
0
  6
CONTINUOUS
 62
     7
 10
-560.35279999999977
 20
353.24988999999999
 30
0.0
 42
0.00078594403
  0
VERTEX
  5
DC0
  8
0
  6
CONTINUOUS
 62
     7
 10
-560.33055000000002
 20
352.63245999999992
 30
0.0
 42
0.00073349202
  0
VERTEX
  5
DC1
  8
0
  6
CONTINUOUS
 62
     7
 10
-560.30640000000005
 20
352.01507999999978
 30
0.0
 42
0.0007358075
  0
VERTEX
  5
DC2
  8
0
  6
CONTINUOUS
 62
     7
 10
-560.28045999999995
 20
351.39767999999998
 30
0.0
 42
0.00078592699
  0
VERTEX
  5
DC3
  8
0
  6
CONTINUOUS
 62
     7
 10
-560.25262999999995
 20
350.78028999999992
 30
0.0
 42
0.00074823144
  0
VERTEX
  5
DC4
  8
0
  6
CONTINUOUS
 62
     7
 10
-560.22289999999998
 20
350.16289999999992
 30
0.0
 42
0.00074896603
  0
VERTEX
  5
DC5
  8
0
  6
CONTINUOUS
 62
     7
 10
-560.19133999999985
 20
349.54577
 30
0.0
 42
0.00076039765
  0
VERTEX
  5
DC6
  8
0
  6
CONTINUOUS
 62
     7
 10
-560.15791999999965
 20
348.92874
 30
0.0
 42
0.00075616128
  0
VERTEX
  5
DC7
  8
0
  6
CONTINUOUS
 62
     7
 10
-560.12261999999998
 20
348.31171000000001
 30
0.0
  0
SEQEND
  5
DC8
  8
0
 62
     7
  0
POLYLINE
  5
DC9
  8
0
  6
CONTINUOUS
 62
     7
 66
     1
 10
0.0
 20
0.0
 30
0.0
  0
VERTEX
  5
DCA
  8
0
  6
CONTINUOUS
 62
     7
 10
-559.94890999999996
 20
345.65033
 30
0.0
 42
0.00073721992
  0
VERTEX
  5
DCB
  8
0
  6
CONTINUOUS
 62
     7
 10
-559.90476000000001
 20
345.04791999999992
 30
0.0
 42
0.00074398496
  0
VERTEX
  5
DCC
  8
0
  6
CONTINUOUS
 62
     7
 10
-559.85883000000001
 20
344.44565
 30
0.0
 42
0.00073322625
  0
VERTEX
  5
DCD
  8
0
  6
CONTINUOUS
 62
     7
 10
-559.81110000000001
 20
343.84331999999972
 30
0.0
 42
0.00073594289
  0
VERTEX
  5
DCE
  8
0
  6
CONTINUOUS
 62
     7
 10
-559.76161999999999
 20
343.24133
 30
0.0
 42
0.00074742568
  0
VERTEX
  5
DCF
  8
0
  6
CONTINUOUS
 62
     7
 10
-559.71034999999995
 20
342.63947000000002
 30
0.0
 42
0.00073216749
  0
VERTEX
  5
DD0
  8
0
  6
CONTINUOUS
 62
     7
 10
-559.65728999999988
 20
342.03766000000002
 30
0.0
 42
0.00074184065
  0
VERTEX
  5
DD1
  8
0
  6
CONTINUOUS
 62
     7
 10
-559.60247000000004
 20
341.43612999999988
 30
0.0
 42
0.00072077528
  0
VERTEX
  5
DD2
  8
0
  6
CONTINUOUS
 62
     7
 10
-559.54588999999964
 20
340.8349
 30
0.0
 42
0.00074978179
  0
VERTEX
  5
DD3
  8
0
  6
CONTINUOUS
 62
     7
 10
-559.48755000000006
 20
340.2337
 30
0.0
 42
0.00074288888
  0
VERTEX
  5
DD4
  8
0
  6
CONTINUOUS
 62
     7
 10
-559.42740000000003
 20
339.63267999999999
 30
0.0
 42
0.00072503679
  0
VERTEX
  5
DD5
  8
0
  6
CONTINUOUS
 62
     7
 10
-559.36549000000002
 20
339.03193999999991
 30
0.0
 42
0.00074640584
  0
VERTEX
  5
DD6
  8
0
  6
CONTINUOUS
 62
     7
 10
-559.30182000000002
 20
338.43133999999992
 30
0.0
  0
SEQEND
  5
DD7
  8
0
 62
     7
  0
POLYLINE
  5
DD8
  8
0
  6
CONTINUOUS
 62
     7
 66
     1
 10
0.0
 20
0.0
 30
0.0
  0
VERTEX
  5
DD9
  8
0
  6
CONTINUOUS
 62
     7
 10
-558.96624999999995
 20
335.50787000000008
 30
0.0
 42
0.0006890001
  0
VERTEX
  5
DDA
  8
0
  6
CONTINUOUS
 62
     7
 10
-558.89537000000007
 20
334.93311999999992
 30
0.0
 42
0.00070644651
  0
VERTEX
  5
DDB
  8
0
  6
CONTINUOUS
 62
     7
 10
-558.82286999999997
 20
334.35843999999992
 30
0.0
 42
0.0006924559
  0
VERTEX
  5
DDC
  8
0
  6
CONTINUOUS
 62
     7
 10
-558.7487799999999
 20
333.78411999999992
 30
0.0
 42
0.00069587797
  0
VERTEX
  5
DDD
  8
0
  6
CONTINUOUS
 62
     7
 10
-558.67309999999986
 20
333.20997999999992
 30
0.0
 42
0.00071687041
  0
VERTEX
  5
DDE
  8
0
  6
CONTINUOUS
 62
     7
 10
-558.59579000000008
 20
332.6359799999999
 30
0.0
 42
0.00069759113
  0
VERTEX
  5
DDF
  8
0
  6
CONTINUOUS
 62
     7
 10
-558.51684999999986
 20
332.06218999999987
 30
0.0
 42
0.00071003142
  0
VERTEX
  5
DE0
  8
0
  6
CONTINUOUS
 62
     7
 10
-558.43630999999993
 20
331.48872
 30
0.0
 42
0.00069954544
  0
VERTEX
  5
DE1
  8
0
  6
CONTINUOUS
 62
     7
 10
-558.35416999999995
 20
330.91561999999982
 30
0.0
 42
0.0007188852
  0
VERTEX
  5
DE2
  8
0
  6
CONTINUOUS
 62
     7
 10
-558.27039000000002
 20
330.34258999999992
 30
0.0
 42
0.00071266165
  0
VERTEX
  5
DE3
  8
0
  6
CONTINUOUS
 62
     7
 10
-558.18495999999993
 20
329.7698299999999
 30
0.0
 42
0.00071614577
  0
VERTEX
  5
DE4
  8
0
  6
CONTINUOUS
 62
     7
 10
-558.09793000000002
 20
329.19747999999993
 30
0.0
 42
0.00072290806
  0
VERTEX
  5
DE5
  8
0
  6
CONTINUOUS
 62
     7
 10
-558.00922000000003
 20
328.62518
 30
0.0
  0
SEQEND
  5
DE6
  8
0
 62
     7
  0
POLYLINE
  5
DE7
  8
0
  6
CONTINUOUS
 62
     7
 66
     1
 10
0.0
 20
0.0
 30
0.0
  0
VERTEX
  5
DE8
  8
0
  6
CONTINUOUS
 62
     7
 10
-560.46715999999992
 20
361.99090999999999
 30
0.0
 42
-0.00039106653
  0
VERTEX
  5
DE9
  8
0
  6
CONTINUOUS
 62
     7
 10
-560.46951999999999
 20
362.30203999999992
 30
0.0
 42
-0.00040574511
  0
VERTEX
  5
DEA
  8
0
  6
CONTINUOUS
 62
     7
 10
-560.47139000000004
 20
362.61315000000002
 30
0.0
 42
-0.00035346331
  0
VERTEX
  5
DEB
  8
0
  6
CONTINUOUS
 62
     7
 10
-560.47277999999994
 20
362.92425999999989
 30
0.0
 42
-0.00034406545
  0
VERTEX
  5
DEC
  8
0
  6
CONTINUOUS
 62
     7
 10
-560.47375999999986
 20
363.23540000000003
 30
0.0
 42
-0.00045699059
  0
VERTEX
  5
DED
  8
0
  6
CONTINUOUS
 62
     7
 10
-560.47421999999995
 20
363.54649999999992
 30
0.0
 42
-0.00035573431
  0
VERTEX
  5
DEE
  8
0
  6
CONTINUOUS
 62
     7
 10
-560.47417999999993
 20
363.85759999999999
 30
0.0
 42
-0.00038545888
  0
VERTEX
  5
DEF
  8
0
  6
CONTINUOUS
 62
     7
 10
-560.47369000000003
 20
364.16874000000001
 30
0.0
 42
-0.00035501203
  0
VERTEX
  5
DF0
  8
0
  6
CONTINUOUS
 62
     7
 10
-560.47272999999996
 20
364.47985
 30
0.0
 42
-0.00040120778
  0
VERTEX
  5
DF1
  8
0
  6
CONTINUOUS
 62
     7
 10
-560.47131000000002
 20
364.79107999999991
 30
0.0
 42
-0.00038317821
  0
VERTEX
  5
DF2
  8
0
  6
CONTINUOUS
 62
     7
 10
-560.46939999999995
 20
365.10221000000001
 30
0.0
 42
-0.00040741862
  0
VERTEX
  5
DF3
  8
0
  6
CONTINUOUS
 62
     7
 10
-560.46699999999964
 20
365.41343999999992
 30
0.0
 42
-0.00035783324
  0
VERTEX
  5
DF4
  8
0
  6
CONTINUOUS
 62
     7
 10
-560.46411000000001
 20
365.72455000000002
 30
0.0
  0
SEQEND
  5
DF5
  8
0
 62
     7
  0
POLYLINE
  5
DF6
  8
0
  6
CONTINUOUS
 62
     7
 66
     1
 10
0.0
 20
0.0
 30
0.0
  0
VERTEX
  5
DF7
  8
0
  6
CONTINUOUS
 62
     7
 10
-560.42309999999986
 20
368.26128999999992
 30
0.0
 42
-0.00076691987
  0
VERTEX
  5
DF8
  8
0
  6
CONTINUOUS
 62
     7
 10
-560.40830000000005
 20
368.87905000000001
 30
0.0
 42
-0.00073262795
  0
VERTEX
  5
DF9
  8
0
  6
CONTINUOUS
 62
     7
 10
-560.39165999999977
 20
369.49664999999999
 30
0.0
 42
-0.0007652954
  0
VERTEX
  5
DFA
  8
0
  6
CONTINUOUS
 62
     7
 10
-560.37316999999985
 20
370.11432000000002
 30
0.0
 42
-0.00077334627
  0
VERTEX
  5
DFB
  8
0
  6
CONTINUOUS
 62
     7
 10
-560.35275999999965
 20
370.73192
 30
0.0
 42
-0.00073282897
  0
VERTEX
  5
DFC
  8
0
  6
CONTINUOUS
 62
     7
 10
-560.33050000000003
 20
371.34933999999993
 30
0.0
 42
-0.0007571179
  0
VERTEX
  5
DFD
  8
0
  6
CONTINUOUS
 62
     7
 10
-560.30640000000005
 20
371.96685999999988
 30
0.0
 42
-0.00073783152
  0
VERTEX
  5
DFE
  8
0
  6
CONTINUOUS
 62
     7
 10
-560.28045999999995
 20
372.58425
 30
0.0
 42
-0.0007835518
  0
VERTEX
  5
DFF
  8
0
  6
CONTINUOUS
 62
     7
 10
-560.25262999999995
 20
373.20152000000002
 30
0.0
 42
-0.00074826133
  0
VERTEX
  5
E00
  8
0
  6
CONTINUOUS
 62
     7
 10
-560.22289999999998
 20
373.81891000000002
 30
0.0
 42
-0.00074893555
  0
VERTEX
  5
E01
  8
0
  6
CONTINUOUS
 62
     7
 10
-560.19133999999985
 20
374.43603999999999
 30
0.0
 42
-0.00076039841
  0
VERTEX
  5
E02
  8
0
  6
CONTINUOUS
 62
     7
 10
-560.15791999999965
 20
375.05306999999999
 30
0.0
 42
-0.00075618789
  0
VERTEX
  5
E03
  8
0
  6
CONTINUOUS
 62
     7
 10
-560.12261999999998
 20
375.67009999999999
 30
0.0
  0
SEQEND
  5
E04
  8
0
 62
     7
  0
POLYLINE
  5
E05
  8
0
  6
CONTINUOUS
 62
     7
 66
     1
 10
0.0
 20
0.0
 30
0.0
  0
VERTEX
  5
E06
  8
0
  6
CONTINUOUS
 62
     7
 10
-559.94890999999996
 20
378.33147999999989
 30
0.0
 42
-0.0007337051
  0
VERTEX
  5
E07
  8
0
  6
CONTINUOUS
 62
     7
 10
-559.90476999999976
 20
378.93388999999991
 30
0.0
 42
-0.00075211323
  0
VERTEX
  5
E08
  8
0
  6
CONTINUOUS
 62
     7
 10
-559.85883000000001
 20
379.53629000000001
 30
0.0
 42
-0.0007297491
  0
VERTEX
  5
E09
  8
0
  6
CONTINUOUS
 62
     7
 10
-559.81110000000001
 20
380.13848999999999
 30
0.0
 42
-0.00073593041
  0
VERTEX
  5
E0A
  8
0
  6
CONTINUOUS
 62
     7
 10
-559.76161999999999
 20
380.74047999999999
 30
0.0
 42
-0.00074742739
  0
VERTEX
  5
E0B
  8
0
  6
CONTINUOUS
 62
     7
 10
-559.71034999999995
 20
381.34233999999992
 30
0.0
 42
-0.00073217363
  0
VERTEX
  5
E0C
  8
0
  6
CONTINUOUS
 62
     7
 10
-559.65728999999988
 20
381.94414999999992
 30
0.0
 42
-0.00073754168
  0
VERTEX
  5
E0D
  8
0
  6
CONTINUOUS
 62
     7
 10
-559.60247000000004
 20
382.54568999999992
 30
0.0
 42
-0.00073075073
  0
VERTEX
  5
E0E
  8
0
  6
CONTINUOUS
 62
     7
 10
-559.54588999999964
 20
383.14704
 30
0.0
 42
-0.00074550816
  0
VERTEX
  5
E0F
  8
0
  6
CONTINUOUS
 62
     7
 10
-559.48755000000006
 20
383.74811
 30
0.0
 42
-0.00074288416
  0
VERTEX
  5
E10
  8
0
  6
CONTINUOUS
 62
     7
 10
-559.42740000000003
 20
384.34913
 30
0.0
 42
-0.00072504001
  0
VERTEX
  5
E11
  8
0
  6
CONTINUOUS
 62
     7
 10
-559.36549000000002
 20
384.94986999999992
 30
0.0
 42
-0.00074640667
  0
VERTEX
  5
E12
  8
0
  6
CONTINUOUS
 62
     7
 10
-559.30182000000002
 20
385.55047999999988
 30
0.0
  0
SEQEND
  5
E13
  8
0
 62
     7
  0
POLYLINE
  5
E14
  8
0
  6
CONTINUOUS
 62
     7
 66
     1
 10
0.0
 20
0.0
 30
0.0
  0
VERTEX
  5
E15
  8
0
  6
CONTINUOUS
 62
     7
 10
-558.96624999999995
 20
388.47393999999991
 30
0.0
 42
-0.00068898283
  0
VERTEX
  5
E16
  8
0
  6
CONTINUOUS
 62
     7
 10
-558.89537000000007
 20
389.04868999999991
 30
0.0
 42
-0.00070644357
  0
VERTEX
  5
E17
  8
0
  6
CONTINUOUS
 62
     7
 10
-558.82286999999997
 20
389.62338
 30
0.0
 42
-0.00069248074
  0
VERTEX
  5
E18
  8
0
  6
CONTINUOUS
 62
     7
 10
-558.7487799999999
 20
390.19768999999991
 30
0.0
 42
-0.0006958566
  0
VERTEX
  5
E19
  8
0
  6
CONTINUOUS
 62
     7
 10
-558.67309999999986
 20
390.77182999999991
 30
0.0
 42
-0.00071687219
  0
VERTEX
  5
E1A
  8
0
  6
CONTINUOUS
 62
     7
 10
-558.59579000000008
 20
391.34582999999992
 30
0.0
 42
-0.00069760022
  0
VERTEX
  5
E1B
  8
0
  6
CONTINUOUS
 62
     7
 10
-558.51684999999986
 20
391.91962000000001
 30
0.0
 42
-0.00071002302
  0
VERTEX
  5
E1C
  8
0
  6
CONTINUOUS
 62
     7
 10
-558.43630999999993
 20
392.49309
 30
0.0
 42
-0.00069954889
  0
VERTEX
  5
E1D
  8
0
  6
CONTINUOUS
 62
     7
 10
-558.35416999999995
 20
393.06619000000001
 30
0.0
 42
-0.00071887947
  0
VERTEX
  5
E1E
  8
0
  6
CONTINUOUS
 62
     7
 10
-558.27039000000002
 20
393.63922000000002
 30
0.0
 42
-0.00071266929
  0
VERTEX
  5
E1F
  8
0
  6
CONTINUOUS
 62
     7
 10
-558.18495999999993
 20
394.21199000000001
 30
0.0
 42
-0.00071614429
  0
VERTEX
  5
E20
  8
0
  6
CONTINUOUS
 62
     7
 10
-558.09793000000002
 20
394.78432999999973
 30
0.0
 42
-0.00072288978
  0
VERTEX
  5
E21
  8
0
  6
CONTINUOUS
 62
     7
 10
-558.00922000000003
 20
395.35662999999988
 30
0.0
  0
SEQEND
  5
E22
  8
0
 62
     7
  0
POLYLINE
  5
E23
  8
0
  6
CONTINUOUS
 62
     7
 66
     1
 10
0.0
 20
0.0
 30
0.0
  0
VERTEX
  5
E24
  8
0
  6
CONTINUOUS
 62
     7
 10
-558.96495000000004
 20
139.83486999999991
 30
0.0
  0
VERTEX
  5
E25
  8
0
  6
CONTINUOUS
 62
     7
 10
-558.00446999999997
 20
146.71653999999981
 30
0.0
 42
-1.0
  0
SEQEND
  5
E26
  8
0
 62
     7
  0
POLYLINE
  5
E27
  8
0
  6
CONTINUOUS
 62
     7
 66
     1
 10
0.0
 20
0.0
 30
0.0
  0
VERTEX
  5
E28
  8
0
  6
CONTINUOUS
 62
     7
 10
-559.94669999999985
 20
129.6904999999999
 30
0.0
  0
VERTEX
  5
E29
  8
0
  6
CONTINUOUS
 62
     7
 10
-559.30065000000002
 20
136.91140999999999
 30
0.0
 42
-1.0
  0
SEQEND
  5
E2A
  8
0
 62
     7
  0
POLYLINE
  5
E2B
  8
0
  6
CONTINUOUS
 62
     7
 66
     1
 10
0.0
 20
0.0
 30
0.0
  0
VERTEX
  5
E2C
  8
0
  6
CONTINUOUS
 62
     7
 10
-560.41836999999998
 20
119.6192499999997
 30
0.0
  0
VERTEX
  5
E2D
  8
0
  6
CONTINUOUS
 62
     7
 10
-560.11969999999985
 20
127.0292699999999
 30
0.0
 42
-1.0
  0
SEQEND
  5
E2E
  8
0
 62
     7
  0
POLYLINE
  5
E2F
  8
0
  6
CONTINUOUS
 62
     7
 66
     1
 10
0.0
 20
0.0
 30
0.0
  0
VERTEX
  5
E30
  8
0
  6
CONTINUOUS
 62
     7
 10
-560.46172999999999
 20
113.34796999999971
 30
0.0
  0
VERTEX
  5
E31
  8
0
  6
CONTINUOUS
 62
     7
 10
-560.45900999999992
 20
117.08045
 30
0.0
 42
-1.0
  0
SEQEND
  5
E32
  8
0
 62
     7
  0
POLYLINE
  5
E33
  8
0
  6
CONTINUOUS
 62
     7
 66
     1
 10
0.0
 20
0.0
 30
0.0
  0
VERTEX
  5
E34
  8
0
  6
CONTINUOUS
 62
     7
 10
-558.96495000000004
 20
86.860961999999986
 30
0.0
  0
VERTEX
  5
E35
  8
0
  6
CONTINUOUS
 62
     7
 10
-558.00446999999997
 20
79.979370000000003
 30
0.0
 42
-1.0
  0
SEQEND
  5
E36
  8
0
 62
     7
  0
POLYLINE
  5
E37
  8
0
  6
CONTINUOUS
 62
     7
 66
     1
 10
0.0
 20
0.0
 30
0.0
  0
VERTEX
  5
E38
  8
0
  6
CONTINUOUS
 62
     7
 10
-559.94669999999985
 20
97.005363000000017
 30
0.0
  0
VERTEX
  5
E39
  8
0
  6
CONTINUOUS
 62
     7
 10
-559.30065000000002
 20
89.784415999999979
 30
0.0
 42
-1.0
  0
SEQEND
  5
E3A
  8
0
 62
     7
  0
POLYLINE
  5
E3B
  8
0
  6
CONTINUOUS
 62
     7
 66
     1
 10
0.0
 20
0.0
 30
0.0
  0
VERTEX
  5
E3C
  8
0
  6
CONTINUOUS
 62
     7
 10
-560.41836999999998
 20
107.07666999999979
 30
0.0
  0
VERTEX
  5
E3D
  8
0
  6
CONTINUOUS
 62
     7
 10
-560.11969999999985
 20
99.666602999999995
 30
0.0
 42
-1.0
  0
SEQEND
  5
E3E
  8
0
 62
     7
  0
POLYLINE
  5
E3F
  8
0
  6
CONTINUOUS
 62
     7
 66
     1
 10
0.0
 20
0.0
 30
0.0
  0
VERTEX
  5
E40
  8
0
  6
CONTINUOUS
 62
     7
 10
-560.46172999999999
 20
113.34796999999971
 30
0.0
  0
VERTEX
  5
E41
  8
0
  6
CONTINUOUS
 62
     7
 10
-560.45900999999992
 20
109.6154899999997
 30
0.0
 42
-1.0
  0
SEQEND
  5
E42
  8
0
 62
     7
  0
TEXT
  5
1047
  8
0
  6
CONTINUOUS
 62
     0
 10
-266.18990547750758
 20
343.89532590154528
 30
0.0
 40
10.0
  1
VX02-003MF~VX02-030MF
  0
ENDSEC
  0
EOF
