  0
SECTION
  2
HEADER
  9
$ACADVER
  1
AC1009
  9
$INSBASE
 10
0.0
 20
0.0
 30
0.0
  9
$EXTMIN
 10
-618.91753344991844
 20
38.066238475711877
 30
-0.0000000349181948
  9
$EXTMAX
 10
-46.51134739281656
 20
505.61809637078852
 30
0.0000000814935747
  9
$LIMMIN
 10
0.0
 20
0.0
  9
$LIMMAX
 10
12.0
 20
9.0
  9
$ORTHOMODE
 70
     0
  9
$REGENMODE
 70
     1
  9
$FILLMODE
 70
     1
  9
$QTEXTMODE
 70
     0
  9
$MIRRTEXT
 70
     1
  9
$DRAGMODE
 70
     2
  9
$LTSCALE
 40
1.0
  9
$OSMODE
 70
   551
  9
$ATTMODE
 70
     1
  9
$TEXTSIZE
 40
0.2
  9
$TRACEWID
 40
0.05
  9
$TEXTSTYLE
  7
STANDARD
  9
$CLAYER
  8
0
  9
$CELTYPE
  6
CONTINUOUS
  9
$CECOLOR
 62
   256
  9
$DIMSCALE
 40
1.0
  9
$DIMASZ
 40
0.18
  9
$DIMEXO
 40
0.0625
  9
$DIMDLI
 40
0.38
  9
$DIMRND
 40
0.0
  9
$DIMDLE
 40
0.0
  9
$DIMEXE
 40
0.18
  9
$DIMTP
 40
0.0
  9
$DIMTM
 40
0.0
  9
$DIMTXT
 40
0.18
  9
$DIMCEN
 40
0.09
  9
$DIMTSZ
 40
0.0
  9
$DIMTOL
 70
     0
  9
$DIMLIM
 70
     0
  9
$DIMTIH
 70
     1
  9
$DIMTOH
 70
     1
  9
$DIMSE1
 70
     0
  9
$DIMSE2
 70
     0
  9
$DIMTAD
 70
     0
  9
$DIMZIN
 70
     0
  9
$DIMBLK
  1

  9
$DIMASO
 70
     1
  9
$DIMSHO
 70
     1
  9
$DIMPOST
  1

  9
$DIMAPOST
  1

  9
$DIMALT
 70
     0
  9
$DIMALTD
 70
     2
  9
$DIMALTF
 40
25.399999999999999
  9
$DIMLFAC
 40
1.0
  9
$DIMTOFL
 70
     0
  9
$DIMTVP
 40
0.0
  9
$DIMTIX
 70
     0
  9
$DIMSOXD
 70
     0
  9
$DIMSAH
 70
     0
  9
$DIMBLK1
  1

  9
$DIMBLK2
  1

  9
$DIMSTYLE
  2
STANDARD
  9
$DIMCLRD
 70
     0
  9
$DIMCLRE
 70
     0
  9
$DIMCLRT
 70
     0
  9
$DIMTFAC
 40
1.0
  9
$DIMGAP
 40
0.09
  9
$LUNITS
 70
     2
  9
$LUPREC
 70
     4
  9
$SKETCHINC
 40
0.1
  9
$FILLETRAD
 40
0.0
  9
$AUNITS
 70
     0
  9
$AUPREC
 70
     0
  9
$MENU
  1
.
  9
$ELEVATION
 40
0.0
  9
$PELEVATION
 40
0.0
  9
$THICKNESS
 40
0.0
  9
$LIMCHECK
 70
     0
  9
$BLIPMODE
 70
     0
  9
$CHAMFERA
 40
0.0
  9
$CHAMFERB
 40
0.0
  9
$SKPOLY
 70
     0
  9
$TDCREATE
 40
2452300.426475151
  9
$TDUPDATE
 40
2458540.6468757521
  9
$TDINDWG
 40
0.0361131597
  9
$TDUSRTIMER
 40
0.036112963
  9
$USRTIMER
 70
     1
  9
$ANGBASE
 50
0.0
  9
$ANGDIR
 70
     0
  9
$PDMODE
 70
     0
  9
$PDSIZE
 40
0.0
  9
$PLINEWID
 40
0.0
  9
$COORDS
 70
     1
  9
$SPLFRAME
 70
     0
  9
$SPLINETYPE
 70
     6
  9
$SPLINESEGS
 70
     8
  9
$ATTDIA
 70
     1
  9
$ATTREQ
 70
     1
  9
$HANDLING
 70
     1
  9
$HANDSEED
  5
B41
  9
$SURFTAB1
 70
     6
  9
$SURFTAB2
 70
     6
  9
$SURFTYPE
 70
     6
  9
$SURFU
 70
     6
  9
$SURFV
 70
     6
  9
$UCSNAME
  2

  9
$UCSORG
 10
0.0
 20
0.0
 30
0.0
  9
$UCSXDIR
 10
1.0
 20
0.0
 30
0.0
  9
$UCSYDIR
 10
0.0
 20
1.0
 30
0.0
  9
$PUCSNAME
  2

  9
$PUCSORG
 10
0.0
 20
0.0
 30
0.0
  9
$PUCSXDIR
 10
1.0
 20
0.0
 30
0.0
  9
$PUCSYDIR
 10
0.0
 20
1.0
 30
0.0
  9
$USERI1
 70
     0
  9
$USERI2
 70
     0
  9
$USERI3
 70
     0
  9
$USERI4
 70
     0
  9
$USERI5
 70
     0
  9
$USERR1
 40
0.0
  9
$USERR2
 40
0.0
  9
$USERR3
 40
0.0
  9
$USERR4
 40
0.0
  9
$USERR5
 40
0.0
  9
$WORLDVIEW
 70
     1
  9
$SHADEDGE
 70
     3
  9
$SHADEDIF
 70
    70
  9
$TILEMODE
 70
     1
  9
$MAXACTVP
 70
    64
  9
$PLIMCHECK
 70
     0
  9
$PEXTMIN
 10
1.0000000000000000E+020
 20
1.0000000000000000E+020
 30
1.0000000000000000E+020
  9
$PEXTMAX
 10
-1.0000000000000000E+020
 20
-1.0000000000000000E+020
 30
-1.0000000000000000E+020
  9
$PLIMMIN
 10
0.0
 20
0.0
  9
$PLIMMAX
 10
12.0
 20
9.0
  9
$UNITMODE
 70
     0
  9
$VISRETAIN
 70
     1
  9
$PLINEGEN
 70
     0
  9
$PSLTSCALE
 70
     1
  0
ENDSEC
  0
SECTION
  2
TABLES
  0
TABLE
  2
VPORT
 70
     1
  0
VPORT
  2
*ACTIVE
 70
     0
 10
0.0
 20
0.0
 11
1.0
 21
1.0
 12
-332.7144404213675
 22
271.8421674232502
 13
0.0
 23
0.0
 14
1.0
 24
1.0
 15
0.0
 25
0.0
 16
0.0
 26
0.0
 36
1.0
 17
0.0
 27
0.0
 37
0.0
 40
470.76159604996269
 41
1.7571592210767459
 42
50.0
 43
0.0
 44
0.0
 50
0.0
 51
0.0
 71
     0
 72
   100
 73
     1
 74
     1
 75
     0
 76
     0
 77
     0
 78
     0
  0
ENDTAB
  0
TABLE
  2
LTYPE
 70
    23
  0
LTYPE
  2
CONTINUOUS
 70
     0
  3
Solid line
 72
    65
 73
     0
 40
0.0
  0
LTYPE
  2
DASHED
 70
     0
  3
__ __ __ __ __ __ __ __ __ __ __ __ __ __ __
 72
    65
 73
     2
 40
3.5
 49
2.0
 49
-1.5
  0
LTYPE
  2
CENTER
 70
     0
  3
____ _ ____ _ ____ _ ____ _ ____ _ ____ _ ____
 72
    65
 73
     4
 40
17.5
 49
13.0
 49
-1.5
 49
1.5
 49
-1.5
  0
LTYPE
  2
PHANTOM
 70
     0
  3
_____ _ _ _____ _ _ _____ _ _ _____ _ _ ____  
 72
    65
 73
     6
 40
15.5
 49
8.0
 49
-1.5
 49
1.5
 49
-1.5
 49
1.5
 49
-1.5
  0
LTYPE
  2
DOT
 70
     0
  3
. . . . . . . . . . . . . . . . . . . . . . . .
 72
    65
 73
     2
 40
0.25
 49
0.0
 49
-0.25
  0
LTYPE
  2
AM_ISO02W050
 70
     0
  3
__ __ __ __ __ __ __ __ __ __ __ __ __ __ __
 72
    65
 73
     2
 40
7.5
 49
6.0
 49
-1.5
  0
LTYPE
  2
AM_ISO08W050
 70
     0
  3
____ . ____ . ____ . ____ . ____ . ____ . ____
 72
    65
 73
     4
 40
18.0
 49
12.0
 49
-1.5
 49
3.0
 49
-1.5
  0
LTYPE
  2
AM_ISO09W050
 70
     0
  3
_____ . . _____ . . _____ . . ____ .. ____
 72
    65
 73
     6
 40
22.5
 49
12.0
 49
-1.5
 49
3.0
 49
-1.5
 49
3.0
 49
-1.5
  0
LTYPE
  2
AMCONSTR
 70
     0
  3
_______________________
 72
    65
 73
     2
 40
9999.0
 49
9999.0
 49
0.0
  0
LTYPE
  2
AM_ISO08W050X2
 70
     0
  3
__ . __ . __ . __ . __ . __
 72
    65
 73
     4
 40
9.0
 49
6.0
 49
-0.75
 49
1.5
 49
-0.75
  0
LTYPE
  2
AM_ISO02W050X2
 70
     0
  3
 _ _ _ _ _ _ _ _ _ _ _ _
 72
    65
 73
     2
 40
3.75
 49
3.0
 49
-0.75
  0
LTYPE
  2
AMZIGZAG
 70
     0
  3
/\/-/\/-/\/-/\/-/\/-/\/
 72
    65
 73
     2
 40
11.000099999999991
 49
0.0001
 49
-11.0
  0
LTYPE
  2
HIDDEN
 70
     0
  3
Hidden __ __ __ __ __ __ __ __ __ __ __ __ __ _
 72
    65
 73
     2
 40
0.375
 49
0.25
 49
-0.125
  0
LTYPE
  2
PHANTOM2
 70
     0
  3
Phantom (.5x) ___ _ _ ___ _ _ ___ _ _ ___ _ _
 72
    65
 73
     6
 40
1.25
 49
0.625
 49
-0.125
 49
0.125
 49
-0.125
 49
0.125
 49
-0.125
  0
LTYPE
  2
CENTER2
 70
     0
  3
Center (.5x) ___ _ ___ _ ___ _ ___ _ ___ _ ___
 72
    65
 73
     4
 40
1.125
 49
0.75
 49
-0.125
 49
0.125
 49
-0.125
  0
LTYPE
  2
HIDDEN2
 70
     0
  3
Hidden (.5x) _ _ _ _ _ _ _ _ _ _ _ _ _ _ _ _ _
 72
    65
 73
     2
 40
0.1875
 49
0.125
 49
-0.0625
  0
LTYPE
  2
AMZIGZAG2
 70
     0
  3
/\/-/\/-/\/-/\/-/\/-/\/
 72
    65
 73
     2
 40
0.4401
 49
0.0001
 49
-0.4400000000000003
  0
LTYPE
  2
ACANSTGB
 70
     0
  3
__ . . __ . .
 72
    65
 73
     6
 40
0.35433070866
 49
0.15748031496
 49
-0.03937007874
 49
0.03937007874
 49
-0.03937007874
 49
0.03937007874
 49
-0.03937007874
  0
LTYPE
  2
ACANSTGL
 70
     0
  3
_ _ _ _ _
 72
    65
 73
     2
 40
0.11811023622
 49
0.07874015748
 49
-0.03937007874
  0
LTYPE
  2
ACISOWELD
 70
     0
  3
_ _ _ _ _
 72
    65
 73
     2
 40
2.0
 49
2.0
 49
-1.0
  0
LTYPE
  2
ACISOTGB
 70
     0
  3
__ . . __ . .
 72
    65
 73
     6
 40
9.0
 49
4.0
 49
-1.0
 49
1.0
 49
-1.0
 49
1.0
 49
-1.0
  0
LTYPE
  2
ACISOTGL
 70
     0
  3
_ _ _ _ _
 72
    65
 73
     2
 40
3.0
 49
2.0
 49
-1.0
  0
ENDTAB
  0
TABLE
  2
LAYER
 70
     1
  0
LAYER
  2
0
 70
     0
 62
     7
  6
CONTINUOUS
  0
ENDTAB
  0
TABLE
  2
STYLE
 70
     6
  0
STYLE
  2
STANDARD
 70
     0
 40
0.0
 41
1.0
 50
0.0
 71
     0
 42
0.2
  3
txt
  4

  0
STYLE
  2
ANNOTATIVE
 70
     0
 40
0.0
 41
1.0
 50
0.0
 71
     0
 42
0.2
  3
txt
  4

  0
STYLE
  2

 70
     1
 40
0.0
 41
1.0
 50
0.0
 71
     0
 42
0.2
  3
ltypeshp.shx
  4

  0
STYLE
  2
ACANSTS
 70
     0
 40
1.0
 41
1.0
 50
0.0
 71
     0
 42
0.2
  3
romans.shx
  4
extfont.shx
  0
STYLE
  2
ACANSGDT
 70
     0
 40
0.0
 41
1.0
 50
0.0
 71
     0
 42
0.2
  3
amgdt.shx
  4

  0
STYLE
  2
ACISOGDT
 70
     0
 40
0.0
 41
1.0
 50
0.0
 71
     0
 42
2.5
  3
amgdt.shx
  4

  0
ENDTAB
  0
TABLE
  2
VIEW
 70
     0
  0
ENDTAB
  0
TABLE
  2
UCS
 70
     0
  0
ENDTAB
  0
TABLE
  2
APPID
 70
    12
  0
APPID
  2
ACAD
 70
     0
  0
APPID
  2
ACADANNOTATIVE
 70
     0
  0
APPID
  2
MCAD_NO_VIS
 70
     0
  0
APPID
  2
ACAD_TEMP_GRAPHIC
 70
     0
  0
APPID
  2
ACATTRIBSERVICES
 70
     0
  0
APPID
  2
DESIGNERASSEMBLIES
 70
     0
  0
APPID
  2
ACAD_DSTYLE_DIMBREAK
 70
     0
  0
APPID
  2
ACAD_DSTYLE_DIMJAG
 70
     0
  0
APPID
  2
ACAD_NAV_VCDISPLAY
 70
     0
  0
APPID
  2
ACAD_PSEXT
 70
     0
  0
APPID
  2
ACAD_EXEMPT_FROM_CAD_STANDARDS
 70
     0
  0
APPID
  2
ACAD_MLEADERVER
 70
     0
  0
ENDTAB
  0
TABLE
  2
DIMSTYLE
 70
    16
  0
DIMSTYLE
  2
STANDARD
 70
     0
  3

  4

  5

  6

  7

 40
1.0
 41
0.18
 42
0.0625
 43
0.38
 44
0.18
 45
0.0
 46
0.0
 47
0.0
 48
0.0
140
0.18
141
0.09
142
0.0
143
25.399999999999999
144
1.0
145
0.0
146
1.0
147
0.09
 71
     0
 72
     0
 73
     1
 74
     1
 75
     0
 76
     0
 77
     0
 78
     0
170
     0
171
     2
172
     0
173
     0
174
     0
175
     0
176
     0
177
     0
178
     0
  0
DIMSTYLE
  2
ANNOTATIVE
 70
     0
  3

  4

  5

  6

  7

 40
1.0
 41
0.18
 42
0.0625
 43
0.38
 44
0.18
 45
0.0
 46
0.0
 47
0.0
 48
0.0
140
0.18
141
0.09
142
0.0
143
25.399999999999999
144
1.0
145
0.0
146
1.0
147
0.09
 71
     0
 72
     0
 73
     1
 74
     1
 75
     0
 76
     0
 77
     0
 78
     0
170
     0
171
     2
172
     0
173
     0
174
     0
175
     0
176
     0
177
     0
178
     0
  0
DIMSTYLE
  2
AM_ANSI
 70
     0
  3

  4
mm
  5

  6

  7

 40
1.0
 41
0.1
 42
0.05
 43
0.5
 44
0.1
 45
0.0
 46
0.0
 47
0.1
 48
0.1
140
0.12
141
0.0
142
0.0
143
25.399999999999999
144
1.0
145
0.0
146
0.71
147
0.06
 71
     0
 72
     0
 73
     1
 74
     1
 75
     0
 76
     0
 77
     0
 78
     7
170
     0
171
     2
172
     0
173
     0
174
     0
175
     0
176
   256
177
   256
178
     2
  0
DIMSTYLE
  2
AM_ANSI$3
 70
     0
  3

  4
mm
  5

  6

  7

 40
1.0
 41
0.1
 42
0.05
 43
0.5
 44
0.1
 45
0.0
 46
0.0
 47
0.1
 48
0.1
140
0.12
141
0.0
142
0.0
143
25.399999999999999
144
1.0
145
0.0
146
0.71
147
0.06
 71
     0
 72
     0
 73
     1
 74
     1
 75
     0
 76
     0
 77
     0
 78
     7
170
     0
171
     2
172
     0
173
     0
174
     0
175
     0
176
   256
177
   256
178
     2
  0
DIMSTYLE
  2
AM_ANSI$4
 70
     0
  3

  4
mm
  5

  6

  7

 40
1.0
 41
0.1
 42
0.05
 43
0.5
 44
0.1
 45
0.0
 46
0.0
 47
0.1
 48
0.1
140
0.12
141
0.0
142
0.0
143
25.399999999999999
144
1.0
145
0.0
146
0.71
147
0.06
 71
     0
 72
     0
 73
     1
 74
     1
 75
     0
 76
     0
 77
     0
 78
     7
170
     0
171
     2
172
     0
173
     0
174
     0
175
     0
176
   256
177
   256
178
     2
  0
DIMSTYLE
  2
AM_ANSI$7
 70
     0
  3

  4
mm
  5

  6

  7

 40
1.0
 41
0.1
 42
0.05
 43
0.5
 44
0.1
 45
0.0
 46
0.0
 47
0.1
 48
0.1
140
0.24
141
0.0
142
0.0
143
25.399999999999999
144
1.0
145
0.0
146
0.71
147
0.06
 71
     0
 72
     0
 73
     1
 74
     1
 75
     0
 76
     0
 77
     0
 78
     7
170
     0
171
     2
172
     0
173
     0
174
     0
175
     0
176
   256
177
   256
178
     2
  0
DIMSTYLE
  2
AM_ANSI$SF
 70
     0
  3

  4
mm
  5

  6

  7

 40
1.0
 41
0.1
 42
0.05
 43
0.5
 44
0.1
 45
0.0
 46
0.0
 47
0.1
 48
0.1
140
0.12
141
0.0
142
0.0
143
25.399999999999999
144
1.0
145
0.0
146
0.71
147
0.06
 71
     0
 72
     0
 73
     1
 74
     1
 75
     1
 76
     1
 77
     0
 78
     7
170
     0
171
     2
172
     0
173
     0
174
     0
175
     0
176
   256
177
   256
178
     2
  0
DIMSTYLE
  2
AM_ANSI$SH
 70
     0
  3

  4
mm
  5

  6

  7

 40
1.0
 41
0.1
 42
0.05
 43
0.5
 44
0.1
 45
0.0
 46
0.0
 47
0.1
 48
0.1
140
0.12
141
0.0
142
0.0
143
25.399999999999999
144
1.0
145
0.0
146
0.71
147
0.06
 71
     0
 72
     0
 73
     1
 74
     1
 75
     1
 76
     1
 77
     0
 78
     7
170
     0
171
     2
172
     0
173
     1
174
     0
175
     0
176
   256
177
   256
178
     2
  0
DIMSTYLE
  2
AM_ISO
 70
     0
  3

  4
"
  5

  6

  7

 40
1.0
 41
2.5
 42
1.0
 43
10.0
 44
1.0
 45
0.0
 46
0.0
 47
0.1
 48
0.1
140
3.5
141
0.0
142
0.0
143
0.0393701
144
1.0
145
0.0
146
0.71
147
1.5
 71
     0
 72
     0
 73
     0
 74
     0
 75
     0
 76
     0
 77
     1
 78
     8
170
     0
171
     2
172
     1
173
     0
174
     0
175
     0
176
   256
177
   256
178
     2
  0
DIMSTYLE
  2
AM_ISO$3
 70
     0
  3

  4
"
  5

  6

  7

 40
1.0
 41
2.5
 42
1.0
 43
10.0
 44
1.0
 45
0.0
 46
0.0
 47
0.1
 48
0.1
140
3.5
141
0.0
142
0.0
143
0.0393701
144
1.0
145
0.0
146
0.71
147
1.5
 71
     0
 72
     0
 73
     0
 74
     1
 75
     0
 76
     0
 77
     1
 78
     8
170
     0
171
     2
172
     0
173
     0
174
     0
175
     0
176
   256
177
   256
178
     2
  0
DIMSTYLE
  2
AM_ISO$4
 70
     0
  3

  4
"
  5

  6

  7

 40
1.0
 41
2.5
 42
1.0
 43
10.0
 44
1.0
 45
0.0
 46
0.0
 47
0.1
 48
0.1
140
3.5
141
0.0
142
0.0
143
0.0393701
144
1.0
145
0.0
146
0.71
147
1.5
 71
     0
 72
     0
 73
     0
 74
     1
 75
     0
 76
     0
 77
     1
 78
     8
170
     0
171
     2
172
     0
173
     0
174
     0
175
     0
176
   256
177
   256
178
     2
  0
DIMSTYLE
  2
AM_ISO$6
 70
     0
  3

  4
"
  5

  6

  7

 40
1.0
 41
2.5
 42
1.0
 43
10.0
 44
1.0
 45
0.0
 46
0.0
 47
0.1
 48
0.1
140
3.5
141
0.0
142
0.0
143
0.0393701
144
1.0
145
0.0
146
0.71
147
1.5
 71
     0
 72
     0
 73
     0
 74
     0
 75
     0
 76
     0
 77
     0
 78
     8
170
     0
171
     2
172
     1
173
     0
174
     0
175
     0
176
   256
177
   256
178
     2
  0
DIMSTYLE
  2
AM_ISO$7
 70
     0
  3

  4
"
  5

  6

  7

 40
1.0
 41
2.5
 42
1.0
 43
10.0
 44
1.0
 45
0.0
 46
0.0
 47
0.1
 48
0.1
140
5.0
141
0.0
142
0.0
143
0.0393701
144
1.0
145
0.0
146
0.71
147
1.5
 71
     0
 72
     0
 73
     0
 74
     0
 75
     0
 76
     0
 77
     1
 78
     8
170
     0
171
     2
172
     1
173
     0
174
     0
175
     0
176
   256
177
   256
178
     2
  0
DIMSTYLE
  2
AM_ISO$SF
 70
     0
  3

  4
"
  5

  6

  7

 40
1.0
 41
2.5
 42
1.0
 43
10.0
 44
1.0
 45
0.0
 46
0.0
 47
0.1
 48
0.1
140
3.5
141
0.0
142
0.0
143
0.0393701
144
1.0
145
0.0
146
0.71
147
1.5
 71
     0
 72
     0
 73
     0
 74
     0
 75
     1
 76
     1
 77
     1
 78
     8
170
     0
171
     2
172
     1
173
     0
174
     0
175
     0
176
   256
177
   256
178
     2
  0
DIMSTYLE
  2
AM_ISO$SH
 70
     0
  3

  4
"
  5

  6
GENAXEH
  7

 40
1.0
 41
2.5
 42
1.0
 43
10.0
 44
1.0
 45
0.0
 46
0.0
 47
0.1
 48
0.1
140
3.5
141
0.0
142
0.0
143
0.0393701
144
2.0
145
0.0
146
0.71
147
1.5
 71
     0
 72
     0
 73
     0
 74
     0
 75
     1
 76
     1
 77
     1
 78
     8
170
     0
171
     2
172
     1
173
     1
174
     0
175
     0
176
   256
177
   256
178
     2
  0
DIMSTYLE
  2
AM_JIS
 70
     0
  3

  4
"
  5

  6

  7

 40
1.0
 41
2.0
 42
1.0
 43
8.0
 44
1.0
 45
0.0
 46
0.0
 47
0.1
 48
0.1
140
2.5
141
0.0
142
0.0
143
0.0393701
144
1.0
145
0.0
146
0.71
147
1.5
 71
     0
 72
     0
 73
     0
 74
     0
 75
     0
 76
     0
 77
     3
 78
     8
170
     0
171
     2
172
     1
173
     0
174
     0
175
     0
176
     2
177
     2
178
     4
  0
ENDTAB
  0
ENDSEC
  0
SECTION
  2
BLOCKS
  0
BLOCK
  8
0
  2
$MODEL_SPACE
 70
     0
 10
0.0
 20
0.0
 30
0.0
  3
$MODEL_SPACE
  1

  0
ENDBLK
  5
9D2
  8
0
  0
BLOCK
 67
     1
  8
0
  2
$PAPER_SPACE
 70
     0
 10
0.0
 20
0.0
 30
0.0
  3
$PAPER_SPACE
  1

  0
ENDBLK
  5
9CE
 67
     1
  8
0
  0
BLOCK
  8
0
  2
GENAXEH
 70
     0
 10
0.0
 20
0.0
 30
0.0
  3
GENAXEH
  1

  0
LINE
  5
503
  8
0
 10
-1.0
 20
0.0
 30
0.0
 11
1.0
 21
0.0
 31
0.0
  0
ENDBLK
  5
504
  8
0
  0
BLOCK
  8
0
  2
_ACMFILLEDHALF
 70
     0
 10
0.0
 20
0.0
 30
0.0
  3
_ACMFILLEDHALF
  1

  0
TRACE
  5
A4B
  8
0
  6
CONTINUOUS
 62
     0
 10
-0.8
 20
0.0
 30
0.0
 11
-1.0
 21
0.166666666
 31
0.0
 12
0.0
 22
0.0
 32
0.0
 13
0.0
 23
0.0
 33
0.0
  0
LINE
  5
A4C
  8
0
  6
CONTINUOUS
 62
     0
 10
-1.0
 20
0.0
 30
0.0
 11
-0.8
 21
0.0
 31
0.0
  0
ENDBLK
  5
A4A
  8
0
  0
BLOCK
  8
0
  2
*U7
 70
     1
 10
0.0
 20
0.0
 30
0.0
  3
*U7
  1

  0
TEXT
  5
B3D
  8
0
  6
CONTINUOUS
 62
     0
 10
5.0768189741019834
 20
5.9826223594979657
 30
0.0
 40
15.0
  1
ＶＸ０８－００３ＥＭ～ＶＸ０８
  0
TEXT
  5
B3E
  8
0
  6
CONTINUOUS
 62
     0
 10
2.17909170137471
 20
-19.18783218595658
 30
0.0
 40
15.0
  1
－０３０ＥＭ
  0
ENDBLK
  5
B40
  8
0
  0
ENDSEC
  0
SECTION
  2
ENTITIES
  0
POINT
  5
505
  8
0
  6
CONTINUOUS
 62
     7
 10
-145.2809399999999
 20
147.34795
 30
0.0
  0
LINE
  5
506
  8
0
  6
CENTER
 62
     7
 10
-614.65930000000003
 20
413.09487999999988
 30
0.0
 11
-309.92684999999989
 21
413.09487999999988
 31
0.0
  0
LINE
  5
507
  8
0
  6
CENTER
 62
     7
 10
-145.2809399999999
 20
38.074038999999999
 30
0.0
 11
-145.2809399999999
 21
243.92333999999991
 31
0.0
  0
LINE
  5
508
  8
0
  6
CENTER
 62
     7
 10
-246.35719
 20
147.34795
 30
0.0
 11
-46.526648999999999
 21
147.34795
 31
0.0
  0
LINE
  5
509
  8
0
  6
CONTINUOUS
 62
     7
 10
-451.85521999999997
 20
455.94277999999991
 30
0.0
 11
-459.54437000000001
 21
445.03188999999998
 31
0.0
  0
LINE
  5
50A
  8
0
  6
CONTINUOUS
 62
     7
 10
-459.54439999999988
 20
381.15783999999991
 30
0.0
 11
-451.85521999999997
 21
370.24691999999988
 31
0.0
  0
LINE
  5
50B
  8
0
  6
CONTINUOUS
 62
     7
 10
-459.54439999999988
 20
356.10088999999999
 30
0.0
 11
-459.54439999999988
 21
367.09487999999999
 31
0.0
  0
LINE
  5
50C
  8
0
  6
CONTINUOUS
 62
     7
 10
-459.54439999999988
 20
459.09487999999988
 30
0.0
 11
-459.54439999999988
 21
470.08886999999999
 31
0.0
  0
LINE
  5
50D
  8
0
  6
CONTINUOUS
 62
     7
 10
-479.13385
 20
459.09487999999988
 30
0.0
 11
-453.49005
 21
459.09487999999988
 31
0.0
  0
LINE
  5
50E
  8
0
  6
CONTINUOUS
 62
     7
 10
-479.13385
 20
367.09487999999999
 30
0.0
 11
-453.49005
 21
367.09487999999999
 31
0.0
  0
LINE
  5
50F
  8
0
  6
CONTINUOUS
 62
     7
 10
-479.13385
 20
381.15789999999998
 30
0.0
 11
-459.54439999999988
 21
381.15789999999998
 31
0.0
  0
LINE
  5
510
  8
0
  6
CONTINUOUS
 62
     7
 10
-459.54439999999988
 20
381.15789999999998
 30
0.0
 11
-459.54439999999988
 21
445.03188999999998
 31
0.0
  0
LINE
  5
511
  8
0
  6
CONTINUOUS
 62
     7
 10
-479.13385
 20
445.03188999999998
 30
0.0
 11
-459.54439999999988
 21
445.03188999999998
 31
0.0
  0
LINE
  5
512
  8
0
  6
CONTINUOUS
 62
     7
 10
-458.2255599999998
 20
355.30417
 30
0.0
 11
-451.41989000000001
 21
349.59354000000002
 31
0.0
  0
LINE
  5
513
  8
0
  6
CONTINUOUS
 62
     7
 10
-458.22552000000002
 20
470.88558999999992
 30
0.0
 11
-451.41991999999999
 21
476.59615999999988
 31
0.0
  0
LINE
  5
514
  8
0
  6
CONTINUOUS
 62
     7
 10
-435.63384999999988
 20
330.84392999999972
 30
0.0
 11
-435.63384999999988
 21
495.34582999999998
 31
0.0
  0
LINE
  5
515
  8
0
  6
CONTINUOUS
 62
     7
 10
-435.63384999999988
 20
330.84392999999972
 30
0.0
 11
-446.73855999999989
 21
331.23171999999983
 31
0.0
  0
LINE
  5
516
  8
0
  6
CONTINUOUS
 62
     7
 10
-435.63387999999992
 20
495.34582999999998
 30
0.0
 11
-446.73855999999989
 21
494.95803999999998
 31
0.0
  0
LINE
  5
517
  8
0
  6
CONTINUOUS
 62
     7
 10
-449.63385
 20
334.22989000000001
 30
0.0
 11
-449.63385
 21
491.95987000000002
 31
0.0
  0
LINE
  5
518
  8
0
  6
CONTINUOUS
 62
     7
 10
-449.63385
 20
472.40337999999991
 30
0.0
 11
-442.63387999999992
 21
472.40337999999991
 31
0.0
  0
LINE
  5
519
  8
0
  6
CONTINUOUS
 62
     7
 10
-449.63385
 20
353.78638000000001
 30
0.0
 11
-442.63387999999992
 21
353.78638000000001
 31
0.0
  0
LINE
  5
51A
  8
0
  6
CONTINUOUS
 62
     7
 10
-442.63387999999992
 20
342.00470000000001
 30
0.0
 11
-442.63387999999992
 21
484.18505999999991
 31
0.0
  0
LINE
  5
51B
  8
0
  6
CONTINUOUS
 62
     7
 10
-479.13385
 20
357.09487999999999
 30
0.0
 11
-479.13385
 21
469.09487999999999
 31
0.0
  0
LINE
  5
51C
  8
0
  6
CONTINUOUS
 62
     7
 10
-461.26497999999981
 20
356.47088999999983
 30
0.0
 11
-479.13385
 21
357.09487999999999
 31
0.0
  0
LINE
  5
51D
  8
0
  6
CONTINUOUS
 62
     7
 10
-461.26500999999968
 20
469.71886999999981
 30
0.0
 11
-479.13385
 21
469.09487999999999
 31
0.0
  0
LINE
  5
51E
  8
0
  6
CONTINUOUS
 62
     3
 10
-587.40674000000001
 20
347.59487999999988
 30
0.0
 11
-507.40685999999988
 21
347.59487999999988
 31
0.0
  0
LINE
  5
51F
  8
0
  6
CONTINUOUS
 62
     3
 10
-507.40685999999988
 20
347.59487999999988
 30
0.0
 11
-507.40685999999988
 21
340.59487999999982
 31
0.0
  0
LINE
  5
520
  8
0
  6
CONTINUOUS
 62
     3
 10
-508.90685999999988
 20
324.09487999999982
 30
0.0
 11
-508.90685999999988
 21
340.59487999999982
 31
0.0
  0
LINE
  5
521
  8
0
  6
CONTINUOUS
 62
     3
 10
-566.90686000000005
 20
336.59487999999982
 30
0.0
 11
-566.90686000000005
 21
344.09487999999999
 31
0.0
  0
LINE
  5
522
  8
0
  6
CONTINUOUS
 62
     3
 10
-581.90674000000001
 20
344.09487999999999
 30
0.0
 11
-581.90674000000001
 21
336.59487999999982
 31
0.0
  0
LINE
  5
523
  8
0
  6
CONTINUOUS
 62
     3
 10
-585.90673999999979
 20
344.09487999999999
 30
0.0
 11
-585.90673999999979
 21
324.09487999999982
 31
0.0
  0
LINE
  5
524
  8
0
  6
CONTINUOUS
 62
     3
 10
-556.70678999999996
 20
321.09487999999999
 30
0.0
 11
-521.10681
 21
321.09487999999999
 31
0.0
  0
LINE
  5
525
  8
0
  6
CONTINUOUS
 62
     3
 10
-585.90673999999979
 20
324.09487999999982
 30
0.0
 11
-508.90685999999988
 21
324.09487999999982
 31
0.0
  0
LINE
  5
526
  8
0
  6
CONTINUOUS
 62
     3
 10
-585.90673999999979
 20
340.59487999999982
 30
0.0
 11
-581.90674000000001
 21
340.59487999999982
 31
0.0
  0
LINE
  5
527
  8
0
  6
CONTINUOUS
 62
     3
 10
-515.90679999999986
 20
324.09485000000001
 30
0.0
 11
-521.10681
 21
321.09485000000001
 31
0.0
  0
LINE
  5
528
  8
0
  6
CONTINUOUS
 62
     3
 10
-556.70685000000003
 20
321.09491000000008
 30
0.0
 11
-561.90686000000005
 21
324.09487999999982
 31
0.0
  0
LINE
  5
529
  8
0
  6
CONTINUOUS
 62
     3
 10
-589.4067399999999
 20
344.09487999999999
 30
0.0
 11
-589.4067399999999
 21
329.09586000000002
 31
0.0
  0
LINE
  5
52A
  8
0
  6
CONTINUOUS
 62
     3
 10
-585.90673999999979
 20
329.09586000000002
 30
0.0
 11
-589.4067399999999
 21
329.09586000000002
 31
0.0
  0
LINE
  5
52B
  8
0
  6
CONTINUOUS
 62
     3
 10
-570.40686000000017
 20
344.09487999999999
 30
0.0
 11
-570.40686000000017
 21
336.59487999999982
 31
0.0
  0
LINE
  5
52C
  8
0
  6
CONTINUOUS
 62
     3
 10
-578.40674000000001
 20
344.09487999999999
 30
0.0
 11
-578.40674000000001
 21
336.59487999999982
 31
0.0
  0
LINE
  5
52D
  8
0
  6
CONTINUOUS
 62
     3
 10
-566.90686000000005
 20
340.59487999999982
 30
0.0
 11
-507.40685999999988
 21
340.59487999999982
 31
0.0
  0
LINE
  5
52E
  8
0
  6
CONTINUOUS
 62
     3
 10
-589.4067399999999
 20
344.09487999999999
 30
0.0
 11
-507.40685999999988
 21
344.09487999999999
 31
0.0
  0
LINE
  5
52F
  8
0
  6
CONTINUOUS
 62
     3
 10
-587.40674000000001
 20
347.59487999999988
 30
0.0
 11
-587.40674000000001
 21
344.09487999999999
 31
0.0
  0
LINE
  5
530
  8
0
  6
CONTINUOUS
 62
     7
 10
-508.63385
 20
348.59487999999999
 30
0.0
 11
-508.63385
 21
347.59487999999988
 31
0.0
  0
LINE
  5
531
  8
0
  6
CONTINUOUS
 62
     7
 10
-567.63378999999998
 20
348.59487999999999
 30
0.0
 11
-567.63378999999998
 21
347.59487999999988
 31
0.0
  0
LINE
  5
532
  8
0
  6
CONTINUOUS
 62
     7
 10
-488.92809999999992
 20
458.02377000000001
 30
0.0
 11
-493.07384999999999
 21
473.50487999999967
 31
0.0
  0
LINE
  5
533
  8
0
  6
CONTINUOUS
 62
     7
 10
-488.92812999999973
 20
457.11376999999999
 30
0.0
 11
-493.07384999999999
 21
472.59487999999999
 31
0.0
  0
LINE
  5
534
  8
0
  6
CONTINUOUS
 62
     7
 10
-488.92812999999973
 20
455.26382000000001
 30
0.0
 11
-493.07384999999999
 21
470.74492999999973
 31
0.0
  0
LINE
  5
535
  8
0
  6
CONTINUOUS
 62
     7
 10
-487.13385
 20
469.09487999999999
 30
0.0
 11
-487.13385
 21
357.09487999999999
 31
0.0
  0
LINE
  5
536
  8
0
  6
CONTINUOUS
 62
     7
 10
-609.13378999999998
 20
461.11489999999998
 30
0.0
 11
-609.13378999999998
 21
418.09487999999999
 31
0.0
  0
LINE
  5
537
  8
0
  6
CONTINUOUS
 62
     7
 10
-606.86388999999986
 20
462.84487999999999
 30
0.0
 11
-604.63379000000009
 21
462.84487999999999
 31
0.0
  0
LINE
  5
538
  8
0
  6
CONTINUOUS
 62
     7
 10
-606.93384000000003
 20
448.78482000000002
 30
0.0
 11
-604.83385999999996
 21
448.78482000000002
 31
0.0
  0
LINE
  5
539
  8
0
  6
CONTINUOUS
 62
     7
 10
-607.36382999999978
 20
462.71487000000002
 30
0.0
 11
-608.63379000000009
 21
461.97487999999993
 31
0.0
  0
LINE
  5
53A
  8
0
  6
CONTINUOUS
 62
     7
 10
-607.37390000000005
 20
460.59494000000001
 30
0.0
 11
-608.65386999999998
 21
459.82495
 31
0.0
  0
LINE
  5
53B
  8
0
  6
CONTINUOUS
 62
     7
 10
-607.38391000000001
 20
456.05486999999999
 30
0.0
 11
-608.68389999999999
 21
455.20490000000001
 31
0.0
  0
LINE
  5
53C
  8
0
  6
CONTINUOUS
 62
     7
 10
-607.32379000000003
 20
448.70485999999988
 30
0.0
 11
-608.52386000000001
 21
448.19484999999992
 31
0.0
  0
LINE
  5
53D
  8
0
  6
CONTINUOUS
 62
     7
 10
-606.85387999999978
 20
460.73488999999989
 30
0.0
 11
-604.1337900000002
 21
460.73488999999989
 31
0.0
  0
LINE
  5
53E
  8
0
  6
CONTINUOUS
 62
     7
 10
-606.83385999999985
 20
456.22487999999981
 30
0.0
 11
-604.1337900000002
 21
456.22487999999981
 31
0.0
  0
LINE
  5
53F
  8
0
  6
CONTINUOUS
 62
     7
 10
-606.98388999999975
 20
446.83486999999991
 30
0.0
 11
-605.13378999999998
 21
446.83486999999991
 31
0.0
  0
LINE
  5
540
  8
0
  6
CONTINUOUS
 62
     7
 10
-606.86388999999986
 20
455.08487000000002
 30
0.0
 11
-605.13378999999998
 21
455.08487000000002
 31
0.0
  0
LINE
  5
541
  8
0
  6
CONTINUOUS
 62
     7
 10
-606.88379000000009
 20
459.59487999999999
 30
0.0
 11
-605.13378999999998
 21
459.59487999999999
 31
0.0
  0
LINE
  5
542
  8
0
  6
CONTINUOUS
 62
     7
 10
-606.89380000000006
 20
461.69484999999992
 30
0.0
 11
-604.63379000000009
 21
461.69484999999992
 31
0.0
  0
LINE
  5
543
  8
0
  6
CONTINUOUS
 62
     7
 10
-607.36388999999986
 20
454.94488999999987
 30
0.0
 11
-608.64386000000002
 21
454.19488999999999
 31
0.0
  0
LINE
  5
544
  8
0
  6
CONTINUOUS
 62
     7
 10
-607.27386000000001
 20
446.79491999999988
 30
0.0
 11
-608.42389000000003
 21
446.44494999999989
 31
0.0
  0
LINE
  5
545
  8
0
  6
CONTINUOUS
 62
     7
 10
-607.34387000000004
 20
461.59487999999988
 30
0.0
 11
-608.58392000000003
 21
460.96487000000002
 31
0.0
  0
LINE
  5
546
  8
0
  6
CONTINUOUS
 62
     7
 10
-607.35382000000004
 20
459.48491999999987
 30
0.0
 11
-608.60387999999978
 21
458.81490999999988
 31
0.0
  0
LINE
  5
547
  8
0
  6
CONTINUOUS
 62
     7
 10
-605.13378999999998
 20
439.09487999999999
 30
0.0
 11
-608.1337900000002
 21
439.09487999999999
 31
0.0
  0
LINE
  5
548
  8
0
  6
CONTINUOUS
 62
     7
 10
-605.13378999999998
 20
437.09487999999988
 30
0.0
 11
-608.1337900000002
 21
437.09487999999988
 31
0.0
  0
LINE
  5
549
  8
0
  6
CONTINUOUS
 62
     7
 10
-605.13378999999998
 20
429.09487999999988
 30
0.0
 11
-608.1337900000002
 21
429.09487999999988
 31
0.0
  0
LINE
  5
54A
  8
0
  6
CONTINUOUS
 62
     7
 10
-605.13378999999998
 20
427.09487999999999
 30
0.0
 11
-608.1337900000002
 21
427.09487999999999
 31
0.0
  0
LINE
  5
54B
  8
0
  6
CONTINUOUS
 62
     7
 10
-605.13378999999998
 20
419.09487999999999
 30
0.0
 11
-608.1337900000002
 21
419.09487999999999
 31
0.0
  0
LINE
  5
54C
  8
0
  6
CONTINUOUS
 62
     7
 10
-605.13378999999998
 20
417.09487999999988
 30
0.0
 11
-608.1337900000002
 21
417.09487999999988
 31
0.0
  0
LINE
  5
54D
  8
0
  6
CONTINUOUS
 62
     7
 10
-607.1337900000002
 20
428.70485999999988
 30
0.0
 11
-607.1337900000002
 21
427.49489999999992
 31
0.0
  0
LINE
  5
54E
  8
0
  6
CONTINUOUS
 62
     7
 10
-607.1337900000002
 20
418.70485999999988
 30
0.0
 11
-607.1337900000002
 21
417.54482999999999
 31
0.0
  0
LINE
  5
54F
  8
0
  6
CONTINUOUS
 62
     7
 10
-607.1337900000002
 20
438.72487999999998
 30
0.0
 11
-607.1337900000002
 21
437.35489000000001
 31
0.0
  0
LINE
  5
550
  8
0
  6
CONTINUOUS
 62
     7
 10
-607.1337900000002
 20
448.48489000000012
 30
0.0
 11
-607.1337900000002
 21
447.42484000000002
 31
0.0
  0
LINE
  5
551
  8
0
  6
CONTINUOUS
 62
     7
 10
-607.1337900000002
 20
455.92484000000002
 30
0.0
 11
-607.1337900000002
 21
455.45485999999988
 31
0.0
  0
LINE
  5
552
  8
0
  6
CONTINUOUS
 62
     7
 10
-607.1337900000002
 20
460.49489999999992
 30
0.0
 11
-607.1337900000002
 21
459.94484999999997
 31
0.0
  0
LINE
  5
553
  8
0
  6
CONTINUOUS
 62
     7
 10
-607.1337900000002
 20
462.59487999999988
 30
0.0
 11
-607.1337900000002
 21
462.06484999999992
 31
0.0
  0
LINE
  5
554
  8
0
  6
CONTINUOUS
 62
     7
 10
-610.63378999999975
 20
433.09487999999988
 30
0.0
 11
-610.63378999999975
 21
413.09487999999988
 31
0.0
  0
LINE
  5
555
  8
0
  6
CONTINUOUS
 62
     7
 10
-610.63378999999975
 20
433.09482000000003
 30
0.0
 11
-609.13385000000005
 21
433.22482000000002
 31
0.0
  0
LINE
  5
556
  8
0
  6
CONTINUOUS
 62
     7
 10
-610.63378999999975
 20
428.2448999999998
 30
0.0
 11
-609.13378999999998
 21
428.2448999999998
 31
0.0
  0
LINE
  5
557
  8
0
  6
CONTINUOUS
 62
     7
 10
-610.63378999999975
 20
430.37490999999989
 30
0.0
 11
-609.13378999999998
 21
430.37490999999989
 31
0.0
  0
LINE
  5
558
  8
0
  6
CONTINUOUS
 62
     7
 10
-493.79385000000002
 20
449.09487999999988
 30
0.0
 11
-592.77380000000005
 21
449.09487999999988
 31
0.0
  0
LINE
  5
559
  8
0
  6
CONTINUOUS
 62
     7
 10
-493.79385000000002
 20
447.09487999999999
 30
0.0
 11
-592.77380000000005
 21
447.09487999999999
 31
0.0
  0
LINE
  5
55A
  8
0
  6
CONTINUOUS
 62
     7
 10
-526.13385000000005
 20
439.09487999999999
 30
0.0
 11
-592.77380000000005
 21
439.09487999999999
 31
0.0
  0
LINE
  5
55B
  8
0
  6
CONTINUOUS
 62
     7
 10
-493.80103000000003
 20
437.09487999999988
 30
0.0
 11
-592.77380000000005
 21
437.09487999999988
 31
0.0
  0
LINE
  5
55C
  8
0
  6
CONTINUOUS
 62
     7
 10
-558.69519000000003
 20
429.09487999999988
 30
0.0
 11
-592.77380000000005
 21
429.09487999999988
 31
0.0
  0
LINE
  5
55D
  8
0
  6
CONTINUOUS
 62
     7
 10
-558.69519000000003
 20
427.09487999999999
 30
0.0
 11
-592.77380000000005
 21
427.09487999999999
 31
0.0
  0
LINE
  5
55E
  8
0
  6
CONTINUOUS
 62
     7
 10
-558.69519000000003
 20
419.09487999999999
 30
0.0
 11
-592.77380000000005
 21
419.09487999999999
 31
0.0
  0
LINE
  5
55F
  8
0
  6
CONTINUOUS
 62
     7
 10
-558.69519000000003
 20
417.09487999999988
 30
0.0
 11
-592.77380000000005
 21
417.09487999999988
 31
0.0
  0
LINE
  5
560
  8
0
  6
CONTINUOUS
 62
     7
 10
-593.45385999999985
 20
449.81484999999998
 30
0.0
 11
-490.31384000000003
 21
449.81484999999998
 31
0.0
  0
LINE
  5
561
  8
0
  6
CONTINUOUS
 62
     7
 10
-593.45385999999985
 20
446.46487000000002
 30
0.0
 11
-526.11388999999986
 21
446.46487000000002
 31
0.0
  0
LINE
  5
562
  8
0
  6
CONTINUOUS
 62
     7
 10
-593.67382999999995
 20
439.58487000000002
 30
0.0
 11
-526.13385000000005
 21
439.58487000000002
 31
0.0
  0
LINE
  5
563
  8
0
  6
CONTINUOUS
 62
     7
 10
-593.67382999999995
 20
436.65494000000001
 30
0.0
 11
-490.09960999999993
 21
436.65494000000001
 31
0.0
  0
LINE
  5
564
  8
0
  6
CONTINUOUS
 62
     7
 10
-593.80382999999995
 20
429.43484000000001
 30
0.0
 11
-557.4751
 21
429.43484000000001
 31
0.0
  0
LINE
  5
565
  8
0
  6
CONTINUOUS
 62
     7
 10
-593.80382999999995
 20
426.77492999999998
 30
0.0
 11
-557.4751
 21
426.77492999999998
 31
0.0
  0
LINE
  5
566
  8
0
  6
CONTINUOUS
 62
     7
 10
-593.86388999999986
 20
419.36489999999981
 30
0.0
 11
-557.41516000000001
 21
419.36489999999981
 31
0.0
  0
LINE
  5
567
  8
0
  6
CONTINUOUS
 62
     7
 10
-593.86388999999986
 20
416.83487000000002
 30
0.0
 11
-557.41516000000001
 21
416.83487000000002
 31
0.0
  0
LINE
  5
568
  8
0
  6
CONTINUOUS
 62
     7
 10
-593.86388999999986
 20
409.36489999999998
 30
0.0
 11
-557.41516000000001
 21
409.36489999999998
 31
0.0
  0
LINE
  5
569
  8
0
  6
CONTINUOUS
 62
     7
 10
-558.69519000000003
 20
409.09487999999988
 30
0.0
 11
-592.77380000000005
 21
409.09487999999988
 31
0.0
  0
LINE
  5
56A
  8
0
  6
CONTINUOUS
 62
     7
 10
-558.69519000000003
 20
407.09487999999999
 30
0.0
 11
-592.77380000000005
 21
407.09487999999999
 31
0.0
  0
LINE
  5
56B
  8
0
  6
CONTINUOUS
 62
     7
 10
-593.86388999999986
 20
406.82486
 30
0.0
 11
-557.41516000000001
 21
406.82486
 31
0.0
  0
LINE
  5
56C
  8
0
  6
CONTINUOUS
 62
     7
 10
-593.80382999999995
 20
399.41482999999988
 30
0.0
 11
-557.4751
 21
399.41482999999988
 31
0.0
  0
LINE
  5
56D
  8
0
  6
CONTINUOUS
 62
     7
 10
-558.69519000000003
 20
399.09487999999988
 30
0.0
 11
-592.77380000000005
 21
399.09487999999988
 31
0.0
  0
LINE
  5
56E
  8
0
  6
CONTINUOUS
 62
     7
 10
-558.69519000000003
 20
397.09487999999999
 30
0.0
 11
-592.77380000000005
 21
397.09487999999999
 31
0.0
  0
LINE
  5
56F
  8
0
  6
CONTINUOUS
 62
     7
 10
-593.80382999999995
 20
396.75490999999988
 30
0.0
 11
-557.46252000000004
 21
396.75490999999988
 31
0.0
  0
LINE
  5
570
  8
0
  6
CONTINUOUS
 62
     7
 10
-493.80103000000003
 20
389.09487999999988
 30
0.0
 11
-592.77380000000005
 21
389.09487999999988
 31
0.0
  0
LINE
  5
571
  8
0
  6
CONTINUOUS
 62
     7
 10
-593.67382999999995
 20
389.53482000000002
 30
0.0
 11
-490.09960999999993
 21
389.53482000000002
 31
0.0
  0
LINE
  5
572
  8
0
  6
CONTINUOUS
 62
     7
 10
-526.13385000000005
 20
387.09487999999988
 30
0.0
 11
-592.77380000000005
 21
387.09487999999988
 31
0.0
  0
LINE
  5
573
  8
0
  6
CONTINUOUS
 62
     7
 10
-593.67382999999995
 20
386.60489000000001
 30
0.0
 11
-526.13385000000005
 21
386.60489000000001
 31
0.0
  0
LINE
  5
574
  8
0
  6
CONTINUOUS
 62
     7
 10
-493.79385000000002
 20
379.09487999999988
 30
0.0
 11
-538.13379000000009
 21
379.09487999999988
 31
0.0
  0
LINE
  5
575
  8
0
  6
CONTINUOUS
 62
     7
 10
-493.79385000000002
 20
377.09487999999988
 30
0.0
 11
-538.13379000000009
 21
377.09487999999988
 31
0.0
  0
LINE
  5
576
  8
0
  6
CONTINUOUS
 62
     7
 10
-593.45385999999985
 20
376.37491
 30
0.0
 11
-538.13379000000009
 21
376.37491
 31
0.0
  0
LINE
  5
577
  8
0
  6
CONTINUOUS
 62
     7
 10
-490.31384000000003
 20
379.72487999999993
 30
0.0
 11
-508.15384
 21
379.72487999999993
 31
0.0
  0
LINE
  5
578
  8
0
  6
CONTINUOUS
 62
     7
 10
-606.93384000000003
 20
377.40493999999978
 30
0.0
 11
-604.83385999999996
 21
377.40493999999978
 31
0.0
  0
LINE
  5
579
  8
0
  6
CONTINUOUS
 62
     7
 10
-607.32379000000003
 20
377.48489000000001
 30
0.0
 11
-608.52386000000001
 21
378.00490999999988
 31
0.0
  0
LINE
  5
57A
  8
0
  6
CONTINUOUS
 62
     7
 10
-606.98388999999975
 20
379.35489000000001
 30
0.0
 11
-605.13378999999998
 21
379.35489000000001
 31
0.0
  0
LINE
  5
57B
  8
0
  6
CONTINUOUS
 62
     7
 10
-607.27380000000005
 20
379.39483999999999
 30
0.0
 11
-608.42382999999995
 21
379.75484999999992
 31
0.0
  0
LINE
  5
57C
  8
0
  6
CONTINUOUS
 62
     7
 10
-605.13378999999998
 20
387.09487999999988
 30
0.0
 11
-608.1337900000002
 21
387.09487999999988
 31
0.0
  0
LINE
  5
57D
  8
0
  6
CONTINUOUS
 62
     7
 10
-605.13378999999998
 20
389.09487999999988
 30
0.0
 11
-608.1337900000002
 21
389.09487999999988
 31
0.0
  0
LINE
  5
57E
  8
0
  6
CONTINUOUS
 62
     7
 10
-605.13378999999998
 20
397.09487999999999
 30
0.0
 11
-608.1337900000002
 21
397.09487999999999
 31
0.0
  0
LINE
  5
57F
  8
0
  6
CONTINUOUS
 62
     7
 10
-605.13378999999998
 20
399.09487999999988
 30
0.0
 11
-608.1337900000002
 21
399.09487999999988
 31
0.0
  0
LINE
  5
580
  8
0
  6
CONTINUOUS
 62
     7
 10
-605.13378999999998
 20
407.09487999999999
 30
0.0
 11
-608.1337900000002
 21
407.09487999999999
 31
0.0
  0
LINE
  5
581
  8
0
  6
CONTINUOUS
 62
     7
 10
-605.13378999999998
 20
409.09487999999988
 30
0.0
 11
-608.1337900000002
 21
409.09487999999988
 31
0.0
  0
LINE
  5
582
  8
0
  6
CONTINUOUS
 62
     7
 10
-607.1337900000002
 20
397.48488999999989
 30
0.0
 11
-607.1337900000002
 21
398.70485999999988
 31
0.0
  0
LINE
  5
583
  8
0
  6
CONTINUOUS
 62
     7
 10
-607.1337900000002
 20
407.48489000000001
 30
0.0
 11
-607.1337900000002
 21
408.64492999999987
 31
0.0
  0
LINE
  5
584
  8
0
  6
CONTINUOUS
 62
     7
 10
-607.1337900000002
 20
387.46487000000002
 30
0.0
 11
-607.1337900000002
 21
388.83487000000002
 31
0.0
  0
LINE
  5
585
  8
0
  6
CONTINUOUS
 62
     7
 10
-607.1337900000002
 20
377.70486
 30
0.0
 11
-607.1337900000002
 21
378.76492000000002
 31
0.0
  0
LINE
  5
586
  8
0
  6
CONTINUOUS
 62
     7
 10
-610.63378999999975
 20
393.09487999999988
 30
0.0
 11
-610.63378999999975
 21
413.09487999999988
 31
0.0
  0
LINE
  5
587
  8
0
  6
CONTINUOUS
 62
     7
 10
-610.63385000000005
 20
393.09482000000003
 30
0.0
 11
-609.13385000000005
 21
392.96480999999989
 31
0.0
  0
LINE
  5
588
  8
0
  6
CONTINUOUS
 62
     7
 10
-610.63378999999975
 20
397.94484999999992
 30
0.0
 11
-609.13378999999998
 21
397.94484999999992
 31
0.0
  0
LINE
  5
589
  8
0
  6
CONTINUOUS
 62
     7
 10
-610.63378999999975
 20
395.81484999999998
 30
0.0
 11
-609.13378999999998
 21
395.81484999999998
 31
0.0
  0
LINE
  5
58A
  8
0
  6
CONTINUOUS
 62
     7
 10
-593.45385999999985
 20
379.72487999999993
 30
0.0
 11
-526.11388999999986
 21
379.72487999999993
 31
0.0
  0
LINE
  5
58B
  8
0
  6
CONTINUOUS
 62
     7
 10
-538.13379000000009
 20
379.09487999999988
 30
0.0
 11
-592.77380000000005
 21
379.09487999999988
 31
0.0
  0
LINE
  5
58C
  8
0
  6
CONTINUOUS
 62
     7
 10
-538.13379000000009
 20
377.09487999999988
 30
0.0
 11
-592.77380000000005
 21
377.09487999999988
 31
0.0
  0
LINE
  5
58D
  8
0
  6
CONTINUOUS
 62
     7
 10
-538.13379000000009
 20
376.37491
 30
0.0
 11
-490.31384000000003
 21
376.37491
 31
0.0
  0
LINE
  5
58E
  8
0
  6
CONTINUOUS
 62
     7
 10
-603.1337900000002
 20
466.09487999999988
 30
0.0
 11
-603.1337900000002
 21
360.09487999999988
 31
0.0
  0
LINE
  5
58F
  8
0
  6
CONTINUOUS
 62
     7
 10
-595.1337900000002
 20
466.09487999999988
 30
0.0
 11
-595.1337900000002
 21
360.09487999999988
 31
0.0
  0
LINE
  5
590
  8
0
  6
CONTINUOUS
 62
     7
 10
-608.64386000000002
 20
371.99484000000001
 30
0.0
 11
-608.66387999999995
 21
372.00481999999988
 31
0.0
  0
LINE
  5
591
  8
0
  6
CONTINUOUS
 62
     7
 10
-604.1337900000002
 20
463.09487999999988
 30
0.0
 11
-604.1337900000002
 21
363.09487999999999
 31
0.0
  0
LINE
  5
592
  8
0
  6
CONTINUOUS
 62
     7
 10
-604.1337900000002
 20
463.09487999999988
 30
0.0
 11
-603.1337900000002
 21
463.09487999999988
 31
0.0
  0
LINE
  5
593
  8
0
  6
CONTINUOUS
 62
     7
 10
-603.1337900000002
 20
466.09487999999988
 30
0.0
 11
-595.1337900000002
 21
466.09487999999988
 31
0.0
  0
LINE
  5
594
  8
0
  6
CONTINUOUS
 62
     7
 10
-602.43384000000003
 20
456.28482000000002
 30
0.0
 11
-596.20385999999985
 21
456.28482000000002
 31
0.0
  0
LINE
  5
595
  8
0
  6
CONTINUOUS
 62
     7
 10
-487.13385
 20
459.09487999999988
 30
0.0
 11
-479.13385
 21
459.09487999999988
 31
0.0
  0
LINE
  5
596
  8
0
  6
CONTINUOUS
 62
     7
 10
-487.13385
 20
445.03482000000002
 30
0.0
 11
-479.13385
 21
445.03482000000002
 31
0.0
  0
LINE
  5
597
  8
0
  6
CONTINUOUS
 62
     7
 10
-487.13385
 20
469.09487999999999
 30
0.0
 11
-479.13385
 21
469.09487999999999
 31
0.0
  0
LINE
  5
598
  8
0
  6
CONTINUOUS
 62
     7
 10
-591.92382999999995
 20
469.37490999999989
 30
0.0
 11
-495.00384999999989
 21
469.37490999999989
 31
0.0
  0
LINE
  5
599
  8
0
  6
CONTINUOUS
 62
     7
 10
-595.13385000000017
 20
461.19495000000001
 30
0.0
 11
-593.89386000000002
 21
467.75493999999998
 31
0.0
  0
LINE
  5
59A
  8
0
  6
CONTINUOUS
 62
     7
 10
-589.77386000000001
 20
449.74484000000001
 30
0.0
 11
-595.13385000000017
 21
461.19481999999988
 31
0.0
  0
LINE
  5
59B
  8
0
  6
CONTINUOUS
 62
     7
 10
-589.77392999999995
 20
376.44484999999992
 30
0.0
 11
-595.13385000000017
 21
365.00493999999992
 31
0.0
  0
LINE
  5
59C
  8
0
  6
CONTINUOUS
 62
     7
 10
-591.88378999999975
 20
472.22487999999998
 30
0.0
 11
-495.00384999999989
 21
472.22487999999998
 31
0.0
  0
LINE
  5
59D
  8
0
  6
CONTINUOUS
 62
     7
 10
-591.8638900000002
 20
474.07485999999989
 30
0.0
 11
-495.00384999999989
 21
474.07485999999989
 31
0.0
  0
LINE
  5
59E
  8
0
  6
CONTINUOUS
 62
     7
 10
-591.84387000000004
 20
474.98488999999989
 30
0.0
 11
-495.00378000000001
 21
474.98488999999989
 31
0.0
  0
LINE
  5
59F
  8
0
  6
CONTINUOUS
 62
     7
 10
-595.13385000000017
 20
462.53491000000002
 30
0.0
 11
-593.85382000000004
 21
470.54482999999988
 31
0.0
  0
LINE
  5
5A0
  8
0
  6
CONTINUOUS
 62
     7
 10
-595.13385000000017
 20
463.88482999999991
 30
0.0
 11
-593.84380999999985
 21
472.37490999999989
 31
0.0
  0
LINE
  5
5A1
  8
0
  6
CONTINUOUS
 62
     7
 10
-595.13391000000001
 20
463.88488999999998
 30
0.0
 11
-593.82384999999965
 21
473.26492000000002
 31
0.0
  0
LINE
  5
5A2
  8
0
  6
CONTINUOUS
 62
     7
 10
-488.93377999999979
 20
452.43484000000001
 30
0.0
 11
-493.07378999999992
 21
467.89487000000003
 31
0.0
  0
LINE
  5
5A3
  8
0
  6
CONTINUOUS
 62
     7
 10
-492.59384
 20
466.09487999999988
 30
0.0
 11
-487.13385
 21
466.09487999999988
 31
0.0
  0
LINE
  5
5A4
  8
0
  6
CONTINUOUS
 62
     7
 10
-609.13378999999998
 20
365.07486
 30
0.0
 11
-609.13378999999998
 21
408.09487999999988
 31
0.0
  0
LINE
  5
5A5
  8
0
  6
CONTINUOUS
 62
     7
 10
-606.86388999999986
 20
363.34487999999999
 30
0.0
 11
-604.63379000000009
 21
363.34487999999999
 31
0.0
  0
LINE
  5
5A6
  8
0
  6
CONTINUOUS
 62
     7
 10
-607.36382999999978
 20
363.48482999999987
 30
0.0
 11
-608.63385000000005
 21
364.21483999999992
 31
0.0
  0
LINE
  5
5A7
  8
0
  6
CONTINUOUS
 62
     7
 10
-607.37383999999975
 20
365.59487999999988
 30
0.0
 11
-608.65380999999979
 21
366.36489999999992
 31
0.0
  0
LINE
  5
5A8
  8
0
  6
CONTINUOUS
 62
     7
 10
-607.38391000000001
 20
370.13482999999991
 30
0.0
 11
-608.68389999999999
 21
370.98482999999987
 31
0.0
  0
LINE
  5
5A9
  8
0
  6
CONTINUOUS
 62
     7
 10
-606.85387999999978
 20
365.45486
 30
0.0
 11
-604.1337900000002
 21
365.45486
 31
0.0
  0
LINE
  5
5AA
  8
0
  6
CONTINUOUS
 62
     7
 10
-606.83385999999985
 20
369.97487999999998
 30
0.0
 11
-604.1337900000002
 21
369.97487999999998
 31
0.0
  0
LINE
  5
5AB
  8
0
  6
CONTINUOUS
 62
     7
 10
-606.86388999999986
 20
371.11489999999992
 30
0.0
 11
-605.13378999999998
 21
371.11489999999992
 31
0.0
  0
LINE
  5
5AC
  8
0
  6
CONTINUOUS
 62
     7
 10
-606.88379000000009
 20
366.59487999999988
 30
0.0
 11
-605.13378999999998
 21
366.59487999999988
 31
0.0
  0
LINE
  5
5AD
  8
0
  6
CONTINUOUS
 62
     7
 10
-606.89380000000006
 20
364.49489999999992
 30
0.0
 11
-604.63379000000009
 21
364.49489999999992
 31
0.0
  0
LINE
  5
5AE
  8
0
  6
CONTINUOUS
 62
     7
 10
-607.36382999999978
 20
371.24489999999992
 30
0.0
 11
-608.64380000000017
 21
371.99486999999988
 31
0.0
  0
LINE
  5
5AF
  8
0
  6
CONTINUOUS
 62
     7
 10
-607.34380999999985
 20
364.60482999999988
 30
0.0
 11
-608.58385999999985
 21
365.23482999999987
 31
0.0
  0
LINE
  5
5B0
  8
0
  6
CONTINUOUS
 62
     7
 10
-607.35388
 20
366.71483999999992
 30
0.0
 11
-608.60387999999978
 21
367.37487999999979
 31
0.0
  0
LINE
  5
5B1
  8
0
  6
CONTINUOUS
 62
     7
 10
-607.1337900000002
 20
370.26492000000002
 30
0.0
 11
-607.1337900000002
 21
370.73488999999989
 31
0.0
  0
LINE
  5
5B2
  8
0
  6
CONTINUOUS
 62
     7
 10
-607.1337900000002
 20
365.69484999999992
 30
0.0
 11
-607.1337900000002
 21
366.24489999999992
 31
0.0
  0
LINE
  5
5B3
  8
0
  6
CONTINUOUS
 62
     7
 10
-607.1337900000002
 20
363.59487999999988
 30
0.0
 11
-607.1337900000002
 21
364.12491
 31
0.0
  0
LINE
  5
5B4
  8
0
  6
CONTINUOUS
 62
     7
 10
-604.1337900000002
 20
363.09487999999999
 30
0.0
 11
-603.1337900000002
 21
363.09487999999999
 31
0.0
  0
LINE
  5
5B5
  8
0
  6
CONTINUOUS
 62
     7
 10
-603.1337900000002
 20
360.09487999999988
 30
0.0
 11
-595.1337900000002
 21
360.09487999999988
 31
0.0
  0
LINE
  5
5B6
  8
0
  6
CONTINUOUS
 62
     7
 10
-602.43384000000003
 20
369.90494000000001
 30
0.0
 11
-596.20385999999985
 21
369.90494000000001
 31
0.0
  0
LINE
  5
5B7
  8
0
  6
CONTINUOUS
 62
     7
 10
-487.13385
 20
367.09487999999999
 30
0.0
 11
-479.13385
 21
367.09487999999999
 31
0.0
  0
LINE
  5
5B8
  8
0
  6
CONTINUOUS
 62
     7
 10
-487.13385
 20
357.09487999999999
 30
0.0
 11
-479.13385
 21
357.09487999999999
 31
0.0
  0
LINE
  5
5B9
  8
0
  6
CONTINUOUS
 62
     7
 10
-591.92382999999995
 20
356.81484999999992
 30
0.0
 11
-495.00384999999989
 21
356.81484999999992
 31
0.0
  0
LINE
  5
5BA
  8
0
  6
CONTINUOUS
 62
     7
 10
-595.13385000000017
 20
365.00484999999998
 30
0.0
 11
-593.89386000000002
 21
358.44484999999992
 31
0.0
  0
LINE
  5
5BB
  8
0
  6
CONTINUOUS
 62
     7
 10
-592.22766000000001
 20
353.96487000000002
 30
0.0
 11
-569.7357199999999
 21
353.96487000000002
 31
0.0
  0
LINE
  5
5BC
  8
0
  6
CONTINUOUS
 62
     7
 10
-595.13385000000017
 20
363.65484999999978
 30
0.0
 11
-593.85382000000004
 21
355.65490999999992
 31
0.0
  0
LINE
  5
5BD
  8
0
  6
CONTINUOUS
 62
     7
 10
-595.13391000000001
 20
362.31491
 30
0.0
 11
-594.12463000000002
 21
355.66472999999979
 31
0.0
  0
LINE
  5
5BE
  8
0
  6
CONTINUOUS
 62
     7
 10
-595.1337900000002
 20
362.31491
 30
0.0
 11
-594.20830999999976
 21
355.68831999999992
 31
0.0
  0
LINE
  5
5BF
  8
0
  6
CONTINUOUS
 62
     7
 10
-488.92812999999973
 20
373.77600000000001
 30
0.0
 11
-493.07384999999999
 21
358.29489000000001
 31
0.0
  0
LINE
  5
5C0
  8
0
  6
CONTINUOUS
 62
     7
 10
-492.59182999999979
 20
360.09487999999988
 30
0.0
 11
-487.13385
 21
360.09487999999988
 31
0.0
  0
LINE
  5
5C1
  8
0
  6
CONTINUOUS
 62
     7
 10
-487.13385
 20
381.15494000000001
 30
0.0
 11
-479.13385
 21
381.15494000000001
 31
0.0
  0
LINE
  5
5C2
  8
0
  6
CONTINUOUS
 62
     3
 10
-568.13385000000005
 20
348.59485000000001
 30
0.0
 11
-568.34911999999963
 21
356.81493999999992
 31
0.0
  0
LINE
  5
5C3
  8
0
  6
CONTINUOUS
 62
     3
 10
-508.13387999999998
 20
348.59485000000001
 30
0.0
 11
-507.91860999999989
 21
356.81493999999992
 31
0.0
  0
LINE
  5
5C4
  8
0
  6
CONTINUOUS
 62
     3
 10
-488.13382000000001
 20
360.09485000000001
 30
0.0
 11
-493.85959000000003
 21
351.27794999999992
 31
0.0
  0
LINE
  5
5C5
  8
0
  6
CONTINUOUS
 62
     7
 10
-508.13385
 20
348.59487999999999
 30
0.0
 11
-568.13378999999986
 21
348.59487999999999
 31
0.0
  0
LINE
  5
5C6
  8
0
  6
CONTINUOUS
 62
     7
 10
-506.62024000000002
 20
350.59487999999999
 30
0.0
 11
-495.11765000000003
 21
350.59487999999999
 31
0.0
  0
LINE
  5
5C7
  8
0
  6
CONTINUOUS
 62
     7
 10
-509.15384000000012
 20
440.59487999999988
 30
0.0
 11
-509.15384000000012
 21
445.45485999999988
 31
0.0
  0
LINE
  5
5C8
  8
0
  6
CONTINUOUS
 62
     7
 10
-525.11388999999986
 20
440.59487999999988
 30
0.0
 11
-525.11388999999986
 21
445.45485999999988
 31
0.0
  0
LINE
  5
5C9
  8
0
  6
CONTINUOUS
 62
     7
 10
-509.63384999999988
 20
440.59487999999988
 30
0.0
 11
-509.63384999999988
 21
445.59487999999988
 31
0.0
  0
LINE
  5
5CA
  8
0
  6
CONTINUOUS
 62
     7
 10
-524.63385000000005
 20
440.59487999999988
 30
0.0
 11
-524.63385000000005
 21
445.59487999999988
 31
0.0
  0
LINE
  5
5CB
  8
0
  6
CONTINUOUS
 62
     7
 10
-553.13379000000009
 20
426.09487999999988
 30
0.0
 11
-490.13385
 21
426.09487999999988
 31
0.0
  0
LINE
  5
5CC
  8
0
  6
CONTINUOUS
 62
     7
 10
-553.13379000000009
 20
392.59487999999999
 30
0.0
 11
-490.13385
 21
392.59487999999999
 31
0.0
  0
LINE
  5
5CD
  8
0
  6
CONTINUOUS
 62
     7
 10
-553.13379000000009
 20
433.59487999999988
 30
0.0
 11
-490.13385
 21
433.59487999999988
 31
0.0
  0
LINE
  5
5CE
  8
0
  6
CONTINUOUS
 62
     3
 10
-490.13385
 20
433.59487999999988
 30
0.0
 11
-490.13385
 21
392.59487999999999
 31
0.0
  0
LINE
  5
5CF
  8
0
  6
CONTINUOUS
 62
     3
 10
-553.13379000000009
 20
433.59487999999988
 30
0.0
 11
-553.13379000000009
 21
392.59487999999999
 31
0.0
  0
LINE
  5
5D0
  8
0
  6
CONTINUOUS
 62
     7
 10
-508.13385
 20
439.58487000000002
 30
0.0
 11
-490.08812999999992
 21
439.58487000000002
 31
0.0
  0
LINE
  5
5D1
  8
0
  6
CONTINUOUS
 62
     7
 10
-508.13385
 20
386.61489999999998
 30
0.0
 11
-490.09960999999993
 21
386.61489999999998
 31
0.0
  0
LINE
  5
5D2
  8
0
  6
CONTINUOUS
 62
     7
 10
-509.15384000000012
 20
385.59487999999999
 30
0.0
 11
-509.15384000000012
 21
380.73489000000001
 31
0.0
  0
LINE
  5
5D3
  8
0
  6
CONTINUOUS
 62
     7
 10
-525.11388999999986
 20
385.59487999999999
 30
0.0
 11
-525.11388999999986
 21
380.73489000000001
 31
0.0
  0
LINE
  5
5D4
  8
0
  6
CONTINUOUS
 62
     7
 10
-509.63384999999988
 20
385.59487999999999
 30
0.0
 11
-509.63384999999988
 21
380.59487999999988
 31
0.0
  0
LINE
  5
5D5
  8
0
  6
CONTINUOUS
 62
     7
 10
-524.63385000000005
 20
385.59487999999999
 30
0.0
 11
-524.63385000000005
 21
380.59487999999988
 31
0.0
  0
LINE
  5
5D6
  8
0
  6
CONTINUOUS
 62
     7
 10
-493.80103000000003
 20
387.09487999999988
 30
0.0
 11
-508.13385
 21
387.09487999999988
 31
0.0
  0
LINE
  5
5D7
  8
0
  6
CONTINUOUS
 62
     7
 10
-493.78671000000003
 20
439.09487999999999
 30
0.0
 11
-508.13385
 21
439.09487999999999
 31
0.0
  0
LINE
  5
5D8
  8
0
  6
CONTINUOUS
 62
     3
 10
-508.15384
 20
446.45485999999988
 30
0.0
 11
-490.31384000000003
 21
446.45485999999988
 31
0.0
  0
LINE
  5
5D9
  8
0
  6
CONTINUOUS
 62
     7
 10
-346.63387999999992
 20
164.34796
 30
0.0
 11
-346.63387999999992
 21
161.3479599999998
 31
0.0
  0
LINE
  5
5DA
  8
0
  6
CONTINUOUS
 62
     7
 10
-346.63387999999992
 20
164.34796
 30
0.0
 11
-314.63387999999992
 21
164.34796
 31
0.0
  0
LINE
  5
5DB
  8
0
  6
CENTER
 62
     7
 10
-465.05004999999989
 20
147.34795
 30
0.0
 11
-309.68610000000001
 21
147.34795
 31
0.0
  0
LINE
  5
5DC
  8
0
  6
CONTINUOUS
 62
     7
 10
-356.63387999999998
 20
133.3479599999998
 30
0.0
 11
-314.63387999999992
 21
133.3479599999998
 31
0.0
  0
LINE
  5
5DD
  8
0
  6
CONTINUOUS
 62
     7
 10
-356.63387999999998
 20
232.34794999999991
 30
0.0
 11
-356.63387999999998
 21
62.347977
 31
0.0
  0
LINE
  5
5DE
  8
0
  6
CONTINUOUS
 62
     7
 10
-356.63387999999998
 20
161.3479599999998
 30
0.0
 11
-314.63387999999992
 21
161.3479599999998
 31
0.0
  0
LINE
  5
5DF
  8
0
  6
CONTINUOUS
 62
     7
 10
-314.63387999999992
 20
164.34796
 30
0.0
 11
-314.63387999999992
 21
133.3479599999998
 31
0.0
  0
LINE
  5
5E0
  8
0
  6
CONTINUOUS
 62
     7
 10
-435.63384999999988
 20
205.14795000000001
 30
0.0
 11
-435.63384999999988
 21
43.147972000000003
 31
0.0
  0
LINE
  5
5E1
  8
0
  6
CONTINUOUS
 62
     7
 10
-479.13385
 20
68.147980000000004
 30
0.0
 11
-461.26500999999968
 21
67.523987000000005
 31
0.0
  0
LINE
  5
5E2
  8
0
  6
CONTINUOUS
 62
     7
 10
-442.63387999999992
 20
202.97214
 30
0.0
 11
-442.63387999999992
 21
203.04503
 31
0.0
  0
LINE
  5
5E3
  8
0
  6
CONTINUOUS
 62
     7
 10
-440.70363999999989
 20
204.97092000000001
 30
0.0
 11
-435.63384999999988
 21
205.1479599999999
 31
0.0
  0
LINE
  5
5E4
  8
0
  6
CONTINUOUS
 62
     7
 10
-458.2255599999998
 20
181.93867
 30
0.0
 11
-451.41994999999997
 21
187.64925999999991
 31
0.0
  0
LINE
  5
5E5
  8
0
  6
CONTINUOUS
 62
     7
 10
-458.2255599999998
 20
66.357268999999974
 30
0.0
 11
-451.41994999999997
 21
60.646687
 31
0.0
  0
LINE
  5
5E6
  8
0
  6
CENTER
 62
     7
 10
-618.87902999999994
 20
124.14796
 30
0.0
 11
-429.27230999999989
 21
124.14796
 31
0.0
  0
LINE
  5
5E7
  8
0
  6
CONTINUOUS
 62
     7
 10
-449.63385
 20
197.00644
 30
0.0
 11
-449.63385
 21
45.568236999999982
 31
0.0
  0
LINE
  5
5E8
  8
0
  6
CONTINUOUS
 62
     7
 10
-446.73853000000003
 20
200.0046199999999
 30
0.0
 11
-445.52917000000002
 21
200.04686000000001
 31
0.0
  0
LINE
  5
5E9
  8
0
  6
CONTINUOUS
 62
     7
 10
-442.63387999999992
 20
202.97214
 30
0.0
 11
-442.63387999999992
 21
180.4820399999999
 31
0.0
  0
LINE
  5
5EA
  8
0
  6
CONTINUOUS
 62
     7
 10
-479.13385
 20
68.147980000000004
 30
0.0
 11
-479.13385
 21
180.14796000000001
 31
0.0
  0
LINE
  5
5EB
  8
0
  6
CONTINUOUS
 62
     7
 10
-479.13385
 20
180.1479799999999
 30
0.0
 11
-461.26494999999989
 21
180.7719699999999
 31
0.0
  0
LINE
  5
5EC
  8
0
  6
CONTINUOUS
 62
     7
 10
-479.13385
 20
156.0849799999998
 30
0.0
 11
-459.54439999999988
 21
156.0849799999998
 31
0.0
  0
LINE
  5
5ED
  8
0
  6
CONTINUOUS
 62
     7
 10
-459.54439999999988
 20
92.210952999999989
 30
0.0
 11
-459.54439999999988
 21
156.0849799999998
 31
0.0
  0
LINE
  5
5EE
  8
0
  6
CONTINUOUS
 62
     7
 10
-442.63387999999992
 20
155.29715999999999
 30
0.0
 11
-442.63387999999992
 21
64.603995999999995
 31
0.0
  0
LINE
  5
5EF
  8
0
  6
CONTINUOUS
 62
     7
 10
-479.13385
 20
92.210952999999989
 30
0.0
 11
-459.54439999999988
 21
92.210952999999989
 31
0.0
  0
LINE
  5
5F0
  8
0
  6
CONTINUOUS
 62
     7
 10
-447.63384999999988
 20
178.4820599999999
 30
0.0
 11
-444.63385
 21
178.4820599999999
 31
0.0
  0
LINE
  5
5F1
  8
0
  6
CONTINUOUS
 62
     7
 10
-479.13385
 20
78.147971999999982
 30
0.0
 11
-453.49005
 21
78.147971999999982
 31
0.0
  0
LINE
  5
5F2
  8
0
  6
CONTINUOUS
 62
     7
 10
-479.13385
 20
170.14796000000001
 30
0.0
 11
-453.49005
 21
170.14796000000001
 31
0.0
  0
LINE
  5
5F3
  8
0
  6
CONTINUOUS
 62
     7
 10
-449.63385
 20
150.82003999999981
 30
0.0
 11
-444.63385
 21
150.82003999999981
 31
0.0
  0
LINE
  5
5F4
  8
0
  6
CONTINUOUS
 62
     7
 10
-447.63384999999988
 20
157.29715999999991
 30
0.0
 11
-444.63385
 21
157.29715999999991
 31
0.0
  0
LINE
  5
5F5
  8
0
  6
CONTINUOUS
 62
     7
 10
-459.54439999999988
 20
170.14796000000001
 30
0.0
 11
-459.54439999999988
 21
180.83205000000001
 31
0.0
  0
LINE
  5
5F6
  8
0
  6
CONTINUOUS
 62
     7
 10
-459.54439999999988
 20
67.463898
 30
0.0
 11
-459.54439999999988
 21
78.147971999999982
 31
0.0
  0
LINE
  5
5F7
  8
0
  6
CONTINUOUS
 62
     7
 10
-447.63384999999988
 20
62.603992000000012
 30
0.0
 11
-444.63385
 21
62.603992000000012
 31
0.0
  0
LINE
  5
5F8
  8
0
  6
CONTINUOUS
 62
     7
 10
-459.54439999999988
 20
92.210967999999994
 30
0.0
 11
-451.85525999999987
 21
81.300087000000005
 31
0.0
  0
LINE
  5
5F9
  8
0
  6
CONTINUOUS
 62
     7
 10
-451.85521999999997
 20
166.99588
 30
0.0
 11
-459.54439999999988
 21
156.08499
 31
0.0
  0
LINE
  5
5FA
  8
0
  6
CONTINUOUS
 62
     7
 10
-506.63384999999988
 20
154.14795000000001
 30
0.0
 11
-497.36383000000001
 21
154.14795000000001
 31
0.0
  0
LINE
  5
5FB
  8
0
  6
CONTINUOUS
 62
     3
 10
-588.63433999999995
 20
116.64773
 30
0.0
 11
-588.63433999999995
 21
131.64773999999991
 31
0.0
  0
LINE
  5
5FC
  8
0
  6
CONTINUOUS
 62
     3
 10
-588.63433999999995
 20
131.64773999999991
 30
0.0
 11
-585.13434000000007
 21
131.64773999999991
 31
0.0
  0
LINE
  5
5FD
  8
0
  6
CONTINUOUS
 62
     3
 10
-581.13434000000007
 20
157.64771999999999
 30
0.0
 11
-581.13434000000007
 21
154.14771999999991
 31
0.0
  0
LINE
  5
5FE
  8
0
  6
CONTINUOUS
 62
     3
 10
-581.13434000000007
 20
157.64771999999999
 30
0.0
 11
-566.13385000000017
 21
157.64771999999999
 31
0.0
  0
LINE
  5
5FF
  8
0
  6
CONTINUOUS
 62
     3
 10
-566.13385000000017
 20
157.64771999999999
 30
0.0
 11
-566.13385000000017
 21
154.14771999999991
 31
0.0
  0
LINE
  5
600
  8
0
  6
CONTINUOUS
 62
     3
 10
-585.13434000000007
 20
94.148208999999994
 30
0.0
 11
-585.13434000000007
 21
154.14771999999991
 31
0.0
  0
LINE
  5
601
  8
0
  6
CONTINUOUS
 62
     3
 10
-508.13385
 20
95.647957000000005
 30
0.0
 11
-508.13385
 21
152.64795000000001
 31
0.0
  0
LINE
  5
602
  8
0
  6
CONTINUOUS
 62
     3
 10
-585.13434000000007
 20
154.14771999999991
 30
0.0
 11
-509.63384999999988
 21
154.14771999999991
 31
0.0
  0
LINE
  5
603
  8
0
  6
CONTINUOUS
 62
     3
 10
-555.93384000000003
 20
106.3477199999999
 30
0.0
 11
-555.93384000000003
 21
141.9517399999998
 31
0.0
  0
LINE
  5
604
  8
0
  6
CONTINUOUS
 62
     3
 10
-520.33385999999985
 20
106.3477199999999
 30
0.0
 11
-520.33385999999985
 21
141.9517399999998
 31
0.0
  0
LINE
  5
605
  8
0
  6
CONTINUOUS
 62
     3
 10
-555.93384000000003
 20
106.3477199999999
 30
0.0
 11
-520.33385999999985
 21
106.3477199999999
 31
0.0
  0
LINE
  5
606
  8
0
  6
CONTINUOUS
 62
     3
 10
-555.93384000000003
 20
141.9517399999998
 30
0.0
 11
-520.33385999999985
 21
141.9517399999998
 31
0.0
  0
LINE
  5
607
  8
0
  6
CONTINUOUS
 62
     3
 10
-517.76184000000001
 20
101.64820999999991
 30
0.0
 11
-513.55682000000002
 21
101.64820999999991
 31
0.0
  0
LINE
  5
608
  8
0
  6
CONTINUOUS
 62
     3
 10
-515.63385000000005
 20
99.586189000000005
 30
0.0
 11
-515.63385000000005
 21
103.61212999999999
 31
0.0
  0
LINE
  5
609
  8
0
  6
CONTINUOUS
 62
     3
 10
-586.63433999999995
 20
92.648208999999994
 30
0.0
 11
-581.13434000000007
 21
92.648208999999994
 31
0.0
  0
LINE
  5
60A
  8
0
  6
CONTINUOUS
 62
     3
 10
-586.63433999999995
 20
155.64771999999991
 30
0.0
 11
-581.13434000000007
 21
155.64771999999991
 31
0.0
  0
LINE
  5
60B
  8
0
  6
CONTINUOUS
 62
     3
 10
-561.13385000000005
 20
101.1482199999999
 30
0.0
 11
-521.11187999999993
 21
101.1482199999999
 31
0.0
  0
LINE
  5
60C
  8
0
  6
CONTINUOUS
 62
     3
 10
-555.15686000000005
 20
147.14771999999991
 30
0.0
 11
-515.13385000000005
 21
147.14771999999991
 31
0.0
  0
LINE
  5
60D
  8
0
  6
CONTINUOUS
 62
     3
 10
-506.63384999999988
 20
92.648208999999994
 30
0.0
 11
-506.63384999999988
 21
155.64771999999991
 31
0.0
  0
LINE
  5
60E
  8
0
  6
CONTINUOUS
 62
     3
 10
-515.13385000000005
 20
107.12568999999991
 30
0.0
 11
-515.13385000000005
 21
147.14771999999991
 31
0.0
  0
LINE
  5
60F
  8
0
  6
CONTINUOUS
 62
     3
 10
-561.13385000000005
 20
101.1482199999999
 30
0.0
 11
-561.13385000000005
 21
141.17072999999991
 31
0.0
  0
LINE
  5
610
  8
0
  6
CONTINUOUS
 62
     3
 10
-586.63433999999995
 20
92.648208999999994
 30
0.0
 11
-586.63433999999995
 21
116.64773
 31
0.0
  0
LINE
  5
611
  8
0
  6
CONTINUOUS
 62
     3
 10
-586.63433999999995
 20
131.64773999999991
 30
0.0
 11
-586.63433999999995
 21
155.64771999999991
 31
0.0
  0
LINE
  5
612
  8
0
  6
CONTINUOUS
 62
     3
 10
-560.63385000000005
 20
144.58571000000001
 30
0.0
 11
-560.63385000000005
 21
148.6117099999999
 31
0.0
  0
LINE
  5
613
  8
0
  6
CONTINUOUS
 62
     3
 10
-562.76184000000001
 20
146.64774
 30
0.0
 11
-558.5568199999999
 21
146.64774
 31
0.0
  0
LINE
  5
614
  8
0
  6
CONTINUOUS
 62
     3
 10
-585.13434000000007
 20
94.148208999999994
 30
0.0
 11
-509.63384999999988
 21
94.148208999999994
 31
0.0
  0
LINE
  5
615
  8
0
  6
CONTINUOUS
 62
     7
 10
-506.63384999999988
 20
94.147957000000005
 30
0.0
 11
-497.36383000000001
 21
94.147957000000005
 31
0.0
  0
LINE
  5
616
  8
0
  6
CONTINUOUS
 62
     7
 10
-569.63385000000017
 20
85.924888999999965
 30
0.0
 11
-487.13385
 21
85.924888999999965
 31
0.0
  0
LINE
  5
617
  8
0
  6
CONTINUOUS
 62
     7
 10
-571.13385000000005
 20
87.424888999999965
 30
0.0
 11
-571.13385000000005
 21
87.424888999999965
 31
0.0
  0
LINE
  5
618
  8
0
  6
CONTINUOUS
 62
     7
 10
-487.13385
 20
92.210517999999993
 30
0.0
 11
-479.13385
 21
92.210517999999993
 31
0.0
  0
LINE
  5
619
  8
0
  6
CONTINUOUS
 62
     7
 10
-492.59332000000001
 20
71.147980000000004
 30
0.0
 11
-487.13385
 21
71.147980000000004
 31
0.0
  0
LINE
  5
61A
  8
0
  6
CONTINUOUS
 62
     7
 10
-488.63387999999981
 20
85.924942000000001
 30
0.0
 11
-493.07589999999999
 21
69.347083999999995
 31
0.0
  0
LINE
  5
61B
  8
0
  6
CONTINUOUS
 62
     7
 10
-556.13385000000005
 20
64.260032999999993
 30
0.0
 11
-556.13385000000005
 21
67.864716000000001
 31
0.0
  0
LINE
  5
61C
  8
0
  6
CONTINUOUS
 62
     7
 10
-595.13391000000001
 20
73.363112999999998
 30
0.0
 11
-593.82500999999945
 21
63.983657999999998
 31
0.0
  0
LINE
  5
61D
  8
0
  6
CONTINUOUS
 62
     7
 10
-595.13391000000001
 20
73.363151999999999
 30
0.0
 11
-593.84289999999999
 21
64.870002999999997
 31
0.0
  0
LINE
  5
61E
  8
0
  6
CONTINUOUS
 62
     7
 10
-595.13385000000017
 20
74.707709999999977
 30
0.0
 11
-593.85375999999997
 21
66.702522000000002
 31
0.0
  0
LINE
  5
61F
  8
0
  6
CONTINUOUS
 62
     7
 10
-591.84418000000005
 20
62.260039999999989
 30
0.0
 11
-558.13385000000005
 21
62.260039999999989
 31
0.0
  0
LINE
  5
620
  8
0
  6
CONTINUOUS
 62
     7
 10
-591.86547999999959
 20
63.170555000000007
 30
0.0
 11
-558.13385000000005
 21
63.170555000000007
 31
0.0
  0
LINE
  5
621
  8
0
  6
CONTINUOUS
 62
     7
 10
-591.87885000000006
 20
65.018341000000007
 30
0.0
 11
-558.13385000000005
 21
65.018341000000007
 31
0.0
  0
LINE
  5
622
  8
0
  6
CONTINUOUS
 62
     7
 10
-595.13391000000001
 20
76.052231000000006
 30
0.0
 11
-593.89264000000003
 21
69.492843999999991
 31
0.0
  0
LINE
  5
623
  8
0
  6
CONTINUOUS
 62
     7
 10
-591.92742999999984
 20
67.864716000000001
 30
0.0
 11
-495.00771999999989
 21
67.864716000000001
 31
0.0
  0
LINE
  5
624
  8
0
  6
CONTINUOUS
 62
     7
 10
-487.13385
 20
68.147980000000004
 30
0.0
 11
-479.13385
 21
68.147980000000004
 31
0.0
  0
LINE
  5
625
  8
0
  6
CONTINUOUS
 62
     7
 10
-487.13385
 20
78.147971999999982
 30
0.0
 11
-479.13385
 21
78.147971999999982
 31
0.0
  0
LINE
  5
626
  8
0
  6
CONTINUOUS
 62
     7
 10
-602.43573000000004
 20
80.956505000000007
 30
0.0
 11
-596.20592999999985
 21
80.956505000000007
 31
0.0
  0
LINE
  5
627
  8
0
  6
CONTINUOUS
 62
     7
 10
-603.13385000000017
 20
71.147980000000004
 30
0.0
 11
-595.13385000000017
 21
71.147980000000004
 31
0.0
  0
LINE
  5
628
  8
0
  6
CONTINUOUS
 62
     7
 10
-604.13385000000005
 20
74.147980000000004
 30
0.0
 11
-603.13385000000017
 21
74.147980000000004
 31
0.0
  0
LINE
  5
629
  8
0
  6
CONTINUOUS
 62
     7
 10
-607.13385000000017
 20
74.65181699999998
 30
0.0
 11
-607.13385000000017
 21
75.177582000000001
 31
0.0
  0
LINE
  5
62A
  8
0
  6
CONTINUOUS
 62
     7
 10
-607.13385000000017
 20
76.751427000000007
 30
0.0
 11
-607.13385000000017
 21
77.297446999999977
 31
0.0
  0
LINE
  5
62B
  8
0
  6
CONTINUOUS
 62
     7
 10
-607.13385000000017
 20
81.317543000000001
 30
0.0
 11
-607.13385000000017
 21
81.789635000000004
 31
0.0
  0
LINE
  5
62C
  8
0
  6
CONTINUOUS
 62
     7
 10
-607.35352
 20
77.762787000000003
 30
0.0
 11
-608.60216999999977
 21
78.424652000000023
 31
0.0
  0
LINE
  5
62D
  8
0
  6
CONTINUOUS
 62
     7
 10
-607.34722999999985
 20
75.653229000000024
 30
0.0
 11
-608.58649000000003
 21
76.282248999999979
 31
0.0
  0
LINE
  5
62E
  8
0
  6
CONTINUOUS
 62
     7
 10
-607.36803999999995
 20
82.300178999999986
 30
0.0
 11
-608.63927999999964
 21
83.044830000000005
 31
0.0
  0
LINE
  5
62F
  8
0
  6
CONTINUOUS
 62
     7
 10
-606.89458999999999
 20
75.544891000000007
 30
0.0
 11
-604.63385000000005
 21
75.544891000000007
 31
0.0
  0
LINE
  5
630
  8
0
  6
CONTINUOUS
 62
     7
 10
-606.88519000000019
 20
77.646323999999979
 30
0.0
 11
-605.13385000000005
 21
77.646323999999979
 31
0.0
  0
LINE
  5
631
  8
0
  6
CONTINUOUS
 62
     7
 10
-606.86255000000017
 20
82.163055
 30
0.0
 11
-605.13385000000005
 21
82.163055
 31
0.0
  0
LINE
  5
632
  8
0
  6
CONTINUOUS
 62
     7
 10
-606.83520999999985
 20
81.023041000000006
 30
0.0
 11
-604.13385000000005
 21
81.023041000000006
 31
0.0
  0
LINE
  5
633
  8
0
  6
CONTINUOUS
 62
     7
 10
-606.85681
 20
76.506309999999999
 30
0.0
 11
-604.13385000000005
 21
76.506309999999999
 31
0.0
  0
LINE
  5
634
  8
0
  6
CONTINUOUS
 62
     7
 10
-607.38367000000005
 20
81.186829000000003
 30
0.0
 11
-608.68224999999995
 21
82.038382999999996
 31
0.0
  0
LINE
  5
635
  8
0
  6
CONTINUOUS
 62
     7
 10
-607.37139999999977
 20
76.648887999999985
 30
0.0
 11
-608.64844000000005
 21
77.415168999999963
 31
0.0
  0
LINE
  5
636
  8
0
  6
CONTINUOUS
 62
     7
 10
-607.36608999999999
 20
74.532837000000001
 30
0.0
 11
-608.63422000000003
 21
75.26578499999998
 31
0.0
  0
LINE
  5
637
  8
0
  6
CONTINUOUS
 62
     7
 10
-606.86565999999959
 20
74.398581999999976
 30
0.0
 11
-604.63385000000005
 21
74.398581999999976
 31
0.0
  0
LINE
  5
638
  8
0
  6
CONTINUOUS
 62
     7
 10
-609.13385000000005
 20
76.131561000000005
 30
0.0
 11
-609.13385000000005
 21
119.14796
 31
0.0
  0
LINE
  5
639
  8
0
  6
CONTINUOUS
 62
     7
 10
-492.59332000000001
 20
177.14796000000001
 30
0.0
 11
-487.13385
 21
177.14796000000001
 31
0.0
  0
LINE
  5
63A
  8
0
  6
CONTINUOUS
 62
     7
 10
-488.93175999999988
 20
163.48278999999991
 30
0.0
 11
-493.07587000000001
 21
178.94884999999999
 31
0.0
  0
LINE
  5
63B
  8
0
  6
CONTINUOUS
 62
     7
 10
-556.13385000000005
 20
184.03583999999989
 30
0.0
 11
-556.13385000000005
 21
180.43123
 31
0.0
  0
LINE
  5
63C
  8
0
  6
CONTINUOUS
 62
     7
 10
-595.13391000000001
 20
174.93281999999991
 30
0.0
 11
-593.82500999999945
 21
184.31228999999999
 31
0.0
  0
LINE
  5
63D
  8
0
  6
CONTINUOUS
 62
     7
 10
-595.13385000000017
 20
174.93281999999991
 30
0.0
 11
-593.84283000000005
 21
183.42590000000001
 31
0.0
  0
LINE
  5
63E
  8
0
  6
CONTINUOUS
 62
     7
 10
-595.13385000000017
 20
173.58823000000001
 30
0.0
 11
-593.85375999999997
 21
181.5934
 31
0.0
  0
LINE
  5
63F
  8
0
  6
CONTINUOUS
 62
     7
 10
-591.84418000000005
 20
186.03583999999989
 30
0.0
 11
-558.13385000000005
 21
186.03583999999989
 31
0.0
  0
LINE
  5
640
  8
0
  6
CONTINUOUS
 62
     7
 10
-591.86547999999959
 20
185.12531999999999
 30
0.0
 11
-558.13385000000005
 21
185.12531999999999
 31
0.0
  0
LINE
  5
641
  8
0
  6
CONTINUOUS
 62
     7
 10
-591.87885000000006
 20
183.27760000000001
 30
0.0
 11
-558.13385000000005
 21
183.27760000000001
 31
0.0
  0
LINE
  5
642
  8
0
  6
CONTINUOUS
 62
     7
 10
-569.63385000000017
 20
162.37098999999981
 30
0.0
 11
-487.13385
 21
162.37098999999981
 31
0.0
  0
LINE
  5
643
  8
0
  6
CONTINUOUS
 62
     7
 10
-589.76836999999989
 20
87.496718999999999
 30
0.0
 11
-595.1337900000002
 21
76.052245999999982
 31
0.0
  0
LINE
  5
644
  8
0
  6
CONTINUOUS
 62
     7
 10
-589.76842999999985
 20
160.79918999999981
 30
0.0
 11
-595.13385000000017
 21
172.24367000000001
 31
0.0
  0
LINE
  5
645
  8
0
  6
CONTINUOUS
 62
     7
 10
-595.13391000000001
 20
172.24368000000001
 30
0.0
 11
-593.89264000000003
 21
178.80311999999981
 31
0.0
  0
LINE
  5
646
  8
0
  6
CONTINUOUS
 62
     7
 10
-591.92742999999984
 20
180.43123
 30
0.0
 11
-495.00771999999989
 21
180.43123
 31
0.0
  0
LINE
  5
647
  8
0
  6
CONTINUOUS
 62
     7
 10
-571.13385000000005
 20
87.424888999999965
 30
0.0
 11
-571.13385000000005
 21
85.924888999999965
 31
0.0
  0
LINE
  5
648
  8
0
  6
CONTINUOUS
 62
     7
 10
-571.13385000000005
 20
160.87098999999981
 30
0.0
 11
-571.13385000000005
 21
160.87098999999981
 31
0.0
  0
LINE
  5
649
  8
0
  6
CONTINUOUS
 62
     7
 10
-487.13385
 20
180.14796000000001
 30
0.0
 11
-479.13385
 21
180.14796000000001
 31
0.0
  0
LINE
  5
64A
  8
0
  6
CONTINUOUS
 62
     7
 10
-487.13385
 20
156.08538999999979
 30
0.0
 11
-479.13385
 21
156.08538999999979
 31
0.0
  0
LINE
  5
64B
  8
0
  6
CONTINUOUS
 62
     7
 10
-487.13385
 20
170.14796000000001
 30
0.0
 11
-479.13385
 21
170.14796000000001
 31
0.0
  0
LINE
  5
64C
  8
0
  6
CONTINUOUS
 62
     7
 10
-602.43573000000004
 20
167.33937
 30
0.0
 11
-596.20592999999985
 21
167.33937
 31
0.0
  0
LINE
  5
64D
  8
0
  6
CONTINUOUS
 62
     7
 10
-603.13385000000017
 20
177.14796000000001
 30
0.0
 11
-595.13385000000017
 21
177.14796000000001
 31
0.0
  0
LINE
  5
64E
  8
0
  6
CONTINUOUS
 62
     7
 10
-603.13385000000017
 20
177.14796000000001
 30
0.0
 11
-603.13385000000017
 21
71.147980000000004
 31
0.0
  0
LINE
  5
64F
  8
0
  6
CONTINUOUS
 62
     7
 10
-604.13385000000005
 20
174.14796000000001
 30
0.0
 11
-603.13385000000017
 21
174.14796000000001
 31
0.0
  0
LINE
  5
650
  8
0
  6
CONTINUOUS
 62
     7
 10
-604.13385000000005
 20
174.14796000000001
 30
0.0
 11
-604.13385000000005
 21
73.024742000000003
 31
0.0
  0
LINE
  5
651
  8
0
  6
CONTINUOUS
 62
     7
 10
-608.63927999999964
 20
83.044875999999988
 30
0.0
 11
-608.66296
 21
83.058723000000001
 31
0.0
  0
LINE
  5
652
  8
0
  6
CONTINUOUS
 62
     7
 10
-595.13385000000017
 20
177.14796000000001
 30
0.0
 11
-595.13385000000017
 21
74.707732999999976
 31
0.0
  0
LINE
  5
653
  8
0
  6
CONTINUOUS
 62
     7
 10
-538.13385000000005
 20
87.424888999999965
 30
0.0
 11
-490.31180000000001
 21
87.424888999999965
 31
0.0
  0
LINE
  5
654
  8
0
  6
CONTINUOUS
 62
     7
 10
-593.45592999999997
 20
90.780715999999984
 30
0.0
 11
-581.13434000000007
 21
90.780715999999984
 31
0.0
  0
LINE
  5
655
  8
0
  6
CONTINUOUS
 62
     7
 10
-538.13385000000005
 20
88.147971999999996
 30
0.0
 11
-592.76842999999997
 21
88.147971999999996
 31
0.0
  0
LINE
  5
656
  8
0
  6
CONTINUOUS
 62
     7
 10
-538.13385000000005
 20
90.147971999999996
 30
0.0
 11
-592.76842999999997
 21
90.147971999999996
 31
0.0
  0
LINE
  5
657
  8
0
  6
CONTINUOUS
 62
     7
 10
-610.63385000000005
 20
106.86591
 30
0.0
 11
-609.13385000000005
 21
106.86591
 31
0.0
  0
LINE
  5
658
  8
0
  6
CONTINUOUS
 62
     7
 10
-610.63385000000005
 20
108.99795
 30
0.0
 11
-607.34014999999999
 21
108.99795
 31
0.0
  0
LINE
  5
659
  8
0
  6
CONTINUOUS
 62
     7
 10
-607.13385000000017
 20
118.53467999999999
 30
0.0
 11
-607.13385000000017
 21
119.69556
 31
0.0
  0
LINE
  5
65A
  8
0
  6
CONTINUOUS
 62
     7
 10
-610.63378999999975
 20
104.14798999999979
 30
0.0
 11
-609.13385000000005
 21
104.01676999999999
 31
0.0
  0
LINE
  5
65B
  8
0
  6
CONTINUOUS
 62
     7
 10
-610.63385000000005
 20
104.1479599999999
 30
0.0
 11
-610.63385000000005
 21
124.14796
 31
0.0
  0
LINE
  5
65C
  8
0
  6
CONTINUOUS
 62
     7
 10
-607.13385000000017
 20
88.755104000000017
 30
0.0
 11
-607.13385000000017
 21
89.815018000000009
 31
0.0
  0
LINE
  5
65D
  8
0
  6
CONTINUOUS
 62
     7
 10
-607.13385000000017
 20
98.521750999999995
 30
0.0
 11
-607.13385000000017
 21
99.884605000000022
 31
0.0
  0
LINE
  5
65E
  8
0
  6
CONTINUOUS
 62
     7
 10
-607.13385000000017
 20
108.54084999999991
 30
0.0
 11
-607.13385000000017
 21
109.7522
 31
0.0
  0
LINE
  5
65F
  8
0
  6
CONTINUOUS
 62
     7
 10
-605.13385000000005
 20
120.1479699999999
 30
0.0
 11
-608.13385000000005
 21
120.1479699999999
 31
0.0
  0
LINE
  5
660
  8
0
  6
CONTINUOUS
 62
     7
 10
-605.13385000000005
 20
118.14796
 30
0.0
 11
-608.13385000000005
 21
118.14796
 31
0.0
  0
LINE
  5
661
  8
0
  6
CONTINUOUS
 62
     7
 10
-605.13385000000005
 20
110.14796
 30
0.0
 11
-608.13385000000005
 21
110.14796
 31
0.0
  0
LINE
  5
662
  8
0
  6
CONTINUOUS
 62
     7
 10
-605.13385000000005
 20
108.14797
 30
0.0
 11
-608.13385000000005
 21
108.14797
 31
0.0
  0
LINE
  5
663
  8
0
  6
CONTINUOUS
 62
     7
 10
-605.13385000000005
 20
100.1479599999999
 30
0.0
 11
-608.13385000000005
 21
100.1479599999999
 31
0.0
  0
LINE
  5
664
  8
0
  6
CONTINUOUS
 62
     7
 10
-605.13385000000005
 20
98.147964000000002
 30
0.0
 11
-608.13385000000005
 21
98.147964000000002
 31
0.0
  0
LINE
  5
665
  8
0
  6
CONTINUOUS
 62
     7
 10
-607.27752999999996
 20
90.449036000000007
 30
0.0
 11
-608.42786000000001
 21
90.802879000000004
 31
0.0
  0
LINE
  5
666
  8
0
  6
CONTINUOUS
 62
     7
 10
-606.98351999999988
 20
90.404799999999994
 30
0.0
 11
-605.13385000000005
 21
90.404799999999994
 31
0.0
  0
LINE
  5
667
  8
0
  6
CONTINUOUS
 62
     7
 10
-607.32201999999995
 20
88.539069999999967
 30
0.0
 11
-608.52661000000001
 21
89.053550999999985
 31
0.0
  0
LINE
  5
668
  8
0
  6
CONTINUOUS
 62
     7
 10
-606.92920000000004
 20
88.458702000000002
 30
0.0
 11
-604.83385999999996
 21
88.458702000000002
 31
0.0
  0
LINE
  5
669
  8
0
  6
CONTINUOUS
 62
     7
 10
-490.31180000000001
 20
90.780715999999984
 30
0.0
 11
-506.83385999999967
 21
90.780715999999984
 31
0.0
  0
LINE
  5
66A
  8
0
  6
CONTINUOUS
 62
     7
 10
-507.83389
 20
91.780724000000006
 30
0.0
 11
-507.83389
 21
92.648208999999994
 31
0.0
  0
LINE
  5
66B
  8
0
  6
CONTINUOUS
 62
     7
 10
-506.63384999999988
 20
93.882323999999997
 30
0.0
 11
-497.36385999999999
 21
94.147942000000015
 31
0.0
  0
LINE
  5
66C
  8
0
  6
CONTINUOUS
 62
     7
 10
-593.45592999999997
 20
87.424888999999965
 30
0.0
 11
-538.13385000000005
 21
87.424888999999965
 31
0.0
  0
LINE
  5
66D
  8
0
  6
CONTINUOUS
 62
     7
 10
-493.78951999999981
 20
88.147971999999996
 30
0.0
 11
-538.13385000000005
 21
88.147971999999996
 31
0.0
  0
LINE
  5
66E
  8
0
  6
CONTINUOUS
 62
     7
 10
-493.78951999999981
 20
90.147971999999996
 30
0.0
 11
-538.13385000000005
 21
90.147971999999996
 31
0.0
  0
LINE
  5
66F
  8
0
  6
CONTINUOUS
 62
     7
 10
-593.67229999999995
 20
97.661750999999995
 30
0.0
 11
-586.63433999999995
 21
97.661750999999995
 31
0.0
  0
LINE
  5
670
  8
0
  6
CONTINUOUS
 62
     7
 10
-586.63433999999995
 20
98.147964000000002
 30
0.0
 11
-592.76842999999997
 21
98.147964000000002
 31
0.0
  0
LINE
  5
671
  8
0
  6
CONTINUOUS
 62
     7
 10
-593.67229999999995
 20
100.58472999999989
 30
0.0
 11
-586.63433999999995
 21
100.58472999999989
 31
0.0
  0
LINE
  5
672
  8
0
  6
CONTINUOUS
 62
     7
 10
-586.63433999999995
 20
100.1479599999999
 30
0.0
 11
-592.76842999999997
 21
100.1479599999999
 31
0.0
  0
LINE
  5
673
  8
0
  6
CONTINUOUS
 62
     7
 10
-593.80291999999986
 20
107.8044699999999
 30
0.0
 11
-586.63433999999995
 21
107.8044699999999
 31
0.0
  0
LINE
  5
674
  8
0
  6
CONTINUOUS
 62
     7
 10
-586.63433999999995
 20
108.14797
 30
0.0
 11
-592.76842999999997
 21
108.14797
 31
0.0
  0
LINE
  5
675
  8
0
  6
CONTINUOUS
 62
     7
 10
-586.63433999999995
 20
110.14796
 30
0.0
 11
-592.76842999999997
 21
110.14796
 31
0.0
  0
LINE
  5
676
  8
0
  6
CONTINUOUS
 62
     7
 10
-593.80291999999986
 20
110.46632
 30
0.0
 11
-586.63433999999995
 21
110.46632
 31
0.0
  0
LINE
  5
677
  8
0
  6
CONTINUOUS
 62
     7
 10
-593.86492999999984
 20
117.87513
 30
0.0
 11
-588.63433999999995
 21
117.87513
 31
0.0
  0
LINE
  5
678
  8
0
  6
CONTINUOUS
 62
     7
 10
-588.63433999999995
 20
118.14796
 30
0.0
 11
-592.76842999999997
 21
118.14796
 31
0.0
  0
LINE
  5
679
  8
0
  6
CONTINUOUS
 62
     7
 10
-588.63433999999995
 20
120.1479699999999
 30
0.0
 11
-592.76842999999997
 21
120.1479699999999
 31
0.0
  0
LINE
  5
67A
  8
0
  6
CONTINUOUS
 62
     7
 10
-593.86492999999984
 20
120.4129699999999
 30
0.0
 11
-588.63433999999995
 21
120.4129699999999
 31
0.0
  0
LINE
  5
67B
  8
0
  6
CONTINUOUS
 62
     7
 10
-507.83389
 20
156.5151399999998
 30
0.0
 11
-507.83389
 21
155.64771999999991
 31
0.0
  0
LINE
  5
67C
  8
0
  6
CONTINUOUS
 62
     7
 10
-490.31180000000001
 20
157.51515000000001
 30
0.0
 11
-506.83385999999967
 21
157.51515000000001
 31
0.0
  0
LINE
  5
67D
  8
0
  6
CONTINUOUS
 62
     7
 10
-593.86492999999984
 20
127.88289999999991
 30
0.0
 11
-588.63433999999995
 21
127.88289999999991
 31
0.0
  0
LINE
  5
67E
  8
0
  6
CONTINUOUS
 62
     7
 10
-593.86492999999984
 20
130.42074999999991
 30
0.0
 11
-588.63433999999995
 21
130.42074999999991
 31
0.0
  0
LINE
  5
67F
  8
0
  6
CONTINUOUS
 62
     7
 10
-593.80291999999986
 20
137.82961
 30
0.0
 11
-586.63433999999995
 21
137.82961
 31
0.0
  0
LINE
  5
680
  8
0
  6
CONTINUOUS
 62
     7
 10
-593.80291999999986
 20
140.49146999999991
 30
0.0
 11
-586.63433999999995
 21
140.49146999999991
 31
0.0
  0
LINE
  5
681
  8
0
  6
CONTINUOUS
 62
     7
 10
-593.67235999999957
 20
147.71114
 30
0.0
 11
-586.63433999999995
 21
147.71114
 31
0.0
  0
LINE
  5
682
  8
0
  6
CONTINUOUS
 62
     7
 10
-593.67235999999957
 20
150.63410999999999
 30
0.0
 11
-586.63433999999995
 21
150.63410999999999
 31
0.0
  0
LINE
  5
683
  8
0
  6
CONTINUOUS
 62
     7
 10
-593.45654000000002
 20
157.51515000000001
 30
0.0
 11
-581.13434000000007
 21
157.51515000000001
 31
0.0
  0
LINE
  5
684
  8
0
  6
CONTINUOUS
 62
     7
 10
-593.45654000000002
 20
160.87098999999981
 30
0.0
 11
-490.31180000000001
 21
160.87098999999981
 31
0.0
  0
LINE
  5
685
  8
0
  6
CONTINUOUS
 62
     7
 10
-588.63433999999995
 20
128.14796000000001
 30
0.0
 11
-592.76842999999997
 21
128.14796000000001
 31
0.0
  0
LINE
  5
686
  8
0
  6
CONTINUOUS
 62
     7
 10
-588.63433999999995
 20
130.14796000000001
 30
0.0
 11
-592.76842999999997
 21
130.14796000000001
 31
0.0
  0
LINE
  5
687
  8
0
  6
CONTINUOUS
 62
     7
 10
-586.63433999999995
 20
138.1479799999999
 30
0.0
 11
-592.76842999999997
 21
138.1479799999999
 31
0.0
  0
LINE
  5
688
  8
0
  6
CONTINUOUS
 62
     7
 10
-586.63433999999995
 20
140.14796000000001
 30
0.0
 11
-592.76842999999997
 21
140.14796000000001
 31
0.0
  0
LINE
  5
689
  8
0
  6
CONTINUOUS
 62
     7
 10
-586.63433999999995
 20
148.14795000000001
 30
0.0
 11
-592.76842999999997
 21
148.14795000000001
 31
0.0
  0
LINE
  5
68A
  8
0
  6
CONTINUOUS
 62
     7
 10
-586.63433999999995
 20
150.14796000000001
 30
0.0
 11
-592.76842999999997
 21
150.14796000000001
 31
0.0
  0
LINE
  5
68B
  8
0
  6
CONTINUOUS
 62
     7
 10
-493.78951999999981
 20
158.14796000000001
 30
0.0
 11
-592.76842999999997
 21
158.14796000000001
 31
0.0
  0
LINE
  5
68C
  8
0
  6
CONTINUOUS
 62
     7
 10
-493.78951999999981
 20
160.14795000000001
 30
0.0
 11
-592.76842999999997
 21
160.14795000000001
 31
0.0
  0
LINE
  5
68D
  8
0
  6
CONTINUOUS
 62
     7
 10
-610.63385000000005
 20
141.42995999999991
 30
0.0
 11
-609.13385000000005
 21
141.42995999999991
 31
0.0
  0
LINE
  5
68E
  8
0
  6
CONTINUOUS
 62
     7
 10
-610.63385000000005
 20
139.29799
 30
0.0
 11
-605.95636000000002
 21
139.29799
 31
0.0
  0
LINE
  5
68F
  8
0
  6
CONTINUOUS
 62
     7
 10
-610.63391000000001
 20
144.1479799999999
 30
0.0
 11
-609.1339099999999
 21
144.27921000000001
 31
0.0
  0
LINE
  5
690
  8
0
  6
CONTINUOUS
 62
     7
 10
-610.63385000000005
 20
144.1479799999999
 30
0.0
 11
-610.63385000000005
 21
124.14796
 31
0.0
  0
LINE
  5
691
  8
0
  6
CONTINUOUS
 62
     7
 10
-607.13385000000017
 20
173.64410000000001
 30
0.0
 11
-607.13385000000017
 21
173.11836
 31
0.0
  0
LINE
  5
692
  8
0
  6
CONTINUOUS
 62
     7
 10
-607.13385000000017
 20
171.54451
 30
0.0
 11
-607.13385000000017
 21
170.99840999999981
 31
0.0
  0
LINE
  5
693
  8
0
  6
CONTINUOUS
 62
     7
 10
-607.13385000000017
 20
166.97841
 30
0.0
 11
-607.13385000000017
 21
166.50623999999999
 31
0.0
  0
LINE
  5
694
  8
0
  6
CONTINUOUS
 62
     7
 10
-607.13385000000017
 20
159.54085000000001
 30
0.0
 11
-607.13385000000017
 21
158.48090999999999
 31
0.0
  0
LINE
  5
695
  8
0
  6
CONTINUOUS
 62
     7
 10
-607.13385000000017
 20
149.77411000000001
 30
0.0
 11
-607.13385000000017
 21
148.41132999999991
 31
0.0
  0
LINE
  5
696
  8
0
  6
CONTINUOUS
 62
     7
 10
-607.13385000000017
 20
129.7611999999998
 30
0.0
 11
-607.13385000000017
 21
128.60031000000001
 31
0.0
  0
LINE
  5
697
  8
0
  6
CONTINUOUS
 62
     7
 10
-607.13385000000017
 20
139.75509999999991
 30
0.0
 11
-607.13385000000017
 21
138.54366999999991
 31
0.0
  0
LINE
  5
698
  8
0
  6
CONTINUOUS
 62
     7
 10
-605.13385000000005
 20
128.14796000000001
 30
0.0
 11
-608.13385000000005
 21
128.14796000000001
 31
0.0
  0
LINE
  5
699
  8
0
  6
CONTINUOUS
 62
     7
 10
-605.13385000000005
 20
130.14796000000001
 30
0.0
 11
-608.13385000000005
 21
130.14796000000001
 31
0.0
  0
LINE
  5
69A
  8
0
  6
CONTINUOUS
 62
     7
 10
-605.13385000000005
 20
138.1479799999999
 30
0.0
 11
-608.13385000000005
 21
138.1479799999999
 31
0.0
  0
LINE
  5
69B
  8
0
  6
CONTINUOUS
 62
     7
 10
-605.13385000000005
 20
140.14796000000001
 30
0.0
 11
-608.13385000000005
 21
140.14796000000001
 31
0.0
  0
LINE
  5
69C
  8
0
  6
CONTINUOUS
 62
     7
 10
-605.13385000000005
 20
148.14795000000001
 30
0.0
 11
-608.13385000000005
 21
148.14795000000001
 31
0.0
  0
LINE
  5
69D
  8
0
  6
CONTINUOUS
 62
     7
 10
-605.13385000000005
 20
150.14796000000001
 30
0.0
 11
-608.13385000000005
 21
150.14796000000001
 31
0.0
  0
LINE
  5
69E
  8
0
  6
CONTINUOUS
 62
     7
 10
-607.35352
 20
170.53314
 30
0.0
 11
-608.60222999999985
 21
169.87126000000001
 31
0.0
  0
LINE
  5
69F
  8
0
  6
CONTINUOUS
 62
     7
 10
-607.34722999999985
 20
172.6427799999999
 30
0.0
 11
-608.58654999999965
 21
172.01375999999991
 31
0.0
  0
LINE
  5
6A0
  8
0
  6
CONTINUOUS
 62
     7
 10
-607.27759000000003
 20
157.84688
 30
0.0
 11
-608.42786000000001
 21
157.49303999999981
 31
0.0
  0
LINE
  5
6A1
  8
0
  6
CONTINUOUS
 62
     7
 10
-607.36803999999995
 20
165.99575999999999
 30
0.0
 11
-608.63927999999964
 21
165.25111000000001
 31
0.0
  0
LINE
  5
6A2
  8
0
  6
CONTINUOUS
 62
     7
 10
-606.89458999999999
 20
172.75104999999991
 30
0.0
 11
-604.63385000000005
 21
172.75104999999991
 31
0.0
  0
LINE
  5
6A3
  8
0
  6
CONTINUOUS
 62
     7
 10
-606.88519000000019
 20
170.64959999999999
 30
0.0
 11
-605.13385000000005
 21
170.64959999999999
 31
0.0
  0
LINE
  5
6A4
  8
0
  6
CONTINUOUS
 62
     7
 10
-606.86255000000017
 20
166.1328899999998
 30
0.0
 11
-605.13385000000005
 21
166.1328899999998
 31
0.0
  0
LINE
  5
6A5
  8
0
  6
CONTINUOUS
 62
     7
 10
-606.98351999999988
 20
157.8910699999999
 30
0.0
 11
-605.13385000000005
 21
157.8910699999999
 31
0.0
  0
LINE
  5
6A6
  8
0
  6
CONTINUOUS
 62
     7
 10
-606.83520999999985
 20
167.27284
 30
0.0
 11
-604.13385000000005
 21
167.27284
 31
0.0
  0
LINE
  5
6A7
  8
0
  6
CONTINUOUS
 62
     7
 10
-606.85681
 20
171.78956999999991
 30
0.0
 11
-604.13385000000005
 21
171.78956999999991
 31
0.0
  0
LINE
  5
6A8
  8
0
  6
CONTINUOUS
 62
     7
 10
-607.32201999999995
 20
159.75691
 30
0.0
 11
-608.52661000000001
 21
159.24244999999991
 31
0.0
  0
LINE
  5
6A9
  8
0
  6
CONTINUOUS
 62
     7
 10
-607.38360999999998
 20
167.10912999999999
 30
0.0
 11
-608.68224999999995
 21
166.2575799999999
 31
0.0
  0
LINE
  5
6AA
  8
0
  6
CONTINUOUS
 62
     7
 10
-607.37145999999996
 20
171.64710999999991
 30
0.0
 11
-608.64844000000005
 21
170.88080999999991
 31
0.0
  0
LINE
  5
6AB
  8
0
  6
CONTINUOUS
 62
     7
 10
-607.36603000000002
 20
173.7630799999998
 30
0.0
 11
-608.63422000000003
 21
173.0301199999999
 31
0.0
  0
LINE
  5
6AC
  8
0
  6
CONTINUOUS
 62
     7
 10
-606.92920000000004
 20
159.8371699999999
 30
0.0
 11
-604.83385999999996
 21
159.8371699999999
 31
0.0
  0
LINE
  5
6AD
  8
0
  6
CONTINUOUS
 62
     7
 10
-606.86565999999959
 20
173.8973399999999
 30
0.0
 11
-604.63385000000005
 21
173.8973399999999
 31
0.0
  0
LINE
  5
6AE
  8
0
  6
CONTINUOUS
 62
     7
 10
-609.13385000000005
 20
172.16432
 30
0.0
 11
-609.13385000000005
 21
129.1479799999999
 31
0.0
  0
LINE
  5
6AF
  8
0
  6
CONTINUOUS
 62
     7
 10
-497.36383000000001
 20
154.14795000000001
 30
0.0
 11
-497.36383000000001
 21
94.147957000000005
 31
0.0
  0
LINE
  5
6B0
  8
0
  6
CONTINUOUS
 62
     7
 10
-487.13385
 20
180.14796000000001
 30
0.0
 11
-487.13385
 21
68.147980000000004
 31
0.0
  0
LINE
  5
6B1
  8
0
  6
CONTINUOUS
 62
     3
 10
-566.13385000000017
 20
90.648216000000005
 30
0.0
 11
-581.13434000000007
 21
90.648216000000005
 31
0.0
  0
LINE
  5
6B2
  8
0
  6
CONTINUOUS
 62
     3
 10
-588.63433999999995
 20
116.64773
 30
0.0
 11
-585.13434000000007
 21
116.64773
 31
0.0
  0
LINE
  5
6B3
  8
0
  6
CONTINUOUS
 62
     3
 10
-566.13385000000017
 20
155.64771999999991
 30
0.0
 11
-506.63384999999988
 21
155.64771999999991
 31
0.0
  0
LINE
  5
6B4
  8
0
  6
CONTINUOUS
 62
     3
 10
-566.13385000000017
 20
92.648208999999994
 30
0.0
 11
-506.63384999999988
 21
92.648208999999994
 31
0.0
  0
LINE
  5
6B5
  8
0
  6
CONTINUOUS
 62
     3
 10
-566.13385000000017
 20
90.648216000000005
 30
0.0
 11
-566.13385000000017
 21
94.148208999999994
 31
0.0
  0
LINE
  5
6B6
  8
0
  6
CENTER
 62
     7
 10
-538.13385000000005
 20
162.7418199999999
 30
0.0
 11
-538.13385000000005
 21
81.495269999999977
 31
0.0
  0
LINE
  5
6B7
  8
0
  6
CONTINUOUS
 62
     3
 10
-581.13434000000007
 20
90.648216000000005
 30
0.0
 11
-581.13434000000007
 21
94.148208999999994
 31
0.0
  0
LINE
  5
6B8
  8
0
  6
CONTINUOUS
 62
     7
 10
-149.28093999999979
 20
164.34796
 30
0.0
 11
-141.28095999999991
 21
164.34796
 31
0.0
  0
LINE
  5
6B9
  8
0
  6
CONTINUOUS
 62
     7
 10
-149.28093999999979
 20
157.34794999999991
 30
0.0
 11
-141.28095999999991
 21
157.34794999999991
 31
0.0
  0
LINE
  5
6BA
  8
0
  6
CONTINUOUS
 62
     7
 10
-141.28095999999991
 20
157.34794999999991
 30
0.0
 11
-141.28095999999991
 21
164.34796
 31
0.0
  0
LINE
  5
6BB
  8
0
  6
CONTINUOUS
 62
     7
 10
-149.28093999999979
 20
157.34794999999991
 30
0.0
 11
-149.28093999999979
 21
164.34796
 31
0.0
  0
LINE
  5
6BC
  8
0
  6
CONTINUOUS
 62
     7
 10
-410.63387999999992
 20
72.063186999999999
 30
0.0
 11
-410.63387999999992
 21
84.383185999999981
 31
0.0
  0
LINE
  5
6BD
  8
0
  6
CONTINUOUS
 62
     7
 10
-410.63387999999992
 20
85.543503000000015
 30
0.0
 11
-370.63387999999992
 21
85.543503000000015
 31
0.0
  0
LINE
  5
6BE
  8
0
  6
CONTINUOUS
 62
     7
 10
-410.63387999999992
 20
70.880195999999984
 30
0.0
 11
-370.63387999999992
 21
70.880195999999984
 31
0.0
  0
LINE
  5
6BF
  8
0
  6
CONTINUOUS
 62
     7
 10
-145.2809399999999
 20
54.847965000000002
 30
0.0
 11
-115.28095999999979
 21
54.847965000000002
 31
0.0
  0
LINE
  5
6C0
  8
0
  6
CONTINUOUS
 62
     7
 10
-145.2809399999999
 20
54.847965000000002
 30
0.0
 11
-175.2809399999999
 21
54.847965000000002
 31
0.0
  0
LINE
  5
6C1
  8
0
  6
CONTINUOUS
 62
     7
 10
-237.7809399999999
 20
177.34798000000001
 30
0.0
 11
-235.37542999999991
 21
223.24805000000001
 31
0.0
  0
LINE
  5
6C2
  8
0
  6
CONTINUOUS
 62
     7
 10
-237.7809399999999
 20
147.34795
 30
0.0
 11
-237.7809399999999
 21
177.34795
 31
0.0
  0
LINE
  5
6C3
  8
0
  6
CONTINUOUS
 62
     7
 10
-372.05910999999998
 20
165.82227
 30
0.0
 11
-376.39557000000002
 21
142.6914699999999
 31
0.0
  0
LINE
  5
6C4
  8
0
  6
CONTINUOUS
 62
     7
 10
-115.28095
 20
239.84798000000001
 30
0.0
 11
-69.380875000000003
 21
237.44246000000001
 31
0.0
  0
LINE
  5
6C5
  8
0
  6
CONTINUOUS
 62
     7
 10
-145.2809399999999
 20
239.84795
 30
0.0
 11
-115.28095999999979
 21
239.84795
 31
0.0
  0
LINE
  5
6C6
  8
0
  6
CONTINUOUS
 62
     7
 10
-175.2809399999999
 20
54.847960999999998
 30
0.0
 11
-221.18102999999991
 21
57.253483000000003
 31
0.0
  0
LINE
  5
6C7
  8
0
  6
CONTINUOUS
 62
     7
 10
-142.7809399999999
 20
207.96771000000001
 30
0.0
 11
-142.7809399999999
 21
218.53579999999991
 31
0.0
  0
LINE
  5
6C8
  8
0
  6
CONTINUOUS
 62
     7
 10
-52.78096399999999
 20
147.34795
 30
0.0
 11
-52.78096399999999
 21
117.34795
 31
0.0
  0
LINE
  5
6C9
  8
0
  6
CONTINUOUS
 62
     7
 10
-52.780956000000003
 20
117.3479699999999
 30
0.0
 11
-55.186478000000001
 21
71.447884000000002
 31
0.0
  0
LINE
  5
6CA
  8
0
  6
CONTINUOUS
 62
     7
 10
-52.780951999999999
 20
177.3479599999998
 30
0.0
 11
-55.186473999999983
 21
223.2480299999998
 31
0.0
  0
LINE
  5
6CB
  8
0
  6
CONTINUOUS
 62
     7
 10
-52.78096399999999
 20
147.34795
 30
0.0
 11
-52.78096399999999
 21
177.34795
 31
0.0
  0
LINE
  5
6CC
  8
0
  6
CONTINUOUS
 62
     7
 10
-237.7809799999998
 20
117.34795
 30
0.0
 11
-235.37546
 21
71.447884000000002
 31
0.0
  0
LINE
  5
6CD
  8
0
  6
CONTINUOUS
 62
     7
 10
-379.70373999999993
 20
188.7190699999999
 30
0.0
 11
-379.70373999999993
 21
188.7190699999999
 31
0.0
  0
LINE
  5
6CE
  8
0
  6
CONTINUOUS
 62
     7
 10
-399.05651999999992
 20
206.42525000000001
 30
0.0
 11
-379.7038
 21
188.71909999999991
 31
0.0
  0
LINE
  5
6CF
  8
0
  6
CONTINUOUS
 62
     7
 10
-368.70364000000001
 20
239.56614999999999
 30
0.0
 11
-360.63385
 21
239.84795
 31
0.0
  0
LINE
  5
6D0
  8
0
  6
CONTINUOUS
 62
     7
 10
-392.87993999999992
 20
41.654952999999992
 30
0.0
 11
-370.63385
 21
54.498733999999999
 31
0.0
  0
LINE
  5
6D1
  8
0
  6
CONTINUOUS
 62
     7
 10
-370.63387999999992
 20
123.4376
 30
0.0
 11
-370.63387999999992
 21
198.4731899999999
 31
0.0
  0
LINE
  5
6D2
  8
0
  6
CONTINUOUS
 62
     7
 10
-435.63384999999988
 20
205.1479599999999
 30
0.0
 11
-400.23752000000002
 21
206.3840299999998
 31
0.0
  0
LINE
  5
6D3
  8
0
  6
CONTINUOUS
 62
     7
 10
-435.63387999999992
 20
43.147976
 30
0.0
 11
-392.87997000000001
 21
41.654975999999998
 31
0.0
  0
LINE
  5
6D4
  8
0
  6
CENTER
 62
     7
 10
-372.99664000000001
 20
71.333977000000004
 30
0.0
 11
-354.39352000000002
 21
71.333977000000004
 31
0.0
  0
LINE
  5
6D5
  8
0
  6
CONTINUOUS
 62
     7
 10
-172.5535099999999
 20
178.86315999999991
 30
0.0
 11
-197.44130000000001
 21
203.75094999999999
 31
0.0
  0
LINE
  5
6D6
  8
0
  6
CONTINUOUS
 62
     7
 10
-176.7961599999999
 20
174.62051
 30
0.0
 11
-201.68393999999981
 21
199.50829999999991
 31
0.0
  0
LINE
  5
6D7
  8
0
  6
CONTINUOUS
 62
     7
 10
-435.63384999999988
 20
170.39796000000001
 30
0.0
 11
-373.68853999999988
 21
170.39796000000001
 31
0.0
  0
LINE
  5
6D8
  8
0
  6
CONTINUOUS
 62
     7
 10
-370.63387999999992
 20
57.605339000000001
 30
0.0
 11
-370.63387999999992
 21
92.977317999999997
 31
0.0
  0
LINE
  5
6D9
  8
0
  6
CONTINUOUS
 62
     7
 10
-398.22095000000002
 20
207.26088999999999
 30
0.0
 11
-370.63387999999992
 21
234.84796
 31
0.0
  0
LINE
  5
6DA
  8
0
  6
CONTINUOUS
 62
     7
 10
-220.14590000000001
 20
119.14796
 30
0.0
 11
-189.28095999999991
 21
119.14796
 31
0.0
  0
LINE
  5
6DB
  8
0
  6
CONTINUOUS
 62
     7
 10
-70.416022999999996
 20
119.14796
 30
0.0
 11
-101.28095
 21
119.14796
 31
0.0
  0
LINE
  5
6DC
  8
0
  6
CONTINUOUS
 62
     7
 10
-369.00484999999992
 20
121.43761000000001
 30
0.0
 11
-366.63385
 21
121.43761000000001
 31
0.0
  0
LINE
  5
6DD
  8
0
  6
CONTINUOUS
 62
     7
 10
-115.2809699999999
 20
54.847957999999998
 30
0.0
 11
-69.380882
 21
57.253478999999999
 31
0.0
  0
LINE
  5
6DE
  8
0
  6
CENTER
 62
     7
 10
-76.947020999999964
 20
215.68191999999999
 30
0.0
 11
-61.805424000000002
 21
230.82352
 31
0.0
  0
LINE
  5
6DF
  8
0
  6
CENTER
 62
     7
 10
-213.47266999999991
 20
215.53967
 30
0.0
 11
-228.87267
 21
230.93967000000001
 31
0.0
  0
LINE
  5
6E0
  8
0
  6
CONTINUOUS
 62
     7
 10
-237.7809399999999
 20
147.34795
 30
0.0
 11
-237.7809399999999
 21
117.34795
 31
0.0
  0
LINE
  5
6E1
  8
0
  6
CENTER
 62
     7
 10
-213.7177299999999
 20
78.911216999999979
 30
0.0
 11
-228.64265
 21
63.98628999999999
 31
0.0
  0
LINE
  5
6E2
  8
0
  6
CONTINUOUS
 62
     7
 10
-360.63385
 20
54.847954000000001
 30
0.0
 11
-360.63385
 21
147.34795
 31
0.0
  0
LINE
  5
6E3
  8
0
  6
CONTINUOUS
 62
     7
 10
-370.63385
 20
54.498736999999998
 30
0.0
 11
-360.63382000000001
 21
54.847949999999997
 31
0.0
  0
LINE
  5
6E4
  8
0
  6
CENTER
 62
     7
 10
-180.28399999999991
 20
124.14796
 30
0.0
 11
-110.63401999999979
 21
124.14796
 31
0.0
  0
LINE
  5
6E5
  8
0
  6
CONTINUOUS
 62
     7
 10
-147.7809399999999
 20
207.96771000000001
 30
0.0
 11
-147.7809399999999
 21
218.53579999999991
 31
0.0
  0
LINE
  5
6E6
  8
0
  6
CONTINUOUS
 62
     7
 10
-113.76576
 20
174.62053999999981
 30
0.0
 11
-88.877975000000006
 21
199.50832
 31
0.0
  0
LINE
  5
6E7
  8
0
  6
CONTINUOUS
 62
     7
 10
-175.2809399999999
 20
239.84795999999989
 30
0.0
 11
-221.18104999999991
 21
237.4424299999998
 31
0.0
  0
LINE
  5
6E8
  8
0
  6
CONTINUOUS
 62
     7
 10
-184.28095999999999
 20
147.34795
 30
0.0
 11
-184.28095999999999
 21
124.14796
 31
0.0
  0
LINE
  5
6E9
  8
0
  6
CONTINUOUS
 62
     7
 10
-360.63385
 20
232.34794999999991
 30
0.0
 11
-356.63387999999998
 21
232.34794999999991
 31
0.0
  0
LINE
  5
6EA
  8
0
  6
CONTINUOUS
 62
     7
 10
-106.2809399999999
 20
147.34795
 30
0.0
 11
-106.2809399999999
 21
124.14796
 31
0.0
  0
LINE
  5
6EB
  8
0
  6
CENTER
 62
     7
 10
-372.53699
 20
223.36190999999991
 30
0.0
 11
-354.64623999999992
 21
223.36190999999991
 31
0.0
  0
LINE
  5
6EC
  8
0
  6
CONTINUOUS
 62
     7
 10
-118.0083999999999
 20
178.86317
 30
0.0
 11
-93.120613000000006
 21
203.75095999999991
 31
0.0
  0
LINE
  5
6ED
  8
0
  6
CENTER
 62
     7
 10
-76.967468000000025
 20
79.034469999999985
 30
0.0
 11
-61.556819999999981
 21
63.623821
 31
0.0
  0
LINE
  5
6EE
  8
0
  6
CONTINUOUS
 62
     7
 10
-366.63385
 20
76.847960999999984
 30
0.0
 11
-366.63385
 21
217.52025
 31
0.0
  0
LINE
  5
6EF
  8
0
  6
CONTINUOUS
 62
     7
 10
-435.63384999999988
 20
58.037754000000007
 30
0.0
 11
-370.63387999999992
 21
58.037754000000007
 31
0.0
  0
LINE
  5
6F0
  8
0
  6
CONTINUOUS
 62
     7
 10
-145.2809399999999
 20
239.84795
 30
0.0
 11
-175.2809399999999
 21
239.84795
 31
0.0
  0
LINE
  5
6F1
  8
0
  6
CONTINUOUS
 62
     7
 10
-360.63385
 20
62.347977
 30
0.0
 11
-356.63387999999998
 21
62.347977
 31
0.0
  0
LINE
  5
6F2
  8
0
  6
CONTINUOUS
 62
     7
 10
-360.63385
 20
147.34795
 30
0.0
 11
-360.63385
 21
239.84795
 31
0.0
  0
LINE
  5
6F3
  8
0
  6
CONTINUOUS
 62
     7
 10
-370.63387999999992
 20
198.4731899999999
 30
0.0
 11
-370.63387999999992
 21
237.56734999999989
 31
0.0
  0
LINE
  5
6F4
  8
0
  6
CONTINUOUS
 62
     7
 10
-435.63387999999992
 20
43.147976
 30
0.0
 11
-447.70366999999999
 21
43.569462000000001
 31
0.0
  0
LINE
  5
6F5
  8
0
  6
DASHED
 62
     7
 10
-213.28095999999991
 20
90.647964000000002
 30
0.0
 11
-213.28095999999991
 21
157.64796000000001
 31
0.0
  0
LINE
  5
6F6
  8
0
  6
DASHED
 62
     7
 10
-230.28093999999999
 20
94.147957000000005
 30
0.0
 11
-230.28093999999999
 21
90.647964000000002
 31
0.0
  0
LINE
  5
6F7
  8
0
  6
DASHED
 62
     7
 10
-210.28095999999999
 20
90.647964000000002
 30
0.0
 11
-230.28093999999999
 21
90.647964000000002
 31
0.0
  0
LINE
  5
6F8
  8
0
  6
DASHED
 62
     7
 10
-235.2809399999999
 20
94.147957000000005
 30
0.0
 11
-216.7809399999999
 21
94.147957000000005
 31
0.0
  0
LINE
  5
6F9
  8
0
  6
DASHED
 62
     7
 10
-235.2809399999999
 20
154.14795000000001
 30
0.0
 11
-216.7809399999999
 21
154.14795000000001
 31
0.0
  0
LINE
  5
6FA
  8
0
  6
DASHED
 62
     7
 10
-235.2809399999999
 20
94.147957000000005
 30
0.0
 11
-235.2809399999999
 21
154.14795000000001
 31
0.0
  0
LINE
  5
6FB
  8
0
  6
DASHED
 62
     7
 10
-216.7809399999999
 20
92.647956999999963
 30
0.0
 11
-213.28095999999991
 21
92.647956999999963
 31
0.0
  0
LINE
  5
6FC
  8
0
  6
DASHED
 62
     7
 10
-235.28095999999999
 20
147.14796000000001
 30
0.0
 11
-237.78095999999991
 21
142.82294999999999
 31
0.0
  0
LINE
  5
6FD
  8
0
  6
DASHED
 62
     7
 10
-216.7809399999999
 20
92.647956999999963
 30
0.0
 11
-216.7809399999999
 21
155.64795000000001
 31
0.0
  0
LINE
  5
6FE
  8
0
  6
DASHED
 62
     7
 10
-235.28095999999999
 20
101.1479599999999
 30
0.0
 11
-237.09692000000001
 21
104.29564000000001
 31
0.0
  0
LINE
  5
6FF
  8
0
  6
CONTINUOUS
 62
     7
 10
-238.2809399999999
 20
106.3479499999999
 30
0.0
 11
-238.2809399999999
 21
141.95796000000001
 31
0.0
  0
LINE
  5
700
  8
0
  6
DASHED
 62
     7
 10
-210.28095999999999
 20
157.64796000000001
 30
0.0
 11
-230.28093999999999
 21
157.64796000000001
 31
0.0
  0
LINE
  5
701
  8
0
  6
DASHED
 62
     7
 10
-230.28093999999999
 20
154.14795000000001
 30
0.0
 11
-230.28093999999999
 21
157.64796000000001
 31
0.0
  0
LINE
  5
702
  8
0
  6
CONTINUOUS
 62
     7
 10
-237.78095999999991
 20
142.82294999999999
 30
0.0
 11
-238.28095999999991
 21
141.95796000000001
 31
0.0
  0
LINE
  5
703
  8
0
  6
DASHED
 62
     7
 10
-216.7809399999999
 20
155.64795000000001
 30
0.0
 11
-213.28095999999991
 21
155.64795000000001
 31
0.0
  0
LINE
  5
704
  8
0
  6
DASHED
 62
     7
 10
-210.28095999999999
 20
90.647964000000002
 30
0.0
 11
-210.28095999999999
 21
157.64796000000001
 31
0.0
  0
LINE
  5
705
  8
0
  6
CONTINUOUS
 62
     7
 10
-237.09692000000001
 20
104.29564000000001
 30
0.0
 11
-238.28095999999991
 21
106.3479699999999
 31
0.0
  0
LINE
  5
706
  8
0
  6
CONTINUOUS
 62
     7
 10
-368.70364000000001
 20
320.87667999999991
 30
0.0
 11
-360.63387999999992
 21
320.59487999999982
 31
0.0
  0
LINE
  5
707
  8
0
  6
CONTINUOUS
 62
     7
 10
-356.63382000000001
 20
498.09487999999999
 30
0.0
 11
-356.63382000000001
 21
328.09487999999982
 31
0.0
  0
LINE
  5
708
  8
0
  6
CONTINUOUS
 62
     7
 10
-346.63387999999992
 20
409.09487999999988
 30
0.0
 11
-314.63387999999992
 21
409.09487999999988
 31
0.0
  0
LINE
  5
709
  8
0
  6
CONTINUOUS
 62
     7
 10
-370.63385
 20
322.87549000000001
 30
0.0
 11
-370.63385
 21
503.31426999999991
 31
0.0
  0
LINE
  5
70A
  8
0
  6
CONTINUOUS
 62
     7
 10
-372.32808999999992
 20
498.90053999999992
 30
0.0
 11
-370.63382000000001
 21
500.59485000000001
 31
0.0
  0
LINE
  5
70B
  8
0
  6
CONTINUOUS
 62
     7
 10
-366.63385
 20
342.59487999999999
 30
0.0
 11
-366.63385
 21
483.26717999999988
 31
0.0
  0
LINE
  5
70C
  8
0
  6
CENTER
 62
     7
 10
-372.81403
 20
489.10885999999988
 30
0.0
 11
-353.97494999999992
 21
489.10885999999988
 31
0.0
  0
LINE
  5
70D
  8
0
  6
CONTINUOUS
 62
     7
 10
-360.63385
 20
498.09487999999999
 30
0.0
 11
-356.63382000000001
 21
498.09487999999999
 31
0.0
  0
LINE
  5
70E
  8
0
  6
CONTINUOUS
 62
     7
 10
-360.63385
 20
320.59487999999982
 30
0.0
 11
-360.63385
 21
505.59487999999999
 31
0.0
  0
LINE
  5
70F
  8
0
  6
CONTINUOUS
 62
     7
 10
-375.68914999999998
 20
328.75060999999982
 30
0.0
 11
-435.63384999999988
 21
330.84392999999972
 31
0.0
  0
LINE
  5
710
  8
0
  6
CONTINUOUS
 62
     7
 10
-375.68914999999998
 20
497.43912
 30
0.0
 11
-435.63384999999988
 21
495.34582999999998
 31
0.0
  0
LINE
  5
711
  8
0
  6
CONTINUOUS
 62
     7
 10
-314.63387999999992
 20
427.09491000000003
 30
0.0
 11
-314.63387999999992
 21
399.09491000000003
 31
0.0
  0
LINE
  5
712
  8
0
  6
CONTINUOUS
 62
     7
 10
-356.63385
 20
427.09491000000003
 30
0.0
 11
-314.63387999999992
 21
427.09491000000003
 31
0.0
  0
LINE
  5
713
  8
0
  6
CONTINUOUS
 62
     7
 10
-356.63385
 20
399.09491000000003
 30
0.0
 11
-314.63387999999992
 21
399.09491000000003
 31
0.0
  0
LINE
  5
714
  8
0
  6
CONTINUOUS
 62
     7
 10
-346.63387999999992
 20
417.09484999999989
 30
0.0
 11
-346.63387999999992
 21
409.09487999999988
 31
0.0
  0
LINE
  5
715
  8
0
  6
CENTER
 62
     7
 10
-374.03942999999992
 20
337.08089999999982
 30
0.0
 11
-353.64461999999992
 21
337.08089999999982
 31
0.0
  0
LINE
  5
716
  8
0
  6
CONTINUOUS
 62
     7
 10
-372.32808999999992
 20
327.28917999999999
 30
0.0
 11
-370.63382000000001
 21
325.59491000000008
 31
0.0
  0
LINE
  5
717
  8
0
  6
CONTINUOUS
 62
     7
 10
-368.70361000000003
 20
505.31304999999992
 30
0.0
 11
-360.63385
 21
505.59485000000001
 31
0.0
  0
LINE
  5
718
  8
0
  6
CONTINUOUS
 62
     7
 10
-346.63387999999992
 20
417.09484999999989
 30
0.0
 11
-314.63387999999992
 21
417.09484999999989
 31
0.0
  0
LINE
  5
719
  8
0
  6
CONTINUOUS
 62
     7
 10
-360.63385
 20
328.09487999999982
 30
0.0
 11
-356.63382000000001
 21
328.09487999999982
 31
0.0
  0
ARC
  5
71A
  8
0
  6
CONTINUOUS
 62
     7
 10
-453.49005
 20
369.09485000000001
 30
0.0
 40
2.0
 50
269.99998999999991
 51
35.173260999999997
  0
ARC
  5
71B
  8
0
  6
CONTINUOUS
 62
     7
 10
-453.49005
 20
457.09487999999999
 30
0.0
 40
2.0
 50
324.82673
 51
90.000003000000007
  0
ARC
  5
71C
  8
0
  6
CONTINUOUS
 62
     7
 10
-454.63387999999998
 20
480.42642000000001
 30
0.0
 40
5.0
 50
310.0
 51
0.0
  0
ARC
  5
71D
  8
0
  6
CONTINUOUS
 62
     7
 10
-454.63387999999998
 20
345.76333999999991
 30
0.0
 40
5.0
 50
0.0
 51
50.0
  0
ARC
  5
71E
  8
0
  6
CONTINUOUS
 62
     7
 10
-446.63384999999988
 20
334.22989000000001
 30
0.0
 40
3.0
 50
180.00001
 51
268.0
  0
ARC
  5
71F
  8
0
  6
CONTINUOUS
 62
     7
 10
-446.63384999999988
 20
491.95987000000002
 30
0.0
 40
3.0
 50
91.999998000000005
 51
180.00001
  0
ARC
  5
720
  8
0
  6
CONTINUOUS
 62
     3
 10
-574.40674000000001
 20
336.59487999999982
 30
0.0
 40
7.5
 50
179.99997999999991
 51
0.000010017913
  0
ARC
  5
721
  8
0
  6
CONTINUOUS
 62
     3
 10
-574.40674000000001
 20
336.59487999999982
 30
0.0
 40
4.0
 50
179.99997999999991
 51
0.000010017912
  0
ARC
  5
722
  8
0
  6
CONTINUOUS
 62
     7
 10
-487.48061999999999
 20
458.42764
 30
0.0
 40
1.502775999999999
 50
194.75642999999991
 51
269.87757999999991
  0
ARC
  5
723
  8
0
  6
CONTINUOUS
 62
     7
 10
-487.48061999999999
 20
457.51760999999999
 30
0.0
 40
1.502775999999999
 50
194.75642999999991
 51
269.87757999999991
  0
ARC
  5
724
  8
0
  6
CONTINUOUS
 62
     7
 10
-487.48061999999999
 20
455.66762999999992
 30
0.0
 40
1.502775999999999
 50
194.75642999999991
 51
269.87757999999991
  0
ARC
  5
725
  8
0
  6
CONTINUOUS
 62
     7
 10
-495.00869999999992
 20
472.98012999999997
 30
0.0
 40
2.0047290000000002
 50
15.173496
 51
89.861677999999998
  0
ARC
  5
726
  8
0
  6
CONTINUOUS
 62
     7
 10
-495.00869999999992
 20
472.07010000000002
 30
0.0
 40
2.0047290000000002
 50
15.173496
 51
89.861677999999998
  0
ARC
  5
727
  8
0
  6
CONTINUOUS
 62
     7
 10
-495.00869999999992
 20
470.22012000000001
 30
0.0
 40
2.0047290000000002
 50
15.173496
 51
89.861677999999998
  0
ARC
  5
728
  8
0
  6
CONTINUOUS
 62
     7
 10
-487.48061999999999
 20
373.37209999999999
 30
0.0
 40
1.502775999999999
 50
90.122413000000037
 51
165.24357000000001
  0
ARC
  5
729
  8
0
  6
CONTINUOUS
 62
     7
 10
-608.14062999999999
 20
461.11282
 30
0.0
 40
0.99319202
 50
119.77338
 51
179.87958999999981
  0
ARC
  5
72A
  8
0
  6
CONTINUOUS
 62
     7
 10
-608.13830999999982
 20
460.07461999999992
 30
0.0
 40
0.995579
 50
116.5870899999999
 51
179.98264
  0
ARC
  5
72B
  8
0
  6
CONTINUOUS
 62
     7
 10
-606.87182999999982
 20
461.84902999999991
 30
0.0
 40
0.9959030199999999
 50
89.541267000000005
 51
119.60717
  0
ARC
  5
72C
  8
0
  6
CONTINUOUS
 62
     7
 10
-606.90905999999995
 20
460.70084000000003
 30
0.0
 40
0.99411702
 50
89.122643999999966
 51
115.93498
  0
ARC
  5
72D
  8
0
  6
CONTINUOUS
 62
     7
 10
-606.86499000000003
 20
459.74062999999973
 30
0.0
 40
0.99427301
 50
89.356065999999984
 51
120.78091000000001
  0
ARC
  5
72E
  8
0
  6
CONTINUOUS
 62
     7
 10
-606.89880000000005
 20
458.59951999999998
 30
0.0
 40
0.99545902
 50
89.141291000000024
 51
117.20381999999999
  0
ARC
  5
72F
  8
0
  6
CONTINUOUS
 62
     7
 10
-606.82727
 20
455.22867000000002
 30
0.0
 40
0.99617702
 50
90.381317999999979
 51
123.9704899999999
  0
ARC
  5
730
  8
0
  6
CONTINUOUS
 62
     7
 10
-606.85449000000006
 20
454.08840999999973
 30
0.0
 40
0.99648702
 50
90.540720999999976
 51
120.74377
  0
ARC
  5
731
  8
0
  6
CONTINUOUS
 62
     7
 10
-608.13977
 20
453.33803999999992
 30
0.0
 40
0.99404597
 50
120.4682
 51
180.18563999999989
  0
ARC
  5
732
  8
0
  6
CONTINUOUS
 62
     7
 10
-608.13904000000002
 20
454.37247000000002
 30
0.0
 40
0.9948369899999999
 50
123.20496
 51
180.4378599999998
  0
ARC
  5
733
  8
0
  6
CONTINUOUS
 62
     7
 10
-608.14062999999999
 20
457.93630999999988
 30
0.0
 40
0.9932109699999999
 50
117.7993199999999
 51
180.08187000000001
  0
ARC
  5
734
  8
0
  6
CONTINUOUS
 62
     7
 10
-608.13940000000002
 20
458.97390999999999
 30
0.0
 40
0.9944329899999999
 50
121.15213
 51
179.9405099999999
  0
ARC
  5
735
  8
0
  6
CONTINUOUS
 62
     7
 10
-606.93286000000001
 20
447.78945999999991
 30
0.0
 40
0.9954450099999999
 50
90.056905000000043
 51
113.1274499999999
  0
ARC
  5
736
  8
0
  6
CONTINUOUS
 62
     7
 10
-606.99463000000003
 20
445.84219000000002
 30
0.0
 40
0.9927430199999999
 50
89.374555000000001
 51
106.33207
  0
ARC
  5
737
  8
0
  6
CONTINUOUS
 62
     7
 10
-608.13756999999976
 20
445.49062999999973
 30
0.0
 40
0.9962710099999999
 50
106.69792
 51
180.3300499999998
  0
ARC
  5
738
  8
0
  6
CONTINUOUS
 62
     7
 10
-608.13744999999994
 20
447.27640000000002
 30
0.0
 40
0.9963999999999998
 50
112.81735999999979
 51
180.09041999999991
  0
ARC
  5
739
  8
0
  6
CONTINUOUS
 62
     7
 10
-608.13879000000009
 20
438.09975999999989
 30
0.0
 40
0.99507803
 50
89.715886999999981
 51
180.28411
  0
ARC
  5
73A
  8
0
  6
CONTINUOUS
 62
     7
 10
-608.13367000000005
 20
438.09512000000001
 30
0.0
 40
1.000203
 50
180.01165
 51
269.98835000000003
  0
ARC
  5
73B
  8
0
  6
CONTINUOUS
 62
     7
 10
-608.13879000000009
 20
428.09975999999989
 30
0.0
 40
0.99508202
 50
89.716099
 51
180.28390999999991
  0
ARC
  5
73C
  8
0
  6
CONTINUOUS
 62
     7
 10
-608.13367000000005
 20
428.09512000000001
 30
0.0
 40
1.0001999999999991
 50
180.0114299999999
 51
269.98856999999992
  0
ARC
  5
73D
  8
0
  6
CONTINUOUS
 62
     7
 10
-608.13879000000009
 20
418.09976
 30
0.0
 40
0.9950849999999999
 50
89.716311000000005
 51
180.28368999999981
  0
ARC
  5
73E
  8
0
  6
CONTINUOUS
 62
     7
 10
-608.13367000000005
 20
418.09511999999989
 30
0.0
 40
1.0001959999999981
 50
180.01122000000001
 51
269.98877999999991
  0
ARC
  5
73F
  8
0
  6
CONTINUOUS
 62
     7
 10
-605.13367000000017
 20
416.09500000000003
 30
0.0
 40
0.9998249999999999
 50
359.98995000000002
 51
90.010050000000007
  0
ARC
  5
740
  8
0
  6
CONTINUOUS
 62
     7
 10
-605.13878999999986
 20
420.09975999999989
 30
0.0
 40
1.0049469
 50
270.28134999999992
 51
359.71866
  0
ARC
  5
741
  8
0
  6
CONTINUOUS
 62
     7
 10
-605.13367000000017
 20
426.09500000000003
 30
0.0
 40
0.9998210099999999
 50
359.98975000000002
 51
90.010255000000001
  0
ARC
  5
742
  8
0
  6
CONTINUOUS
 62
     7
 10
-605.13878999999986
 20
430.09975999999989
 30
0.0
 40
1.004939
 50
270.28091000000001
 51
359.71910000000008
  0
ARC
  5
743
  8
0
  6
CONTINUOUS
 62
     7
 10
-605.13367000000017
 20
436.09500000000003
 30
0.0
 40
0.9998289899999999
 50
359.99018999999993
 51
90.009810999999985
  0
ARC
  5
744
  8
0
  6
CONTINUOUS
 62
     7
 10
-605.13878999999986
 20
440.09975999999989
 30
0.0
 40
1.004942999999999
 50
270.28111000000001
 51
359.71888999999987
  0
ARC
  5
745
  8
0
  6
CONTINUOUS
 62
     7
 10
-605.13207999999997
 20
445.83658000000003
 30
0.0
 40
0.9982839799999999
 50
359.90141999999992
 51
90.098575999999994
  0
ARC
  5
746
  8
0
  6
CONTINUOUS
 62
     7
 10
-605.13622999999995
 20
454.08255000000003
 30
0.0
 40
1.002353
 50
0.13432682
 51
89.865673000000001
  0
ARC
  5
747
  8
0
  6
CONTINUOUS
 62
     7
 10
-604.83838000000003
 20
449.48940999999979
 30
0.0
 40
0.704566
 50
270.37009999999992
 51
359.62990999999982
  0
ARC
  5
748
  8
0
  6
CONTINUOUS
 62
     7
 10
-605.13280999999995
 20
458.59585999999967
 30
0.0
 40
0.9990100299999999
 50
359.94319000000002
 51
90.056808999999959
  0
ARC
  5
749
  8
0
  6
CONTINUOUS
 62
     7
 10
-604.6321999999999
 20
461.19655999999992
 30
0.0
 40
0.4983060100000002
 50
359.80489
 51
90.195107000000007
  0
ARC
  5
74A
  8
0
  6
CONTINUOUS
 62
     7
 10
-604.63842999999963
 20
463.34951999999993
 30
0.0
 40
0.50463498
 50
270.52382999999992
 51
359.47617000000002
  0
ARC
  5
74B
  8
0
  6
CONTINUOUS
 62
     7
 10
-592.58922999999982
 20
378.09487999999988
 30
0.0
 40
1.000013899999999
 50
89.691659999999985
 51
270.30833999999999
  0
ARC
  5
74C
  8
0
  6
CONTINUOUS
 62
     7
 10
-490.31384000000003
 20
448.13992000000002
 30
0.0
 40
1.6750020000000001
 50
269.99998999999991
 51
90.000003000000007
  0
ARC
  5
74D
  8
0
  6
CONTINUOUS
 62
     7
 10
-493.79385000000002
 20
448.09487999999999
 30
0.0
 40
1.0
 50
269.99998999999991
 51
90.000003000000007
  0
ARC
  5
74E
  8
0
  6
CONTINUOUS
 62
     7
 10
-493.79385000000002
 20
378.09487999999988
 30
0.0
 40
1.0
 50
269.99998999999991
 51
90.000003000000007
  0
ARC
  5
74F
  8
0
  6
CONTINUOUS
 62
     7
 10
-490.31384000000003
 20
378.04984000000002
 30
0.0
 40
1.6750020000000001
 50
269.99998999999991
 51
90.000003000000007
  0
ARC
  5
750
  8
0
  6
CONTINUOUS
 62
     7
 10
-605.13720999999998
 20
380.35817999999989
 30
0.0
 40
1.003352
 50
270.19110999999992
 51
359.80889999999982
  0
ARC
  5
751
  8
0
  6
CONTINUOUS
 62
     7
 10
-605.13878999999986
 20
390.09976
 30
0.0
 40
1.0049469
 50
270.28136999999992
 51
359.71863000000002
  0
ARC
  5
752
  8
0
  6
CONTINUOUS
 62
     7
 10
-605.13367000000017
 20
386.09500000000003
 30
0.0
 40
0.9998239899999999
 50
359.98991999999993
 51
90.010076999999981
  0
ARC
  5
753
  8
0
  6
CONTINUOUS
 62
     7
 10
-604.83325000000002
 20
376.70546999999999
 30
0.0
 40
0.6994530000000001
 50
359.95517000000001
 51
90.044829000000021
  0
ARC
  5
754
  8
0
  6
CONTINUOUS
 62
     7
 10
-606.93090999999981
 20
378.41005999999987
 30
0.0
 40
1.005233
 50
246.98638999999989
 51
269.82924999999989
  0
ARC
  5
755
  8
0
  6
CONTINUOUS
 62
     7
 10
-606.99329
 20
380.35757000000001
 30
0.0
 40
1.002699
 50
253.7527199999999
 51
270.54064
  0
ARC
  5
756
  8
0
  6
CONTINUOUS
 62
     7
 10
-608.13744999999994
 20
380.70925999999992
 30
0.0
 40
0.99638802
 50
180.24991
 51
253.29664
  0
ARC
  5
757
  8
0
  6
CONTINUOUS
 62
     7
 10
-608.13733000000002
 20
378.92336999999998
 30
0.0
 40
0.9965090199999998
 50
179.91374999999999
 51
247.17845
  0
ARC
  5
758
  8
0
  6
CONTINUOUS
 62
     7
 10
-608.13367000000005
 20
388.09512000000001
 30
0.0
 40
1.0001959999999981
 50
180.01124999999999
 51
269.98874999999992
  0
ARC
  5
759
  8
0
  6
CONTINUOUS
 62
     7
 10
-608.13879000000009
 20
388.09976
 30
0.0
 40
0.9950849999999999
 50
89.716282999999976
 51
180.2837199999999
  0
ARC
  5
75A
  8
0
  6
CONTINUOUS
 62
     7
 10
-608.13367000000005
 20
398.09512000000001
 30
0.0
 40
1.0001999999999991
 50
180.01146
 51
269.98853999999972
  0
ARC
  5
75B
  8
0
  6
CONTINUOUS
 62
     7
 10
-608.13879000000009
 20
398.09976
 30
0.0
 40
0.9950810099999999
 50
89.716071999999997
 51
180.28391999999999
  0
ARC
  5
75C
  8
0
  6
CONTINUOUS
 62
     7
 10
-608.13367000000005
 20
408.09512000000001
 30
0.0
 40
1.0002040000000001
 50
180.01166000000001
 51
269.9883200000001
  0
ARC
  5
75D
  8
0
  6
CONTINUOUS
 62
     7
 10
-608.13879000000009
 20
408.09975999999989
 30
0.0
 40
0.9950770099999999
 50
89.715860000000006
 51
180.28413999999989
  0
ARC
  5
75E
  8
0
  6
CONTINUOUS
 62
     7
 10
-605.13878999999986
 20
410.09976
 30
0.0
 40
1.004942999999999
 50
270.28113999999988
 51
359.71886999999992
  0
ARC
  5
75F
  8
0
  6
CONTINUOUS
 62
     7
 10
-605.13367000000017
 20
406.09500000000003
 30
0.0
 40
0.9998279799999998
 50
359.99015999999978
 51
90.009838000000002
  0
ARC
  5
760
  8
0
  6
CONTINUOUS
 62
     7
 10
-605.13878999999986
 20
400.09975999999989
 30
0.0
 40
1.004939
 50
270.28093999999999
 51
359.71906999999999
  0
ARC
  5
761
  8
0
  6
CONTINUOUS
 62
     7
 10
-605.13367000000017
 20
396.09500000000003
 30
0.0
 40
0.9998210099999999
 50
359.98971999999998
 51
90.010281999999961
  0
ARC
  5
762
  8
0
  6
CONTINUOUS
 62
     7
 10
-593.46130000000005
 20
448.13992000000002
 30
0.0
 40
1.6750160000000001
 50
89.746144999999984
 51
270.25387000000001
  0
ARC
  5
763
  8
0
  6
CONTINUOUS
 62
     7
 10
-592.58922999999982
 20
448.09487999999999
 30
0.0
 40
1.000013899999999
 50
89.691659999999985
 51
270.30833999999999
  0
ARC
  5
764
  8
0
  6
CONTINUOUS
 62
     7
 10
-592.58922999999982
 20
438.09487999999988
 30
0.0
 40
1.000013899999999
 50
89.691659999999985
 51
270.30833999999999
  0
ARC
  5
765
  8
0
  6
CONTINUOUS
 62
     7
 10
-592.58922999999982
 20
428.09487999999988
 30
0.0
 40
1.000013899999999
 50
89.691659999999985
 51
270.30833999999999
  0
ARC
  5
766
  8
0
  6
CONTINUOUS
 62
     7
 10
-592.58922999999982
 20
418.09487999999999
 30
0.0
 40
1.000013899999999
 50
89.691659999999985
 51
270.30833999999999
  0
ARC
  5
767
  8
0
  6
CONTINUOUS
 62
     7
 10
-592.58922999999982
 20
408.09487999999988
 30
0.0
 40
1.000013899999999
 50
89.691659999999985
 51
270.30833999999999
  0
ARC
  5
768
  8
0
  6
CONTINUOUS
 62
     7
 10
-592.58922999999982
 20
398.09487999999999
 30
0.0
 40
1.000013899999999
 50
89.691659999999985
 51
270.30833999999999
  0
ARC
  5
769
  8
0
  6
CONTINUOUS
 62
     7
 10
-592.58922999999982
 20
388.09487999999999
 30
0.0
 40
1.000013899999999
 50
89.691659999999985
 51
270.30833999999999
  0
ARC
  5
76A
  8
0
  6
CONTINUOUS
 62
     7
 10
-593.67382999999995
 20
438.11989999999992
 30
0.0
 40
1.465004
 50
90.000003000000007
 51
270.0
  0
ARC
  5
76B
  8
0
  6
CONTINUOUS
 62
     7
 10
-593.80382999999995
 20
428.10489000000001
 30
0.0
 40
1.3300049999999981
 50
90.000003000000007
 51
270.0
  0
ARC
  5
76C
  8
0
  6
CONTINUOUS
 62
     7
 10
-593.86963000000003
 20
418.09987999999998
 30
0.0
 40
1.2650129999999991
 50
89.735579000000016
 51
270.26441
  0
ARC
  5
76D
  8
0
  6
CONTINUOUS
 62
     7
 10
-593.86963000000003
 20
408.09487999999988
 30
0.0
 40
1.2700129999999981
 50
89.736616999999995
 51
270.26337000000001
  0
ARC
  5
76E
  8
0
  6
CONTINUOUS
 62
     7
 10
-593.80382999999995
 20
398.08487000000002
 30
0.0
 40
1.3300049999999981
 50
90.000003000000007
 51
270.0
  0
ARC
  5
76F
  8
0
  6
CONTINUOUS
 62
     7
 10
-593.67382999999995
 20
388.06984999999992
 30
0.0
 40
1.465004
 50
90.000003000000007
 51
270.0
  0
ARC
  5
770
  8
0
  6
CONTINUOUS
 62
     7
 10
-593.46069
 20
378.04984000000002
 30
0.0
 40
1.675014
 50
89.766498999999982
 51
270.23351000000002
  0
ARC
  5
771
  8
0
  6
CONTINUOUS
 62
     7
 10
-605.13707999999986
 20
372.12160999999992
 30
0.0
 40
1.0032760000000001
 50
334.19810000000001
 51
359.61810999999977
  0
ARC
  5
772
  8
0
  6
CONTINUOUS
 62
     7
 10
-608.13538000000017
 20
372.85415999999992
 30
0.0
 40
0.9984580299999999
 50
179.9595799999999
 51
239.38657000000001
  0
ARC
  5
773
  8
0
  6
CONTINUOUS
 62
     7
 10
-591.93517999999995
 20
467.38076999999998
 30
0.0
 40
1.994108999999999
 50
89.675548000000006
 51
169.18777
  0
ARC
  5
774
  8
0
  6
CONTINUOUS
 62
     7
 10
-591.88367000000005
 20
470.22964000000002
 30
0.0
 40
1.9952829999999979
 50
90.006203999999983
 51
170.90835000000001
  0
ARC
  5
775
  8
0
  6
CONTINUOUS
 62
     7
 10
-591.86926000000005
 20
472.07815999999991
 30
0.0
 40
1.9967330000000001
 50
89.843967000000006
 51
171.45387999999991
  0
ARC
  5
776
  8
0
  6
CONTINUOUS
 62
     7
 10
-591.84729000000004
 20
472.98928999999998
 30
0.0
 40
1.995633
 50
89.899708000000004
 51
172.06112999999991
  0
ARC
  5
777
  8
0
  6
CONTINUOUS
 62
     7
 10
-495.00375000000003
 20
467.37662
 30
0.0
 40
1.9982919999999991
 50
15.032547999999981
 51
90.002631999999977
  0
ARC
  5
778
  8
0
  6
CONTINUOUS
 62
     7
 10
-487.48061999999999
 20
452.81765999999999
 30
0.0
 40
1.502775999999999
 50
194.75642999999991
 51
269.87757999999991
  0
ARC
  5
779
  8
0
  6
CONTINUOUS
 62
     7
 10
-495.00869999999992
 20
358.81961000000001
 30
0.0
 40
2.0047290000000002
 50
270.13832000000002
 51
344.82650000000001
  0
ARC
  5
77A
  8
0
  6
CONTINUOUS
 62
     7
 10
-608.13622999999995
 20
365.0795
 30
0.0
 40
0.9976310099999999
 50
180.26780999999991
 51
240.07924
  0
ARC
  5
77B
  8
0
  6
CONTINUOUS
 62
     7
 10
-608.13818000000003
 20
366.12526999999989
 30
0.0
 40
0.9956849800000001
 50
180.02112999999991
 51
243.40913999999981
  0
ARC
  5
77C
  8
0
  6
CONTINUOUS
 62
     7
 10
-606.85315000000003
 20
364.34598
 30
0.0
 40
1.001123999999999
 50
239.32782000000009
 51
269.38767999999988
  0
ARC
  5
77D
  8
0
  6
CONTINUOUS
 62
     7
 10
-606.88805999999988
 20
365.49417
 30
0.0
 40
0.9993420200000001
 50
242.86199999999999
 51
269.66546
  0
ARC
  5
77E
  8
0
  6
CONTINUOUS
 62
     7
 10
-606.86243000000002
 20
366.45853
 30
0.0
 40
1.0037439999999991
 50
239.37112999999999
 51
270.49189999999987
  0
ARC
  5
77F
  8
0
  6
CONTINUOUS
 62
     7
 10
-606.87865999999997
 20
367.59548999999993
 30
0.0
 40
1.0006820000000001
 50
241.65062
 51
269.7039299999999
  0
ARC
  5
780
  8
0
  6
CONTINUOUS
 62
     7
 10
-606.84105999999986
 20
370.97537
 30
0.0
 40
1.000521999999999
 50
237.14617999999999
 51
270.41343999999998
  0
ARC
  5
781
  8
0
  6
CONTINUOUS
 62
     7
 10
-606.87047999999982
 20
372.11587999999989
 30
0.0
 40
1.0010449999999991
 50
240.47187
 51
270.37970999999999
  0
ARC
  5
782
  8
0
  6
CONTINUOUS
 62
     7
 10
-608.13538000000017
 20
372.85415999999992
 30
0.0
 40
0.9984580299999999
 50
179.9595799999999
 51
239.38657000000001
  0
ARC
  5
783
  8
0
  6
CONTINUOUS
 62
     7
 10
-608.13477
 20
371.81961000000001
 30
0.0
 40
0.9990889999999998
 50
179.69508999999991
 51
236.66209000000001
  0
ARC
  5
784
  8
0
  6
CONTINUOUS
 62
     7
 10
-608.13610999999958
 20
368.25612999999993
 30
0.0
 40
0.9977070099999998
 50
180.0740199999999
 51
242.04481000000001
  0
ARC
  5
785
  8
0
  6
CONTINUOUS
 62
     7
 10
-608.13500999999985
 20
367.21840999999989
 30
0.0
 40
0.9987969999999998
 50
179.62728000000001
 51
238.70795000000001
  0
ARC
  5
786
  8
0
  6
CONTINUOUS
 62
     7
 10
-605.13634999999988
 20
372.11734000000001
 30
0.0
 40
1.002470999999999
 50
270.14107000000001
 51
359.85892999999987
  0
ARC
  5
787
  8
0
  6
CONTINUOUS
 62
     7
 10
-605.13793999999996
 20
367.59902999999991
 30
0.0
 40
1.004119999999999
 50
270.23460999999992
 51
359.76538999999991
  0
ARC
  5
788
  8
0
  6
CONTINUOUS
 62
     7
 10
-604.63720999999998
 20
364.99831999999992
 30
0.0
 40
0.5033929900000002
 50
270.38490999999982
 51
359.61509999999993
  0
ARC
  5
789
  8
0
  6
CONTINUOUS
 62
     7
 10
-604.63342
 20
362.84537
 30
0.0
 40
0.49952301
 50
359.94522999999992
 51
90.054773999999981
  0
ARC
  5
78A
  8
0
  6
CONTINUOUS
 62
     7
 10
-591.92895999999985
 20
358.81411999999978
 30
0.0
 40
1.9992490000000001
 50
190.64309999999981
 51
270.14742999999999
  0
ARC
  5
78B
  8
0
  6
CONTINUOUS
 62
     7
 10
-591.87769000000003
 20
355.96523999999999
 30
0.0
 40
2.000420099999999
 50
188.92681999999991
 51
269.82270999999992
  0
ARC
  5
78C
  8
0
  6
CONTINUOUS
 62
     7
 10
-506.62024000000002
 20
349.09487999999988
 30
0.0
 40
1.5
 50
90.000003000000007
 51
178.5
  0
ARC
  5
78D
  8
0
  6
CONTINUOUS
 62
     3
 10
-495.11765000000003
 20
352.09487999999988
 30
0.0
 40
1.5
 50
269.99998999999991
 51
327.0
  0
ARC
  5
78E
  8
0
  6
CONTINUOUS
 62
     7
 10
-592.14722000000006
 20
355.96487000000002
 30
0.0
 40
2.0
 50
188.6296199999999
 51
269.99998999999991
  0
ARC
  5
78F
  8
0
  6
CONTINUOUS
 62
     7
 10
-592.22766000000001
 20
355.96487000000002
 30
0.0
 40
2.0
 50
187.9504399999999
 51
269.99998999999991
  0
ARC
  5
790
  8
0
  6
CONTINUOUS
 62
     7
 10
-569.7357199999999
 20
352.46487000000002
 30
0.0
 40
1.5
 50
1.5000026999999989
 51
90.000003000000007
  0
ARC
  5
791
  8
0
  6
CONTINUOUS
 62
     7
 10
-558.69519000000003
 20
428.09487999999988
 30
0.0
 40
1.0000056999999991
 50
269.99998999999991
 51
90.000003000000007
  0
ARC
  5
792
  8
0
  6
CONTINUOUS
 62
     7
 10
-558.69519000000003
 20
418.09487999999999
 30
0.0
 40
1.0000056999999991
 50
269.99998999999991
 51
90.000003000000007
  0
ARC
  5
793
  8
0
  6
CONTINUOUS
 62
     7
 10
-558.69519000000003
 20
408.09487999999988
 30
0.0
 40
1.0000056999999991
 50
269.99998999999991
 51
90.000003000000007
  0
ARC
  5
794
  8
0
  6
CONTINUOUS
 62
     7
 10
-558.69519000000003
 20
398.09487999999999
 30
0.0
 40
1.0000056999999991
 50
269.99998999999991
 51
90.000003000000007
  0
ARC
  5
795
  8
0
  6
CONTINUOUS
 62
     7
 10
-508.13385
 20
380.59487999999988
 30
0.0
 40
1.5
 50
179.99998999999991
 51
270.0
  0
ARC
  5
796
  8
0
  6
CONTINUOUS
 62
     7
 10
-526.13385000000005
 20
380.59487999999988
 30
0.0
 40
1.5
 50
269.99998999999991
 51
0.00000068324516
  0
ARC
  5
797
  8
0
  6
CONTINUOUS
 62
     7
 10
-526.11388999999986
 20
380.73489000000001
 30
0.0
 40
1.0
 50
269.99998999999991
 51
0.00000068324625
  0
ARC
  5
798
  8
0
  6
CONTINUOUS
 62
     7
 10
-508.15384
 20
380.73489000000001
 30
0.0
 40
1.0
 50
179.99998999999991
 51
270.0
  0
CIRCLE
  5
799
  8
0
  6
CONTINUOUS
 62
     3
 10
-519.63385000000005
 20
441.59487999999988
 30
0.0
 40
1.1000000000000001
  0
CIRCLE
  5
79A
  8
0
  6
CONTINUOUS
 62
     3
 10
-519.63385000000005
 20
441.59487999999988
 30
0.0
 40
1.149999999999999
  0
CIRCLE
  5
79B
  8
0
  6
CONTINUOUS
 62
     3
 10
-514.63385000000005
 20
441.59487999999988
 30
0.0
 40
1.0
  0
ARC
  5
79C
  8
0
  6
CONTINUOUS
 62
     7
 10
-526.13385000000005
 20
440.59487999999988
 30
0.0
 40
1.02
 50
269.99998999999991
 51
0.00000068324403
  0
ARC
  5
79D
  8
0
  6
CONTINUOUS
 62
     7
 10
-508.13385
 20
440.59487999999988
 30
0.0
 40
1.02
 50
179.99998999999991
 51
270.0
  0
ARC
  5
79E
  8
0
  6
CONTINUOUS
 62
     7
 10
-526.13385000000005
 20
440.59487999999988
 30
0.0
 40
1.5
 50
269.99998999999991
 51
0.00000068324516
  0
ARC
  5
79F
  8
0
  6
CONTINUOUS
 62
     7
 10
-508.13385
 20
440.59487999999988
 30
0.0
 40
1.5
 50
179.99998999999991
 51
270.0
  0
CIRCLE
  5
7A0
  8
0
  6
CONTINUOUS
 62
     3
 10
-514.63385000000005
 20
384.59487999999999
 30
0.0
 40
1.0
  0
CIRCLE
  5
7A1
  8
0
  6
CONTINUOUS
 62
     3
 10
-519.63385000000005
 20
384.59487999999999
 30
0.0
 40
1.149999999999999
  0
CIRCLE
  5
7A2
  8
0
  6
CONTINUOUS
 62
     3
 10
-519.63385000000005
 20
384.59487999999999
 30
0.0
 40
1.1000000000000001
  0
ARC
  5
7A3
  8
0
  6
CONTINUOUS
 62
     7
 10
-526.13385000000005
 20
385.59487999999999
 30
0.0
 40
1.02
 50
0.0
 51
90.000003000000007
  0
ARC
  5
7A4
  8
0
  6
CONTINUOUS
 62
     7
 10
-508.13385
 20
385.59487999999999
 30
0.0
 40
1.02
 50
90.000003000000007
 51
180.00001
  0
ARC
  5
7A5
  8
0
  6
CONTINUOUS
 62
     7
 10
-526.13385000000005
 20
385.59487999999999
 30
0.0
 40
1.5
 50
0.0
 51
90.000003000000007
  0
ARC
  5
7A6
  8
0
  6
CONTINUOUS
 62
     7
 10
-508.13385
 20
385.59487999999999
 30
0.0
 40
1.5
 50
90.000003000000007
 51
180.00001
  0
ARC
  5
7A7
  8
0
  6
CONTINUOUS
 62
     7
 10
-557.46887000000004
 20
398.08487000000002
 30
0.0
 40
1.3300148000000001
 50
269.72941999999989
 51
90.270567000000014
  0
ARC
  5
7A8
  8
0
  6
CONTINUOUS
 62
     7
 10
-557.40697999999998
 20
408.09487999999988
 30
0.0
 40
1.2700266
 50
269.62931999999989
 51
90.370669999999961
  0
ARC
  5
7A9
  8
0
  6
CONTINUOUS
 62
     7
 10
-557.40697999999998
 20
418.10489000000001
 30
0.0
 40
1.2700266
 50
269.62931999999989
 51
90.370669999999961
  0
ARC
  5
7AA
  8
0
  6
CONTINUOUS
 62
     7
 10
-557.46887000000004
 20
428.10988999999989
 30
0.0
 40
1.3350147999999991
 50
269.73043000000001
 51
90.269555999999994
  0
ARC
  5
7AB
  8
0
  6
CONTINUOUS
 62
     7
 10
-493.79385000000002
 20
438.09487999999988
 30
0.0
 40
1.0000255999999981
 50
269.58947000000001
 51
90.410531000000006
  0
ARC
  5
7AC
  8
0
  6
CONTINUOUS
 62
     7
 10
-490.09386999999998
 20
438.12490999999989
 30
0.0
 40
1.460011199999999
 50
269.77525000000003
 51
90.224749999999986
  0
ARC
  5
7AD
  8
0
  6
CONTINUOUS
 62
     7
 10
-493.79385000000002
 20
388.09487999999999
 30
0.0
 40
1.0000255999999981
 50
269.58947000000001
 51
90.410531000000006
  0
ARC
  5
7AE
  8
0
  6
CONTINUOUS
 62
     7
 10
-490.09386999999998
 20
388.06484999999992
 30
0.0
 40
1.460011199999999
 50
269.77525000000003
 51
90.224749999999986
  0
ARC
  5
7AF
  8
0
  6
CONTINUOUS
 62
     7
 10
-508.15384
 20
445.45485999999988
 30
0.0
 40
1.0
 50
90.000003000000007
 51
180.00001
  0
ARC
  5
7B0
  8
0
  6
CONTINUOUS
 62
     7
 10
-508.13385
 20
445.59487999999988
 30
0.0
 40
1.5
 50
90.000003000000007
 51
180.00001
  0
ARC
  5
7B1
  8
0
  6
CONTINUOUS
 62
     7
 10
-526.13385000000005
 20
445.59487999999988
 30
0.0
 40
1.5
 50
0.0
 51
90.000003000000007
  0
ARC
  5
7B2
  8
0
  6
CONTINUOUS
 62
     7
 10
-526.11388999999986
 20
445.45485999999988
 30
0.0
 40
1.0
 50
0.0
 51
90.000003000000007
  0
ARC
  5
7B3
  8
0
  6
CONTINUOUS
 62
     7
 10
-461.43948
 20
351.47393999999991
 30
0.0
 40
5.0
 50
49.999997
 51
88.0
  0
ARC
  5
7B4
  8
0
  6
CONTINUOUS
 62
     7
 10
-461.43950999999998
 20
474.71582000000001
 30
0.0
 40
5.0
 50
272.0
 51
310.0
  0
ARC
  5
7B5
  8
0
  6
CONTINUOUS
 62
     7
 10
-447.63384999999988
 20
45.568236999999982
 30
0.0
 40
2.0
 50
179.99998999999991
 51
268.00000999999992
  0
ARC
  5
7B6
  8
0
  6
CONTINUOUS
 62
     7
 10
-447.63384999999988
 20
176.4820399999999
 30
0.0
 40
2.0
 50
90.000003000000007
 51
180.00001
  0
ARC
  5
7B7
  8
0
  6
CONTINUOUS
 62
     7
 10
-454.63387999999998
 20
56.81644099999999
 30
0.0
 40
5.0
 50
0.0
 51
50.0
  0
ARC
  5
7B8
  8
0
  6
CONTINUOUS
 62
     7
 10
-440.63385
 20
202.97214
 30
0.0
 40
2.0
 50
91.999998000000005
 51
180.00001
  0
ARC
  5
7B9
  8
0
  6
CONTINUOUS
 62
     7
 10
-447.63384999999988
 20
60.603999999999999
 30
0.0
 40
2.0
 50
90.000003000000007
 51
180.00001
  0
ARC
  5
7BA
  8
0
  6
CONTINUOUS
 62
     7
 10
-446.63384999999988
 20
197.00644
 30
0.0
 40
3.0
 50
91.999998000000005
 51
180.00001
  0
ARC
  5
7BB
  8
0
  6
CONTINUOUS
 62
     7
 10
-461.43948
 20
185.76892000000001
 30
0.0
 40
5.0
 50
272.0
 51
310.0
  0
ARC
  5
7BC
  8
0
  6
CONTINUOUS
 62
     7
 10
-454.63387999999998
 20
191.47949
 30
0.0
 40
5.0
 50
310.0
 51
0.0
  0
ARC
  5
7BD
  8
0
  6
CONTINUOUS
 62
     7
 10
-445.63387999999998
 20
203.04503
 30
0.0
 40
3.0
 50
272.0
 51
0.0
  0
ARC
  5
7BE
  8
0
  6
CONTINUOUS
 62
     7
 10
-461.43948
 20
62.527031000000008
 30
0.0
 40
5.0
 50
50.0
 51
88.0
  0
ARC
  5
7BF
  8
0
  6
CONTINUOUS
 62
     7
 10
-444.63385
 20
148.82003999999981
 30
0.0
 40
2.0
 50
0.0
 51
90.000003000000007
  0
ARC
  5
7C0
  8
0
  6
CONTINUOUS
 62
     7
 10
-444.63385
 20
64.603995999999995
 30
0.0
 40
2.0
 50
270.0
 51
0.0
  0
ARC
  5
7C1
  8
0
  6
CONTINUOUS
 62
     7
 10
-444.63385
 20
155.29715999999999
 30
0.0
 40
2.0
 50
0.0
 51
90.000003000000007
  0
ARC
  5
7C2
  8
0
  6
CONTINUOUS
 62
     7
 10
-447.63384999999988
 20
159.29717999999991
 30
0.0
 40
2.0
 50
179.99998999999991
 51
270.0
  0
ARC
  5
7C3
  8
0
  6
CONTINUOUS
 62
     7
 10
-444.63385
 20
180.4820399999999
 30
0.0
 40
2.0
 50
270.0
 51
0.0
  0
ARC
  5
7C4
  8
0
  6
CONTINUOUS
 62
     7
 10
-453.49005
 20
168.14796000000001
 30
0.0
 40
2.0
 50
324.82673
 51
90.000003000000007
  0
ARC
  5
7C5
  8
0
  6
CONTINUOUS
 62
     7
 10
-453.49005
 20
80.147980000000004
 30
0.0
 40
2.0
 50
270.0
 51
35.173271
  0
ARC
  5
7C6
  8
0
  6
CONTINUOUS
 62
     3
 10
-515.63385000000005
 20
101.64820999999991
 30
0.0
 40
5.5
 50
84.784087999999983
 51
185.21596
  0
ARC
  5
7C7
  8
0
  6
CONTINUOUS
 62
     7
 10
-591.86547999999959
 20
65.170555000000007
 30
0.0
 40
2.0
 50
188.6433899999999
 51
270.0
  0
ARC
  5
7C8
  8
0
  6
CONTINUOUS
 62
     7
 10
-591.87885000000006
 20
67.018332999999998
 30
0.0
 40
2.0
 50
189.08497
 51
270.0
  0
ARC
  5
7C9
  8
0
  6
CONTINUOUS
 62
     7
 10
-591.92742999999984
 20
69.864707999999993
 30
0.0
 40
2.0
 50
190.71569
 51
270.0
  0
ARC
  5
7CA
  8
0
  6
CONTINUOUS
 62
     7
 10
-604.63385000000005
 20
73.898589999999999
 30
0.0
 40
0.5
 50
0.0
 51
90.000003000000007
  0
ARC
  5
7CB
  8
0
  6
CONTINUOUS
 62
     7
 10
-604.63385000000005
 20
76.044883999999982
 30
0.0
 40
0.5
 50
270.0
 51
0.0
  0
ARC
  5
7CC
  8
0
  6
CONTINUOUS
 62
     7
 10
-605.13385000000005
 20
78.646332000000001
 30
0.0
 40
1.0
 50
270.0
 51
0.0
  0
ARC
  5
7CD
  8
0
  6
CONTINUOUS
 62
     7
 10
-605.13385000000005
 20
83.163062999999994
 30
0.0
 40
1.0
 50
270.0
 51
0.0
  0
ARC
  5
7CE
  8
0
  6
CONTINUOUS
 62
     7
 10
-608.13385000000005
 20
78.272614000000004
 30
0.0
 40
1.0
 50
179.99998999999991
 51
239.0334
  0
ARC
  5
7CF
  8
0
  6
CONTINUOUS
 62
     7
 10
-608.13385000000005
 20
79.308188999999999
 30
0.0
 40
1.0
 50
179.99998999999991
 51
242.07341
  0
ARC
  5
7D0
  8
0
  6
CONTINUOUS
 62
     7
 10
-608.13385000000005
 20
82.874602999999965
 30
0.0
 40
1.0
 50
179.99998999999991
 51
236.74527999999981
  0
ARC
  5
7D1
  8
0
  6
CONTINUOUS
 62
     7
 10
-608.13385000000005
 20
83.907752999999985
 30
0.0
 40
1.0
 50
179.99998999999991
 51
239.64048999999989
  0
ARC
  5
7D2
  8
0
  6
CONTINUOUS
 62
     7
 10
-606.86255000000017
 20
83.163062999999994
 30
0.0
 40
1.0
 50
239.6405
 51
270.0
  0
ARC
  5
7D3
  8
0
  6
CONTINUOUS
 62
     7
 10
-606.83520999999985
 20
82.023048000000003
 30
0.0
 40
1.0
 50
236.74527
 51
270.0
  0
ARC
  5
7D4
  8
0
  6
CONTINUOUS
 62
     7
 10
-606.88519000000019
 20
78.646332000000001
 30
0.0
 40
1.0
 50
242.07339999999999
 51
270.0
  0
ARC
  5
7D5
  8
0
  6
CONTINUOUS
 62
     7
 10
-606.85681
 20
77.506317000000024
 30
0.0
 40
1.0
 50
239.0334
 51
270.0
  0
ARC
  5
7D6
  8
0
  6
CONTINUOUS
 62
     7
 10
-606.89458999999999
 20
76.544883999999982
 30
0.0
 40
1.0
 50
243.08874
 51
270.0
  0
ARC
  5
7D7
  8
0
  6
CONTINUOUS
 62
     7
 10
-606.86565999999959
 20
75.398589999999984
 30
0.0
 40
1.0
 50
239.9736
 51
270.0
  0
ARC
  5
7D8
  8
0
  6
CONTINUOUS
 62
     7
 10
-608.13385000000005
 20
77.173912000000001
 30
0.0
 40
1.0
 50
179.99998999999991
 51
243.08874999999981
  0
ARC
  5
7D9
  8
0
  6
CONTINUOUS
 62
     7
 10
-608.13385000000005
 20
76.131561000000005
 30
0.0
 40
1.0
 50
179.99998999999991
 51
239.97361000000001
  0
ARC
  5
7DA
  8
0
  6
CONTINUOUS
 62
     7
 10
-558.13385000000005
 20
67.018332999999998
 30
0.0
 40
2.0
 50
270.0
 51
0.0
  0
ARC
  5
7DB
  8
0
  6
CONTINUOUS
 62
     7
 10
-558.13385000000005
 20
65.170555000000007
 30
0.0
 40
2.0
 50
270.0
 51
0.0
  0
ARC
  5
7DC
  8
0
  6
CONTINUOUS
 62
     7
 10
-495.00771999999989
 20
69.864707999999993
 30
0.0
 40
2.0
 50
270.0
 51
345.0
  0
ARC
  5
7DD
  8
0
  6
CONTINUOUS
 62
     7
 10
-558.13385000000005
 20
64.260032999999993
 30
0.0
 40
2.0
 50
270.0
 51
0.0
  0
ARC
  5
7DE
  8
0
  6
CONTINUOUS
 62
     7
 10
-591.84418000000005
 20
64.260032999999993
 30
0.0
 40
2.0
 50
187.9440399999998
 51
270.0
  0
ARC
  5
7DF
  8
0
  6
CONTINUOUS
 62
     7
 10
-487.48284999999993
 20
163.87098999999981
 30
0.0
 40
1.5
 50
195.00001
 51
270.0
  0
ARC
  5
7E0
  8
0
  6
CONTINUOUS
 62
     7
 10
-495.00771999999989
 20
178.43120999999999
 30
0.0
 40
2.0
 50
15.0
 51
90.000003000000007
  0
ARC
  5
7E1
  8
0
  6
CONTINUOUS
 62
     7
 10
-558.13385000000005
 20
184.03583999999989
 30
0.0
 40
2.0
 50
0.0
 51
90.000003000000007
  0
ARC
  5
7E2
  8
0
  6
CONTINUOUS
 62
     7
 10
-558.13385000000005
 20
183.1253099999999
 30
0.0
 40
2.0
 50
0.0
 51
90.000003000000007
  0
ARC
  5
7E3
  8
0
  6
CONTINUOUS
 62
     7
 10
-558.13385000000005
 20
181.27759
 30
0.0
 40
2.0
 50
0.0
 51
90.000003000000007
  0
ARC
  5
7E4
  8
0
  6
CONTINUOUS
 62
     7
 10
-591.84418000000005
 20
184.03583999999989
 30
0.0
 40
2.0
 50
90.000003000000007
 51
172.05596
  0
ARC
  5
7E5
  8
0
  6
CONTINUOUS
 62
     7
 10
-591.86547999999959
 20
183.1253099999999
 30
0.0
 40
2.0
 50
90.000003000000007
 51
171.3566099999999
  0
ARC
  5
7E6
  8
0
  6
CONTINUOUS
 62
     7
 10
-591.87885000000006
 20
181.27759
 30
0.0
 40
2.0
 50
90.000003000000007
 51
170.91503
  0
ARC
  5
7E7
  8
0
  6
CONTINUOUS
 62
     7
 10
-569.63385000000017
 20
160.87098999999981
 30
0.0
 40
1.5
 50
90.000003000000007
 51
180.00001
  0
ARC
  5
7E8
  8
0
  6
CONTINUOUS
 62
     7
 10
-591.92742999999984
 20
178.43120999999999
 30
0.0
 40
2.0
 50
90.000003000000007
 51
169.28431
  0
ARC
  5
7E9
  8
0
  6
CONTINUOUS
 62
     7
 10
-608.13385000000005
 20
83.907752999999985
 30
0.0
 40
1.0
 50
179.99998999999991
 51
239.64048999999989
  0
ARC
  5
7EA
  8
0
  6
CONTINUOUS
 62
     7
 10
-605.13385000000005
 20
83.163062999999994
 30
0.0
 40
1.0
 50
334.63675999999998
 51
0.0
  0
ARC
  5
7EB
  8
0
  6
CONTINUOUS
 62
     7
 10
-593.45592999999997
 20
89.102806000000001
 30
0.0
 40
1.6779174999999991
 50
90.000003000000007
 51
270.0
  0
ARC
  5
7EC
  8
0
  6
CONTINUOUS
 62
     7
 10
-593.67229999999995
 20
99.123253000000005
 30
0.0
 40
1.4615020999999979
 50
90.000003000000007
 51
270.0
  0
ARC
  5
7ED
  8
0
  6
CONTINUOUS
 62
     7
 10
-593.80291999999986
 20
109.1353899999998
 30
0.0
 40
1.330932599999999
 50
90.000003000000007
 51
270.0
  0
ARC
  5
7EE
  8
0
  6
CONTINUOUS
 62
     7
 10
-593.86492999999984
 20
119.14404999999979
 30
0.0
 40
1.268920899999999
 50
90.000003000000007
 51
270.0
  0
ARC
  5
7EF
  8
0
  6
CONTINUOUS
 62
     7
 10
-593.86492999999984
 20
129.15181999999979
 30
0.0
 40
1.268920899999999
 50
90.000003000000007
 51
270.0
  0
ARC
  5
7F0
  8
0
  6
CONTINUOUS
 62
     7
 10
-593.80291999999986
 20
139.16055
 30
0.0
 40
1.330932599999999
 50
90.000003000000007
 51
270.0
  0
ARC
  5
7F1
  8
0
  6
CONTINUOUS
 62
     7
 10
-593.67235999999957
 20
149.17260999999991
 30
0.0
 40
1.4614868000000001
 50
90.000003000000007
 51
270.0
  0
ARC
  5
7F2
  8
0
  6
CONTINUOUS
 62
     7
 10
-592.58446999999978
 20
99.147971999999996
 30
0.0
 40
1.0
 50
90.000003000000007
 51
270.0
  0
ARC
  5
7F3
  8
0
  6
CONTINUOUS
 62
     7
 10
-592.58446999999978
 20
109.14796
 30
0.0
 40
1.0
 50
90.000003000000007
 51
270.0
  0
ARC
  5
7F4
  8
0
  6
CONTINUOUS
 62
     7
 10
-592.58446999999978
 20
119.14796
 30
0.0
 40
1.0
 50
90.000003000000007
 51
270.0
  0
ARC
  5
7F5
  8
0
  6
CONTINUOUS
 62
     7
 10
-592.58446999999978
 20
129.1479799999999
 30
0.0
 40
1.0
 50
90.000003000000007
 51
270.0
  0
ARC
  5
7F6
  8
0
  6
CONTINUOUS
 62
     7
 10
-592.58446999999978
 20
139.14796000000001
 30
0.0
 40
1.0
 50
90.000003000000007
 51
270.0
  0
ARC
  5
7F7
  8
0
  6
CONTINUOUS
 62
     7
 10
-592.58446999999978
 20
149.14796000000001
 30
0.0
 40
1.0
 50
90.000003000000007
 51
270.0
  0
ARC
  5
7F8
  8
0
  6
CONTINUOUS
 62
     7
 10
-592.58446999999978
 20
159.14796000000001
 30
0.0
 40
1.0
 50
90.000003000000007
 51
270.0
  0
ARC
  5
7F9
  8
0
  6
CONTINUOUS
 62
     7
 10
-593.45654000000002
 20
159.19305
 30
0.0
 40
1.6779127
 50
90.000003000000007
 51
270.0
  0
ARC
  5
7FA
  8
0
  6
CONTINUOUS
 62
     7
 10
-509.63384999999988
 20
152.64795000000001
 30
0.0
 40
1.5
 50
0.0
 51
90.000003000000007
  0
ARC
  5
7FB
  8
0
  6
CONTINUOUS
 62
     7
 10
-509.63384999999988
 20
95.647957000000005
 30
0.0
 40
1.5
 50
270.0
 51
0.0
  0
ARC
  5
7FC
  8
0
  6
CONTINUOUS
 62
     7
 10
-605.13385000000005
 20
107.14796
 30
0.0
 40
1.0
 50
0.0
 51
90.000003000000007
  0
ARC
  5
7FD
  8
0
  6
CONTINUOUS
 62
     7
 10
-605.13385000000005
 20
111.14797
 30
0.0
 40
1.0
 50
270.0
 51
0.0
  0
ARC
  5
7FE
  8
0
  6
CONTINUOUS
 62
     7
 10
-605.13385000000005
 20
117.14797
 30
0.0
 40
1.0
 50
0.0
 51
90.000003000000007
  0
ARC
  5
7FF
  8
0
  6
CONTINUOUS
 62
     7
 10
-605.13385000000005
 20
121.14796
 30
0.0
 40
1.0
 50
270.0
 51
0.0
  0
ARC
  5
800
  8
0
  6
CONTINUOUS
 62
     7
 10
-608.13385000000005
 20
119.14796
 30
0.0
 40
1.0
 50
90.000003000000007
 51
180.00001
  0
ARC
  5
801
  8
0
  6
CONTINUOUS
 62
     7
 10
-608.13385000000005
 20
119.14796
 30
0.0
 40
1.0
 50
179.99998999999991
 51
270.0
  0
ARC
  5
802
  8
0
  6
CONTINUOUS
 62
     7
 10
-608.13385000000005
 20
109.14796
 30
0.0
 40
1.0
 50
90.000003000000007
 51
180.00001
  0
ARC
  5
803
  8
0
  6
CONTINUOUS
 62
     7
 10
-608.13385000000005
 20
109.14796
 30
0.0
 40
1.0
 50
179.99998999999991
 51
270.0
  0
ARC
  5
804
  8
0
  6
CONTINUOUS
 62
     7
 10
-608.13385000000005
 20
99.147971999999996
 30
0.0
 40
1.0
 50
90.000003000000007
 51
180.00001
  0
ARC
  5
805
  8
0
  6
CONTINUOUS
 62
     7
 10
-608.13385000000005
 20
99.147971999999996
 30
0.0
 40
1.0
 50
179.99998999999991
 51
270.0
  0
ARC
  5
806
  8
0
  6
CONTINUOUS
 62
     7
 10
-608.13385000000005
 20
89.973220999999981
 30
0.0
 40
1.0
 50
179.99998999999991
 51
246.8729799999999
  0
ARC
  5
807
  8
0
  6
CONTINUOUS
 62
     7
 10
-608.13385000000005
 20
91.758681999999993
 30
0.0
 40
1.0
 50
179.99998999999991
 51
252.90236999999999
  0
ARC
  5
808
  8
0
  6
CONTINUOUS
 62
     7
 10
-606.98351999999988
 20
91.404808000000003
 30
0.0
 40
1.0
 50
252.90236999999999
 51
270.0
  0
ARC
  5
809
  8
0
  6
CONTINUOUS
 62
     7
 10
-606.92920000000004
 20
89.458693999999966
 30
0.0
 40
1.0
 50
246.87297000000001
 51
270.0
  0
ARC
  5
80A
  8
0
  6
CONTINUOUS
 62
     7
 10
-604.83385999999996
 20
87.758758999999998
 30
0.0
 40
0.6999999900000004
 50
0.0
 51
90.000003000000007
  0
ARC
  5
80B
  8
0
  6
CONTINUOUS
 62
     7
 10
-605.13385000000005
 20
97.147957000000005
 30
0.0
 40
1.0
 50
0.0
 51
90.000003000000007
  0
ARC
  5
80C
  8
0
  6
CONTINUOUS
 62
     7
 10
-605.13385000000005
 20
101.1479599999999
 30
0.0
 40
1.0
 50
270.0
 51
0.0
  0
ARC
  5
80D
  8
0
  6
CONTINUOUS
 62
     7
 10
-605.13385000000005
 20
91.404808000000003
 30
0.0
 40
1.0
 50
270.0
 51
0.0
  0
ARC
  5
80E
  8
0
  6
CONTINUOUS
 62
     7
 10
-490.31180000000001
 20
89.102806000000001
 30
0.0
 40
1.6779127
 50
270.0
 51
90.000003000000007
  0
ARC
  5
80F
  8
0
  6
CONTINUOUS
 62
     7
 10
-493.78951999999981
 20
89.147964000000002
 30
0.0
 40
1.0
 50
270.0
 51
90.000003000000007
  0
ARC
  5
810
  8
0
  6
CONTINUOUS
 62
     7
 10
-493.78951999999981
 20
159.14796000000001
 30
0.0
 40
1.0
 50
270.0
 51
90.000003000000007
  0
ARC
  5
811
  8
0
  6
CONTINUOUS
 62
     7
 10
-490.31180000000001
 20
159.19305
 30
0.0
 40
1.6779127
 50
270.0
 51
90.000003000000007
  0
ARC
  5
812
  8
0
  6
CONTINUOUS
 62
     7
 10
-506.83385999999967
 20
91.780724000000006
 30
0.0
 40
1.0
 50
179.99998999999991
 51
270.0
  0
ARC
  5
813
  8
0
  6
CONTINUOUS
 62
     7
 10
-506.83385999999967
 20
156.5151399999998
 30
0.0
 40
1.0
 50
90.000003000000007
 51
180.00001
  0
ARC
  5
814
  8
0
  6
CONTINUOUS
 62
     7
 10
-592.58446999999978
 20
89.147964000000002
 30
0.0
 40
1.0
 50
90.000003000000007
 51
270.0
  0
ARC
  5
815
  8
0
  6
CONTINUOUS
 62
     7
 10
-604.63385000000005
 20
174.3973499999999
 30
0.0
 40
0.5
 50
270.0
 51
0.0
  0
ARC
  5
816
  8
0
  6
CONTINUOUS
 62
     7
 10
-604.63385000000005
 20
172.2510399999999
 30
0.0
 40
0.5
 50
0.0
 51
90.000003000000007
  0
ARC
  5
817
  8
0
  6
CONTINUOUS
 62
     7
 10
-605.13385000000005
 20
169.64961
 30
0.0
 40
1.0
 50
0.0
 51
90.000003000000007
  0
ARC
  5
818
  8
0
  6
CONTINUOUS
 62
     7
 10
-604.83385999999996
 20
160.5371899999999
 30
0.0
 40
0.6999999900000004
 50
270.0
 51
0.0
  0
ARC
  5
819
  8
0
  6
CONTINUOUS
 62
     7
 10
-605.13385000000005
 20
165.13289
 30
0.0
 40
1.0
 50
0.0
 51
90.000003000000007
  0
ARC
  5
81A
  8
0
  6
CONTINUOUS
 62
     7
 10
-605.13385000000005
 20
156.89105000000001
 30
0.0
 40
1.0
 50
0.0
 51
90.000003000000007
  0
ARC
  5
81B
  8
0
  6
CONTINUOUS
 62
     7
 10
-605.13385000000005
 20
151.14795000000001
 30
0.0
 40
1.0
 50
270.0
 51
0.0
  0
ARC
  5
81C
  8
0
  6
CONTINUOUS
 62
     7
 10
-605.13385000000005
 20
147.14797999999999
 30
0.0
 40
1.0
 50
0.0
 51
90.000003000000007
  0
ARC
  5
81D
  8
0
  6
CONTINUOUS
 62
     7
 10
-605.13385000000005
 20
141.1479799999999
 30
0.0
 40
1.0
 50
270.0
 51
0.0
  0
ARC
  5
81E
  8
0
  6
CONTINUOUS
 62
     7
 10
-605.13385000000005
 20
137.14796000000001
 30
0.0
 40
1.0
 50
0.0
 51
90.000003000000007
  0
ARC
  5
81F
  8
0
  6
CONTINUOUS
 62
     7
 10
-605.13385000000005
 20
131.14796000000001
 30
0.0
 40
1.0
 50
270.0
 51
0.0
  0
ARC
  5
820
  8
0
  6
CONTINUOUS
 62
     7
 10
-605.13385000000005
 20
127.14796
 30
0.0
 40
1.0
 50
0.0
 51
90.000003000000007
  0
ARC
  5
821
  8
0
  6
CONTINUOUS
 62
     7
 10
-608.13385000000005
 20
129.1479799999999
 30
0.0
 40
1.0
 50
179.99998999999991
 51
270.0
  0
ARC
  5
822
  8
0
  6
CONTINUOUS
 62
     7
 10
-608.13385000000005
 20
129.1479799999999
 30
0.0
 40
1.0
 50
90.000003000000007
 51
180.00001
  0
ARC
  5
823
  8
0
  6
CONTINUOUS
 62
     7
 10
-608.13385000000005
 20
139.14796000000001
 30
0.0
 40
1.0
 50
179.99998999999991
 51
270.0
  0
ARC
  5
824
  8
0
  6
CONTINUOUS
 62
     7
 10
-608.13385000000005
 20
139.14796000000001
 30
0.0
 40
1.0
 50
90.000003000000007
 51
180.00001
  0
ARC
  5
825
  8
0
  6
CONTINUOUS
 62
     7
 10
-608.13385000000005
 20
149.14796000000001
 30
0.0
 40
1.0
 50
179.99998999999991
 51
270.0
  0
ARC
  5
826
  8
0
  6
CONTINUOUS
 62
     7
 10
-608.13385000000005
 20
149.14796000000001
 30
0.0
 40
1.0
 50
90.000003000000007
 51
180.00001
  0
ARC
  5
827
  8
0
  6
CONTINUOUS
 62
     7
 10
-608.13385000000005
 20
158.32271
 30
0.0
 40
1.0
 50
113.12703
 51
180.00001
  0
ARC
  5
828
  8
0
  6
CONTINUOUS
 62
     7
 10
-608.13385000000005
 20
156.53725
 30
0.0
 40
1.0
 50
107.0976299999999
 51
180.00001
  0
ARC
  5
829
  8
0
  6
CONTINUOUS
 62
     7
 10
-606.98351999999988
 20
156.89105000000001
 30
0.0
 40
1.0
 50
90.000003000000007
 51
107.0976299999999
  0
ARC
  5
82A
  8
0
  6
CONTINUOUS
 62
     7
 10
-606.92920000000004
 20
158.8371699999999
 30
0.0
 40
1.0
 50
90.000003000000007
 51
113.12703
  0
ARC
  5
82B
  8
0
  6
CONTINUOUS
 62
     7
 10
-608.13385000000005
 20
170.02326999999991
 30
0.0
 40
1.0
 50
120.9666
 51
180.00001
  0
ARC
  5
82C
  8
0
  6
CONTINUOUS
 62
     7
 10
-608.13385000000005
 20
168.9876899999999
 30
0.0
 40
1.0
 50
117.92659999999979
 51
180.00001
  0
ARC
  5
82D
  8
0
  6
CONTINUOUS
 62
     7
 10
-608.13385000000005
 20
165.42127999999991
 30
0.0
 40
1.0
 50
123.25473
 51
180.00001
  0
ARC
  5
82E
  8
0
  6
CONTINUOUS
 62
     7
 10
-608.13385000000005
 20
164.38820000000001
 30
0.0
 40
1.0
 50
120.3594999999999
 51
180.00001
  0
ARC
  5
82F
  8
0
  6
CONTINUOUS
 62
     7
 10
-606.86255000000017
 20
165.13289
 30
0.0
 40
1.0
 50
90.000003000000007
 51
120.3594999999999
  0
ARC
  5
830
  8
0
  6
CONTINUOUS
 62
     7
 10
-606.83520999999985
 20
166.27282999999991
 30
0.0
 40
1.0
 50
90.000003000000007
 51
123.25473
  0
ARC
  5
831
  8
0
  6
CONTINUOUS
 62
     7
 10
-606.88519000000019
 20
169.64961
 30
0.0
 40
1.0
 50
90.000003000000007
 51
117.92659999999979
  0
ARC
  5
832
  8
0
  6
CONTINUOUS
 62
     7
 10
-606.85681
 20
170.78956999999991
 30
0.0
 40
1.0
 50
90.000003000000007
 51
120.9666
  0
ARC
  5
833
  8
0
  6
CONTINUOUS
 62
     7
 10
-606.89458999999999
 20
171.75104999999991
 30
0.0
 40
1.0
 50
90.000003000000007
 51
116.91126
  0
ARC
  5
834
  8
0
  6
CONTINUOUS
 62
     7
 10
-606.86565999999959
 20
172.8973499999999
 30
0.0
 40
1.0
 50
90.000003000000007
 51
120.0264
  0
ARC
  5
835
  8
0
  6
CONTINUOUS
 62
     7
 10
-608.13385000000005
 20
171.12200999999999
 30
0.0
 40
1.0
 50
116.91126
 51
180.00001
  0
ARC
  5
836
  8
0
  6
CONTINUOUS
 62
     7
 10
-608.13385000000005
 20
172.16432
 30
0.0
 40
1.0
 50
120.0264
 51
180.00001
  0
ARC
  5
837
  8
0
  6
CONTINUOUS
 62
     3
 10
-560.63385000000005
 20
146.64774
 30
0.0
 40
5.5
 50
264.78411999999992
 51
5.2159094000000001
  0
CIRCLE
  5
838
  8
0
  6
CONTINUOUS
 62
     7
 10
-145.2809399999999
 20
147.34795
 30
0.0
 40
4.0
  0
ARC
  5
839
  8
0
  6
CONTINUOUS
 62
     7
 10
-145.2809399999999
 20
147.34795
 30
0.0
 40
14.00000099999999
 50
106.6015399999999
 51
73.398452000000006
  0
CIRCLE
  5
83A
  8
0
  6
CONTINUOUS
 62
     7
 10
-145.2809399999999
 20
147.34795
 30
0.0
 40
3.0
  0
ARC
  5
83B
  8
0
  6
CONTINUOUS
 62
     7
 10
-410.63222999999999
 20
78.211853000000005
 30
0.0
 40
7.331658799999996
 50
90.000003000000007
 51
270.0
  0
ARC
  5
83C
  8
0
  6
CONTINUOUS
 62
     7
 10
-145.2809399999999
 20
124.14796
 30
0.0
 40
81.0
 50
93.75419500000001
 51
121.13906
  0
ARC
  5
83D
  8
0
  6
CONTINUOUS
 62
     7
 10
-145.2809399999999
 20
124.14796
 30
0.0
 40
76.0
 50
358.60644999999982
 51
12.760202
  0
ARC
  5
83E
  8
0
  6
CONTINUOUS
 62
     7
 10
-145.2809399999999
 20
124.14796
 30
0.0
 40
76.0
 50
167.2398
 51
181.39354
  0
ARC
  5
83F
  8
0
  6
CONTINUOUS
 62
     7
 10
-145.2809399999999
 20
147.34795
 30
0.0
 40
74.400002000000001
 50
171.8834499999999
 51
184.9454199999999
  0
ARC
  5
840
  8
0
  6
CONTINUOUS
 62
     7
 10
-220.39597999999981
 20
222.4629799999999
 30
0.0
 40
15.0
 50
92.999999000000017
 51
176.99999
  0
ARC
  5
841
  8
0
  6
CONTINUOUS
 62
     7
 10
-70.165931999999984
 20
222.4629799999999
 30
0.0
 40
15.0
 50
3.0000000999999981
 51
86.999998999999988
  0
ARC
  5
842
  8
0
  6
CONTINUOUS
 62
     7
 10
-70.165931999999984
 20
72.23292499999998
 30
0.0
 40
15.0
 50
273.0
 51
357.0
  0
ARC
  5
843
  8
0
  6
CONTINUOUS
 62
     7
 10
-139.78093999999979
 20
207.96771000000001
 30
0.0
 40
3.0
 50
180.00001
 51
266.24579999999992
  0
ARC
  5
844
  8
0
  6
CONTINUOUS
 62
     7
 10
-70.165931999999984
 20
222.4629799999999
 30
0.0
 40
15.0
 50
3.0000000999999981
 51
86.999998999999988
  0
ARC
  5
845
  8
0
  6
CONTINUOUS
 62
     7
 10
-150.78093999999999
 20
218.53579999999991
 30
0.0
 40
3.0
 50
0.0
 51
94.417918999999998
  0
ARC
  5
846
  8
0
  6
CONTINUOUS
 62
     7
 10
-70.165931999999984
 20
72.23292499999998
 30
0.0
 40
15.0
 50
273.0
 51
357.0
  0
ARC
  5
847
  8
0
  6
CONTINUOUS
 62
     7
 10
-139.78093999999979
 20
218.53579999999991
 30
0.0
 40
3.0
 50
85.582086000000032
 51
180.00001
  0
ARC
  5
848
  8
0
  6
CONTINUOUS
 62
     7
 10
-145.2809399999999
 20
147.34795
 30
0.0
 40
74.400002000000001
 50
355.05457999999999
 51
8.1165494000000002
  0
ARC
  5
849
  8
0
  6
CONTINUOUS
 62
     7
 10
-220.39597999999981
 20
72.23292499999998
 30
0.0
 40
15.0
 50
183.00001
 51
267.0
  0
ARC
  5
84A
  8
0
  6
CONTINUOUS
 62
     7
 10
-351.98858999999987
 20
138.11571999999981
 30
0.0
 40
24.83221099999999
 50
169.38167999999999
 51
218.79320999999999
  0
ARC
  5
84B
  8
0
  6
CONTINUOUS
 62
     7
 10
-145.2809399999999
 20
124.14796
 30
0.0
 40
81.0
 50
125.47417
 51
155.4112299999999
  0
ARC
  5
84C
  8
0
  6
CONTINUOUS
 62
     7
 10
-396.46609000000001
 20
170.39796000000001
 30
0.0
 40
24.83221099999999
 50
349.38167999999979
 51
47.544066000000001
  0
ARC
  5
84D
  8
0
  6
CONTINUOUS
 62
     7
 10
-101.28095
 20
124.14796
 30
0.0
 40
5.0
 50
179.99998999999991
 51
270.0
  0
ARC
  5
84E
  8
0
  6
CONTINUOUS
 62
     7
 10
-367.63387999999992
 20
57.605339000000001
 30
0.0
 40
3.0
 50
179.99998999999991
 51
271.99998999999991
  0
ARC
  5
84F
  8
0
  6
CONTINUOUS
 62
     7
 10
-367.63387999999992
 20
92.977317999999997
 30
0.0
 40
3.0
 50
90.000003000000007
 51
180.00001
  0
ARC
  5
850
  8
0
  6
CONTINUOUS
 62
     7
 10
-145.2809399999999
 20
147.34795
 30
0.0
 40
39.000011000000001
 50
0.0
 51
36.786791000000001
  0
ARC
  5
851
  8
0
  6
CONTINUOUS
 62
     7
 10
-369.63384999999988
 20
217.52025
 30
0.0
 40
3.0
 50
0.0
 51
91.999998000000005
  0
ARC
  5
852
  8
0
  6
CONTINUOUS
 62
     7
 10
-369.63384999999988
 20
76.847960999999984
 30
0.0
 40
3.0
 50
270.0
 51
0.0
  0
ARC
  5
853
  8
0
  6
CONTINUOUS
 62
     7
 10
-170.43218999999999
 20
180.98447999999999
 30
0.0
 40
3.0
 50
225.0
 51
306.78678999999988
  0
ARC
  5
854
  8
0
  6
CONTINUOUS
 62
     7
 10
-178.91747000000001
 20
172.49919
 30
0.0
 40
3.0
 50
323.21321
 51
45.00000099999999
  0
ARC
  5
855
  8
0
  6
CONTINUOUS
 62
     7
 10
-145.2809399999999
 20
147.34795
 30
0.0
 40
39.000011000000001
 50
53.213208000000002
 51
126.78679
  0
ARC
  5
856
  8
0
  6
CONTINUOUS
 62
     7
 10
-195.3199799999999
 20
205.8722699999999
 30
0.0
 40
3.0
 50
130.5308599999999
 51
225.0
  0
ARC
  5
857
  8
0
  6
CONTINUOUS
 62
     7
 10
-145.2809399999999
 20
124.14796
 30
0.0
 40
81.0
 50
58.860945000000001
 51
86.245803000000024
  0
ARC
  5
858
  8
0
  6
CONTINUOUS
 62
     7
 10
-145.2809399999999
 20
147.34795
 30
0.0
 40
39.000011000000001
 50
143.21321
 51
180.00001
  0
ARC
  5
859
  8
0
  6
CONTINUOUS
 62
     7
 10
-189.28095999999991
 20
124.14796
 30
0.0
 40
5.0
 50
270.0
 51
0.0
  0
ARC
  5
85A
  8
0
  6
CONTINUOUS
 62
     7
 10
-176.6131
 20
44.058669999999992
 30
0.0
 40
5.0
 50
68.633797999999999
 51
143.26125999999991
  0
ARC
  5
85B
  8
0
  6
CONTINUOUS
 62
     7
 10
-187.03093000000001
 20
51.83485000000001
 30
0.0
 40
8.0
 50
156.73873999999981
 51
323.26127000000002
  0
ARC
  5
85C
  8
0
  6
CONTINUOUS
 62
     7
 10
-103.53098
 20
51.83485000000001
 30
0.0
 40
8.0
 50
216.73873999999989
 51
23.26125799999998
  0
ARC
  5
85D
  8
0
  6
CENTER
 62
     7
 10
-145.2809399999999
 20
147.34795
 30
0.0
 40
107.50001
 50
38.027231999999991
 51
51.472554999999993
  0
ARC
  5
85E
  8
0
  6
CONTINUOUS
 62
     7
 10
-145.2809399999999
 20
124.14796
 30
0.0
 40
81.0
 50
248.63379999999989
 51
270.0
  0
ARC
  5
85F
  8
0
  6
CONTINUOUS
 62
     7
 10
-113.94880000000001
 20
44.058669999999992
 30
0.0
 40
5.0
 50
36.738737
 51
111.36621
  0
CIRCLE
  5
860
  8
0
  6
CONTINUOUS
 62
     7
 10
-69.266991000000004
 20
223.36194
 30
0.0
 40
6.0
  0
CIRCLE
  5
861
  8
0
  6
CONTINUOUS
 62
     7
 10
-221.2949399999998
 20
223.36194
 30
0.0
 40
6.0
  0
ARC
  5
862
  8
0
  6
CENTER
 62
     7
 10
-145.2809399999999
 20
147.34795
 30
0.0
 40
107.50001
 50
128.23754
 51
141.54787999999991
  0
ARC
  5
863
  8
0
  6
CONTINUOUS
 62
     7
 10
-203.80525
 20
197.38697999999991
 30
0.0
 40
3.0
 50
45.00000099999999
 51
139.4691399999999
  0
ARC
  5
864
  8
0
  6
CONTINUOUS
 62
     7
 10
-220.39597999999981
 20
72.23292499999998
 30
0.0
 40
15.0
 50
183.00001
 51
267.0
  0
ARC
  5
865
  8
0
  6
CENTER
 62
     7
 10
-145.2809399999999
 20
147.34795
 30
0.0
 40
107.50001
 50
219.06144
 51
231.21168999999989
  0
CIRCLE
  5
866
  8
0
  6
CONTINUOUS
 62
     7
 10
-221.2949399999998
 20
71.333992000000023
 30
0.0
 40
6.0
  0
ARC
  5
867
  8
0
  6
CONTINUOUS
 62
     7
 10
-368.63387999999992
 20
237.56734999999989
 30
0.0
 40
2.0
 50
91.999998000000005
 51
180.00001
  0
CIRCLE
  5
868
  8
0
  6
CONTINUOUS
 62
     7
 10
-145.2809399999999
 20
147.34796
 30
0.0
 40
29.0
  0
CIRCLE
  5
869
  8
0
  6
CONTINUOUS
 62
     7
 10
-69.266991000000004
 20
71.333992000000023
 30
0.0
 40
6.0
  0
CIRCLE
  5
86A
  8
0
  6
CONTINUOUS
 62
     7
 10
-145.2809399999999
 20
147.34795
 30
0.0
 40
80.0
  0
ARC
  5
86B
  8
0
  6
CONTINUOUS
 62
     7
 10
-145.2809399999999
 20
124.14796
 30
0.0
 40
81.0
 50
24.588774999999998
 51
54.525830000000013
  0
CIRCLE
  5
86C
  8
0
  6
CONTINUOUS
 62
     7
 10
-145.2809399999999
 20
147.34795
 30
0.0
 40
85.0
  0
ARC
  5
86D
  8
0
  6
CONTINUOUS
 62
     7
 10
-86.756653
 20
197.38697999999991
 30
0.0
 40
3.0
 50
40.530864999999999
 51
135.0
  0
ARC
  5
86E
  8
0
  6
CONTINUOUS
 62
     7
 10
-120.12969
 20
180.98447999999999
 30
0.0
 40
3.0
 50
233.21321
 51
315.0
  0
ARC
  5
86F
  8
0
  6
CENTER
 62
     7
 10
-145.2809399999999
 20
147.34795
 30
0.0
 40
107.50001
 50
308.94763
 51
321.25590999999997
  0
ARC
  5
870
  8
0
  6
CONTINUOUS
 62
     7
 10
-111.64444
 20
172.49919
 30
0.0
 40
3.0
 50
135.0
 51
216.78679
  0
ARC
  5
871
  8
0
  6
CONTINUOUS
 62
     7
 10
-95.241943000000006
 20
205.8722699999999
 30
0.0
 40
3.0
 50
315.0
 51
49.469136999999989
  0
ARC
  5
872
  8
0
  6
CONTINUOUS
 62
     7
 10
-220.39597999999981
 20
222.4629799999999
 30
0.0
 40
15.0
 50
92.999999000000017
 51
176.99999
  0
ARC
  5
873
  8
0
  6
CONTINUOUS
 62
     7
 10
-145.2809399999999
 20
124.14796
 30
0.0
 40
81.0
 50
270.0
 51
291.36619999999999
  0
ARC
  5
874
  8
0
  6
CONTINUOUS
 62
     7
 10
-150.78093999999999
 20
207.96771000000001
 30
0.0
 40
3.0
 50
273.75420000000003
 51
0.0
  0
ARC
  5
875
  8
0
  6
CONTINUOUS
 62
     7
 10
-400.34224999999998
 20
209.38220000000001
 30
0.0
 40
3.0
 50
272.0
 51
315.0
  0
ARC
  5
876
  8
0
  6
CONTINUOUS
 62
     7
 10
-367.63387999999992
 20
198.4731899999999
 30
0.0
 40
3.0
 50
179.99998999999991
 51
270.0
  0
ARC
  5
877
  8
0
  6
CONTINUOUS
 62
     7
 10
-369.00484999999992
 20
124.43760999999991
 30
0.0
 40
3.0
 50
218.79321999999999
 51
270.0
  0
ARC
  5
878
  8
0
  6
CONTINUOUS
 62
     7
 10
-375.86365000000001
 20
323.75366000000002
 30
0.0
 40
5.0
 50
45.00000099999999
 51
88.0
  0
ARC
  5
879
  8
0
  6
CONTINUOUS
 62
     7
 10
-369.63384999999988
 20
342.92257999999993
 30
0.0
 40
3.0
 50
268.0
 51
0.0
  0
ARC
  5
87A
  8
0
  6
CONTINUOUS
 62
     7
 10
-368.63382000000001
 20
322.87549000000001
 30
0.0
 40
2.0
 50
179.99998999999991
 51
268.00000999999992
  0
ARC
  5
87B
  8
0
  6
CONTINUOUS
 62
     7
 10
-367.63384999999988
 20
464.22012000000001
 30
0.0
 40
3.0
 50
179.99998999999991
 51
270.0
  0
ARC
  5
87C
  8
0
  6
CONTINUOUS
 62
     7
 10
-368.63382000000001
 20
503.31426999999991
 30
0.0
 40
2.0
 50
91.999998000000005
 51
180.00001
  0
ARC
  5
87D
  8
0
  6
CONTINUOUS
 62
     7
 10
-346.63387999999992
 20
413.09485000000001
 30
0.0
 40
3.9999962
 50
90.000003000000007
 51
270.0
  0
ARC
  5
87E
  8
0
  6
CONTINUOUS
 62
     7
 10
-369.63384999999988
 20
483.26717999999988
 30
0.0
 40
3.0
 50
0.0
 51
91.999998000000005
  0
ARC
  5
87F
  8
0
  6
CONTINUOUS
 62
     7
 10
-375.86365000000001
 20
502.43609999999978
 30
0.0
 40
5.0
 50
272.0
 51
315.0
  0
ARC
  5
880
  8
0
  6
CONTINUOUS
 62
     7
 10
-367.63384999999988
 20
361.96963999999991
 30
0.0
 40
3.0
 50
90.000003000000007
 51
180.00001
  0
POLYLINE
  5
881
  8
0
  6
CONTINUOUS
 62
     7
 66
     1
 10
0.0
 20
0.0
 30
0.0
  0
VERTEX
  5
882
  8
0
  6
CONTINUOUS
 62
     7
 10
-592.77380000000005
 20
413.09487999999988
 30
0.0
 42
0.00034747618
  0
VERTEX
  5
883
  8
0
  6
CONTINUOUS
 62
     7
 10
-592.77620999999976
 20
412.78375
 30
0.0
 42
0.0004057423
  0
VERTEX
  5
884
  8
0
  6
CONTINUOUS
 62
     7
 10
-592.77810999999986
 20
412.47264000000001
 30
0.0
 42
0.0003970523
  0
VERTEX
  5
885
  8
0
  6
CONTINUOUS
 62
     7
 10
-592.77953999999988
 20
412.16153000000003
 30
0.0
 42
0.00038766493
  0
VERTEX
  5
886
  8
0
  6
CONTINUOUS
 62
     7
 10
-592.78047000000004
 20
411.85039
 30
0.0
 42
0.00040613778
  0
VERTEX
  5
887
  8
0
  6
CONTINUOUS
 62
     7
 10
-592.78092000000004
 20
411.53927999999991
 30
0.0
 42
0.00035571853
  0
VERTEX
  5
888
  8
0
  6
CONTINUOUS
 62
     7
 10
-592.78088000000002
 20
411.22817999999978
 30
0.0
 42
0.00034187235
  0
VERTEX
  5
889
  8
0
  6
CONTINUOUS
 62
     7
 10
-592.78044
 20
410.91703999999999
 30
0.0
 42
0.00050755129
  0
VERTEX
  5
88A
  8
0
  6
CONTINUOUS
 62
     7
 10
-592.77945999999963
 20
410.60593999999992
 30
0.0
 42
0.00031405455
  0
VERTEX
  5
88B
  8
0
  6
CONTINUOUS
 62
     7
 10
-592.77795000000003
 20
410.29470999999972
 30
0.0
 42
0.0003831987
  0
VERTEX
  5
88C
  8
0
  6
CONTINUOUS
 62
     7
 10
-592.77604000000019
 20
409.98356999999982
 30
0.0
 42
0.00030570555
  0
VERTEX
  5
88D
  8
0
  6
CONTINUOUS
 62
     7
 10
-592.77367000000004
 20
409.67234000000002
 30
0.0
 42
0.00044501307
  0
VERTEX
  5
88E
  8
0
  6
CONTINUOUS
 62
     7
 10
-592.77087000000006
 20
409.36124000000001
 30
0.0
  0
SEQEND
  5
88F
  8
0
 62
     7
  0
POLYLINE
  5
890
  8
0
  6
CONTINUOUS
 62
     7
 66
     1
 10
0.0
 20
0.0
 30
0.0
  0
VERTEX
  5
891
  8
0
  6
CONTINUOUS
 62
     7
 10
-592.72973999999965
 20
406.8244899999998
 30
0.0
 42
0.00074501045
  0
VERTEX
  5
892
  8
0
  6
CONTINUOUS
 62
     7
 10
-592.71498999999994
 20
406.20672999999988
 30
0.0
 42
0.00078382358
  0
VERTEX
  5
893
  8
0
  6
CONTINUOUS
 62
     7
 10
-592.69835
 20
405.58912999999978
 30
0.0
 42
0.00074332135
  0
VERTEX
  5
894
  8
0
  6
CONTINUOUS
 62
     7
 10
-592.67980999999997
 20
404.97147000000001
 30
0.0
 42
0.00075144469
  0
VERTEX
  5
895
  8
0
  6
CONTINUOUS
 62
     7
 10
-592.6594399999999
 20
404.35385999999988
 30
0.0
 42
0.00073475781
  0
VERTEX
  5
896
  8
0
  6
CONTINUOUS
 62
     7
 10
-592.63722000000018
 20
403.73642999999998
 30
0.0
 42
0.00077737158
  0
VERTEX
  5
897
  8
0
  6
CONTINUOUS
 62
     7
 10
-592.61315999999965
 20
403.11905000000002
 30
0.0
 42
0.00075773232
  0
VERTEX
  5
898
  8
0
  6
CONTINUOUS
 62
     7
 10
-592.58717999999999
 20
402.50164999999993
 30
0.0
 42
0.00073477315
  0
VERTEX
  5
899
  8
0
  6
CONTINUOUS
 62
     7
 10
-592.55934000000002
 20
401.88425999999998
 30
0.0
 42
0.00077014563
  0
VERTEX
  5
89A
  8
0
  6
CONTINUOUS
 62
     7
 10
-592.52965999999981
 20
401.26687999999979
 30
0.0
 42
0.00077088287
  0
VERTEX
  5
89B
  8
0
  6
CONTINUOUS
 62
     7
 10
-592.49806000000001
 20
400.64974999999998
 30
0.0
 42
0.0007348301
  0
VERTEX
  5
89C
  8
0
  6
CONTINUOUS
 62
     7
 10
-592.46461999999985
 20
400.03270999999989
 30
0.0
 42
0.00075616136
  0
VERTEX
  5
89D
  8
0
  6
CONTINUOUS
 62
     7
 10
-592.42932000000008
 20
399.41568000000001
 30
0.0
  0
SEQEND
  5
89E
  8
0
 62
     7
  0
POLYLINE
  5
89F
  8
0
  6
CONTINUOUS
 62
     7
 66
     1
 10
0.0
 20
0.0
 30
0.0
  0
VERTEX
  5
8A0
  8
0
  6
CONTINUOUS
 62
     7
 10
-592.25562000000002
 20
396.7543
 30
0.0
 42
0.00073721987
  0
VERTEX
  5
8A1
  8
0
  6
CONTINUOUS
 62
     7
 10
-592.21145999999965
 20
396.15190000000001
 30
0.0
 42
0.00074398499
  0
VERTEX
  5
8A2
  8
0
  6
CONTINUOUS
 62
     7
 10
-592.16552999999999
 20
395.54962999999998
 30
0.0
 42
0.00073322628
  0
VERTEX
  5
8A3
  8
0
  6
CONTINUOUS
 62
     7
 10
-592.11779999999999
 20
394.94729999999993
 30
0.0
 42
0.00075831517
  0
VERTEX
  5
8A4
  8
0
  6
CONTINUOUS
 62
     7
 10
-592.06826999999976
 20
394.34530999999993
 30
0.0
 42
0.00069523192
  0
VERTEX
  5
8A5
  8
0
  6
CONTINUOUS
 62
     7
 10
-592.0170099999998
 20
393.74343999999991
 30
0.0
 42
0.00075453058
  0
VERTEX
  5
8A6
  8
0
  6
CONTINUOUS
 62
     7
 10
-591.96398999999985
 20
393.14162999999979
 30
0.0
 42
0.00074184059
  0
VERTEX
  5
8A7
  8
0
  6
CONTINUOUS
 62
     7
 10
-591.90917000000002
 20
392.54009999999988
 30
0.0
 42
0.00074685399
  0
VERTEX
  5
8A8
  8
0
  6
CONTINUOUS
 62
     7
 10
-591.85257999999999
 20
391.93887000000001
 30
0.0
 42
0.00072743001
  0
VERTEX
  5
8A9
  8
0
  6
CONTINUOUS
 62
     7
 10
-591.79418999999984
 20
391.33767999999992
 30
0.0
 42
0.00072055497
  0
VERTEX
  5
8AA
  8
0
  6
CONTINUOUS
 62
     7
 10
-591.73407999999995
 20
390.73665
 30
0.0
 42
0.00075109124
  0
VERTEX
  5
8AB
  8
0
  6
CONTINUOUS
 62
     7
 10
-591.67218999999966
 20
390.13591000000002
 30
0.0
 42
0.00074640586
  0
VERTEX
  5
8AC
  8
0
  6
CONTINUOUS
 62
     7
 10
-591.60852
 20
389.53530999999992
 30
0.0
  0
SEQEND
  5
8AD
  8
0
 62
     7
  0
POLYLINE
  5
8AE
  8
0
  6
CONTINUOUS
 62
     7
 66
     1
 10
0.0
 20
0.0
 30
0.0
  0
VERTEX
  5
8AF
  8
0
  6
CONTINUOUS
 62
     7
 10
-591.27295000000004
 20
386.61185
 30
0.0
 42
0.0006890002
  0
VERTEX
  5
8B0
  8
0
  6
CONTINUOUS
 62
     7
 10
-591.20207000000016
 20
386.03708999999992
 30
0.0
 42
0.00067934106
  0
VERTEX
  5
8B1
  8
0
  6
CONTINUOUS
 62
     7
 10
-591.12958999999978
 20
385.46240999999992
 30
0.0
 42
0.00071569314
  0
VERTEX
  5
8B2
  8
0
  6
CONTINUOUS
 62
     7
 10
-591.05553999999995
 20
384.88808999999992
 30
0.0
 42
0.00069587808
  0
VERTEX
  5
8B3
  8
0
  6
CONTINUOUS
 62
     7
 10
-590.9798599999998
 20
384.31394999999992
 30
0.0
 42
0.00071687036
  0
VERTEX
  5
8B4
  8
0
  6
CONTINUOUS
 62
     7
 10
-590.90255000000002
 20
383.73995999999988
 30
0.0
 42
0.00069759108
  0
VERTEX
  5
8B5
  8
0
  6
CONTINUOUS
 62
     7
 10
-590.8236099999998
 20
383.16617000000002
 30
0.0
 42
0.000733212
  0
VERTEX
  5
8B6
  8
0
  6
CONTINUOUS
 62
     7
 10
-590.74302
 20
382.59269999999998
 30
0.0
 42
0.00064546132
  0
VERTEX
  5
8B7
  8
0
  6
CONTINUOUS
 62
     7
 10
-590.66087999999979
 20
382.01958999999988
 30
0.0
 42
0.00074206151
  0
VERTEX
  5
8B8
  8
0
  6
CONTINUOUS
 62
     7
 10
-590.57714999999985
 20
381.44655999999992
 30
0.0
 42
0.00073581337
  0
VERTEX
  5
8B9
  8
0
  6
CONTINUOUS
 62
     7
 10
-590.49167999999975
 20
380.87380000000002
 30
0.0
 42
0.0006891394
  0
VERTEX
  5
8BA
  8
0
  6
CONTINUOUS
 62
     7
 10
-590.40463
 20
380.30146000000002
 30
0.0
 42
0.00072290801
  0
VERTEX
  5
8BB
  8
0
  6
CONTINUOUS
 62
     7
 10
-590.31592000000001
 20
379.72915999999992
 30
0.0
  0
SEQEND
  5
8BC
  8
0
 62
     7
  0
POLYLINE
  5
8BD
  8
0
  6
CONTINUOUS
 62
     7
 66
     1
 10
0.0
 20
0.0
 30
0.0
  0
VERTEX
  5
8BE
  8
0
  6
CONTINUOUS
 62
     7
 10
-592.77380000000005
 20
413.09487999999988
 30
0.0
 42
-0.00034747668
  0
VERTEX
  5
8BF
  8
0
  6
CONTINUOUS
 62
     7
 10
-592.77620999999976
 20
413.40600999999998
 30
0.0
 42
-0.00040573842
  0
VERTEX
  5
8C0
  8
0
  6
CONTINUOUS
 62
     7
 10
-592.77810999999986
 20
413.71712000000002
 30
0.0
 42
-0.00039706112
  0
VERTEX
  5
8C1
  8
0
  6
CONTINUOUS
 62
     7
 10
-592.77953999999988
 20
414.02822999999989
 30
0.0
 42
-0.00038765721
  0
VERTEX
  5
8C2
  8
0
  6
CONTINUOUS
 62
     7
 10
-592.78047000000004
 20
414.3393699999998
 30
0.0
 42
-0.00040613431
  0
VERTEX
  5
8C3
  8
0
  6
CONTINUOUS
 62
     7
 10
-592.78092000000004
 20
414.65046999999993
 30
0.0
 42
-0.00035573432
  0
VERTEX
  5
8C4
  8
0
  6
CONTINUOUS
 62
     7
 10
-592.78088000000002
 20
414.96157999999991
 30
0.0
 42
-0.00034185751
  0
VERTEX
  5
8C5
  8
0
  6
CONTINUOUS
 62
     7
 10
-592.78044
 20
415.27271999999999
 30
0.0
 42
-0.00050754827
  0
VERTEX
  5
8C6
  8
0
  6
CONTINUOUS
 62
     7
 10
-592.77945999999963
 20
415.58381999999989
 30
0.0
 42
-0.00031407598
  0
VERTEX
  5
8C7
  8
0
  6
CONTINUOUS
 62
     7
 10
-592.77795000000003
 20
415.89505000000003
 30
0.0
 42
-0.0003831782
  0
VERTEX
  5
8C8
  8
0
  6
CONTINUOUS
 62
     7
 10
-592.77604000000019
 20
416.20618999999999
 30
0.0
 42
-0.00030570285
  0
VERTEX
  5
8C9
  8
0
  6
CONTINUOUS
 62
     7
 10
-592.77367000000004
 20
416.51742000000002
 30
0.0
 42
-0.00044503941
  0
VERTEX
  5
8CA
  8
0
  6
CONTINUOUS
 62
     7
 10
-592.77087000000006
 20
416.82852000000003
 30
0.0
  0
SEQEND
  5
8CB
  8
0
 62
     7
  0
POLYLINE
  5
8CC
  8
0
  6
CONTINUOUS
 62
     7
 66
     1
 10
0.0
 20
0.0
 30
0.0
  0
VERTEX
  5
8CD
  8
0
  6
CONTINUOUS
 62
     7
 10
-592.72973999999965
 20
419.36525999999998
 30
0.0
 42
-0.00074497799
  0
VERTEX
  5
8CE
  8
0
  6
CONTINUOUS
 62
     7
 10
-592.71498999999994
 20
419.98302999999999
 30
0.0
 42
-0.00078382106
  0
VERTEX
  5
8CF
  8
0
  6
CONTINUOUS
 62
     7
 10
-592.69835
 20
420.60062999999991
 30
0.0
 42
-0.0007433568
  0
VERTEX
  5
8D0
  8
0
  6
CONTINUOUS
 62
     7
 10
-592.67980999999997
 20
421.21829000000002
 30
0.0
 42
-0.00075141079
  0
VERTEX
  5
8D1
  8
0
  6
CONTINUOUS
 62
     7
 10
-592.6594399999999
 20
421.83589999999992
 30
0.0
 42
-0.00073282875
  0
VERTEX
  5
8D2
  8
0
  6
CONTINUOUS
 62
     7
 10
-592.63722000000018
 20
422.45332000000002
 30
0.0
 42
-0.00077904702
  0
VERTEX
  5
8D3
  8
0
  6
CONTINUOUS
 62
     7
 10
-592.61315999999965
 20
423.07082999999989
 30
0.0
 42
-0.00075975985
  0
VERTEX
  5
8D4
  8
0
  6
CONTINUOUS
 62
     7
 10
-592.58717999999999
 20
423.68822
 30
0.0
 42
-0.0007324004
  0
VERTEX
  5
8D5
  8
0
  6
CONTINUOUS
 62
     7
 10
-592.55934000000002
 20
424.30549999999999
 30
0.0
 42
-0.00077017552
  0
VERTEX
  5
8D6
  8
0
  6
CONTINUOUS
 62
     7
 10
-592.52965999999981
 20
424.92288000000002
 30
0.0
 42
-0.00077085244
  0
VERTEX
  5
8D7
  8
0
  6
CONTINUOUS
 62
     7
 10
-592.49806000000001
 20
425.54000999999988
 30
0.0
 42
-0.00073483086
  0
VERTEX
  5
8D8
  8
0
  6
CONTINUOUS
 62
     7
 10
-592.46461999999985
 20
426.15703999999999
 30
0.0
 42
-0.00075618795
  0
VERTEX
  5
8D9
  8
0
  6
CONTINUOUS
 62
     7
 10
-592.42932000000008
 20
426.77407999999991
 30
0.0
  0
SEQEND
  5
8DA
  8
0
 62
     7
  0
POLYLINE
  5
8DB
  8
0
  6
CONTINUOUS
 62
     7
 66
     1
 10
0.0
 20
0.0
 30
0.0
  0
VERTEX
  5
8DC
  8
0
  6
CONTINUOUS
 62
     7
 10
-592.25562000000002
 20
429.43545999999998
 30
0.0
 42
-0.00073370504
  0
VERTEX
  5
8DD
  8
0
  6
CONTINUOUS
 62
     7
 10
-592.21146999999985
 20
430.03787
 30
0.0
 42
-0.00075211326
  0
VERTEX
  5
8DE
  8
0
  6
CONTINUOUS
 62
     7
 10
-592.16552999999999
 20
430.64025999999973
 30
0.0
 42
-0.00072974913
  0
VERTEX
  5
8DF
  8
0
  6
CONTINUOUS
 62
     7
 10
-592.11779999999999
 20
431.24245999999988
 30
0.0
 42
-0.00075830266
  0
VERTEX
  5
8E0
  8
0
  6
CONTINUOUS
 62
     7
 10
-592.06826999999976
 20
431.84444999999999
 30
0.0
 42
-0.00069523362
  0
VERTEX
  5
8E1
  8
0
  6
CONTINUOUS
 62
     7
 10
-592.0170099999998
 20
432.44632000000001
 30
0.0
 42
-0.00075453669
  0
VERTEX
  5
8E2
  8
0
  6
CONTINUOUS
 62
     7
 10
-591.96398999999985
 20
433.04812999999967
 30
0.0
 42
-0.00073754162
  0
VERTEX
  5
8E3
  8
0
  6
CONTINUOUS
 62
     7
 10
-591.90917000000002
 20
433.64965999999998
 30
0.0
 42
-0.00075683463
  0
VERTEX
  5
8E4
  8
0
  6
CONTINUOUS
 62
     7
 10
-591.85257000000001
 20
434.25101999999993
 30
0.0
 42
-0.00072314518
  0
VERTEX
  5
8E5
  8
0
  6
CONTINUOUS
 62
     7
 10
-591.79418999999984
 20
434.85208
 30
0.0
 42
-0.00072055031
  0
VERTEX
  5
8E6
  8
0
  6
CONTINUOUS
 62
     7
 10
-591.73407999999995
 20
435.45310999999992
 30
0.0
 42
-0.00075109448
  0
VERTEX
  5
8E7
  8
0
  6
CONTINUOUS
 62
     7
 10
-591.67218999999966
 20
436.05385000000001
 30
0.0
 42
-0.00074640669
  0
VERTEX
  5
8E8
  8
0
  6
CONTINUOUS
 62
     7
 10
-591.60852
 20
436.65444999999988
 30
0.0
  0
SEQEND
  5
8E9
  8
0
 62
     7
  0
POLYLINE
  5
8EA
  8
0
  6
CONTINUOUS
 62
     7
 66
     1
 10
0.0
 20
0.0
 30
0.0
  0
VERTEX
  5
8EB
  8
0
  6
CONTINUOUS
 62
     7
 10
-591.27295000000004
 20
439.57790999999992
 30
0.0
 42
-0.00068898293
  0
VERTEX
  5
8EC
  8
0
  6
CONTINUOUS
 62
     7
 10
-591.20207000000016
 20
440.15265999999991
 30
0.0
 42
-0.00067933813
  0
VERTEX
  5
8ED
  8
0
  6
CONTINUOUS
 62
     7
 10
-591.12958999999978
 20
440.72735
 30
0.0
 42
-0.000715718
  0
VERTEX
  5
8EE
  8
0
  6
CONTINUOUS
 62
     7
 10
-591.05553999999995
 20
441.30167
 30
0.0
 42
-0.0006958567
  0
VERTEX
  5
8EF
  8
0
  6
CONTINUOUS
 62
     7
 10
-590.9798599999998
 20
441.87580000000003
 30
0.0
 42
-0.00071687214
  0
VERTEX
  5
8F0
  8
0
  6
CONTINUOUS
 62
     7
 10
-590.90255000000002
 20
442.44979999999981
 30
0.0
 42
-0.00069760016
  0
VERTEX
  5
8F1
  8
0
  6
CONTINUOUS
 62
     7
 10
-590.8236099999998
 20
443.02359000000001
 30
0.0
 42
-0.00073320364
  0
VERTEX
  5
8F2
  8
0
  6
CONTINUOUS
 62
     7
 10
-590.74302
 20
443.59705999999989
 30
0.0
 42
-0.00064546479
  0
VERTEX
  5
8F3
  8
0
  6
CONTINUOUS
 62
     7
 10
-590.66087999999979
 20
444.17016999999998
 30
0.0
 42
-0.00074205583
  0
VERTEX
  5
8F4
  8
0
  6
CONTINUOUS
 62
     7
 10
-590.57714999999985
 20
444.74319000000003
 30
0.0
 42
-0.00073582106
  0
VERTEX
  5
8F5
  8
0
  6
CONTINUOUS
 62
     7
 10
-590.49167999999975
 20
445.31594999999987
 30
0.0
 42
-0.00068913793
  0
VERTEX
  5
8F6
  8
0
  6
CONTINUOUS
 62
     7
 10
-590.40463
 20
445.88830000000002
 30
0.0
 42
-0.00072288972
  0
VERTEX
  5
8F7
  8
0
  6
CONTINUOUS
 62
     7
 10
-590.31592000000001
 20
446.46059999999989
 30
0.0
  0
SEQEND
  5
8F8
  8
0
 62
     7
  0
POLYLINE
  5
8F9
  8
0
  6
CONTINUOUS
 62
     7
 66
     1
 10
0.0
 20
0.0
 30
0.0
  0
VERTEX
  5
8FA
  8
0
  6
CONTINUOUS
 62
     7
 10
-591.27166
 20
150.63488999999981
 30
0.0
  0
VERTEX
  5
8FB
  8
0
  6
CONTINUOUS
 62
     7
 10
-590.31117000000006
 20
157.51653999999991
 30
0.0
 42
-1.0
  0
SEQEND
  5
8FC
  8
0
 62
     7
  0
POLYLINE
  5
8FD
  8
0
  6
CONTINUOUS
 62
     7
 66
     1
 10
0.0
 20
0.0
 30
0.0
  0
VERTEX
  5
8FE
  8
0
  6
CONTINUOUS
 62
     7
 10
-592.25340000000006
 20
140.49051
 30
0.0
  0
VERTEX
  5
8FF
  8
0
  6
CONTINUOUS
 62
     7
 10
-591.60735
 20
147.71143000000001
 30
0.0
 42
-1.0
  0
SEQEND
  5
900
  8
0
 62
     7
  0
POLYLINE
  5
901
  8
0
  6
CONTINUOUS
 62
     7
 66
     1
 10
0.0
 20
0.0
 30
0.0
  0
VERTEX
  5
902
  8
0
  6
CONTINUOUS
 62
     7
 10
-592.72506999999996
 20
130.41925000000001
 30
0.0
  0
VERTEX
  5
903
  8
0
  6
CONTINUOUS
 62
     7
 10
-592.42639999999994
 20
137.82928000000001
 30
0.0
 42
-1.0
  0
SEQEND
  5
904
  8
0
 62
     7
  0
POLYLINE
  5
905
  8
0
  6
CONTINUOUS
 62
     7
 66
     1
 10
0.0
 20
0.0
 30
0.0
  0
VERTEX
  5
906
  8
0
  6
CONTINUOUS
 62
     7
 10
-592.76842999999997
 20
124.14796
 30
0.0
  0
VERTEX
  5
907
  8
0
  6
CONTINUOUS
 62
     7
 10
-592.76571999999965
 20
127.88043
 30
0.0
 42
-1.0
  0
SEQEND
  5
908
  8
0
 62
     7
  0
POLYLINE
  5
909
  8
0
  6
CONTINUOUS
 62
     7
 66
     1
 10
0.0
 20
0.0
 30
0.0
  0
VERTEX
  5
90A
  8
0
  6
CONTINUOUS
 62
     7
 10
-591.27166
 20
97.660972999999998
 30
0.0
  0
VERTEX
  5
90B
  8
0
  6
CONTINUOUS
 62
     7
 10
-590.31117000000006
 20
90.779393999999996
 30
0.0
 42
-1.0
  0
SEQEND
  5
90C
  8
0
 62
     7
  0
POLYLINE
  5
90D
  8
0
  6
CONTINUOUS
 62
     7
 66
     1
 10
0.0
 20
0.0
 30
0.0
  0
VERTEX
  5
90E
  8
0
  6
CONTINUOUS
 62
     7
 10
-592.25340000000006
 20
107.8053699999999
 30
0.0
  0
VERTEX
  5
90F
  8
0
  6
CONTINUOUS
 62
     7
 10
-591.60735
 20
100.5844299999999
 30
0.0
 42
-1.0
  0
SEQEND
  5
910
  8
0
 62
     7
  0
POLYLINE
  5
911
  8
0
  6
CONTINUOUS
 62
     7
 66
     1
 10
0.0
 20
0.0
 30
0.0
  0
VERTEX
  5
912
  8
0
  6
CONTINUOUS
 62
     7
 10
-592.72506999999996
 20
117.87666
 30
0.0
  0
VERTEX
  5
913
  8
0
  6
CONTINUOUS
 62
     7
 10
-592.42639999999994
 20
110.4666099999999
 30
0.0
 42
-1.0
  0
SEQEND
  5
914
  8
0
 62
     7
  0
POLYLINE
  5
915
  8
0
  6
CONTINUOUS
 62
     7
 66
     1
 10
0.0
 20
0.0
 30
0.0
  0
VERTEX
  5
916
  8
0
  6
CONTINUOUS
 62
     7
 10
-592.76842999999997
 20
124.14796
 30
0.0
  0
VERTEX
  5
917
  8
0
  6
CONTINUOUS
 62
     7
 10
-592.76571999999965
 20
120.4154799999999
 30
0.0
 42
-1.0
  0
SEQEND
  5
918
  8
0
 62
     7
  0
POLYLINE
  5
919
  8
0
  6
CONTINUOUS
 62
     7
 66
     1
 10
0.0
 20
0.0
 30
0.0
  0
VERTEX
  5
91A
  8
0
  6
CONTINUOUS
 62
     7
 10
-373.72078999999991
 20
497.50787000000003
 30
0.0
 42
0.081985852
  0
VERTEX
  5
91B
  8
0
  6
CONTINUOUS
 62
     7
 10
-395.83668
 20
442.59618999999992
 30
0.0
 42
0.10914194
  0
VERTEX
  5
91C
  8
0
  6
CONTINUOUS
 62
     7
 10
-395.83659
 20
383.59317999999979
 30
0.0
 42
0.081985219
  0
VERTEX
  5
91D
  8
0
  6
CONTINUOUS
 62
     7
 10
-373.72078999999991
 20
328.68187999999992
 30
0.0
  0
SEQEND
  5
91E
  8
0
 62
     7
  0
TEXT
  5
ACF
  8
0
  6
CONTINUOUS
 62
     0
 10
-254.3740437288549
 20
394.4616548506508
 30
0.0
 40
10.0
  1
VX02-120MF~VX02-200MF
  0
ENDSEC
  0
EOF
