  0
SECTION
  2
HEADER
  9
$ACADVER
  1
AC1009
  9
$INSBASE
 10
0.0
 20
0.0
 30
0.0
  9
$EXTMIN
 10
-807.33027184717628
 20
46.80992249546761
 30
-0.0000000349181948
  9
$EXTMAX
 10
14.2127862254465
 20
624.87620421369525
 30
0.0000000814935747
  9
$LIMMIN
 10
0.0
 20
0.0
  9
$LIMMAX
 10
12.0
 20
9.0
  9
$ORTHOMODE
 70
     0
  9
$REGENMODE
 70
     1
  9
$FILLMODE
 70
     1
  9
$QTEXTMODE
 70
     0
  9
$MIRRTEXT
 70
     1
  9
$DRAGMODE
 70
     2
  9
$LTSCALE
 40
1.0
  9
$OSMODE
 70
   551
  9
$ATTMODE
 70
     1
  9
$TEXTSIZE
 40
0.2
  9
$TRACEWID
 40
0.05
  9
$TEXTSTYLE
  7
STANDARD
  9
$CLAYER
  8
0
  9
$CELTYPE
  6
CONTINUOUS
  9
$CECOLOR
 62
   256
  9
$DIMSCALE
 40
1.0
  9
$DIMASZ
 40
0.18
  9
$DIMEXO
 40
0.0625
  9
$DIMDLI
 40
0.38
  9
$DIMRND
 40
0.0
  9
$DIMDLE
 40
0.0
  9
$DIMEXE
 40
0.18
  9
$DIMTP
 40
0.0
  9
$DIMTM
 40
0.0
  9
$DIMTXT
 40
0.18
  9
$DIMCEN
 40
0.09
  9
$DIMTSZ
 40
0.0
  9
$DIMTOL
 70
     0
  9
$DIMLIM
 70
     0
  9
$DIMTIH
 70
     1
  9
$DIMTOH
 70
     1
  9
$DIMSE1
 70
     0
  9
$DIMSE2
 70
     0
  9
$DIMTAD
 70
     0
  9
$DIMZIN
 70
     0
  9
$DIMBLK
  1

  9
$DIMASO
 70
     1
  9
$DIMSHO
 70
     1
  9
$DIMPOST
  1

  9
$DIMAPOST
  1

  9
$DIMALT
 70
     0
  9
$DIMALTD
 70
     2
  9
$DIMALTF
 40
25.399999999999999
  9
$DIMLFAC
 40
1.0
  9
$DIMTOFL
 70
     0
  9
$DIMTVP
 40
0.0
  9
$DIMTIX
 70
     0
  9
$DIMSOXD
 70
     0
  9
$DIMSAH
 70
     0
  9
$DIMBLK1
  1

  9
$DIMBLK2
  1

  9
$DIMSTYLE
  2
STANDARD
  9
$DIMCLRD
 70
     0
  9
$DIMCLRE
 70
     0
  9
$DIMCLRT
 70
     0
  9
$DIMTFAC
 40
1.0
  9
$DIMGAP
 40
0.09
  9
$LUNITS
 70
     2
  9
$LUPREC
 70
     4
  9
$SKETCHINC
 40
0.1
  9
$FILLETRAD
 40
0.0
  9
$AUNITS
 70
     0
  9
$AUPREC
 70
     0
  9
$MENU
  1
.
  9
$ELEVATION
 40
0.0
  9
$PELEVATION
 40
0.0
  9
$THICKNESS
 40
0.0
  9
$LIMCHECK
 70
     0
  9
$BLIPMODE
 70
     0
  9
$CHAMFERA
 40
0.0
  9
$CHAMFERB
 40
0.0
  9
$SKPOLY
 70
     0
  9
$TDCREATE
 40
2452300.4268699312
  9
$TDUPDATE
 40
2458540.6473683338
  9
$TDINDWG
 40
0.0323067014
  9
$TDUSRTIMER
 40
0.0323066898
  9
$USRTIMER
 70
     1
  9
$ANGBASE
 50
0.0
  9
$ANGDIR
 70
     0
  9
$PDMODE
 70
     0
  9
$PDSIZE
 40
0.0
  9
$PLINEWID
 40
0.0
  9
$COORDS
 70
     1
  9
$SPLFRAME
 70
     0
  9
$SPLINETYPE
 70
     6
  9
$SPLINESEGS
 70
     8
  9
$ATTDIA
 70
     1
  9
$ATTREQ
 70
     1
  9
$HANDLING
 70
     1
  9
$HANDSEED
  5
BDC
  9
$SURFTAB1
 70
     6
  9
$SURFTAB2
 70
     6
  9
$SURFTYPE
 70
     6
  9
$SURFU
 70
     6
  9
$SURFV
 70
     6
  9
$UCSNAME
  2

  9
$UCSORG
 10
0.0
 20
0.0
 30
0.0
  9
$UCSXDIR
 10
1.0
 20
0.0
 30
0.0
  9
$UCSYDIR
 10
0.0
 20
1.0
 30
0.0
  9
$PUCSNAME
  2

  9
$PUCSORG
 10
0.0
 20
0.0
 30
0.0
  9
$PUCSXDIR
 10
1.0
 20
0.0
 30
0.0
  9
$PUCSYDIR
 10
0.0
 20
1.0
 30
0.0
  9
$USERI1
 70
     0
  9
$USERI2
 70
     0
  9
$USERI3
 70
     0
  9
$USERI4
 70
     0
  9
$USERI5
 70
     0
  9
$USERR1
 40
0.0
  9
$USERR2
 40
0.0
  9
$USERR3
 40
0.0
  9
$USERR4
 40
0.0
  9
$USERR5
 40
0.0
  9
$WORLDVIEW
 70
     1
  9
$SHADEDGE
 70
     3
  9
$SHADEDIF
 70
    70
  9
$TILEMODE
 70
     1
  9
$MAXACTVP
 70
    64
  9
$PLIMCHECK
 70
     0
  9
$PEXTMIN
 10
1.0000000000000000E+020
 20
1.0000000000000000E+020
 30
1.0000000000000000E+020
  9
$PEXTMAX
 10
-1.0000000000000000E+020
 20
-1.0000000000000000E+020
 30
-1.0000000000000000E+020
  9
$PLIMMIN
 10
0.0
 20
0.0
  9
$PLIMMAX
 10
12.0
 20
9.0
  9
$UNITMODE
 70
     0
  9
$VISRETAIN
 70
     1
  9
$PLINEGEN
 70
     0
  9
$PSLTSCALE
 70
     1
  0
ENDSEC
  0
SECTION
  2
TABLES
  0
TABLE
  2
VPORT
 70
     1
  0
VPORT
  2
*ACTIVE
 70
     0
 10
0.0
 20
0.0
 11
1.0
 21
1.0
 12
-396.558742810865
 22
335.84306335458137
 13
0.0
 23
0.0
 14
1.0
 24
1.0
 15
0.0
 25
0.0
 16
0.0
 26
0.0
 36
1.0
 17
0.0
 27
0.0
 37
0.0
 40
582.03470012819253
 41
1.7571592210767459
 42
50.0
 43
0.0
 44
0.0
 50
0.0
 51
0.0
 71
     0
 72
   100
 73
     1
 74
     1
 75
     0
 76
     0
 77
     0
 78
     0
  0
ENDTAB
  0
TABLE
  2
LTYPE
 70
    23
  0
LTYPE
  2
CONTINUOUS
 70
     0
  3
Solid line
 72
    65
 73
     0
 40
0.0
  0
LTYPE
  2
DASHED
 70
     0
  3
__ __ __ __ __ __ __ __ __ __ __ __ __ __ __
 72
    65
 73
     2
 40
3.5
 49
2.0
 49
-1.5
  0
LTYPE
  2
CENTER
 70
     0
  3
____ _ ____ _ ____ _ ____ _ ____ _ ____ _ ____
 72
    65
 73
     4
 40
17.5
 49
13.0
 49
-1.5
 49
1.5
 49
-1.5
  0
LTYPE
  2
PHANTOM
 70
     0
  3
_____ _ _ _____ _ _ _____ _ _ _____ _ _ ____  
 72
    65
 73
     6
 40
15.5
 49
8.0
 49
-1.5
 49
1.5
 49
-1.5
 49
1.5
 49
-1.5
  0
LTYPE
  2
DOT
 70
     0
  3
. . . . . . . . . . . . . . . . . . . . . . . .
 72
    65
 73
     2
 40
0.25
 49
0.0
 49
-0.25
  0
LTYPE
  2
AM_ISO02W050
 70
     0
  3
__ __ __ __ __ __ __ __ __ __ __ __ __ __ __
 72
    65
 73
     2
 40
7.5
 49
6.0
 49
-1.5
  0
LTYPE
  2
AM_ISO08W050
 70
     0
  3
____ . ____ . ____ . ____ . ____ . ____ . ____
 72
    65
 73
     4
 40
18.0
 49
12.0
 49
-1.5
 49
3.0
 49
-1.5
  0
LTYPE
  2
AM_ISO09W050
 70
     0
  3
_____ . . _____ . . _____ . . ____ .. ____
 72
    65
 73
     6
 40
22.5
 49
12.0
 49
-1.5
 49
3.0
 49
-1.5
 49
3.0
 49
-1.5
  0
LTYPE
  2
AMCONSTR
 70
     0
  3
_______________________
 72
    65
 73
     2
 40
9999.0
 49
9999.0
 49
0.0
  0
LTYPE
  2
AM_ISO08W050X2
 70
     0
  3
__ . __ . __ . __ . __ . __
 72
    65
 73
     4
 40
9.0
 49
6.0
 49
-0.75
 49
1.5
 49
-0.75
  0
LTYPE
  2
AM_ISO02W050X2
 70
     0
  3
 _ _ _ _ _ _ _ _ _ _ _ _
 72
    65
 73
     2
 40
3.75
 49
3.0
 49
-0.75
  0
LTYPE
  2
AMZIGZAG
 70
     0
  3
/\/-/\/-/\/-/\/-/\/-/\/
 72
    65
 73
     2
 40
11.000099999999991
 49
0.0001
 49
-11.0
  0
LTYPE
  2
HIDDEN
 70
     0
  3
Hidden __ __ __ __ __ __ __ __ __ __ __ __ __ _
 72
    65
 73
     2
 40
0.375
 49
0.25
 49
-0.125
  0
LTYPE
  2
PHANTOM2
 70
     0
  3
Phantom (.5x) ___ _ _ ___ _ _ ___ _ _ ___ _ _
 72
    65
 73
     6
 40
1.25
 49
0.625
 49
-0.125
 49
0.125
 49
-0.125
 49
0.125
 49
-0.125
  0
LTYPE
  2
CENTER2
 70
     0
  3
Center (.5x) ___ _ ___ _ ___ _ ___ _ ___ _ ___
 72
    65
 73
     4
 40
1.125
 49
0.75
 49
-0.125
 49
0.125
 49
-0.125
  0
LTYPE
  2
HIDDEN2
 70
     0
  3
Hidden (.5x) _ _ _ _ _ _ _ _ _ _ _ _ _ _ _ _ _
 72
    65
 73
     2
 40
0.1875
 49
0.125
 49
-0.0625
  0
LTYPE
  2
AMZIGZAG2
 70
     0
  3
/\/-/\/-/\/-/\/-/\/-/\/
 72
    65
 73
     2
 40
0.4401
 49
0.0001
 49
-0.4400000000000003
  0
LTYPE
  2
ACANSTGB
 70
     0
  3
__ . . __ . .
 72
    65
 73
     6
 40
0.35433070866
 49
0.15748031496
 49
-0.03937007874
 49
0.03937007874
 49
-0.03937007874
 49
0.03937007874
 49
-0.03937007874
  0
LTYPE
  2
ACANSTGL
 70
     0
  3
_ _ _ _ _
 72
    65
 73
     2
 40
0.11811023622
 49
0.07874015748
 49
-0.03937007874
  0
LTYPE
  2
ACISOWELD
 70
     0
  3
_ _ _ _ _
 72
    65
 73
     2
 40
2.0
 49
2.0
 49
-1.0
  0
LTYPE
  2
ACISOTGB
 70
     0
  3
__ . . __ . .
 72
    65
 73
     6
 40
9.0
 49
4.0
 49
-1.0
 49
1.0
 49
-1.0
 49
1.0
 49
-1.0
  0
LTYPE
  2
ACISOTGL
 70
     0
  3
_ _ _ _ _
 72
    65
 73
     2
 40
3.0
 49
2.0
 49
-1.0
  0
ENDTAB
  0
TABLE
  2
LAYER
 70
     1
  0
LAYER
  2
0
 70
     0
 62
     7
  6
CONTINUOUS
  0
ENDTAB
  0
TABLE
  2
STYLE
 70
     6
  0
STYLE
  2
STANDARD
 70
     0
 40
0.0
 41
1.0
 50
0.0
 71
     0
 42
0.2
  3
txt
  4

  0
STYLE
  2
ANNOTATIVE
 70
     0
 40
0.0
 41
1.0
 50
0.0
 71
     0
 42
0.2
  3
txt
  4

  0
STYLE
  2

 70
     1
 40
0.0
 41
1.0
 50
0.0
 71
     0
 42
0.2
  3
ltypeshp.shx
  4

  0
STYLE
  2
ACANSTS
 70
     0
 40
1.0
 41
1.0
 50
0.0
 71
     0
 42
0.2
  3
romans.shx
  4
extfont.shx
  0
STYLE
  2
ACANSGDT
 70
     0
 40
0.0
 41
1.0
 50
0.0
 71
     0
 42
0.2
  3
amgdt.shx
  4

  0
STYLE
  2
ACISOGDT
 70
     0
 40
0.0
 41
1.0
 50
0.0
 71
     0
 42
2.5
  3
amgdt.shx
  4

  0
ENDTAB
  0
TABLE
  2
VIEW
 70
     0
  0
ENDTAB
  0
TABLE
  2
UCS
 70
     0
  0
ENDTAB
  0
TABLE
  2
APPID
 70
    12
  0
APPID
  2
ACAD
 70
     0
  0
APPID
  2
ACADANNOTATIVE
 70
     0
  0
APPID
  2
MCAD_NO_VIS
 70
     0
  0
APPID
  2
ACAD_TEMP_GRAPHIC
 70
     0
  0
APPID
  2
ACATTRIBSERVICES
 70
     0
  0
APPID
  2
DESIGNERASSEMBLIES
 70
     0
  0
APPID
  2
ACAD_DSTYLE_DIMBREAK
 70
     0
  0
APPID
  2
ACAD_DSTYLE_DIMJAG
 70
     0
  0
APPID
  2
ACAD_NAV_VCDISPLAY
 70
     0
  0
APPID
  2
ACAD_PSEXT
 70
     0
  0
APPID
  2
ACAD_EXEMPT_FROM_CAD_STANDARDS
 70
     0
  0
APPID
  2
ACAD_MLEADERVER
 70
     0
  0
ENDTAB
  0
TABLE
  2
DIMSTYLE
 70
    16
  0
DIMSTYLE
  2
STANDARD
 70
     0
  3

  4

  5

  6

  7

 40
1.0
 41
0.18
 42
0.0625
 43
0.38
 44
0.18
 45
0.0
 46
0.0
 47
0.0
 48
0.0
140
0.18
141
0.09
142
0.0
143
25.399999999999999
144
1.0
145
0.0
146
1.0
147
0.09
 71
     0
 72
     0
 73
     1
 74
     1
 75
     0
 76
     0
 77
     0
 78
     0
170
     0
171
     2
172
     0
173
     0
174
     0
175
     0
176
     0
177
     0
178
     0
  0
DIMSTYLE
  2
ANNOTATIVE
 70
     0
  3

  4

  5

  6

  7

 40
1.0
 41
0.18
 42
0.0625
 43
0.38
 44
0.18
 45
0.0
 46
0.0
 47
0.0
 48
0.0
140
0.18
141
0.09
142
0.0
143
25.399999999999999
144
1.0
145
0.0
146
1.0
147
0.09
 71
     0
 72
     0
 73
     1
 74
     1
 75
     0
 76
     0
 77
     0
 78
     0
170
     0
171
     2
172
     0
173
     0
174
     0
175
     0
176
     0
177
     0
178
     0
  0
DIMSTYLE
  2
AM_ANSI
 70
     0
  3

  4
mm
  5

  6

  7

 40
1.0
 41
0.1
 42
0.05
 43
0.5
 44
0.1
 45
0.0
 46
0.0
 47
0.1
 48
0.1
140
0.12
141
0.0
142
0.0
143
25.399999999999999
144
1.0
145
0.0
146
0.71
147
0.06
 71
     0
 72
     0
 73
     1
 74
     1
 75
     0
 76
     0
 77
     0
 78
     7
170
     0
171
     2
172
     0
173
     0
174
     0
175
     0
176
   256
177
   256
178
     2
  0
DIMSTYLE
  2
AM_ANSI$3
 70
     0
  3

  4
mm
  5

  6

  7

 40
1.0
 41
0.1
 42
0.05
 43
0.5
 44
0.1
 45
0.0
 46
0.0
 47
0.1
 48
0.1
140
0.12
141
0.0
142
0.0
143
25.399999999999999
144
1.0
145
0.0
146
0.71
147
0.06
 71
     0
 72
     0
 73
     1
 74
     1
 75
     0
 76
     0
 77
     0
 78
     7
170
     0
171
     2
172
     0
173
     0
174
     0
175
     0
176
   256
177
   256
178
     2
  0
DIMSTYLE
  2
AM_ANSI$4
 70
     0
  3

  4
mm
  5

  6

  7

 40
1.0
 41
0.1
 42
0.05
 43
0.5
 44
0.1
 45
0.0
 46
0.0
 47
0.1
 48
0.1
140
0.12
141
0.0
142
0.0
143
25.399999999999999
144
1.0
145
0.0
146
0.71
147
0.06
 71
     0
 72
     0
 73
     1
 74
     1
 75
     0
 76
     0
 77
     0
 78
     7
170
     0
171
     2
172
     0
173
     0
174
     0
175
     0
176
   256
177
   256
178
     2
  0
DIMSTYLE
  2
AM_ANSI$7
 70
     0
  3

  4
mm
  5

  6

  7

 40
1.0
 41
0.1
 42
0.05
 43
0.5
 44
0.1
 45
0.0
 46
0.0
 47
0.1
 48
0.1
140
0.24
141
0.0
142
0.0
143
25.399999999999999
144
1.0
145
0.0
146
0.71
147
0.06
 71
     0
 72
     0
 73
     1
 74
     1
 75
     0
 76
     0
 77
     0
 78
     7
170
     0
171
     2
172
     0
173
     0
174
     0
175
     0
176
   256
177
   256
178
     2
  0
DIMSTYLE
  2
AM_ANSI$SF
 70
     0
  3

  4
mm
  5

  6

  7

 40
1.0
 41
0.1
 42
0.05
 43
0.5
 44
0.1
 45
0.0
 46
0.0
 47
0.1
 48
0.1
140
0.12
141
0.0
142
0.0
143
25.399999999999999
144
1.0
145
0.0
146
0.71
147
0.06
 71
     0
 72
     0
 73
     1
 74
     1
 75
     1
 76
     1
 77
     0
 78
     7
170
     0
171
     2
172
     0
173
     0
174
     0
175
     0
176
   256
177
   256
178
     2
  0
DIMSTYLE
  2
AM_ANSI$SH
 70
     0
  3

  4
mm
  5

  6

  7

 40
1.0
 41
0.1
 42
0.05
 43
0.5
 44
0.1
 45
0.0
 46
0.0
 47
0.1
 48
0.1
140
0.12
141
0.0
142
0.0
143
25.399999999999999
144
1.0
145
0.0
146
0.71
147
0.06
 71
     0
 72
     0
 73
     1
 74
     1
 75
     1
 76
     1
 77
     0
 78
     7
170
     0
171
     2
172
     0
173
     1
174
     0
175
     0
176
   256
177
   256
178
     2
  0
DIMSTYLE
  2
AM_ISO
 70
     0
  3

  4
"
  5

  6

  7

 40
1.0
 41
2.5
 42
1.0
 43
10.0
 44
1.0
 45
0.0
 46
0.0
 47
0.1
 48
0.1
140
3.5
141
0.0
142
0.0
143
0.0393701
144
1.0
145
0.0
146
0.71
147
1.5
 71
     0
 72
     0
 73
     0
 74
     0
 75
     0
 76
     0
 77
     1
 78
     8
170
     0
171
     2
172
     1
173
     0
174
     0
175
     0
176
   256
177
   256
178
     2
  0
DIMSTYLE
  2
AM_ISO$3
 70
     0
  3

  4
"
  5

  6

  7

 40
1.0
 41
2.5
 42
1.0
 43
10.0
 44
1.0
 45
0.0
 46
0.0
 47
0.1
 48
0.1
140
3.5
141
0.0
142
0.0
143
0.0393701
144
1.0
145
0.0
146
0.71
147
1.5
 71
     0
 72
     0
 73
     0
 74
     1
 75
     0
 76
     0
 77
     1
 78
     8
170
     0
171
     2
172
     0
173
     0
174
     0
175
     0
176
   256
177
   256
178
     2
  0
DIMSTYLE
  2
AM_ISO$4
 70
     0
  3

  4
"
  5

  6

  7

 40
1.0
 41
2.5
 42
1.0
 43
10.0
 44
1.0
 45
0.0
 46
0.0
 47
0.1
 48
0.1
140
3.5
141
0.0
142
0.0
143
0.0393701
144
1.0
145
0.0
146
0.71
147
1.5
 71
     0
 72
     0
 73
     0
 74
     1
 75
     0
 76
     0
 77
     1
 78
     8
170
     0
171
     2
172
     0
173
     0
174
     0
175
     0
176
   256
177
   256
178
     2
  0
DIMSTYLE
  2
AM_ISO$6
 70
     0
  3

  4
"
  5

  6

  7

 40
1.0
 41
2.5
 42
1.0
 43
10.0
 44
1.0
 45
0.0
 46
0.0
 47
0.1
 48
0.1
140
3.5
141
0.0
142
0.0
143
0.0393701
144
1.0
145
0.0
146
0.71
147
1.5
 71
     0
 72
     0
 73
     0
 74
     0
 75
     0
 76
     0
 77
     0
 78
     8
170
     0
171
     2
172
     1
173
     0
174
     0
175
     0
176
   256
177
   256
178
     2
  0
DIMSTYLE
  2
AM_ISO$7
 70
     0
  3

  4
"
  5

  6

  7

 40
1.0
 41
2.5
 42
1.0
 43
10.0
 44
1.0
 45
0.0
 46
0.0
 47
0.1
 48
0.1
140
5.0
141
0.0
142
0.0
143
0.0393701
144
1.0
145
0.0
146
0.71
147
1.5
 71
     0
 72
     0
 73
     0
 74
     0
 75
     0
 76
     0
 77
     1
 78
     8
170
     0
171
     2
172
     1
173
     0
174
     0
175
     0
176
   256
177
   256
178
     2
  0
DIMSTYLE
  2
AM_ISO$SF
 70
     0
  3

  4
"
  5

  6

  7

 40
1.0
 41
2.5
 42
1.0
 43
10.0
 44
1.0
 45
0.0
 46
0.0
 47
0.1
 48
0.1
140
3.5
141
0.0
142
0.0
143
0.0393701
144
1.0
145
0.0
146
0.71
147
1.5
 71
     0
 72
     0
 73
     0
 74
     0
 75
     1
 76
     1
 77
     1
 78
     8
170
     0
171
     2
172
     1
173
     0
174
     0
175
     0
176
   256
177
   256
178
     2
  0
DIMSTYLE
  2
AM_ISO$SH
 70
     0
  3

  4
"
  5

  6
GENAXEH
  7

 40
1.0
 41
2.5
 42
1.0
 43
10.0
 44
1.0
 45
0.0
 46
0.0
 47
0.1
 48
0.1
140
3.5
141
0.0
142
0.0
143
0.0393701
144
2.0
145
0.0
146
0.71
147
1.5
 71
     0
 72
     0
 73
     0
 74
     0
 75
     1
 76
     1
 77
     1
 78
     8
170
     0
171
     2
172
     1
173
     1
174
     0
175
     0
176
   256
177
   256
178
     2
  0
DIMSTYLE
  2
AM_JIS
 70
     0
  3

  4
"
  5

  6

  7

 40
1.0
 41
2.0
 42
1.0
 43
8.0
 44
1.0
 45
0.0
 46
0.0
 47
0.1
 48
0.1
140
2.5
141
0.0
142
0.0
143
0.0393701
144
1.0
145
0.0
146
0.71
147
1.5
 71
     0
 72
     0
 73
     0
 74
     0
 75
     0
 76
     0
 77
     3
 78
     8
170
     0
171
     2
172
     1
173
     0
174
     0
175
     0
176
     2
177
     2
178
     4
  0
ENDTAB
  0
ENDSEC
  0
SECTION
  2
BLOCKS
  0
BLOCK
  8
0
  2
$MODEL_SPACE
 70
     0
 10
0.0
 20
0.0
 30
0.0
  3
$MODEL_SPACE
  1

  0
ENDBLK
  5
A6D
  8
0
  0
BLOCK
 67
     1
  8
0
  2
$PAPER_SPACE
 70
     0
 10
0.0
 20
0.0
 30
0.0
  3
$PAPER_SPACE
  1

  0
ENDBLK
  5
A69
 67
     1
  8
0
  0
BLOCK
  8
0
  2
GENAXEH
 70
     0
 10
0.0
 20
0.0
 30
0.0
  3
GENAXEH
  1

  0
LINE
  5
54B
  8
0
 10
-1.0
 20
0.0
 30
0.0
 11
1.0
 21
0.0
 31
0.0
  0
ENDBLK
  5
54C
  8
0
  0
BLOCK
  8
0
  2
_ACMFILLEDHALF
 70
     0
 10
0.0
 20
0.0
 30
0.0
  3
_ACMFILLEDHALF
  1

  0
TRACE
  5
AE6
  8
0
  6
CONTINUOUS
 62
     0
 10
-0.8
 20
0.0
 30
0.0
 11
-1.0
 21
0.166666666
 31
0.0
 12
0.0
 22
0.0
 32
0.0
 13
0.0
 23
0.0
 33
0.0
  0
LINE
  5
AE7
  8
0
  6
CONTINUOUS
 62
     0
 10
-1.0
 20
0.0
 30
0.0
 11
-0.8
 21
0.0
 31
0.0
  0
ENDBLK
  5
AE5
  8
0
  0
BLOCK
  8
0
  2
*U7
 70
     1
 10
0.0
 20
0.0
 30
0.0
  3
*U7
  1

  0
TEXT
  5
BD8
  8
0
  6
CONTINUOUS
 62
     0
 10
5.0768189741019834
 20
5.9826223594979657
 30
0.0
 40
15.0
  1
ＶＸ０８－００３ＥＭ～ＶＸ０８
  0
TEXT
  5
BD9
  8
0
  6
CONTINUOUS
 62
     0
 10
2.17909170137471
 20
-19.18783218595658
 30
0.0
 40
15.0
  1
－０３０ＥＭ
  0
ENDBLK
  5
BDB
  8
0
  0
ENDSEC
  0
SECTION
  2
ENTITIES
  0
LINE
  5
54D
  8
0
  6
CENTER
 62
     7
 10
-807.28026999999963
 20
507.36660999999992
 30
0.0
 11
-354.97030999999993
 21
507.36660999999992
 31
0.0
  0
LINE
  5
54E
  8
0
  6
CENTER
 62
     1
 10
-145.2809399999999
 20
46.827694000000001
 30
0.0
 11
-145.2809399999999
 21
307.21033
 31
0.0
  0
LINE
  5
54F
  8
0
  6
CENTER
 62
     7
 10
-270.68389999999982
 20
181.5479399999999
 30
0.0
 11
-20.544077000000001
 21
181.5479399999999
 31
0.0
  0
LINE
  5
550
  8
0
  6
CONTINUOUS
 62
     7
 10
-559.88317999999992
 20
439.29439999999988
 30
0.0
 11
-550.88317999999992
 21
439.29439999999988
 31
0.0
  0
LINE
  5
551
  8
0
  6
CONTINUOUS
 62
     7
 10
-547.88317999999992
 20
442.2944
 30
0.0
 11
-547.88317999999992
 21
572.43884000000003
 31
0.0
  0
LINE
  5
552
  8
0
  6
CONTINUOUS
 62
     7
 10
-559.88317999999992
 20
564.68420000000003
 30
0.0
 11
-547.88317999999992
 21
564.68420000000003
 31
0.0
  0
LINE
  5
553
  8
0
  6
CONTINUOUS
 62
     7
 10
-594.38311999999985
 20
433.86660999999998
 30
0.0
 11
-594.38311999999985
 21
580.86657999999989
 31
0.0
  0
LINE
  5
554
  8
0
  6
CONTINUOUS
 62
     7
 10
-556.88317999999981
 20
413.44549999999992
 30
0.0
 11
-550.84594999999979
 21
413.44549999999992
 31
0.0
  0
LINE
  5
555
  8
0
  6
CONTINUOUS
 62
     7
 10
-559.88317999999992
 20
450.04903999999999
 30
0.0
 11
-547.88317999999992
 21
450.04903999999999
 31
0.0
  0
LINE
  5
556
  8
0
  6
CONTINUOUS
 62
     7
 10
-559.88317999999992
 20
416.44549999999998
 30
0.0
 11
-559.88317999999992
 21
598.28772000000004
 31
0.0
  0
LINE
  5
557
  8
0
  6
CONTINUOUS
 62
     7
 10
-547.88317999999992
 20
411.11287999999968
 30
0.0
 11
-547.88317999999992
 21
421.47658999999987
 31
0.0
  0
LINE
  5
558
  8
0
  6
CONTINUOUS
 62
     7
 10
-559.88317999999992
 20
575.43884000000003
 30
0.0
 11
-550.88317999999992
 21
575.43884000000003
 31
0.0
  0
LINE
  5
559
  8
0
  6
CONTINUOUS
 62
     7
 10
-537.88317999999992
 20
407.86660999999992
 30
0.0
 11
-537.88317999999992
 21
606.86657999999977
 31
0.0
  0
LINE
  5
55A
  8
0
  6
CONTINUOUS
 62
     7
 10
-556.88317999999981
 20
590.25665000000004
 30
0.0
 11
-550.88317999999992
 21
590.25665000000004
 31
0.0
  0
LINE
  5
55B
  8
0
  6
CONTINUOUS
 62
     7
 10
-556.88317999999981
 20
424.47658999999987
 30
0.0
 11
-550.88317999999992
 21
424.47658999999987
 31
0.0
  0
LINE
  5
55C
  8
0
  6
CONTINUOUS
 62
     7
 10
-544.98784999999987
 20
606.61852999999985
 30
0.0
 11
-537.88317999999992
 21
606.86663999999985
 31
0.0
  0
LINE
  5
55D
  8
0
  6
CONTINUOUS
 62
     7
 10
-544.98784999999987
 20
408.11469
 30
0.0
 11
-537.88324
 21
407.86660999999992
 31
0.0
  0
LINE
  5
55E
  8
0
  6
CONTINUOUS
 62
     7
 10
-600.52270999999985
 20
580.65215999999987
 30
0.0
 11
-562.77844000000005
 21
581.97027999999989
 31
0.0
  0
LINE
  5
55F
  8
0
  6
CONTINUOUS
 62
     7
 10
-600.52277000000004
 20
434.08098999999987
 30
0.0
 11
-562.31335000000001
 21
432.74666999999999
 31
0.0
  0
LINE
  5
560
  8
0
  6
CONTINUOUS
 62
     7
 10
-604.38317999999981
 20
467.89193999999981
 30
0.0
 11
-559.88317999999992
 21
467.89193999999981
 31
0.0
  0
LINE
  5
561
  8
0
  6
CONTINUOUS
 62
     7
 10
-604.38317999999981
 20
546.84130999999991
 30
0.0
 11
-559.88317999999992
 21
546.84130999999991
 31
0.0
  0
LINE
  5
562
  8
0
  6
CONTINUOUS
 62
     3
 10
-604.38317999999981
 20
568.94524999999976
 30
0.0
 11
-559.88317999999992
 21
568.94524999999976
 31
0.0
  0
LINE
  5
563
  8
0
  6
CONTINUOUS
 62
     3
 10
-604.38317999999981
 20
445.78795999999988
 30
0.0
 11
-559.88317999999992
 21
445.78795999999988
 31
0.0
  0
LINE
  5
564
  8
0
  6
CONTINUOUS
 62
     7
 10
-556.88317999999981
 20
601.28772000000004
 30
0.0
 11
-550.84594999999979
 21
601.28772000000004
 31
0.0
  0
LINE
  5
565
  8
0
  6
CONTINUOUS
 62
     7
 10
-547.88317999999992
 20
603.62036000000001
 30
0.0
 11
-547.88317999999992
 21
593.25665000000004
 31
0.0
  0
LINE
  5
566
  8
0
  6
CONTINUOUS
 62
     7
 10
-668.38317999999981
 20
553.36663999999985
 30
0.0
 11
-627.04040999999995
 21
553.36663999999985
 31
0.0
  0
LINE
  5
567
  8
0
  6
CONTINUOUS
 62
     7
 10
-604.38317999999981
 20
438.07854999999989
 30
0.0
 11
-604.38317999999981
 21
576.65459999999985
 31
0.0
  0
LINE
  5
568
  8
0
  6
CONTINUOUS
 62
     7
 10
-668.38317999999981
 20
450.86660999999998
 30
0.0
 11
-668.38317999999981
 21
563.86658
 31
0.0
  0
LINE
  5
569
  8
0
  6
CONTINUOUS
 62
     7
 10
-615.95183999999995
 20
449.03567999999979
 30
0.0
 11
-668.38311999999996
 21
450.86660999999998
 31
0.0
  0
LINE
  5
56A
  8
0
  6
CONTINUOUS
 62
     7
 10
-668.38311999999996
 20
563.86663999999985
 30
0.0
 11
-615.95177999999964
 21
565.69757000000004
 31
0.0
  0
LINE
  5
56B
  8
0
  6
CONTINUOUS
 62
     7
 10
-605.81011999999998
 20
440.79360999999989
 30
0.0
 11
-612.59082000000001
 21
447.57424999999989
 31
0.0
  0
LINE
  5
56C
  8
0
  6
CONTINUOUS
 62
     7
 10
-612.5907599999997
 20
567.15899999999999
 30
0.0
 11
-605.81011999999998
 21
573.93964000000017
 31
0.0
  0
LINE
  5
56D
  8
0
  6
CONTINUOUS
 62
     7
 10
-645.3831799999997
 20
497.36660999999992
 30
0.0
 11
-645.3831799999997
 21
517.36658
 31
0.0
  0
LINE
  5
56E
  8
0
  6
CONTINUOUS
 62
     7
 10
-608.08043999999995
 20
496.59814
 30
0.0
 11
-608.08043999999995
 21
518.59862999999984
 31
0.0
  0
LINE
  5
56F
  8
0
  6
CONTINUOUS
 62
     7
 10
-642.38317999999981
 20
494.36660999999992
 30
0.0
 11
-611.08044000000007
 21
494.36660999999992
 31
0.0
  0
LINE
  5
570
  8
0
  6
CONTINUOUS
 62
     7
 10
-642.38317999999981
 20
520.36658
 30
0.0
 11
-611.08044000000007
 21
520.36658
 31
0.0
  0
LINE
  5
571
  8
0
  6
CONTINUOUS
 62
     7
 10
-668.38317999999981
 20
461.36660999999992
 30
0.0
 11
-627.04040999999995
 21
461.36660999999992
 31
0.0
  0
LINE
  5
572
  8
0
  6
CONTINUOUS
 62
     3
 10
-776.65600999999981
 20
441.86660999999998
 30
0.0
 11
-696.65612999999985
 21
441.86660999999998
 31
0.0
  0
LINE
  5
573
  8
0
  6
CONTINUOUS
 62
     3
 10
-696.65612999999985
 20
441.86660999999998
 30
0.0
 11
-696.65612999999985
 21
434.86660999999992
 31
0.0
  0
LINE
  5
574
  8
0
  6
CONTINUOUS
 62
     3
 10
-698.15612999999996
 20
418.36660999999992
 30
0.0
 11
-698.15612999999996
 21
434.86660999999992
 31
0.0
  0
LINE
  5
575
  8
0
  6
CONTINUOUS
 62
     3
 10
-756.15612999999985
 20
430.86660999999992
 30
0.0
 11
-756.15612999999985
 21
438.36660999999998
 31
0.0
  0
LINE
  5
576
  8
0
  6
CONTINUOUS
 62
     3
 10
-771.15600999999981
 20
438.36660999999998
 30
0.0
 11
-771.15600999999981
 21
430.86660999999992
 31
0.0
  0
LINE
  5
577
  8
0
  6
CONTINUOUS
 62
     3
 10
-775.15600999999981
 20
438.36660999999998
 30
0.0
 11
-775.15600999999981
 21
418.36660999999992
 31
0.0
  0
LINE
  5
578
  8
0
  6
CONTINUOUS
 62
     3
 10
-745.95618000000002
 20
415.36660999999992
 30
0.0
 11
-710.35608000000002
 21
415.36660999999992
 31
0.0
  0
LINE
  5
579
  8
0
  6
CONTINUOUS
 62
     3
 10
-775.15600999999981
 20
418.36660999999992
 30
0.0
 11
-698.15612999999996
 21
418.36660999999992
 31
0.0
  0
LINE
  5
57A
  8
0
  6
CONTINUOUS
 62
     3
 10
-775.15600999999981
 20
434.86660999999992
 30
0.0
 11
-771.15600999999981
 21
434.86660999999992
 31
0.0
  0
LINE
  5
57B
  8
0
  6
CONTINUOUS
 62
     3
 10
-705.15612999999985
 20
418.36657999999989
 30
0.0
 11
-710.35613999999998
 21
415.36655000000002
 31
0.0
  0
LINE
  5
57C
  8
0
  6
CONTINUOUS
 62
     3
 10
-745.95612000000006
 20
415.36664000000002
 30
0.0
 11
-751.15607
 21
418.36660999999992
 31
0.0
  0
LINE
  5
57D
  8
0
  6
CONTINUOUS
 62
     3
 10
-778.65600999999981
 20
438.36660999999998
 30
0.0
 11
-778.65600999999981
 21
423.36757999999992
 31
0.0
  0
LINE
  5
57E
  8
0
  6
CONTINUOUS
 62
     3
 10
-775.15600999999981
 20
423.36757999999992
 30
0.0
 11
-778.65600999999981
 21
423.36757999999992
 31
0.0
  0
LINE
  5
57F
  8
0
  6
CONTINUOUS
 62
     3
 10
-759.65612999999985
 20
438.36660999999998
 30
0.0
 11
-759.65612999999985
 21
430.86660999999992
 31
0.0
  0
LINE
  5
580
  8
0
  6
CONTINUOUS
 62
     3
 10
-767.65600999999958
 20
438.36660999999998
 30
0.0
 11
-767.65600999999958
 21
430.86660999999992
 31
0.0
  0
LINE
  5
581
  8
0
  6
CONTINUOUS
 62
     3
 10
-756.15612999999985
 20
434.86660999999992
 30
0.0
 11
-696.65612999999985
 21
434.86660999999992
 31
0.0
  0
LINE
  5
582
  8
0
  6
CONTINUOUS
 62
     3
 10
-778.65600999999981
 20
438.36660999999998
 30
0.0
 11
-696.65612999999985
 21
438.36660999999998
 31
0.0
  0
LINE
  5
583
  8
0
  6
CONTINUOUS
 62
     3
 10
-776.65600999999981
 20
441.86660999999998
 30
0.0
 11
-776.65600999999981
 21
438.36660999999998
 31
0.0
  0
LINE
  5
584
  8
0
  6
CONTINUOUS
 62
     7
 10
-697.88317999999981
 20
442.86660999999998
 30
0.0
 11
-697.88317999999981
 21
441.86660999999998
 31
0.0
  0
LINE
  5
585
  8
0
  6
CONTINUOUS
 62
     7
 10
-756.88317999999981
 20
442.86660999999998
 30
0.0
 11
-756.88317999999981
 21
441.86660999999998
 31
0.0
  0
LINE
  5
586
  8
0
  6
CONTINUOUS
 62
     7
 10
-678.17737
 20
552.29547000000002
 30
0.0
 11
-682.32312000000002
 21
567.77661000000001
 31
0.0
  0
LINE
  5
587
  8
0
  6
CONTINUOUS
 62
     7
 10
-678.17737
 20
551.38549999999987
 30
0.0
 11
-682.32312000000002
 21
566.86658
 31
0.0
  0
LINE
  5
588
  8
0
  6
CONTINUOUS
 62
     7
 10
-678.17742999999984
 20
549.53552000000002
 30
0.0
 11
-682.32312000000002
 21
565.01666
 31
0.0
  0
LINE
  5
589
  8
0
  6
CONTINUOUS
 62
     7
 10
-676.38317999999981
 20
563.36658
 30
0.0
 11
-676.38317999999981
 21
451.36660999999998
 31
0.0
  0
LINE
  5
58A
  8
0
  6
CONTINUOUS
 62
     7
 10
-798.38317999999981
 20
555.38660000000004
 30
0.0
 11
-798.38317999999981
 21
512.36658
 31
0.0
  0
LINE
  5
58B
  8
0
  6
CONTINUOUS
 62
     7
 10
-796.11315999999988
 20
557.11658
 30
0.0
 11
-793.88317999999981
 21
557.11658
 31
0.0
  0
LINE
  5
58C
  8
0
  6
CONTINUOUS
 62
     7
 10
-796.18310999999983
 20
543.05651999999998
 30
0.0
 11
-794.08312999999998
 21
543.05651999999998
 31
0.0
  0
LINE
  5
58D
  8
0
  6
CONTINUOUS
 62
     7
 10
-796.61310000000003
 20
556.98657000000003
 30
0.0
 11
-797.88306
 21
556.24657999999999
 31
0.0
  0
LINE
  5
58E
  8
0
  6
CONTINUOUS
 62
     7
 10
-796.62310999999988
 20
554.86663999999996
 30
0.0
 11
-797.90314000000001
 21
554.09662000000003
 31
0.0
  0
LINE
  5
58F
  8
0
  6
CONTINUOUS
 62
     7
 10
-796.63317999999981
 20
550.32665999999995
 30
0.0
 11
-797.93317000000002
 21
549.47661999999991
 31
0.0
  0
LINE
  5
590
  8
0
  6
CONTINUOUS
 62
     7
 10
-796.57317999999998
 20
542.97662000000003
 30
0.0
 11
-797.77313000000004
 21
542.46660999999995
 31
0.0
  0
LINE
  5
591
  8
0
  6
CONTINUOUS
 62
     7
 10
-796.10315000000003
 20
555.00658999999985
 30
0.0
 11
-793.38317999999981
 21
555.00658999999985
 31
0.0
  0
LINE
  5
592
  8
0
  6
CONTINUOUS
 62
     7
 10
-796.08312999999964
 20
550.49657999999988
 30
0.0
 11
-793.38317999999981
 21
550.49657999999988
 31
0.0
  0
LINE
  5
593
  8
0
  6
CONTINUOUS
 62
     7
 10
-796.23315000000002
 20
541.10657000000003
 30
0.0
 11
-794.38317999999981
 21
541.10657000000003
 31
0.0
  0
LINE
  5
594
  8
0
  6
CONTINUOUS
 62
     7
 10
-796.11315999999988
 20
549.35657000000003
 30
0.0
 11
-794.38317999999981
 21
549.35657000000003
 31
0.0
  0
LINE
  5
595
  8
0
  6
CONTINUOUS
 62
     7
 10
-796.13317999999981
 20
553.86658
 30
0.0
 11
-794.38317999999981
 21
553.86658
 31
0.0
  0
LINE
  5
596
  8
0
  6
CONTINUOUS
 62
     7
 10
-796.14306999999985
 20
555.96654999999998
 30
0.0
 11
-793.88317999999981
 21
555.96654999999998
 31
0.0
  0
LINE
  5
597
  8
0
  6
CONTINUOUS
 62
     7
 10
-796.61315999999988
 20
549.21660999999995
 30
0.0
 11
-797.89312999999981
 21
548.46660999999995
 31
0.0
  0
LINE
  5
598
  8
0
  6
CONTINUOUS
 62
     7
 10
-796.52313000000004
 20
541.06664999999975
 30
0.0
 11
-797.67315999999983
 21
540.71667000000002
 31
0.0
  0
LINE
  5
599
  8
0
  6
CONTINUOUS
 62
     7
 10
-796.59313999999983
 20
555.86663999999985
 30
0.0
 11
-797.83312999999964
 21
555.23662999999999
 31
0.0
  0
LINE
  5
59A
  8
0
  6
CONTINUOUS
 62
     7
 10
-796.60308999999984
 20
553.75665000000004
 30
0.0
 11
-797.85315000000003
 21
553.08667000000003
 31
0.0
  0
LINE
  5
59B
  8
0
  6
CONTINUOUS
 62
     7
 10
-794.38317999999981
 20
533.36658
 30
0.0
 11
-797.38317999999981
 21
533.36658
 31
0.0
  0
LINE
  5
59C
  8
0
  6
CONTINUOUS
 62
     7
 10
-794.38317999999981
 20
531.36657999999977
 30
0.0
 11
-797.38317999999981
 21
531.36657999999977
 31
0.0
  0
LINE
  5
59D
  8
0
  6
CONTINUOUS
 62
     7
 10
-794.38317999999981
 20
523.36657999999977
 30
0.0
 11
-797.38317999999981
 21
523.36657999999977
 31
0.0
  0
LINE
  5
59E
  8
0
  6
CONTINUOUS
 62
     7
 10
-794.38317999999981
 20
521.36658
 30
0.0
 11
-797.38317999999981
 21
521.36658
 31
0.0
  0
LINE
  5
59F
  8
0
  6
CONTINUOUS
 62
     7
 10
-794.38317999999981
 20
513.36658
 30
0.0
 11
-797.38317999999981
 21
513.36658
 31
0.0
  0
LINE
  5
5A0
  8
0
  6
CONTINUOUS
 62
     7
 10
-794.38317999999981
 20
511.36660999999992
 30
0.0
 11
-797.38317999999981
 21
511.36660999999992
 31
0.0
  0
LINE
  5
5A1
  8
0
  6
CONTINUOUS
 62
     7
 10
-796.38317999999981
 20
522.97655999999995
 30
0.0
 11
-796.38317999999981
 21
521.76660000000004
 31
0.0
  0
LINE
  5
5A2
  8
0
  6
CONTINUOUS
 62
     7
 10
-796.38317999999981
 20
512.97655999999995
 30
0.0
 11
-796.38317999999981
 21
511.81655999999998
 31
0.0
  0
LINE
  5
5A3
  8
0
  6
CONTINUOUS
 62
     7
 10
-796.38317999999981
 20
532.99657999999999
 30
0.0
 11
-796.38317999999981
 21
531.62659000000008
 31
0.0
  0
LINE
  5
5A4
  8
0
  6
CONTINUOUS
 62
     7
 10
-796.38317999999981
 20
542.75659000000007
 30
0.0
 11
-796.38317999999981
 21
541.69653000000005
 31
0.0
  0
LINE
  5
5A5
  8
0
  6
CONTINUOUS
 62
     7
 10
-796.38317999999981
 20
550.19653000000005
 30
0.0
 11
-796.38317999999981
 21
549.72655999999995
 31
0.0
  0
LINE
  5
5A6
  8
0
  6
CONTINUOUS
 62
     7
 10
-796.38317999999981
 20
554.76660000000004
 30
0.0
 11
-796.38317999999981
 21
554.21654999999998
 31
0.0
  0
LINE
  5
5A7
  8
0
  6
CONTINUOUS
 62
     7
 10
-796.38317999999981
 20
556.86657999999977
 30
0.0
 11
-796.38317999999981
 21
556.33654999999965
 31
0.0
  0
LINE
  5
5A8
  8
0
  6
CONTINUOUS
 62
     7
 10
-799.88317999999981
 20
527.36657999999977
 30
0.0
 11
-799.88317999999981
 21
507.36660999999992
 31
0.0
  0
LINE
  5
5A9
  8
0
  6
CONTINUOUS
 62
     7
 10
-799.88311999999985
 20
527.36657999999977
 30
0.0
 11
-798.38311999999985
 21
527.49657999999999
 31
0.0
  0
LINE
  5
5AA
  8
0
  6
CONTINUOUS
 62
     7
 10
-799.88317999999981
 20
522.51660000000004
 30
0.0
 11
-798.38317999999981
 21
522.51660000000004
 31
0.0
  0
LINE
  5
5AB
  8
0
  6
CONTINUOUS
 62
     7
 10
-799.88317999999981
 20
524.64661000000001
 30
0.0
 11
-798.38317999999981
 21
524.64661000000001
 31
0.0
  0
LINE
  5
5AC
  8
0
  6
CONTINUOUS
 62
     7
 10
-683.04309000000001
 20
543.36657999999989
 30
0.0
 11
-782.02306999999985
 21
543.36657999999989
 31
0.0
  0
LINE
  5
5AD
  8
0
  6
CONTINUOUS
 62
     7
 10
-683.04309000000001
 20
541.36658
 30
0.0
 11
-782.02306999999985
 21
541.36658
 31
0.0
  0
LINE
  5
5AE
  8
0
  6
CONTINUOUS
 62
     7
 10
-715.38317999999981
 20
533.36658
 30
0.0
 11
-782.02306999999985
 21
533.36658
 31
0.0
  0
LINE
  5
5AF
  8
0
  6
CONTINUOUS
 62
     7
 10
-683.05028999999979
 20
531.36657999999977
 30
0.0
 11
-782.02306999999985
 21
531.36657999999977
 31
0.0
  0
LINE
  5
5B0
  8
0
  6
CONTINUOUS
 62
     7
 10
-747.94445999999982
 20
523.36657999999977
 30
0.0
 11
-782.02306999999985
 21
523.36657999999977
 31
0.0
  0
LINE
  5
5B1
  8
0
  6
CONTINUOUS
 62
     7
 10
-747.94445999999982
 20
521.36658
 30
0.0
 11
-782.02306999999985
 21
521.36658
 31
0.0
  0
LINE
  5
5B2
  8
0
  6
CONTINUOUS
 62
     7
 10
-747.94445999999982
 20
513.36658
 30
0.0
 11
-782.02306999999985
 21
513.36658
 31
0.0
  0
LINE
  5
5B3
  8
0
  6
CONTINUOUS
 62
     7
 10
-747.94445999999982
 20
511.36660999999992
 30
0.0
 11
-782.02306999999985
 21
511.36660999999992
 31
0.0
  0
LINE
  5
5B4
  8
0
  6
CONTINUOUS
 62
     7
 10
-782.70312999999965
 20
544.08654999999999
 30
0.0
 11
-679.56311000000005
 21
544.08654999999999
 31
0.0
  0
LINE
  5
5B5
  8
0
  6
CONTINUOUS
 62
     7
 10
-782.70312999999965
 20
540.73657000000003
 30
0.0
 11
-715.36315999999965
 21
540.73657000000003
 31
0.0
  0
LINE
  5
5B6
  8
0
  6
CONTINUOUS
 62
     7
 10
-782.92309999999998
 20
533.85657000000003
 30
0.0
 11
-715.38317999999981
 21
533.85657000000003
 31
0.0
  0
LINE
  5
5B7
  8
0
  6
CONTINUOUS
 62
     7
 10
-782.92309999999998
 20
530.92664000000002
 30
0.0
 11
-679.34888000000001
 21
530.92664000000002
 31
0.0
  0
LINE
  5
5B8
  8
0
  6
CONTINUOUS
 62
     7
 10
-783.05309999999974
 20
523.70654000000002
 30
0.0
 11
-746.72437000000002
 21
523.70654000000002
 31
0.0
  0
LINE
  5
5B9
  8
0
  6
CONTINUOUS
 62
     7
 10
-783.05309999999974
 20
521.04663000000005
 30
0.0
 11
-746.72437000000002
 21
521.04663000000005
 31
0.0
  0
LINE
  5
5BA
  8
0
  6
CONTINUOUS
 62
     7
 10
-783.11315999999988
 20
513.63660000000004
 30
0.0
 11
-746.66442999999981
 21
513.63660000000004
 31
0.0
  0
LINE
  5
5BB
  8
0
  6
CONTINUOUS
 62
     7
 10
-783.11315999999988
 20
511.10660000000001
 30
0.0
 11
-746.66442999999981
 21
511.10660000000001
 31
0.0
  0
LINE
  5
5BC
  8
0
  6
CONTINUOUS
 62
     7
 10
-783.11315999999988
 20
503.63663000000003
 30
0.0
 11
-746.66442999999981
 21
503.63663000000003
 31
0.0
  0
LINE
  5
5BD
  8
0
  6
CONTINUOUS
 62
     7
 10
-747.94445999999982
 20
503.36660999999992
 30
0.0
 11
-782.02306999999985
 21
503.36660999999992
 31
0.0
  0
LINE
  5
5BE
  8
0
  6
CONTINUOUS
 62
     7
 10
-747.94445999999982
 20
501.36660999999998
 30
0.0
 11
-782.02306999999985
 21
501.36660999999998
 31
0.0
  0
LINE
  5
5BF
  8
0
  6
CONTINUOUS
 62
     7
 10
-783.11315999999988
 20
501.09658999999999
 30
0.0
 11
-746.66442999999981
 21
501.09658999999999
 31
0.0
  0
LINE
  5
5C0
  8
0
  6
CONTINUOUS
 62
     7
 10
-783.05309999999974
 20
493.68655000000001
 30
0.0
 11
-746.72437000000002
 21
493.68655000000001
 31
0.0
  0
LINE
  5
5C1
  8
0
  6
CONTINUOUS
 62
     7
 10
-747.94445999999982
 20
493.36660999999992
 30
0.0
 11
-782.02306999999985
 21
493.36660999999992
 31
0.0
  0
LINE
  5
5C2
  8
0
  6
CONTINUOUS
 62
     7
 10
-747.94445999999982
 20
491.36660999999992
 30
0.0
 11
-782.02306999999985
 21
491.36660999999992
 31
0.0
  0
LINE
  5
5C3
  8
0
  6
CONTINUOUS
 62
     7
 10
-783.05309999999974
 20
491.02663999999999
 30
0.0
 11
-746.71190999999988
 21
491.02663999999999
 31
0.0
  0
LINE
  5
5C4
  8
0
  6
CONTINUOUS
 62
     7
 10
-683.05028999999979
 20
483.36660999999998
 30
0.0
 11
-782.02306999999985
 21
483.36660999999998
 31
0.0
  0
LINE
  5
5C5
  8
0
  6
CONTINUOUS
 62
     7
 10
-782.92309999999998
 20
483.80654999999979
 30
0.0
 11
-679.34888000000001
 21
483.80654999999979
 31
0.0
  0
LINE
  5
5C6
  8
0
  6
CONTINUOUS
 62
     7
 10
-715.38317999999981
 20
481.36660999999981
 30
0.0
 11
-782.02306999999985
 21
481.36660999999981
 31
0.0
  0
LINE
  5
5C7
  8
0
  6
CONTINUOUS
 62
     7
 10
-782.92309999999998
 20
480.87661999999989
 30
0.0
 11
-715.38317999999981
 21
480.87661999999989
 31
0.0
  0
LINE
  5
5C8
  8
0
  6
CONTINUOUS
 62
     7
 10
-683.04309000000001
 20
473.36660999999992
 30
0.0
 11
-727.38317999999981
 21
473.36660999999992
 31
0.0
  0
LINE
  5
5C9
  8
0
  6
CONTINUOUS
 62
     7
 10
-683.04309000000001
 20
471.36660999999998
 30
0.0
 11
-727.38317999999981
 21
471.36660999999998
 31
0.0
  0
LINE
  5
5CA
  8
0
  6
CONTINUOUS
 62
     7
 10
-782.70312999999965
 20
470.64663999999999
 30
0.0
 11
-727.38317999999981
 21
470.64663999999999
 31
0.0
  0
LINE
  5
5CB
  8
0
  6
CONTINUOUS
 62
     7
 10
-679.56311000000005
 20
473.99660999999998
 30
0.0
 11
-697.40307999999982
 21
473.99660999999998
 31
0.0
  0
LINE
  5
5CC
  8
0
  6
CONTINUOUS
 62
     7
 10
-796.18310999999983
 20
471.67666999999989
 30
0.0
 11
-794.08312999999998
 21
471.67666999999989
 31
0.0
  0
LINE
  5
5CD
  8
0
  6
CONTINUOUS
 62
     7
 10
-796.57305999999983
 20
471.75662
 30
0.0
 11
-797.77313000000004
 21
472.27663999999999
 31
0.0
  0
LINE
  5
5CE
  8
0
  6
CONTINUOUS
 62
     7
 10
-796.23315000000002
 20
473.62662
 30
0.0
 11
-794.38317999999981
 21
473.62662
 31
0.0
  0
LINE
  5
5CF
  8
0
  6
CONTINUOUS
 62
     7
 10
-796.52313000000004
 20
473.66660000000002
 30
0.0
 11
-797.67309999999998
 21
474.02657999999991
 31
0.0
  0
LINE
  5
5D0
  8
0
  6
CONTINUOUS
 62
     7
 10
-794.38317999999981
 20
481.36660999999981
 30
0.0
 11
-797.38317999999981
 21
481.36660999999981
 31
0.0
  0
LINE
  5
5D1
  8
0
  6
CONTINUOUS
 62
     7
 10
-794.38317999999981
 20
483.36660999999998
 30
0.0
 11
-797.38317999999981
 21
483.36660999999998
 31
0.0
  0
LINE
  5
5D2
  8
0
  6
CONTINUOUS
 62
     7
 10
-794.38317999999981
 20
491.36660999999992
 30
0.0
 11
-797.38317999999981
 21
491.36660999999992
 31
0.0
  0
LINE
  5
5D3
  8
0
  6
CONTINUOUS
 62
     7
 10
-794.38317999999981
 20
493.36660999999992
 30
0.0
 11
-797.38317999999981
 21
493.36660999999992
 31
0.0
  0
LINE
  5
5D4
  8
0
  6
CONTINUOUS
 62
     7
 10
-794.38317999999981
 20
501.36660999999998
 30
0.0
 11
-797.38317999999981
 21
501.36660999999998
 31
0.0
  0
LINE
  5
5D5
  8
0
  6
CONTINUOUS
 62
     7
 10
-794.38317999999981
 20
503.36660999999992
 30
0.0
 11
-797.38317999999981
 21
503.36660999999992
 31
0.0
  0
LINE
  5
5D6
  8
0
  6
CONTINUOUS
 62
     7
 10
-796.38317999999981
 20
491.75662
 30
0.0
 11
-796.38317999999981
 21
492.97658999999987
 31
0.0
  0
LINE
  5
5D7
  8
0
  6
CONTINUOUS
 62
     7
 10
-796.38317999999981
 20
501.75662
 30
0.0
 11
-796.38317999999981
 21
502.91665999999992
 31
0.0
  0
LINE
  5
5D8
  8
0
  6
CONTINUOUS
 62
     7
 10
-796.38317999999981
 20
481.73659999999978
 30
0.0
 11
-796.38317999999981
 21
483.10659999999979
 31
0.0
  0
LINE
  5
5D9
  8
0
  6
CONTINUOUS
 62
     7
 10
-796.38317999999981
 20
471.97658999999987
 30
0.0
 11
-796.38317999999981
 21
473.03665000000001
 31
0.0
  0
LINE
  5
5DA
  8
0
  6
CONTINUOUS
 62
     7
 10
-799.88317999999981
 20
487.36660999999998
 30
0.0
 11
-799.88317999999981
 21
507.36660999999992
 31
0.0
  0
LINE
  5
5DB
  8
0
  6
CONTINUOUS
 62
     7
 10
-799.88311999999985
 20
487.36655000000002
 30
0.0
 11
-798.38311999999985
 21
487.23653999999988
 31
0.0
  0
LINE
  5
5DC
  8
0
  6
CONTINUOUS
 62
     7
 10
-799.88317999999981
 20
492.21658000000002
 30
0.0
 11
-798.38317999999981
 21
492.21658000000002
 31
0.0
  0
LINE
  5
5DD
  8
0
  6
CONTINUOUS
 62
     7
 10
-799.88317999999981
 20
490.08658000000003
 30
0.0
 11
-798.38317999999981
 21
490.08658000000003
 31
0.0
  0
LINE
  5
5DE
  8
0
  6
CONTINUOUS
 62
     7
 10
-782.70312999999965
 20
473.99660999999998
 30
0.0
 11
-715.36315999999965
 21
473.99660999999998
 31
0.0
  0
LINE
  5
5DF
  8
0
  6
CONTINUOUS
 62
     7
 10
-727.38317999999981
 20
473.36660999999992
 30
0.0
 11
-782.02306999999985
 21
473.36660999999992
 31
0.0
  0
LINE
  5
5E0
  8
0
  6
CONTINUOUS
 62
     7
 10
-727.38317999999981
 20
471.36660999999998
 30
0.0
 11
-782.02306999999985
 21
471.36660999999998
 31
0.0
  0
LINE
  5
5E1
  8
0
  6
CONTINUOUS
 62
     7
 10
-727.38317999999981
 20
470.64663999999999
 30
0.0
 11
-679.56311000000005
 21
470.64663999999999
 31
0.0
  0
LINE
  5
5E2
  8
0
  6
CONTINUOUS
 62
     7
 10
-792.38317999999981
 20
560.36657999999989
 30
0.0
 11
-792.38317999999981
 21
454.36660999999998
 31
0.0
  0
LINE
  5
5E3
  8
0
  6
CONTINUOUS
 62
     7
 10
-784.38317999999981
 20
560.36657999999989
 30
0.0
 11
-784.38317999999981
 21
454.36660999999998
 31
0.0
  0
LINE
  5
5E4
  8
0
  6
CONTINUOUS
 62
     7
 10
-797.89319
 20
466.26659999999993
 30
0.0
 11
-797.91314999999975
 21
466.2765799999998
 31
0.0
  0
LINE
  5
5E5
  8
0
  6
CONTINUOUS
 62
     7
 10
-793.38317999999981
 20
557.36657999999966
 30
0.0
 11
-793.38317999999981
 21
457.36660999999992
 31
0.0
  0
LINE
  5
5E6
  8
0
  6
CONTINUOUS
 62
     7
 10
-793.38317999999981
 20
557.36657999999966
 30
0.0
 11
-792.38317999999981
 21
557.36657999999966
 31
0.0
  0
LINE
  5
5E7
  8
0
  6
CONTINUOUS
 62
     7
 10
-792.38317999999981
 20
560.36657999999989
 30
0.0
 11
-784.38317999999981
 21
560.36657999999989
 31
0.0
  0
LINE
  5
5E8
  8
0
  6
CONTINUOUS
 62
     7
 10
-791.68310999999983
 20
550.55651999999986
 30
0.0
 11
-785.45312999999965
 21
550.55651999999986
 31
0.0
  0
LINE
  5
5E9
  8
0
  6
CONTINUOUS
 62
     7
 10
-676.38317999999981
 20
553.36658
 30
0.0
 11
-668.38317999999981
 21
553.36658
 31
0.0
  0
LINE
  5
5EA
  8
0
  6
CONTINUOUS
 62
     7
 10
-676.38317999999981
 20
539.30651999999986
 30
0.0
 11
-632.29076999999995
 21
539.30651999999986
 31
0.0
  0
LINE
  5
5EB
  8
0
  6
CONTINUOUS
 62
     7
 10
-676.38317999999981
 20
563.36658
 30
0.0
 11
-668.38317999999981
 21
563.36658
 31
0.0
  0
LINE
  5
5EC
  8
0
  6
CONTINUOUS
 62
     7
 10
-781.17309999999986
 20
563.64660999999978
 30
0.0
 11
-684.25317000000018
 21
563.64660999999978
 31
0.0
  0
LINE
  5
5ED
  8
0
  6
CONTINUOUS
 62
     7
 10
-784.38311999999985
 20
555.46667000000002
 30
0.0
 11
-783.14312999999981
 21
562.02666999999997
 31
0.0
  0
LINE
  5
5EE
  8
0
  6
CONTINUOUS
 62
     7
 10
-779.02313000000004
 20
544.01660000000004
 30
0.0
 11
-784.38311999999985
 21
555.46654999999976
 31
0.0
  0
LINE
  5
5EF
  8
0
  6
CONTINUOUS
 62
     7
 10
-779.02319
 20
470.71657999999991
 30
0.0
 11
-784.38311999999985
 21
459.27663999999999
 31
0.0
  0
LINE
  5
5F0
  8
0
  6
CONTINUOUS
 62
     7
 10
-781.13317999999981
 20
566.49657999999999
 30
0.0
 11
-684.25317000000018
 21
566.49657999999999
 31
0.0
  0
LINE
  5
5F1
  8
0
  6
CONTINUOUS
 62
     7
 10
-781.11315999999999
 20
568.34655999999995
 30
0.0
 11
-684.25317000000018
 21
568.34655999999995
 31
0.0
  0
LINE
  5
5F2
  8
0
  6
CONTINUOUS
 62
     7
 10
-781.09313999999983
 20
569.25658999999985
 30
0.0
 11
-684.25305000000003
 21
569.25658999999985
 31
0.0
  0
LINE
  5
5F3
  8
0
  6
CONTINUOUS
 62
     7
 10
-784.38311999999985
 20
556.80664000000002
 30
0.0
 11
-783.10315000000003
 21
564.81659000000002
 31
0.0
  0
LINE
  5
5F4
  8
0
  6
CONTINUOUS
 62
     7
 10
-784.38317999999981
 20
558.15656000000001
 30
0.0
 11
-783.09313999999983
 21
566.64666999999986
 31
0.0
  0
LINE
  5
5F5
  8
0
  6
CONTINUOUS
 62
     7
 10
-784.38311999999985
 20
558.15661999999998
 30
0.0
 11
-783.07312000000002
 21
567.53661999999997
 31
0.0
  0
LINE
  5
5F6
  8
0
  6
CONTINUOUS
 62
     7
 10
-678.18311000000006
 20
546.70654000000002
 30
0.0
 11
-682.32312000000002
 21
562.16656
 31
0.0
  0
LINE
  5
5F7
  8
0
  6
CONTINUOUS
 62
     7
 10
-681.84313999999995
 20
560.36657999999989
 30
0.0
 11
-676.38317999999981
 21
560.36657999999989
 31
0.0
  0
LINE
  5
5F8
  8
0
  6
CONTINUOUS
 62
     7
 10
-798.38317999999981
 20
459.34658999999988
 30
0.0
 11
-798.38317999999981
 21
502.36660999999981
 31
0.0
  0
LINE
  5
5F9
  8
0
  6
CONTINUOUS
 62
     7
 10
-796.11315999999988
 20
457.61660999999998
 30
0.0
 11
-793.88317999999981
 21
457.61660999999998
 31
0.0
  0
LINE
  5
5FA
  8
0
  6
CONTINUOUS
 62
     7
 10
-796.61310000000003
 20
457.75655999999981
 30
0.0
 11
-797.88311999999985
 21
458.48656999999992
 31
0.0
  0
LINE
  5
5FB
  8
0
  6
CONTINUOUS
 62
     7
 10
-796.62310999999988
 20
459.86658
 30
0.0
 11
-797.90307999999982
 21
460.63659999999999
 31
0.0
  0
LINE
  5
5FC
  8
0
  6
CONTINUOUS
 62
     7
 10
-796.63317999999981
 20
464.40655999999967
 30
0.0
 11
-797.93317000000002
 21
465.25655999999992
 31
0.0
  0
LINE
  5
5FD
  8
0
  6
CONTINUOUS
 62
     7
 10
-796.10315000000003
 20
459.72658999999999
 30
0.0
 11
-793.38317999999981
 21
459.72658999999999
 31
0.0
  0
LINE
  5
5FE
  8
0
  6
CONTINUOUS
 62
     7
 10
-796.08312999999964
 20
464.24660999999998
 30
0.0
 11
-793.38317999999981
 21
464.24660999999998
 31
0.0
  0
LINE
  5
5FF
  8
0
  6
CONTINUOUS
 62
     7
 10
-796.11315999999988
 20
465.3866299999998
 30
0.0
 11
-794.38317999999981
 21
465.3866299999998
 31
0.0
  0
LINE
  5
600
  8
0
  6
CONTINUOUS
 62
     7
 10
-796.13317999999981
 20
460.86660999999992
 30
0.0
 11
-794.38317999999981
 21
460.86660999999992
 31
0.0
  0
LINE
  5
601
  8
0
  6
CONTINUOUS
 62
     7
 10
-796.14306999999985
 20
458.76662999999991
 30
0.0
 11
-793.88317999999981
 21
458.76662999999991
 31
0.0
  0
LINE
  5
602
  8
0
  6
CONTINUOUS
 62
     7
 10
-796.61310000000003
 20
465.51659999999998
 30
0.0
 11
-797.89306999999985
 21
466.26656999999989
 31
0.0
  0
LINE
  5
603
  8
0
  6
CONTINUOUS
 62
     7
 10
-796.59313999999983
 20
458.87655999999998
 30
0.0
 11
-797.83312999999964
 21
459.50655999999981
 31
0.0
  0
LINE
  5
604
  8
0
  6
CONTINUOUS
 62
     7
 10
-796.60315000000003
 20
460.98653999999999
 30
0.0
 11
-797.85315000000003
 21
461.64657999999991
 31
0.0
  0
LINE
  5
605
  8
0
  6
CONTINUOUS
 62
     7
 10
-796.38317999999981
 20
464.53665000000001
 30
0.0
 11
-796.38317999999981
 21
465.00662
 31
0.0
  0
LINE
  5
606
  8
0
  6
CONTINUOUS
 62
     7
 10
-796.38317999999981
 20
459.96657999999991
 30
0.0
 11
-796.38317999999981
 21
460.51662999999991
 31
0.0
  0
LINE
  5
607
  8
0
  6
CONTINUOUS
 62
     7
 10
-796.38317999999981
 20
457.86660999999992
 30
0.0
 11
-796.38317999999981
 21
458.39663999999999
 31
0.0
  0
LINE
  5
608
  8
0
  6
CONTINUOUS
 62
     7
 10
-793.38317999999981
 20
457.36660999999992
 30
0.0
 11
-792.38317999999981
 21
457.36660999999992
 31
0.0
  0
LINE
  5
609
  8
0
  6
CONTINUOUS
 62
     7
 10
-792.38317999999981
 20
454.36660999999998
 30
0.0
 11
-784.38317999999981
 21
454.36660999999998
 31
0.0
  0
LINE
  5
60A
  8
0
  6
CONTINUOUS
 62
     7
 10
-791.68310999999983
 20
464.17666999999989
 30
0.0
 11
-785.45312999999965
 21
464.17666999999989
 31
0.0
  0
LINE
  5
60B
  8
0
  6
CONTINUOUS
 62
     7
 10
-676.38317999999981
 20
461.36660999999992
 30
0.0
 11
-668.38317999999981
 21
461.36660999999992
 31
0.0
  0
LINE
  5
60C
  8
0
  6
CONTINUOUS
 62
     7
 10
-676.38317999999981
 20
451.36660999999998
 30
0.0
 11
-668.38317999999981
 21
451.36660999999998
 31
0.0
  0
LINE
  5
60D
  8
0
  6
CONTINUOUS
 62
     7
 10
-781.17309999999986
 20
451.08657999999991
 30
0.0
 11
-684.25317000000018
 21
451.08657999999991
 31
0.0
  0
LINE
  5
60E
  8
0
  6
CONTINUOUS
 62
     7
 10
-784.38306
 20
459.27654999999987
 30
0.0
 11
-783.14306999999985
 21
452.71657999999968
 31
0.0
  0
LINE
  5
60F
  8
0
  6
CONTINUOUS
 62
     7
 10
-781.47692999999981
 20
448.23659999999978
 30
0.0
 11
-758.98499000000004
 21
448.23659999999978
 31
0.0
  0
LINE
  5
610
  8
0
  6
CONTINUOUS
 62
     7
 10
-784.38311999999985
 20
457.92660999999993
 30
0.0
 11
-783.10315000000003
 21
449.92666999999989
 31
0.0
  0
LINE
  5
611
  8
0
  6
CONTINUOUS
 62
     7
 10
-784.38317999999981
 20
456.58661000000001
 30
0.0
 11
-783.37390000000005
 21
449.93645999999978
 31
0.0
  0
LINE
  5
612
  8
0
  6
CONTINUOUS
 62
     7
 10
-784.38311999999985
 20
456.58661000000001
 30
0.0
 11
-783.45763999999986
 21
449.96001999999987
 31
0.0
  0
LINE
  5
613
  8
0
  6
CONTINUOUS
 62
     7
 10
-678.17742999999984
 20
468.04775999999993
 30
0.0
 11
-682.32317999999998
 21
452.56664999999981
 31
0.0
  0
LINE
  5
614
  8
0
  6
CONTINUOUS
 62
     7
 10
-681.84105999999986
 20
454.36660999999998
 30
0.0
 11
-676.38317999999981
 21
454.36660999999998
 31
0.0
  0
LINE
  5
615
  8
0
  6
CONTINUOUS
 62
     7
 10
-676.38317999999981
 20
475.42667
 30
0.0
 11
-632.29076999999995
 21
475.42667
 31
0.0
  0
LINE
  5
616
  8
0
  6
CONTINUOUS
 62
     3
 10
-757.38311999999985
 20
442.86658
 30
0.0
 11
-757.59838999999988
 21
451.08667000000003
 31
0.0
  0
LINE
  5
617
  8
0
  6
CONTINUOUS
 62
     3
 10
-697.38311999999985
 20
442.86660999999998
 30
0.0
 11
-697.16791000000001
 21
451.08667000000003
 31
0.0
  0
LINE
  5
618
  8
0
  6
CONTINUOUS
 62
     3
 10
-677.38311999999996
 20
454.36660999999998
 30
0.0
 11
-683.10889000000009
 21
445.54970999999989
 31
0.0
  0
LINE
  5
619
  8
0
  6
CONTINUOUS
 62
     7
 10
-697.38317999999981
 20
442.86660999999998
 30
0.0
 11
-757.38317999999981
 21
442.86660999999998
 31
0.0
  0
LINE
  5
61A
  8
0
  6
CONTINUOUS
 62
     7
 10
-695.86950999999988
 20
444.86660999999992
 30
0.0
 11
-684.36694
 21
444.86660999999992
 31
0.0
  0
LINE
  5
61B
  8
0
  6
CONTINUOUS
 62
     7
 10
-698.40307999999982
 20
534.86658
 30
0.0
 11
-698.40307999999982
 21
539.72655999999995
 31
0.0
  0
LINE
  5
61C
  8
0
  6
CONTINUOUS
 62
     7
 10
-714.36315999999988
 20
534.86658
 30
0.0
 11
-714.36315999999988
 21
539.72655999999995
 31
0.0
  0
LINE
  5
61D
  8
0
  6
CONTINUOUS
 62
     7
 10
-698.88317999999981
 20
534.86658
 30
0.0
 11
-698.88317999999981
 21
539.86657999999977
 31
0.0
  0
LINE
  5
61E
  8
0
  6
CONTINUOUS
 62
     7
 10
-713.88317999999981
 20
534.86658
 30
0.0
 11
-713.88317999999981
 21
539.86657999999977
 31
0.0
  0
LINE
  5
61F
  8
0
  6
CONTINUOUS
 62
     7
 10
-742.38317999999981
 20
520.36658
 30
0.0
 11
-679.38317999999981
 21
520.36658
 31
0.0
  0
LINE
  5
620
  8
0
  6
CONTINUOUS
 62
     7
 10
-742.38317999999981
 20
486.86660999999992
 30
0.0
 11
-679.38317999999981
 21
486.86660999999992
 31
0.0
  0
LINE
  5
621
  8
0
  6
CONTINUOUS
 62
     7
 10
-742.38317999999981
 20
527.86657999999966
 30
0.0
 11
-679.38317999999981
 21
527.86657999999966
 31
0.0
  0
LINE
  5
622
  8
0
  6
CONTINUOUS
 62
     3
 10
-679.38317999999981
 20
527.86657999999966
 30
0.0
 11
-679.38317999999981
 21
486.86660999999992
 31
0.0
  0
LINE
  5
623
  8
0
  6
CONTINUOUS
 62
     3
 10
-742.38317999999981
 20
527.86657999999966
 30
0.0
 11
-742.38317999999981
 21
486.86660999999992
 31
0.0
  0
LINE
  5
624
  8
0
  6
CONTINUOUS
 62
     7
 10
-697.38317999999981
 20
533.85657000000003
 30
0.0
 11
-679.3374
 21
533.85657000000003
 31
0.0
  0
LINE
  5
625
  8
0
  6
CONTINUOUS
 62
     7
 10
-697.38317999999981
 20
480.88663000000003
 30
0.0
 11
-679.34888000000001
 21
480.88663000000003
 31
0.0
  0
LINE
  5
626
  8
0
  6
CONTINUOUS
 62
     7
 10
-698.40307999999982
 20
479.86660999999998
 30
0.0
 11
-698.40307999999982
 21
475.00662
 31
0.0
  0
LINE
  5
627
  8
0
  6
CONTINUOUS
 62
     7
 10
-714.36315999999988
 20
479.86660999999998
 30
0.0
 11
-714.36315999999988
 21
475.00662
 31
0.0
  0
LINE
  5
628
  8
0
  6
CONTINUOUS
 62
     7
 10
-698.88317999999981
 20
479.86660999999998
 30
0.0
 11
-698.88317999999981
 21
474.86660999999998
 31
0.0
  0
LINE
  5
629
  8
0
  6
CONTINUOUS
 62
     7
 10
-713.88317999999981
 20
479.86660999999998
 30
0.0
 11
-713.88317999999981
 21
474.86660999999998
 31
0.0
  0
LINE
  5
62A
  8
0
  6
CONTINUOUS
 62
     7
 10
-683.05028999999979
 20
481.36660999999981
 30
0.0
 11
-697.38317999999981
 21
481.36660999999981
 31
0.0
  0
LINE
  5
62B
  8
0
  6
CONTINUOUS
 62
     7
 10
-683.03600999999981
 20
533.36658
 30
0.0
 11
-697.38317999999981
 21
533.36658
 31
0.0
  0
LINE
  5
62C
  8
0
  6
CONTINUOUS
 62
     3
 10
-697.40307999999982
 20
540.72655999999995
 30
0.0
 11
-679.56311000000005
 21
540.72655999999995
 31
0.0
  0
LINE
  5
62D
  8
0
  6
CONTINUOUS
 62
     7
 10
-362.88314999999989
 20
197.5479399999999
 30
0.0
 11
-420.88315
 21
197.5479399999999
 31
0.0
  0
LINE
  5
62E
  8
0
  6
CONTINUOUS
 62
     7
 10
-362.88314999999989
 20
200.54794000000001
 30
0.0
 11
-407.88317999999992
 21
200.54794000000001
 31
0.0
  0
LINE
  5
62F
  8
0
  6
CONTINUOUS
 62
     7
 10
-362.88314999999989
 20
165.5479599999999
 30
0.0
 11
-420.88315
 21
165.5479599999999
 31
0.0
  0
LINE
  5
630
  8
0
  6
CONTINUOUS
 62
     7
 10
-407.88317999999992
 20
197.5479399999999
 30
0.0
 11
-407.88317999999992
 21
200.54794000000001
 31
0.0
  0
LINE
  5
631
  8
0
  6
CONTINUOUS
 62
     7
 10
-537.88317999999992
 20
253.0479399999999
 30
0.0
 11
-537.88317999999992
 21
54.047947000000001
 31
0.0
  0
LINE
  5
632
  8
0
  6
CONTINUOUS
 62
     7
 10
-362.88314999999989
 20
165.5479599999999
 30
0.0
 11
-362.88314999999989
 21
200.54794000000001
 31
0.0
  0
LINE
  5
633
  8
0
  6
CONTINUOUS
 62
     7
 10
-547.88311999999996
 20
73.130165000000005
 30
0.0
 11
-547.88311999999996
 21
56.328536999999997
 31
0.0
  0
LINE
  5
634
  8
0
  6
CONTINUOUS
 62
     7
 10
-537.88311999999985
 20
183.73328000000001
 30
0.0
 11
-537.88159000000007
 21
183.73328000000001
 31
0.0
  0
LINE
  5
635
  8
0
  6
CONTINUOUS
 62
     7
 10
-559.88311999999985
 20
244.5719899999998
 30
0.0
 11
-559.88311999999985
 21
62.524517000000003
 31
0.0
  0
LINE
  5
636
  8
0
  6
CONTINUOUS
 62
     7
 10
-556.98784999999987
 20
247.57019
 30
0.0
 11
-549.81335000000001
 21
247.82071999999991
 31
0.0
  0
LINE
  5
637
  8
0
  6
CONTINUOUS
 62
     7
 10
-594.38317999999981
 20
227.0479399999999
 30
0.0
 11
-562.77844000000005
 21
228.15161000000001
 31
0.0
  0
LINE
  5
638
  8
0
  6
CONTINUOUS
 62
     7
 10
-545.95294000000001
 20
252.76613999999989
 30
0.0
 11
-537.88317999999992
 21
253.0479399999999
 31
0.0
  0
LINE
  5
639
  8
0
  6
CONTINUOUS
 62
     7
 10
-594.38311999999985
 20
80.047950999999998
 30
0.0
 11
-562.31341999999995
 21
78.928046999999978
 31
0.0
  0
LINE
  5
63A
  8
0
  6
CONTINUOUS
 62
     7
 10
-557.88317999999992
 20
236.85059999999999
 30
0.0
 11
-549.88311999999985
 21
236.85059999999999
 31
0.0
  0
LINE
  5
63B
  8
0
  6
CONTINUOUS
 62
     7
 10
-557.88317999999992
 20
219.88003999999989
 30
0.0
 11
-549.88311999999985
 21
219.88003999999989
 31
0.0
  0
LINE
  5
63C
  8
0
  6
CONTINUOUS
 62
     7
 10
-547.88311999999996
 20
238.8505899999999
 30
0.0
 11
-547.88311999999996
 21
250.76735999999991
 31
0.0
  0
LINE
  5
63D
  8
0
  6
CONTINUOUS
 62
     7
 10
-558.40459999999985
 20
210.93062
 30
0.0
 11
-549.45410000000004
 21
210.93062
 31
0.0
  0
LINE
  5
63E
  8
0
  6
CONTINUOUS
 62
     7
 10
-604.38317999999981
 20
114.07328
 30
0.0
 11
-559.88311999999985
 21
114.07328
 31
0.0
  0
LINE
  5
63F
  8
0
  6
CONTINUOUS
 62
     7
 10
-604.38317999999981
 20
193.02262999999991
 30
0.0
 11
-559.88311999999985
 21
193.02262999999991
 31
0.0
  0
LINE
  5
640
  8
0
  6
CONTINUOUS
 62
     7
 10
-547.88311999999996
 20
93.167708999999988
 30
0.0
 11
-547.88311999999996
 21
217.88005000000001
 31
0.0
  0
LINE
  5
641
  8
0
  6
CONTINUOUS
 62
     7
 10
-556.98784999999987
 20
59.525734
 30
0.0
 11
-549.81335000000001
 21
59.275196000000001
 31
0.0
  0
LINE
  5
642
  8
0
  6
CONTINUOUS
 62
     3
 10
-604.38317999999981
 20
215.1266
 30
0.0
 11
-559.88311999999985
 21
215.1266
 31
0.0
  0
LINE
  5
643
  8
0
  6
CONTINUOUS
 62
     3
 10
-604.38317999999981
 20
91.969307000000015
 30
0.0
 11
-559.88311999999985
 21
91.969307000000015
 31
0.0
  0
LINE
  5
644
  8
0
  6
CENTER
 62
     1
 10
-565.52112
 20
125.54795
 30
0.0
 11
-804.96331999999984
 21
125.54795
 31
0.0
  0
LINE
  5
645
  8
0
  6
CONTINUOUS
 62
     7
 10
-695.88317999999981
 20
155.5479599999999
 30
0.0
 11
-686.61310000000003
 21
155.5479599999999
 31
0.0
  0
LINE
  5
646
  8
0
  6
CONTINUOUS
 62
     3
 10
-777.88367000000005
 20
118.04769999999991
 30
0.0
 11
-777.88367000000005
 21
133.04769999999991
 31
0.0
  0
LINE
  5
647
  8
0
  6
CONTINUOUS
 62
     3
 10
-777.88367000000005
 20
133.04769999999991
 30
0.0
 11
-774.38360999999998
 21
133.04769999999991
 31
0.0
  0
LINE
  5
648
  8
0
  6
CONTINUOUS
 62
     3
 10
-770.38367000000005
 20
159.04771
 30
0.0
 11
-770.38367000000005
 21
155.54769999999991
 31
0.0
  0
LINE
  5
649
  8
0
  6
CONTINUOUS
 62
     3
 10
-770.38367000000005
 20
159.04771
 30
0.0
 11
-755.38311999999985
 21
159.04771
 31
0.0
  0
LINE
  5
64A
  8
0
  6
CONTINUOUS
 62
     3
 10
-755.38311999999985
 20
159.04771
 30
0.0
 11
-755.38311999999985
 21
155.54769999999991
 31
0.0
  0
LINE
  5
64B
  8
0
  6
CONTINUOUS
 62
     3
 10
-774.38360999999998
 20
95.548194999999964
 30
0.0
 11
-774.38360999999998
 21
155.54769999999991
 31
0.0
  0
LINE
  5
64C
  8
0
  6
CONTINUOUS
 62
     3
 10
-697.38317999999981
 20
97.047950999999998
 30
0.0
 11
-697.38317999999981
 21
154.0479599999999
 31
0.0
  0
LINE
  5
64D
  8
0
  6
CONTINUOUS
 62
     3
 10
-774.38360999999998
 20
155.54769999999991
 30
0.0
 11
-698.88317999999981
 21
155.54769999999991
 31
0.0
  0
LINE
  5
64E
  8
0
  6
CONTINUOUS
 62
     3
 10
-745.18310999999983
 20
107.74772
 30
0.0
 11
-745.18310999999983
 21
143.35173
 31
0.0
  0
LINE
  5
64F
  8
0
  6
CONTINUOUS
 62
     3
 10
-709.58312999999998
 20
107.74772
 30
0.0
 11
-709.58312999999998
 21
143.35173
 31
0.0
  0
LINE
  5
650
  8
0
  6
CONTINUOUS
 62
     3
 10
-745.18310999999983
 20
107.74772
 30
0.0
 11
-709.58312999999998
 21
107.74772
 31
0.0
  0
LINE
  5
651
  8
0
  6
CONTINUOUS
 62
     3
 10
-745.18310999999983
 20
143.35173
 30
0.0
 11
-709.58312999999998
 21
143.35173
 31
0.0
  0
LINE
  5
652
  8
0
  6
CONTINUOUS
 62
     3
 10
-707.01110999999969
 20
103.04819000000001
 30
0.0
 11
-702.80609000000004
 21
103.04819000000001
 31
0.0
  0
LINE
  5
653
  8
0
  6
CONTINUOUS
 62
     3
 10
-704.88317999999981
 20
100.98618
 30
0.0
 11
-704.88317999999981
 21
105.0121199999999
 31
0.0
  0
LINE
  5
654
  8
0
  6
CONTINUOUS
 62
     3
 10
-775.88360999999986
 20
94.048195000000007
 30
0.0
 11
-770.38367000000005
 21
94.048195000000007
 31
0.0
  0
LINE
  5
655
  8
0
  6
CONTINUOUS
 62
     3
 10
-775.88360999999986
 20
157.04769999999991
 30
0.0
 11
-770.38367000000005
 21
157.04769999999991
 31
0.0
  0
LINE
  5
656
  8
0
  6
CONTINUOUS
 62
     3
 10
-750.38311999999985
 20
102.54819999999999
 30
0.0
 11
-710.36114999999995
 21
102.54819999999999
 31
0.0
  0
LINE
  5
657
  8
0
  6
CONTINUOUS
 62
     3
 10
-744.40612999999985
 20
148.54771
 30
0.0
 11
-704.38311999999985
 21
148.54771
 31
0.0
  0
LINE
  5
658
  8
0
  6
CONTINUOUS
 62
     3
 10
-695.88317999999981
 20
94.048195000000007
 30
0.0
 11
-695.88317999999981
 21
157.04769999999991
 31
0.0
  0
LINE
  5
659
  8
0
  6
CONTINUOUS
 62
     3
 10
-704.38311999999985
 20
108.52566999999991
 30
0.0
 11
-704.38311999999985
 21
148.54771
 31
0.0
  0
LINE
  5
65A
  8
0
  6
CONTINUOUS
 62
     3
 10
-750.38311999999985
 20
102.54819999999999
 30
0.0
 11
-750.38311999999985
 21
142.57071999999991
 31
0.0
  0
LINE
  5
65B
  8
0
  6
CONTINUOUS
 62
     3
 10
-775.88360999999986
 20
94.048195000000007
 30
0.0
 11
-775.88360999999986
 21
118.04769999999991
 31
0.0
  0
LINE
  5
65C
  8
0
  6
CONTINUOUS
 62
     3
 10
-775.88360999999986
 20
133.04769999999991
 30
0.0
 11
-775.88360999999986
 21
157.04769999999991
 31
0.0
  0
LINE
  5
65D
  8
0
  6
CONTINUOUS
 62
     3
 10
-749.88317999999958
 20
145.98570000000001
 30
0.0
 11
-749.88317999999958
 21
150.0116899999999
 31
0.0
  0
LINE
  5
65E
  8
0
  6
CONTINUOUS
 62
     3
 10
-752.01110999999958
 20
148.04769999999999
 30
0.0
 11
-747.80609000000004
 21
148.04769999999999
 31
0.0
  0
LINE
  5
65F
  8
0
  6
CONTINUOUS
 62
     3
 10
-774.38360999999998
 20
95.548194999999964
 30
0.0
 11
-698.88317999999981
 21
95.548194999999964
 31
0.0
  0
LINE
  5
660
  8
0
  6
CONTINUOUS
 62
     7
 10
-695.88317999999981
 20
95.547950999999969
 30
0.0
 11
-686.61310000000003
 21
95.547950999999969
 31
0.0
  0
LINE
  5
661
  8
0
  6
CONTINUOUS
 62
     7
 10
-758.88317999999981
 20
87.324866999999998
 30
0.0
 11
-676.38317999999981
 21
87.324866999999998
 31
0.0
  0
LINE
  5
662
  8
0
  6
CONTINUOUS
 62
     7
 10
-760.38317999999981
 20
88.824866999999983
 30
0.0
 11
-760.38317999999981
 21
88.824866999999983
 31
0.0
  0
LINE
  5
663
  8
0
  6
CONTINUOUS
 62
     7
 10
-681.84265000000005
 20
72.547950999999983
 30
0.0
 11
-676.38317999999981
 21
72.547950999999983
 31
0.0
  0
LINE
  5
664
  8
0
  6
CONTINUOUS
 62
     7
 10
-677.88317999999981
 20
87.324935999999965
 30
0.0
 11
-682.3252
 21
70.747078000000002
 31
0.0
  0
LINE
  5
665
  8
0
  6
CONTINUOUS
 62
     7
 10
-745.3831799999997
 20
65.660010999999997
 30
0.0
 11
-745.3831799999997
 21
69.264686999999995
 31
0.0
  0
LINE
  5
666
  8
0
  6
CONTINUOUS
 62
     7
 10
-784.38317999999981
 20
74.763068999999987
 30
0.0
 11
-783.07434000000001
 21
65.383628999999999
 31
0.0
  0
LINE
  5
667
  8
0
  6
CONTINUOUS
 62
     7
 10
-784.38317999999981
 20
74.763122999999979
 30
0.0
 11
-783.09209999999985
 21
66.269974000000005
 31
0.0
  0
LINE
  5
668
  8
0
  6
CONTINUOUS
 62
     7
 10
-784.38317999999981
 20
76.107688999999979
 30
0.0
 11
-783.10308999999984
 21
68.102501000000004
 31
0.0
  0
LINE
  5
669
  8
0
  6
CONTINUOUS
 62
     7
 10
-781.09350999999981
 20
63.660010999999997
 30
0.0
 11
-747.38311999999985
 21
63.660010999999997
 31
0.0
  0
LINE
  5
66A
  8
0
  6
CONTINUOUS
 62
     7
 10
-781.11480999999969
 20
64.570533999999995
 30
0.0
 11
-747.38311999999985
 21
64.570533999999995
 31
0.0
  0
LINE
  5
66B
  8
0
  6
CONTINUOUS
 62
     7
 10
-781.12816999999984
 20
66.418312
 30
0.0
 11
-747.38311999999985
 21
66.418312
 31
0.0
  0
LINE
  5
66C
  8
0
  6
CONTINUOUS
 62
     7
 10
-784.38317999999981
 20
77.452202
 30
0.0
 11
-783.14190999999983
 21
70.892814999999999
 31
0.0
  0
LINE
  5
66D
  8
0
  6
CONTINUOUS
 62
     7
 10
-781.17669999999976
 20
69.264686999999995
 30
0.0
 11
-684.25696000000005
 21
69.264686999999995
 31
0.0
  0
LINE
  5
66E
  8
0
  6
CONTINUOUS
 62
     7
 10
-676.38317999999981
 20
69.547950999999998
 30
0.0
 11
-668.38311999999996
 21
69.547950999999998
 31
0.0
  0
LINE
  5
66F
  8
0
  6
CONTINUOUS
 62
     7
 10
-791.68505999999979
 20
82.356482999999983
 30
0.0
 11
-785.45525999999984
 21
82.356482999999983
 31
0.0
  0
LINE
  5
670
  8
0
  6
CONTINUOUS
 62
     7
 10
-792.38311999999985
 20
72.547950999999983
 30
0.0
 11
-784.38317999999981
 21
72.547950999999983
 31
0.0
  0
LINE
  5
671
  8
0
  6
CONTINUOUS
 62
     7
 10
-793.38317999999981
 20
75.547950999999983
 30
0.0
 11
-792.38311999999985
 21
75.547950999999983
 31
0.0
  0
LINE
  5
672
  8
0
  6
CONTINUOUS
 62
     7
 10
-796.38317999999981
 20
76.051795999999982
 30
0.0
 11
-796.38317999999981
 21
76.577553000000023
 31
0.0
  0
LINE
  5
673
  8
0
  6
CONTINUOUS
 62
     7
 10
-796.38317999999981
 20
78.151413000000005
 30
0.0
 11
-796.38317999999981
 21
78.697432999999975
 31
0.0
  0
LINE
  5
674
  8
0
  6
CONTINUOUS
 62
     7
 10
-796.38317999999981
 20
82.717513999999966
 30
0.0
 11
-796.38317999999981
 21
83.18961299999998
 31
0.0
  0
LINE
  5
675
  8
0
  6
CONTINUOUS
 62
     7
 10
-796.60277999999983
 20
79.162757999999982
 30
0.0
 11
-797.85144000000003
 21
79.824623000000003
 31
0.0
  0
LINE
  5
676
  8
0
  6
CONTINUOUS
 62
     7
 10
-796.59649999999988
 20
77.053200000000004
 30
0.0
 11
-797.83582000000001
 21
77.682228000000023
 31
0.0
  0
LINE
  5
677
  8
0
  6
CONTINUOUS
 62
     7
 10
-796.61730999999975
 20
83.700141999999985
 30
0.0
 11
-797.88860999999974
 21
84.444800999999984
 31
0.0
  0
LINE
  5
678
  8
0
  6
CONTINUOUS
 62
     7
 10
-796.14391999999998
 20
76.944862000000001
 30
0.0
 11
-793.88311999999985
 21
76.944862000000001
 31
0.0
  0
LINE
  5
679
  8
0
  6
CONTINUOUS
 62
     7
 10
-796.13451999999984
 20
79.04630299999998
 30
0.0
 11
-794.38317999999981
 21
79.04630299999998
 31
0.0
  0
LINE
  5
67A
  8
0
  6
CONTINUOUS
 62
     7
 10
-796.11187999999981
 20
83.563025999999965
 30
0.0
 11
-794.38317999999981
 21
83.563025999999965
 31
0.0
  0
LINE
  5
67B
  8
0
  6
CONTINUOUS
 62
     7
 10
-796.08452999999986
 20
82.423011999999986
 30
0.0
 11
-793.38317999999981
 21
82.423011999999986
 31
0.0
  0
LINE
  5
67C
  8
0
  6
CONTINUOUS
 62
     7
 10
-796.10613999999998
 20
77.906288000000004
 30
0.0
 11
-793.38317999999981
 21
77.906288000000004
 31
0.0
  0
LINE
  5
67D
  8
0
  6
CONTINUOUS
 62
     7
 10
-796.63287000000003
 20
82.586776999999984
 30
0.0
 11
-797.93151999999998
 21
83.438338999999985
 31
0.0
  0
LINE
  5
67E
  8
0
  6
CONTINUOUS
 62
     7
 10
-796.62072999999964
 20
78.048858999999979
 30
0.0
 11
-797.89770999999985
 21
78.81514
 31
0.0
  0
LINE
  5
67F
  8
0
  6
CONTINUOUS
 62
     7
 10
-796.61536000000001
 20
75.932793000000004
 30
0.0
 11
-797.88354000000004
 21
76.665770999999964
 31
0.0
  0
LINE
  5
680
  8
0
  6
CONTINUOUS
 62
     7
 10
-796.11499000000003
 20
75.798560999999964
 30
0.0
 11
-793.88311999999985
 21
75.798560999999964
 31
0.0
  0
LINE
  5
681
  8
0
  6
CONTINUOUS
 62
     7
 10
-798.38311999999985
 20
77.531531999999984
 30
0.0
 11
-798.38311999999985
 21
120.54796
 31
0.0
  0
LINE
  5
682
  8
0
  6
CONTINUOUS
 62
     7
 10
-681.84265000000005
 20
178.5479399999999
 30
0.0
 11
-676.38317999999981
 21
178.5479399999999
 31
0.0
  0
LINE
  5
683
  8
0
  6
CONTINUOUS
 62
     7
 10
-678.18102999999996
 20
164.8827499999999
 30
0.0
 11
-682.32512999999994
 21
180.34882999999991
 31
0.0
  0
LINE
  5
684
  8
0
  6
CONTINUOUS
 62
     7
 10
-745.3831799999997
 20
185.43582000000001
 30
0.0
 11
-745.3831799999997
 21
181.83120999999991
 31
0.0
  0
LINE
  5
685
  8
0
  6
CONTINUOUS
 62
     7
 10
-784.38317999999981
 20
176.33280999999999
 30
0.0
 11
-783.07434000000001
 21
185.7122699999999
 31
0.0
  0
LINE
  5
686
  8
0
  6
CONTINUOUS
 62
     7
 10
-784.38311999999985
 20
176.33280999999999
 30
0.0
 11
-783.09209999999985
 21
184.82587000000001
 31
0.0
  0
LINE
  5
687
  8
0
  6
CONTINUOUS
 62
     7
 10
-784.38311999999985
 20
174.98820000000001
 30
0.0
 11
-783.10302999999999
 21
182.99338
 31
0.0
  0
LINE
  5
688
  8
0
  6
CONTINUOUS
 62
     7
 10
-781.09350999999981
 20
187.43584000000001
 30
0.0
 11
-747.38311999999985
 21
187.43584000000001
 31
0.0
  0
LINE
  5
689
  8
0
  6
CONTINUOUS
 62
     7
 10
-781.11480999999969
 20
186.5252999999999
 30
0.0
 11
-747.38311999999985
 21
186.5252999999999
 31
0.0
  0
LINE
  5
68A
  8
0
  6
CONTINUOUS
 62
     7
 10
-781.12816999999984
 20
184.67757999999981
 30
0.0
 11
-747.38311999999985
 21
184.67757999999981
 31
0.0
  0
LINE
  5
68B
  8
0
  6
CONTINUOUS
 62
     7
 10
-758.88317999999981
 20
163.77097000000001
 30
0.0
 11
-676.38317999999981
 21
163.77097000000001
 31
0.0
  0
LINE
  5
68C
  8
0
  6
CONTINUOUS
 62
     7
 10
-779.01775999999984
 20
88.896728999999979
 30
0.0
 11
-784.38317999999981
 21
77.452240000000003
 31
0.0
  0
LINE
  5
68D
  8
0
  6
CONTINUOUS
 62
     7
 10
-779.01769999999988
 20
162.19916000000001
 30
0.0
 11
-784.38311999999985
 21
173.64363
 31
0.0
  0
LINE
  5
68E
  8
0
  6
CONTINUOUS
 62
     7
 10
-784.38324
 20
173.64366000000001
 30
0.0
 11
-783.14197000000001
 21
180.20309
 31
0.0
  0
LINE
  5
68F
  8
0
  6
CONTINUOUS
 62
     7
 10
-781.17669999999976
 20
181.83120999999991
 30
0.0
 11
-684.25696000000005
 21
181.83120999999991
 31
0.0
  0
LINE
  5
690
  8
0
  6
CONTINUOUS
 62
     7
 10
-760.38317999999981
 20
88.824866999999983
 30
0.0
 11
-760.38317999999981
 21
87.324866999999998
 31
0.0
  0
LINE
  5
691
  8
0
  6
CONTINUOUS
 62
     7
 10
-760.38317999999981
 20
162.27097000000001
 30
0.0
 11
-760.38317999999981
 21
162.27097000000001
 31
0.0
  0
LINE
  5
692
  8
0
  6
CONTINUOUS
 62
     7
 10
-676.38317999999981
 20
181.5479399999999
 30
0.0
 11
-668.38311999999996
 21
181.5479399999999
 31
0.0
  0
LINE
  5
693
  8
0
  6
CONTINUOUS
 62
     7
 10
-791.68505999999979
 20
168.7393499999998
 30
0.0
 11
-785.45525999999984
 21
168.7393499999998
 31
0.0
  0
LINE
  5
694
  8
0
  6
CONTINUOUS
 62
     7
 10
-792.38311999999985
 20
178.5479399999999
 30
0.0
 11
-784.38317999999981
 21
178.5479399999999
 31
0.0
  0
LINE
  5
695
  8
0
  6
CONTINUOUS
 62
     7
 10
-793.38317999999981
 20
175.5479399999999
 30
0.0
 11
-792.38311999999985
 21
175.5479399999999
 31
0.0
  0
LINE
  5
696
  8
0
  6
CONTINUOUS
 62
     7
 10
-793.38317999999981
 20
175.5479399999999
 30
0.0
 11
-793.38317999999981
 21
74.424720999999977
 31
0.0
  0
LINE
  5
697
  8
0
  6
CONTINUOUS
 62
     7
 10
-797.88855000000001
 20
84.444823999999983
 30
0.0
 11
-797.91223000000002
 21
84.458679000000004
 31
0.0
  0
LINE
  5
698
  8
0
  6
CONTINUOUS
 62
     7
 10
-784.38317999999981
 20
178.5479399999999
 30
0.0
 11
-784.38317999999981
 21
76.107703999999984
 31
0.0
  0
LINE
  5
699
  8
0
  6
CONTINUOUS
 62
     7
 10
-792.38311999999985
 20
178.5479399999999
 30
0.0
 11
-792.38311999999985
 21
72.547950999999983
 31
0.0
  0
LINE
  5
69A
  8
0
  6
CONTINUOUS
 62
     7
 10
-727.38317999999981
 20
88.824866999999983
 30
0.0
 11
-679.56104000000005
 21
88.824866999999983
 31
0.0
  0
LINE
  5
69B
  8
0
  6
CONTINUOUS
 62
     7
 10
-727.38317999999981
 20
89.547950999999998
 30
0.0
 11
-782.01769999999999
 21
89.547950999999998
 31
0.0
  0
LINE
  5
69C
  8
0
  6
CONTINUOUS
 62
     7
 10
-727.38317999999981
 20
91.547957999999994
 30
0.0
 11
-782.01769999999999
 21
91.547957999999994
 31
0.0
  0
LINE
  5
69D
  8
0
  6
CONTINUOUS
 62
     7
 10
-782.70525999999984
 20
92.180701999999997
 30
0.0
 11
-770.38367000000005
 21
92.180701999999997
 31
0.0
  0
LINE
  5
69E
  8
0
  6
CONTINUOUS
 62
     7
 10
-799.88311999999985
 20
108.26591000000001
 30
0.0
 11
-798.38311999999985
 21
108.26591000000001
 31
0.0
  0
LINE
  5
69F
  8
0
  6
CONTINUOUS
 62
     7
 10
-799.88311999999985
 20
110.3979199999999
 30
0.0
 11
-796.58942000000002
 21
110.3979199999999
 31
0.0
  0
LINE
  5
6A0
  8
0
  6
CONTINUOUS
 62
     7
 10
-799.88305999999989
 20
105.54797000000001
 30
0.0
 11
-798.38311999999985
 21
105.41674999999979
 31
0.0
  0
LINE
  5
6A1
  8
0
  6
CONTINUOUS
 62
     7
 10
-799.88311999999985
 20
105.54795
 30
0.0
 11
-799.88311999999985
 21
125.54795
 31
0.0
  0
LINE
  5
6A2
  8
0
  6
CONTINUOUS
 62
     7
 10
-796.38317999999981
 20
90.155074999999997
 30
0.0
 11
-796.38317999999981
 21
91.215003999999993
 31
0.0
  0
LINE
  5
6A3
  8
0
  6
CONTINUOUS
 62
     7
 10
-796.38317999999981
 20
99.921738000000005
 30
0.0
 11
-796.38317999999981
 21
101.2845899999998
 31
0.0
  0
LINE
  5
6A4
  8
0
  6
CONTINUOUS
 62
     7
 10
-796.38317999999981
 20
119.9346699999999
 30
0.0
 11
-796.38317999999981
 21
121.09556000000001
 31
0.0
  0
LINE
  5
6A5
  8
0
  6
CONTINUOUS
 62
     7
 10
-796.38317999999981
 20
109.9408399999998
 30
0.0
 11
-796.38317999999981
 21
111.15219999999979
 31
0.0
  0
LINE
  5
6A6
  8
0
  6
CONTINUOUS
 62
     7
 10
-794.38317999999981
 20
121.5479399999999
 30
0.0
 11
-797.38317999999981
 21
121.5479399999999
 31
0.0
  0
LINE
  5
6A7
  8
0
  6
CONTINUOUS
 62
     7
 10
-794.38317999999981
 20
119.54795
 30
0.0
 11
-797.38317999999981
 21
119.54795
 31
0.0
  0
LINE
  5
6A8
  8
0
  6
CONTINUOUS
 62
     7
 10
-794.38317999999981
 20
111.54796
 30
0.0
 11
-797.38317999999981
 21
111.54796
 31
0.0
  0
LINE
  5
6A9
  8
0
  6
CONTINUOUS
 62
     7
 10
-794.38317999999981
 20
109.54794
 30
0.0
 11
-797.38317999999981
 21
109.54794
 31
0.0
  0
LINE
  5
6AA
  8
0
  6
CONTINUOUS
 62
     7
 10
-794.38317999999981
 20
101.54795
 30
0.0
 11
-797.38317999999981
 21
101.54795
 31
0.0
  0
LINE
  5
6AB
  8
0
  6
CONTINUOUS
 62
     7
 10
-794.38317999999981
 20
99.547950999999998
 30
0.0
 11
-797.38317999999981
 21
99.547950999999998
 31
0.0
  0
LINE
  5
6AC
  8
0
  6
CONTINUOUS
 62
     7
 10
-796.52679000000001
 20
91.849013999999997
 30
0.0
 11
-797.67719
 21
92.202865999999986
 31
0.0
  0
LINE
  5
6AD
  8
0
  6
CONTINUOUS
 62
     7
 10
-796.23284999999987
 20
91.804787000000005
 30
0.0
 11
-794.38317999999981
 21
91.804787000000005
 31
0.0
  0
LINE
  5
6AE
  8
0
  6
CONTINUOUS
 62
     7
 10
-796.57135000000005
 20
89.939071999999982
 30
0.0
 11
-797.77593999999999
 21
90.453529000000003
 31
0.0
  0
LINE
  5
6AF
  8
0
  6
CONTINUOUS
 62
     7
 10
-796.17853000000002
 20
89.858681000000004
 30
0.0
 11
-794.08318999999983
 21
89.858681000000004
 31
0.0
  0
LINE
  5
6B0
  8
0
  6
CONTINUOUS
 62
     7
 10
-679.56104000000005
 20
92.180701999999997
 30
0.0
 11
-696.08312999999964
 21
92.180701999999997
 31
0.0
  0
LINE
  5
6B1
  8
0
  6
CONTINUOUS
 62
     7
 10
-697.08312999999998
 20
93.180710000000005
 30
0.0
 11
-697.08312999999998
 21
94.048195000000007
 31
0.0
  0
LINE
  5
6B2
  8
0
  6
CONTINUOUS
 62
     7
 10
-695.88311999999985
 20
95.282318000000004
 30
0.0
 11
-686.61315999999999
 21
95.547934999999995
 31
0.0
  0
LINE
  5
6B3
  8
0
  6
CONTINUOUS
 62
     7
 10
-782.70525999999984
 20
88.824866999999983
 30
0.0
 11
-727.38317999999981
 21
88.824866999999983
 31
0.0
  0
LINE
  5
6B4
  8
0
  6
CONTINUOUS
 62
     7
 10
-683.0387599999998
 20
89.547950999999998
 30
0.0
 11
-727.38317999999981
 21
89.547950999999998
 31
0.0
  0
LINE
  5
6B5
  8
0
  6
CONTINUOUS
 62
     7
 10
-683.0387599999998
 20
91.547957999999994
 30
0.0
 11
-727.38317999999981
 21
91.547957999999994
 31
0.0
  0
LINE
  5
6B6
  8
0
  6
CONTINUOUS
 62
     7
 10
-782.92162999999982
 20
99.061745000000002
 30
0.0
 11
-775.88360999999986
 21
99.061745000000002
 31
0.0
  0
LINE
  5
6B7
  8
0
  6
CONTINUOUS
 62
     7
 10
-775.88360999999986
 20
99.547950999999998
 30
0.0
 11
-782.01769999999999
 21
99.547950999999998
 31
0.0
  0
LINE
  5
6B8
  8
0
  6
CONTINUOUS
 62
     7
 10
-782.92162999999982
 20
101.98472
 30
0.0
 11
-775.88360999999986
 21
101.98472
 31
0.0
  0
LINE
  5
6B9
  8
0
  6
CONTINUOUS
 62
     7
 10
-775.88360999999986
 20
101.54795
 30
0.0
 11
-782.01769999999999
 21
101.54795
 31
0.0
  0
LINE
  5
6BA
  8
0
  6
CONTINUOUS
 62
     7
 10
-783.05224999999984
 20
109.20444000000001
 30
0.0
 11
-775.88360999999986
 21
109.20444000000001
 31
0.0
  0
LINE
  5
6BB
  8
0
  6
CONTINUOUS
 62
     7
 10
-775.88360999999986
 20
109.54794
 30
0.0
 11
-782.01769999999999
 21
109.54794
 31
0.0
  0
LINE
  5
6BC
  8
0
  6
CONTINUOUS
 62
     7
 10
-775.88360999999986
 20
111.54796
 30
0.0
 11
-782.01769999999999
 21
111.54796
 31
0.0
  0
LINE
  5
6BD
  8
0
  6
CONTINUOUS
 62
     7
 10
-783.05224999999984
 20
111.86631
 30
0.0
 11
-775.88360999999986
 21
111.86631
 31
0.0
  0
LINE
  5
6BE
  8
0
  6
CONTINUOUS
 62
     7
 10
-783.11425999999983
 20
119.27512
 30
0.0
 11
-777.88367000000005
 21
119.27512
 31
0.0
  0
LINE
  5
6BF
  8
0
  6
CONTINUOUS
 62
     7
 10
-777.88367000000005
 20
119.54795
 30
0.0
 11
-782.01769999999999
 21
119.54795
 31
0.0
  0
LINE
  5
6C0
  8
0
  6
CONTINUOUS
 62
     7
 10
-777.88367000000005
 20
121.5479399999999
 30
0.0
 11
-782.01769999999999
 21
121.5479399999999
 31
0.0
  0
LINE
  5
6C1
  8
0
  6
CONTINUOUS
 62
     7
 10
-783.11425999999983
 20
121.81296999999979
 30
0.0
 11
-777.88367000000005
 21
121.81296999999979
 31
0.0
  0
LINE
  5
6C2
  8
0
  6
CONTINUOUS
 62
     7
 10
-697.08312999999998
 20
157.91515000000001
 30
0.0
 11
-697.08312999999998
 21
157.04769999999991
 31
0.0
  0
LINE
  5
6C3
  8
0
  6
CONTINUOUS
 62
     7
 10
-679.56104000000005
 20
158.91515000000001
 30
0.0
 11
-696.08312999999964
 21
158.91515000000001
 31
0.0
  0
LINE
  5
6C4
  8
0
  6
CONTINUOUS
 62
     7
 10
-783.11425999999983
 20
129.28287
 30
0.0
 11
-777.88367000000005
 21
129.28287
 31
0.0
  0
LINE
  5
6C5
  8
0
  6
CONTINUOUS
 62
     7
 10
-783.11425999999983
 20
131.82070999999991
 30
0.0
 11
-777.88367000000005
 21
131.82070999999991
 31
0.0
  0
LINE
  5
6C6
  8
0
  6
CONTINUOUS
 62
     7
 10
-783.05224999999984
 20
139.22959999999969
 30
0.0
 11
-775.88360999999986
 21
139.22959999999969
 31
0.0
  0
LINE
  5
6C7
  8
0
  6
CONTINUOUS
 62
     7
 10
-783.05224999999984
 20
141.89146
 30
0.0
 11
-775.88360999999986
 21
141.89146
 31
0.0
  0
LINE
  5
6C8
  8
0
  6
CONTINUOUS
 62
     7
 10
-782.92169000000001
 20
149.11113
 30
0.0
 11
-775.88360999999986
 21
149.11113
 31
0.0
  0
LINE
  5
6C9
  8
0
  6
CONTINUOUS
 62
     7
 10
-782.92169000000001
 20
152.03408999999979
 30
0.0
 11
-775.88360999999986
 21
152.03408999999979
 31
0.0
  0
LINE
  5
6CA
  8
0
  6
CONTINUOUS
 62
     7
 10
-782.70580999999981
 20
158.91515000000001
 30
0.0
 11
-770.38367000000005
 21
158.91515000000001
 31
0.0
  0
LINE
  5
6CB
  8
0
  6
CONTINUOUS
 62
     7
 10
-782.70580999999981
 20
162.27097000000001
 30
0.0
 11
-679.56104000000005
 21
162.27097000000001
 31
0.0
  0
LINE
  5
6CC
  8
0
  6
CONTINUOUS
 62
     7
 10
-777.88367000000005
 20
129.5479599999999
 30
0.0
 11
-782.01769999999999
 21
129.5479599999999
 31
0.0
  0
LINE
  5
6CD
  8
0
  6
CONTINUOUS
 62
     7
 10
-777.88367000000005
 20
131.5479599999999
 30
0.0
 11
-782.01769999999999
 21
131.5479599999999
 31
0.0
  0
LINE
  5
6CE
  8
0
  6
CONTINUOUS
 62
     7
 10
-775.88360999999986
 20
139.5479399999999
 30
0.0
 11
-782.01769999999999
 21
139.5479399999999
 31
0.0
  0
LINE
  5
6CF
  8
0
  6
CONTINUOUS
 62
     7
 10
-775.88360999999986
 20
141.5479599999999
 30
0.0
 11
-782.01769999999999
 21
141.5479599999999
 31
0.0
  0
LINE
  5
6D0
  8
0
  6
CONTINUOUS
 62
     7
 10
-775.88360999999986
 20
149.5479599999999
 30
0.0
 11
-782.01769999999999
 21
149.5479599999999
 31
0.0
  0
LINE
  5
6D1
  8
0
  6
CONTINUOUS
 62
     7
 10
-775.88360999999986
 20
151.54793999999981
 30
0.0
 11
-782.01769999999999
 21
151.54793999999981
 31
0.0
  0
LINE
  5
6D2
  8
0
  6
CONTINUOUS
 62
     7
 10
-683.0387599999998
 20
159.5479599999999
 30
0.0
 11
-782.01769999999999
 21
159.5479599999999
 31
0.0
  0
LINE
  5
6D3
  8
0
  6
CONTINUOUS
 62
     7
 10
-683.0387599999998
 20
161.54795999999999
 30
0.0
 11
-782.01769999999999
 21
161.54795999999999
 31
0.0
  0
LINE
  5
6D4
  8
0
  6
CONTINUOUS
 62
     7
 10
-799.88311999999985
 20
142.82992999999991
 30
0.0
 11
-798.38311999999985
 21
142.82992999999991
 31
0.0
  0
LINE
  5
6D5
  8
0
  6
CONTINUOUS
 62
     7
 10
-799.88311999999985
 20
140.69798
 30
0.0
 11
-795.20569
 21
140.69798
 31
0.0
  0
LINE
  5
6D6
  8
0
  6
CONTINUOUS
 62
     7
 10
-799.88317999999981
 20
145.5479399999999
 30
0.0
 11
-798.38317999999981
 21
145.67916999999991
 31
0.0
  0
LINE
  5
6D7
  8
0
  6
CONTINUOUS
 62
     7
 10
-799.88311999999985
 20
145.5479399999999
 30
0.0
 11
-799.88311999999985
 21
125.54795
 31
0.0
  0
LINE
  5
6D8
  8
0
  6
CONTINUOUS
 62
     7
 10
-796.38317999999981
 20
175.0441099999999
 30
0.0
 11
-796.38317999999981
 21
174.51833999999991
 31
0.0
  0
LINE
  5
6D9
  8
0
  6
CONTINUOUS
 62
     7
 10
-796.38317999999981
 20
172.94450000000001
 30
0.0
 11
-796.38317999999981
 21
172.3984199999999
 31
0.0
  0
LINE
  5
6DA
  8
0
  6
CONTINUOUS
 62
     7
 10
-796.38317999999981
 20
168.37839999999991
 30
0.0
 11
-796.38317999999981
 21
167.90621999999991
 31
0.0
  0
LINE
  5
6DB
  8
0
  6
CONTINUOUS
 62
     7
 10
-796.38317999999981
 20
160.94083999999981
 30
0.0
 11
-796.38317999999981
 21
159.88088999999991
 31
0.0
  0
LINE
  5
6DC
  8
0
  6
CONTINUOUS
 62
     7
 10
-796.38317999999981
 20
151.1741199999999
 30
0.0
 11
-796.38317999999981
 21
149.81132999999991
 31
0.0
  0
LINE
  5
6DD
  8
0
  6
CONTINUOUS
 62
     7
 10
-796.38317999999981
 20
131.16115999999991
 30
0.0
 11
-796.38317999999981
 21
130.00027
 31
0.0
  0
LINE
  5
6DE
  8
0
  6
CONTINUOUS
 62
     7
 10
-796.38317999999981
 20
141.15505999999991
 30
0.0
 11
-796.38317999999981
 21
139.94363000000001
 31
0.0
  0
LINE
  5
6DF
  8
0
  6
CONTINUOUS
 62
     7
 10
-794.38317999999981
 20
129.5479599999999
 30
0.0
 11
-797.38317999999981
 21
129.5479599999999
 31
0.0
  0
LINE
  5
6E0
  8
0
  6
CONTINUOUS
 62
     7
 10
-794.38317999999981
 20
131.5479599999999
 30
0.0
 11
-797.38317999999981
 21
131.5479599999999
 31
0.0
  0
LINE
  5
6E1
  8
0
  6
CONTINUOUS
 62
     7
 10
-794.38317999999981
 20
139.5479399999999
 30
0.0
 11
-797.38317999999981
 21
139.5479399999999
 31
0.0
  0
LINE
  5
6E2
  8
0
  6
CONTINUOUS
 62
     7
 10
-794.38317999999981
 20
141.5479599999999
 30
0.0
 11
-797.38317999999981
 21
141.5479599999999
 31
0.0
  0
LINE
  5
6E3
  8
0
  6
CONTINUOUS
 62
     7
 10
-794.38317999999981
 20
149.5479599999999
 30
0.0
 11
-797.38317999999981
 21
149.5479599999999
 31
0.0
  0
LINE
  5
6E4
  8
0
  6
CONTINUOUS
 62
     7
 10
-794.38317999999981
 20
151.54793999999981
 30
0.0
 11
-797.38317999999981
 21
151.54793999999981
 31
0.0
  0
LINE
  5
6E5
  8
0
  6
CONTINUOUS
 62
     7
 10
-796.6028399999999
 20
171.9331399999999
 30
0.0
 11
-797.85144000000003
 21
171.2712699999999
 31
0.0
  0
LINE
  5
6E6
  8
0
  6
CONTINUOUS
 62
     7
 10
-796.59644000000003
 20
174.0427399999999
 30
0.0
 11
-797.83574999999985
 21
173.41371000000001
 31
0.0
  0
LINE
  5
6E7
  8
0
  6
CONTINUOUS
 62
     7
 10
-796.52685999999983
 20
159.2468699999998
 30
0.0
 11
-797.67719
 21
158.89302000000001
 31
0.0
  0
LINE
  5
6E8
  8
0
  6
CONTINUOUS
 62
     7
 10
-796.61724999999979
 20
167.39574999999999
 30
0.0
 11
-797.88860999999974
 21
166.65108000000001
 31
0.0
  0
LINE
  5
6E9
  8
0
  6
CONTINUOUS
 62
     7
 10
-796.14391999999998
 20
174.15102999999991
 30
0.0
 11
-793.88311999999985
 21
174.15102999999991
 31
0.0
  0
LINE
  5
6EA
  8
0
  6
CONTINUOUS
 62
     7
 10
-796.13451999999984
 20
172.04961
 30
0.0
 11
-794.38317999999981
 21
172.04961
 31
0.0
  0
LINE
  5
6EB
  8
0
  6
CONTINUOUS
 62
     7
 10
-796.11187999999981
 20
167.53287
 30
0.0
 11
-794.38317999999981
 21
167.53287
 31
0.0
  0
LINE
  5
6EC
  8
0
  6
CONTINUOUS
 62
     7
 10
-796.23284999999987
 20
159.2910599999999
 30
0.0
 11
-794.38317999999981
 21
159.2910599999999
 31
0.0
  0
LINE
  5
6ED
  8
0
  6
CONTINUOUS
 62
     7
 10
-796.08452999999986
 20
168.67283999999981
 30
0.0
 11
-793.38317999999981
 21
168.67283999999981
 31
0.0
  0
LINE
  5
6EE
  8
0
  6
CONTINUOUS
 62
     7
 10
-796.10613999999998
 20
173.18953999999991
 30
0.0
 11
-793.38317999999981
 21
173.18953999999991
 31
0.0
  0
LINE
  5
6EF
  8
0
  6
CONTINUOUS
 62
     7
 10
-796.57128999999975
 20
161.15684999999991
 30
0.0
 11
-797.77593999999999
 21
160.64234999999999
 31
0.0
  0
LINE
  5
6F0
  8
0
  6
CONTINUOUS
 62
     7
 10
-796.63287000000003
 20
168.50912
 30
0.0
 11
-797.93151999999998
 21
167.6575599999999
 31
0.0
  0
LINE
  5
6F1
  8
0
  6
CONTINUOUS
 62
     7
 10
-796.62067000000002
 20
173.0470599999999
 30
0.0
 11
-797.89770999999985
 21
172.28075000000001
 31
0.0
  0
LINE
  5
6F2
  8
0
  6
CONTINUOUS
 62
     7
 10
-796.61536000000001
 20
175.1630199999999
 30
0.0
 11
-797.88347999999985
 21
174.43007
 31
0.0
  0
LINE
  5
6F3
  8
0
  6
CONTINUOUS
 62
     7
 10
-796.17853000000002
 20
161.23715000000001
 30
0.0
 11
-794.08318999999983
 21
161.23715000000001
 31
0.0
  0
LINE
  5
6F4
  8
0
  6
CONTINUOUS
 62
     7
 10
-796.11499000000003
 20
175.29734999999991
 30
0.0
 11
-793.88311999999985
 21
175.29734999999991
 31
0.0
  0
LINE
  5
6F5
  8
0
  6
CONTINUOUS
 62
     7
 10
-798.38311999999985
 20
173.56432000000001
 30
0.0
 11
-798.38311999999985
 21
130.54793999999981
 31
0.0
  0
LINE
  5
6F6
  8
0
  6
CONTINUOUS
 62
     7
 10
-686.61310000000003
 20
155.5479599999999
 30
0.0
 11
-686.61310000000003
 21
95.547950999999969
 31
0.0
  0
LINE
  5
6F7
  8
0
  6
CONTINUOUS
 62
     7
 10
-676.38317999999981
 20
181.5479399999999
 30
0.0
 11
-676.38317999999981
 21
69.547950999999998
 31
0.0
  0
LINE
  5
6F8
  8
0
  6
CONTINUOUS
 62
     3
 10
-755.38311999999985
 20
92.048202999999987
 30
0.0
 11
-770.38367000000005
 21
92.048202999999987
 31
0.0
  0
LINE
  5
6F9
  8
0
  6
CONTINUOUS
 62
     3
 10
-777.88367000000005
 20
118.04769999999991
 30
0.0
 11
-774.38360999999998
 21
118.04769999999991
 31
0.0
  0
LINE
  5
6FA
  8
0
  6
CONTINUOUS
 62
     3
 10
-755.38311999999985
 20
157.04769999999991
 30
0.0
 11
-695.88317999999981
 21
157.04769999999991
 31
0.0
  0
LINE
  5
6FB
  8
0
  6
CONTINUOUS
 62
     3
 10
-755.38311999999985
 20
94.048195000000007
 30
0.0
 11
-695.88317999999981
 21
94.048195000000007
 31
0.0
  0
LINE
  5
6FC
  8
0
  6
CONTINUOUS
 62
     3
 10
-755.38311999999985
 20
92.048202999999987
 30
0.0
 11
-755.38311999999985
 21
95.548194999999964
 31
0.0
  0
LINE
  5
6FD
  8
0
  6
CONTINUOUS
 62
     3
 10
-770.38367000000005
 20
92.048202999999987
 30
0.0
 11
-770.38367000000005
 21
95.548194999999964
 31
0.0
  0
LINE
  5
6FE
  8
0
  6
CENTER
 62
     7
 10
-727.38317999999981
 20
164.14182999999991
 30
0.0
 11
-727.38317999999981
 21
82.895240999999984
 31
0.0
  0
LINE
  5
6FF
  8
0
  6
CONTINUOUS
 62
     7
 10
-545.95294000000001
 20
54.329757999999998
 30
0.0
 11
-537.88311999999985
 21
54.047955000000002
 31
0.0
  0
LINE
  5
700
  8
0
  6
CONTINUOUS
 62
     7
 10
-150.28093999999979
 20
200.54794000000001
 30
0.0
 11
-140.2809399999999
 21
200.54794000000001
 31
0.0
  0
LINE
  5
701
  8
0
  6
CONTINUOUS
 62
     1
 10
-140.2809399999999
 20
192.5479599999999
 30
0.0
 11
-140.2809399999999
 21
200.54794000000001
 31
0.0
  0
LINE
  5
702
  8
0
  6
CONTINUOUS
 62
     1
 10
-150.28093999999979
 20
192.5479599999999
 30
0.0
 11
-150.28093999999979
 21
200.54794000000001
 31
0.0
  0
LINE
  5
703
  8
0
  6
CONTINUOUS
 62
     7
 10
-150.28093999999979
 20
192.5479599999999
 30
0.0
 11
-140.2809399999999
 21
192.5479599999999
 31
0.0
  0
LINE
  5
704
  8
0
  6
CONTINUOUS
 62
     7
 10
-439.88315
 20
240.4586899999999
 30
0.0
 11
-439.88315
 21
295.62707999999998
 31
0.0
  0
LINE
  5
705
  8
0
  6
CONTINUOUS
 62
     7
 10
-475.37264999999991
 20
256.05844000000002
 30
0.0
 11
-439.88315
 21
291.54793999999993
 31
0.0
  0
LINE
  5
706
  8
0
  6
CONTINUOUS
 62
     7
 10
-537.88317999999992
 20
253.04795999999999
 30
0.0
 11
-478.77727999999991
 21
254.59569999999999
 31
0.0
  0
LINE
  5
707
  8
0
  6
CONTINUOUS
 62
     7
 10
-537.88317999999992
 20
54.047955000000002
 30
0.0
 11
-452.64620999999988
 21
51.815947999999999
 31
0.0
  0
LINE
  5
708
  8
0
  6
CONTINUOUS
 62
     7
 10
-436.77847000000003
 20
63.632556999999991
 30
0.0
 11
-424.88314999999989
 21
64.047950999999998
 31
0.0
  0
LINE
  5
709
  8
0
  6
CENTER
 62
     7
 10
-416.06121999999999
 20
277.00734999999992
 30
0.0
 11
-444.31511999999992
 21
277.00734999999992
 31
0.0
  0
LINE
  5
70A
  8
0
  6
CONTINUOUS
 62
     7
 10
-432.88314999999989
 20
90.179976999999994
 30
0.0
 11
-432.88314999999989
 21
181.5479399999999
 31
0.0
  0
LINE
  5
70B
  8
0
  6
CONTINUOUS
 62
     7
 10
-424.88314999999989
 20
76.54795799999998
 30
0.0
 11
-420.88315
 21
76.54795799999998
 31
0.0
  0
LINE
  5
70C
  8
0
  6
CONTINUOUS
 62
     7
 10
-432.88314999999989
 20
181.5479399999999
 30
0.0
 11
-432.88314999999989
 21
272.14767000000001
 31
0.0
  0
LINE
  5
70D
  8
0
  6
CONTINUOUS
 62
     7
 10
-437.59859999999998
 20
87.11824799999998
 30
0.0
 11
-435.77847000000003
 21
87.181807999999975
 31
0.0
  0
LINE
  5
70E
  8
0
  6
CENTER
 62
     7
 10
-359.76482999999979
 20
181.5479399999999
 30
0.0
 11
-582.43347000000006
 21
181.5479399999999
 31
0.0
  0
LINE
  5
70F
  8
0
  6
CENTER
 62
     7
 10
-206.5483099999999
 20
153.5479599999999
 30
0.0
 11
-69.348311999999993
 21
153.5479599999999
 31
0.0
  0
LINE
  5
710
  8
0
  6
CONTINUOUS
 62
     7
 10
-436.98784999999992
 20
298.62523999999991
 30
0.0
 11
-424.88312000000002
 21
299.04793999999993
 31
0.0
  0
LINE
  5
711
  8
0
  6
CONTINUOUS
 62
     7
 10
-92.280945000000003
 20
138.5479599999999
 30
0.0
 11
-59.304203000000001
 21
138.5479599999999
 31
0.0
  0
LINE
  5
712
  8
0
  6
CONTINUOUS
 62
     7
 10
-424.88314999999989
 20
181.5479399999999
 30
0.0
 11
-424.88314999999989
 21
299.04793999999993
 31
0.0
  0
LINE
  5
713
  8
0
  6
CONTINUOUS
 62
     7
 10
-424.88314999999989
 20
64.047950999999998
 30
0.0
 11
-424.88314999999989
 21
181.5479399999999
 31
0.0
  0
LINE
  5
714
  8
0
  6
CONTINUOUS
 62
     7
 10
-559.88311999999985
 20
73.130165000000005
 30
0.0
 11
-441.61965999999978
 21
73.130165000000005
 31
0.0
  0
LINE
  5
715
  8
0
  6
CONTINUOUS
 62
     7
 10
-179.3848899999999
 20
221.3087499999998
 30
0.0
 11
-208.61521999999991
 21
250.5390799999999
 31
0.0
  0
LINE
  5
716
  8
0
  6
CONTINUOUS
 62
     7
 10
-439.88315
 20
66.630736999999996
 30
0.0
 11
-439.88315
 21
116.85868000000001
 31
0.0
  0
LINE
  5
717
  8
0
  6
CONTINUOUS
 62
     7
 10
-198.28093000000001
 20
138.5479599999999
 30
0.0
 11
-231.25767999999991
 21
138.5479599999999
 31
0.0
  0
LINE
  5
718
  8
0
  6
CONTINUOUS
 62
     7
 10
-439.88315
 20
152.78371000000001
 30
0.0
 11
-439.88315
 21
240.4586899999999
 31
0.0
  0
LINE
  5
719
  8
0
  6
CONTINUOUS
 62
     7
 10
-559.88311999999985
 20
232.7523799999999
 30
0.0
 11
-452.88968
 21
232.7523799999999
 31
0.0
  0
LINE
  5
71A
  8
0
  6
CONTINUOUS
 62
     7
 10
-451.99527
 20
230.5849799999998
 30
0.0
 11
-456.41601999999989
 21
187.98108999999999
 31
0.0
  0
LINE
  5
71B
  8
0
  6
CONTINUOUS
 62
     7
 10
-452.64620999999988
 20
51.815928999999997
 30
0.0
 11
-431.88314999999989
 21
63.803493000000003
 31
0.0
  0
LINE
  5
71C
  8
0
  6
CONTINUOUS
 62
     7
 10
-559.88311999999985
 20
93.167708999999988
 30
0.0
 11
-441.61965999999978
 21
93.167708999999988
 31
0.0
  0
LINE
  5
71D
  8
0
  6
CENTER
 62
     7
 10
-415.53798999999981
 20
86.088538999999969
 30
0.0
 11
-446.40802000000002
 21
86.088538999999969
 31
0.0
  0
LINE
  5
71E
  8
0
  6
CONTINUOUS
 62
     7
 10
-193.28093999999999
 20
181.5479399999999
 30
0.0
 11
-193.28093999999999
 21
143.5479599999999
 31
0.0
  0
LINE
  5
71F
  8
0
  6
CONTINUOUS
 62
     7
 10
-436.88314999999989
 20
237.45868999999999
 30
0.0
 11
-432.88314999999989
 21
237.45868999999999
 31
0.0
  0
LINE
  5
720
  8
0
  6
CONTINUOUS
 62
     7
 10
-436.88314999999989
 20
149.78371000000001
 30
0.0
 11
-432.88314999999989
 21
149.78371000000001
 31
0.0
  0
LINE
  5
721
  8
0
  6
CONTINUOUS
 62
     7
 10
-436.88314999999989
 20
119.85868000000001
 30
0.0
 11
-432.88314999999989
 21
119.85868000000001
 31
0.0
  0
LINE
  5
722
  8
0
  6
CONTINUOUS
 62
     7
 10
-476.78316999999998
 20
254.64792
 30
0.0
 11
-469.55300999999997
 21
253.48665
 31
0.0
  0
LINE
  5
723
  8
0
  6
CONTINUOUS
 62
     7
 10
-262.78093999999987
 20
181.5479399999999
 30
0.0
 11
-262.78093999999987
 21
211.5479399999999
 31
0.0
  0
LINE
  5
724
  8
0
  6
CONTINUOUS
 62
     7
 10
-145.2809399999999
 20
299.04793999999993
 30
0.0
 11
-175.2809399999999
 21
299.04793999999993
 31
0.0
  0
LINE
  5
725
  8
0
  6
CONTINUOUS
 62
     7
 10
-145.2809399999999
 20
64.047950999999998
 30
0.0
 11
-175.2809399999999
 21
64.047950999999998
 31
0.0
  0
LINE
  5
726
  8
0
  6
CONTINUOUS
 62
     7
 10
-262.78093999999987
 20
181.5479399999999
 30
0.0
 11
-262.78093999999987
 21
151.54793999999981
 31
0.0
  0
LINE
  5
727
  8
0
  6
CONTINUOUS
 62
     7
 10
-262.78093999999987
 20
211.5479399999999
 30
0.0
 11
-259.36608999999987
 21
276.7072399999999
 31
0.0
  0
LINE
  5
728
  8
0
  6
CENTER
 62
     7
 10
-59.894351999999991
 20
96.161361999999997
 30
0.0
 11
-40.144131000000002
 21
76.411140000000003
 31
0.0
  0
LINE
  5
729
  8
0
  6
CONTINUOUS
 62
     7
 10
-175.2809399999999
 20
64.047950999999998
 30
0.0
 11
-240.44022000000001
 21
67.462799000000004
 31
0.0
  0
LINE
  5
72A
  8
0
  6
CONTINUOUS
 62
     7
 10
-175.2809399999999
 20
299.04790999999989
 30
0.0
 11
-240.44022000000001
 21
295.63306
 31
0.0
  0
LINE
  5
72B
  8
0
  6
CONTINUOUS
 62
     7
 10
-27.780943000000001
 20
211.54795999999999
 30
0.0
 11
-31.195796999999999
 21
276.70720999999992
 31
0.0
  0
LINE
  5
72C
  8
0
  6
CONTINUOUS
 62
     7
 10
-27.780944999999988
 20
181.5479399999999
 30
0.0
 11
-27.780944999999988
 21
151.54793999999981
 31
0.0
  0
LINE
  5
72D
  8
0
  6
CONTINUOUS
 62
     7
 10
-262.78093999999987
 20
151.5479599999999
 30
0.0
 11
-259.36608999999987
 21
86.388671999999985
 31
0.0
  0
LINE
  5
72E
  8
0
  6
CENTER
 62
     7
 10
-231.4402299999999
 20
267.70724000000001
 30
0.0
 11
-249.97044
 21
286.23745999999983
 31
0.0
  0
LINE
  5
72F
  8
0
  6
CENTER
 62
     7
 10
-230.9633
 20
95.865607999999995
 30
0.0
 11
-250.42307999999991
 21
76.405822999999998
 31
0.0
  0
LINE
  5
730
  8
0
  6
CONTINUOUS
 62
     7
 10
-185.04175000000001
 20
215.65190000000001
 30
0.0
 11
-214.27206000000001
 21
244.8822199999999
 31
0.0
  0
LINE
  5
731
  8
0
  6
CONTINUOUS
 62
     7
 10
-111.17700000000001
 20
221.30876000000001
 30
0.0
 11
-81.946701000000004
 21
250.53906000000001
 31
0.0
  0
LINE
  5
732
  8
0
  6
CONTINUOUS
 62
     7
 10
-105.5201399999998
 20
215.65189000000001
 30
0.0
 11
-76.289833000000002
 21
244.88218999999989
 31
0.0
  0
LINE
  5
733
  8
0
  6
CENTER
 62
     7
 10
-59.70229299999999
 20
267.12662
 30
0.0
 11
-41.252468
 21
285.57645000000002
 31
0.0
  0
LINE
  5
734
  8
0
  6
CONTINUOUS
 62
     7
 10
-436.16768999999988
 20
275.13958999999988
 30
0.0
 11
-435.98781999999989
 21
275.14583999999991
 31
0.0
  0
LINE
  5
735
  8
0
  6
CONTINUOUS
 62
     7
 10
-424.88314999999989
 20
286.54797000000002
 30
0.0
 11
-420.88315
 21
286.54797000000002
 31
0.0
  0
LINE
  5
736
  8
0
  6
CONTINUOUS
 62
     7
 10
-420.88315
 20
76.54795799999998
 30
0.0
 11
-420.88315
 21
286.54797000000002
 31
0.0
  0
LINE
  5
737
  8
0
  6
CONTINUOUS
 62
     7
 10
-115.2809399999999
 20
299.04793999999993
 30
0.0
 11
-50.121673999999999
 21
295.63308999999992
 31
0.0
  0
LINE
  5
738
  8
0
  6
CONTINUOUS
 62
     7
 10
-145.2809399999999
 20
299.04793999999993
 30
0.0
 11
-115.2809399999999
 21
299.04793999999993
 31
0.0
  0
LINE
  5
739
  8
0
  6
CONTINUOUS
 62
     7
 10
-115.2809399999999
 20
64.047950999999998
 30
0.0
 11
-50.121665999999998
 21
67.462806999999984
 31
0.0
  0
LINE
  5
73A
  8
0
  6
CONTINUOUS
 62
     7
 10
-27.780944999999988
 20
181.5479399999999
 30
0.0
 11
-27.780944999999988
 21
211.5479399999999
 31
0.0
  0
LINE
  5
73B
  8
0
  6
CONTINUOUS
 62
     7
 10
-27.780944999999988
 20
151.54793999999981
 30
0.0
 11
-31.195796999999999
 21
86.388671999999985
 31
0.0
  0
LINE
  5
73C
  8
0
  6
CONTINUOUS
 62
     7
 10
-145.2809399999999
 20
64.047950999999998
 30
0.0
 11
-115.2809399999999
 21
64.047950999999998
 31
0.0
  0
LINE
  5
73D
  8
0
  6
CONTINUOUS
 62
     7
 10
-148.28093999999979
 20
262.06265000000002
 30
0.0
 11
-148.28093999999979
 21
255.87218999999999
 31
0.0
  0
LINE
  5
73E
  8
0
  6
CONTINUOUS
 62
     7
 10
-142.28093999999999
 20
262.06265000000002
 30
0.0
 11
-142.28093999999999
 21
255.87218999999999
 31
0.0
  0
LINE
  5
73F
  8
0
  6
CONTINUOUS
 62
     7
 10
-97.280945000000003
 20
181.5479399999999
 30
0.0
 11
-97.280945000000003
 21
143.5479599999999
 31
0.0
  0
LINE
  5
740
  8
0
  6
CONTINUOUS
 62
     7
 10
-650.20288000000005
 20
182.68281999999991
 30
0.0
 11
-644.57135000000005
 21
182.87949
 31
0.0
  0
LINE
  5
741
  8
0
  6
CONTINUOUS
 62
     7
 10
-606.96636999999976
 20
218.96473999999981
 30
0.0
 11
-605.55364999999995
 21
220.37743999999989
 31
0.0
  0
LINE
  5
742
  8
0
  6
CONTINUOUS
 62
     7
 10
-641.8825099999998
 20
184.04863
 30
0.0
 11
-606.96636999999976
 21
218.96473999999981
 31
0.0
  0
LINE
  5
743
  8
0
  6
CONTINUOUS
 62
     7
 10
-604.38317999999981
 20
82.435470999999978
 30
0.0
 11
-604.38317999999981
 21
223.11385000000001
 31
0.0
  0
LINE
  5
744
  8
0
  6
CONTINUOUS
 62
     7
 10
-668.38317999999981
 20
182.0479599999999
 30
0.0
 11
-650.20288000000005
 21
182.68281999999991
 31
0.0
  0
LINE
  5
745
  8
0
  6
CONTINUOUS
 62
     7
 10
-600.52277000000004
 20
79.762352000000007
 30
0.0
 11
-594.38311999999985
 21
79.547950999999998
 31
0.0
  0
LINE
  5
746
  8
0
  6
CONTINUOUS
 62
     7
 10
-642.48784999999998
 20
216.64905999999991
 30
0.0
 11
-609.65521000000001
 21
217.79561000000001
 31
0.0
  0
LINE
  5
747
  8
0
  6
CONTINUOUS
 62
     7
 10
-600.52270999999985
 20
227.33354
 30
0.0
 11
-594.38317999999981
 21
227.54794000000001
 31
0.0
  0
LINE
  5
748
  8
0
  6
CONTINUOUS
 62
     7
 10
-594.38311999999985
 20
79.54795799999998
 30
0.0
 11
-594.38311999999985
 21
227.54794000000001
 31
0.0
  0
LINE
  5
749
  8
0
  6
CONTINUOUS
 62
     7
 10
-644.24352999999985
 20
84.925758000000002
 30
0.0
 11
-607.09569999999985
 21
83.628524999999982
 31
0.0
  0
LINE
  5
74A
  8
0
  6
CONTINUOUS
 62
     7
 10
-646.46967000000006
 20
184.69408000000001
 30
0.0
 11
-647.79119999999989
 21
183.59963999999991
 31
0.0
  0
LINE
  5
74B
  8
0
  6
CONTINUOUS
 62
     7
 10
-668.38311999999996
 20
69.047943000000004
 30
0.0
 11
-668.38311999999996
 21
182.0479599999999
 31
0.0
  0
LINE
  5
74C
  8
0
  6
CONTINUOUS
 62
     7
 10
-648.38311999999996
 20
104.05240999999999
 30
0.0
 11
-648.38311999999996
 21
73.609122999999983
 31
0.0
  0
LINE
  5
74D
  8
0
  6
CONTINUOUS
 62
     7
 10
-668.38317999999981
 20
69.047957999999994
 30
0.0
 11
-652.24352999999985
 21
69.611564999999999
 31
0.0
  0
LINE
  5
74E
  8
0
  6
CONTINUOUS
 62
     7
 10
-645.38311999999985
 20
213.6508799999998
 30
0.0
 11
-645.38311999999985
 21
187.0046199999999
 31
0.0
  0
LINE
  5
74F
  8
0
  6
CONTINUOUS
 62
     7
 10
-643.38317999999981
 20
109.0524099999999
 30
0.0
 11
-604.38317999999981
 21
109.0524099999999
 31
0.0
  0
LINE
  5
750
  8
0
  6
CONTINUOUS
 62
     7
 10
-629.23163
 20
158.35379
 30
0.0
 11
-604.38317999999981
 21
113.98096
 31
0.0
  0
LINE
  5
751
  8
0
  6
CONTINUOUS
 62
     7
 10
-676.38317999999981
 20
79.54795799999998
 30
0.0
 11
-648.38311999999996
 21
79.54795799999998
 31
0.0
  0
LINE
  5
752
  8
0
  6
CONTINUOUS
 62
     7
 10
-676.38317999999981
 20
92.742125999999999
 30
0.0
 11
-648.38311999999996
 21
92.742125999999999
 31
0.0
  0
LINE
  5
753
  8
0
  6
CONTINUOUS
 62
     7
 10
-642.99663999999996
 20
182.9344599999998
 30
0.0
 11
-636.62023999999985
 21
171.54791
 31
0.0
  0
LINE
  5
754
  8
0
  6
CONTINUOUS
 62
     7
 10
-676.38317999999981
 20
158.35379
 30
0.0
 11
-629.23163
 21
158.35379
 31
0.0
  0
LINE
  5
755
  8
0
  6
CONTINUOUS
 62
     7
 10
-676.38317999999981
 20
171.5479599999999
 30
0.0
 11
-623.28008999999986
 21
171.5479599999999
 31
0.0
  0
LINE
  5
756
  8
0
  6
CONTINUOUS
 62
     7
 10
-629.23163
 20
158.35379
 30
0.0
 11
-621.15875000000017
 21
166.4266199999999
 31
0.0
  0
LINE
  5
757
  8
0
  6
CONTINUOUS
 62
     7
 10
-445.8243099999998
 20
403.30776999999989
 30
0.0
 11
-439.88308999999998
 21
397.36655000000002
 31
0.0
  0
LINE
  5
758
  8
0
  6
CONTINUOUS
 62
     7
 10
-537.88311999999985
 20
407.86664000000002
 30
0.0
 11
-449.18535999999989
 21
404.76922999999988
 31
0.0
  0
LINE
  5
759
  8
0
  6
CONTINUOUS
 62
     7
 10
-436.16766000000001
 20
413.77499
 30
0.0
 11
-435.98781999999989
 21
413.76870999999988
 31
0.0
  0
LINE
  5
75A
  8
0
  6
CONTINUOUS
 62
     7
 10
-362.88308999999998
 20
523.36663999999985
 30
0.0
 11
-420.88312000000002
 21
523.36663999999985
 31
0.0
  0
LINE
  5
75B
  8
0
  6
CONTINUOUS
 62
     7
 10
-436.98779000000002
 20
390.28931
 30
0.0
 11
-424.88312000000002
 21
389.86660999999992
 31
0.0
  0
LINE
  5
75C
  8
0
  6
CONTINUOUS
 62
     7
 10
-362.88308999999998
 20
491.36664000000002
 30
0.0
 11
-420.88312000000002
 21
491.36664000000002
 31
0.0
  0
LINE
  5
75D
  8
0
  6
CONTINUOUS
 62
     7
 10
-362.88308999999998
 20
491.36664000000002
 30
0.0
 11
-362.88308999999998
 21
523.36663999999985
 31
0.0
  0
LINE
  5
75E
  8
0
  6
CONTINUOUS
 62
     7
 10
-436.88312000000002
 20
451.45587
 30
0.0
 11
-432.88312000000002
 21
451.45587
 31
0.0
  0
LINE
  5
75F
  8
0
  6
CONTINUOUS
 62
     7
 10
-420.88312000000002
 20
402.36657999999989
 30
0.0
 11
-420.88312000000002
 21
612.36664000000019
 31
0.0
  0
LINE
  5
760
  8
0
  6
CONTINUOUS
 62
     7
 10
-424.88312000000002
 20
612.36664000000019
 30
0.0
 11
-420.88312000000002
 21
612.36664000000019
 31
0.0
  0
LINE
  5
761
  8
0
  6
CONTINUOUS
 62
     7
 10
-436.16766000000001
 20
600.95818999999995
 30
0.0
 11
-435.98784999999992
 21
600.96447999999998
 31
0.0
  0
LINE
  5
762
  8
0
  6
CONTINUOUS
 62
     7
 10
-436.88312000000002
 20
563.27733999999975
 30
0.0
 11
-432.88312000000002
 21
563.27733999999975
 31
0.0
  0
LINE
  5
763
  8
0
  6
CONTINUOUS
 62
     7
 10
-424.88312000000002
 20
389.86660999999992
 30
0.0
 11
-424.88312000000002
 21
624.86664000000019
 31
0.0
  0
LINE
  5
764
  8
0
  6
CONTINUOUS
 62
     7
 10
-436.98782
 20
624.44390999999996
 30
0.0
 11
-424.88312000000002
 21
624.86658
 31
0.0
  0
LINE
  5
765
  8
0
  6
CONTINUOUS
 62
     7
 10
-432.88312000000002
 20
416.76687999999967
 30
0.0
 11
-432.88312000000002
 21
597.96636999999976
 31
0.0
  0
LINE
  5
766
  8
0
  6
CENTER
 62
     7
 10
-415.40114999999997
 20
602.82605000000001
 30
0.0
 11
-446.48712
 21
602.82605000000001
 31
0.0
  0
LINE
  5
767
  8
0
  6
CONTINUOUS
 62
     7
 10
-537.88311999999985
 20
606.86657999999977
 30
0.0
 11
-449.18535999999989
 21
609.96398999999985
 31
0.0
  0
LINE
  5
768
  8
0
  6
CENTER
 62
     7
 10
-415.40114999999997
 20
411.90719999999999
 30
0.0
 11
-446.48712
 21
411.90719999999999
 31
0.0
  0
LINE
  5
769
  8
0
  6
CONTINUOUS
 62
     7
 10
-445.8243099999998
 20
611.42542000000003
 30
0.0
 11
-439.88308999999998
 21
617.36663999999996
 31
0.0
  0
LINE
  5
76A
  8
0
  6
CONTINUOUS
 62
     7
 10
-439.88312000000002
 20
393.28747999999979
 30
0.0
 11
-439.88312000000002
 21
621.44574
 31
0.0
  0
LINE
  5
76B
  8
0
  6
CONTINUOUS
 62
     7
 10
-424.88312000000002
 20
402.36657999999989
 30
0.0
 11
-420.88312000000002
 21
402.36657999999989
 31
0.0
  0
LINE
  5
76C
  8
0
  6
CONTINUOUS
 62
     7
 10
-407.88312000000002
 20
512.36658
 30
0.0
 11
-407.88312000000002
 21
502.36660999999981
 31
0.0
  0
LINE
  5
76D
  8
0
  6
CONTINUOUS
 62
     7
 10
-407.88312000000002
 20
512.36658
 30
0.0
 11
-362.88308999999998
 21
512.36658
 31
0.0
  0
LINE
  5
76E
  8
0
  6
CONTINUOUS
 62
     7
 10
-407.88312000000002
 20
502.36660999999981
 30
0.0
 11
-362.88308999999998
 21
502.36660999999981
 31
0.0
  0
ARC
  5
76F
  8
0
  6
CONTINUOUS
 62
     7
 10
-556.88317999999981
 20
587.25665000000004
 30
0.0
 40
3.0
 50
90.000003000000007
 51
180.00001
  0
ARC
  5
770
  8
0
  6
CONTINUOUS
 62
     7
 10
-550.88317999999992
 20
593.25665000000004
 30
0.0
 40
3.0
 50
269.99998999999991
 51
0.00000068324516
  0
ARC
  5
771
  8
0
  6
CONTINUOUS
 62
     7
 10
-550.84594999999979
 20
410.44549999999992
 30
0.0
 40
3.0
 50
6.3862994000000004
 51
90.000003000000007
  0
ARC
  5
772
  8
0
  6
CONTINUOUS
 62
     7
 10
-550.88317999999992
 20
572.43884000000003
 30
0.0
 40
3.0
 50
0.0
 51
90.000003000000007
  0
ARC
  5
773
  8
0
  6
CONTINUOUS
 62
     7
 10
-556.88317999999981
 20
427.47658999999999
 30
0.0
 40
3.0
 50
180.00001
 51
270.0
  0
ARC
  5
774
  8
0
  6
CONTINUOUS
 62
     7
 10
-550.84594999999979
 20
604.28772000000004
 30
0.0
 40
3.0
 50
269.99998999999991
 51
353.61368999999979
  0
ARC
  5
775
  8
0
  6
CONTINUOUS
 62
     7
 10
-550.88317999999992
 20
442.2944
 30
0.0
 40
3.0
 50
269.99998999999991
 51
0.00000068324516
  0
ARC
  5
776
  8
0
  6
CONTINUOUS
 62
     7
 10
-544.88317999999992
 20
411.11287999999968
 30
0.0
 40
3.0
 50
180.00001
 51
268.0
  0
ARC
  5
777
  8
0
  6
CONTINUOUS
 62
     7
 10
-550.88317999999992
 20
421.47658999999987
 30
0.0
 40
3.0
 50
0.0
 51
90.000003000000007
  0
ARC
  5
778
  8
0
  6
CONTINUOUS
 62
     7
 10
-556.88317999999981
 20
416.44549999999998
 30
0.0
 40
3.0
 50
180.00001
 51
270.0
  0
ARC
  5
779
  8
0
  6
CONTINUOUS
 62
     7
 10
-556.88317999999981
 20
598.28772000000004
 30
0.0
 40
3.0
 50
90.000003000000007
 51
180.00001
  0
ARC
  5
77A
  8
0
  6
CONTINUOUS
 62
     7
 10
-562.88317999999992
 20
429.76476999999988
 30
0.0
 40
3.0
 50
0.0
 51
88.0
  0
ARC
  5
77B
  8
0
  6
CONTINUOUS
 62
     7
 10
-562.88317999999992
 20
584.96843999999999
 30
0.0
 40
3.0
 50
272.0
 51
0.0
  0
ARC
  5
77C
  8
0
  6
CONTINUOUS
 62
     7
 10
-544.88317999999992
 20
603.62036000000001
 30
0.0
 40
3.0
 50
91.999998000000005
 51
180.00001
  0
ARC
  5
77D
  8
0
  6
CONTINUOUS
 62
     7
 10
-600.38317999999981
 20
438.07854999999989
 30
0.0
 40
4.0
 50
180.00001
 51
268.0
  0
ARC
  5
77E
  8
0
  6
CONTINUOUS
 62
     7
 10
-600.38317999999981
 20
576.65459999999985
 30
0.0
 40
4.0
 50
91.999998000000005
 51
180.00001
  0
ARC
  5
77F
  8
0
  6
CONTINUOUS
 62
     7
 10
-642.38317999999981
 20
497.36660999999992
 30
0.0
 40
3.0
 50
180.00001
 51
270.0
  0
ARC
  5
780
  8
0
  6
CONTINUOUS
 62
     7
 10
-642.38317999999981
 20
517.36658
 30
0.0
 40
3.0
 50
90.000003000000007
 51
180.00001
  0
ARC
  5
781
  8
0
  6
CONTINUOUS
 62
     7
 10
-611.08044000000007
 20
491.36660999999992
 30
0.0
 40
3.0
 50
0.0
 51
90.000003000000007
  0
ARC
  5
782
  8
0
  6
CONTINUOUS
 62
     7
 10
-611.08044000000007
 20
523.36657999999977
 30
0.0
 40
3.0
 50
270.0
 51
0.0
  0
ARC
  5
783
  8
0
  6
CONTINUOUS
 62
     7
 10
-616.12634000000003
 20
444.03870000000001
 30
0.0
 40
5.0
 50
44.999997999999998
 51
88.0
  0
ARC
  5
784
  8
0
  6
CONTINUOUS
 62
     7
 10
-616.12634000000003
 20
570.69451999999978
 30
0.0
 40
5.0
 50
272.0
 51
315.0
  0
ARC
  5
785
  8
0
  6
CONTINUOUS
 62
     7
 10
-609.34569999999985
 20
437.25805999999989
 30
0.0
 40
5.0
 50
5.2307202000000004
 51
44.999997999999998
  0
ARC
  5
786
  8
0
  6
CONTINUOUS
 62
     7
 10
-609.34569999999985
 20
577.47515999999996
 30
0.0
 40
5.0
 50
315.0
 51
354.76906000000002
  0
ARC
  5
787
  8
0
  6
CONTINUOUS
 62
     7
 10
-627.04040999999995
 20
550.36664000000007
 30
0.0
 40
3.0
 50
324.42424
 51
90.000003000000007
  0
ARC
  5
788
  8
0
  6
CONTINUOUS
 62
     7
 10
-627.04040999999995
 20
464.36660999999992
 30
0.0
 40
3.0
 50
270.0
 51
35.57575700000001
  0
ARC
  5
789
  8
0
  6
CONTINUOUS
 62
     3
 10
-763.65600999999958
 20
430.86660999999992
 30
0.0
 40
7.5
 50
179.99997999999991
 51
0.000010017913
  0
ARC
  5
78A
  8
0
  6
CONTINUOUS
 62
     3
 10
-763.65600999999958
 20
430.86660999999992
 30
0.0
 40
4.0
 50
179.99997999999991
 51
0.000010017912
  0
ARC
  5
78B
  8
0
  6
CONTINUOUS
 62
     7
 10
-676.7298599999998
 20
552.69934000000001
 30
0.0
 40
1.502775999999999
 50
194.75642999999991
 51
269.87757999999991
  0
ARC
  5
78C
  8
0
  6
CONTINUOUS
 62
     7
 10
-676.7298599999998
 20
551.78931
 30
0.0
 40
1.502775999999999
 50
194.75642999999991
 51
269.87757999999991
  0
ARC
  5
78D
  8
0
  6
CONTINUOUS
 62
     7
 10
-676.7298599999998
 20
549.93932999999993
 30
0.0
 40
1.502775999999999
 50
194.75642999999991
 51
269.87757999999991
  0
ARC
  5
78E
  8
0
  6
CONTINUOUS
 62
     7
 10
-684.25792999999965
 20
567.25182999999981
 30
0.0
 40
2.0047290000000002
 50
15.173496
 51
89.861677999999998
  0
ARC
  5
78F
  8
0
  6
CONTINUOUS
 62
     7
 10
-684.25792999999965
 20
566.34180000000003
 30
0.0
 40
2.0047290000000002
 50
15.173496
 51
89.861677999999998
  0
ARC
  5
790
  8
0
  6
CONTINUOUS
 62
     7
 10
-684.25792999999965
 20
564.49182000000008
 30
0.0
 40
2.0047290000000002
 50
15.173496
 51
89.861677999999998
  0
ARC
  5
791
  8
0
  6
CONTINUOUS
 62
     7
 10
-676.7298599999998
 20
467.64382999999998
 30
0.0
 40
1.502775999999999
 50
90.122413000000037
 51
165.24357000000001
  0
ARC
  5
792
  8
0
  6
CONTINUOUS
 62
     7
 10
-797.38989000000004
 20
555.38451999999995
 30
0.0
 40
0.99319202
 50
119.77338
 51
179.87958999999981
  0
ARC
  5
793
  8
0
  6
CONTINUOUS
 62
     7
 10
-797.38756999999964
 20
554.34631000000002
 30
0.0
 40
0.995579
 50
116.5870899999999
 51
179.98264
  0
ARC
  5
794
  8
0
  6
CONTINUOUS
 62
     7
 10
-796.12108999999998
 20
556.12072999999987
 30
0.0
 40
0.9959030199999999
 50
89.541267000000005
 51
119.60717
  0
ARC
  5
795
  8
0
  6
CONTINUOUS
 62
     7
 10
-796.15832999999998
 20
554.97253000000001
 30
0.0
 40
0.99411702
 50
89.122643999999966
 51
115.93498
  0
ARC
  5
796
  8
0
  6
CONTINUOUS
 62
     7
 10
-796.11425999999983
 20
554.01233000000002
 30
0.0
 40
0.99427301
 50
89.356065999999984
 51
120.78091000000001
  0
ARC
  5
797
  8
0
  6
CONTINUOUS
 62
     7
 10
-796.14806999999985
 20
552.87121999999999
 30
0.0
 40
0.99545902
 50
89.141291000000024
 51
117.20381999999999
  0
ARC
  5
798
  8
0
  6
CONTINUOUS
 62
     7
 10
-796.07654000000002
 20
549.50036999999986
 30
0.0
 40
0.99617702
 50
90.381317999999979
 51
123.9704899999999
  0
ARC
  5
799
  8
0
  6
CONTINUOUS
 62
     7
 10
-796.10375999999985
 20
548.36010999999985
 30
0.0
 40
0.99648702
 50
90.540720999999976
 51
120.74377
  0
ARC
  5
79A
  8
0
  6
CONTINUOUS
 62
     7
 10
-797.38904000000002
 20
547.60973999999965
 30
0.0
 40
0.99404597
 50
120.4682
 51
180.18563999999989
  0
ARC
  5
79B
  8
0
  6
CONTINUOUS
 62
     7
 10
-797.38830999999982
 20
548.64417000000003
 30
0.0
 40
0.9948369899999999
 50
123.20496
 51
180.4378599999998
  0
ARC
  5
79C
  8
0
  6
CONTINUOUS
 62
     7
 10
-797.38989000000004
 20
552.20800999999994
 30
0.0
 40
0.9932109699999999
 50
117.7993199999999
 51
180.08187000000001
  0
ARC
  5
79D
  8
0
  6
CONTINUOUS
 62
     7
 10
-797.38867000000005
 20
553.24561000000006
 30
0.0
 40
0.9944329899999999
 50
121.15213
 51
179.9405099999999
  0
ARC
  5
79E
  8
0
  6
CONTINUOUS
 62
     7
 10
-796.18213000000003
 20
542.06115999999986
 30
0.0
 40
0.9954450099999999
 50
90.056905000000043
 51
113.1274499999999
  0
ARC
  5
79F
  8
0
  6
CONTINUOUS
 62
     7
 10
-796.24401999999975
 20
540.11389000000008
 30
0.0
 40
0.9927430199999999
 50
89.374555000000001
 51
106.33207
  0
ARC
  5
7A0
  8
0
  6
CONTINUOUS
 62
     7
 10
-797.38684000000001
 20
539.76233000000002
 30
0.0
 40
0.9962710099999999
 50
106.69792
 51
180.3300499999998
  0
ARC
  5
7A1
  8
0
  6
CONTINUOUS
 62
     7
 10
-797.38671999999985
 20
541.54809999999986
 30
0.0
 40
0.9963999999999998
 50
112.81735999999979
 51
180.09041999999991
  0
ARC
  5
7A2
  8
0
  6
CONTINUOUS
 62
     7
 10
-797.38806
 20
532.37145999999996
 30
0.0
 40
0.99507803
 50
89.715886999999981
 51
180.28411
  0
ARC
  5
7A3
  8
0
  6
CONTINUOUS
 62
     7
 10
-797.38292999999999
 20
532.36682000000008
 30
0.0
 40
1.000203
 50
180.01165
 51
269.98835000000003
  0
ARC
  5
7A4
  8
0
  6
CONTINUOUS
 62
     7
 10
-797.38806
 20
522.37145999999996
 30
0.0
 40
0.99508202
 50
89.716099
 51
180.28390999999991
  0
ARC
  5
7A5
  8
0
  6
CONTINUOUS
 62
     7
 10
-797.38292999999999
 20
522.36681999999985
 30
0.0
 40
1.0001999999999991
 50
180.0114299999999
 51
269.98856999999992
  0
ARC
  5
7A6
  8
0
  6
CONTINUOUS
 62
     7
 10
-797.38806
 20
512.37145999999996
 30
0.0
 40
0.9950849999999999
 50
89.716311000000005
 51
180.28368999999981
  0
ARC
  5
7A7
  8
0
  6
CONTINUOUS
 62
     7
 10
-797.38292999999999
 20
512.36681999999996
 30
0.0
 40
1.0001959999999981
 50
180.01122000000001
 51
269.98877999999991
  0
ARC
  5
7A8
  8
0
  6
CONTINUOUS
 62
     7
 10
-794.38292999999987
 20
510.36672999999968
 30
0.0
 40
0.9998249999999999
 50
359.98995000000002
 51
90.010050000000007
  0
ARC
  5
7A9
  8
0
  6
CONTINUOUS
 62
     7
 10
-794.38805999999988
 20
514.37145999999996
 30
0.0
 40
1.0049469
 50
270.28134999999992
 51
359.71866
  0
ARC
  5
7AA
  8
0
  6
CONTINUOUS
 62
     7
 10
-794.38292999999987
 20
520.36670000000004
 30
0.0
 40
0.9998210099999999
 50
359.98975000000002
 51
90.010255000000001
  0
ARC
  5
7AB
  8
0
  6
CONTINUOUS
 62
     7
 10
-794.38805999999988
 20
524.37145999999996
 30
0.0
 40
1.004939
 50
270.28091000000001
 51
359.71910000000008
  0
ARC
  5
7AC
  8
0
  6
CONTINUOUS
 62
     7
 10
-794.38292999999987
 20
530.36670000000004
 30
0.0
 40
0.9998289899999999
 50
359.99018999999993
 51
90.009810999999985
  0
ARC
  5
7AD
  8
0
  6
CONTINUOUS
 62
     7
 10
-794.38805999999988
 20
534.37145999999996
 30
0.0
 40
1.004942999999999
 50
270.28111000000001
 51
359.71888999999987
  0
ARC
  5
7AE
  8
0
  6
CONTINUOUS
 62
     7
 10
-794.38135
 20
540.10828000000004
 30
0.0
 40
0.9982839799999999
 50
359.90141999999992
 51
90.098575999999994
  0
ARC
  5
7AF
  8
0
  6
CONTINUOUS
 62
     7
 10
-794.38549999999998
 20
548.35424999999987
 30
0.0
 40
1.002353
 50
0.13432682
 51
89.865673000000001
  0
ARC
  5
7B0
  8
0
  6
CONTINUOUS
 62
     7
 10
-794.08765000000005
 20
543.7611099999998
 30
0.0
 40
0.704566
 50
270.37009999999992
 51
359.62990999999982
  0
ARC
  5
7B1
  8
0
  6
CONTINUOUS
 62
     7
 10
-794.38207999999975
 20
552.86755000000005
 30
0.0
 40
0.9990100299999999
 50
359.94319000000002
 51
90.056808999999959
  0
ARC
  5
7B2
  8
0
  6
CONTINUOUS
 62
     7
 10
-793.88147000000004
 20
555.46825999999965
 30
0.0
 40
0.4983060100000002
 50
359.80489
 51
90.195107000000007
  0
ARC
  5
7B3
  8
0
  6
CONTINUOUS
 62
     7
 10
-793.88769999999988
 20
557.62121999999965
 30
0.0
 40
0.50463498
 50
270.52382999999992
 51
359.47617000000002
  0
ARC
  5
7B4
  8
0
  6
CONTINUOUS
 62
     7
 10
-781.83849999999984
 20
472.36660999999992
 30
0.0
 40
1.000013899999999
 50
89.691659999999985
 51
270.30833999999999
  0
ARC
  5
7B5
  8
0
  6
CONTINUOUS
 62
     7
 10
-679.56311000000005
 20
542.41161999999986
 30
0.0
 40
1.6750020000000001
 50
269.99998999999991
 51
90.000003000000007
  0
ARC
  5
7B6
  8
0
  6
CONTINUOUS
 62
     7
 10
-683.04309000000001
 20
542.36658
 30
0.0
 40
1.0
 50
269.99998999999991
 51
90.000003000000007
  0
ARC
  5
7B7
  8
0
  6
CONTINUOUS
 62
     7
 10
-683.04309000000001
 20
472.36660999999992
 30
0.0
 40
1.0
 50
269.99998999999991
 51
90.000003000000007
  0
ARC
  5
7B8
  8
0
  6
CONTINUOUS
 62
     7
 10
-679.56311000000005
 20
472.32155999999992
 30
0.0
 40
1.6750020000000001
 50
269.99998999999991
 51
90.000003000000007
  0
ARC
  5
7B9
  8
0
  6
CONTINUOUS
 62
     7
 10
-794.38647000000003
 20
474.62990999999988
 30
0.0
 40
1.003352
 50
270.19110999999992
 51
359.80889999999982
  0
ARC
  5
7BA
  8
0
  6
CONTINUOUS
 62
     7
 10
-794.38805999999988
 20
484.37149000000011
 30
0.0
 40
1.0049469
 50
270.28136999999992
 51
359.71863000000002
  0
ARC
  5
7BB
  8
0
  6
CONTINUOUS
 62
     7
 10
-794.38292999999987
 20
480.36672999999979
 30
0.0
 40
0.9998239899999999
 50
359.98991999999993
 51
90.010076999999981
  0
ARC
  5
7BC
  8
0
  6
CONTINUOUS
 62
     7
 10
-794.08252000000005
 20
470.97719999999998
 30
0.0
 40
0.6994530000000001
 50
359.95517000000001
 51
90.044829000000021
  0
ARC
  5
7BD
  8
0
  6
CONTINUOUS
 62
     7
 10
-796.18017999999984
 20
472.68178999999992
 30
0.0
 40
1.005233
 50
246.98638999999989
 51
269.82924999999989
  0
ARC
  5
7BE
  8
0
  6
CONTINUOUS
 62
     7
 10
-796.24255000000005
 20
474.6293
 30
0.0
 40
1.002699
 50
253.7527199999999
 51
270.54064
  0
ARC
  5
7BF
  8
0
  6
CONTINUOUS
 62
     7
 10
-797.38671999999985
 20
474.98099000000002
 30
0.0
 40
0.99638802
 50
180.24991
 51
253.29664
  0
ARC
  5
7C0
  8
0
  6
CONTINUOUS
 62
     7
 10
-797.38660000000004
 20
473.19510000000002
 30
0.0
 40
0.9965090199999998
 50
179.91374999999999
 51
247.17845
  0
ARC
  5
7C1
  8
0
  6
CONTINUOUS
 62
     7
 10
-797.38292999999999
 20
482.36685
 30
0.0
 40
1.0001959999999981
 50
180.01124999999999
 51
269.98874999999992
  0
ARC
  5
7C2
  8
0
  6
CONTINUOUS
 62
     7
 10
-797.38806
 20
482.37148999999988
 30
0.0
 40
0.9950849999999999
 50
89.716282999999976
 51
180.2837199999999
  0
ARC
  5
7C3
  8
0
  6
CONTINUOUS
 62
     7
 10
-797.38292999999999
 20
492.36684999999989
 30
0.0
 40
1.0001999999999991
 50
180.01146
 51
269.98853999999972
  0
ARC
  5
7C4
  8
0
  6
CONTINUOUS
 62
     7
 10
-797.38806
 20
492.37148999999999
 30
0.0
 40
0.9950810099999999
 50
89.716071999999997
 51
180.28391999999999
  0
ARC
  5
7C5
  8
0
  6
CONTINUOUS
 62
     7
 10
-797.38292999999999
 20
502.36685
 30
0.0
 40
1.0002040000000001
 50
180.01166000000001
 51
269.9883200000001
  0
ARC
  5
7C6
  8
0
  6
CONTINUOUS
 62
     7
 10
-797.38806
 20
502.37148999999988
 30
0.0
 40
0.9950770099999999
 50
89.715860000000006
 51
180.28413999999989
  0
ARC
  5
7C7
  8
0
  6
CONTINUOUS
 62
     7
 10
-794.38805999999988
 20
504.37148999999999
 30
0.0
 40
1.004942999999999
 50
270.28113999999988
 51
359.71886999999992
  0
ARC
  5
7C8
  8
0
  6
CONTINUOUS
 62
     7
 10
-794.38292999999987
 20
500.36673000000002
 30
0.0
 40
0.9998279799999998
 50
359.99015999999978
 51
90.009838000000002
  0
ARC
  5
7C9
  8
0
  6
CONTINUOUS
 62
     7
 10
-794.38805999999988
 20
494.37148999999988
 30
0.0
 40
1.004939
 50
270.28093999999999
 51
359.71906999999999
  0
ARC
  5
7CA
  8
0
  6
CONTINUOUS
 62
     7
 10
-794.38292999999987
 20
490.36672999999968
 30
0.0
 40
0.9998210099999999
 50
359.98971999999998
 51
90.010281999999961
  0
ARC
  5
7CB
  8
0
  6
CONTINUOUS
 62
     7
 10
-782.71056999999985
 20
542.41161999999986
 30
0.0
 40
1.6750160000000001
 50
89.746144999999984
 51
270.25387000000001
  0
ARC
  5
7CC
  8
0
  6
CONTINUOUS
 62
     7
 10
-781.83849999999984
 20
542.36658
 30
0.0
 40
1.000013899999999
 50
89.691659999999985
 51
270.30833999999999
  0
ARC
  5
7CD
  8
0
  6
CONTINUOUS
 62
     7
 10
-781.83849999999984
 20
532.36657999999966
 30
0.0
 40
1.000013899999999
 50
89.691659999999985
 51
270.30833999999999
  0
ARC
  5
7CE
  8
0
  6
CONTINUOUS
 62
     7
 10
-781.83849999999984
 20
522.36658
 30
0.0
 40
1.000013899999999
 50
89.691659999999985
 51
270.30833999999999
  0
ARC
  5
7CF
  8
0
  6
CONTINUOUS
 62
     7
 10
-781.83849999999984
 20
512.36658
 30
0.0
 40
1.000013899999999
 50
89.691659999999985
 51
270.30833999999999
  0
ARC
  5
7D0
  8
0
  6
CONTINUOUS
 62
     7
 10
-781.83849999999984
 20
502.36660999999981
 30
0.0
 40
1.000013899999999
 50
89.691659999999985
 51
270.30833999999999
  0
ARC
  5
7D1
  8
0
  6
CONTINUOUS
 62
     7
 10
-781.83849999999984
 20
492.36660999999998
 30
0.0
 40
1.000013899999999
 50
89.691659999999985
 51
270.30833999999999
  0
ARC
  5
7D2
  8
0
  6
CONTINUOUS
 62
     7
 10
-781.83849999999984
 20
482.36660999999992
 30
0.0
 40
1.000013899999999
 50
89.691659999999985
 51
270.30833999999999
  0
ARC
  5
7D3
  8
0
  6
CONTINUOUS
 62
     7
 10
-782.92309999999998
 20
532.39160000000004
 30
0.0
 40
1.465004
 50
90.000003000000007
 51
270.0
  0
ARC
  5
7D4
  8
0
  6
CONTINUOUS
 62
     7
 10
-783.05309999999974
 20
522.37658999999996
 30
0.0
 40
1.3300049999999981
 50
90.000003000000007
 51
270.0
  0
ARC
  5
7D5
  8
0
  6
CONTINUOUS
 62
     7
 10
-783.11901999999986
 20
512.37157999999999
 30
0.0
 40
1.2650129999999991
 50
89.735579000000016
 51
270.26441
  0
ARC
  5
7D6
  8
0
  6
CONTINUOUS
 62
     7
 10
-783.11901999999986
 20
502.36660999999981
 30
0.0
 40
1.2700129999999981
 50
89.736616999999995
 51
270.26337000000001
  0
ARC
  5
7D7
  8
0
  6
CONTINUOUS
 62
     7
 10
-783.05309999999974
 20
492.35660000000001
 30
0.0
 40
1.3300049999999981
 50
90.000003000000007
 51
270.0
  0
ARC
  5
7D8
  8
0
  6
CONTINUOUS
 62
     7
 10
-782.92309999999998
 20
482.34157999999991
 30
0.0
 40
1.465004
 50
90.000003000000007
 51
270.0
  0
ARC
  5
7D9
  8
0
  6
CONTINUOUS
 62
     7
 10
-782.70995999999957
 20
472.32155999999992
 30
0.0
 40
1.675014
 50
89.766498999999982
 51
270.23351000000002
  0
ARC
  5
7DA
  8
0
  6
CONTINUOUS
 62
     7
 10
-794.38634999999988
 20
466.39334000000002
 30
0.0
 40
1.0032760000000001
 50
334.19810000000001
 51
359.61810999999977
  0
ARC
  5
7DB
  8
0
  6
CONTINUOUS
 62
     7
 10
-797.38463999999999
 20
467.12589000000003
 30
0.0
 40
0.9984580299999999
 50
179.9595799999999
 51
239.38657000000001
  0
ARC
  5
7DC
  8
0
  6
CONTINUOUS
 62
     7
 10
-781.18444999999986
 20
561.65246999999999
 30
0.0
 40
1.994108999999999
 50
89.675548000000006
 51
169.18777
  0
ARC
  5
7DD
  8
0
  6
CONTINUOUS
 62
     7
 10
-781.13292999999965
 20
564.50134000000003
 30
0.0
 40
1.9952829999999979
 50
90.006203999999983
 51
170.90835000000001
  0
ARC
  5
7DE
  8
0
  6
CONTINUOUS
 62
     7
 10
-781.11852999999985
 20
566.34984999999995
 30
0.0
 40
1.9967330000000001
 50
89.843967000000006
 51
171.45387999999991
  0
ARC
  5
7DF
  8
0
  6
CONTINUOUS
 62
     7
 10
-781.09655999999984
 20
567.26098999999999
 30
0.0
 40
1.995633
 50
89.899708000000004
 51
172.06112999999991
  0
ARC
  5
7E0
  8
0
  6
CONTINUOUS
 62
     7
 10
-684.25305000000003
 20
561.64832000000001
 30
0.0
 40
1.9982919999999991
 50
15.032547999999981
 51
90.002631999999977
  0
ARC
  5
7E1
  8
0
  6
CONTINUOUS
 62
     7
 10
-676.7298599999998
 20
547.08936000000006
 30
0.0
 40
1.502775999999999
 50
194.75642999999991
 51
269.87757999999991
  0
ARC
  5
7E2
  8
0
  6
CONTINUOUS
 62
     7
 10
-684.25792999999965
 20
453.09134000000012
 30
0.0
 40
2.0047290000000002
 50
270.13832000000002
 51
344.82650000000001
  0
ARC
  5
7E3
  8
0
  6
CONTINUOUS
 62
     7
 10
-797.38549999999998
 20
459.35122999999987
 30
0.0
 40
0.9976310099999999
 50
180.26780999999991
 51
240.07924
  0
ARC
  5
7E4
  8
0
  6
CONTINUOUS
 62
     7
 10
-797.38744999999983
 20
460.39699999999999
 30
0.0
 40
0.9956849800000001
 50
180.02112999999991
 51
243.40913999999981
  0
ARC
  5
7E5
  8
0
  6
CONTINUOUS
 62
     7
 10
-796.10242000000005
 20
458.61770999999987
 30
0.0
 40
1.001123999999999
 50
239.32782000000009
 51
269.38767999999988
  0
ARC
  5
7E6
  8
0
  6
CONTINUOUS
 62
     7
 10
-796.13732999999979
 20
459.76589999999999
 30
0.0
 40
0.9993420200000001
 50
242.86199999999999
 51
269.66546
  0
ARC
  5
7E7
  8
0
  6
CONTINUOUS
 62
     7
 10
-796.11168999999984
 20
460.73025999999987
 30
0.0
 40
1.0037439999999991
 50
239.37112999999999
 51
270.49189999999987
  0
ARC
  5
7E8
  8
0
  6
CONTINUOUS
 62
     7
 10
-796.12792999999999
 20
461.8672199999998
 30
0.0
 40
1.0006820000000001
 50
241.65062
 51
269.7039299999999
  0
ARC
  5
7E9
  8
0
  6
CONTINUOUS
 62
     7
 10
-796.09032999999999
 20
465.24709999999999
 30
0.0
 40
1.000521999999999
 50
237.14617999999999
 51
270.41343999999998
  0
ARC
  5
7EA
  8
0
  6
CONTINUOUS
 62
     7
 10
-796.11974999999984
 20
466.38760000000002
 30
0.0
 40
1.0010449999999991
 50
240.47187
 51
270.37970999999999
  0
ARC
  5
7EB
  8
0
  6
CONTINUOUS
 62
     7
 10
-797.38463999999999
 20
467.12589000000003
 30
0.0
 40
0.9984580299999999
 50
179.9595799999999
 51
239.38657000000001
  0
ARC
  5
7EC
  8
0
  6
CONTINUOUS
 62
     7
 10
-797.38402999999983
 20
466.09134
 30
0.0
 40
0.9990889999999998
 50
179.69508999999991
 51
236.66209000000001
  0
ARC
  5
7ED
  8
0
  6
CONTINUOUS
 62
     7
 10
-797.38537999999983
 20
462.52785999999992
 30
0.0
 40
0.9977070099999998
 50
180.0740199999999
 51
242.04481000000001
  0
ARC
  5
7EE
  8
0
  6
CONTINUOUS
 62
     7
 10
-797.38440000000003
 20
461.49014
 30
0.0
 40
0.9987969999999998
 50
179.62728000000001
 51
238.70795000000001
  0
ARC
  5
7EF
  8
0
  6
CONTINUOUS
 62
     7
 10
-794.3856199999999
 20
466.38907
 30
0.0
 40
1.002470999999999
 50
270.14107000000001
 51
359.85892999999987
  0
ARC
  5
7F0
  8
0
  6
CONTINUOUS
 62
     7
 10
-794.38720999999998
 20
461.87075999999968
 30
0.0
 40
1.004119999999999
 50
270.23460999999992
 51
359.76538999999991
  0
ARC
  5
7F1
  8
0
  6
CONTINUOUS
 62
     7
 10
-793.88647000000003
 20
459.27005000000003
 30
0.0
 40
0.5033929900000002
 50
270.38490999999982
 51
359.61509999999993
  0
ARC
  5
7F2
  8
0
  6
CONTINUOUS
 62
     7
 10
-793.88269000000003
 20
457.11709999999988
 30
0.0
 40
0.49952301
 50
359.94522999999992
 51
90.054773999999981
  0
ARC
  5
7F3
  8
0
  6
CONTINUOUS
 62
     7
 10
-781.17822000000001
 20
453.08584999999988
 30
0.0
 40
1.9992490000000001
 50
190.64309999999981
 51
270.14742999999999
  0
ARC
  5
7F4
  8
0
  6
CONTINUOUS
 62
     7
 10
-781.12694999999985
 20
450.23696999999999
 30
0.0
 40
2.000420099999999
 50
188.92681999999991
 51
269.82270999999992
  0
ARC
  5
7F5
  8
0
  6
CONTINUOUS
 62
     7
 10
-695.86950999999988
 20
443.36660999999992
 30
0.0
 40
1.5
 50
90.000003000000007
 51
178.5
  0
ARC
  5
7F6
  8
0
  6
CONTINUOUS
 62
     3
 10
-684.36694
 20
446.36660999999998
 30
0.0
 40
1.5
 50
269.99998999999991
 51
327.0
  0
ARC
  5
7F7
  8
0
  6
CONTINUOUS
 62
     7
 10
-781.39647999999988
 20
450.23660000000001
 30
0.0
 40
2.0
 50
188.6296199999999
 51
269.99998999999991
  0
ARC
  5
7F8
  8
0
  6
CONTINUOUS
 62
     7
 10
-781.47692999999981
 20
450.23660000000001
 30
0.0
 40
2.0
 50
187.9504399999999
 51
269.99998999999991
  0
ARC
  5
7F9
  8
0
  6
CONTINUOUS
 62
     7
 10
-758.98499000000004
 20
446.73660000000001
 30
0.0
 40
1.5
 50
1.5000026999999989
 51
90.000003000000007
  0
ARC
  5
7FA
  8
0
  6
CONTINUOUS
 62
     7
 10
-747.94445999999982
 20
522.36658
 30
0.0
 40
1.0000056999999991
 50
269.99998999999991
 51
90.000003000000007
  0
ARC
  5
7FB
  8
0
  6
CONTINUOUS
 62
     7
 10
-747.94445999999982
 20
512.36658
 30
0.0
 40
1.0000056999999991
 50
269.99998999999991
 51
90.000003000000007
  0
ARC
  5
7FC
  8
0
  6
CONTINUOUS
 62
     7
 10
-747.94445999999982
 20
502.36660999999981
 30
0.0
 40
1.0000056999999991
 50
269.99998999999991
 51
90.000003000000007
  0
ARC
  5
7FD
  8
0
  6
CONTINUOUS
 62
     7
 10
-747.94445999999982
 20
492.36660999999998
 30
0.0
 40
1.0000056999999991
 50
269.99998999999991
 51
90.000003000000007
  0
ARC
  5
7FE
  8
0
  6
CONTINUOUS
 62
     7
 10
-697.38317999999981
 20
474.86660999999998
 30
0.0
 40
1.5
 50
179.99998999999991
 51
270.0
  0
ARC
  5
7FF
  8
0
  6
CONTINUOUS
 62
     7
 10
-715.38317999999981
 20
474.86660999999998
 30
0.0
 40
1.5
 50
269.99998999999991
 51
0.00000068324516
  0
ARC
  5
800
  8
0
  6
CONTINUOUS
 62
     7
 10
-715.36315999999965
 20
475.00662
 30
0.0
 40
1.0
 50
269.99998999999991
 51
0.00000068324625
  0
ARC
  5
801
  8
0
  6
CONTINUOUS
 62
     7
 10
-697.40307999999982
 20
475.00662
 30
0.0
 40
1.0
 50
179.99998999999991
 51
270.0
  0
CIRCLE
  5
802
  8
0
  6
CONTINUOUS
 62
     3
 10
-708.88317999999981
 20
535.86657999999977
 30
0.0
 40
1.1000000000000001
  0
CIRCLE
  5
803
  8
0
  6
CONTINUOUS
 62
     3
 10
-708.88317999999981
 20
535.86657999999977
 30
0.0
 40
1.149999999999999
  0
CIRCLE
  5
804
  8
0
  6
CONTINUOUS
 62
     3
 10
-703.88317999999958
 20
535.86657999999977
 30
0.0
 40
1.0
  0
ARC
  5
805
  8
0
  6
CONTINUOUS
 62
     7
 10
-715.38317999999981
 20
534.86658
 30
0.0
 40
1.02
 50
269.99998999999991
 51
0.00000068324403
  0
ARC
  5
806
  8
0
  6
CONTINUOUS
 62
     7
 10
-697.38317999999981
 20
534.86658
 30
0.0
 40
1.02
 50
179.99998999999991
 51
270.0
  0
ARC
  5
807
  8
0
  6
CONTINUOUS
 62
     7
 10
-715.38317999999981
 20
534.86658
 30
0.0
 40
1.5
 50
269.99998999999991
 51
0.00000068324733
  0
ARC
  5
808
  8
0
  6
CONTINUOUS
 62
     7
 10
-697.38317999999981
 20
534.86658
 30
0.0
 40
1.5
 50
179.99998999999991
 51
270.0
  0
CIRCLE
  5
809
  8
0
  6
CONTINUOUS
 62
     3
 10
-703.88317999999958
 20
478.86660999999992
 30
0.0
 40
1.0
  0
CIRCLE
  5
80A
  8
0
  6
CONTINUOUS
 62
     3
 10
-708.88317999999981
 20
478.86660999999992
 30
0.0
 40
1.149999999999999
  0
CIRCLE
  5
80B
  8
0
  6
CONTINUOUS
 62
     3
 10
-708.88317999999981
 20
478.86660999999992
 30
0.0
 40
1.1000000000000001
  0
ARC
  5
80C
  8
0
  6
CONTINUOUS
 62
     7
 10
-715.38317999999981
 20
479.86660999999998
 30
0.0
 40
1.02
 50
0.0
 51
90.000003000000007
  0
ARC
  5
80D
  8
0
  6
CONTINUOUS
 62
     7
 10
-697.38317999999981
 20
479.86660999999998
 30
0.0
 40
1.02
 50
90.000003000000007
 51
180.00001
  0
ARC
  5
80E
  8
0
  6
CONTINUOUS
 62
     7
 10
-715.38317999999981
 20
479.86660999999998
 30
0.0
 40
1.5
 50
0.0
 51
90.000003000000007
  0
ARC
  5
80F
  8
0
  6
CONTINUOUS
 62
     7
 10
-697.38317999999981
 20
479.86660999999998
 30
0.0
 40
1.5
 50
90.000003000000007
 51
180.00001
  0
ARC
  5
810
  8
0
  6
CONTINUOUS
 62
     7
 10
-746.71813999999983
 20
492.35660000000001
 30
0.0
 40
1.3300148000000001
 50
269.72941999999989
 51
90.270567000000014
  0
ARC
  5
811
  8
0
  6
CONTINUOUS
 62
     7
 10
-746.65625
 20
502.36660999999981
 30
0.0
 40
1.2700266
 50
269.62931999999989
 51
90.370669999999961
  0
ARC
  5
812
  8
0
  6
CONTINUOUS
 62
     7
 10
-746.65625
 20
512.37659000000008
 30
0.0
 40
1.2700266
 50
269.62931999999989
 51
90.370669999999961
  0
ARC
  5
813
  8
0
  6
CONTINUOUS
 62
     7
 10
-746.71813999999983
 20
522.38158999999985
 30
0.0
 40
1.3350147999999991
 50
269.73043000000001
 51
90.269555999999994
  0
ARC
  5
814
  8
0
  6
CONTINUOUS
 62
     7
 10
-683.04309000000001
 20
532.36657999999966
 30
0.0
 40
1.0000255999999981
 50
269.58947000000001
 51
90.410531000000006
  0
ARC
  5
815
  8
0
  6
CONTINUOUS
 62
     7
 10
-679.34314000000018
 20
532.39660999999978
 30
0.0
 40
1.460011199999999
 50
269.77525000000003
 51
90.224749999999986
  0
ARC
  5
816
  8
0
  6
CONTINUOUS
 62
     7
 10
-683.04309000000001
 20
482.36660999999992
 30
0.0
 40
1.0000255999999981
 50
269.58947000000001
 51
90.410531000000006
  0
ARC
  5
817
  8
0
  6
CONTINUOUS
 62
     7
 10
-679.34314000000018
 20
482.33657999999991
 30
0.0
 40
1.460011199999999
 50
269.77525000000003
 51
90.224749999999986
  0
ARC
  5
818
  8
0
  6
CONTINUOUS
 62
     7
 10
-697.40307999999982
 20
539.72655999999995
 30
0.0
 40
1.0
 50
90.000003000000007
 51
180.00001
  0
ARC
  5
819
  8
0
  6
CONTINUOUS
 62
     7
 10
-697.38317999999981
 20
539.86657999999977
 30
0.0
 40
1.5
 50
90.000003000000007
 51
180.00001
  0
ARC
  5
81A
  8
0
  6
CONTINUOUS
 62
     7
 10
-715.38317999999981
 20
539.86657999999977
 30
0.0
 40
1.5
 50
0.0
 51
90.000003000000007
  0
ARC
  5
81B
  8
0
  6
CONTINUOUS
 62
     7
 10
-715.36315999999965
 20
539.72655999999995
 30
0.0
 40
1.0
 50
0.0
 51
90.000003000000007
  0
ARC
  5
81C
  8
0
  6
CONTINUOUS
 62
     7
 10
-632.29076999999995
 20
472.42667
 30
0.0
 40
3.0
 50
30.468077000000001
 51
90.000003000000007
  0
ARC
  5
81D
  8
0
  6
CONTINUOUS
 62
     7
 10
-632.29076999999995
 20
542.30651999999986
 30
0.0
 40
3.0
 50
270.0
 51
329.53192000000001
  0
ARC
  5
81E
  8
0
  6
CONTINUOUS
 62
     7
 10
-549.88311999999985
 20
249.81949999999989
 30
0.0
 40
2.0
 50
272.0
 51
0.0
  0
ARC
  5
81F
  8
0
  6
CONTINUOUS
 62
     7
 10
-556.88311999999985
 20
244.5719899999998
 30
0.0
 40
3.0
 50
91.999998000000005
 51
180.00001
  0
ARC
  5
820
  8
0
  6
CONTINUOUS
 62
     7
 10
-556.88311999999985
 20
62.524517000000003
 30
0.0
 40
3.0
 50
179.99998999999991
 51
268.00000999999992
  0
ARC
  5
821
  8
0
  6
CONTINUOUS
 62
     7
 10
-545.88317999999992
 20
250.76735999999991
 30
0.0
 40
2.0
 50
91.999998000000005
 51
180.00001
  0
ARC
  5
822
  8
0
  6
CONTINUOUS
 62
     7
 10
-562.88311999999985
 20
75.946120999999977
 30
0.0
 40
3.0
 50
0.0
 51
88.0
  0
ARC
  5
823
  8
0
  6
CONTINUOUS
 62
     7
 10
-562.88311999999985
 20
231.14979999999991
 30
0.0
 40
3.0
 50
272.0
 51
0.0
  0
ARC
  5
824
  8
0
  6
CONTINUOUS
 62
     7
 10
-549.88311999999985
 20
217.88005000000001
 30
0.0
 40
2.0
 50
0.0
 51
90.000003000000007
  0
ARC
  5
825
  8
0
  6
CONTINUOUS
 62
     7
 10
-557.88317999999992
 20
221.88003999999981
 30
0.0
 40
2.0
 50
179.99998999999991
 51
270.0
  0
ARC
  5
826
  8
0
  6
CONTINUOUS
 62
     7
 10
-549.88311999999985
 20
238.8505899999999
 30
0.0
 40
2.0
 50
270.0
 51
0.0
  0
ARC
  5
827
  8
0
  6
CONTINUOUS
 62
     7
 10
-557.88317999999992
 20
234.8505999999999
 30
0.0
 40
2.0
 50
90.000003000000007
 51
180.00001
  0
ARC
  5
828
  8
0
  6
CONTINUOUS
 62
     7
 10
-549.88311999999985
 20
57.276417000000002
 30
0.0
 40
2.0
 50
0.0
 51
88.0
  0
ARC
  5
829
  8
0
  6
CONTINUOUS
 62
     3
 10
-704.88317999999981
 20
103.04819000000001
 30
0.0
 40
5.5
 50
84.784087999999983
 51
185.21596
  0
ARC
  5
82A
  8
0
  6
CONTINUOUS
 62
     7
 10
-781.11480999999969
 20
66.570526000000001
 30
0.0
 40
2.0
 50
188.6433899999999
 51
270.0
  0
ARC
  5
82B
  8
0
  6
CONTINUOUS
 62
     7
 10
-781.12816999999984
 20
68.418312
 30
0.0
 40
2.0
 50
189.08497
 51
270.0
  0
ARC
  5
82C
  8
0
  6
CONTINUOUS
 62
     7
 10
-781.17669999999976
 20
71.264686999999995
 30
0.0
 40
2.0
 50
190.71569
 51
270.0
  0
ARC
  5
82D
  8
0
  6
CONTINUOUS
 62
     7
 10
-793.88311999999985
 20
75.298560999999978
 30
0.0
 40
0.5
 50
0.0
 51
90.000003000000007
  0
ARC
  5
82E
  8
0
  6
CONTINUOUS
 62
     7
 10
-793.88311999999985
 20
77.444862000000001
 30
0.0
 40
0.5
 50
270.0
 51
0.0
  0
ARC
  5
82F
  8
0
  6
CONTINUOUS
 62
     7
 10
-794.38317999999981
 20
80.04630299999998
 30
0.0
 40
1.0
 50
270.0
 51
0.0
  0
ARC
  5
830
  8
0
  6
CONTINUOUS
 62
     7
 10
-794.38317999999981
 20
84.563034000000016
 30
0.0
 40
1.0
 50
270.0
 51
0.0
  0
ARC
  5
831
  8
0
  6
CONTINUOUS
 62
     7
 10
-797.38317999999981
 20
79.672584999999984
 30
0.0
 40
1.0
 50
179.99998999999991
 51
239.0334
  0
ARC
  5
832
  8
0
  6
CONTINUOUS
 62
     7
 10
-797.38317999999981
 20
80.708168000000015
 30
0.0
 40
1.0
 50
179.99998999999991
 51
242.07341
  0
ARC
  5
833
  8
0
  6
CONTINUOUS
 62
     7
 10
-797.38317999999981
 20
84.274573999999987
 30
0.0
 40
1.0
 50
179.99998999999991
 51
236.74527999999981
  0
ARC
  5
834
  8
0
  6
CONTINUOUS
 62
     7
 10
-797.38317999999981
 20
85.307723999999979
 30
0.0
 40
1.0
 50
179.99998999999991
 51
239.64048999999989
  0
ARC
  5
835
  8
0
  6
CONTINUOUS
 62
     7
 10
-796.11187999999981
 20
84.563034000000016
 30
0.0
 40
1.0
 50
239.6405
 51
270.0
  0
ARC
  5
836
  8
0
  6
CONTINUOUS
 62
     7
 10
-796.08452999999986
 20
83.423018999999982
 30
0.0
 40
1.0
 50
236.74527
 51
270.0
  0
ARC
  5
837
  8
0
  6
CONTINUOUS
 62
     7
 10
-796.13451999999984
 20
80.04630299999998
 30
0.0
 40
1.0
 50
242.07339999999999
 51
270.0
  0
ARC
  5
838
  8
0
  6
CONTINUOUS
 62
     7
 10
-796.10613999999998
 20
78.906288000000004
 30
0.0
 40
1.0
 50
239.0334
 51
270.0
  0
ARC
  5
839
  8
0
  6
CONTINUOUS
 62
     7
 10
-796.14391999999998
 20
77.94486999999998
 30
0.0
 40
1.0
 50
243.08874
 51
270.0
  0
ARC
  5
83A
  8
0
  6
CONTINUOUS
 62
     7
 10
-796.11499000000003
 20
76.798560999999978
 30
0.0
 40
1.0
 50
239.9736
 51
270.0
  0
ARC
  5
83B
  8
0
  6
CONTINUOUS
 62
     7
 10
-797.38317999999981
 20
78.573891000000003
 30
0.0
 40
1.0
 50
179.99998999999991
 51
243.08874999999981
  0
ARC
  5
83C
  8
0
  6
CONTINUOUS
 62
     7
 10
-797.38317999999981
 20
77.531531999999984
 30
0.0
 40
1.0
 50
179.99998999999991
 51
239.97361000000001
  0
ARC
  5
83D
  8
0
  6
CONTINUOUS
 62
     7
 10
-747.38311999999985
 20
68.418312
 30
0.0
 40
2.0
 50
270.0
 51
0.0
  0
ARC
  5
83E
  8
0
  6
CONTINUOUS
 62
     7
 10
-747.38311999999985
 20
66.570526000000001
 30
0.0
 40
2.0
 50
270.0
 51
0.0
  0
ARC
  5
83F
  8
0
  6
CONTINUOUS
 62
     7
 10
-684.25696000000005
 20
71.264686999999995
 30
0.0
 40
2.0
 50
270.0
 51
345.0
  0
ARC
  5
840
  8
0
  6
CONTINUOUS
 62
     7
 10
-747.38311999999985
 20
65.660010999999997
 30
0.0
 40
2.0
 50
270.0
 51
0.0
  0
ARC
  5
841
  8
0
  6
CONTINUOUS
 62
     7
 10
-781.09350999999981
 20
65.660010999999997
 30
0.0
 40
2.0
 50
187.9440399999998
 51
270.0
  0
ARC
  5
842
  8
0
  6
CONTINUOUS
 62
     7
 10
-676.73217999999963
 20
165.27097000000001
 30
0.0
 40
1.5
 50
195.00001
 51
270.0
  0
ARC
  5
843
  8
0
  6
CONTINUOUS
 62
     7
 10
-684.25696000000005
 20
179.8312199999998
 30
0.0
 40
2.0
 50
15.0
 51
90.000003000000007
  0
ARC
  5
844
  8
0
  6
CONTINUOUS
 62
     7
 10
-747.38311999999985
 20
185.43582000000001
 30
0.0
 40
2.0
 50
0.0
 51
90.000003000000007
  0
ARC
  5
845
  8
0
  6
CONTINUOUS
 62
     7
 10
-747.38311999999985
 20
184.5252999999999
 30
0.0
 40
2.0
 50
0.0
 51
90.000003000000007
  0
ARC
  5
846
  8
0
  6
CONTINUOUS
 62
     7
 10
-747.38311999999985
 20
182.67758000000001
 30
0.0
 40
2.0
 50
0.0
 51
90.000003000000007
  0
ARC
  5
847
  8
0
  6
CONTINUOUS
 62
     7
 10
-781.09350999999981
 20
185.43582000000001
 30
0.0
 40
2.0
 50
90.000003000000007
 51
172.05596
  0
ARC
  5
848
  8
0
  6
CONTINUOUS
 62
     7
 10
-781.11480999999969
 20
184.5252999999999
 30
0.0
 40
2.0
 50
90.000003000000007
 51
171.3566099999999
  0
ARC
  5
849
  8
0
  6
CONTINUOUS
 62
     7
 10
-781.12816999999984
 20
182.67758000000001
 30
0.0
 40
2.0
 50
90.000003000000007
 51
170.91503
  0
ARC
  5
84A
  8
0
  6
CONTINUOUS
 62
     7
 10
-758.88317999999981
 20
162.27097000000001
 30
0.0
 40
1.5
 50
90.000003000000007
 51
180.00001
  0
ARC
  5
84B
  8
0
  6
CONTINUOUS
 62
     7
 10
-781.17669999999976
 20
179.8312199999998
 30
0.0
 40
2.0
 50
90.000003000000007
 51
169.28431
  0
ARC
  5
84C
  8
0
  6
CONTINUOUS
 62
     7
 10
-797.38317999999981
 20
85.307723999999979
 30
0.0
 40
1.0
 50
179.99998999999991
 51
239.64048999999989
  0
ARC
  5
84D
  8
0
  6
CONTINUOUS
 62
     7
 10
-794.38317999999981
 20
84.563034000000016
 30
0.0
 40
1.0
 50
334.63675999999998
 51
0.0
  0
ARC
  5
84E
  8
0
  6
CONTINUOUS
 62
     7
 10
-782.70525999999984
 20
90.502791999999999
 30
0.0
 40
1.6779174999999991
 50
90.000003000000007
 51
270.0
  0
ARC
  5
84F
  8
0
  6
CONTINUOUS
 62
     7
 10
-782.92162999999982
 20
100.52324
 30
0.0
 40
1.4615020999999979
 50
90.000003000000007
 51
270.0
  0
ARC
  5
850
  8
0
  6
CONTINUOUS
 62
     7
 10
-783.05224999999984
 20
110.53538999999979
 30
0.0
 40
1.330932599999999
 50
90.000003000000007
 51
270.0
  0
ARC
  5
851
  8
0
  6
CONTINUOUS
 62
     7
 10
-783.11425999999983
 20
120.54404
 30
0.0
 40
1.268920899999999
 50
90.000003000000007
 51
270.0
  0
ARC
  5
852
  8
0
  6
CONTINUOUS
 62
     7
 10
-783.11425999999983
 20
130.5517899999999
 30
0.0
 40
1.268920899999999
 50
90.000003000000007
 51
270.0
  0
ARC
  5
853
  8
0
  6
CONTINUOUS
 62
     7
 10
-783.05224999999984
 20
140.56051999999991
 30
0.0
 40
1.330932599999999
 50
90.000003000000007
 51
270.0
  0
ARC
  5
854
  8
0
  6
CONTINUOUS
 62
     7
 10
-782.92169000000001
 20
150.5726199999998
 30
0.0
 40
1.4614868000000001
 50
90.000003000000007
 51
270.0
  0
ARC
  5
855
  8
0
  6
CONTINUOUS
 62
     7
 10
-781.83379999999988
 20
100.54796
 30
0.0
 40
1.0
 50
90.000003000000007
 51
270.0
  0
ARC
  5
856
  8
0
  6
CONTINUOUS
 62
     7
 10
-781.83379999999988
 20
110.5479499999999
 30
0.0
 40
1.0
 50
90.000003000000007
 51
270.0
  0
ARC
  5
857
  8
0
  6
CONTINUOUS
 62
     7
 10
-781.83379999999988
 20
120.54796
 30
0.0
 40
1.0
 50
90.000003000000007
 51
270.0
  0
ARC
  5
858
  8
0
  6
CONTINUOUS
 62
     7
 10
-781.83379999999988
 20
130.54793999999981
 30
0.0
 40
1.0
 50
90.000003000000007
 51
270.0
  0
ARC
  5
859
  8
0
  6
CONTINUOUS
 62
     7
 10
-781.83379999999988
 20
140.5479599999999
 30
0.0
 40
1.0
 50
90.000003000000007
 51
270.0
  0
ARC
  5
85A
  8
0
  6
CONTINUOUS
 62
     7
 10
-781.83379999999988
 20
150.5479599999999
 30
0.0
 40
1.0
 50
90.000003000000007
 51
270.0
  0
ARC
  5
85B
  8
0
  6
CONTINUOUS
 62
     7
 10
-781.83379999999988
 20
160.5479399999999
 30
0.0
 40
1.0
 50
90.000003000000007
 51
270.0
  0
ARC
  5
85C
  8
0
  6
CONTINUOUS
 62
     7
 10
-782.70580999999981
 20
160.59306000000001
 30
0.0
 40
1.6779127
 50
90.000003000000007
 51
270.0
  0
ARC
  5
85D
  8
0
  6
CONTINUOUS
 62
     7
 10
-698.88317999999981
 20
154.0479599999999
 30
0.0
 40
1.5
 50
0.0
 51
90.000003000000007
  0
ARC
  5
85E
  8
0
  6
CONTINUOUS
 62
     7
 10
-698.88317999999981
 20
97.047950999999998
 30
0.0
 40
1.5
 50
270.0
 51
0.0
  0
ARC
  5
85F
  8
0
  6
CONTINUOUS
 62
     7
 10
-794.38317999999981
 20
108.5479599999999
 30
0.0
 40
1.0
 50
0.0
 51
90.000003000000007
  0
ARC
  5
860
  8
0
  6
CONTINUOUS
 62
     7
 10
-794.38317999999981
 20
112.5479399999999
 30
0.0
 40
1.0
 50
270.0
 51
0.0
  0
ARC
  5
861
  8
0
  6
CONTINUOUS
 62
     7
 10
-794.38317999999981
 20
118.5479399999999
 30
0.0
 40
1.0
 50
0.0
 51
90.000003000000007
  0
ARC
  5
862
  8
0
  6
CONTINUOUS
 62
     7
 10
-794.38317999999981
 20
122.54795
 30
0.0
 40
1.0
 50
270.0
 51
0.0
  0
ARC
  5
863
  8
0
  6
CONTINUOUS
 62
     7
 10
-797.38317999999981
 20
120.54796
 30
0.0
 40
1.0
 50
90.000003000000007
 51
180.00001
  0
ARC
  5
864
  8
0
  6
CONTINUOUS
 62
     7
 10
-797.38317999999981
 20
120.54796
 30
0.0
 40
1.0
 50
179.99998999999991
 51
270.0
  0
ARC
  5
865
  8
0
  6
CONTINUOUS
 62
     7
 10
-797.38317999999981
 20
110.5479499999999
 30
0.0
 40
1.0
 50
90.000003000000007
 51
180.00001
  0
ARC
  5
866
  8
0
  6
CONTINUOUS
 62
     7
 10
-797.38317999999981
 20
110.5479499999999
 30
0.0
 40
1.0
 50
179.99998999999991
 51
270.0
  0
ARC
  5
867
  8
0
  6
CONTINUOUS
 62
     7
 10
-797.38317999999981
 20
100.54796
 30
0.0
 40
1.0
 50
90.000003000000007
 51
180.00001
  0
ARC
  5
868
  8
0
  6
CONTINUOUS
 62
     7
 10
-797.38317999999981
 20
100.54796
 30
0.0
 40
1.0
 50
179.99998999999991
 51
270.0
  0
ARC
  5
869
  8
0
  6
CONTINUOUS
 62
     7
 10
-797.38317999999981
 20
91.373206999999994
 30
0.0
 40
1.0
 50
179.99998999999991
 51
246.8729799999999
  0
ARC
  5
86A
  8
0
  6
CONTINUOUS
 62
     7
 10
-797.38317999999981
 20
93.158669000000003
 30
0.0
 40
1.0
 50
179.99998999999991
 51
252.90236999999999
  0
ARC
  5
86B
  8
0
  6
CONTINUOUS
 62
     7
 10
-796.23284999999987
 20
92.804794000000001
 30
0.0
 40
1.0
 50
252.90236999999999
 51
270.0
  0
ARC
  5
86C
  8
0
  6
CONTINUOUS
 62
     7
 10
-796.17853000000002
 20
90.858681000000004
 30
0.0
 40
1.0
 50
246.87297000000001
 51
270.0
  0
ARC
  5
86D
  8
0
  6
CONTINUOUS
 62
     7
 10
-794.08318999999983
 20
89.158730000000006
 30
0.0
 40
0.6999999900000004
 50
0.0
 51
90.000003000000007
  0
ARC
  5
86E
  8
0
  6
CONTINUOUS
 62
     7
 10
-794.38317999999981
 20
98.547950999999998
 30
0.0
 40
1.0
 50
0.0
 51
90.000003000000007
  0
ARC
  5
86F
  8
0
  6
CONTINUOUS
 62
     7
 10
-794.38317999999981
 20
102.54795
 30
0.0
 40
1.0
 50
270.0
 51
0.0
  0
ARC
  5
870
  8
0
  6
CONTINUOUS
 62
     7
 10
-794.38317999999981
 20
92.804794000000001
 30
0.0
 40
1.0
 50
270.0
 51
0.0
  0
ARC
  5
871
  8
0
  6
CONTINUOUS
 62
     7
 10
-679.56104000000005
 20
90.502791999999999
 30
0.0
 40
1.6779127
 50
270.0
 51
90.000003000000007
  0
ARC
  5
872
  8
0
  6
CONTINUOUS
 62
     7
 10
-683.0387599999998
 20
90.547950999999969
 30
0.0
 40
1.0
 50
270.0
 51
90.000003000000007
  0
ARC
  5
873
  8
0
  6
CONTINUOUS
 62
     7
 10
-683.0387599999998
 20
160.5479399999999
 30
0.0
 40
1.0
 50
270.0
 51
90.000003000000007
  0
ARC
  5
874
  8
0
  6
CONTINUOUS
 62
     7
 10
-679.56104000000005
 20
160.59306000000001
 30
0.0
 40
1.6779127
 50
270.0
 51
90.000003000000007
  0
ARC
  5
875
  8
0
  6
CONTINUOUS
 62
     7
 10
-696.08312999999964
 20
93.180710000000005
 30
0.0
 40
1.0
 50
179.99998999999991
 51
270.0
  0
ARC
  5
876
  8
0
  6
CONTINUOUS
 62
     7
 10
-696.08312999999964
 20
157.91515000000001
 30
0.0
 40
1.0
 50
90.000003000000007
 51
180.00001
  0
ARC
  5
877
  8
0
  6
CONTINUOUS
 62
     7
 10
-781.83379999999988
 20
90.547950999999969
 30
0.0
 40
1.0
 50
90.000003000000007
 51
270.0
  0
ARC
  5
878
  8
0
  6
CONTINUOUS
 62
     7
 10
-793.88311999999985
 20
175.7973299999999
 30
0.0
 40
0.5
 50
270.0
 51
0.0
  0
ARC
  5
879
  8
0
  6
CONTINUOUS
 62
     7
 10
-793.88311999999985
 20
173.65105
 30
0.0
 40
0.5
 50
0.0
 51
90.000003000000007
  0
ARC
  5
87A
  8
0
  6
CONTINUOUS
 62
     7
 10
-794.38317999999981
 20
171.04958999999991
 30
0.0
 40
1.0
 50
0.0
 51
90.000003000000007
  0
ARC
  5
87B
  8
0
  6
CONTINUOUS
 62
     7
 10
-794.08318999999983
 20
161.93716000000001
 30
0.0
 40
0.6999999900000004
 50
270.0
 51
0.0
  0
ARC
  5
87C
  8
0
  6
CONTINUOUS
 62
     7
 10
-794.38317999999981
 20
166.53288000000001
 30
0.0
 40
1.0
 50
0.0
 51
90.000003000000007
  0
ARC
  5
87D
  8
0
  6
CONTINUOUS
 62
     7
 10
-794.38317999999981
 20
158.2910599999999
 30
0.0
 40
1.0
 50
0.0
 51
90.000003000000007
  0
ARC
  5
87E
  8
0
  6
CONTINUOUS
 62
     7
 10
-794.38317999999981
 20
152.5479599999999
 30
0.0
 40
1.0
 50
270.0
 51
0.0
  0
ARC
  5
87F
  8
0
  6
CONTINUOUS
 62
     7
 10
-794.38317999999981
 20
148.54793999999981
 30
0.0
 40
1.0
 50
0.0
 51
90.000003000000007
  0
ARC
  5
880
  8
0
  6
CONTINUOUS
 62
     7
 10
-794.38317999999981
 20
142.5479399999999
 30
0.0
 40
1.0
 50
270.0
 51
0.0
  0
ARC
  5
881
  8
0
  6
CONTINUOUS
 62
     7
 10
-794.38317999999981
 20
138.5479599999999
 30
0.0
 40
1.0
 50
0.0
 51
90.000003000000007
  0
ARC
  5
882
  8
0
  6
CONTINUOUS
 62
     7
 10
-794.38317999999981
 20
132.5479599999999
 30
0.0
 40
1.0
 50
270.0
 51
0.0
  0
ARC
  5
883
  8
0
  6
CONTINUOUS
 62
     7
 10
-794.38317999999981
 20
128.5479599999999
 30
0.0
 40
1.0
 50
0.0
 51
90.000003000000007
  0
ARC
  5
884
  8
0
  6
CONTINUOUS
 62
     7
 10
-797.38317999999981
 20
130.54793999999981
 30
0.0
 40
1.0
 50
179.99998999999991
 51
270.0
  0
ARC
  5
885
  8
0
  6
CONTINUOUS
 62
     7
 10
-797.38317999999981
 20
130.54793999999981
 30
0.0
 40
1.0
 50
90.000003000000007
 51
180.00001
  0
ARC
  5
886
  8
0
  6
CONTINUOUS
 62
     7
 10
-797.38317999999981
 20
140.5479599999999
 30
0.0
 40
1.0
 50
179.99998999999991
 51
270.0
  0
ARC
  5
887
  8
0
  6
CONTINUOUS
 62
     7
 10
-797.38317999999981
 20
140.5479599999999
 30
0.0
 40
1.0
 50
90.000003000000007
 51
180.00001
  0
ARC
  5
888
  8
0
  6
CONTINUOUS
 62
     7
 10
-797.38317999999981
 20
150.5479599999999
 30
0.0
 40
1.0
 50
179.99998999999991
 51
270.0
  0
ARC
  5
889
  8
0
  6
CONTINUOUS
 62
     7
 10
-797.38317999999981
 20
150.5479599999999
 30
0.0
 40
1.0
 50
90.000003000000007
 51
180.00001
  0
ARC
  5
88A
  8
0
  6
CONTINUOUS
 62
     7
 10
-797.38317999999981
 20
159.72269
 30
0.0
 40
1.0
 50
113.12703
 51
180.00001
  0
ARC
  5
88B
  8
0
  6
CONTINUOUS
 62
     7
 10
-797.38317999999981
 20
157.9372299999998
 30
0.0
 40
1.0
 50
107.0976299999999
 51
180.00001
  0
ARC
  5
88C
  8
0
  6
CONTINUOUS
 62
     7
 10
-796.23284999999987
 20
158.2910599999999
 30
0.0
 40
1.0
 50
90.000003000000007
 51
107.0976299999999
  0
ARC
  5
88D
  8
0
  6
CONTINUOUS
 62
     7
 10
-796.17853000000002
 20
160.23716999999991
 30
0.0
 40
1.0
 50
90.000003000000007
 51
113.12703
  0
ARC
  5
88E
  8
0
  6
CONTINUOUS
 62
     7
 10
-797.38317999999981
 20
171.42326
 30
0.0
 40
1.0
 50
120.9666
 51
180.00001
  0
ARC
  5
88F
  8
0
  6
CONTINUOUS
 62
     7
 10
-797.38317999999981
 20
170.38766000000001
 30
0.0
 40
1.0
 50
117.92659999999979
 51
180.00001
  0
ARC
  5
890
  8
0
  6
CONTINUOUS
 62
     7
 10
-797.38317999999981
 20
166.82126999999991
 30
0.0
 40
1.0
 50
123.25473
 51
180.00001
  0
ARC
  5
891
  8
0
  6
CONTINUOUS
 62
     7
 10
-797.38317999999981
 20
165.7881899999999
 30
0.0
 40
1.0
 50
120.3594999999999
 51
180.00001
  0
ARC
  5
892
  8
0
  6
CONTINUOUS
 62
     7
 10
-796.11187999999981
 20
166.53288000000001
 30
0.0
 40
1.0
 50
90.000003000000007
 51
120.3594999999999
  0
ARC
  5
893
  8
0
  6
CONTINUOUS
 62
     7
 10
-796.08452999999986
 20
167.67283999999981
 30
0.0
 40
1.0
 50
90.000003000000007
 51
123.25473
  0
ARC
  5
894
  8
0
  6
CONTINUOUS
 62
     7
 10
-796.13451999999984
 20
171.04958999999991
 30
0.0
 40
1.0
 50
90.000003000000007
 51
117.92659999999979
  0
ARC
  5
895
  8
0
  6
CONTINUOUS
 62
     7
 10
-796.10613999999998
 20
172.18956
 30
0.0
 40
1.0
 50
90.000003000000007
 51
120.9666
  0
ARC
  5
896
  8
0
  6
CONTINUOUS
 62
     7
 10
-796.14391999999998
 20
173.15104999999991
 30
0.0
 40
1.0
 50
90.000003000000007
 51
116.91126
  0
ARC
  5
897
  8
0
  6
CONTINUOUS
 62
     7
 10
-796.11499000000003
 20
174.2973299999999
 30
0.0
 40
1.0
 50
90.000003000000007
 51
120.0264
  0
ARC
  5
898
  8
0
  6
CONTINUOUS
 62
     7
 10
-797.38317999999981
 20
172.52202
 30
0.0
 40
1.0
 50
116.91126
 51
180.00001
  0
ARC
  5
899
  8
0
  6
CONTINUOUS
 62
     7
 10
-797.38317999999981
 20
173.56432000000001
 30
0.0
 40
1.0
 50
120.0264
 51
180.00001
  0
ARC
  5
89A
  8
0
  6
CONTINUOUS
 62
     3
 10
-749.88317999999958
 20
148.04769999999999
 30
0.0
 40
5.5
 50
264.78411999999992
 51
5.2159094000000001
  0
ARC
  5
89B
  8
0
  6
CONTINUOUS
 62
     7
 10
-545.88317999999992
 20
56.328536999999997
 30
0.0
 40
2.0
 50
179.99998999999991
 51
268.00000999999992
  0
CIRCLE
  5
89C
  8
0
  6
CONTINUOUS
 62
     7
 10
-145.2809399999999
 20
181.5479399999999
 30
0.0
 40
2.75
  0
CIRCLE
  5
89D
  8
0
  6
CONTINUOUS
 62
     7
 10
-145.2809399999999
 20
181.5479399999999
 30
0.0
 40
2.75
  0
CIRCLE
  5
89E
  8
0
  6
CONTINUOUS
 62
     7
 10
-145.2809399999999
 20
181.5479399999999
 30
0.0
 40
4.0
  0
CIRCLE
  5
89F
  8
0
  6
CONTINUOUS
 62
     7
 10
-145.2809399999999
 20
181.5479399999999
 30
0.0
 40
2.75
  0
CIRCLE
  5
8A0
  8
0
  6
CONTINUOUS
 62
     7
 10
-145.2809399999999
 20
181.5479399999999
 30
0.0
 40
4.0
  0
ARC
  5
8A1
  8
0
  6
CONTINUOUS
 62
     7
 10
-145.2809399999999
 20
181.5479399999999
 30
0.0
 40
16.0
 50
108.20996
 51
71.790052000000003
  0
CIRCLE
  5
8A2
  8
0
  6
CONTINUOUS
 62
     7
 10
-145.2809399999999
 20
181.5479399999999
 30
0.0
 40
4.0
  0
ARC
  5
8A3
  8
0
  6
CONTINUOUS
 62
     7
 10
-145.2809399999999
 20
181.5479399999999
 30
0.0
 40
16.0
 50
108.20996
 51
71.790052000000003
  0
ARC
  5
8A4
  8
0
  6
CONTINUOUS
 62
     7
 10
-145.2809399999999
 20
181.5479399999999
 30
0.0
 40
89.0
 50
166.12423000000001
 51
179.57176999999999
  0
ARC
  5
8A5
  8
0
  6
CONTINUOUS
 62
     7
 10
-188.57728999999989
 20
212.11635999999999
 30
0.0
 40
5.0
 50
324.77685000000002
 51
45.00000099999999
  0
ARC
  5
8A6
  8
0
  6
CONTINUOUS
 62
     7
 10
-198.28093000000001
 20
143.5479599999999
 30
0.0
 40
5.0
 50
270.0
 51
0.0
  0
ARC
  5
8A7
  8
0
  6
CONTINUOUS
 62
     7
 10
-145.2809399999999
 20
153.5479599999999
 30
0.0
 40
99.500000000000014
 50
125.86368999999991
 51
150.26975999999991
  0
ARC
  5
8A8
  8
0
  6
CONTINUOUS
 62
     7
 10
-436.88314999999989
 20
66.630736999999996
 30
0.0
 40
3.0
 50
179.99998999999991
 51
271.99998999999991
  0
ARC
  5
8A9
  8
0
  6
CONTINUOUS
 62
     7
 10
-92.280945000000003
 20
143.5479599999999
 30
0.0
 40
5.0
 50
179.99998999999991
 51
270.0
  0
ARC
  5
8AA
  8
0
  6
CONTINUOUS
 62
     7
 10
-205.07966999999991
 20
254.07459999999989
 30
0.0
 40
5.0
 50
129.5058199999998
 51
225.0
  0
ARC
  5
8AB
  8
0
  6
CONTINUOUS
 62
     7
 10
-59.304203000000001
 20
143.5479599999999
 30
0.0
 40
5.0
 50
270.0
 51
336.15553
  0
ARC
  5
8AC
  8
0
  6
CONTINUOUS
 62
     7
 10
-145.2809399999999
 20
181.5479399999999
 30
0.0
 40
48.0
 50
144.77683999999991
 51
180.00001
  0
CIRCLE
  5
8AD
  8
0
  6
CONTINUOUS
 62
     7
 10
-145.2809399999999
 20
181.5479399999999
 30
0.0
 40
29.0
  0
ARC
  5
8AE
  8
0
  6
CONTINUOUS
 62
     7
 10
-145.2809399999999
 20
181.5479399999999
 30
0.0
 40
89.0
 50
0.42822786
 51
13.875764
  0
ARC
  5
8AF
  8
0
  6
CONTINUOUS
 62
     7
 10
-145.2809399999999
 20
181.5479399999999
 30
0.0
 40
48.0
 50
0.0
 51
35.223151999999992
  0
ARC
  5
8B0
  8
0
  6
CONTINUOUS
 62
     7
 10
-145.2809399999999
 20
181.5479399999999
 30
0.0
 40
48.0
 50
54.77685000000001
 51
125.22314
  0
ARC
  5
8B1
  8
0
  6
CONTINUOUS
 62
     7
 10
-217.80757
 20
241.34666000000001
 30
0.0
 40
5.0
 50
45.00000099999999
 51
140.49418
  0
ARC
  5
8B2
  8
0
  6
CONTINUOUS
 62
     7
 10
-145.2809399999999
 20
153.5479599999999
 30
0.0
 40
93.499999999999986
 50
356.99212
 51
17.853213
  0
ARC
  5
8B3
  8
0
  6
CONTINUOUS
 62
     7
 10
-145.2809399999999
 20
153.5479599999999
 30
0.0
 40
99.500000000000014
 50
29.730242999999991
 51
54.136311999999997
  0
ARC
  5
8B4
  8
0
  6
CONTINUOUS
 62
     7
 10
-145.2809399999999
 20
153.5479599999999
 30
0.0
 40
99.500000000000014
 50
58.838493999999997
 51
86.644180000000006
  0
ARC
  5
8B5
  8
0
  6
CONTINUOUS
 62
     7
 10
-472.88315
 20
232.7523799999999
 30
0.0
 40
21.0
 50
354.07597999999979
 51
80.875524999999996
  0
ARC
  5
8B6
  8
0
  6
CONTINUOUS
 62
     7
 10
-416.62966999999998
 20
183.85271
 30
0.0
 40
40.0
 50
174.07597999999999
 51
234.45533999999989
  0
ARC
  5
8B7
  8
0
  6
CONTINUOUS
 62
     7
 10
-175.8493499999999
 20
224.8442799999998
 30
0.0
 40
5.0
 50
225.0
 51
305.22314999999992
  0
ARC
  5
8B8
  8
0
  6
CONTINUOUS
 62
     7
 10
-231.25767999999991
 20
143.5479599999999
 30
0.0
 40
5.0
 50
203.8444699999998
 51
270.0
  0
ARC
  5
8B9
  8
0
  6
CONTINUOUS
 62
     7
 10
-436.88314999999989
 20
116.85868000000001
 30
0.0
 40
3.0
 50
90.000003000000007
 51
180.00001
  0
ARC
  5
8BA
  8
0
  6
CONTINUOUS
 62
     7
 10
-436.88314999999989
 20
152.78371000000001
 30
0.0
 40
3.0
 50
179.99998999999991
 51
270.0
  0
ARC
  5
8BB
  8
0
  6
CONTINUOUS
 62
     7
 10
-435.88314999999989
 20
90.179976999999994
 30
0.0
 40
3.0
 50
272.0
 51
0.0
  0
ARC
  5
8BC
  8
0
  6
CONTINUOUS
 62
     7
 10
-436.88314999999989
 20
240.4586899999999
 30
0.0
 40
3.0
 50
179.99998999999991
 51
270.0
  0
ARC
  5
8BD
  8
0
  6
CONTINUOUS
 62
     7
 10
-239.39349000000001
 20
87.435394000000016
 30
0.0
 40
20.0
 50
183.00001
 51
267.0
  0
CIRCLE
  5
8BE
  8
0
  6
CONTINUOUS
 62
     7
 10
-49.821525999999999
 20
86.088538999999969
 30
0.0
 40
7.5
  0
ARC
  5
8BF
  8
0
  6
CENTER
 62
     7
 10
-145.2809399999999
 20
181.5479399999999
 30
0.0
 40
135.0
 50
309.33172999999982
 51
320.99491
  0
ARC
  5
8C0
  8
0
  6
CONTINUOUS
 62
     7
 10
-239.39349000000001
 20
275.66052000000002
 30
0.0
 40
20.0
 50
92.999999000000017
 51
176.99999
  0
CIRCLE
  5
8C1
  8
0
  6
CONTINUOUS
 62
     7
 10
-240.74037000000001
 20
86.088538999999969
 30
0.0
 40
7.5
  0
ARC
  5
8C2
  8
0
  6
CENTER
 62
     7
 10
-145.2809399999999
 20
181.5479399999999
 30
0.0
 40
135.0
 50
218.36838999999981
 51
230.87358999999981
  0
ARC
  5
8C3
  8
0
  6
CENTER
 62
     7
 10
-145.2809399999999
 20
181.5479399999999
 30
0.0
 40
135.0
 50
127.3896499999999
 51
142.25635
  0
CIRCLE
  5
8C4
  8
0
  6
CONTINUOUS
 62
     7
 10
-145.2809399999999
 20
181.5479399999999
 30
0.0
 40
99.0
  0
CIRCLE
  5
8C5
  8
0
  6
CONTINUOUS
 62
     7
 10
-240.74037000000001
 20
277.00734999999992
 30
0.0
 40
7.5
  0
CIRCLE
  5
8C6
  8
0
  6
CONTINUOUS
 62
     7
 10
-145.2809399999999
 20
181.5479399999999
 30
0.0
 40
105.0
  0
ARC
  5
8C7
  8
0
  6
CONTINUOUS
 62
     7
 10
-85.482224000000002
 20
254.07459999999989
 30
0.0
 40
5.0
 50
315.0
 51
50.494182000000002
  0
ARC
  5
8C8
  8
0
  6
CONTINUOUS
 62
     7
 10
-72.754302999999979
 20
241.34666000000001
 30
0.0
 40
5.0
 50
39.505817999999998
 51
135.0
  0
CIRCLE
  5
8C9
  8
0
  6
CONTINUOUS
 62
     7
 10
-49.821525999999999
 20
277.00734999999992
 30
0.0
 40
7.5
  0
ARC
  5
8CA
  8
0
  6
CENTER
 62
     7
 10
-145.2809399999999
 20
181.5479399999999
 30
0.0
 40
135.0
 50
38.36839299999999
 51
51.937862000000003
  0
ARC
  5
8CB
  8
0
  6
CONTINUOUS
 62
     7
 10
-145.2809399999999
 20
153.5479599999999
 30
0.0
 40
99.500000000000014
 50
242.88566
 51
297.11435
  0
ARC
  5
8CC
  8
0
  6
CONTINUOUS
 62
     7
 10
-436.88314999999989
 20
295.62707999999998
 30
0.0
 40
3.0
 50
91.999998000000005
 51
180.00001
  0
ARC
  5
8CD
  8
0
  6
CONTINUOUS
 62
     7
 10
-435.88314999999989
 20
272.14767000000001
 30
0.0
 40
3.0
 50
0.0
 51
91.999998000000005
  0
ARC
  5
8CE
  8
0
  6
CONTINUOUS
 62
     7
 10
-139.2809399999999
 20
255.87218999999999
 30
0.0
 40
3.0
 50
179.99998999999991
 51
266.64418999999992
  0
ARC
  5
8CF
  8
0
  6
CONTINUOUS
 62
     7
 10
-151.2809399999999
 20
262.06265000000002
 30
0.0
 40
3.0
 50
0.0
 51
90.000003000000007
  0
ARC
  5
8D0
  8
0
  6
CONTINUOUS
 62
     7
 10
-101.98461999999979
 20
212.11635999999999
 30
0.0
 40
5.0
 50
135.0
 51
215.22315
  0
ARC
  5
8D1
  8
0
  6
CONTINUOUS
 62
     7
 10
-145.2809399999999
 20
153.5479599999999
 30
0.0
 40
99.500000000000014
 50
93.355817999999985
 51
121.1615
  0
ARC
  5
8D2
  8
0
  6
CONTINUOUS
 62
     7
 10
-145.2809399999999
 20
153.5479599999999
 30
0.0
 40
93.499999999999986
 50
162.14678999999981
 51
183.00788
  0
ARC
  5
8D3
  8
0
  6
CONTINUOUS
 62
     7
 10
-151.2809399999999
 20
255.87218999999999
 30
0.0
 40
3.0
 50
273.35581999999999
 51
0.0
  0
ARC
  5
8D4
  8
0
  6
CONTINUOUS
 62
     7
 10
-51.168388
 20
275.66052000000002
 30
0.0
 40
20.0
 50
3.0000000999999981
 51
86.999998999999988
  0
ARC
  5
8D5
  8
0
  6
CONTINUOUS
 62
     7
 10
-51.168388
 20
87.435394000000016
 30
0.0
 40
20.0
 50
273.0
 51
357.0
  0
ARC
  5
8D6
  8
0
  6
CONTINUOUS
 62
     7
 10
-478.90816999999993
 20
259.59395999999992
 30
0.0
 40
5.0
 50
271.49999999999972
 51
315.0
  0
ARC
  5
8D7
  8
0
  6
CONTINUOUS
 62
     7
 10
-114.71253
 20
224.8442799999998
 30
0.0
 40
5.0
 50
234.77686
 51
315.0
  0
ARC
  5
8D8
  8
0
  6
CONTINUOUS
 62
     7
 10
-139.2809399999999
 20
262.06265000000002
 30
0.0
 40
3.0
 50
90.000003000000007
 51
180.00001
  0
ARC
  5
8D9
  8
0
  6
CONTINUOUS
 62
     7
 10
-650.34247000000005
 20
186.6803899999999
 30
0.0
 40
4.0
 50
272.0
 51
309.62979000000001
  0
ARC
  5
8DA
  8
0
  6
CONTINUOUS
 62
     7
 10
-600.38311999999985
 20
83.759911000000002
 30
0.0
 40
4.0
 50
211.07233999999991
 51
268.0
  0
ARC
  5
8DB
  8
0
  6
CONTINUOUS
 62
     7
 10
-600.38311999999985
 20
223.3359999999999
 30
0.0
 40
4.0
 50
91.999998000000005
 51
180.93198000000001
  0
ARC
  5
8DC
  8
0
  6
CONTINUOUS
 62
     7
 10
-607.23523
 20
79.630950999999982
 30
0.0
 40
4.0
 50
31.072340999999991
 51
88.0
  0
ARC
  5
8DD
  8
0
  6
CONTINUOUS
 62
     7
 10
-609.79480000000001
 20
221.79317
 30
0.0
 40
4.0
 50
272.0
 51
315.0
  0
ARC
  5
8DE
  8
0
  6
CONTINUOUS
 62
     7
 10
-608.38207999999975
 20
223.20586
 30
0.0
 40
4.0
 50
315.0
 51
0.9319899799999999
  0
ARC
  5
8DF
  8
0
  6
CONTINUOUS
 62
     7
 10
-648.38311999999996
 20
187.0046199999999
 30
0.0
 40
3.0
 50
309.62979000000001
 51
0.0
  0
ARC
  5
8E0
  8
0
  6
CONTINUOUS
 62
     7
 10
-644.38311999999985
 20
80.928184999999985
 30
0.0
 40
4.0
 50
88.0
 51
180.00001
  0
ARC
  5
8E1
  8
0
  6
CONTINUOUS
 62
     7
 10
-652.38317999999981
 20
73.609122999999983
 30
0.0
 40
4.0
 50
272.0
 51
0.0
  0
ARC
  5
8E2
  8
0
  6
CONTINUOUS
 62
     7
 10
-642.38311999999985
 20
213.6508799999998
 30
0.0
 40
3.0
 50
91.999998000000005
 51
180.00001
  0
ARC
  5
8E3
  8
0
  6
CONTINUOUS
 62
     7
 10
-644.71087999999975
 20
186.87703999999999
 30
0.0
 40
4.0
 50
272.0
 51
315.0
  0
ARC
  5
8E4
  8
0
  6
CONTINUOUS
 62
     7
 10
-643.38317999999981
 20
104.05240999999999
 30
0.0
 40
5.0
 50
90.000003000000007
 51
180.00001
  0
ARC
  5
8E5
  8
0
  6
CONTINUOUS
 62
     7
 10
-623.28008999999986
 20
168.5479599999999
 30
0.0
 40
3.0
 50
315.0
 51
90.000003000000007
  0
ARC
  5
8E6
  8
0
  6
CONTINUOUS
 62
     7
 10
-449.35985999999991
 20
399.77224999999999
 30
0.0
 40
5.0
 50
45.00000099999999
 51
88.0
  0
ARC
  5
8E7
  8
0
  6
CONTINUOUS
 62
     7
 10
-435.88312000000002
 20
416.76687999999967
 30
0.0
 40
3.0
 50
268.0
 51
0.0
  0
ARC
  5
8E8
  8
0
  6
CONTINUOUS
 62
     7
 10
-435.88312000000002
 20
597.96636999999976
 30
0.0
 40
3.0
 50
0.0
 51
91.999998000000005
  0
ARC
  5
8E9
  8
0
  6
CONTINUOUS
 62
     7
 10
-436.88312000000002
 20
621.44574
 30
0.0
 40
3.0
 50
91.999998000000005
 51
180.00001
  0
ARC
  5
8EA
  8
0
  6
CONTINUOUS
 62
     7
 10
-436.88312000000002
 20
448.45587
 30
0.0
 40
3.0
 50
90.000003000000007
 51
180.00001
  0
ARC
  5
8EB
  8
0
  6
CONTINUOUS
 62
     7
 10
-436.88312000000002
 20
566.27733999999975
 30
0.0
 40
3.0
 50
179.99998999999991
 51
270.0
  0
ARC
  5
8EC
  8
0
  6
CONTINUOUS
 62
     7
 10
-436.88312000000002
 20
393.28747999999979
 30
0.0
 40
3.0
 50
179.99998999999991
 51
268.00000999999992
  0
ARC
  5
8ED
  8
0
  6
CONTINUOUS
 62
     7
 10
-449.35985999999991
 20
614.96094000000005
 30
0.0
 40
5.0
 50
272.0
 51
315.0
  0
ARC
  5
8EE
  8
0
  6
CONTINUOUS
 62
     7
 10
-407.88312000000002
 20
507.36660999999992
 30
0.0
 40
5.0
 50
90.000003000000007
 51
270.0
  0
POLYLINE
  5
8EF
  8
0
  6
CONTINUOUS
 62
     7
 66
     1
 10
0.0
 20
0.0
 30
0.0
  0
VERTEX
  5
8F0
  8
0
  6
CONTINUOUS
 62
     7
 10
-641.41357000000005
 20
520.36632999999995
 30
0.0
  0
VERTEX
  5
8F1
  8
0
  6
CONTINUOUS
 62
     7
 10
-633.98631
 20
539.30574999999999
 30
0.0
 42
-1.0
  0
SEQEND
  5
8F2
  8
0
 62
     7
  0
POLYLINE
  5
8F3
  8
0
  6
CONTINUOUS
 62
     7
 66
     1
 10
0.0
 20
0.0
 30
0.0
  0
VERTEX
  5
8F4
  8
0
  6
CONTINUOUS
 62
     7
 10
-625.26337999999987
 20
552.78471999999999
 30
0.0
 42
-0.011693549
  0
VERTEX
  5
8F5
  8
0
  6
CONTINUOUS
 62
     7
 10
-621.70050000000003
 20
557.28108999999995
 30
0.0
 42
-0.011216814
  0
VERTEX
  5
8F6
  8
0
  6
CONTINUOUS
 62
     7
 10
-617.93561999999986
 20
561.60985999999991
 30
0.0
 42
-0.011000278
  0
VERTEX
  5
8F7
  8
0
  6
CONTINUOUS
 62
     7
 10
-613.98352
 20
565.7663
 30
0.0
  0
SEQEND
  5
8F8
  8
0
 62
     7
  0
POLYLINE
  5
8F9
  8
0
  6
CONTINUOUS
 62
     7
 66
     1
 10
0.0
 20
0.0
 30
0.0
  0
VERTEX
  5
8FA
  8
0
  6
CONTINUOUS
 62
     7
 10
-629.70510000000002
 20
540.78538000000003
 30
0.0
 42
-0.0058779435
  0
VERTEX
  5
8FB
  8
0
  6
CONTINUOUS
 62
     7
 10
-628.49547999999982
 20
542.78695999999991
 30
0.0
 42
-0.0056588804
  0
VERTEX
  5
8FC
  8
0
  6
CONTINUOUS
 62
     7
 10
-627.24000999999976
 20
544.76011000000005
 30
0.0
 42
-0.0054619297
  0
VERTEX
  5
8FD
  8
0
  6
CONTINUOUS
 62
     7
 10
-625.94096999999988
 20
546.70487000000003
 30
0.0
 42
-0.0052861412
  0
VERTEX
  5
8FE
  8
0
  6
CONTINUOUS
 62
     7
 10
-624.60044000000016
 20
548.62126999999998
 30
0.0
  0
SEQEND
  5
8FF
  8
0
 62
     7
  0
POLYLINE
  5
900
  8
0
  6
CONTINUOUS
 62
     7
 66
     1
 10
0.0
 20
0.0
 30
0.0
  0
VERTEX
  5
901
  8
0
  6
CONTINUOUS
 62
     7
 10
-641.41357000000005
 20
494.36687999999998
 30
0.0
  0
VERTEX
  5
902
  8
0
  6
CONTINUOUS
 62
     7
 10
-633.98631
 20
475.42747000000003
 30
0.0
 42
-1.0
  0
SEQEND
  5
903
  8
0
 62
     7
  0
POLYLINE
  5
904
  8
0
  6
CONTINUOUS
 62
     7
 66
     1
 10
0.0
 20
0.0
 30
0.0
  0
VERTEX
  5
905
  8
0
  6
CONTINUOUS
 62
     7
 10
-625.26337999999987
 20
461.94848999999988
 30
0.0
 42
0.011693549
  0
VERTEX
  5
906
  8
0
  6
CONTINUOUS
 62
     7
 10
-621.70050000000003
 20
457.45211999999992
 30
0.0
 42
0.011216814
  0
VERTEX
  5
907
  8
0
  6
CONTINUOUS
 62
     7
 10
-617.93561999999986
 20
453.12335999999999
 30
0.0
 42
0.011000278
  0
VERTEX
  5
908
  8
0
  6
CONTINUOUS
 62
     7
 10
-613.98352
 20
448.96692000000002
 30
0.0
  0
SEQEND
  5
909
  8
0
 62
     7
  0
POLYLINE
  5
90A
  8
0
  6
CONTINUOUS
 62
     7
 66
     1
 10
0.0
 20
0.0
 30
0.0
  0
VERTEX
  5
90B
  8
0
  6
CONTINUOUS
 62
     7
 10
-629.70510000000002
 20
473.94783000000001
 30
0.0
 42
0.0058779435
  0
VERTEX
  5
90C
  8
0
  6
CONTINUOUS
 62
     7
 10
-628.49547999999982
 20
471.94625000000002
 30
0.0
 42
0.0056588804
  0
VERTEX
  5
90D
  8
0
  6
CONTINUOUS
 62
     7
 10
-627.24000999999976
 20
469.97309999999982
 30
0.0
 42
0.0054619297
  0
VERTEX
  5
90E
  8
0
  6
CONTINUOUS
 62
     7
 10
-625.94096999999988
 20
468.02834999999988
 30
0.0
 42
0.0052861412
  0
VERTEX
  5
90F
  8
0
  6
CONTINUOUS
 62
     7
 10
-624.60044000000016
 20
466.11194999999981
 30
0.0
  0
SEQEND
  5
910
  8
0
 62
     7
  0
POLYLINE
  5
911
  8
0
  6
CONTINUOUS
 62
     7
 66
     1
 10
0.0
 20
0.0
 30
0.0
  0
VERTEX
  5
912
  8
0
  6
CONTINUOUS
 62
     7
 10
-782.02306999999985
 20
507.36660999999992
 30
0.0
 42
0.00034747624
  0
VERTEX
  5
913
  8
0
  6
CONTINUOUS
 62
     7
 10
-782.02547000000004
 20
507.05547000000001
 30
0.0
 42
0.00040574226
  0
VERTEX
  5
914
  8
0
  6
CONTINUOUS
 62
     7
 10
-782.02737999999988
 20
506.74437
 30
0.0
 42
0.00039705228
  0
VERTEX
  5
915
  8
0
  6
CONTINUOUS
 62
     7
 10
-782.02880999999979
 20
506.43325999999979
 30
0.0
 42
0.00038766499
  0
VERTEX
  5
916
  8
0
  6
CONTINUOUS
 62
     7
 10
-782.02973999999983
 20
506.12212
 30
0.0
 42
0.00040613775
  0
VERTEX
  5
917
  8
0
  6
CONTINUOUS
 62
     7
 10
-782.03018999999983
 20
505.81100999999973
 30
0.0
 42
0.0003557185
  0
VERTEX
  5
918
  8
0
  6
CONTINUOUS
 62
     7
 10
-782.03015000000005
 20
505.49990999999989
 30
0.0
 42
0.00034187241
  0
VERTEX
  5
919
  8
0
  6
CONTINUOUS
 62
     7
 10
-782.02970000000005
 20
505.18876999999992
 30
0.0
 42
0.00040586797
  0
VERTEX
  5
91A
  8
0
  6
CONTINUOUS
 62
     7
 10
-782.02875999999981
 20
504.87767000000002
 30
0.0
 42
0.00040118612
  0
VERTEX
  5
91B
  8
0
  6
CONTINUOUS
 62
     7
 10
-782.02733999999964
 20
504.56644
 30
0.0
 42
0.00038319875
  0
VERTEX
  5
91C
  8
0
  6
CONTINUOUS
 62
     7
 10
-782.02543000000003
 20
504.25529999999981
 30
0.0
 42
0.00040742134
  0
VERTEX
  5
91D
  8
0
  6
CONTINUOUS
 62
     7
 10
-782.02302999999984
 20
503.94407000000001
 30
0.0
 42
0.00035780707
  0
VERTEX
  5
91E
  8
0
  6
CONTINUOUS
 62
     7
 10
-782.02013999999986
 20
503.63297
 30
0.0
  0
SEQEND
  5
91F
  8
0
 62
     7
  0
POLYLINE
  5
920
  8
0
  6
CONTINUOUS
 62
     7
 66
     1
 10
0.0
 20
0.0
 30
0.0
  0
VERTEX
  5
921
  8
0
  6
CONTINUOUS
 62
     7
 10
-781.97899999999981
 20
501.09622000000002
 30
0.0
 42
0.00074501045
  0
VERTEX
  5
922
  8
0
  6
CONTINUOUS
 62
     7
 10
-781.96424999999999
 20
500.47845999999993
 30
0.0
 42
0.00078382358
  0
VERTEX
  5
923
  8
0
  6
CONTINUOUS
 62
     7
 10
-781.94760999999983
 20
499.86085999999989
 30
0.0
 42
0.00074332135
  0
VERTEX
  5
924
  8
0
  6
CONTINUOUS
 62
     7
 10
-781.92908
 20
499.24319000000003
 30
0.0
 42
0.0007514447
  0
VERTEX
  5
925
  8
0
  6
CONTINUOUS
 62
     7
 10
-781.90870999999981
 20
498.62558999999987
 30
0.0
 42
0.00073475782
  0
VERTEX
  5
926
  8
0
  6
CONTINUOUS
 62
     7
 10
-781.88648999999998
 20
498.00815999999998
 30
0.0
 42
0.00077737158
  0
VERTEX
  5
927
  8
0
  6
CONTINUOUS
 62
     7
 10
-781.86243000000002
 20
497.39078000000001
 30
0.0
 42
0.00075773232
  0
VERTEX
  5
928
  8
0
  6
CONTINUOUS
 62
     7
 10
-781.83645000000001
 20
496.77337999999992
 30
0.0
 42
0.00073477315
  0
VERTEX
  5
929
  8
0
  6
CONTINUOUS
 62
     7
 10
-781.80860999999982
 20
496.15598999999997
 30
0.0
 42
0.00077014563
  0
VERTEX
  5
92A
  8
0
  6
CONTINUOUS
 62
     7
 10
-781.77892999999983
 20
495.5385999999998
 30
0.0
 42
0.00077088287
  0
VERTEX
  5
92B
  8
0
  6
CONTINUOUS
 62
     7
 10
-781.74733000000003
 20
494.92146999999989
 30
0.0
 42
0.0007348301
  0
VERTEX
  5
92C
  8
0
  6
CONTINUOUS
 62
     7
 10
-781.71388999999988
 20
494.30444
 30
0.0
 42
0.00075616136
  0
VERTEX
  5
92D
  8
0
  6
CONTINUOUS
 62
     7
 10
-781.67858999999999
 20
493.68740999999989
 30
0.0
  0
SEQEND
  5
92E
  8
0
 62
     7
  0
POLYLINE
  5
92F
  8
0
  6
CONTINUOUS
 62
     7
 66
     1
 10
0.0
 20
0.0
 30
0.0
  0
VERTEX
  5
930
  8
0
  6
CONTINUOUS
 62
     7
 10
-781.50487999999984
 20
491.02602999999999
 30
0.0
 42
0.00073721998
  0
VERTEX
  5
931
  8
0
  6
CONTINUOUS
 62
     7
 10
-781.46073000000001
 20
490.42362000000003
 30
0.0
 42
0.00074398494
  0
VERTEX
  5
932
  8
0
  6
CONTINUOUS
 62
     7
 10
-781.41480000000001
 20
489.82134999999988
 30
0.0
 42
0.00073322622
  0
VERTEX
  5
933
  8
0
  6
CONTINUOUS
 62
     7
 10
-781.36707000000001
 20
489.21901999999989
 30
0.0
 42
0.00071357031
  0
VERTEX
  5
934
  8
0
  6
CONTINUOUS
 62
     7
 10
-781.31763000000001
 20
488.61702999999989
 30
0.0
 42
0.00079961878
  0
VERTEX
  5
935
  8
0
  6
CONTINUOUS
 62
     7
 10
-781.26635999999985
 20
488.01516999999978
 30
0.0
 42
0.00070980539
  0
VERTEX
  5
936
  8
0
  6
CONTINUOUS
 62
     7
 10
-781.21325999999988
 20
487.41335999999973
 30
0.0
 42
0.0007418407
  0
VERTEX
  5
937
  8
0
  6
CONTINUOUS
 62
     7
 10
-781.15842999999984
 20
486.81182999999987
 30
0.0
 42
0.00069469606
  0
VERTEX
  5
938
  8
0
  6
CONTINUOUS
 62
     7
 10
-781.10187999999982
 20
486.21059999999989
 30
0.0
 42
0.00077213468
  0
VERTEX
  5
939
  8
0
  6
CONTINUOUS
 62
     7
 10
-781.04358000000002
 20
485.60940999999991
 30
0.0
 42
0.00076522242
  0
VERTEX
  5
93A
  8
0
  6
CONTINUOUS
 62
     7
 10
-780.98338000000001
 20
485.00839000000002
 30
0.0
 42
0.0006989821
  0
VERTEX
  5
93B
  8
0
  6
CONTINUOUS
 62
     7
 10
-780.92145999999968
 20
484.40764000000001
 30
0.0
 42
0.00074640581
  0
VERTEX
  5
93C
  8
0
  6
CONTINUOUS
 62
     7
 10
-780.85779000000002
 20
483.80703999999992
 30
0.0
  0
SEQEND
  5
93D
  8
0
 62
     7
  0
POLYLINE
  5
93E
  8
0
  6
CONTINUOUS
 62
     7
 66
     1
 10
0.0
 20
0.0
 30
0.0
  0
VERTEX
  5
93F
  8
0
  6
CONTINUOUS
 62
     7
 10
-780.52221999999983
 20
480.88357999999988
 30
0.0
 42
0.0006890002
  0
VERTEX
  5
940
  8
0
  6
CONTINUOUS
 62
     7
 10
-780.45133999999985
 20
480.30882000000003
 30
0.0
 42
0.00067934106
  0
VERTEX
  5
941
  8
0
  6
CONTINUOUS
 62
     7
 10
-780.37885000000006
 20
479.73414000000002
 30
0.0
 42
0.00071569314
  0
VERTEX
  5
942
  8
0
  6
CONTINUOUS
 62
     7
 10
-780.30480999999975
 20
479.15982000000002
 30
0.0
 42
0.00069587808
  0
VERTEX
  5
943
  8
0
  6
CONTINUOUS
 62
     7
 10
-780.22912999999983
 20
478.58567999999991
 30
0.0
 42
0.00071687036
  0
VERTEX
  5
944
  8
0
  6
CONTINUOUS
 62
     7
 10
-780.15182000000004
 20
478.01168000000001
 30
0.0
 42
0.00069759108
  0
VERTEX
  5
945
  8
0
  6
CONTINUOUS
 62
     7
 10
-780.07287999999983
 20
477.43790000000001
 30
0.0
 42
0.000733212
  0
VERTEX
  5
946
  8
0
  6
CONTINUOUS
 62
     7
 10
-779.99229000000003
 20
476.86443000000003
 30
0.0
 42
0.00064546132
  0
VERTEX
  5
947
  8
0
  6
CONTINUOUS
 62
     7
 10
-779.91015000000004
 20
476.29131999999981
 30
0.0
 42
0.00074206151
  0
VERTEX
  5
948
  8
0
  6
CONTINUOUS
 62
     7
 10
-779.82641999999998
 20
475.71829000000002
 30
0.0
 42
0.00073581337
  0
VERTEX
  5
949
  8
0
  6
CONTINUOUS
 62
     7
 10
-779.74095
 20
475.14552999999989
 30
0.0
 42
0.0006891394
  0
VERTEX
  5
94A
  8
0
  6
CONTINUOUS
 62
     7
 10
-779.65390000000002
 20
474.57317999999992
 30
0.0
 42
0.00072290801
  0
VERTEX
  5
94B
  8
0
  6
CONTINUOUS
 62
     7
 10
-779.56519000000003
 20
474.00089000000003
 30
0.0
  0
SEQEND
  5
94C
  8
0
 62
     7
  0
POLYLINE
  5
94D
  8
0
  6
CONTINUOUS
 62
     7
 66
     1
 10
0.0
 20
0.0
 30
0.0
  0
VERTEX
  5
94E
  8
0
  6
CONTINUOUS
 62
     7
 10
-782.02306999999985
 20
507.36660999999992
 30
0.0
 42
-0.00034747675
  0
VERTEX
  5
94F
  8
0
  6
CONTINUOUS
 62
     7
 10
-782.02547000000004
 20
507.67773999999997
 30
0.0
 42
-0.00040573838
  0
VERTEX
  5
950
  8
0
  6
CONTINUOUS
 62
     7
 10
-782.02737999999988
 20
507.98885000000001
 30
0.0
 42
-0.00039706109
  0
VERTEX
  5
951
  8
0
  6
CONTINUOUS
 62
     7
 10
-782.02880999999979
 20
508.29995999999988
 30
0.0
 42
-0.00038765727
  0
VERTEX
  5
952
  8
0
  6
CONTINUOUS
 62
     7
 10
-782.02973999999983
 20
508.61110000000002
 30
0.0
 42
-0.00040613428
  0
VERTEX
  5
953
  8
0
  6
CONTINUOUS
 62
     7
 10
-782.03018999999983
 20
508.92219999999992
 30
0.0
 42
-0.00035573428
  0
VERTEX
  5
954
  8
0
  6
CONTINUOUS
 62
     7
 10
-782.03015000000005
 20
509.23330999999968
 30
0.0
 42
-0.00034185757
  0
VERTEX
  5
955
  8
0
  6
CONTINUOUS
 62
     7
 10
-782.02970000000005
 20
509.54443999999978
 30
0.0
 42
-0.00040586499
  0
VERTEX
  5
956
  8
0
  6
CONTINUOUS
 62
     7
 10
-782.02875999999981
 20
509.85554999999988
 30
0.0
 42
-0.00040120776
  0
VERTEX
  5
957
  8
0
  6
CONTINUOUS
 62
     7
 10
-782.02733999999964
 20
510.16677999999968
 30
0.0
 42
-0.00038317826
  0
VERTEX
  5
958
  8
0
  6
CONTINUOUS
 62
     7
 10
-782.02543000000003
 20
510.47791999999998
 30
0.0
 42
-0.0004074186
  0
VERTEX
  5
959
  8
0
  6
CONTINUOUS
 62
     7
 10
-782.02302999999984
 20
510.78915000000001
 30
0.0
 42
-0.00035783321
  0
VERTEX
  5
95A
  8
0
  6
CONTINUOUS
 62
     7
 10
-782.02013999999986
 20
511.10025000000002
 30
0.0
  0
SEQEND
  5
95B
  8
0
 62
     7
  0
POLYLINE
  5
95C
  8
0
  6
CONTINUOUS
 62
     7
 66
     1
 10
0.0
 20
0.0
 30
0.0
  0
VERTEX
  5
95D
  8
0
  6
CONTINUOUS
 62
     7
 10
-781.97899999999981
 20
513.63695999999993
 30
0.0
 42
-0.00074497799
  0
VERTEX
  5
95E
  8
0
  6
CONTINUOUS
 62
     7
 10
-781.96424999999999
 20
514.25473
 30
0.0
 42
-0.00078382106
  0
VERTEX
  5
95F
  8
0
  6
CONTINUOUS
 62
     7
 10
-781.94760999999983
 20
514.87231999999995
 30
0.0
 42
-0.0007433568
  0
VERTEX
  5
960
  8
0
  6
CONTINUOUS
 62
     7
 10
-781.92908
 20
515.48999000000003
 30
0.0
 42
-0.00075141079
  0
VERTEX
  5
961
  8
0
  6
CONTINUOUS
 62
     7
 10
-781.90870999999981
 20
516.10759000000007
 30
0.0
 42
-0.00073282875
  0
VERTEX
  5
962
  8
0
  6
CONTINUOUS
 62
     7
 10
-781.88648999999998
 20
516.72501999999986
 30
0.0
 42
-0.00077904702
  0
VERTEX
  5
963
  8
0
  6
CONTINUOUS
 62
     7
 10
-781.86243000000002
 20
517.3425299999999
 30
0.0
 42
-0.00075975985
  0
VERTEX
  5
964
  8
0
  6
CONTINUOUS
 62
     7
 10
-781.83644000000004
 20
517.95992000000001
 30
0.0
 42
-0.0007324004
  0
VERTEX
  5
965
  8
0
  6
CONTINUOUS
 62
     7
 10
-781.80860999999982
 20
518.57719999999995
 30
0.0
 42
-0.00077017552
  0
VERTEX
  5
966
  8
0
  6
CONTINUOUS
 62
     7
 10
-781.77892999999983
 20
519.19457999999997
 30
0.0
 42
-0.00077085244
  0
VERTEX
  5
967
  8
0
  6
CONTINUOUS
 62
     7
 10
-781.74733000000003
 20
519.81170999999995
 30
0.0
 42
-0.00073483086
  0
VERTEX
  5
968
  8
0
  6
CONTINUOUS
 62
     7
 10
-781.71388999999988
 20
520.42874000000006
 30
0.0
 42
-0.00075618795
  0
VERTEX
  5
969
  8
0
  6
CONTINUOUS
 62
     7
 10
-781.67858999999999
 20
521.04578000000004
 30
0.0
  0
SEQEND
  5
96A
  8
0
 62
     7
  0
POLYLINE
  5
96B
  8
0
  6
CONTINUOUS
 62
     7
 66
     1
 10
0.0
 20
0.0
 30
0.0
  0
VERTEX
  5
96C
  8
0
  6
CONTINUOUS
 62
     7
 10
-781.50487999999984
 20
523.70714999999996
 30
0.0
 42
-0.00073370515
  0
VERTEX
  5
96D
  8
0
  6
CONTINUOUS
 62
     7
 10
-781.46073999999965
 20
524.30957000000001
 30
0.0
 42
-0.0007521132
  0
VERTEX
  5
96E
  8
0
  6
CONTINUOUS
 62
     7
 10
-781.41479000000004
 20
524.91195999999991
 30
0.0
 42
-0.00072974907
  0
VERTEX
  5
96F
  8
0
  6
CONTINUOUS
 62
     7
 10
-781.36707000000001
 20
525.51415999999995
 30
0.0
 42
-0.00071355786
  0
VERTEX
  5
970
  8
0
  6
CONTINUOUS
 62
     7
 10
-781.31763000000001
 20
526.11615999999992
 30
0.0
 42
-0.00079962051
  0
VERTEX
  5
971
  8
0
  6
CONTINUOUS
 62
     7
 10
-781.26635999999985
 20
526.71801000000005
 30
0.0
 42
-0.00070981156
  0
VERTEX
  5
972
  8
0
  6
CONTINUOUS
 62
     7
 10
-781.21325999999988
 20
527.31982000000005
 30
0.0
 42
-0.00073754173
  0
VERTEX
  5
973
  8
0
  6
CONTINUOUS
 62
     7
 10
-781.15844000000004
 20
527.92136000000005
 30
0.0
 42
-0.00070466633
  0
VERTEX
  5
974
  8
0
  6
CONTINUOUS
 62
     7
 10
-781.10186999999985
 20
528.52272000000005
 30
0.0
 42
-0.00076787225
  0
VERTEX
  5
975
  8
0
  6
CONTINUOUS
 62
     7
 10
-781.04358000000002
 20
529.12378000000001
 30
0.0
 42
-0.00076521763
  0
VERTEX
  5
976
  8
0
  6
CONTINUOUS
 62
     7
 10
-780.98338000000001
 20
529.72479999999985
 30
0.0
 42
-0.00069898529
  0
VERTEX
  5
977
  8
0
  6
CONTINUOUS
 62
     7
 10
-780.92145999999968
 20
530.32555000000002
 30
0.0
 42
-0.00074640664
  0
VERTEX
  5
978
  8
0
  6
CONTINUOUS
 62
     7
 10
-780.85779000000002
 20
530.92614999999978
 30
0.0
  0
SEQEND
  5
979
  8
0
 62
     7
  0
POLYLINE
  5
97A
  8
0
  6
CONTINUOUS
 62
     7
 66
     1
 10
0.0
 20
0.0
 30
0.0
  0
VERTEX
  5
97B
  8
0
  6
CONTINUOUS
 62
     7
 10
-780.52221999999983
 20
533.84960999999976
 30
0.0
 42
-0.00068898293
  0
VERTEX
  5
97C
  8
0
  6
CONTINUOUS
 62
     7
 10
-780.45133999999985
 20
534.42435999999987
 30
0.0
 42
-0.00067933813
  0
VERTEX
  5
97D
  8
0
  6
CONTINUOUS
 62
     7
 10
-780.37885000000006
 20
534.99905000000001
 30
0.0
 42
-0.000715718
  0
VERTEX
  5
97E
  8
0
  6
CONTINUOUS
 62
     7
 10
-780.30480999999975
 20
535.57335999999987
 30
0.0
 42
-0.0006958567
  0
VERTEX
  5
97F
  8
0
  6
CONTINUOUS
 62
     7
 10
-780.22912999999983
 20
536.14750000000004
 30
0.0
 42
-0.00071687214
  0
VERTEX
  5
980
  8
0
  6
CONTINUOUS
 62
     7
 10
-780.15182000000004
 20
536.72149999999976
 30
0.0
 42
-0.00069760016
  0
VERTEX
  5
981
  8
0
  6
CONTINUOUS
 62
     7
 10
-780.07287999999983
 20
537.29529000000002
 30
0.0
 42
-0.00073320365
  0
VERTEX
  5
982
  8
0
  6
CONTINUOUS
 62
     7
 10
-779.99229000000003
 20
537.86875999999995
 30
0.0
 42
-0.00064546479
  0
VERTEX
  5
983
  8
0
  6
CONTINUOUS
 62
     7
 10
-779.91015000000004
 20
538.44185999999991
 30
0.0
 42
-0.00074205583
  0
VERTEX
  5
984
  8
0
  6
CONTINUOUS
 62
     7
 10
-779.82641999999998
 20
539.01489000000004
 30
0.0
 42
-0.00073582106
  0
VERTEX
  5
985
  8
0
  6
CONTINUOUS
 62
     7
 10
-779.74095
 20
539.58765000000005
 30
0.0
 42
-0.00068913793
  0
VERTEX
  5
986
  8
0
  6
CONTINUOUS
 62
     7
 10
-779.65390000000002
 20
540.15999999999997
 30
0.0
 42
-0.00072288972
  0
VERTEX
  5
987
  8
0
  6
CONTINUOUS
 62
     7
 10
-779.56519000000003
 20
540.73229999999978
 30
0.0
  0
SEQEND
  5
988
  8
0
 62
     7
  0
POLYLINE
  5
989
  8
0
  6
CONTINUOUS
 62
     7
 66
     1
 10
0.0
 20
0.0
 30
0.0
  0
VERTEX
  5
98A
  8
0
  6
CONTINUOUS
 62
     7
 10
-780.52092000000005
 20
152.0348899999999
 30
0.0
  0
VERTEX
  5
98B
  8
0
  6
CONTINUOUS
 62
     7
 10
-779.56044000000009
 20
158.91651999999999
 30
0.0
 42
-1.0
  0
SEQEND
  5
98C
  8
0
 62
     7
  0
POLYLINE
  5
98D
  8
0
  6
CONTINUOUS
 62
     7
 66
     1
 10
0.0
 20
0.0
 30
0.0
  0
VERTEX
  5
98E
  8
0
  6
CONTINUOUS
 62
     7
 10
-781.50266999999985
 20
141.8905
 30
0.0
  0
VERTEX
  5
98F
  8
0
  6
CONTINUOUS
 62
     7
 10
-780.85662000000002
 20
149.1114199999999
 30
0.0
 42
-1.0
  0
SEQEND
  5
990
  8
0
 62
     7
  0
POLYLINE
  5
991
  8
0
  6
CONTINUOUS
 62
     7
 66
     1
 10
0.0
 20
0.0
 30
0.0
  0
VERTEX
  5
992
  8
0
  6
CONTINUOUS
 62
     7
 10
-781.97433999999998
 20
131.81923999999981
 30
0.0
  0
VERTEX
  5
993
  8
0
  6
CONTINUOUS
 62
     7
 10
-781.67566999999985
 20
139.22926999999979
 30
0.0
 42
-1.0
  0
SEQEND
  5
994
  8
0
 62
     7
  0
POLYLINE
  5
995
  8
0
  6
CONTINUOUS
 62
     7
 66
     1
 10
0.0
 20
0.0
 30
0.0
  0
VERTEX
  5
996
  8
0
  6
CONTINUOUS
 62
     7
 10
-782.01769999999999
 20
125.54795
 30
0.0
  0
VERTEX
  5
997
  8
0
  6
CONTINUOUS
 62
     7
 10
-782.01498000000004
 20
129.28043
 30
0.0
 42
-1.0
  0
SEQEND
  5
998
  8
0
 62
     7
  0
POLYLINE
  5
999
  8
0
  6
CONTINUOUS
 62
     7
 66
     1
 10
0.0
 20
0.0
 30
0.0
  0
VERTEX
  5
99A
  8
0
  6
CONTINUOUS
 62
     7
 10
-780.52092000000005
 20
99.060958999999997
 30
0.0
  0
VERTEX
  5
99B
  8
0
  6
CONTINUOUS
 62
     7
 10
-779.56044000000009
 20
92.179366999999999
 30
0.0
 42
-1.0
  0
SEQEND
  5
99C
  8
0
 62
     7
  0
POLYLINE
  5
99D
  8
0
  6
CONTINUOUS
 62
     7
 66
     1
 10
0.0
 20
0.0
 30
0.0
  0
VERTEX
  5
99E
  8
0
  6
CONTINUOUS
 62
     7
 10
-781.50266999999985
 20
109.20536
 30
0.0
  0
VERTEX
  5
99F
  8
0
  6
CONTINUOUS
 62
     7
 10
-780.85662000000002
 20
101.98442
 30
0.0
 42
-1.0
  0
SEQEND
  5
9A0
  8
0
 62
     7
  0
POLYLINE
  5
9A1
  8
0
  6
CONTINUOUS
 62
     7
 66
     1
 10
0.0
 20
0.0
 30
0.0
  0
VERTEX
  5
9A2
  8
0
  6
CONTINUOUS
 62
     7
 10
-781.97433999999998
 20
119.27665
 30
0.0
  0
VERTEX
  5
9A3
  8
0
  6
CONTINUOUS
 62
     7
 10
-781.67566999999985
 20
111.8665899999998
 30
0.0
 42
-1.0
  0
SEQEND
  5
9A4
  8
0
 62
     7
  0
POLYLINE
  5
9A5
  8
0
  6
CONTINUOUS
 62
     7
 66
     1
 10
0.0
 20
0.0
 30
0.0
  0
VERTEX
  5
9A6
  8
0
  6
CONTINUOUS
 62
     7
 10
-782.01769999999999
 20
125.54795
 30
0.0
  0
VERTEX
  5
9A7
  8
0
  6
CONTINUOUS
 62
     7
 10
-782.01498000000004
 20
121.81547999999979
 30
0.0
 42
-1.0
  0
SEQEND
  5
9A8
  8
0
 62
     7
  0
POLYLINE
  5
9A9
  8
0
  6
CONTINUOUS
 62
     7
 66
     1
 10
0.0
 20
0.0
 30
0.0
  0
VERTEX
  5
9AA
  8
0
  6
CONTINUOUS
 62
     7
 10
-447.21700999999968
 20
610.03270999999995
 30
0.0
 42
0.079826744
  0
VERTEX
  5
9AB
  8
0
  6
CONTINUOUS
 62
     7
 10
-473.05883999999998
 20
543.12626999999986
 30
0.0
 42
0.10414854
  0
VERTEX
  5
9AC
  8
0
  6
CONTINUOUS
 62
     7
 10
-473.05876999999998
 20
471.60656999999992
 30
0.0
 42
0.079826277
  0
VERTEX
  5
9AD
  8
0
  6
CONTINUOUS
 62
     7
 10
-447.21700999999968
 20
404.70047
 30
0.0
  0
SEQEND
  5
9AE
  8
0
 62
     7
  0
TEXT
  5
B6A
  8
0
  6
CONTINUOUS
 62
     0
 10
-293.34626064786562
 20
479.34187823912288
 30
0.0
 40
15.0
  1
VX02-240MF~VX02-600MF
  0
ENDSEC
  0
EOF
