  0
SECTION
  2
HEADER
  9
$ACADVER
  1
AC1009
  9
$INSBASE
 10
0.0
 20
0.0
 30
0.0
  9
$EXTMIN
 10
-968.7933545977005
 20
122.6132135229297
 30
-0.0000000000000058
  9
$EXTMAX
 10
-65.864257257413101
 20
829.39839023499712
 30
0.0000000000000104
  9
$LIMMIN
 10
0.0
 20
0.0
  9
$LIMMAX
 10
12.0
 20
9.0
  9
$ORTHOMODE
 70
     0
  9
$REGENMODE
 70
     1
  9
$FILLMODE
 70
     1
  9
$QTEXTMODE
 70
     0
  9
$MIRRTEXT
 70
     1
  9
$DRAGMODE
 70
     2
  9
$LTSCALE
 40
1.0
  9
$OSMODE
 70
   551
  9
$ATTMODE
 70
     1
  9
$TEXTSIZE
 40
0.2
  9
$TRACEWID
 40
0.05
  9
$TEXTSTYLE
  7
STANDARD
  9
$CLAYER
  8
0
  9
$CELTYPE
  6
CONTINUOUS
  9
$CECOLOR
 62
   256
  9
$DIMSCALE
 40
1.0
  9
$DIMASZ
 40
0.18
  9
$DIMEXO
 40
0.0625
  9
$DIMDLI
 40
0.38
  9
$DIMRND
 40
0.0
  9
$DIMDLE
 40
0.0
  9
$DIMEXE
 40
0.18
  9
$DIMTP
 40
0.0
  9
$DIMTM
 40
0.0
  9
$DIMTXT
 40
0.18
  9
$DIMCEN
 40
0.09
  9
$DIMTSZ
 40
0.0
  9
$DIMTOL
 70
     0
  9
$DIMLIM
 70
     0
  9
$DIMTIH
 70
     1
  9
$DIMTOH
 70
     1
  9
$DIMSE1
 70
     0
  9
$DIMSE2
 70
     0
  9
$DIMTAD
 70
     0
  9
$DIMZIN
 70
     0
  9
$DIMBLK
  1

  9
$DIMASO
 70
     1
  9
$DIMSHO
 70
     1
  9
$DIMPOST
  1

  9
$DIMAPOST
  1

  9
$DIMALT
 70
     0
  9
$DIMALTD
 70
     2
  9
$DIMALTF
 40
25.399999999999999
  9
$DIMLFAC
 40
1.0
  9
$DIMTOFL
 70
     0
  9
$DIMTVP
 40
0.0
  9
$DIMTIX
 70
     0
  9
$DIMSOXD
 70
     0
  9
$DIMSAH
 70
     0
  9
$DIMBLK1
  1

  9
$DIMBLK2
  1

  9
$DIMSTYLE
  2
STANDARD
  9
$DIMCLRD
 70
     0
  9
$DIMCLRE
 70
     0
  9
$DIMCLRT
 70
     0
  9
$DIMTFAC
 40
1.0
  9
$DIMGAP
 40
0.09
  9
$LUNITS
 70
     2
  9
$LUPREC
 70
     4
  9
$SKETCHINC
 40
0.1
  9
$FILLETRAD
 40
0.0
  9
$AUNITS
 70
     0
  9
$AUPREC
 70
     0
  9
$MENU
  1
.
  9
$ELEVATION
 40
0.0
  9
$PELEVATION
 40
0.0
  9
$THICKNESS
 40
0.0
  9
$LIMCHECK
 70
     0
  9
$BLIPMODE
 70
     0
  9
$CHAMFERA
 40
0.0
  9
$CHAMFERB
 40
0.0
  9
$SKPOLY
 70
     0
  9
$TDCREATE
 40
2452300.4272999768
  9
$TDUPDATE
 40
2458540.6478529279
  9
$TDINDWG
 40
0.0287690741
  9
$TDUSRTIMER
 40
0.0287688773
  9
$USRTIMER
 70
     1
  9
$ANGBASE
 50
0.0
  9
$ANGDIR
 70
     0
  9
$PDMODE
 70
     0
  9
$PDSIZE
 40
0.0
  9
$PLINEWID
 40
0.0
  9
$COORDS
 70
     1
  9
$SPLFRAME
 70
     0
  9
$SPLINETYPE
 70
     6
  9
$SPLINESEGS
 70
     8
  9
$ATTDIA
 70
     1
  9
$ATTREQ
 70
     1
  9
$HANDLING
 70
     1
  9
$HANDSEED
  5
C40
  9
$SURFTAB1
 70
     6
  9
$SURFTAB2
 70
     6
  9
$SURFTYPE
 70
     6
  9
$SURFU
 70
     6
  9
$SURFV
 70
     6
  9
$UCSNAME
  2

  9
$UCSORG
 10
0.0
 20
0.0
 30
0.0
  9
$UCSXDIR
 10
1.0
 20
0.0
 30
0.0
  9
$UCSYDIR
 10
0.0
 20
1.0
 30
0.0
  9
$PUCSNAME
  2

  9
$PUCSORG
 10
0.0
 20
0.0
 30
0.0
  9
$PUCSXDIR
 10
1.0
 20
0.0
 30
0.0
  9
$PUCSYDIR
 10
0.0
 20
1.0
 30
0.0
  9
$USERI1
 70
     0
  9
$USERI2
 70
     0
  9
$USERI3
 70
     0
  9
$USERI4
 70
     0
  9
$USERI5
 70
     0
  9
$USERR1
 40
0.0
  9
$USERR2
 40
0.0
  9
$USERR3
 40
0.0
  9
$USERR4
 40
0.0
  9
$USERR5
 40
0.0
  9
$WORLDVIEW
 70
     1
  9
$SHADEDGE
 70
     3
  9
$SHADEDIF
 70
    70
  9
$TILEMODE
 70
     1
  9
$MAXACTVP
 70
    64
  9
$PLIMCHECK
 70
     0
  9
$PEXTMIN
 10
1.0000000000000000E+020
 20
1.0000000000000000E+020
 30
1.0000000000000000E+020
  9
$PEXTMAX
 10
-1.0000000000000000E+020
 20
-1.0000000000000000E+020
 30
-1.0000000000000000E+020
  9
$PLIMMIN
 10
0.0
 20
0.0
  9
$PLIMMAX
 10
12.0
 20
9.0
  9
$UNITMODE
 70
     0
  9
$VISRETAIN
 70
     1
  9
$PLINEGEN
 70
     0
  9
$PSLTSCALE
 70
     1
  0
ENDSEC
  0
SECTION
  2
TABLES
  0
TABLE
  2
VPORT
 70
     1
  0
VPORT
  2
*ACTIVE
 70
     0
 10
0.0
 20
0.0
 11
1.0
 21
1.0
 12
-517.32880592755669
 22
476.00580187896338
 13
0.0
 23
0.0
 14
1.0
 24
1.0
 15
0.0
 25
0.0
 16
0.0
 26
0.0
 36
1.0
 17
0.0
 27
0.0
 37
0.0
 40
711.63724886340879
 41
1.7571592210767459
 42
50.0
 43
0.0
 44
0.0
 50
0.0
 51
0.0
 71
     0
 72
   100
 73
     1
 74
     1
 75
     0
 76
     0
 77
     0
 78
     0
  0
ENDTAB
  0
TABLE
  2
LTYPE
 70
    23
  0
LTYPE
  2
CONTINUOUS
 70
     0
  3
Solid line
 72
    65
 73
     0
 40
0.0
  0
LTYPE
  2
DASHED
 70
     0
  3
__ __ __ __ __ __ __ __ __ __ __ __ __ __ __
 72
    65
 73
     2
 40
3.5
 49
2.0
 49
-1.5
  0
LTYPE
  2
CENTER
 70
     0
  3
____ _ ____ _ ____ _ ____ _ ____ _ ____ _ ____
 72
    65
 73
     4
 40
17.5
 49
13.0
 49
-1.5
 49
1.5
 49
-1.5
  0
LTYPE
  2
PHANTOM
 70
     0
  3
_____ _ _ _____ _ _ _____ _ _ _____ _ _ ____  
 72
    65
 73
     6
 40
15.5
 49
8.0
 49
-1.5
 49
1.5
 49
-1.5
 49
1.5
 49
-1.5
  0
LTYPE
  2
DOT
 70
     0
  3
. . . . . . . . . . . . . . . . . . . . . . . .
 72
    65
 73
     2
 40
0.25
 49
0.0
 49
-0.25
  0
LTYPE
  2
AM_ISO02W050
 70
     0
  3
__ __ __ __ __ __ __ __ __ __ __ __ __ __ __
 72
    65
 73
     2
 40
7.5
 49
6.0
 49
-1.5
  0
LTYPE
  2
AM_ISO08W050
 70
     0
  3
____ . ____ . ____ . ____ . ____ . ____ . ____
 72
    65
 73
     4
 40
18.0
 49
12.0
 49
-1.5
 49
3.0
 49
-1.5
  0
LTYPE
  2
AM_ISO09W050
 70
     0
  3
_____ . . _____ . . _____ . . ____ .. ____
 72
    65
 73
     6
 40
22.5
 49
12.0
 49
-1.5
 49
3.0
 49
-1.5
 49
3.0
 49
-1.5
  0
LTYPE
  2
AMCONSTR
 70
     0
  3
_______________________
 72
    65
 73
     2
 40
9999.0
 49
9999.0
 49
0.0
  0
LTYPE
  2
AM_ISO08W050X2
 70
     0
  3
__ . __ . __ . __ . __ . __
 72
    65
 73
     4
 40
9.0
 49
6.0
 49
-0.75
 49
1.5
 49
-0.75
  0
LTYPE
  2
AM_ISO02W050X2
 70
     0
  3
 _ _ _ _ _ _ _ _ _ _ _ _
 72
    65
 73
     2
 40
3.75
 49
3.0
 49
-0.75
  0
LTYPE
  2
AMZIGZAG
 70
     0
  3
/\/-/\/-/\/-/\/-/\/-/\/
 72
    65
 73
     2
 40
11.000099999999991
 49
0.0001
 49
-11.0
  0
LTYPE
  2
HIDDEN
 70
     0
  3
Hidden __ __ __ __ __ __ __ __ __ __ __ __ __ _
 72
    65
 73
     2
 40
0.375
 49
0.25
 49
-0.125
  0
LTYPE
  2
PHANTOM2
 70
     0
  3
Phantom (.5x) ___ _ _ ___ _ _ ___ _ _ ___ _ _
 72
    65
 73
     6
 40
1.25
 49
0.625
 49
-0.125
 49
0.125
 49
-0.125
 49
0.125
 49
-0.125
  0
LTYPE
  2
CENTER2
 70
     0
  3
Center (.5x) ___ _ ___ _ ___ _ ___ _ ___ _ ___
 72
    65
 73
     4
 40
1.125
 49
0.75
 49
-0.125
 49
0.125
 49
-0.125
  0
LTYPE
  2
HIDDEN2
 70
     0
  3
Hidden (.5x) _ _ _ _ _ _ _ _ _ _ _ _ _ _ _ _ _
 72
    65
 73
     2
 40
0.1875
 49
0.125
 49
-0.0625
  0
LTYPE
  2
AMZIGZAG2
 70
     0
  3
/\/-/\/-/\/-/\/-/\/-/\/
 72
    65
 73
     2
 40
0.4401
 49
0.0001
 49
-0.4400000000000003
  0
LTYPE
  2
ACANSTGB
 70
     0
  3
__ . . __ . .
 72
    65
 73
     6
 40
0.35433070866
 49
0.15748031496
 49
-0.03937007874
 49
0.03937007874
 49
-0.03937007874
 49
0.03937007874
 49
-0.03937007874
  0
LTYPE
  2
ACANSTGL
 70
     0
  3
_ _ _ _ _
 72
    65
 73
     2
 40
0.11811023622
 49
0.07874015748
 49
-0.03937007874
  0
LTYPE
  2
ACISOWELD
 70
     0
  3
_ _ _ _ _
 72
    65
 73
     2
 40
2.0
 49
2.0
 49
-1.0
  0
LTYPE
  2
ACISOTGB
 70
     0
  3
__ . . __ . .
 72
    65
 73
     6
 40
9.0
 49
4.0
 49
-1.0
 49
1.0
 49
-1.0
 49
1.0
 49
-1.0
  0
LTYPE
  2
ACISOTGL
 70
     0
  3
_ _ _ _ _
 72
    65
 73
     2
 40
3.0
 49
2.0
 49
-1.0
  0
ENDTAB
  0
TABLE
  2
LAYER
 70
     1
  0
LAYER
  2
0
 70
     0
 62
     7
  6
CONTINUOUS
  0
ENDTAB
  0
TABLE
  2
STYLE
 70
     6
  0
STYLE
  2
STANDARD
 70
     0
 40
0.0
 41
1.0
 50
0.0
 71
     0
 42
0.2
  3
txt
  4

  0
STYLE
  2
ANNOTATIVE
 70
     0
 40
0.0
 41
1.0
 50
0.0
 71
     0
 42
0.2
  3
txt
  4

  0
STYLE
  2

 70
     1
 40
0.0
 41
1.0
 50
0.0
 71
     0
 42
0.2
  3
ltypeshp.shx
  4

  0
STYLE
  2
ACANSTS
 70
     0
 40
1.0
 41
1.0
 50
0.0
 71
     0
 42
0.2
  3
romans.shx
  4
extfont.shx
  0
STYLE
  2
ACANSGDT
 70
     0
 40
0.0
 41
1.0
 50
0.0
 71
     0
 42
0.2
  3
amgdt.shx
  4

  0
STYLE
  2
ACISOGDT
 70
     0
 40
0.0
 41
1.0
 50
0.0
 71
     0
 42
2.5
  3
amgdt.shx
  4

  0
ENDTAB
  0
TABLE
  2
VIEW
 70
     0
  0
ENDTAB
  0
TABLE
  2
UCS
 70
     0
  0
ENDTAB
  0
TABLE
  2
APPID
 70
    12
  0
APPID
  2
ACAD
 70
     0
  0
APPID
  2
ACADANNOTATIVE
 70
     0
  0
APPID
  2
MCAD_NO_VIS
 70
     0
  0
APPID
  2
ACAD_TEMP_GRAPHIC
 70
     0
  0
APPID
  2
ACATTRIBSERVICES
 70
     0
  0
APPID
  2
DESIGNERASSEMBLIES
 70
     0
  0
APPID
  2
ACAD_DSTYLE_DIMBREAK
 70
     0
  0
APPID
  2
ACAD_DSTYLE_DIMJAG
 70
     0
  0
APPID
  2
ACAD_NAV_VCDISPLAY
 70
     0
  0
APPID
  2
ACAD_PSEXT
 70
     0
  0
APPID
  2
ACAD_EXEMPT_FROM_CAD_STANDARDS
 70
     0
  0
APPID
  2
ACAD_MLEADERVER
 70
     0
  0
ENDTAB
  0
TABLE
  2
DIMSTYLE
 70
    16
  0
DIMSTYLE
  2
STANDARD
 70
     0
  3

  4

  5

  6

  7

 40
1.0
 41
0.18
 42
0.0625
 43
0.38
 44
0.18
 45
0.0
 46
0.0
 47
0.0
 48
0.0
140
0.18
141
0.09
142
0.0
143
25.399999999999999
144
1.0
145
0.0
146
1.0
147
0.09
 71
     0
 72
     0
 73
     1
 74
     1
 75
     0
 76
     0
 77
     0
 78
     0
170
     0
171
     2
172
     0
173
     0
174
     0
175
     0
176
     0
177
     0
178
     0
  0
DIMSTYLE
  2
ANNOTATIVE
 70
     0
  3

  4

  5

  6

  7

 40
1.0
 41
0.18
 42
0.0625
 43
0.38
 44
0.18
 45
0.0
 46
0.0
 47
0.0
 48
0.0
140
0.18
141
0.09
142
0.0
143
25.399999999999999
144
1.0
145
0.0
146
1.0
147
0.09
 71
     0
 72
     0
 73
     1
 74
     1
 75
     0
 76
     0
 77
     0
 78
     0
170
     0
171
     2
172
     0
173
     0
174
     0
175
     0
176
     0
177
     0
178
     0
  0
DIMSTYLE
  2
AM_ANSI
 70
     0
  3

  4
mm
  5

  6

  7

 40
1.0
 41
0.1
 42
0.05
 43
0.5
 44
0.1
 45
0.0
 46
0.0
 47
0.1
 48
0.1
140
0.12
141
0.0
142
0.0
143
25.399999999999999
144
1.0
145
0.0
146
0.71
147
0.06
 71
     0
 72
     0
 73
     1
 74
     1
 75
     0
 76
     0
 77
     0
 78
     7
170
     0
171
     2
172
     0
173
     0
174
     0
175
     0
176
   256
177
   256
178
     2
  0
DIMSTYLE
  2
AM_ANSI$3
 70
     0
  3

  4
mm
  5

  6

  7

 40
1.0
 41
0.1
 42
0.05
 43
0.5
 44
0.1
 45
0.0
 46
0.0
 47
0.1
 48
0.1
140
0.12
141
0.0
142
0.0
143
25.399999999999999
144
1.0
145
0.0
146
0.71
147
0.06
 71
     0
 72
     0
 73
     1
 74
     1
 75
     0
 76
     0
 77
     0
 78
     7
170
     0
171
     2
172
     0
173
     0
174
     0
175
     0
176
   256
177
   256
178
     2
  0
DIMSTYLE
  2
AM_ANSI$4
 70
     0
  3

  4
mm
  5

  6

  7

 40
1.0
 41
0.1
 42
0.05
 43
0.5
 44
0.1
 45
0.0
 46
0.0
 47
0.1
 48
0.1
140
0.12
141
0.0
142
0.0
143
25.399999999999999
144
1.0
145
0.0
146
0.71
147
0.06
 71
     0
 72
     0
 73
     1
 74
     1
 75
     0
 76
     0
 77
     0
 78
     7
170
     0
171
     2
172
     0
173
     0
174
     0
175
     0
176
   256
177
   256
178
     2
  0
DIMSTYLE
  2
AM_ANSI$7
 70
     0
  3

  4
mm
  5

  6

  7

 40
1.0
 41
0.1
 42
0.05
 43
0.5
 44
0.1
 45
0.0
 46
0.0
 47
0.1
 48
0.1
140
0.24
141
0.0
142
0.0
143
25.399999999999999
144
1.0
145
0.0
146
0.71
147
0.06
 71
     0
 72
     0
 73
     1
 74
     1
 75
     0
 76
     0
 77
     0
 78
     7
170
     0
171
     2
172
     0
173
     0
174
     0
175
     0
176
   256
177
   256
178
     2
  0
DIMSTYLE
  2
AM_ANSI$SF
 70
     0
  3

  4
mm
  5

  6

  7

 40
1.0
 41
0.1
 42
0.05
 43
0.5
 44
0.1
 45
0.0
 46
0.0
 47
0.1
 48
0.1
140
0.12
141
0.0
142
0.0
143
25.399999999999999
144
1.0
145
0.0
146
0.71
147
0.06
 71
     0
 72
     0
 73
     1
 74
     1
 75
     1
 76
     1
 77
     0
 78
     7
170
     0
171
     2
172
     0
173
     0
174
     0
175
     0
176
   256
177
   256
178
     2
  0
DIMSTYLE
  2
AM_ANSI$SH
 70
     0
  3

  4
mm
  5

  6

  7

 40
1.0
 41
0.1
 42
0.05
 43
0.5
 44
0.1
 45
0.0
 46
0.0
 47
0.1
 48
0.1
140
0.12
141
0.0
142
0.0
143
25.399999999999999
144
1.0
145
0.0
146
0.71
147
0.06
 71
     0
 72
     0
 73
     1
 74
     1
 75
     1
 76
     1
 77
     0
 78
     7
170
     0
171
     2
172
     0
173
     1
174
     0
175
     0
176
   256
177
   256
178
     2
  0
DIMSTYLE
  2
AM_ISO
 70
     0
  3

  4
"
  5

  6

  7

 40
1.0
 41
2.5
 42
1.0
 43
10.0
 44
1.0
 45
0.0
 46
0.0
 47
0.1
 48
0.1
140
3.5
141
0.0
142
0.0
143
0.0393701
144
1.0
145
0.0
146
0.71
147
1.5
 71
     0
 72
     0
 73
     0
 74
     0
 75
     0
 76
     0
 77
     1
 78
     8
170
     0
171
     2
172
     1
173
     0
174
     0
175
     0
176
   256
177
   256
178
     2
  0
DIMSTYLE
  2
AM_ISO$3
 70
     0
  3

  4
"
  5

  6

  7

 40
1.0
 41
2.5
 42
1.0
 43
10.0
 44
1.0
 45
0.0
 46
0.0
 47
0.1
 48
0.1
140
3.5
141
0.0
142
0.0
143
0.0393701
144
1.0
145
0.0
146
0.71
147
1.5
 71
     0
 72
     0
 73
     0
 74
     1
 75
     0
 76
     0
 77
     1
 78
     8
170
     0
171
     2
172
     0
173
     0
174
     0
175
     0
176
   256
177
   256
178
     2
  0
DIMSTYLE
  2
AM_ISO$4
 70
     0
  3

  4
"
  5

  6

  7

 40
1.0
 41
2.5
 42
1.0
 43
10.0
 44
1.0
 45
0.0
 46
0.0
 47
0.1
 48
0.1
140
3.5
141
0.0
142
0.0
143
0.0393701
144
1.0
145
0.0
146
0.71
147
1.5
 71
     0
 72
     0
 73
     0
 74
     1
 75
     0
 76
     0
 77
     1
 78
     8
170
     0
171
     2
172
     0
173
     0
174
     0
175
     0
176
   256
177
   256
178
     2
  0
DIMSTYLE
  2
AM_ISO$6
 70
     0
  3

  4
"
  5

  6

  7

 40
1.0
 41
2.5
 42
1.0
 43
10.0
 44
1.0
 45
0.0
 46
0.0
 47
0.1
 48
0.1
140
3.5
141
0.0
142
0.0
143
0.0393701
144
1.0
145
0.0
146
0.71
147
1.5
 71
     0
 72
     0
 73
     0
 74
     0
 75
     0
 76
     0
 77
     0
 78
     8
170
     0
171
     2
172
     1
173
     0
174
     0
175
     0
176
   256
177
   256
178
     2
  0
DIMSTYLE
  2
AM_ISO$7
 70
     0
  3

  4
"
  5

  6

  7

 40
1.0
 41
2.5
 42
1.0
 43
10.0
 44
1.0
 45
0.0
 46
0.0
 47
0.1
 48
0.1
140
5.0
141
0.0
142
0.0
143
0.0393701
144
1.0
145
0.0
146
0.71
147
1.5
 71
     0
 72
     0
 73
     0
 74
     0
 75
     0
 76
     0
 77
     1
 78
     8
170
     0
171
     2
172
     1
173
     0
174
     0
175
     0
176
   256
177
   256
178
     2
  0
DIMSTYLE
  2
AM_ISO$SF
 70
     0
  3

  4
"
  5

  6

  7

 40
1.0
 41
2.5
 42
1.0
 43
10.0
 44
1.0
 45
0.0
 46
0.0
 47
0.1
 48
0.1
140
3.5
141
0.0
142
0.0
143
0.0393701
144
1.0
145
0.0
146
0.71
147
1.5
 71
     0
 72
     0
 73
     0
 74
     0
 75
     1
 76
     1
 77
     1
 78
     8
170
     0
171
     2
172
     1
173
     0
174
     0
175
     0
176
   256
177
   256
178
     2
  0
DIMSTYLE
  2
AM_ISO$SH
 70
     0
  3

  4
"
  5

  6
GENAXEH
  7

 40
1.0
 41
2.5
 42
1.0
 43
10.0
 44
1.0
 45
0.0
 46
0.0
 47
0.1
 48
0.1
140
3.5
141
0.0
142
0.0
143
0.0393701
144
2.0
145
0.0
146
0.71
147
1.5
 71
     0
 72
     0
 73
     0
 74
     0
 75
     1
 76
     1
 77
     1
 78
     8
170
     0
171
     2
172
     1
173
     1
174
     0
175
     0
176
   256
177
   256
178
     2
  0
DIMSTYLE
  2
AM_JIS
 70
     0
  3

  4
"
  5

  6

  7

 40
1.0
 41
2.0
 42
1.0
 43
8.0
 44
1.0
 45
0.0
 46
0.0
 47
0.1
 48
0.1
140
2.5
141
0.0
142
0.0
143
0.0393701
144
1.0
145
0.0
146
0.71
147
1.5
 71
     0
 72
     0
 73
     0
 74
     0
 75
     0
 76
     0
 77
     3
 78
     8
170
     0
171
     2
172
     1
173
     0
174
     0
175
     0
176
     2
177
     2
178
     4
  0
ENDTAB
  0
ENDSEC
  0
SECTION
  2
BLOCKS
  0
BLOCK
  8
0
  2
$MODEL_SPACE
 70
     0
 10
0.0
 20
0.0
 30
0.0
  3
$MODEL_SPACE
  1

  0
ENDBLK
  5
AD1
  8
0
  0
BLOCK
 67
     1
  8
0
  2
$PAPER_SPACE
 70
     0
 10
0.0
 20
0.0
 30
0.0
  3
$PAPER_SPACE
  1

  0
ENDBLK
  5
ACD
 67
     1
  8
0
  0
BLOCK
  8
0
  2
GENAXEH
 70
     0
 10
0.0
 20
0.0
 30
0.0
  3
GENAXEH
  1

  0
LINE
  5
57D
  8
0
 10
-1.0
 20
0.0
 30
0.0
 11
1.0
 21
0.0
 31
0.0
  0
ENDBLK
  5
57E
  8
0
  0
BLOCK
  8
0
  2
_ACMFILLEDHALF
 70
     0
 10
0.0
 20
0.0
 30
0.0
  3
_ACMFILLEDHALF
  1

  0
TRACE
  5
B4A
  8
0
  6
CONTINUOUS
 62
     0
 10
-0.8
 20
0.0
 30
0.0
 11
-1.0
 21
0.166666666
 31
0.0
 12
0.0
 22
0.0
 32
0.0
 13
0.0
 23
0.0
 33
0.0
  0
LINE
  5
B4B
  8
0
  6
CONTINUOUS
 62
     0
 10
-1.0
 20
0.0
 30
0.0
 11
-0.8
 21
0.0
 31
0.0
  0
ENDBLK
  5
B49
  8
0
  0
BLOCK
  8
0
  2
*U7
 70
     1
 10
0.0
 20
0.0
 30
0.0
  3
*U7
  1

  0
TEXT
  5
C3C
  8
0
  6
CONTINUOUS
 62
     0
 10
5.0768189741019834
 20
5.9826223594979657
 30
0.0
 40
15.0
  1
ＶＸ０８－００３ＥＭ～ＶＸ０８
  0
TEXT
  5
C3D
  8
0
  6
CONTINUOUS
 62
     0
 10
2.17909170137471
 20
-19.18783218595658
 30
0.0
 40
15.0
  1
－０３０ＥＭ
  0
ENDBLK
  5
C3F
  8
0
  0
ENDSEC
  0
SECTION
  2
ENTITIES
  0
LINE
  5
57F
  8
0
  6
CENTER
 62
     1
 10
-215.2809399999999
 20
122.6431399999998
 30
0.0
 11
-215.2809399999999
 21
451.00716999999997
 31
0.0
  0
LINE
  5
580
  8
0
  6
CENTER
 62
     7
 10
-366.16109999999992
 20
301.54793999999993
 30
0.0
 11
-65.880843999999996
 21
301.54793999999993
 31
0.0
  0
LINE
  5
581
  8
0
  6
CENTER
 62
     7
 10
-968.74846999999966
 20
686.86626999999976
 30
0.0
 11
-492.22980000000001
 21
686.86626999999976
 31
0.0
  0
LINE
  5
582
  8
0
  6
CONTINUOUS
 62
     3
 10
-757.24377000000004
 20
748.44488999999999
 30
0.0
 11
-722.74377000000004
 21
748.44488999999999
 31
0.0
  0
LINE
  5
583
  8
0
  6
CONTINUOUS
 62
     7
 10
-757.24377000000004
 20
726.34094000000005
 30
0.0
 11
-722.74377000000004
 21
726.34094000000005
 31
0.0
  0
LINE
  5
584
  8
0
  6
CONTINUOUS
 62
     7
 10
-706.81353999999999
 20
815.61005
 30
0.0
 11
-695.74377000000004
 21
815.99663999999984
 31
0.0
  0
LINE
  5
585
  8
0
  6
CONTINUOUS
 62
     7
 10
-722.74377000000004
 20
572.75829999999996
 30
0.0
 11
-722.74377000000004
 21
682.86626999999964
 31
0.0
  0
LINE
  5
586
  8
0
  6
CONTINUOUS
 62
     7
 10
-708.74383999999986
 20
550.47931000000005
 30
0.0
 11
-708.74383999999986
 21
677.32683999999995
 31
0.0
  0
LINE
  5
587
  8
0
  6
CONTINUOUS
 62
     7
 10
-720.26470999999981
 20
803.94524999999987
 30
0.0
 11
-711.22284000000002
 21
805.5396099999997
 31
0.0
  0
LINE
  5
588
  8
0
  6
CONTINUOUS
 62
     7
 10
-757.24377000000004
 20
760.36626999999999
 30
0.0
 11
-727.56934000000001
 21
761.40252999999984
 31
0.0
  0
LINE
  5
589
  8
0
  6
CONTINUOUS
 62
     7
 10
-573.74377000000004
 20
707.86626999999964
 30
0.0
 11
-503.74376999999993
 21
707.86626999999964
 31
0.0
  0
LINE
  5
58A
  8
0
  6
CONTINUOUS
 62
     7
 10
-573.74377000000004
 20
665.86626999999976
 30
0.0
 11
-503.74376999999993
 21
665.86626999999976
 31
0.0
  0
LINE
  5
58B
  8
0
  6
CONTINUOUS
 62
     7
 10
-575.74377000000004
 20
709.36626999999999
 30
0.0
 11
-573.74377000000004
 21
709.36626999999999
 31
0.0
  0
LINE
  5
58C
  8
0
  6
CONTINUOUS
 62
     7
 10
-575.74377000000004
 20
664.36626999999999
 30
0.0
 11
-573.74377000000004
 21
664.36626999999999
 31
0.0
  0
LINE
  5
58D
  8
0
  6
CONTINUOUS
 62
     7
 10
-573.74377000000004
 20
664.36626999999999
 30
0.0
 11
-573.74377000000004
 21
709.36626999999999
 31
0.0
  0
LINE
  5
58E
  8
0
  6
CONTINUOUS
 62
     7
 10
-503.74376999999993
 20
665.86626999999976
 30
0.0
 11
-503.74376999999993
 21
707.86626999999964
 31
0.0
  0
LINE
  5
58F
  8
0
  6
CONTINUOUS
 62
     7
 10
-559.74377000000004
 20
692.86626999999999
 30
0.0
 11
-559.74377000000004
 21
680.86626999999999
 31
0.0
  0
LINE
  5
590
  8
0
  6
CONTINUOUS
 62
     7
 10
-695.74377000000004
 20
547.12829999999985
 30
0.0
 11
-695.74377000000004
 21
682.86626999999964
 31
0.0
  0
LINE
  5
591
  8
0
  6
CONTINUOUS
 62
     7
 10
-708.74383999999986
 20
609.30047999999999
 30
0.0
 11
-695.74377000000004
 21
609.30047999999999
 31
0.0
  0
LINE
  5
592
  8
0
  6
CONTINUOUS
 62
     7
 10
-708.74383999999986
 20
635.30175999999994
 30
0.0
 11
-695.74377000000004
 21
635.30175999999994
 31
0.0
  0
LINE
  5
593
  8
0
  6
CONTINUOUS
 62
     7
 10
-708.74383999999986
 20
738.43079
 30
0.0
 11
-695.74377000000004
 21
738.43079
 31
0.0
  0
LINE
  5
594
  8
0
  6
CONTINUOUS
 62
     7
 10
-708.74383999999986
 20
764.43206999999984
 30
0.0
 11
-695.74377000000004
 21
764.43206999999984
 31
0.0
  0
LINE
  5
595
  8
0
  6
CONTINUOUS
 62
     7
 10
-559.74377000000004
 20
680.86626999999999
 30
0.0
 11
-503.74376999999993
 21
680.86626999999999
 31
0.0
  0
LINE
  5
596
  8
0
  6
CONTINUOUS
 62
     7
 10
-559.74377000000004
 20
692.86626999999999
 30
0.0
 11
-503.74376999999993
 21
692.86626999999999
 31
0.0
  0
LINE
  5
597
  8
0
  6
CONTINUOUS
 62
     3
 10
-757.24377000000004
 20
625.2876
 30
0.0
 11
-722.74377000000004
 21
625.2876
 31
0.0
  0
LINE
  5
598
  8
0
  6
CONTINUOUS
 62
     7
 10
-757.24377000000004
 20
647.39160000000004
 30
0.0
 11
-722.74377000000004
 21
647.39160000000004
 31
0.0
  0
LINE
  5
599
  8
0
  6
CONTINUOUS
 62
     7
 10
-706.81353999999999
 20
558.12249999999995
 30
0.0
 11
-695.74370999999985
 21
557.73590000000002
 31
0.0
  0
LINE
  5
59A
  8
0
  6
CONTINUOUS
 62
     7
 10
-720.26476999999988
 20
569.78728999999998
 30
0.0
 11
-711.22284000000002
 21
568.19292999999982
 31
0.0
  0
LINE
  5
59B
  8
0
  6
CONTINUOUS
 62
     7
 10
-757.24377000000004
 20
613.36626999999999
 30
0.0
 11
-727.56921
 21
612.33001999999999
 31
0.0
  0
LINE
  5
59C
  8
0
  6
CONTINUOUS
 62
     7
 10
-757.2438400000002
 20
613.36626999999999
 30
0.0
 11
-757.2438400000002
 21
760.36632999999983
 31
0.0
  0
LINE
  5
59D
  8
0
  6
CENTER
 62
     7
 10
-711.74370999999996
 20
670.15790000000004
 30
0.0
 11
-711.74370999999996
 21
701.47118999999986
 31
0.0
  0
LINE
  5
59E
  8
0
  6
CONTINUOUS
 62
     7
 10
-728.24370999999985
 20
682.86626999999964
 30
0.0
 11
-695.24370999999996
 21
682.86626999999964
 31
0.0
  0
LINE
  5
59F
  8
0
  6
CONTINUOUS
 62
     7
 10
-728.24370999999985
 20
690.86620999999968
 30
0.0
 11
-695.24370999999996
 21
690.86620999999968
 31
0.0
  0
LINE
  5
5A0
  8
0
  6
CONTINUOUS
 62
     7
 10
-695.74377000000004
 20
690.86620999999968
 30
0.0
 11
-695.74377000000004
 21
826.60424999999987
 31
0.0
  0
LINE
  5
5A1
  8
0
  6
CONTINUOUS
 62
     7
 10
-708.74383999999986
 20
696.40570000000002
 30
0.0
 11
-708.74383999999986
 21
823.25316999999995
 31
0.0
  0
LINE
  5
5A2
  8
0
  6
CONTINUOUS
 62
     7
 10
-722.74377000000004
 20
690.86620999999968
 30
0.0
 11
-722.74377000000004
 21
801.00744999999984
 31
0.0
  0
LINE
  5
5A3
  8
0
  6
CONTINUOUS
 62
     3
 10
-767.24383999999975
 20
625.2876
 30
0.0
 11
-757.2438400000002
 21
625.2876
 31
0.0
  0
LINE
  5
5A4
  8
0
  6
CONTINUOUS
 62
     3
 10
-767.24383999999975
 20
748.44494999999984
 30
0.0
 11
-757.2438400000002
 21
748.44494999999984
 31
0.0
  0
LINE
  5
5A5
  8
0
  6
CONTINUOUS
 62
     7
 10
-767.24383999999975
 20
726.34094000000005
 30
0.0
 11
-757.2438400000002
 21
726.34094000000005
 31
0.0
  0
LINE
  5
5A6
  8
0
  6
CONTINUOUS
 62
     7
 10
-767.24383999999975
 20
647.39160000000004
 30
0.0
 11
-757.2438400000002
 21
647.39160000000004
 31
0.0
  0
LINE
  5
5A7
  8
0
  6
CONTINUOUS
 62
     7
 10
-763.38341999999989
 20
613.58062999999981
 30
0.0
 11
-757.24377000000004
 21
613.36626999999999
 31
0.0
  0
LINE
  5
5A8
  8
0
  6
CONTINUOUS
 62
     7
 10
-763.38341999999989
 20
760.15185999999983
 30
0.0
 11
-757.2438400000002
 21
760.36626999999999
 31
0.0
  0
LINE
  5
5A9
  8
0
  6
CONTINUOUS
 62
     7
 10
-831.24384000000009
 20
732.86626999999964
 30
0.0
 11
-789.90111999999999
 21
732.86626999999964
 31
0.0
  0
LINE
  5
5AA
  8
0
  6
CONTINUOUS
 62
     7
 10
-767.24383999999975
 20
617.57825000000003
 30
0.0
 11
-767.24383999999975
 21
756.15430000000003
 31
0.0
  0
LINE
  5
5AB
  8
0
  6
CONTINUOUS
 62
     7
 10
-831.24384000000009
 20
640.86626999999976
 30
0.0
 11
-789.90111999999999
 21
640.86626999999976
 31
0.0
  0
LINE
  5
5AC
  8
0
  6
CONTINUOUS
 62
     7
 10
-805.24384000000009
 20
699.86626999999964
 30
0.0
 11
-773.94115999999985
 21
699.86626999999964
 31
0.0
  0
LINE
  5
5AD
  8
0
  6
CONTINUOUS
 62
     7
 10
-768.67078000000004
 20
620.29320999999982
 30
0.0
 11
-775.45147999999983
 21
627.07384999999999
 31
0.0
  0
LINE
  5
5AE
  8
0
  6
CONTINUOUS
 62
     7
 10
-805.24384000000009
 20
673.86626999999987
 30
0.0
 11
-773.94115999999985
 21
673.86626999999987
 31
0.0
  0
LINE
  5
5AF
  8
0
  6
CONTINUOUS
 62
     7
 10
-808.24383999999986
 20
676.86626999999999
 30
0.0
 11
-808.24383999999986
 21
696.86626999999999
 31
0.0
  0
LINE
  5
5B0
  8
0
  6
CONTINUOUS
 62
     7
 10
-831.24384000000009
 20
630.36626999999999
 30
0.0
 11
-831.24384000000009
 21
743.36626999999999
 31
0.0
  0
LINE
  5
5B1
  8
0
  6
CONTINUOUS
 62
     7
 10
-775.45141999999998
 20
746.65863000000002
 30
0.0
 11
-768.67078000000004
 21
753.43926999999985
 31
0.0
  0
LINE
  5
5B2
  8
0
  6
CONTINUOUS
 62
     7
 10
-770.94115999999985
 20
676.09777999999994
 30
0.0
 11
-770.94115999999985
 21
698.09833000000003
 31
0.0
  0
LINE
  5
5B3
  8
0
  6
CONTINUOUS
 62
     7
 10
-831.24384000000009
 20
743.36626999999999
 30
0.0
 11
-778.81249999999989
 21
745.19719999999984
 31
0.0
  0
LINE
  5
5B4
  8
0
  6
CONTINUOUS
 62
     7
 10
-778.81249999999989
 20
628.53533999999979
 30
0.0
 11
-831.24377000000004
 21
630.36626999999999
 31
0.0
  0
LINE
  5
5B5
  8
0
  6
CONTINUOUS
 62
     7
 10
-831.24384000000009
 20
718.80620999999985
 30
0.0
 11
-795.15148999999985
 21
718.80620999999985
 31
0.0
  0
LINE
  5
5B6
  8
0
  6
CONTINUOUS
 62
     7
 10
-831.24384000000009
 20
654.92632999999978
 30
0.0
 11
-795.15148999999985
 21
654.92632999999978
 31
0.0
  0
LINE
  5
5B7
  8
0
  6
CONTINUOUS
 62
     3
 10
-939.51671999999985
 20
621.36626999999999
 30
0.0
 11
-859.51684999999975
 21
621.36626999999999
 31
0.0
  0
LINE
  5
5B8
  8
0
  6
CONTINUOUS
 62
     3
 10
-859.51684999999975
 20
621.36626999999999
 30
0.0
 11
-859.51684999999975
 21
614.36626999999999
 31
0.0
  0
LINE
  5
5B9
  8
0
  6
CONTINUOUS
 62
     3
 10
-861.01684999999998
 20
597.86626999999999
 30
0.0
 11
-861.01684999999998
 21
614.36626999999999
 31
0.0
  0
LINE
  5
5BA
  8
0
  6
CONTINUOUS
 62
     3
 10
-919.01684999999998
 20
610.36626999999999
 30
0.0
 11
-919.01684999999998
 21
617.86626999999999
 31
0.0
  0
LINE
  5
5BB
  8
0
  6
CONTINUOUS
 62
     3
 10
-934.01671999999985
 20
617.86626999999999
 30
0.0
 11
-934.01671999999985
 21
610.36626999999999
 31
0.0
  0
LINE
  5
5BC
  8
0
  6
CONTINUOUS
 62
     3
 10
-938.01671999999996
 20
617.86626999999999
 30
0.0
 11
-938.01671999999996
 21
597.86626999999999
 31
0.0
  0
LINE
  5
5BD
  8
0
  6
CONTINUOUS
 62
     3
 10
-908.81682999999987
 20
594.86626999999976
 30
0.0
 11
-873.21685999999988
 21
594.86626999999976
 31
0.0
  0
LINE
  5
5BE
  8
0
  6
CONTINUOUS
 62
     3
 10
-938.01671999999996
 20
597.86626999999999
 30
0.0
 11
-861.01684999999998
 21
597.86626999999999
 31
0.0
  0
LINE
  5
5BF
  8
0
  6
CONTINUOUS
 62
     3
 10
-938.01671999999996
 20
614.36626999999999
 30
0.0
 11
-934.01671999999985
 21
614.36626999999999
 31
0.0
  0
LINE
  5
5C0
  8
0
  6
CONTINUOUS
 62
     3
 10
-868.01684999999998
 20
597.8662099999998
 30
0.0
 11
-873.21685999999988
 21
594.8662099999998
 31
0.0
  0
LINE
  5
5C1
  8
0
  6
CONTINUOUS
 62
     3
 10
-908.81688999999994
 20
594.86632999999995
 30
0.0
 11
-914.01691000000005
 21
597.86632999999995
 31
0.0
  0
LINE
  5
5C2
  8
0
  6
CONTINUOUS
 62
     3
 10
-941.51671999999985
 20
617.86626999999999
 30
0.0
 11
-941.51671999999985
 21
602.86724999999979
 31
0.0
  0
LINE
  5
5C3
  8
0
  6
CONTINUOUS
 62
     3
 10
-938.01671999999996
 20
602.86724999999979
 30
0.0
 11
-941.51671999999985
 21
602.86724999999979
 31
0.0
  0
LINE
  5
5C4
  8
0
  6
CONTINUOUS
 62
     3
 10
-922.51684999999998
 20
617.86626999999999
 30
0.0
 11
-922.51684999999998
 21
610.36626999999999
 31
0.0
  0
LINE
  5
5C5
  8
0
  6
CONTINUOUS
 62
     3
 10
-930.51671999999974
 20
617.86626999999999
 30
0.0
 11
-930.51671999999974
 21
610.36626999999999
 31
0.0
  0
LINE
  5
5C6
  8
0
  6
CONTINUOUS
 62
     3
 10
-919.01684999999998
 20
614.36626999999999
 30
0.0
 11
-859.51684999999975
 21
614.36626999999999
 31
0.0
  0
LINE
  5
5C7
  8
0
  6
CONTINUOUS
 62
     3
 10
-941.51671999999985
 20
617.86626999999999
 30
0.0
 11
-859.51684999999975
 21
617.86626999999999
 31
0.0
  0
LINE
  5
5C8
  8
0
  6
CONTINUOUS
 62
     3
 10
-939.51671999999985
 20
621.36626999999999
 30
0.0
 11
-939.51671999999985
 21
617.86626999999999
 31
0.0
  0
LINE
  5
5C9
  8
0
  6
CONTINUOUS
 62
     7
 10
-860.74384000000032
 20
622.36626999999999
 30
0.0
 11
-860.74384000000032
 21
621.36626999999999
 31
0.0
  0
LINE
  5
5CA
  8
0
  6
CONTINUOUS
 62
     7
 10
-919.7438400000002
 20
622.36626999999999
 30
0.0
 11
-919.7438400000002
 21
621.36626999999999
 31
0.0
  0
LINE
  5
5CB
  8
0
  6
CONTINUOUS
 62
     7
 10
-841.0380899999999
 20
731.79516999999998
 30
0.0
 11
-845.18383999999969
 21
747.27630999999985
 31
0.0
  0
LINE
  5
5CC
  8
0
  6
CONTINUOUS
 62
     7
 10
-841.0380899999999
 20
730.88513
 30
0.0
 11
-845.18383999999969
 21
746.36626999999999
 31
0.0
  0
LINE
  5
5CD
  8
0
  6
CONTINUOUS
 62
     7
 10
-841.0380899999999
 20
729.03521999999998
 30
0.0
 11
-845.18383999999969
 21
744.51635999999985
 31
0.0
  0
LINE
  5
5CE
  8
0
  6
CONTINUOUS
 62
     7
 10
-839.24384000000009
 20
742.86626999999999
 30
0.0
 11
-839.24384000000009
 21
630.86626999999999
 31
0.0
  0
LINE
  5
5CF
  8
0
  6
CONTINUOUS
 62
     7
 10
-961.24383999999998
 20
734.88629000000003
 30
0.0
 11
-961.24383999999998
 21
691.86626999999964
 31
0.0
  0
LINE
  5
5D0
  8
0
  6
CONTINUOUS
 62
     7
 10
-958.97388000000012
 20
736.61626999999999
 30
0.0
 11
-956.74383999999998
 21
736.61626999999999
 31
0.0
  0
LINE
  5
5D1
  8
0
  6
CONTINUOUS
 62
     7
 10
-959.04381999999987
 20
722.55620999999985
 30
0.0
 11
-956.94385
 21
722.55620999999985
 31
0.0
  0
LINE
  5
5D2
  8
0
  6
CONTINUOUS
 62
     7
 10
-959.47388000000001
 20
736.4862099999998
 30
0.0
 11
-960.74384000000032
 21
735.74621999999999
 31
0.0
  0
LINE
  5
5D3
  8
0
  6
CONTINUOUS
 62
     7
 10
-959.48388999999986
 20
734.36632999999983
 30
0.0
 11
-960.76385000000005
 21
733.59631000000002
 31
0.0
  0
LINE
  5
5D4
  8
0
  6
CONTINUOUS
 62
     7
 10
-959.49390000000005
 20
729.82623000000001
 30
0.0
 11
-960.79387999999994
 21
728.97625999999957
 31
0.0
  0
LINE
  5
5D5
  8
0
  6
CONTINUOUS
 62
     7
 10
-959.43389999999988
 20
722.47625999999968
 30
0.0
 11
-960.63385000000005
 21
721.96624999999983
 31
0.0
  0
LINE
  5
5D6
  8
0
  6
CONTINUOUS
 62
     7
 10
-958.96387000000004
 20
734.50629000000004
 30
0.0
 11
-956.24384000000032
 21
734.50629000000004
 31
0.0
  0
LINE
  5
5D7
  8
0
  6
CONTINUOUS
 62
     7
 10
-958.94384999999988
 20
729.99627999999984
 30
0.0
 11
-956.24384000000032
 21
729.99627999999984
 31
0.0
  0
LINE
  5
5D8
  8
0
  6
CONTINUOUS
 62
     7
 10
-959.09386999999981
 20
720.60625999999979
 30
0.0
 11
-957.2438400000002
 21
720.60625999999979
 31
0.0
  0
LINE
  5
5D9
  8
0
  6
CONTINUOUS
 62
     7
 10
-958.97388000000012
 20
728.85625999999968
 30
0.0
 11
-957.2438400000002
 21
728.85625999999968
 31
0.0
  0
LINE
  5
5DA
  8
0
  6
CONTINUOUS
 62
     7
 10
-958.9938400000002
 20
733.36626999999964
 30
0.0
 11
-957.2438400000002
 21
733.36626999999964
 31
0.0
  0
LINE
  5
5DB
  8
0
  6
CONTINUOUS
 62
     7
 10
-959.00385000000006
 20
735.46624999999983
 30
0.0
 11
-956.74383999999998
 21
735.46624999999983
 31
0.0
  0
LINE
  5
5DC
  8
0
  6
CONTINUOUS
 62
     7
 10
-959.47388000000001
 20
728.71636999999964
 30
0.0
 11
-960.75385000000006
 21
727.96636999999998
 31
0.0
  0
LINE
  5
5DD
  8
0
  6
CONTINUOUS
 62
     7
 10
-959.38391000000001
 20
720.56627999999967
 30
0.0
 11
-960.53386999999998
 21
720.21630999999968
 31
0.0
  0
LINE
  5
5DE
  8
0
  6
CONTINUOUS
 62
     7
 10
-959.45385999999985
 20
735.36632999999983
 30
0.0
 11
-960.69385
 21
734.73632999999984
 31
0.0
  0
LINE
  5
5DF
  8
0
  6
CONTINUOUS
 62
     7
 10
-959.46375000000012
 20
733.25629000000004
 30
0.0
 11
-960.71380999999997
 21
732.58623999999998
 31
0.0
  0
LINE
  5
5E0
  8
0
  6
CONTINUOUS
 62
     7
 10
-957.2438400000002
 20
712.86626999999964
 30
0.0
 11
-960.24383999999998
 21
712.86626999999964
 31
0.0
  0
LINE
  5
5E1
  8
0
  6
CONTINUOUS
 62
     7
 10
-957.2438400000002
 20
710.86626999999999
 30
0.0
 11
-960.24383999999998
 21
710.86626999999999
 31
0.0
  0
LINE
  5
5E2
  8
0
  6
CONTINUOUS
 62
     7
 10
-957.2438400000002
 20
702.86626999999987
 30
0.0
 11
-960.24383999999998
 21
702.86626999999987
 31
0.0
  0
LINE
  5
5E3
  8
0
  6
CONTINUOUS
 62
     7
 10
-957.2438400000002
 20
700.86626999999999
 30
0.0
 11
-960.24383999999998
 21
700.86626999999999
 31
0.0
  0
LINE
  5
5E4
  8
0
  6
CONTINUOUS
 62
     7
 10
-957.2438400000002
 20
692.86626999999999
 30
0.0
 11
-960.24383999999998
 21
692.86626999999999
 31
0.0
  0
LINE
  5
5E5
  8
0
  6
CONTINUOUS
 62
     7
 10
-957.2438400000002
 20
690.86626999999964
 30
0.0
 11
-960.24383999999998
 21
690.86626999999964
 31
0.0
  0
LINE
  5
5E6
  8
0
  6
CONTINUOUS
 62
     7
 10
-959.24383999999998
 20
702.47625999999968
 30
0.0
 11
-959.24383999999998
 21
701.26629999999955
 31
0.0
  0
LINE
  5
5E7
  8
0
  6
CONTINUOUS
 62
     7
 10
-959.24383999999998
 20
692.47625999999957
 30
0.0
 11
-959.24383999999998
 21
691.31622000000004
 31
0.0
  0
LINE
  5
5E8
  8
0
  6
CONTINUOUS
 62
     7
 10
-959.24383999999998
 20
712.49627999999996
 30
0.0
 11
-959.24383999999998
 21
711.12627999999995
 31
0.0
  0
LINE
  5
5E9
  8
0
  6
CONTINUOUS
 62
     7
 10
-959.24383999999998
 20
722.25629000000004
 30
0.0
 11
-959.24383999999998
 21
721.19623000000001
 31
0.0
  0
LINE
  5
5EA
  8
0
  6
CONTINUOUS
 62
     7
 10
-959.24383999999998
 20
729.69623000000001
 30
0.0
 11
-959.24383999999998
 21
729.22625999999968
 31
0.0
  0
LINE
  5
5EB
  8
0
  6
CONTINUOUS
 62
     7
 10
-959.24383999999998
 20
734.26629999999989
 30
0.0
 11
-959.24383999999998
 21
733.71624999999983
 31
0.0
  0
LINE
  5
5EC
  8
0
  6
CONTINUOUS
 62
     7
 10
-959.24383999999998
 20
736.36626999999987
 30
0.0
 11
-959.24383999999998
 21
735.83623999999975
 31
0.0
  0
LINE
  5
5ED
  8
0
  6
CONTINUOUS
 62
     7
 10
-962.74383999999998
 20
706.86626999999987
 30
0.0
 11
-962.74383999999998
 21
686.86626999999976
 31
0.0
  0
LINE
  5
5EE
  8
0
  6
CONTINUOUS
 62
     7
 10
-962.74390000000005
 20
706.86620999999968
 30
0.0
 11
-961.24383999999998
 21
706.99621999999988
 31
0.0
  0
LINE
  5
5EF
  8
0
  6
CONTINUOUS
 62
     7
 10
-962.74383999999998
 20
702.0163
 30
0.0
 11
-961.24383999999998
 21
702.0163
 31
0.0
  0
LINE
  5
5F0
  8
0
  6
CONTINUOUS
 62
     7
 10
-962.74383999999998
 20
704.1463
 30
0.0
 11
-961.24383999999998
 21
704.1463
 31
0.0
  0
LINE
  5
5F1
  8
0
  6
CONTINUOUS
 62
     7
 10
-845.90386999999976
 20
722.86626999999999
 30
0.0
 11
-944.88385000000005
 21
722.86626999999999
 31
0.0
  0
LINE
  5
5F2
  8
0
  6
CONTINUOUS
 62
     7
 10
-845.90386999999976
 20
720.86626999999964
 30
0.0
 11
-944.88385000000005
 21
720.86626999999964
 31
0.0
  0
LINE
  5
5F3
  8
0
  6
CONTINUOUS
 62
     7
 10
-878.24384000000009
 20
712.86626999999964
 30
0.0
 11
-944.88385000000005
 21
712.86626999999964
 31
0.0
  0
LINE
  5
5F4
  8
0
  6
CONTINUOUS
 62
     7
 10
-845.91101000000003
 20
710.86626999999999
 30
0.0
 11
-944.88385000000005
 21
710.86626999999999
 31
0.0
  0
LINE
  5
5F5
  8
0
  6
CONTINUOUS
 62
     7
 10
-910.80511000000001
 20
702.86626999999987
 30
0.0
 11
-944.88385000000005
 21
702.86626999999987
 31
0.0
  0
LINE
  5
5F6
  8
0
  6
CONTINUOUS
 62
     7
 10
-910.80511000000001
 20
700.86626999999999
 30
0.0
 11
-944.88385000000005
 21
700.86626999999999
 31
0.0
  0
LINE
  5
5F7
  8
0
  6
CONTINUOUS
 62
     7
 10
-910.80511000000001
 20
692.86626999999999
 30
0.0
 11
-944.88385000000005
 21
692.86626999999999
 31
0.0
  0
LINE
  5
5F8
  8
0
  6
CONTINUOUS
 62
     7
 10
-910.80511000000001
 20
690.86626999999964
 30
0.0
 11
-944.88385000000005
 21
690.86626999999964
 31
0.0
  0
LINE
  5
5F9
  8
0
  6
CONTINUOUS
 62
     7
 10
-945.56383999999991
 20
723.5862400000002
 30
0.0
 11
-842.42382999999984
 21
723.5862400000002
 31
0.0
  0
LINE
  5
5FA
  8
0
  6
CONTINUOUS
 62
     7
 10
-945.56383999999991
 20
720.23626999999999
 30
0.0
 11
-878.22382000000005
 21
720.23626999999999
 31
0.0
  0
LINE
  5
5FB
  8
0
  6
CONTINUOUS
 62
     7
 10
-945.78386999999975
 20
713.35625999999957
 30
0.0
 11
-878.24384000000009
 21
713.35625999999957
 31
0.0
  0
LINE
  5
5FC
  8
0
  6
CONTINUOUS
 62
     7
 10
-945.78386999999975
 20
710.42633000000001
 30
0.0
 11
-842.20959000000005
 21
710.42633000000001
 31
0.0
  0
LINE
  5
5FD
  8
0
  6
CONTINUOUS
 62
     7
 10
-945.91381999999965
 20
703.20623999999998
 30
0.0
 11
-909.58514000000002
 21
703.20623999999998
 31
0.0
  0
LINE
  5
5FE
  8
0
  6
CONTINUOUS
 62
     7
 10
-945.91381999999965
 20
700.54633000000001
 30
0.0
 11
-909.58514000000002
 21
700.54633000000001
 31
0.0
  0
LINE
  5
5FF
  8
0
  6
CONTINUOUS
 62
     7
 10
-945.97388000000024
 20
693.13629000000003
 30
0.0
 11
-909.52515000000005
 21
693.13629000000003
 31
0.0
  0
LINE
  5
600
  8
0
  6
CONTINUOUS
 62
     7
 10
-945.97388000000024
 20
690.60625999999957
 30
0.0
 11
-909.52515000000005
 21
690.60625999999957
 31
0.0
  0
LINE
  5
601
  8
0
  6
CONTINUOUS
 62
     7
 10
-945.97388000000024
 20
683.13629000000003
 30
0.0
 11
-909.52515000000005
 21
683.13629000000003
 31
0.0
  0
LINE
  5
602
  8
0
  6
CONTINUOUS
 62
     7
 10
-910.80511000000001
 20
682.86626999999964
 30
0.0
 11
-944.88385000000005
 21
682.86626999999964
 31
0.0
  0
LINE
  5
603
  8
0
  6
CONTINUOUS
 62
     7
 10
-910.80511000000001
 20
680.86626999999999
 30
0.0
 11
-944.88385000000005
 21
680.86626999999999
 31
0.0
  0
LINE
  5
604
  8
0
  6
CONTINUOUS
 62
     7
 10
-945.97388000000024
 20
680.59625000000005
 30
0.0
 11
-909.52515000000005
 21
680.59625000000005
 31
0.0
  0
LINE
  5
605
  8
0
  6
CONTINUOUS
 62
     7
 10
-945.91381999999965
 20
673.18622000000005
 30
0.0
 11
-909.58514000000002
 21
673.18622000000005
 31
0.0
  0
LINE
  5
606
  8
0
  6
CONTINUOUS
 62
     7
 10
-910.80511000000001
 20
672.86626999999999
 30
0.0
 11
-944.88385000000005
 21
672.86626999999999
 31
0.0
  0
LINE
  5
607
  8
0
  6
CONTINUOUS
 62
     7
 10
-910.80511000000001
 20
670.86626999999964
 30
0.0
 11
-944.88385000000005
 21
670.86626999999964
 31
0.0
  0
LINE
  5
608
  8
0
  6
CONTINUOUS
 62
     7
 10
-945.91381999999965
 20
670.52630999999985
 30
0.0
 11
-909.57257000000004
 21
670.52630999999985
 31
0.0
  0
LINE
  5
609
  8
0
  6
CONTINUOUS
 62
     7
 10
-845.91101000000003
 20
662.86626999999964
 30
0.0
 11
-944.88385000000005
 21
662.86626999999964
 31
0.0
  0
LINE
  5
60A
  8
0
  6
CONTINUOUS
 62
     7
 10
-945.78386999999975
 20
663.30620999999996
 30
0.0
 11
-842.20959000000005
 21
663.30620999999996
 31
0.0
  0
LINE
  5
60B
  8
0
  6
CONTINUOUS
 62
     7
 10
-878.24384000000009
 20
660.86626999999999
 30
0.0
 11
-944.88385000000005
 21
660.86626999999999
 31
0.0
  0
LINE
  5
60C
  8
0
  6
CONTINUOUS
 62
     7
 10
-945.78386999999975
 20
660.37627999999995
 30
0.0
 11
-878.24384000000009
 21
660.37627999999995
 31
0.0
  0
LINE
  5
60D
  8
0
  6
CONTINUOUS
 62
     7
 10
-845.90386999999976
 20
652.86626999999987
 30
0.0
 11
-890.2438400000002
 21
652.86626999999987
 31
0.0
  0
LINE
  5
60E
  8
0
  6
CONTINUOUS
 62
     7
 10
-845.90386999999976
 20
650.86626999999999
 30
0.0
 11
-890.2438400000002
 21
650.86626999999999
 31
0.0
  0
LINE
  5
60F
  8
0
  6
CONTINUOUS
 62
     7
 10
-945.56383999999991
 20
650.1463
 30
0.0
 11
-890.2438400000002
 21
650.1463
 31
0.0
  0
LINE
  5
610
  8
0
  6
CONTINUOUS
 62
     7
 10
-842.42382999999984
 20
653.49627999999996
 30
0.0
 11
-860.26385000000005
 21
653.49627999999996
 31
0.0
  0
LINE
  5
611
  8
0
  6
CONTINUOUS
 62
     7
 10
-959.04381999999987
 20
651.17633000000001
 30
0.0
 11
-956.94385
 21
651.17633000000001
 31
0.0
  0
LINE
  5
612
  8
0
  6
CONTINUOUS
 62
     7
 10
-959.43377999999996
 20
651.25629000000004
 30
0.0
 11
-960.63379000000009
 21
651.77630999999985
 31
0.0
  0
LINE
  5
613
  8
0
  6
CONTINUOUS
 62
     7
 10
-959.09386999999981
 20
653.12627999999995
 30
0.0
 11
-957.2438400000002
 21
653.12627999999995
 31
0.0
  0
LINE
  5
614
  8
0
  6
CONTINUOUS
 62
     7
 10
-959.38378999999998
 20
653.16625999999985
 30
0.0
 11
-960.53386999999998
 21
653.52624999999989
 31
0.0
  0
LINE
  5
615
  8
0
  6
CONTINUOUS
 62
     7
 10
-957.2438400000002
 20
660.86626999999999
 30
0.0
 11
-960.24383999999998
 21
660.86626999999999
 31
0.0
  0
LINE
  5
616
  8
0
  6
CONTINUOUS
 62
     7
 10
-957.2438400000002
 20
662.86626999999964
 30
0.0
 11
-960.24383999999998
 21
662.86626999999964
 31
0.0
  0
LINE
  5
617
  8
0
  6
CONTINUOUS
 62
     7
 10
-957.2438400000002
 20
670.86626999999964
 30
0.0
 11
-960.24383999999998
 21
670.86626999999964
 31
0.0
  0
LINE
  5
618
  8
0
  6
CONTINUOUS
 62
     7
 10
-957.2438400000002
 20
672.86626999999999
 30
0.0
 11
-960.24383999999998
 21
672.86626999999999
 31
0.0
  0
LINE
  5
619
  8
0
  6
CONTINUOUS
 62
     7
 10
-957.2438400000002
 20
680.86626999999999
 30
0.0
 11
-960.24383999999998
 21
680.86626999999999
 31
0.0
  0
LINE
  5
61A
  8
0
  6
CONTINUOUS
 62
     7
 10
-957.2438400000002
 20
682.86626999999964
 30
0.0
 11
-960.24383999999998
 21
682.86626999999964
 31
0.0
  0
LINE
  5
61B
  8
0
  6
CONTINUOUS
 62
     7
 10
-959.24383999999998
 20
671.25629000000004
 30
0.0
 11
-959.24383999999998
 21
672.4762599999998
 31
0.0
  0
LINE
  5
61C
  8
0
  6
CONTINUOUS
 62
     7
 10
-959.24383999999998
 20
681.25629000000004
 30
0.0
 11
-959.24383999999998
 21
682.41632000000004
 31
0.0
  0
LINE
  5
61D
  8
0
  6
CONTINUOUS
 62
     7
 10
-959.24383999999998
 20
661.23626999999999
 30
0.0
 11
-959.24383999999998
 21
662.60625999999979
 31
0.0
  0
LINE
  5
61E
  8
0
  6
CONTINUOUS
 62
     7
 10
-959.24383999999998
 20
651.4762599999998
 30
0.0
 11
-959.24383999999998
 21
652.53632000000005
 31
0.0
  0
LINE
  5
61F
  8
0
  6
CONTINUOUS
 62
     7
 10
-962.74383999999998
 20
666.86626999999964
 30
0.0
 11
-962.74383999999998
 21
686.86626999999976
 31
0.0
  0
LINE
  5
620
  8
0
  6
CONTINUOUS
 62
     7
 10
-962.74390000000005
 20
666.86620999999957
 30
0.0
 11
-961.24390000000005
 21
666.7362099999998
 31
0.0
  0
LINE
  5
621
  8
0
  6
CONTINUOUS
 62
     7
 10
-962.74383999999998
 20
671.71624999999995
 30
0.0
 11
-961.24383999999998
 21
671.71624999999995
 31
0.0
  0
LINE
  5
622
  8
0
  6
CONTINUOUS
 62
     7
 10
-962.74383999999998
 20
669.58624000000009
 30
0.0
 11
-961.24383999999998
 21
669.58624000000009
 31
0.0
  0
LINE
  5
623
  8
0
  6
CONTINUOUS
 62
     7
 10
-945.56383999999991
 20
653.49627999999996
 30
0.0
 11
-878.22382000000005
 21
653.49627999999996
 31
0.0
  0
LINE
  5
624
  8
0
  6
CONTINUOUS
 62
     7
 10
-890.2438400000002
 20
652.86626999999987
 30
0.0
 11
-944.88385000000005
 21
652.86626999999987
 31
0.0
  0
LINE
  5
625
  8
0
  6
CONTINUOUS
 62
     7
 10
-890.2438400000002
 20
650.86626999999999
 30
0.0
 11
-944.88385000000005
 21
650.86626999999999
 31
0.0
  0
LINE
  5
626
  8
0
  6
CONTINUOUS
 62
     7
 10
-890.2438400000002
 20
650.1463
 30
0.0
 11
-842.42382999999984
 21
650.1463
 31
0.0
  0
LINE
  5
627
  8
0
  6
CONTINUOUS
 62
     7
 10
-955.24384000000009
 20
739.86626999999999
 30
0.0
 11
-955.24384000000009
 21
633.86626999999999
 31
0.0
  0
LINE
  5
628
  8
0
  6
CONTINUOUS
 62
     7
 10
-947.24384000000009
 20
739.86626999999999
 30
0.0
 11
-947.24384000000009
 21
633.86626999999999
 31
0.0
  0
LINE
  5
629
  8
0
  6
CONTINUOUS
 62
     7
 10
-960.75391000000002
 20
645.76624000000004
 30
0.0
 11
-960.77392999999995
 21
645.77625
 31
0.0
  0
LINE
  5
62A
  8
0
  6
CONTINUOUS
 62
     7
 10
-956.24384000000032
 20
736.86626999999964
 30
0.0
 11
-956.24384000000032
 21
636.86626999999976
 31
0.0
  0
LINE
  5
62B
  8
0
  6
CONTINUOUS
 62
     7
 10
-956.24384000000032
 20
736.86626999999964
 30
0.0
 11
-955.24384000000009
 21
736.86626999999964
 31
0.0
  0
LINE
  5
62C
  8
0
  6
CONTINUOUS
 62
     7
 10
-955.24384000000009
 20
739.86626999999999
 30
0.0
 11
-947.24384000000009
 21
739.86626999999999
 31
0.0
  0
LINE
  5
62D
  8
0
  6
CONTINUOUS
 62
     7
 10
-954.54381999999987
 20
730.05620999999985
 30
0.0
 11
-948.31383999999991
 21
730.05620999999985
 31
0.0
  0
LINE
  5
62E
  8
0
  6
CONTINUOUS
 62
     7
 10
-839.24384000000009
 20
732.86626999999964
 30
0.0
 11
-831.24384000000009
 21
732.86626999999964
 31
0.0
  0
LINE
  5
62F
  8
0
  6
CONTINUOUS
 62
     7
 10
-839.24384000000009
 20
718.80620999999985
 30
0.0
 11
-831.24384000000009
 21
718.80620999999985
 31
0.0
  0
LINE
  5
630
  8
0
  6
CONTINUOUS
 62
     7
 10
-839.24384000000009
 20
742.86626999999999
 30
0.0
 11
-831.24384000000009
 21
742.86626999999999
 31
0.0
  0
LINE
  5
631
  8
0
  6
CONTINUOUS
 62
     7
 10
-944.03386999999975
 20
743.14629999999988
 30
0.0
 11
-847.11383000000012
 21
743.14629999999988
 31
0.0
  0
LINE
  5
632
  8
0
  6
CONTINUOUS
 62
     7
 10
-947.24376999999981
 20
734.96630999999979
 30
0.0
 11
-946.00378000000023
 21
741.52624999999989
 31
0.0
  0
LINE
  5
633
  8
0
  6
CONTINUOUS
 62
     7
 10
-941.88385000000005
 20
723.51624000000004
 30
0.0
 11
-947.24384000000009
 21
734.96624999999983
 31
0.0
  0
LINE
  5
634
  8
0
  6
CONTINUOUS
 62
     7
 10
-941.8839099999999
 20
650.21624999999995
 30
0.0
 11
-947.24384000000009
 21
638.77637000000004
 31
0.0
  0
LINE
  5
635
  8
0
  6
CONTINUOUS
 62
     7
 10
-943.99383999999998
 20
745.99627999999984
 30
0.0
 11
-847.11383000000012
 21
745.99627999999984
 31
0.0
  0
LINE
  5
636
  8
0
  6
CONTINUOUS
 62
     7
 10
-943.97388000000001
 20
747.84625000000005
 30
0.0
 11
-847.11383000000012
 21
747.84625000000005
 31
0.0
  0
LINE
  5
637
  8
0
  6
CONTINUOUS
 62
     7
 10
-943.95385999999996
 20
748.75629000000004
 30
0.0
 11
-847.11376999999982
 21
748.75629000000004
 31
0.0
  0
LINE
  5
638
  8
0
  6
CONTINUOUS
 62
     7
 10
-947.24384000000009
 20
736.30627000000004
 30
0.0
 11
-945.96387000000016
 21
744.31622000000004
 31
0.0
  0
LINE
  5
639
  8
0
  6
CONTINUOUS
 62
     7
 10
-947.24384000000009
 20
737.65625
 30
0.0
 11
-945.95385999999996
 21
746.14635999999985
 31
0.0
  0
LINE
  5
63A
  8
0
  6
CONTINUOUS
 62
     7
 10
-947.24390000000005
 20
737.65625
 30
0.0
 11
-945.93389999999988
 21
747.03632000000005
 31
0.0
  0
LINE
  5
63B
  8
0
  6
CONTINUOUS
 62
     7
 10
-841.04375999999979
 20
726.20624000000021
 30
0.0
 11
-845.18377999999984
 21
741.66625999999985
 31
0.0
  0
LINE
  5
63C
  8
0
  6
CONTINUOUS
 62
     7
 10
-844.70385999999985
 20
739.86626999999999
 30
0.0
 11
-839.24384000000009
 21
739.86626999999999
 31
0.0
  0
LINE
  5
63D
  8
0
  6
CONTINUOUS
 62
     7
 10
-961.24383999999998
 20
638.84625000000005
 30
0.0
 11
-961.24383999999998
 21
681.86626999999987
 31
0.0
  0
LINE
  5
63E
  8
0
  6
CONTINUOUS
 62
     7
 10
-958.97388000000012
 20
637.11626999999999
 30
0.0
 11
-956.74383999999998
 21
637.11626999999999
 31
0.0
  0
LINE
  5
63F
  8
0
  6
CONTINUOUS
 62
     7
 10
-959.47382000000005
 20
637.25622999999985
 30
0.0
 11
-960.74384000000032
 21
637.98620999999946
 31
0.0
  0
LINE
  5
640
  8
0
  6
CONTINUOUS
 62
     7
 10
-959.48383000000013
 20
639.36632999999995
 30
0.0
 11
-960.76385000000005
 21
640.13634999999999
 31
0.0
  0
LINE
  5
641
  8
0
  6
CONTINUOUS
 62
     7
 10
-959.49384000000009
 20
643.90625
 30
0.0
 11
-960.79381999999987
 21
644.75622999999985
 31
0.0
  0
LINE
  5
642
  8
0
  6
CONTINUOUS
 62
     7
 10
-958.96387000000004
 20
639.22625999999957
 30
0.0
 11
-956.24384000000032
 21
639.22625999999957
 31
0.0
  0
LINE
  5
643
  8
0
  6
CONTINUOUS
 62
     7
 10
-958.94384999999988
 20
643.74627999999996
 30
0.0
 11
-956.24384000000032
 21
643.74627999999996
 31
0.0
  0
LINE
  5
644
  8
0
  6
CONTINUOUS
 62
     7
 10
-958.97388000000012
 20
644.88629000000003
 30
0.0
 11
-957.2438400000002
 21
644.88629000000003
 31
0.0
  0
LINE
  5
645
  8
0
  6
CONTINUOUS
 62
     7
 10
-958.9938400000002
 20
640.36626999999987
 30
0.0
 11
-957.2438400000002
 21
640.36626999999987
 31
0.0
  0
LINE
  5
646
  8
0
  6
CONTINUOUS
 62
     7
 10
-959.00385000000006
 20
638.26629999999989
 30
0.0
 11
-956.74383999999998
 21
638.26629999999989
 31
0.0
  0
LINE
  5
647
  8
0
  6
CONTINUOUS
 62
     7
 10
-959.47388000000001
 20
645.01629999999977
 30
0.0
 11
-960.75385000000006
 21
645.7663
 31
0.0
  0
LINE
  5
648
  8
0
  6
CONTINUOUS
 62
     7
 10
-959.45385999999985
 20
638.37621999999965
 30
0.0
 11
-960.69385
 21
639.00622999999985
 31
0.0
  0
LINE
  5
649
  8
0
  6
CONTINUOUS
 62
     7
 10
-959.46387000000004
 20
640.48626999999976
 30
0.0
 11
-960.71387000000004
 21
641.1463
 31
0.0
  0
LINE
  5
64A
  8
0
  6
CONTINUOUS
 62
     7
 10
-959.24383999999998
 20
644.03632000000005
 30
0.0
 11
-959.24383999999998
 21
644.50629000000004
 31
0.0
  0
LINE
  5
64B
  8
0
  6
CONTINUOUS
 62
     7
 10
-959.24383999999998
 20
639.46624999999995
 30
0.0
 11
-959.24383999999998
 21
640.0163
 31
0.0
  0
LINE
  5
64C
  8
0
  6
CONTINUOUS
 62
     7
 10
-959.24383999999998
 20
637.36626999999964
 30
0.0
 11
-959.24383999999998
 21
637.89629999999966
 31
0.0
  0
LINE
  5
64D
  8
0
  6
CONTINUOUS
 62
     7
 10
-956.24384000000032
 20
636.86626999999976
 30
0.0
 11
-955.24384000000009
 21
636.86626999999976
 31
0.0
  0
LINE
  5
64E
  8
0
  6
CONTINUOUS
 62
     7
 10
-955.24384000000009
 20
633.86626999999999
 30
0.0
 11
-947.24384000000009
 21
633.86626999999999
 31
0.0
  0
LINE
  5
64F
  8
0
  6
CONTINUOUS
 62
     7
 10
-954.54381999999987
 20
643.67632999999989
 30
0.0
 11
-948.31383999999991
 21
643.67632999999989
 31
0.0
  0
LINE
  5
650
  8
0
  6
CONTINUOUS
 62
     7
 10
-839.24384000000009
 20
640.86626999999976
 30
0.0
 11
-831.24384000000009
 21
640.86626999999976
 31
0.0
  0
LINE
  5
651
  8
0
  6
CONTINUOUS
 62
     7
 10
-839.24384000000009
 20
630.86626999999999
 30
0.0
 11
-831.24384000000009
 21
630.86626999999999
 31
0.0
  0
LINE
  5
652
  8
0
  6
CONTINUOUS
 62
     7
 10
-944.03386999999975
 20
630.5862400000002
 30
0.0
 11
-847.11383000000012
 21
630.5862400000002
 31
0.0
  0
LINE
  5
653
  8
0
  6
CONTINUOUS
 62
     7
 10
-947.24390000000005
 20
638.77617999999995
 30
0.0
 11
-946.00391000000013
 21
632.21618999999998
 31
0.0
  0
LINE
  5
654
  8
0
  6
CONTINUOUS
 62
     7
 10
-944.33759000000032
 20
627.73626999999999
 30
0.0
 11
-921.84569999999985
 21
627.73626999999999
 31
0.0
  0
LINE
  5
655
  8
0
  6
CONTINUOUS
 62
     7
 10
-947.24384000000009
 20
637.42627000000005
 30
0.0
 11
-945.96387000000016
 21
629.42632999999989
 31
0.0
  0
LINE
  5
656
  8
0
  6
CONTINUOUS
 62
     7
 10
-947.24384000000009
 20
636.08630000000005
 30
0.0
 11
-946.23455999999999
 21
629.43610000000001
 31
0.0
  0
LINE
  5
657
  8
0
  6
CONTINUOUS
 62
     7
 10
-947.24384000000009
 20
636.08630000000005
 30
0.0
 11
-946.31841999999983
 21
629.45972000000006
 31
0.0
  0
LINE
  5
658
  8
0
  6
CONTINUOUS
 62
     7
 10
-841.03814999999975
 20
647.54741999999976
 30
0.0
 11
-845.18389999999988
 21
632.06628000000001
 31
0.0
  0
LINE
  5
659
  8
0
  6
CONTINUOUS
 62
     7
 10
-844.70183999999995
 20
633.86626999999999
 30
0.0
 11
-839.24384000000009
 21
633.86626999999999
 31
0.0
  0
LINE
  5
65A
  8
0
  6
CONTINUOUS
 62
     7
 10
-839.24384000000009
 20
654.92632999999978
 30
0.0
 11
-831.24384000000009
 21
654.92632999999978
 31
0.0
  0
LINE
  5
65B
  8
0
  6
CONTINUOUS
 62
     3
 10
-920.24384000000009
 20
622.3662099999998
 30
0.0
 11
-920.45911000000001
 21
630.58630000000016
 31
0.0
  0
LINE
  5
65C
  8
0
  6
CONTINUOUS
 62
     3
 10
-860.2437699999997
 20
622.3662099999998
 30
0.0
 11
-860.02855999999986
 21
630.58630000000016
 31
0.0
  0
LINE
  5
65D
  8
0
  6
CONTINUOUS
 62
     3
 10
-840.24390000000005
 20
633.86626999999999
 30
0.0
 11
-845.96960000000001
 21
625.04944
 31
0.0
  0
LINE
  5
65E
  8
0
  6
CONTINUOUS
 62
     7
 10
-860.24383999999998
 20
622.36626999999999
 30
0.0
 11
-920.24384000000009
 21
622.36626999999999
 31
0.0
  0
LINE
  5
65F
  8
0
  6
CONTINUOUS
 62
     7
 10
-858.73021999999958
 20
624.36626999999976
 30
0.0
 11
-847.22766000000001
 21
624.36626999999976
 31
0.0
  0
LINE
  5
660
  8
0
  6
CONTINUOUS
 62
     7
 10
-861.26385000000005
 20
714.36626999999999
 30
0.0
 11
-861.26385000000005
 21
719.22625999999957
 31
0.0
  0
LINE
  5
661
  8
0
  6
CONTINUOUS
 62
     7
 10
-877.22382000000005
 20
714.36626999999999
 30
0.0
 11
-877.22382000000005
 21
719.22625999999957
 31
0.0
  0
LINE
  5
662
  8
0
  6
CONTINUOUS
 62
     7
 10
-861.7438400000002
 20
714.36626999999999
 30
0.0
 11
-861.7438400000002
 21
719.36626999999987
 31
0.0
  0
LINE
  5
663
  8
0
  6
CONTINUOUS
 62
     7
 10
-876.74384000000009
 20
714.36626999999999
 30
0.0
 11
-876.74384000000009
 21
719.36626999999987
 31
0.0
  0
LINE
  5
664
  8
0
  6
CONTINUOUS
 62
     7
 10
-905.24384000000009
 20
699.86626999999964
 30
0.0
 11
-842.24383999999998
 21
699.86626999999964
 31
0.0
  0
LINE
  5
665
  8
0
  6
CONTINUOUS
 62
     7
 10
-905.24384000000009
 20
666.36626999999964
 30
0.0
 11
-842.24383999999998
 21
666.36626999999964
 31
0.0
  0
LINE
  5
666
  8
0
  6
CONTINUOUS
 62
     7
 10
-905.24384000000009
 20
707.36626999999964
 30
0.0
 11
-842.24383999999998
 21
707.36626999999964
 31
0.0
  0
LINE
  5
667
  8
0
  6
CONTINUOUS
 62
     3
 10
-842.24383999999998
 20
707.36626999999964
 30
0.0
 11
-842.24383999999998
 21
666.36626999999964
 31
0.0
  0
LINE
  5
668
  8
0
  6
CONTINUOUS
 62
     3
 10
-905.24384000000009
 20
707.36626999999964
 30
0.0
 11
-905.24384000000009
 21
666.36626999999964
 31
0.0
  0
LINE
  5
669
  8
0
  6
CONTINUOUS
 62
     7
 10
-860.24383999999998
 20
713.35625999999957
 30
0.0
 11
-842.1981199999999
 21
713.35625999999957
 31
0.0
  0
LINE
  5
66A
  8
0
  6
CONTINUOUS
 62
     7
 10
-860.24383999999998
 20
660.38629000000003
 30
0.0
 11
-842.20959000000005
 21
660.38629000000003
 31
0.0
  0
LINE
  5
66B
  8
0
  6
CONTINUOUS
 62
     7
 10
-861.26385000000005
 20
659.36626999999999
 30
0.0
 11
-861.26385000000005
 21
654.50629000000004
 31
0.0
  0
LINE
  5
66C
  8
0
  6
CONTINUOUS
 62
     7
 10
-877.22382000000005
 20
659.36626999999999
 30
0.0
 11
-877.22382000000005
 21
654.50629000000004
 31
0.0
  0
LINE
  5
66D
  8
0
  6
CONTINUOUS
 62
     7
 10
-861.7438400000002
 20
659.36626999999999
 30
0.0
 11
-861.7438400000002
 21
654.36626999999964
 31
0.0
  0
LINE
  5
66E
  8
0
  6
CONTINUOUS
 62
     7
 10
-876.74384000000009
 20
659.36626999999999
 30
0.0
 11
-876.74384000000009
 21
654.36626999999964
 31
0.0
  0
LINE
  5
66F
  8
0
  6
CONTINUOUS
 62
     7
 10
-845.91101000000003
 20
660.86626999999999
 30
0.0
 11
-860.24383999999998
 21
660.86626999999999
 31
0.0
  0
LINE
  5
670
  8
0
  6
CONTINUOUS
 62
     7
 10
-845.89673000000005
 20
712.86626999999964
 30
0.0
 11
-860.24383999999998
 21
712.86626999999964
 31
0.0
  0
LINE
  5
671
  8
0
  6
CONTINUOUS
 62
     3
 10
-860.26385000000005
 20
720.22625999999968
 30
0.0
 11
-842.42382999999984
 21
720.22625999999968
 31
0.0
  0
LINE
  5
672
  8
0
  6
CONTINUOUS
 62
     7
 10
-705.84850999999981
 20
826.25133999999969
 30
0.0
 11
-695.74377000000004
 21
826.60419000000013
 31
0.0
  0
LINE
  5
673
  8
0
  6
CONTINUOUS
 62
     7
 10
-705.84857
 20
547.48119999999994
 30
0.0
 11
-695.74377000000004
 21
547.12829999999985
 31
0.0
  0
LINE
  5
674
  8
0
  6
CONTINUOUS
 62
     7
 10
-559.74377000000004
 20
325.54793999999998
 30
0.0
 11
-503.74380000000002
 21
325.54793999999998
 31
0.0
  0
LINE
  5
675
  8
0
  6
CONTINUOUS
 62
     7
 10
-559.74377000000004
 20
325.54793999999998
 30
0.0
 11
-559.74377000000004
 21
322.54797000000002
 31
0.0
  0
LINE
  5
676
  8
0
  6
CONTINUOUS
 62
     7
 10
-221.28095999999991
 20
317.54797000000002
 30
0.0
 11
-209.28095999999991
 21
317.54797000000002
 31
0.0
  0
LINE
  5
677
  8
0
  6
CONTINUOUS
 62
     7
 10
-209.28095999999991
 20
325.54793999999998
 30
0.0
 11
-209.28095999999991
 21
317.54797000000002
 31
0.0
  0
LINE
  5
678
  8
0
  6
CONTINUOUS
 62
     7
 10
-221.28095999999991
 20
325.54793999999998
 30
0.0
 11
-221.28095999999991
 21
317.54797000000002
 31
0.0
  0
LINE
  5
679
  8
0
  6
CONTINUOUS
 62
     7
 10
-221.28095999999991
 20
325.54793999999998
 30
0.0
 11
-209.28095999999991
 21
325.54793999999998
 31
0.0
  0
LINE
  5
67A
  8
0
  6
CONTINUOUS
 62
     7
 10
-503.74380000000002
 20
280.54797000000002
 30
0.0
 11
-503.74380000000002
 21
325.54793999999998
 31
0.0
  0
LINE
  5
67B
  8
0
  6
CONTINUOUS
 62
     7
 10
-573.7438400000002
 20
279.04793999999998
 30
0.0
 11
-573.7438400000002
 21
324.04793999999993
 31
0.0
  0
LINE
  5
67C
  8
0
  6
CONTINUOUS
 62
     7
 10
-573.7438400000002
 20
280.54797000000002
 30
0.0
 11
-503.74380000000002
 21
280.54797000000002
 31
0.0
  0
LINE
  5
67D
  8
0
  6
CONTINUOUS
 62
     7
 10
-573.7438400000002
 20
322.54797000000002
 30
0.0
 11
-503.74380000000002
 21
322.54797000000002
 31
0.0
  0
LINE
  5
67E
  8
0
  6
CENTER
 62
     7
 10
-742.41985999999974
 20
301.54793999999993
 30
0.0
 11
-499.27236999999991
 21
301.54793999999993
 31
0.0
  0
LINE
  5
67F
  8
0
  6
CONTINUOUS
 62
     7
 10
-706.81353999999999
 20
133.9344899999999
 30
0.0
 11
-695.74370999999985
 21
133.54793000000001
 31
0.0
  0
LINE
  5
680
  8
0
  6
CONTINUOUS
 62
     7
 10
-720.26470999999981
 20
146.46898999999991
 30
0.0
 11
-711.22277999999994
 21
144.87465999999981
 31
0.0
  0
LINE
  5
681
  8
0
  6
CONTINUOUS
 62
     7
 10
-697.74370999999985
 20
393.54797000000002
 30
0.0
 11
-695.74377000000004
 21
393.54797000000002
 31
0.0
  0
LINE
  5
682
  8
0
  6
CONTINUOUS
 62
     7
 10
-719.56090999999981
 20
400.048
 30
0.0
 11
-703.92669999999964
 21
400.048
 31
0.0
  0
LINE
  5
683
  8
0
  6
CONTINUOUS
 62
     7
 10
-722.06664999999998
 20
393.048
 30
0.0
 11
-707.41107
 21
393.048
 31
0.0
  0
LINE
  5
684
  8
0
  6
CONTINUOUS
 62
     7
 10
-721.74377000000004
 20
393.04797000000002
 30
0.0
 11
-720.03156000000001
 21
399.43807999999979
 31
0.0
  0
LINE
  5
685
  8
0
  6
CONTINUOUS
 62
     7
 10
-711.74384000000009
 20
401.548
 30
0.0
 11
-704.24041999999997
 21
400.16262999999981
 31
0.0
  0
LINE
  5
686
  8
0
  6
CONTINUOUS
 62
     7
 10
-719.24712999999997
 20
400.16256999999979
 30
0.0
 11
-711.74365
 21
401.54793999999998
 31
0.0
  0
LINE
  5
687
  8
0
  6
CONTINUOUS
 62
     7
 10
-839.24376999999981
 20
189.54796999999991
 30
0.0
 11
-811.24377000000004
 21
189.54796999999991
 31
0.0
  0
LINE
  5
688
  8
0
  6
CONTINUOUS
 62
     7
 10
-749.50525000000005
 20
180.80838
 30
0.0
 11
-725.48230000000001
 21
178.70664999999991
 31
0.0
  0
LINE
  5
689
  8
0
  6
CONTINUOUS
 62
     7
 10
-752.24377000000004
 20
183.79693999999981
 30
0.0
 11
-752.24377000000004
 21
201.5479399999999
 31
0.0
  0
LINE
  5
68A
  8
0
  6
CONTINUOUS
 62
     7
 10
-757.24390000000005
 20
337.04797000000002
 30
0.0
 11
-727.56934000000001
 21
338.08422999999982
 31
0.0
  0
LINE
  5
68B
  8
0
  6
CONTINUOUS
 62
     7
 10
-757.2438400000002
 20
190.0479399999999
 30
0.0
 11
-755.13909999999964
 21
189.9744399999999
 31
0.0
  0
LINE
  5
68C
  8
0
  6
CONTINUOUS
 62
     7
 10
-697.74370999999985
 20
393.47815000000003
 30
0.0
 11
-697.74370999999985
 21
393.54797000000002
 31
0.0
  0
LINE
  5
68D
  8
0
  6
CONTINUOUS
 62
     7
 10
-767.24377000000004
 20
224.07327000000001
 30
0.0
 11
-722.74370999999985
 21
224.07327000000001
 31
0.0
  0
LINE
  5
68E
  8
0
  6
CONTINUOUS
 62
     7
 10
-720.26476999999988
 20
380.62686000000002
 30
0.0
 11
-711.22277999999994
 21
382.22122000000002
 31
0.0
  0
LINE
  5
68F
  8
0
  6
CONTINUOUS
 62
     7
 10
-708.74377000000004
 20
135.9333
 30
0.0
 11
-708.74377000000004
 21
391.16262999999998
 31
0.0
  0
LINE
  5
690
  8
0
  6
CONTINUOUS
 62
     7
 10
-722.74370999999985
 20
149.42339999999979
 30
0.0
 11
-722.74370999999985
 21
391.54797000000002
 31
0.0
  0
LINE
  5
691
  8
0
  6
CONTINUOUS
 62
     7
 10
-706.81365999999969
 20
393.16143999999991
 30
0.0
 11
-695.74383999999998
 21
393.548
 31
0.0
  0
LINE
  5
692
  8
0
  6
CONTINUOUS
 62
     7
 10
-701.82079999999985
 20
393.33574999999979
 30
0.0
 11
-703.45592999999985
 21
399.43804999999992
 31
0.0
  0
LINE
  5
693
  8
0
  6
CONTINUOUS
 62
     7
 10
-767.24377000000004
 20
303.02260999999999
 30
0.0
 11
-722.74370999999985
 21
303.02260999999999
 31
0.0
  0
LINE
  5
694
  8
0
  6
CONTINUOUS
 62
     3
 10
-767.24377000000004
 20
325.12658999999991
 30
0.0
 11
-722.74370999999985
 21
325.12658999999991
 31
0.0
  0
LINE
  5
695
  8
0
  6
CONTINUOUS
 62
     3
 10
-767.24377000000004
 20
201.96931000000001
 30
0.0
 11
-722.74370999999985
 21
201.96931000000001
 31
0.0
  0
LINE
  5
696
  8
0
  6
CONTINUOUS
 62
     7
 10
-769.82696999999985
 20
328.96469000000002
 30
0.0
 11
-768.41425000000004
 21
330.3773799999999
 31
0.0
  0
LINE
  5
697
  8
0
  6
CONTINUOUS
 62
     7
 10
-804.74309999999969
 20
294.04854999999992
 30
0.0
 11
-769.82696999999985
 21
328.96469000000002
 31
0.0
  0
LINE
  5
698
  8
0
  6
CONTINUOUS
 62
     7
 10
-831.24377000000004
 20
179.0479399999999
 30
0.0
 11
-831.24377000000004
 21
292.04797000000002
 31
0.0
  0
LINE
  5
699
  8
0
  6
CONTINUOUS
 62
     7
 10
-807.10405999999989
 20
194.92574999999999
 30
0.0
 11
-769.95624000000021
 21
193.62852000000001
 31
0.0
  0
LINE
  5
69A
  8
0
  6
CONTINUOUS
 62
     7
 10
-811.24377000000004
 20
214.0524099999999
 30
0.0
 11
-811.24377000000004
 21
183.60915
 31
0.0
  0
LINE
  5
69B
  8
0
  6
CONTINUOUS
 62
     7
 10
-767.24377000000004
 20
192.43547000000001
 30
0.0
 11
-767.24377000000004
 21
333.11385999999999
 31
0.0
  0
LINE
  5
69C
  8
0
  6
CONTINUOUS
 62
     7
 10
-839.24376999999981
 20
281.54793999999998
 30
0.0
 11
-786.14075000000003
 21
281.54793999999998
 31
0.0
  0
LINE
  5
69D
  8
0
  6
CONTINUOUS
 62
     7
 10
-839.24376999999981
 20
268.35379
 30
0.0
 11
-792.09229000000005
 21
268.35379
 31
0.0
  0
LINE
  5
69E
  8
0
  6
CONTINUOUS
 62
     7
 10
-809.33032000000014
 20
294.69409000000002
 30
0.0
 11
-810.65185999999972
 21
293.59963999999991
 31
0.0
  0
LINE
  5
69F
  8
0
  6
CONTINUOUS
 62
     7
 10
-806.24377000000004
 20
219.05241000000001
 30
0.0
 11
-767.24377000000004
 21
219.05241000000001
 31
0.0
  0
LINE
  5
6A0
  8
0
  6
CONTINUOUS
 62
     7
 10
-831.24377000000004
 20
292.04797000000002
 30
0.0
 11
-813.06359999999995
 21
292.68285999999972
 31
0.0
  0
LINE
  5
6A1
  8
0
  6
CENTER
 62
     1
 10
-722.74370999999985
 20
235.5479599999999
 30
0.0
 11
-967.82390999999984
 21
235.5479599999999
 31
0.0
  0
LINE
  5
6A2
  8
0
  6
CONTINUOUS
 62
     7
 10
-805.34850999999969
 20
326.64911000000001
 30
0.0
 11
-772.51593000000003
 21
327.79561999999987
 31
0.0
  0
LINE
  5
6A3
  8
0
  6
CONTINUOUS
 62
     7
 10
-763.38341999999989
 20
337.33359000000002
 30
0.0
 11
-757.2438400000002
 21
337.54797000000002
 31
0.0
  0
LINE
  5
6A4
  8
0
  6
CONTINUOUS
 62
     7
 10
-792.09229000000005
 20
268.35376000000002
 30
0.0
 11
-784.01940999999988
 21
276.42660999999998
 31
0.0
  0
LINE
  5
6A5
  8
0
  6
CONTINUOUS
 62
     7
 10
-757.24377000000004
 20
189.54796999999991
 30
0.0
 11
-757.24377000000004
 21
337.54797000000002
 31
0.0
  0
LINE
  5
6A6
  8
0
  6
CONTINUOUS
 62
     7
 10
-839.24376999999981
 20
202.74213999999981
 30
0.0
 11
-811.24377000000004
 21
202.74213999999981
 31
0.0
  0
LINE
  5
6A7
  8
0
  6
CONTINUOUS
 62
     7
 10
-805.85730000000001
 20
292.9345399999998
 30
0.0
 11
-799.48095999999987
 21
281.54802999999993
 31
0.0
  0
LINE
  5
6A8
  8
0
  6
CONTINUOUS
 62
     7
 10
-792.09222
 20
268.35381999999998
 30
0.0
 11
-767.24383999999975
 21
223.98106000000001
 31
0.0
  0
LINE
  5
6A9
  8
0
  6
CONTINUOUS
 62
     7
 10
-808.24376999999981
 20
323.65087999999992
 30
0.0
 11
-808.24376999999981
 21
297.00463999999999
 31
0.0
  0
LINE
  5
6AA
  8
0
  6
CONTINUOUS
 62
     7
 10
-831.24384000000009
 20
179.0479599999999
 30
0.0
 11
-815.10419000000002
 21
179.61157
 31
0.0
  0
LINE
  5
6AB
  8
0
  6
CONTINUOUS
 62
     7
 10
-763.38329999999985
 20
189.76236
 30
0.0
 11
-757.24370999999985
 21
189.5479599999999
 31
0.0
  0
LINE
  5
6AC
  8
0
  6
CONTINUOUS
 62
     7
 10
-858.74376999999981
 20
265.54797000000002
 30
0.0
 11
-849.47374999999988
 21
265.54797000000002
 31
0.0
  0
LINE
  5
6AD
  8
0
  6
CONTINUOUS
 62
     3
 10
-940.74419999999986
 20
228.0477299999998
 30
0.0
 11
-940.74419999999986
 21
243.0477299999998
 31
0.0
  0
LINE
  5
6AE
  8
0
  6
CONTINUOUS
 62
     3
 10
-940.74419999999986
 20
243.0477299999998
 30
0.0
 11
-937.24426000000005
 21
243.0477299999998
 31
0.0
  0
LINE
  5
6AF
  8
0
  6
CONTINUOUS
 62
     3
 10
-933.24419999999998
 20
269.04772999999989
 30
0.0
 11
-933.24419999999998
 21
265.54773
 31
0.0
  0
LINE
  5
6B0
  8
0
  6
CONTINUOUS
 62
     3
 10
-933.24419999999998
 20
269.04772999999989
 30
0.0
 11
-918.24377000000015
 21
269.04772999999989
 31
0.0
  0
LINE
  5
6B1
  8
0
  6
CONTINUOUS
 62
     3
 10
-918.24377000000015
 20
269.04772999999989
 30
0.0
 11
-918.24377000000015
 21
265.54773
 31
0.0
  0
LINE
  5
6B2
  8
0
  6
CONTINUOUS
 62
     3
 10
-937.24426000000005
 20
205.54818999999981
 30
0.0
 11
-937.24426000000005
 21
265.54773
 31
0.0
  0
LINE
  5
6B3
  8
0
  6
CONTINUOUS
 62
     3
 10
-860.24370999999985
 20
207.04796999999991
 30
0.0
 11
-860.24370999999985
 21
264.04793999999998
 31
0.0
  0
LINE
  5
6B4
  8
0
  6
CONTINUOUS
 62
     3
 10
-937.24426000000005
 20
265.54773
 30
0.0
 11
-861.74376999999981
 21
265.54773
 31
0.0
  0
LINE
  5
6B5
  8
0
  6
CONTINUOUS
 62
     3
 10
-908.04369999999994
 20
217.74773999999991
 30
0.0
 11
-908.04369999999994
 21
253.3517299999998
 31
0.0
  0
LINE
  5
6B6
  8
0
  6
CONTINUOUS
 62
     3
 10
-872.44372999999985
 20
217.74773999999991
 30
0.0
 11
-872.44372999999985
 21
253.3517299999998
 31
0.0
  0
LINE
  5
6B7
  8
0
  6
CONTINUOUS
 62
     3
 10
-908.04369999999994
 20
217.74773999999991
 30
0.0
 11
-872.44372999999985
 21
217.74773999999991
 31
0.0
  0
LINE
  5
6B8
  8
0
  6
CONTINUOUS
 62
     3
 10
-908.04369999999994
 20
253.3517299999998
 30
0.0
 11
-872.44372999999985
 21
253.3517299999998
 31
0.0
  0
LINE
  5
6B9
  8
0
  6
CONTINUOUS
 62
     3
 10
-869.87170000000003
 20
213.04818999999989
 30
0.0
 11
-865.66669000000013
 21
213.04818999999989
 31
0.0
  0
LINE
  5
6BA
  8
0
  6
CONTINUOUS
 62
     3
 10
-867.74370999999985
 20
210.98618999999991
 30
0.0
 11
-867.74370999999985
 21
215.01214999999999
 31
0.0
  0
LINE
  5
6BB
  8
0
  6
CONTINUOUS
 62
     3
 10
-938.74425999999994
 20
204.04821999999999
 30
0.0
 11
-933.24419999999998
 21
204.04821999999999
 31
0.0
  0
LINE
  5
6BC
  8
0
  6
CONTINUOUS
 62
     3
 10
-938.74425999999994
 20
267.04770000000002
 30
0.0
 11
-933.24419999999998
 21
267.04770000000002
 31
0.0
  0
LINE
  5
6BD
  8
0
  6
CONTINUOUS
 62
     3
 10
-913.24376999999981
 20
212.54820000000001
 30
0.0
 11
-873.22180000000014
 21
212.54820000000001
 31
0.0
  0
LINE
  5
6BE
  8
0
  6
CONTINUOUS
 62
     3
 10
-907.26671999999974
 20
258.54772999999989
 30
0.0
 11
-867.2437699999997
 21
258.54772999999989
 31
0.0
  0
LINE
  5
6BF
  8
0
  6
CONTINUOUS
 62
     3
 10
-858.74376999999981
 20
204.04821999999999
 30
0.0
 11
-858.74376999999981
 21
267.04770000000002
 31
0.0
  0
LINE
  5
6C0
  8
0
  6
CONTINUOUS
 62
     3
 10
-867.2437699999997
 20
218.52567999999991
 30
0.0
 11
-867.2437699999997
 21
258.54772999999989
 31
0.0
  0
LINE
  5
6C1
  8
0
  6
CONTINUOUS
 62
     3
 10
-913.24376999999981
 20
212.54820000000001
 30
0.0
 11
-913.24376999999981
 21
252.57073999999989
 31
0.0
  0
LINE
  5
6C2
  8
0
  6
CONTINUOUS
 62
     3
 10
-938.74425999999994
 20
204.04821999999999
 30
0.0
 11
-938.74425999999994
 21
228.0477299999998
 31
0.0
  0
LINE
  5
6C3
  8
0
  6
CONTINUOUS
 62
     3
 10
-938.74425999999994
 20
243.0477299999998
 30
0.0
 11
-938.74425999999994
 21
267.04770000000002
 31
0.0
  0
LINE
  5
6C4
  8
0
  6
CONTINUOUS
 62
     3
 10
-912.74370999999985
 20
255.98570000000001
 30
0.0
 11
-912.74370999999985
 21
260.01168999999987
 31
0.0
  0
LINE
  5
6C5
  8
0
  6
CONTINUOUS
 62
     3
 10
-914.87170000000015
 20
258.04773
 30
0.0
 11
-910.66669000000002
 21
258.04773
 31
0.0
  0
LINE
  5
6C6
  8
0
  6
CONTINUOUS
 62
     3
 10
-937.24426000000005
 20
205.54818999999981
 30
0.0
 11
-861.74376999999981
 21
205.54818999999981
 31
0.0
  0
LINE
  5
6C7
  8
0
  6
CONTINUOUS
 62
     7
 10
-858.74376999999981
 20
205.5479599999999
 30
0.0
 11
-849.47374999999988
 21
205.5479599999999
 31
0.0
  0
LINE
  5
6C8
  8
0
  6
CONTINUOUS
 62
     7
 10
-921.74377000000015
 20
197.3248899999999
 30
0.0
 11
-839.24376999999981
 21
197.3248899999999
 31
0.0
  0
LINE
  5
6C9
  8
0
  6
CONTINUOUS
 62
     7
 10
-923.24377000000004
 20
198.82486
 30
0.0
 11
-923.24377000000004
 21
198.82486
 31
0.0
  0
LINE
  5
6CA
  8
0
  6
CONTINUOUS
 62
     7
 10
-844.70325000000003
 20
182.54796999999991
 30
0.0
 11
-839.24376999999981
 21
182.54796999999991
 31
0.0
  0
LINE
  5
6CB
  8
0
  6
CONTINUOUS
 62
     7
 10
-840.74376999999993
 20
197.32494
 30
0.0
 11
-845.18584999999985
 21
180.74708999999999
 31
0.0
  0
LINE
  5
6CC
  8
0
  6
CONTINUOUS
 62
     7
 10
-908.24376999999993
 20
175.66003000000001
 30
0.0
 11
-908.24376999999993
 21
179.26469
 31
0.0
  0
LINE
  5
6CD
  8
0
  6
CONTINUOUS
 62
     7
 10
-947.24376999999981
 20
184.76304999999991
 30
0.0
 11
-945.93493999999998
 21
175.38359
 31
0.0
  0
LINE
  5
6CE
  8
0
  6
CONTINUOUS
 62
     7
 10
-947.24376999999981
 20
184.76313999999999
 30
0.0
 11
-945.95270000000005
 21
176.27000000000001
 31
0.0
  0
LINE
  5
6CF
  8
0
  6
CONTINUOUS
 62
     7
 10
-947.24376999999981
 20
186.1076699999999
 30
0.0
 11
-945.96367999999995
 21
178.10248999999999
 31
0.0
  0
LINE
  5
6D0
  8
0
  6
CONTINUOUS
 62
     7
 10
-943.95403999999996
 20
173.66003000000001
 30
0.0
 11
-910.24370999999985
 21
173.66003000000001
 31
0.0
  0
LINE
  5
6D1
  8
0
  6
CONTINUOUS
 62
     7
 10
-943.97540000000004
 20
174.5705599999998
 30
0.0
 11
-910.24370999999985
 21
174.5705599999998
 31
0.0
  0
LINE
  5
6D2
  8
0
  6
CONTINUOUS
 62
     7
 10
-943.98876999999993
 20
176.41831999999991
 30
0.0
 11
-910.24370999999985
 21
176.41831999999991
 31
0.0
  0
LINE
  5
6D3
  8
0
  6
CONTINUOUS
 62
     7
 10
-947.24370999999996
 20
187.45223999999999
 30
0.0
 11
-946.00244000000009
 21
180.89283999999989
 31
0.0
  0
LINE
  5
6D4
  8
0
  6
CONTINUOUS
 62
     7
 10
-944.03734999999995
 20
179.26469
 30
0.0
 11
-847.11761000000001
 21
179.26469
 31
0.0
  0
LINE
  5
6D5
  8
0
  6
CONTINUOUS
 62
     7
 10
-839.24376999999981
 20
179.54796999999999
 30
0.0
 11
-831.24377000000004
 21
179.54796999999999
 31
0.0
  0
LINE
  5
6D6
  8
0
  6
CONTINUOUS
 62
     7
 10
-954.54565000000002
 20
192.3565099999999
 30
0.0
 11
-948.31586000000004
 21
192.3565099999999
 31
0.0
  0
LINE
  5
6D7
  8
0
  6
CONTINUOUS
 62
     7
 10
-955.24370999999996
 20
182.54796999999991
 30
0.0
 11
-947.24376999999981
 21
182.54796999999991
 31
0.0
  0
LINE
  5
6D8
  8
0
  6
CONTINUOUS
 62
     7
 10
-956.24377000000004
 20
185.5479599999999
 30
0.0
 11
-955.24370999999996
 21
185.5479599999999
 31
0.0
  0
LINE
  5
6D9
  8
0
  6
CONTINUOUS
 62
     7
 10
-959.24377000000015
 20
186.0517999999999
 30
0.0
 11
-959.24377000000015
 21
186.5775499999998
 31
0.0
  0
LINE
  5
6DA
  8
0
  6
CONTINUOUS
 62
     7
 10
-959.24377000000015
 20
188.15141
 30
0.0
 11
-959.24377000000015
 21
188.6974499999998
 31
0.0
  0
LINE
  5
6DB
  8
0
  6
CONTINUOUS
 62
     7
 10
-959.24377000000015
 20
192.71753000000001
 30
0.0
 11
-959.24377000000015
 21
193.18964
 31
0.0
  0
LINE
  5
6DC
  8
0
  6
CONTINUOUS
 62
     7
 10
-959.46344000000022
 20
189.16276999999991
 30
0.0
 11
-960.71209999999985
 21
189.82463000000001
 31
0.0
  0
LINE
  5
6DD
  8
0
  6
CONTINUOUS
 62
     7
 10
-959.45708999999999
 20
187.05321000000001
 30
0.0
 11
-960.69641000000001
 21
187.68223999999981
 31
0.0
  0
LINE
  5
6DE
  8
0
  6
CONTINUOUS
 62
     7
 10
-959.47790999999995
 20
193.70016000000001
 30
0.0
 11
-960.74920999999995
 21
194.44481999999999
 31
0.0
  0
LINE
  5
6DF
  8
0
  6
CONTINUOUS
 62
     7
 10
-959.00451999999996
 20
186.94487000000001
 30
0.0
 11
-956.74377000000015
 21
186.94487000000001
 31
0.0
  0
LINE
  5
6E0
  8
0
  6
CONTINUOUS
 62
     7
 10
-958.99511999999993
 20
189.04631000000001
 30
0.0
 11
-957.24377000000004
 21
189.04631000000001
 31
0.0
  0
LINE
  5
6E1
  8
0
  6
CONTINUOUS
 62
     7
 10
-958.97247000000004
 20
193.56301999999999
 30
0.0
 11
-957.24377000000004
 21
193.56301999999999
 31
0.0
  0
LINE
  5
6E2
  8
0
  6
CONTINUOUS
 62
     7
 10
-958.94512999999995
 20
192.4230299999999
 30
0.0
 11
-956.24377000000004
 21
192.4230299999999
 31
0.0
  0
LINE
  5
6E3
  8
0
  6
CONTINUOUS
 62
     7
 10
-958.96673999999973
 20
187.9062799999999
 30
0.0
 11
-956.24377000000004
 21
187.9062799999999
 31
0.0
  0
LINE
  5
6E4
  8
0
  6
CONTINUOUS
 62
     7
 10
-959.49352999999985
 20
192.58678999999989
 30
0.0
 11
-960.79210999999998
 21
193.43835000000001
 31
0.0
  0
LINE
  5
6E5
  8
0
  6
CONTINUOUS
 62
     7
 10
-959.48131999999987
 20
188.0489
 30
0.0
 11
-960.75829999999985
 21
188.81519
 31
0.0
  0
LINE
  5
6E6
  8
0
  6
CONTINUOUS
 62
     7
 10
-959.47607000000005
 20
185.93285999999981
 30
0.0
 11
-960.74419999999998
 21
186.6657999999999
 31
0.0
  0
LINE
  5
6E7
  8
0
  6
CONTINUOUS
 62
     7
 10
-958.97559000000001
 20
185.7985799999999
 30
0.0
 11
-956.74377000000015
 21
185.7985799999999
 31
0.0
  0
LINE
  5
6E8
  8
0
  6
CONTINUOUS
 62
     7
 10
-961.24377000000004
 20
187.53152
 30
0.0
 11
-961.24377000000004
 21
230.5479599999999
 31
0.0
  0
LINE
  5
6E9
  8
0
  6
CONTINUOUS
 62
     7
 10
-844.70325000000003
 20
288.54793999999993
 30
0.0
 11
-839.24376999999981
 21
288.54793999999993
 31
0.0
  0
LINE
  5
6EA
  8
0
  6
CONTINUOUS
 62
     7
 10
-841.04163000000005
 20
274.88268999999991
 30
0.0
 11
-845.18573000000004
 21
290.34875
 31
0.0
  0
LINE
  5
6EB
  8
0
  6
CONTINUOUS
 62
     7
 10
-908.24376999999993
 20
295.43585000000002
 30
0.0
 11
-908.24376999999993
 21
291.83123999999992
 31
0.0
  0
LINE
  5
6EC
  8
0
  6
CONTINUOUS
 62
     7
 10
-947.24376999999981
 20
286.33282000000008
 30
0.0
 11
-945.93493999999998
 21
295.71224999999998
 31
0.0
  0
LINE
  5
6ED
  8
0
  6
CONTINUOUS
 62
     7
 10
-947.24376999999981
 20
286.33282000000008
 30
0.0
 11
-945.9527599999999
 21
294.82589999999982
 31
0.0
  0
LINE
  5
6EE
  8
0
  6
CONTINUOUS
 62
     7
 10
-947.24376999999981
 20
284.98822000000001
 30
0.0
 11
-945.96374999999989
 21
292.99340999999998
 31
0.0
  0
LINE
  5
6EF
  8
0
  6
CONTINUOUS
 62
     7
 10
-943.95403999999996
 20
297.43585000000002
 30
0.0
 11
-910.24370999999985
 21
297.43585000000002
 31
0.0
  0
LINE
  5
6F0
  8
0
  6
CONTINUOUS
 62
     7
 10
-943.97540000000004
 20
296.52533
 30
0.0
 11
-910.24370999999985
 21
296.52533
 31
0.0
  0
LINE
  5
6F1
  8
0
  6
CONTINUOUS
 62
     7
 10
-943.98876999999993
 20
294.67761000000002
 30
0.0
 11
-910.24370999999985
 21
294.67761000000002
 31
0.0
  0
LINE
  5
6F2
  8
0
  6
CONTINUOUS
 62
     7
 10
-921.74377000000015
 20
273.77099999999967
 30
0.0
 11
-839.24376999999981
 21
273.77099999999967
 31
0.0
  0
LINE
  5
6F3
  8
0
  6
CONTINUOUS
 62
     7
 10
-941.87836000000004
 20
198.89671000000001
 30
0.0
 11
-947.24376999999981
 21
187.45223999999999
 31
0.0
  0
LINE
  5
6F4
  8
0
  6
CONTINUOUS
 62
     7
 10
-941.87823000000003
 20
272.19909999999999
 30
0.0
 11
-947.24365
 21
283.64354999999972
 31
0.0
  0
LINE
  5
6F5
  8
0
  6
CONTINUOUS
 62
     7
 10
-947.24384000000009
 20
283.6436799999999
 30
0.0
 11
-946.0025599999999
 21
290.20308999999992
 31
0.0
  0
LINE
  5
6F6
  8
0
  6
CONTINUOUS
 62
     7
 10
-944.03734999999995
 20
291.83123999999992
 30
0.0
 11
-847.11761000000001
 21
291.83123999999992
 31
0.0
  0
LINE
  5
6F7
  8
0
  6
CONTINUOUS
 62
     7
 10
-923.24377000000004
 20
198.82486
 30
0.0
 11
-923.24377000000004
 21
197.3248899999999
 31
0.0
  0
LINE
  5
6F8
  8
0
  6
CONTINUOUS
 62
     7
 10
-923.24377000000004
 20
272.27099999999967
 30
0.0
 11
-923.24377000000004
 21
272.27099999999967
 31
0.0
  0
LINE
  5
6F9
  8
0
  6
CONTINUOUS
 62
     7
 10
-839.24376999999981
 20
291.54793999999993
 30
0.0
 11
-831.24377000000004
 21
291.54793999999993
 31
0.0
  0
LINE
  5
6FA
  8
0
  6
CONTINUOUS
 62
     7
 10
-813.06359999999995
 20
292.68285999999972
 30
0.0
 11
-807.43200999999988
 21
292.87952000000001
 31
0.0
  0
LINE
  5
6FB
  8
0
  6
CONTINUOUS
 62
     7
 10
-954.54565000000002
 20
278.73937999999998
 30
0.0
 11
-948.31586000000004
 21
278.73937999999998
 31
0.0
  0
LINE
  5
6FC
  8
0
  6
CONTINUOUS
 62
     7
 10
-955.24370999999996
 20
288.54793999999993
 30
0.0
 11
-947.24376999999981
 21
288.54793999999993
 31
0.0
  0
LINE
  5
6FD
  8
0
  6
CONTINUOUS
 62
     7
 10
-955.24370999999996
 20
288.54793999999993
 30
0.0
 11
-955.24370999999996
 21
182.54796999999991
 31
0.0
  0
LINE
  5
6FE
  8
0
  6
CONTINUOUS
 62
     7
 10
-956.24377000000004
 20
285.54797000000002
 30
0.0
 11
-955.24370999999996
 21
285.54797000000002
 31
0.0
  0
LINE
  5
6FF
  8
0
  6
CONTINUOUS
 62
     7
 10
-956.24377000000004
 20
285.54797000000002
 30
0.0
 11
-956.24377000000004
 21
184.42473000000001
 31
0.0
  0
LINE
  5
700
  8
0
  6
CONTINUOUS
 62
     7
 10
-960.74920999999995
 20
194.44483999999991
 30
0.0
 11
-960.77288999999973
 21
194.4587199999998
 31
0.0
  0
LINE
  5
701
  8
0
  6
CONTINUOUS
 62
     7
 10
-947.24376999999981
 20
288.54793999999993
 30
0.0
 11
-947.24376999999981
 21
186.10773
 31
0.0
  0
LINE
  5
702
  8
0
  6
CONTINUOUS
 62
     7
 10
-890.24370999999985
 20
198.82486
 30
0.0
 11
-842.42169000000013
 21
198.82486
 31
0.0
  0
LINE
  5
703
  8
0
  6
CONTINUOUS
 62
     7
 10
-945.56586000000004
 20
202.18073000000001
 30
0.0
 11
-933.24419999999998
 21
202.18073000000001
 31
0.0
  0
LINE
  5
704
  8
0
  6
CONTINUOUS
 62
     7
 10
-890.24370999999985
 20
199.54796999999991
 30
0.0
 11
-944.87835999999982
 21
199.54796999999991
 31
0.0
  0
LINE
  5
705
  8
0
  6
CONTINUOUS
 62
     7
 10
-890.24370999999985
 20
201.5479399999999
 30
0.0
 11
-944.87835999999982
 21
201.5479399999999
 31
0.0
  0
LINE
  5
706
  8
0
  6
CONTINUOUS
 62
     7
 10
-962.74370999999985
 20
218.26592999999991
 30
0.0
 11
-961.24377000000004
 21
218.26592999999991
 31
0.0
  0
LINE
  5
707
  8
0
  6
CONTINUOUS
 62
     7
 10
-962.74370999999985
 20
220.3979299999998
 30
0.0
 11
-959.45006999999987
 21
220.3979299999998
 31
0.0
  0
LINE
  5
708
  8
0
  6
CONTINUOUS
 62
     7
 10
-959.24377000000015
 20
229.9346799999999
 30
0.0
 11
-959.24377000000015
 21
231.09557000000001
 31
0.0
  0
LINE
  5
709
  8
0
  6
CONTINUOUS
 62
     7
 10
-962.74364999999989
 20
215.54799
 30
0.0
 11
-961.24364999999989
 21
215.41675000000001
 31
0.0
  0
LINE
  5
70A
  8
0
  6
CONTINUOUS
 62
     7
 10
-962.74370999999985
 20
215.54795999999999
 30
0.0
 11
-962.74370999999985
 21
235.5479599999999
 31
0.0
  0
LINE
  5
70B
  8
0
  6
CONTINUOUS
 62
     7
 10
-959.24377000000015
 20
200.15509
 30
0.0
 11
-959.24377000000015
 21
201.215
 31
0.0
  0
LINE
  5
70C
  8
0
  6
CONTINUOUS
 62
     7
 10
-959.24377000000015
 20
209.92174
 30
0.0
 11
-959.24377000000015
 21
211.28457999999981
 31
0.0
  0
LINE
  5
70D
  8
0
  6
CONTINUOUS
 62
     7
 10
-959.24377000000015
 20
219.9408599999999
 30
0.0
 11
-959.24377000000015
 21
221.15220999999991
 31
0.0
  0
LINE
  5
70E
  8
0
  6
CONTINUOUS
 62
     7
 10
-957.24377000000004
 20
231.54794000000001
 30
0.0
 11
-960.24370999999985
 21
231.54794000000001
 31
0.0
  0
LINE
  5
70F
  8
0
  6
CONTINUOUS
 62
     7
 10
-957.24377000000004
 20
229.54796999999999
 30
0.0
 11
-960.24370999999985
 21
229.54796999999999
 31
0.0
  0
LINE
  5
710
  8
0
  6
CONTINUOUS
 62
     7
 10
-957.24377000000004
 20
221.5479399999999
 30
0.0
 11
-960.24370999999985
 21
221.5479399999999
 31
0.0
  0
LINE
  5
711
  8
0
  6
CONTINUOUS
 62
     7
 10
-957.24377000000004
 20
219.54796999999991
 30
0.0
 11
-960.24370999999985
 21
219.54796999999991
 31
0.0
  0
LINE
  5
712
  8
0
  6
CONTINUOUS
 62
     7
 10
-957.24377000000004
 20
211.5479399999999
 30
0.0
 11
-960.24370999999985
 21
211.5479399999999
 31
0.0
  0
LINE
  5
713
  8
0
  6
CONTINUOUS
 62
     7
 10
-957.24377000000004
 20
209.54796999999991
 30
0.0
 11
-960.24370999999985
 21
209.54796999999991
 31
0.0
  0
LINE
  5
714
  8
0
  6
CONTINUOUS
 62
     7
 10
-959.38744999999994
 20
201.84900999999999
 30
0.0
 11
-960.53777999999988
 21
202.2028699999999
 31
0.0
  0
LINE
  5
715
  8
0
  6
CONTINUOUS
 62
     7
 10
-959.09343999999999
 20
201.80479
 30
0.0
 11
-957.24377000000004
 21
201.80479
 31
0.0
  0
LINE
  5
716
  8
0
  6
CONTINUOUS
 62
     7
 10
-959.43195000000003
 20
199.93906000000001
 30
0.0
 11
-960.63653999999985
 21
200.45353999999989
 31
0.0
  0
LINE
  5
717
  8
0
  6
CONTINUOUS
 62
     7
 10
-959.03912000000003
 20
199.85869
 30
0.0
 11
-956.94379000000004
 21
199.85869
 31
0.0
  0
LINE
  5
718
  8
0
  6
CONTINUOUS
 62
     7
 10
-842.42169000000013
 20
202.18073000000001
 30
0.0
 11
-858.94379000000004
 21
202.18073000000001
 31
0.0
  0
LINE
  5
719
  8
0
  6
CONTINUOUS
 62
     7
 10
-859.94372999999985
 20
203.18070999999989
 30
0.0
 11
-859.94372999999985
 21
204.04821999999999
 31
0.0
  0
LINE
  5
71A
  8
0
  6
CONTINUOUS
 62
     7
 10
-858.74370999999985
 20
205.28229999999999
 30
0.0
 11
-849.47381999999982
 21
205.54793000000001
 31
0.0
  0
LINE
  5
71B
  8
0
  6
CONTINUOUS
 62
     7
 10
-945.56586000000004
 20
198.82486
 30
0.0
 11
-890.24370999999985
 21
198.82486
 31
0.0
  0
LINE
  5
71C
  8
0
  6
CONTINUOUS
 62
     7
 10
-845.89940999999988
 20
199.54796999999991
 30
0.0
 11
-890.24370999999985
 21
199.54796999999991
 31
0.0
  0
LINE
  5
71D
  8
0
  6
CONTINUOUS
 62
     7
 10
-845.89940999999988
 20
201.5479399999999
 30
0.0
 11
-890.24370999999985
 21
201.5479399999999
 31
0.0
  0
LINE
  5
71E
  8
0
  6
CONTINUOUS
 62
     7
 10
-945.78223000000003
 20
209.06174999999999
 30
0.0
 11
-938.74425999999994
 21
209.06174999999999
 31
0.0
  0
LINE
  5
71F
  8
0
  6
CONTINUOUS
 62
     7
 10
-938.74425999999994
 20
209.54796999999991
 30
0.0
 11
-944.87835999999982
 21
209.54796999999991
 31
0.0
  0
LINE
  5
720
  8
0
  6
CONTINUOUS
 62
     7
 10
-945.78223000000003
 20
211.9847299999999
 30
0.0
 11
-938.74425999999994
 21
211.9847299999999
 31
0.0
  0
LINE
  5
721
  8
0
  6
CONTINUOUS
 62
     7
 10
-938.74425999999994
 20
211.5479399999999
 30
0.0
 11
-944.87835999999982
 21
211.5479399999999
 31
0.0
  0
LINE
  5
722
  8
0
  6
CONTINUOUS
 62
     7
 10
-945.91283999999985
 20
219.2044699999999
 30
0.0
 11
-938.74425999999994
 21
219.2044699999999
 31
0.0
  0
LINE
  5
723
  8
0
  6
CONTINUOUS
 62
     7
 10
-938.74425999999994
 20
219.54796999999991
 30
0.0
 11
-944.87835999999982
 21
219.54796999999991
 31
0.0
  0
LINE
  5
724
  8
0
  6
CONTINUOUS
 62
     7
 10
-938.74425999999994
 20
221.5479399999999
 30
0.0
 11
-944.87835999999982
 21
221.5479399999999
 31
0.0
  0
LINE
  5
725
  8
0
  6
CONTINUOUS
 62
     7
 10
-945.91283999999985
 20
221.86632
 30
0.0
 11
-938.74425999999994
 21
221.86632
 31
0.0
  0
LINE
  5
726
  8
0
  6
CONTINUOUS
 62
     7
 10
-945.97484999999995
 20
229.27515
 30
0.0
 11
-940.74419999999986
 21
229.27515
 31
0.0
  0
LINE
  5
727
  8
0
  6
CONTINUOUS
 62
     7
 10
-940.74419999999986
 20
229.54796999999999
 30
0.0
 11
-944.87835999999982
 21
229.54796999999999
 31
0.0
  0
LINE
  5
728
  8
0
  6
CONTINUOUS
 62
     7
 10
-940.74419999999986
 20
231.54794000000001
 30
0.0
 11
-944.87835999999982
 21
231.54794000000001
 31
0.0
  0
LINE
  5
729
  8
0
  6
CONTINUOUS
 62
     7
 10
-945.97484999999995
 20
231.8129899999999
 30
0.0
 11
-940.74419999999986
 21
231.8129899999999
 31
0.0
  0
LINE
  5
72A
  8
0
  6
CONTINUOUS
 62
     7
 10
-859.94372999999985
 20
267.91512999999998
 30
0.0
 11
-859.94372999999985
 21
267.04770000000002
 31
0.0
  0
LINE
  5
72B
  8
0
  6
CONTINUOUS
 62
     7
 10
-842.42169000000013
 20
268.91516000000001
 30
0.0
 11
-858.94379000000004
 21
268.91516000000001
 31
0.0
  0
LINE
  5
72C
  8
0
  6
CONTINUOUS
 62
     7
 10
-945.97484999999995
 20
239.28290000000001
 30
0.0
 11
-940.74419999999986
 21
239.28290000000001
 31
0.0
  0
LINE
  5
72D
  8
0
  6
CONTINUOUS
 62
     7
 10
-945.97484999999995
 20
241.82074
 30
0.0
 11
-940.74419999999986
 21
241.82074
 31
0.0
  0
LINE
  5
72E
  8
0
  6
CONTINUOUS
 62
     7
 10
-945.91283999999985
 20
249.2296
 30
0.0
 11
-938.74425999999994
 21
249.2296
 31
0.0
  0
LINE
  5
72F
  8
0
  6
CONTINUOUS
 62
     7
 10
-945.91283999999985
 20
251.89146
 30
0.0
 11
-938.74425999999994
 21
251.89146
 31
0.0
  0
LINE
  5
730
  8
0
  6
CONTINUOUS
 62
     7
 10
-945.78228999999999
 20
259.11111
 30
0.0
 11
-938.74425999999994
 21
259.11111
 31
0.0
  0
LINE
  5
731
  8
0
  6
CONTINUOUS
 62
     7
 10
-945.78228999999999
 20
262.03408999999982
 30
0.0
 11
-938.74425999999994
 21
262.03408999999982
 31
0.0
  0
LINE
  5
732
  8
0
  6
CONTINUOUS
 62
     7
 10
-945.56646999999964
 20
268.91516000000001
 30
0.0
 11
-933.24419999999998
 21
268.91516000000001
 31
0.0
  0
LINE
  5
733
  8
0
  6
CONTINUOUS
 62
     7
 10
-945.56646999999964
 20
272.27099999999967
 30
0.0
 11
-842.42169000000013
 21
272.27099999999967
 31
0.0
  0
LINE
  5
734
  8
0
  6
CONTINUOUS
 62
     7
 10
-940.74419999999986
 20
239.54796999999999
 30
0.0
 11
-944.87835999999982
 21
239.54796999999999
 31
0.0
  0
LINE
  5
735
  8
0
  6
CONTINUOUS
 62
     7
 10
-940.74419999999986
 20
241.5479399999999
 30
0.0
 11
-944.87835999999982
 21
241.5479399999999
 31
0.0
  0
LINE
  5
736
  8
0
  6
CONTINUOUS
 62
     7
 10
-938.74425999999994
 20
249.54796999999999
 30
0.0
 11
-944.87835999999982
 21
249.54796999999999
 31
0.0
  0
LINE
  5
737
  8
0
  6
CONTINUOUS
 62
     7
 10
-938.74425999999994
 20
251.5479399999999
 30
0.0
 11
-944.87835999999982
 21
251.5479399999999
 31
0.0
  0
LINE
  5
738
  8
0
  6
CONTINUOUS
 62
     7
 10
-938.74425999999994
 20
259.54797000000002
 30
0.0
 11
-944.87835999999982
 21
259.54797000000002
 31
0.0
  0
LINE
  5
739
  8
0
  6
CONTINUOUS
 62
     7
 10
-938.74425999999994
 20
261.54793999999998
 30
0.0
 11
-944.87835999999982
 21
261.54793999999998
 31
0.0
  0
LINE
  5
73A
  8
0
  6
CONTINUOUS
 62
     7
 10
-845.89940999999988
 20
269.54797000000002
 30
0.0
 11
-944.87835999999982
 21
269.54797000000002
 31
0.0
  0
LINE
  5
73B
  8
0
  6
CONTINUOUS
 62
     7
 10
-845.89940999999988
 20
271.54793999999998
 30
0.0
 11
-944.87835999999982
 21
271.54793999999998
 31
0.0
  0
LINE
  5
73C
  8
0
  6
CONTINUOUS
 62
     7
 10
-962.74370999999985
 20
252.82995999999989
 30
0.0
 11
-961.24377000000004
 21
252.82995999999989
 31
0.0
  0
LINE
  5
73D
  8
0
  6
CONTINUOUS
 62
     7
 10
-962.74370999999985
 20
250.69799999999989
 30
0.0
 11
-958.06628000000001
 21
250.69799999999989
 31
0.0
  0
LINE
  5
73E
  8
0
  6
CONTINUOUS
 62
     7
 10
-962.74383999999998
 20
255.5479399999999
 30
0.0
 11
-961.24383999999998
 21
255.67917
 31
0.0
  0
LINE
  5
73F
  8
0
  6
CONTINUOUS
 62
     7
 10
-962.74370999999985
 20
255.5479599999999
 30
0.0
 11
-962.74370999999985
 21
235.5479599999999
 31
0.0
  0
LINE
  5
740
  8
0
  6
CONTINUOUS
 62
     7
 10
-959.24377000000015
 20
285.04412999999988
 30
0.0
 11
-959.24377000000015
 21
284.51837
 31
0.0
  0
LINE
  5
741
  8
0
  6
CONTINUOUS
 62
     7
 10
-959.24377000000015
 20
282.94452000000001
 30
0.0
 11
-959.24377000000015
 21
282.39843999999999
 31
0.0
  0
LINE
  5
742
  8
0
  6
CONTINUOUS
 62
     7
 10
-959.24377000000015
 20
278.37838999999991
 30
0.0
 11
-959.24377000000015
 21
277.90625
 31
0.0
  0
LINE
  5
743
  8
0
  6
CONTINUOUS
 62
     7
 10
-959.24377000000015
 20
270.94083000000001
 30
0.0
 11
-959.24377000000015
 21
269.88091999999989
 31
0.0
  0
LINE
  5
744
  8
0
  6
CONTINUOUS
 62
     7
 10
-959.24377000000015
 20
261.17410000000001
 30
0.0
 11
-959.24377000000015
 21
259.81133999999992
 31
0.0
  0
LINE
  5
745
  8
0
  6
CONTINUOUS
 62
     7
 10
-959.24377000000015
 20
241.1611799999998
 30
0.0
 11
-959.24377000000015
 21
240.00029000000001
 31
0.0
  0
LINE
  5
746
  8
0
  6
CONTINUOUS
 62
     7
 10
-959.24377000000015
 20
251.15507999999991
 30
0.0
 11
-959.24377000000015
 21
249.9436299999999
 31
0.0
  0
LINE
  5
747
  8
0
  6
CONTINUOUS
 62
     7
 10
-957.24377000000004
 20
239.54796999999999
 30
0.0
 11
-960.24370999999985
 21
239.54796999999999
 31
0.0
  0
LINE
  5
748
  8
0
  6
CONTINUOUS
 62
     7
 10
-957.24377000000004
 20
241.5479399999999
 30
0.0
 11
-960.24370999999985
 21
241.5479399999999
 31
0.0
  0
LINE
  5
749
  8
0
  6
CONTINUOUS
 62
     7
 10
-957.24377000000004
 20
249.54796999999999
 30
0.0
 11
-960.24370999999985
 21
249.54796999999999
 31
0.0
  0
LINE
  5
74A
  8
0
  6
CONTINUOUS
 62
     7
 10
-957.24377000000004
 20
251.5479399999999
 30
0.0
 11
-960.24370999999985
 21
251.5479399999999
 31
0.0
  0
LINE
  5
74B
  8
0
  6
CONTINUOUS
 62
     7
 10
-957.24377000000004
 20
259.54797000000002
 30
0.0
 11
-960.24370999999985
 21
259.54797000000002
 31
0.0
  0
LINE
  5
74C
  8
0
  6
CONTINUOUS
 62
     7
 10
-957.24377000000004
 20
261.54793999999998
 30
0.0
 11
-960.24370999999985
 21
261.54793999999998
 31
0.0
  0
LINE
  5
74D
  8
0
  6
CONTINUOUS
 62
     7
 10
-959.46344000000022
 20
281.93322999999992
 30
0.0
 11
-960.71209999999985
 21
281.27132999999998
 31
0.0
  0
LINE
  5
74E
  8
0
  6
CONTINUOUS
 62
     7
 10
-959.4572099999998
 20
284.04268999999999
 30
0.0
 11
-960.69646999999998
 21
283.41367000000002
 31
0.0
  0
LINE
  5
74F
  8
0
  6
CONTINUOUS
 62
     7
 10
-959.38744999999994
 20
269.24686000000003
 30
0.0
 11
-960.53783999999985
 21
268.89300999999972
 31
0.0
  0
LINE
  5
750
  8
0
  6
CONTINUOUS
 62
     7
 10
-959.47790999999995
 20
277.39575000000002
 30
0.0
 11
-960.74920999999995
 21
276.65105999999992
 31
0.0
  0
LINE
  5
751
  8
0
  6
CONTINUOUS
 62
     7
 10
-959.00451999999996
 20
284.15105999999992
 30
0.0
 11
-956.74377000000015
 21
284.15105999999992
 31
0.0
  0
LINE
  5
752
  8
0
  6
CONTINUOUS
 62
     7
 10
-958.99511999999993
 20
282.04962
 30
0.0
 11
-957.24377000000004
 21
282.04962
 31
0.0
  0
LINE
  5
753
  8
0
  6
CONTINUOUS
 62
     7
 10
-958.97247000000004
 20
277.53289999999998
 30
0.0
 11
-957.24377000000004
 21
277.53289999999998
 31
0.0
  0
LINE
  5
754
  8
0
  6
CONTINUOUS
 62
     7
 10
-959.09343999999999
 20
269.29104999999998
 30
0.0
 11
-957.24377000000004
 21
269.29104999999998
 31
0.0
  0
LINE
  5
755
  8
0
  6
CONTINUOUS
 62
     7
 10
-958.94512999999995
 20
278.67284999999998
 30
0.0
 11
-956.24377000000004
 21
278.67284999999998
 31
0.0
  0
LINE
  5
756
  8
0
  6
CONTINUOUS
 62
     7
 10
-958.96673999999973
 20
283.18957999999992
 30
0.0
 11
-956.24377000000004
 21
283.18957999999992
 31
0.0
  0
LINE
  5
757
  8
0
  6
CONTINUOUS
 62
     7
 10
-959.43195000000003
 20
271.1568299999999
 30
0.0
 11
-960.63653999999985
 21
270.64235999999988
 31
0.0
  0
LINE
  5
758
  8
0
  6
CONTINUOUS
 62
     7
 10
-959.49346999999989
 20
278.50918999999982
 30
0.0
 11
-960.79210999999998
 21
277.65758999999991
 31
0.0
  0
LINE
  5
759
  8
0
  6
CONTINUOUS
 62
     7
 10
-959.48131999999987
 20
283.04705999999982
 30
0.0
 11
-960.75835999999993
 21
282.28075999999982
 31
0.0
  0
LINE
  5
75A
  8
0
  6
CONTINUOUS
 62
     7
 10
-959.47589000000005
 20
285.1630899999999
 30
0.0
 11
-960.74414000000002
 21
284.43004999999999
 31
0.0
  0
LINE
  5
75B
  8
0
  6
CONTINUOUS
 62
     7
 10
-959.03912000000003
 20
271.23714999999987
 30
0.0
 11
-956.94379000000004
 21
271.23714999999987
 31
0.0
  0
LINE
  5
75C
  8
0
  6
CONTINUOUS
 62
     7
 10
-958.97559000000001
 20
285.29732999999999
 30
0.0
 11
-956.74377000000015
 21
285.29732999999999
 31
0.0
  0
LINE
  5
75D
  8
0
  6
CONTINUOUS
 62
     7
 10
-961.24377000000004
 20
283.56432999999998
 30
0.0
 11
-961.24377000000004
 21
240.54795999999999
 31
0.0
  0
LINE
  5
75E
  8
0
  6
CONTINUOUS
 62
     7
 10
-849.47374999999988
 20
265.54797000000002
 30
0.0
 11
-849.47374999999988
 21
205.5479599999999
 31
0.0
  0
LINE
  5
75F
  8
0
  6
CONTINUOUS
 62
     7
 10
-839.24376999999981
 20
291.54793999999993
 30
0.0
 11
-839.24376999999981
 21
179.54796999999999
 31
0.0
  0
LINE
  5
760
  8
0
  6
CONTINUOUS
 62
     3
 10
-918.24377000000015
 20
202.04820000000001
 30
0.0
 11
-933.24419999999998
 21
202.04820000000001
 31
0.0
  0
LINE
  5
761
  8
0
  6
CONTINUOUS
 62
     3
 10
-940.74419999999986
 20
228.0477299999998
 30
0.0
 11
-937.24426000000005
 21
228.0477299999998
 31
0.0
  0
LINE
  5
762
  8
0
  6
CONTINUOUS
 62
     3
 10
-918.24377000000015
 20
267.04770000000002
 30
0.0
 11
-858.74376999999981
 21
267.04770000000002
 31
0.0
  0
LINE
  5
763
  8
0
  6
CONTINUOUS
 62
     3
 10
-918.24377000000015
 20
204.04821999999999
 30
0.0
 11
-858.74376999999981
 21
204.04821999999999
 31
0.0
  0
LINE
  5
764
  8
0
  6
CONTINUOUS
 62
     3
 10
-918.24377000000015
 20
202.04820000000001
 30
0.0
 11
-918.24377000000015
 21
205.54818999999981
 31
0.0
  0
LINE
  5
765
  8
0
  6
CENTER
 62
     7
 10
-890.24370999999985
 20
274.14182
 30
0.0
 11
-890.24370999999985
 21
192.89526000000001
 31
0.0
  0
LINE
  5
766
  8
0
  6
CONTINUOUS
 62
     3
 10
-933.24419999999998
 20
202.04820000000001
 30
0.0
 11
-933.24419999999998
 21
205.54818999999981
 31
0.0
  0
LINE
  5
767
  8
0
  6
CONTINUOUS
 62
     7
 10
-289.94022000000001
 20
148.37646000000001
 30
0.0
 11
-293.05956999999989
 21
160.0180399999999
 31
0.0
  0
LINE
  5
768
  8
0
  6
CONTINUOUS
 62
     7
 10
-152.86911000000001
 20
141.3053899999999
 30
0.0
 11
-163.71634999999981
 21
144.21190000000001
 31
0.0
  0
LINE
  5
769
  8
0
  6
CONTINUOUS
 62
     7
 10
-277.69277999999991
 20
141.30539999999991
 30
0.0
 11
-266.84557999999998
 21
144.21190000000001
 31
0.0
  0
LINE
  5
76A
  8
0
  6
CONTINUOUS
 62
     7
 10
-140.62165999999999
 20
148.37645000000001
 30
0.0
 11
-137.50232
 21
160.01799
 31
0.0
  0
LINE
  5
76B
  8
0
  6
CONTINUOUS
 62
     7
 10
-109.7584499999999
 20
273.54793999999998
 30
0.0
 11
-145.2809399999999
 21
273.54793999999998
 31
0.0
  0
LINE
  5
76D
  8
0
  6
CENTER
 62
     7
 10
-83.369690000000006
 20
433.45925999999992
 30
0.0
 11
-108.83762
 21
407.99130000000002
 31
0.0
  0
LINE
  5
76E
  8
0
  6
CONTINUOUS
 62
     7
 10
-75.283782999999985
 20
423.21978999999999
 30
0.0
 11
-72.780945000000003
 21
351.54797000000002
 31
0.0
  0
LINE
  5
76F
  8
0
  6
CONTINUOUS
 62
     7
 10
-93.609122999999997
 20
441.54514000000012
 30
0.0
 11
-165.2809399999999
 21
444.04797000000002
 31
0.0
  0
LINE
  5
770
  8
0
  6
CONTINUOUS
 62
     7
 10
-165.2809399999999
 20
444.04793999999998
 30
0.0
 11
-215.2809399999999
 21
444.04793999999998
 31
0.0
  0
LINE
  5
771
  8
0
  6
CONTINUOUS
 62
     7
 10
-72.780945000000003
 20
351.54793999999993
 30
0.0
 11
-72.780945000000003
 21
301.54793999999993
 31
0.0
  0
LINE
  5
772
  8
0
  6
CONTINUOUS
 62
     7
 10
-265.28093999999987
 20
444.04793999999998
 30
0.0
 11
-215.2809399999999
 21
444.04793999999998
 31
0.0
  0
LINE
  5
773
  8
0
  6
CONTINUOUS
 62
     7
 10
-320.8034399999998
 20
273.54793999999998
 30
0.0
 11
-285.28093999999982
 21
273.54793999999998
 31
0.0
  0
LINE
  5
774
  8
0
  6
CONTINUOUS
 62
     7
 10
-636.01526000000001
 20
131.98394999999999
 30
0.0
 11
-589.74377000000004
 21
158.69879
 31
0.0
  0
LINE
  5
775
  8
0
  6
CONTINUOUS
 62
     7
 10
-695.74377000000004
 20
393.548
 30
0.0
 11
-625.85559000000001
 21
395.37807999999978
 31
0.0
  0
LINE
  5
776
  8
0
  6
CONTINUOUS
 62
     7
 10
-218.78095999999999
 20
409.21292
 30
0.0
 11
-218.78095999999999
 21
390.26317999999992
 31
0.0
  0
LINE
  5
777
  8
0
  6
CONTINUOUS
 62
     7
 10
-695.74377000000004
 20
133.5479599999999
 30
0.0
 11
-695.74377000000004
 21
393.54793999999993
 31
0.0
  0
LINE
  5
778
  8
0
  6
CONTINUOUS
 62
     7
 10
-597.74377000000004
 20
161.52597
 30
0.0
 11
-597.74377000000004
 21
210.04111
 31
0.0
  0
LINE
  5
779
  8
0
  6
CONTINUOUS
 62
     7
 10
-708.74377000000004
 20
141.83067
 30
0.0
 11
-618.96007999999995
 21
141.83067
 31
0.0
  0
LINE
  5
77A
  8
0
  6
CONTINUOUS
 62
     7
 10
-708.74377000000004
 20
156.2874799999999
 30
0.0
 11
-593.92029000000002
 21
156.2874799999999
 31
0.0
  0
LINE
  5
77B
  8
0
  6
CONTINUOUS
 62
     7
 10
-594.63915999999995
 20
158.52780000000001
 30
0.0
 11
-579.74383999999975
 21
159.0479599999999
 31
0.0
  0
LINE
  5
77C
  8
0
  6
CONTINUOUS
 62
     7
 10
-575.74377000000004
 20
301.54793999999993
 30
0.0
 11
-575.74377000000004
 21
181.5479399999999
 31
0.0
  0
LINE
  5
77D
  8
0
  6
CONTINUOUS
 62
     7
 10
-708.74377000000004
 20
253.56695999999991
 30
0.0
 11
-589.74377000000004
 21
253.56695999999991
 31
0.0
  0
LINE
  5
77E
  8
0
  6
CONTINUOUS
 62
     7
 10
-211.78095999999999
 20
409.21292
 30
0.0
 11
-211.78095999999999
 21
390.26317999999992
 31
0.0
  0
LINE
  5
77F
  8
0
  6
CONTINUOUS
 62
     7
 10
-597.74377000000004
 20
323.03478999999982
 30
0.0
 11
-597.74377000000004
 21
440.52230999999989
 31
0.0
  0
LINE
  5
780
  8
0
  6
CONTINUOUS
 62
     7
 10
-579.74377000000004
 20
159.0479399999999
 30
0.0
 11
-579.74377000000004
 21
444.04793999999998
 31
0.0
  0
LINE
  5
781
  8
0
  6
CONTINUOUS
 62
     7
 10
-594.84850999999981
 20
443.52050999999989
 30
0.0
 11
-579.74383999999975
 21
444.04799999999989
 31
0.0
  0
LINE
  5
782
  8
0
  6
CONTINUOUS
 62
     7
 10
-622.53607
 20
391.42327999999992
 30
0.0
 11
-623.86150999999995
 21
395.43026999999989
 31
0.0
  0
LINE
  5
783
  8
0
  6
CONTINUOUS
 62
     7
 10
-598.87829999999985
 20
319.90087999999992
 30
0.0
 11
-615.13122999999985
 21
369.0369
 31
0.0
  0
LINE
  5
784
  8
0
  6
CONTINUOUS
 62
     7
 10
-708.74377000000004
 20
370.80847
 30
0.0
 11
-646.68224999999995
 21
370.80847
 31
0.0
  0
LINE
  5
785
  8
0
  6
CONTINUOUS
 62
     7
 10
-708.74377000000004
 20
385.26526000000001
 30
0.0
 11
-632.83325000000002
 21
385.26526000000001
 31
0.0
  0
LINE
  5
786
  8
0
  6
CONTINUOUS
 62
     7
 10
-142.77705
 20
381.12295999999992
 30
0.0
 11
-171.97101000000001
 21
351.92898999999983
 31
0.0
  0
LINE
  5
787
  8
0
  6
CONTINUOUS
 62
     7
 10
-589.74377000000004
 20
301.54793999999993
 30
0.0
 11
-589.74377000000004
 21
412.50524999999988
 31
0.0
  0
LINE
  5
788
  8
0
  6
CONTINUOUS
 62
     7
 10
-575.74377000000004
 20
301.54793999999993
 30
0.0
 11
-575.74377000000004
 21
421.54793999999993
 31
0.0
  0
LINE
  5
789
  8
0
  6
CONTINUOUS
 62
     7
 10
-277.28093999999987
 20
301.54793999999993
 30
0.0
 11
-277.28093999999987
 21
281.54793999999998
 31
0.0
  0
LINE
  5
78A
  8
0
  6
CONTINUOUS
 62
     7
 10
-695.74377000000004
 20
133.54793999999981
 30
0.0
 11
-636.01520000000016
 21
131.98389
 31
0.0
  0
LINE
  5
78B
  8
0
  6
CONTINUOUS
 62
     7
 10
-579.74377000000004
 20
181.5479399999999
 30
0.0
 11
-575.74377000000004
 21
181.5479399999999
 31
0.0
  0
LINE
  5
78C
  8
0
  6
CONTINUOUS
 62
     7
 10
-165.2809399999999
 20
159.0479399999999
 30
0.0
 11
-215.2809399999999
 21
159.0479399999999
 31
0.0
  0
LINE
  5
78D
  8
0
  6
CONTINUOUS
 62
     7
 10
-336.95276000000001
 20
441.54509999999999
 30
0.0
 11
-265.28093999999987
 21
444.04793999999998
 31
0.0
  0
LINE
  5
78E
  8
0
  6
CONTINUOUS
 62
     7
 10
-355.27811000000008
 20
423.21978999999999
 30
0.0
 11
-357.78093999999999
 21
351.54797000000002
 31
0.0
  0
LINE
  5
78F
  8
0
  6
CONTINUOUS
 62
     7
 10
-357.78093999999999
 20
251.5479399999999
 30
0.0
 11
-357.78093999999999
 21
301.54793999999993
 31
0.0
  0
LINE
  5
790
  8
0
  6
CENTER
 62
     7
 10
-84.260475000000014
 20
170.52747999999991
 30
0.0
 11
-106.7124799999999
 21
192.97947999999991
 31
0.0
  0
LINE
  5
791
  8
0
  6
CONTINUOUS
 62
     7
 10
-72.780945000000003
 20
251.5479399999999
 30
0.0
 11
-72.780945000000003
 21
301.54793999999993
 31
0.0
  0
LINE
  5
792
  8
0
  6
CONTINUOUS
 62
     7
 10
-75.283782999999985
 20
179.87613999999999
 30
0.0
 11
-72.780951999999999
 21
251.54796999999991
 31
0.0
  0
LINE
  5
793
  8
0
  6
CONTINUOUS
 62
     7
 10
-93.609115999999986
 20
161.55080000000001
 30
0.0
 11
-165.28095999999991
 21
159.0479599999999
 31
0.0
  0
LINE
  5
794
  8
0
  6
CONTINUOUS
 62
     7
 10
-355.27811000000008
 20
179.87613999999999
 30
0.0
 11
-357.78093999999999
 21
251.5479599999999
 31
0.0
  0
LINE
  5
795
  8
0
  6
CONTINUOUS
 62
     7
 10
-336.95278999999999
 20
161.55078
 30
0.0
 11
-265.28093999999987
 21
159.0479399999999
 31
0.0
  0
LINE
  5
796
  8
0
  6
CONTINUOUS
 62
     7
 10
-265.28093999999987
 20
159.0479399999999
 30
0.0
 11
-215.2809399999999
 21
159.0479399999999
 31
0.0
  0
LINE
  5
797
  8
0
  6
CONTINUOUS
 62
     7
 10
-357.78093999999999
 20
351.54793999999993
 30
0.0
 11
-357.78093999999999
 21
301.54793999999993
 31
0.0
  0
LINE
  5
798
  8
0
  6
CENTER
 62
     7
 10
-347.34100000000001
 20
169.48793000000001
 30
0.0
 11
-324.22241000000002
 21
192.6065399999998
 31
0.0
  0
LINE
  5
799
  8
0
  6
CENTER
 62
     7
 10
-346.96393
 20
433.23095999999998
 30
0.0
 11
-321.69107000000002
 21
407.9581
 31
0.0
  0
LINE
  5
79A
  8
0
  6
CONTINUOUS
 62
     7
 10
-294.85595999999993
 20
374.05187999999993
 30
0.0
 11
-265.66192999999998
 21
344.85787999999991
 31
0.0
  0
LINE
  5
79B
  8
0
  6
CONTINUOUS
 62
     7
 10
-135.70598000000001
 20
374.05187999999993
 30
0.0
 11
-164.8999499999999
 21
344.85793999999993
 31
0.0
  0
LINE
  5
79C
  8
0
  6
CONTINUOUS
 62
     7
 10
-287.78487999999982
 20
381.12295999999992
 30
0.0
 11
-258.59087999999991
 21
351.92896000000002
 31
0.0
  0
LINE
  5
79D
  8
0
  6
CONTINUOUS
 62
     7
 10
-589.74377000000004
 20
301.54793999999993
 30
0.0
 11
-589.74377000000004
 21
190.59065000000001
 31
0.0
  0
LINE
  5
79E
  8
0
  6
CONTINUOUS
 62
     7
 10
-708.74377000000004
 20
273.52895999999998
 30
0.0
 11
-589.74377000000004
 21
273.52895999999998
 31
0.0
  0
LINE
  5
79F
  8
0
  6
CONTINUOUS
 62
     7
 10
-153.28095999999999
 20
301.54793999999993
 30
0.0
 11
-153.28095999999999
 21
281.54793999999998
 31
0.0
  0
LINE
  5
7A0
  8
0
  6
CONTINUOUS
 62
     7
 10
-594.13122999999985
 20
316.47109999999998
 30
0.0
 11
-589.74377000000004
 21
316.47109999999998
 31
0.0
  0
LINE
  5
7A1
  8
0
  6
CONTINUOUS
 62
     7
 10
-579.74377000000004
 20
421.54793999999993
 30
0.0
 11
-575.74377000000004
 21
421.54793999999993
 31
0.0
  0
LINE
  5
7A2
  8
0
  6
CONTINUOUS
 62
     7
 10
-622.45092999999997
 20
396.84075999999988
 30
0.0
 11
-599.20818999999995
 21
420.08346999999992
 31
0.0
  0
LINE
  5
7A3
  8
0
  6
CENTER
 62
     7
 10
-285.19434000000001
 20
263.54793999999998
 30
0.0
 11
-149.2939299999999
 21
263.54793999999998
 31
0.0
  0
LINE
  5
7A4
  8
0
  6
CONTINUOUS
 62
     7
 10
-667.74377000000004
 20
200.18598999999989
 30
0.0
 11
-597.74377000000004
 21
200.18598999999989
 31
0.0
  0
LINE
  5
7A5
  8
0
  6
CONTINUOUS
 62
     7
 10
-667.74377000000004
 20
180.74369999999999
 30
0.0
 11
-597.74377000000004
 21
180.74369999999999
 31
0.0
  0
LINE
  5
7A6
  8
0
  6
CONTINUOUS
 62
     7
 10
-667.74377000000004
 20
182.59035
 30
0.0
 11
-667.74377000000004
 21
198.69035
 31
0.0
  0
LINE
  5
7A7
  8
0
  6
CONTINUOUS
 62
     7
 10
-644.24377000000004
 20
369.03687000000002
 30
0.0
 11
-616.79076999999995
 21
369.03687000000002
 31
0.0
  0
LINE
  5
7A8
  8
0
  6
CONTINUOUS
 62
     7
 10
-613.80109000000004
 20
370.02929999999992
 30
0.0
 11
-597.74377000000004
 21
382.00812000000002
 31
0.0
  0
LINE
  5
7A9
  8
0
  6
CONTINUOUS
 62
     7
 10
-600.17749000000003
 20
404.79455999999999
 30
0.0
 11
-637.23639000000003
 21
382.63195999999999
 31
0.0
  0
LINE
  5
7AA
  8
0
  6
CONTINUOUS
 62
     7
 10
-599.89116999999976
 20
398.55153999999999
 30
0.0
 11
-641.64922999999976
 21
373.57866999999987
 31
0.0
  0
LINE
  5
7AB
  8
0
  6
CONTINUOUS
 62
     7
 10
-575.74377000000004
 20
279.04793999999998
 30
0.0
 11
-573.7438400000002
 21
279.04793999999998
 31
0.0
  0
LINE
  5
7AC
  8
0
  6
CONTINUOUS
 62
     7
 10
-575.74377000000004
 20
324.04793999999993
 30
0.0
 11
-573.7438400000002
 21
324.04793999999993
 31
0.0
  0
LINE
  5
7AD
  8
0
  6
CONTINUOUS
 62
     7
 10
-599.89116999999976
 20
783.86992999999984
 30
0.0
 11
-632.39391999999975
 21
764.43206999999984
 31
0.0
  0
LINE
  5
7AE
  8
0
  6
CONTINUOUS
 62
     7
 10
-600.17749000000003
 20
790.11284999999964
 30
0.0
 11
-641.59600999999975
 21
765.34307999999965
 31
0.0
  0
LINE
  5
7AF
  8
0
  6
CONTINUOUS
 62
     7
 10
-607.87518
 20
759.76837
 30
0.0
 11
-597.74377000000004
 21
767.32647999999983
 31
0.0
  0
LINE
  5
7B0
  8
0
  6
CONTINUOUS
 62
     7
 10
-579.74377000000004
 20
806.86626999999999
 30
0.0
 11
-575.74377000000004
 21
806.86626999999999
 31
0.0
  0
LINE
  5
7B1
  8
0
  6
CONTINUOUS
 62
     7
 10
-575.74377000000004
 20
566.86626999999964
 30
0.0
 11
-575.74377000000004
 21
806.86626999999999
 31
0.0
  0
LINE
  5
7B2
  8
0
  6
CONTINUOUS
 62
     7
 10
-589.74377000000004
 20
575.90899999999965
 30
0.0
 11
-589.74377000000004
 21
797.82354999999984
 31
0.0
  0
LINE
  5
7B3
  8
0
  6
CONTINUOUS
 62
     7
 10
-594.84856999999988
 20
828.83887000000004
 30
0.0
 11
-579.74377000000004
 21
829.36632999999983
 31
0.0
  0
LINE
  5
7B4
  8
0
  6
CONTINUOUS
 62
     7
 10
-579.74377000000004
 20
544.36626999999987
 30
0.0
 11
-579.74377000000004
 21
829.36626999999999
 31
0.0
  0
LINE
  5
7B5
  8
0
  6
CONTINUOUS
 62
     7
 10
-597.74377000000004
 20
547.87531000000001
 30
0.0
 11
-597.74377000000004
 21
825.84064000000001
 31
0.0
  0
LINE
  5
7B6
  8
0
  6
CONTINUOUS
 62
     7
 10
-695.74377000000004
 20
826.60424999999987
 30
0.0
 11
-594.81024000000002
 21
828.83996999999988
 31
0.0
  0
LINE
  5
7B7
  8
0
  6
CONTINUOUS
 62
     7
 10
-695.74377000000004
 20
815.99663999999984
 30
0.0
 11
-597.74370999999985
 21
819.41881999999987
 31
0.0
  0
LINE
  5
7B8
  8
0
  6
CONTINUOUS
 62
     7
 10
-695.74377000000004
 20
764.43206999999984
 30
0.0
 11
-643.94799999999975
 21
764.43206999999984
 31
0.0
  0
LINE
  5
7B9
  8
0
  6
CONTINUOUS
 62
     7
 10
-695.74377000000004
 20
738.43079
 30
0.0
 11
-597.74377000000004
 21
738.43079
 31
0.0
  0
LINE
  5
7BA
  8
0
  6
CONTINUOUS
 62
     7
 10
-640.05627000000004
 20
759.76837
 30
0.0
 11
-597.74377000000004
 21
759.76837
 31
0.0
  0
LINE
  5
7BB
  8
0
  6
CONTINUOUS
 62
     7
 10
-640.05627000000004
 20
613.96416999999985
 30
0.0
 11
-597.74377000000004
 21
613.96416999999985
 31
0.0
  0
LINE
  5
7BC
  8
0
  6
CONTINUOUS
 62
     7
 10
-695.74377000000004
 20
609.30047999999999
 30
0.0
 11
-643.94799999999975
 21
609.30047999999999
 31
0.0
  0
LINE
  5
7BD
  8
0
  6
CONTINUOUS
 62
     7
 10
-695.74377000000004
 20
547.12829999999985
 30
0.0
 11
-594.81017999999995
 21
544.89264000000003
 31
0.0
  0
LINE
  5
7BE
  8
0
  6
CONTINUOUS
 62
     7
 10
-695.74377000000004
 20
557.73590000000002
 30
0.0
 11
-597.74377000000004
 21
554.31365999999991
 31
0.0
  0
LINE
  5
7BF
  8
0
  6
CONTINUOUS
 62
     7
 10
-695.74377000000004
 20
635.30175999999994
 30
0.0
 11
-597.74377000000004
 21
635.30175999999994
 31
0.0
  0
LINE
  5
7C0
  8
0
  6
CONTINUOUS
 62
     7
 10
-594.84850999999981
 20
544.89374000000009
 30
0.0
 11
-579.74377000000004
 21
544.36626999999987
 31
0.0
  0
LINE
  5
7C1
  8
0
  6
CONTINUOUS
 62
     7
 10
-579.74377000000004
 20
566.86626999999964
 30
0.0
 11
-575.74377000000004
 21
566.86626999999964
 31
0.0
  0
LINE
  5
7C2
  8
0
  6
CONTINUOUS
 62
     7
 10
-600.17754999999988
 20
583.61968999999999
 30
0.0
 11
-641.59600999999975
 21
608.38946999999996
 31
0.0
  0
LINE
  5
7C3
  8
0
  6
CONTINUOUS
 62
     7
 10
-599.8911099999998
 20
589.86261000000002
 30
0.0
 11
-632.39391999999975
 21
609.30047999999999
 31
0.0
  0
LINE
  5
7C4
  8
0
  6
CONTINUOUS
 62
     7
 10
-607.87518
 20
613.96416999999985
 30
0.0
 11
-597.7438400000002
 21
606.40612999999985
 31
0.0
  0
ARC
  5
7C5
  8
0
  6
CONTINUOUS
 62
     7
 10
-706.74377000000004
 20
813.61126999999988
 30
0.0
 40
2.0
 50
91.999998000000005
 51
180.00001
  0
ARC
  5
7C6
  8
0
  6
CONTINUOUS
 62
     7
 10
-719.74377000000004
 20
800.99084000000005
 30
0.0
 40
3.0
 50
100.0
 51
180.00001
  0
ARC
  5
7C7
  8
0
  6
CONTINUOUS
 62
     7
 10
-711.74377000000004
 20
808.49401999999998
 30
0.0
 40
3.0
 50
280.00000999999992
 51
0.0
  0
ARC
  5
7C8
  8
0
  6
CONTINUOUS
 62
     7
 10
-727.74377000000004
 20
766.39954
 30
0.0
 40
5.0
 50
272.0
 51
0.0
  0
ARC
  5
7C9
  8
0
  6
CONTINUOUS
 62
     7
 10
-559.74377000000004
 20
686.86626999999976
 30
0.0
 40
6.0000037999999991
 50
90.000003000000007
 51
270.0
  0
ARC
  5
7CA
  8
0
  6
CONTINUOUS
 62
     7
 10
-706.74377000000004
 20
560.12134000000003
 30
0.0
 40
2.0
 50
179.99998999999991
 51
268.00000999999992
  0
ARC
  5
7CB
  8
0
  6
CONTINUOUS
 62
     7
 10
-719.74377000000004
 20
572.74170000000004
 30
0.0
 40
3.0
 50
179.99998999999991
 51
260.0
  0
ARC
  5
7CC
  8
0
  6
CONTINUOUS
 62
     7
 10
-711.74377000000004
 20
565.23852999999986
 30
0.0
 40
3.0
 50
0.0
 51
79.999998000000005
  0
ARC
  5
7CD
  8
0
  6
CONTINUOUS
 62
     7
 10
-727.74377000000004
 20
607.33300999999994
 30
0.0
 40
5.0
 50
0.0
 51
88.0
  0
ARC
  5
7CE
  8
0
  6
CONTINUOUS
 62
     7
 10
-711.74370999999996
 20
686.86626999999976
 30
0.0
 40
10.0
 50
23.578036999999991
 51
156.42196000000001
  0
ARC
  5
7CF
  8
0
  6
CONTINUOUS
 62
     7
 10
-728.24370999999985
 20
686.86626999999976
 30
0.0
 40
3.9999962
 50
90.000003000000007
 51
270.0
  0
ARC
  5
7D0
  8
0
  6
CONTINUOUS
 62
     7
 10
-695.24370999999996
 20
686.86626999999976
 30
0.0
 40
3.9999962
 50
270.0
 51
90.000003000000007
  0
ARC
  5
7D1
  8
0
  6
CONTINUOUS
 62
     7
 10
-711.74370999999996
 20
686.86626999999976
 30
0.0
 40
10.0
 50
203.57826999999989
 51
336.42171999999999
  0
ARC
  5
7D2
  8
0
  6
CONTINUOUS
 62
     7
 10
-795.15148999999985
 20
651.92633000000001
 30
0.0
 40
3.0
 50
30.468077000000001
 51
90.000003000000007
  0
ARC
  5
7D3
  8
0
  6
CONTINUOUS
 62
     7
 10
-789.90111999999999
 20
729.86626999999999
 30
0.0
 40
3.0
 50
324.42424
 51
90.000003000000007
  0
ARC
  5
7D4
  8
0
  6
CONTINUOUS
 62
     7
 10
-763.24383999999975
 20
756.15430000000003
 30
0.0
 40
4.0
 50
91.999998000000005
 51
180.00001
  0
ARC
  5
7D5
  8
0
  6
CONTINUOUS
 62
     7
 10
-763.24383999999975
 20
617.57825000000003
 30
0.0
 40
4.0
 50
180.00001
 51
268.0
  0
ARC
  5
7D6
  8
0
  6
CONTINUOUS
 62
     7
 10
-772.20636000000002
 20
616.75769000000003
 30
0.0
 40
5.0
 50
5.2307202000000004
 51
44.999997999999998
  0
ARC
  5
7D7
  8
0
  6
CONTINUOUS
 62
     7
 10
-795.15148999999985
 20
721.80620999999985
 30
0.0
 40
3.0
 50
269.99998999999991
 51
329.53192000000001
  0
ARC
  5
7D8
  8
0
  6
CONTINUOUS
 62
     7
 10
-789.90111999999999
 20
643.86626999999999
 30
0.0
 40
3.0
 50
269.99998999999991
 51
35.57575099999999
  0
ARC
  5
7D9
  8
0
  6
CONTINUOUS
 62
     7
 10
-805.24384000000009
 20
696.86626999999999
 30
0.0
 40
3.0
 50
90.000003000000007
 51
180.00001
  0
ARC
  5
7DA
  8
0
  6
CONTINUOUS
 62
     7
 10
-773.94115999999985
 20
670.86626999999964
 30
0.0
 40
3.0
 50
0.0
 51
90.000003000000007
  0
ARC
  5
7DB
  8
0
  6
CONTINUOUS
 62
     7
 10
-773.94115999999985
 20
702.86626999999987
 30
0.0
 40
3.0
 50
269.99998999999991
 51
0.00000068324516
  0
ARC
  5
7DC
  8
0
  6
CONTINUOUS
 62
     7
 10
-778.98699999999985
 20
750.19415000000004
 30
0.0
 40
5.0
 50
272.0
 51
315.0
  0
ARC
  5
7DD
  8
0
  6
CONTINUOUS
 62
     7
 10
-805.24384000000009
 20
676.86626999999999
 30
0.0
 40
3.0
 50
180.00001
 51
270.0
  0
ARC
  5
7DE
  8
0
  6
CONTINUOUS
 62
     7
 10
-778.98699999999985
 20
623.53839000000016
 30
0.0
 40
5.0
 50
44.999997999999998
 51
88.0
  0
ARC
  5
7DF
  8
0
  6
CONTINUOUS
 62
     7
 10
-772.20636000000002
 20
756.97484999999983
 30
0.0
 40
5.0
 50
315.0
 51
354.76906000000002
  0
ARC
  5
7E0
  8
0
  6
CONTINUOUS
 62
     3
 10
-926.51671999999996
 20
610.36626999999999
 30
0.0
 40
7.5
 50
179.99997999999991
 51
0.000010017913
  0
ARC
  5
7E1
  8
0
  6
CONTINUOUS
 62
     3
 10
-926.51671999999996
 20
610.36626999999999
 30
0.0
 40
4.0
 50
179.99997999999991
 51
0.000010017912
  0
ARC
  5
7E2
  8
0
  6
CONTINUOUS
 62
     7
 10
-839.59063999999989
 20
732.19903999999985
 30
0.0
 40
1.502775999999999
 50
194.75642999999991
 51
269.87757999999991
  0
ARC
  5
7E3
  8
0
  6
CONTINUOUS
 62
     7
 10
-839.59063999999989
 20
731.28899999999999
 30
0.0
 40
1.502775999999999
 50
194.75642999999991
 51
269.87757999999991
  0
ARC
  5
7E4
  8
0
  6
CONTINUOUS
 62
     7
 10
-839.59063999999989
 20
729.43902999999989
 30
0.0
 40
1.502775999999999
 50
194.75642999999991
 51
269.87757999999991
  0
ARC
  5
7E5
  8
0
  6
CONTINUOUS
 62
     7
 10
-847.11870999999985
 20
746.75153
 30
0.0
 40
2.0047290000000002
 50
15.173496
 51
89.861677999999998
  0
ARC
  5
7E6
  8
0
  6
CONTINUOUS
 62
     7
 10
-847.11870999999985
 20
745.84149000000002
 30
0.0
 40
2.0047290000000002
 50
15.173496
 51
89.861677999999998
  0
ARC
  5
7E7
  8
0
  6
CONTINUOUS
 62
     7
 10
-847.11870999999985
 20
743.99152000000004
 30
0.0
 40
2.0047290000000002
 50
15.173496
 51
89.861677999999998
  0
ARC
  5
7E8
  8
0
  6
CONTINUOUS
 62
     7
 10
-839.59063999999989
 20
647.14349000000004
 30
0.0
 40
1.502775999999999
 50
90.122413000000037
 51
165.24357000000001
  0
ARC
  5
7E9
  8
0
  6
CONTINUOUS
 62
     7
 10
-960.25067000000013
 20
734.88421999999969
 30
0.0
 40
0.99319202
 50
119.77338
 51
179.87958999999981
  0
ARC
  5
7EA
  8
0
  6
CONTINUOUS
 62
     7
 10
-960.24829
 20
733.84600999999975
 30
0.0
 40
0.995579
 50
116.5870899999999
 51
179.98264
  0
ARC
  5
7EB
  8
0
  6
CONTINUOUS
 62
     7
 10
-958.98181
 20
735.62041999999985
 30
0.0
 40
0.9959030199999999
 50
89.541267000000005
 51
119.60717
  0
ARC
  5
7EC
  8
0
  6
CONTINUOUS
 62
     7
 10
-959.01904000000002
 20
734.47222999999985
 30
0.0
 40
0.99411702
 50
89.122643999999966
 51
115.93498
  0
ARC
  5
7ED
  8
0
  6
CONTINUOUS
 62
     7
 10
-958.97503999999992
 20
733.51202000000001
 30
0.0
 40
0.99427301
 50
89.356065999999984
 51
120.78091000000001
  0
ARC
  5
7EE
  8
0
  6
CONTINUOUS
 62
     7
 10
-959.00878999999998
 20
732.37090999999998
 30
0.0
 40
0.99545902
 50
89.141291000000024
 51
117.20381999999999
  0
ARC
  5
7EF
  8
0
  6
CONTINUOUS
 62
     7
 10
-958.93718999999987
 20
729.00005999999985
 30
0.0
 40
0.99617702
 50
90.381317999999979
 51
123.9704899999999
  0
ARC
  5
7F0
  8
0
  6
CONTINUOUS
 62
     7
 10
-958.96441999999979
 20
727.85979999999984
 30
0.0
 40
0.99648702
 50
90.540720999999976
 51
120.74377
  0
ARC
  5
7F1
  8
0
  6
CONTINUOUS
 62
     7
 10
-960.24981999999989
 20
727.10943999999984
 30
0.0
 40
0.99404597
 50
120.4682
 51
180.18563999999989
  0
ARC
  5
7F2
  8
0
  6
CONTINUOUS
 62
     7
 10
-960.24901999999997
 20
728.14386000000002
 30
0.0
 40
0.9948369899999999
 50
123.20496
 51
180.4378599999998
  0
ARC
  5
7F3
  8
0
  6
CONTINUOUS
 62
     7
 10
-960.25061000000005
 20
731.70770000000005
 30
0.0
 40
0.9932109699999999
 50
117.7993199999999
 51
180.08187000000001
  0
ARC
  5
7F4
  8
0
  6
CONTINUOUS
 62
     7
 10
-960.24938999999983
 20
732.74530000000004
 30
0.0
 40
0.9944329899999999
 50
121.15213
 51
179.9405099999999
  0
ARC
  5
7F5
  8
0
  6
CONTINUOUS
 62
     7
 10
-959.04284999999993
 20
721.56084999999985
 30
0.0
 40
0.9954450099999999
 50
90.056905000000043
 51
113.1274499999999
  0
ARC
  5
7F6
  8
0
  6
CONTINUOUS
 62
     7
 10
-959.10468000000003
 20
719.61359000000004
 30
0.0
 40
0.9927430199999999
 50
89.374555000000001
 51
106.33207
  0
ARC
  5
7F7
  8
0
  6
CONTINUOUS
 62
     7
 10
-960.24756000000002
 20
719.26202000000001
 30
0.0
 40
0.9962710099999999
 50
106.69792
 51
180.3300499999998
  0
ARC
  5
7F8
  8
0
  6
CONTINUOUS
 62
     7
 10
-960.24743999999998
 20
721.04778999999985
 30
0.0
 40
0.9963999999999998
 50
112.81735999999979
 51
180.09041999999991
  0
ARC
  5
7F9
  8
0
  6
CONTINUOUS
 62
     7
 10
-960.24878000000024
 20
711.87114999999994
 30
0.0
 40
0.99507803
 50
89.715886999999981
 51
180.28411
  0
ARC
  5
7FA
  8
0
  6
CONTINUOUS
 62
     7
 10
-960.24364999999989
 20
711.86652000000004
 30
0.0
 40
1.000203
 50
180.01165
 51
269.98835000000003
  0
ARC
  5
7FB
  8
0
  6
CONTINUOUS
 62
     7
 10
-960.24878000000024
 20
701.87114999999994
 30
0.0
 40
0.99508202
 50
89.716099
 51
180.28390999999991
  0
ARC
  5
7FC
  8
0
  6
CONTINUOUS
 62
     7
 10
-960.24364999999989
 20
701.86652000000004
 30
0.0
 40
1.0001999999999991
 50
180.0114299999999
 51
269.98856999999992
  0
ARC
  5
7FD
  8
0
  6
CONTINUOUS
 62
     7
 10
-960.24878000000024
 20
691.87114999999994
 30
0.0
 40
0.9950849999999999
 50
89.716311000000005
 51
180.28368999999981
  0
ARC
  5
7FE
  8
0
  6
CONTINUOUS
 62
     7
 10
-960.24364999999989
 20
691.86652000000004
 30
0.0
 40
1.0001959999999981
 50
180.01122000000001
 51
269.98877999999991
  0
ARC
  5
7FF
  8
0
  6
CONTINUOUS
 62
     7
 10
-957.24365
 20
689.86639000000002
 30
0.0
 40
0.9998249999999999
 50
359.98995000000002
 51
90.010050000000007
  0
ARC
  5
800
  8
0
  6
CONTINUOUS
 62
     7
 10
-957.24878000000012
 20
693.87114999999994
 30
0.0
 40
1.0049469
 50
270.28134999999992
 51
359.71866
  0
ARC
  5
801
  8
0
  6
CONTINUOUS
 62
     7
 10
-957.24365
 20
699.86639000000002
 30
0.0
 40
0.9998210099999999
 50
359.98975000000002
 51
90.010255000000001
  0
ARC
  5
802
  8
0
  6
CONTINUOUS
 62
     7
 10
-957.24878000000012
 20
703.87114999999994
 30
0.0
 40
1.004939
 50
270.28091000000001
 51
359.71910000000008
  0
ARC
  5
803
  8
0
  6
CONTINUOUS
 62
     7
 10
-957.24365
 20
709.86639000000002
 30
0.0
 40
0.9998289899999999
 50
359.99018999999993
 51
90.009810999999985
  0
ARC
  5
804
  8
0
  6
CONTINUOUS
 62
     7
 10
-957.24878000000012
 20
713.87114999999994
 30
0.0
 40
1.004942999999999
 50
270.28111000000001
 51
359.71888999999987
  0
ARC
  5
805
  8
0
  6
CONTINUOUS
 62
     7
 10
-957.24212999999997
 20
719.60797000000002
 30
0.0
 40
0.9982839799999999
 50
359.90141999999992
 51
90.098575999999994
  0
ARC
  5
806
  8
0
  6
CONTINUOUS
 62
     7
 10
-957.24621999999965
 20
727.85393999999985
 30
0.0
 40
1.002353
 50
0.13432682
 51
89.865673000000001
  0
ARC
  5
807
  8
0
  6
CONTINUOUS
 62
     7
 10
-956.94843000000003
 20
723.2607999999999
 30
0.0
 40
0.704566
 50
270.37009999999992
 51
359.62990999999982
  0
ARC
  5
808
  8
0
  6
CONTINUOUS
 62
     7
 10
-957.24285999999995
 20
732.36725000000001
 30
0.0
 40
0.9990100299999999
 50
359.94319000000002
 51
90.056808999999959
  0
ARC
  5
809
  8
0
  6
CONTINUOUS
 62
     7
 10
-956.74213000000032
 20
734.96795999999983
 30
0.0
 40
0.4983060100000002
 50
359.80489
 51
90.195107000000007
  0
ARC
  5
80A
  8
0
  6
CONTINUOUS
 62
     7
 10
-956.74846999999988
 20
737.12090999999964
 30
0.0
 40
0.50463498
 50
270.52382999999992
 51
359.47617000000002
  0
ARC
  5
80B
  8
0
  6
CONTINUOUS
 62
     7
 10
-944.69921999999997
 20
651.86626999999999
 30
0.0
 40
1.000013899999999
 50
89.691659999999985
 51
270.30833999999999
  0
ARC
  5
80C
  8
0
  6
CONTINUOUS
 62
     7
 10
-842.42382999999984
 20
721.91132000000005
 30
0.0
 40
1.6750020000000001
 50
269.99998999999991
 51
90.000003000000007
  0
ARC
  5
80D
  8
0
  6
CONTINUOUS
 62
     7
 10
-845.90386999999976
 20
721.86626999999999
 30
0.0
 40
1.0
 50
269.99998999999991
 51
90.000003000000007
  0
ARC
  5
80E
  8
0
  6
CONTINUOUS
 62
     7
 10
-845.90386999999976
 20
651.86626999999999
 30
0.0
 40
1.0
 50
269.99998999999991
 51
90.000003000000007
  0
ARC
  5
80F
  8
0
  6
CONTINUOUS
 62
     7
 10
-842.42382999999984
 20
651.82123000000001
 30
0.0
 40
1.6750020000000001
 50
269.99998999999991
 51
90.000003000000007
  0
ARC
  5
810
  8
0
  6
CONTINUOUS
 62
     7
 10
-957.24719000000005
 20
654.12958000000003
 30
0.0
 40
1.003352
 50
270.19110999999992
 51
359.80889999999982
  0
ARC
  5
811
  8
0
  6
CONTINUOUS
 62
     7
 10
-957.24878000000012
 20
663.87114999999994
 30
0.0
 40
1.0049469
 50
270.28136999999992
 51
359.71863000000002
  0
ARC
  5
812
  8
0
  6
CONTINUOUS
 62
     7
 10
-957.24365
 20
659.86639000000002
 30
0.0
 40
0.9998239899999999
 50
359.98991999999993
 51
90.010076999999981
  0
ARC
  5
813
  8
0
  6
CONTINUOUS
 62
     7
 10
-956.94330000000002
 20
650.47686999999985
 30
0.0
 40
0.6994530000000001
 50
359.95517000000001
 51
90.044829000000021
  0
ARC
  5
814
  8
0
  6
CONTINUOUS
 62
     7
 10
-959.04082999999991
 20
652.1814599999999
 30
0.0
 40
1.005233
 50
246.98638999999989
 51
269.82924999999989
  0
ARC
  5
815
  8
0
  6
CONTINUOUS
 62
     7
 10
-959.10333000000014
 20
654.12896999999998
 30
0.0
 40
1.002699
 50
253.7527199999999
 51
270.54064
  0
ARC
  5
816
  8
0
  6
CONTINUOUS
 62
     7
 10
-960.24743999999998
 20
654.48064999999986
 30
0.0
 40
0.99638802
 50
180.24991
 51
253.29664
  0
ARC
  5
817
  8
0
  6
CONTINUOUS
 62
     7
 10
-960.24730999999986
 20
652.69475999999975
 30
0.0
 40
0.9965090199999998
 50
179.91374999999999
 51
247.17845
  0
ARC
  5
818
  8
0
  6
CONTINUOUS
 62
     7
 10
-960.24364999999989
 20
661.86652000000004
 30
0.0
 40
1.0001959999999981
 50
180.01124999999999
 51
269.98874999999992
  0
ARC
  5
819
  8
0
  6
CONTINUOUS
 62
     7
 10
-960.24878000000024
 20
661.87114999999994
 30
0.0
 40
0.9950849999999999
 50
89.716282999999976
 51
180.2837199999999
  0
ARC
  5
81A
  8
0
  6
CONTINUOUS
 62
     7
 10
-960.24364999999989
 20
671.86652000000004
 30
0.0
 40
1.0001999999999991
 50
180.01146
 51
269.98853999999972
  0
ARC
  5
81B
  8
0
  6
CONTINUOUS
 62
     7
 10
-960.24878000000024
 20
671.87114999999994
 30
0.0
 40
0.9950810099999999
 50
89.716071999999997
 51
180.28391999999999
  0
ARC
  5
81C
  8
0
  6
CONTINUOUS
 62
     7
 10
-960.24364999999989
 20
681.86652000000004
 30
0.0
 40
1.0002040000000001
 50
180.01166000000001
 51
269.9883200000001
  0
ARC
  5
81D
  8
0
  6
CONTINUOUS
 62
     7
 10
-960.24878000000024
 20
681.87114999999994
 30
0.0
 40
0.9950770099999999
 50
89.715860000000006
 51
180.28413999999989
  0
ARC
  5
81E
  8
0
  6
CONTINUOUS
 62
     7
 10
-957.24878000000012
 20
683.87114999999994
 30
0.0
 40
1.004942999999999
 50
270.28113999999988
 51
359.71886999999992
  0
ARC
  5
81F
  8
0
  6
CONTINUOUS
 62
     7
 10
-957.24365
 20
679.86639000000002
 30
0.0
 40
0.9998279799999998
 50
359.99015999999978
 51
90.009838000000002
  0
ARC
  5
820
  8
0
  6
CONTINUOUS
 62
     7
 10
-957.24878000000012
 20
673.87114999999994
 30
0.0
 40
1.004939
 50
270.28093999999999
 51
359.71906999999999
  0
ARC
  5
821
  8
0
  6
CONTINUOUS
 62
     7
 10
-957.24365
 20
669.86639000000002
 30
0.0
 40
0.9998210099999999
 50
359.98971999999998
 51
90.010281999999961
  0
ARC
  5
822
  8
0
  6
CONTINUOUS
 62
     7
 10
-945.57129000000009
 20
721.91132000000005
 30
0.0
 40
1.6750160000000001
 50
89.746144999999984
 51
270.25387000000001
  0
ARC
  5
823
  8
0
  6
CONTINUOUS
 62
     7
 10
-944.69921999999997
 20
721.86626999999999
 30
0.0
 40
1.000013899999999
 50
89.691659999999985
 51
270.30833999999999
  0
ARC
  5
824
  8
0
  6
CONTINUOUS
 62
     7
 10
-944.69921999999997
 20
711.86626999999964
 30
0.0
 40
1.000013899999999
 50
89.691659999999985
 51
270.30833999999999
  0
ARC
  5
825
  8
0
  6
CONTINUOUS
 62
     7
 10
-944.69921999999997
 20
701.86626999999999
 30
0.0
 40
1.000013899999999
 50
89.691659999999985
 51
270.30833999999999
  0
ARC
  5
826
  8
0
  6
CONTINUOUS
 62
     7
 10
-944.69921999999997
 20
691.86626999999964
 30
0.0
 40
1.000013899999999
 50
89.691659999999985
 51
270.30833999999999
  0
ARC
  5
827
  8
0
  6
CONTINUOUS
 62
     7
 10
-944.69921999999997
 20
681.86626999999987
 30
0.0
 40
1.000013899999999
 50
89.691659999999985
 51
270.30833999999999
  0
ARC
  5
828
  8
0
  6
CONTINUOUS
 62
     7
 10
-944.69921999999997
 20
671.86626999999999
 30
0.0
 40
1.000013899999999
 50
89.691659999999985
 51
270.30833999999999
  0
ARC
  5
829
  8
0
  6
CONTINUOUS
 62
     7
 10
-944.69921999999997
 20
661.86626999999976
 30
0.0
 40
1.000013899999999
 50
89.691659999999985
 51
270.30833999999999
  0
ARC
  5
82A
  8
0
  6
CONTINUOUS
 62
     7
 10
-945.78386999999975
 20
711.8913
 30
0.0
 40
1.465004
 50
90.000003000000007
 51
270.0
  0
ARC
  5
82B
  8
0
  6
CONTINUOUS
 62
     7
 10
-945.91381999999965
 20
701.87627999999995
 30
0.0
 40
1.3300049999999981
 50
90.000003000000007
 51
270.0
  0
ARC
  5
82C
  8
0
  6
CONTINUOUS
 62
     7
 10
-945.97968000000014
 20
691.87127999999996
 30
0.0
 40
1.2650129999999991
 50
89.735579000000016
 51
270.26441
  0
ARC
  5
82D
  8
0
  6
CONTINUOUS
 62
     7
 10
-945.97968000000014
 20
681.86626999999987
 30
0.0
 40
1.2700129999999981
 50
89.736616999999995
 51
270.26337000000001
  0
ARC
  5
82E
  8
0
  6
CONTINUOUS
 62
     7
 10
-945.91381999999965
 20
671.85625999999979
 30
0.0
 40
1.3300049999999981
 50
90.000003000000007
 51
270.0
  0
ARC
  5
82F
  8
0
  6
CONTINUOUS
 62
     7
 10
-945.78386999999975
 20
661.84124999999995
 30
0.0
 40
1.465004
 50
90.000003000000007
 51
270.0
  0
ARC
  5
830
  8
0
  6
CONTINUOUS
 62
     7
 10
-945.57067999999992
 20
651.82123000000001
 30
0.0
 40
1.675014
 50
89.766498999999982
 51
270.23351000000002
  0
ARC
  5
831
  8
0
  6
CONTINUOUS
 62
     7
 10
-957.24712999999997
 20
645.89300999999989
 30
0.0
 40
1.0032760000000001
 50
334.19810000000001
 51
359.61810999999977
  0
ARC
  5
832
  8
0
  6
CONTINUOUS
 62
     7
 10
-960.24536000000001
 20
646.62554999999986
 30
0.0
 40
0.9984580299999999
 50
179.9595799999999
 51
239.38657000000001
  0
ARC
  5
833
  8
0
  6
CONTINUOUS
 62
     7
 10
-944.04516999999964
 20
741.15215999999998
 30
0.0
 40
1.994108999999999
 50
89.675548000000006
 51
169.18777
  0
ARC
  5
834
  8
0
  6
CONTINUOUS
 62
     7
 10
-943.99364999999989
 20
744.00103999999999
 30
0.0
 40
1.9952829999999979
 50
90.006203999999983
 51
170.90835000000001
  0
ARC
  5
835
  8
0
  6
CONTINUOUS
 62
     7
 10
-943.97931000000005
 20
745.84955000000002
 30
0.0
 40
1.9967330000000001
 50
89.843967000000006
 51
171.45387999999991
  0
ARC
  5
836
  8
0
  6
CONTINUOUS
 62
     7
 10
-943.95734000000004
 20
746.76067999999964
 30
0.0
 40
1.995633
 50
89.899708000000004
 51
172.06112999999991
  0
ARC
  5
837
  8
0
  6
CONTINUOUS
 62
     7
 10
-847.11376999999982
 20
741.14801
 30
0.0
 40
1.9982919999999991
 50
15.032547999999981
 51
90.002631999999977
  0
ARC
  5
838
  8
0
  6
CONTINUOUS
 62
     7
 10
-839.59063999999989
 20
726.58905000000004
 30
0.0
 40
1.502775999999999
 50
194.75642999999991
 51
269.87757999999991
  0
ARC
  5
839
  8
0
  6
CONTINUOUS
 62
     7
 10
-847.11870999999985
 20
632.59100000000001
 30
0.0
 40
2.0047290000000002
 50
270.13832000000002
 51
344.82650000000001
  0
ARC
  5
83A
  8
0
  6
CONTINUOUS
 62
     7
 10
-960.24621999999988
 20
638.85089000000005
 30
0.0
 40
0.9976310099999999
 50
180.26780999999991
 51
240.07924
  0
ARC
  5
83B
  8
0
  6
CONTINUOUS
 62
     7
 10
-960.24816999999996
 20
639.89666999999986
 30
0.0
 40
0.9956849800000001
 50
180.02112999999991
 51
243.40913999999981
  0
ARC
  5
83C
  8
0
  6
CONTINUOUS
 62
     7
 10
-958.96312999999998
 20
638.11737000000005
 30
0.0
 40
1.001123999999999
 50
239.32782000000009
 51
269.38767999999988
  0
ARC
  5
83D
  8
0
  6
CONTINUOUS
 62
     7
 10
-958.99798999999985
 20
639.26556000000016
 30
0.0
 40
0.9993420200000001
 50
242.86199999999999
 51
269.66546
  0
ARC
  5
83E
  8
0
  6
CONTINUOUS
 62
     7
 10
-958.97247000000004
 20
640.22991999999977
 30
0.0
 40
1.0037439999999991
 50
239.37112999999999
 51
270.49189999999987
  0
ARC
  5
83F
  8
0
  6
CONTINUOUS
 62
     7
 10
-958.98865000000001
 20
641.36688000000004
 30
0.0
 40
1.0006820000000001
 50
241.65062
 51
269.7039299999999
  0
ARC
  5
840
  8
0
  6
CONTINUOUS
 62
     7
 10
-958.95105000000012
 20
644.74676999999986
 30
0.0
 40
1.000521999999999
 50
237.14617999999999
 51
270.41343999999998
  0
ARC
  5
841
  8
0
  6
CONTINUOUS
 62
     7
 10
-958.98046999999997
 20
645.88726999999994
 30
0.0
 40
1.0010449999999991
 50
240.47187
 51
270.37970999999999
  0
ARC
  5
842
  8
0
  6
CONTINUOUS
 62
     7
 10
-960.24536000000001
 20
646.62554999999986
 30
0.0
 40
0.9984580299999999
 50
179.9595799999999
 51
239.38657000000001
  0
ARC
  5
843
  8
0
  6
CONTINUOUS
 62
     7
 10
-960.24474999999995
 20
645.59100000000001
 30
0.0
 40
0.9990889999999998
 50
179.69508999999991
 51
236.66209000000001
  0
ARC
  5
844
  8
0
  6
CONTINUOUS
 62
     7
 10
-960.24614999999994
 20
642.02752999999996
 30
0.0
 40
0.9977070099999998
 50
180.0740199999999
 51
242.04481000000001
  0
ARC
  5
845
  8
0
  6
CONTINUOUS
 62
     7
 10
-960.24505999999985
 20
640.98980999999981
 30
0.0
 40
0.9987969999999998
 50
179.62728000000001
 51
238.70795000000001
  0
ARC
  5
846
  8
0
  6
CONTINUOUS
 62
     7
 10
-957.24634000000003
 20
645.88873000000001
 30
0.0
 40
1.002470999999999
 50
270.14107000000001
 51
359.85892999999987
  0
ARC
  5
847
  8
0
  6
CONTINUOUS
 62
     7
 10
-957.24798999999985
 20
641.37041999999985
 30
0.0
 40
1.004119999999999
 50
270.23460999999992
 51
359.76538999999991
  0
ARC
  5
848
  8
0
  6
CONTINUOUS
 62
     7
 10
-956.74725000000001
 20
638.76970999999958
 30
0.0
 40
0.5033929900000002
 50
270.38490999999982
 51
359.61509999999993
  0
ARC
  5
849
  8
0
  6
CONTINUOUS
 62
     7
 10
-956.74334999999985
 20
636.61675999999977
 30
0.0
 40
0.49952301
 50
359.94522999999992
 51
90.054773999999981
  0
ARC
  5
84A
  8
0
  6
CONTINUOUS
 62
     7
 10
-944.03899999999999
 20
632.58551
 30
0.0
 40
1.9992490000000001
 50
190.64309999999981
 51
270.14742999999999
  0
ARC
  5
84B
  8
0
  6
CONTINUOUS
 62
     7
 10
-943.98766999999987
 20
629.73662999999999
 30
0.0
 40
2.000420099999999
 50
188.92681999999991
 51
269.82270999999992
  0
ARC
  5
84C
  8
0
  6
CONTINUOUS
 62
     7
 10
-858.73021999999958
 20
622.86626999999999
 30
0.0
 40
1.5
 50
90.000003000000007
 51
178.5
  0
ARC
  5
84D
  8
0
  6
CONTINUOUS
 62
     3
 10
-847.22766000000001
 20
625.86626999999999
 30
0.0
 40
1.5
 50
269.99998999999991
 51
327.0
  0
ARC
  5
84E
  8
0
  6
CONTINUOUS
 62
     7
 10
-944.25725999999997
 20
629.73626999999976
 30
0.0
 40
2.0
 50
188.6296199999999
 51
269.99998999999991
  0
ARC
  5
84F
  8
0
  6
CONTINUOUS
 62
     7
 10
-944.33759000000032
 20
629.73626999999976
 30
0.0
 40
2.0
 50
187.9504399999999
 51
269.99998999999991
  0
ARC
  5
850
  8
0
  6
CONTINUOUS
 62
     7
 10
-921.84569999999985
 20
626.23626999999965
 30
0.0
 40
1.5
 50
1.5000026999999989
 51
90.000003000000007
  0
ARC
  5
851
  8
0
  6
CONTINUOUS
 62
     7
 10
-910.80511000000001
 20
701.86626999999999
 30
0.0
 40
1.0000056999999991
 50
269.99998999999991
 51
90.000003000000007
  0
ARC
  5
852
  8
0
  6
CONTINUOUS
 62
     7
 10
-910.80511000000001
 20
691.86626999999964
 30
0.0
 40
1.0000056999999991
 50
269.99998999999991
 51
90.000003000000007
  0
ARC
  5
853
  8
0
  6
CONTINUOUS
 62
     7
 10
-910.80511000000001
 20
681.86626999999987
 30
0.0
 40
1.0000056999999991
 50
269.99998999999991
 51
90.000003000000007
  0
ARC
  5
854
  8
0
  6
CONTINUOUS
 62
     7
 10
-910.80511000000001
 20
671.86626999999999
 30
0.0
 40
1.0000056999999991
 50
269.99998999999991
 51
90.000003000000007
  0
ARC
  5
855
  8
0
  6
CONTINUOUS
 62
     7
 10
-860.24383999999998
 20
654.36626999999964
 30
0.0
 40
1.5
 50
179.99998999999991
 51
270.0
  0
ARC
  5
856
  8
0
  6
CONTINUOUS
 62
     7
 10
-878.24384000000009
 20
654.36626999999964
 30
0.0
 40
1.5
 50
269.99998999999991
 51
0.00000068324733
  0
ARC
  5
857
  8
0
  6
CONTINUOUS
 62
     7
 10
-878.22382000000005
 20
654.50629000000004
 30
0.0
 40
1.0
 50
269.99998999999991
 51
0.00000068324299
  0
ARC
  5
858
  8
0
  6
CONTINUOUS
 62
     7
 10
-860.26385000000005
 20
654.50629000000004
 30
0.0
 40
1.0
 50
179.99998999999991
 51
270.0
  0
CIRCLE
  5
859
  8
0
  6
CONTINUOUS
 62
     3
 10
-871.74383999999998
 20
715.36626999999987
 30
0.0
 40
1.1000000000000001
  0
CIRCLE
  5
85A
  8
0
  6
CONTINUOUS
 62
     3
 10
-871.74383999999998
 20
715.36626999999987
 30
0.0
 40
1.149999999999999
  0
CIRCLE
  5
85B
  8
0
  6
CONTINUOUS
 62
     3
 10
-866.74384000000009
 20
715.36626999999987
 30
0.0
 40
1.0
  0
ARC
  5
85C
  8
0
  6
CONTINUOUS
 62
     7
 10
-878.24384000000009
 20
714.36626999999999
 30
0.0
 40
1.02
 50
269.99998999999991
 51
0.00000068324403
  0
ARC
  5
85D
  8
0
  6
CONTINUOUS
 62
     7
 10
-860.24383999999998
 20
714.36626999999999
 30
0.0
 40
1.02
 50
179.99998999999991
 51
270.0
  0
ARC
  5
85E
  8
0
  6
CONTINUOUS
 62
     7
 10
-878.24384000000009
 20
714.36626999999999
 30
0.0
 40
1.5
 50
269.99998999999991
 51
0.00000068324733
  0
ARC
  5
85F
  8
0
  6
CONTINUOUS
 62
     7
 10
-860.24383999999998
 20
714.36626999999999
 30
0.0
 40
1.5
 50
179.99998999999991
 51
270.0
  0
CIRCLE
  5
860
  8
0
  6
CONTINUOUS
 62
     3
 10
-866.74384000000009
 20
658.36626999999964
 30
0.0
 40
1.0
  0
CIRCLE
  5
861
  8
0
  6
CONTINUOUS
 62
     3
 10
-871.74383999999998
 20
658.36626999999964
 30
0.0
 40
1.149999999999999
  0
CIRCLE
  5
862
  8
0
  6
CONTINUOUS
 62
     3
 10
-871.74383999999998
 20
658.36626999999964
 30
0.0
 40
1.1000000000000001
  0
ARC
  5
863
  8
0
  6
CONTINUOUS
 62
     7
 10
-878.24384000000009
 20
659.36626999999999
 30
0.0
 40
1.02
 50
0.0
 51
90.000003000000007
  0
ARC
  5
864
  8
0
  6
CONTINUOUS
 62
     7
 10
-860.24383999999998
 20
659.36626999999999
 30
0.0
 40
1.02
 50
90.000003000000007
 51
180.00001
  0
ARC
  5
865
  8
0
  6
CONTINUOUS
 62
     7
 10
-878.24384000000009
 20
659.36626999999999
 30
0.0
 40
1.5
 50
0.0
 51
90.000003000000007
  0
ARC
  5
866
  8
0
  6
CONTINUOUS
 62
     7
 10
-860.24383999999998
 20
659.36626999999999
 30
0.0
 40
1.5
 50
90.000003000000007
 51
180.00001
  0
ARC
  5
867
  8
0
  6
CONTINUOUS
 62
     7
 10
-909.57885999999996
 20
671.85625999999979
 30
0.0
 40
1.3300148000000001
 50
269.72941999999989
 51
90.270567000000014
  0
ARC
  5
868
  8
0
  6
CONTINUOUS
 62
     7
 10
-909.51691000000005
 20
681.86626999999987
 30
0.0
 40
1.2700266
 50
269.62931999999989
 51
90.370669999999961
  0
ARC
  5
869
  8
0
  6
CONTINUOUS
 62
     7
 10
-909.51691000000005
 20
691.87627999999995
 30
0.0
 40
1.2700266
 50
269.62931999999989
 51
90.370669999999961
  0
ARC
  5
86A
  8
0
  6
CONTINUOUS
 62
     7
 10
-909.57885999999996
 20
701.88129000000004
 30
0.0
 40
1.3350147999999991
 50
269.73043000000001
 51
90.269555999999994
  0
ARC
  5
86B
  8
0
  6
CONTINUOUS
 62
     7
 10
-845.90386999999976
 20
711.86626999999964
 30
0.0
 40
1.0000255999999981
 50
269.58947000000001
 51
90.410531000000006
  0
ARC
  5
86C
  8
0
  6
CONTINUOUS
 62
     7
 10
-842.20385999999985
 20
711.89629999999988
 30
0.0
 40
1.460011199999999
 50
269.77525000000003
 51
90.224749999999986
  0
ARC
  5
86D
  8
0
  6
CONTINUOUS
 62
     7
 10
-845.90386999999976
 20
661.86626999999976
 30
0.0
 40
1.0000255999999981
 50
269.58947000000001
 51
90.410531000000006
  0
ARC
  5
86E
  8
0
  6
CONTINUOUS
 62
     7
 10
-842.20385999999985
 20
661.8362400000002
 30
0.0
 40
1.460011199999999
 50
269.77525000000003
 51
90.224749999999986
  0
ARC
  5
86F
  8
0
  6
CONTINUOUS
 62
     7
 10
-860.26385000000005
 20
719.22625999999957
 30
0.0
 40
1.0
 50
90.000003000000007
 51
180.00001
  0
ARC
  5
870
  8
0
  6
CONTINUOUS
 62
     7
 10
-860.24383999999998
 20
719.36626999999987
 30
0.0
 40
1.5
 50
90.000003000000007
 51
180.00001
  0
ARC
  5
871
  8
0
  6
CONTINUOUS
 62
     7
 10
-878.24384000000009
 20
719.36626999999987
 30
0.0
 40
1.5
 50
0.0
 51
90.000003000000007
  0
ARC
  5
872
  8
0
  6
CONTINUOUS
 62
     7
 10
-878.22382000000005
 20
719.22625999999957
 30
0.0
 40
1.0
 50
0.0
 51
90.000003000000007
  0
ARC
  5
873
  8
0
  6
CONTINUOUS
 62
     7
 10
-705.74384000000032
 20
823.25316999999995
 30
0.0
 40
3.0
 50
91.999998000000005
 51
180.00001
  0
ARC
  5
874
  8
0
  6
CONTINUOUS
 62
     7
 10
-705.74384000000032
 20
550.47931000000005
 30
0.0
 40
3.0
 50
179.99998999999991
 51
268.00000999999992
  0
ARC
  5
875
  8
0
  6
CONTINUOUS
 62
     7
 10
-215.2809399999999
 20
301.54793999999993
 30
0.0
 40
20.999998000000001
 50
106.60155
 51
73.398452000000006
  0
CIRCLE
  5
876
  8
0
  6
CONTINUOUS
 62
     7
 10
-215.2809399999999
 20
301.54793999999993
 30
0.0
 40
3.5
  0
CIRCLE
  5
877
  8
0
  6
CONTINUOUS
 62
     7
 10
-215.2809399999999
 20
301.54793999999993
 30
0.0
 40
5.0
  0
ARC
  5
878
  8
0
  6
CONTINUOUS
 62
     7
 10
-711.74377000000004
 20
141.92023999999981
 30
0.0
 40
3.0
 50
0.0
 51
79.999998000000005
  0
ARC
  5
879
  8
0
  6
CONTINUOUS
 62
     7
 10
-719.74377000000004
 20
149.42339999999979
 30
0.0
 40
3.0
 50
179.99998999999991
 51
260.0
  0
CIRCLE
  5
87A
  8
0
  6
CONTINUOUS
 62
     7
 10
-711.74377000000004
 20
414.04797000000002
 30
0.0
 40
12.5
  0
ARC
  5
87B
  8
0
  6
CONTINUOUS
 62
     7
 10
-719.06560999999988
 20
399.17922999999979
 30
0.0
 40
1.0
 50
100.4607199999999
 51
164.99999
  0
ARC
  5
87C
  8
0
  6
CONTINUOUS
 62
     7
 10
-704.42187999999999
 20
399.17922999999979
 30
0.0
 40
1.0
 50
15.0
 51
79.539281000000003
  0
ARC
  5
87D
  8
0
  6
CONTINUOUS
 62
     7
 10
-725.66076999999984
 20
393.88442999999978
 30
0.0
 40
4.0
 50
347.92932999999999
 51
55.386358999999999
  0
ARC
  5
87E
  8
0
  6
CONTINUOUS
 62
     7
 10
-727.74370999999985
 20
343.08117999999968
 30
0.0
 40
5.0
 50
272.0
 51
0.0
  0
ARC
  5
87F
  8
0
  6
CONTINUOUS
 62
     7
 10
-725.74377000000004
 20
175.71806000000001
 30
0.0
 40
3.0
 50
0.0
 51
84.999996999999979
  0
ARC
  5
880
  8
0
  6
CONTINUOUS
 62
     7
 10
-749.24377000000004
 20
183.79693999999981
 30
0.0
 40
3.0
 50
179.99998999999991
 51
265.0
  0
ARC
  5
881
  8
0
  6
CONTINUOUS
 62
     7
 10
-755.24370999999985
 20
186.97630000000001
 30
0.0
 40
3.0
 50
0.0
 51
88.0
  0
ARC
  5
882
  8
0
  6
CONTINUOUS
 62
     7
 10
-697.82684000000006
 20
393.88442999999978
 30
0.0
 40
4.0
 50
124.61365000000001
 51
187.86824999999999
  0
ARC
  5
883
  8
0
  6
CONTINUOUS
 62
     7
 10
-720.74377000000004
 20
391.54797000000002
 30
0.0
 40
2.0
 50
131.4096199999999
 51
180.00001
  0
ARC
  5
884
  8
0
  6
CONTINUOUS
 62
     7
 10
-711.74377000000004
 20
414.04797000000002
 30
0.0
 40
20.5
 50
304.61363999999992
 51
235.38634999999999
  0
ARC
  5
885
  8
0
  6
CONTINUOUS
 62
     7
 10
-711.74377000000004
 20
385.17568999999992
 30
0.0
 40
3.0
 50
280.0
 51
0.0
  0
ARC
  5
886
  8
0
  6
CONTINUOUS
 62
     7
 10
-719.74377000000004
 20
377.67252000000002
 30
0.0
 40
3.0
 50
100.0
 51
180.00001
  0
ARC
  5
887
  8
0
  6
CONTINUOUS
 62
     7
 10
-706.74377000000004
 20
391.16262999999998
 30
0.0
 40
2.0
 50
91.999998000000005
 51
180.00001
  0
ARC
  5
888
  8
0
  6
CONTINUOUS
 62
     7
 10
-807.24377000000004
 20
190.92821000000001
 30
0.0
 40
4.0
 50
88.0
 51
180.00001
  0
ARC
  5
889
  8
0
  6
CONTINUOUS
 62
     7
 10
-807.57152999999983
 20
296.87704000000002
 30
0.0
 40
4.0
 50
272.0
 51
315.0
  0
ARC
  5
88A
  8
0
  6
CONTINUOUS
 62
     7
 10
-815.24370999999985
 20
183.60915
 30
0.0
 40
4.0
 50
272.0
 51
0.0
  0
ARC
  5
88B
  8
0
  6
CONTINUOUS
 62
     7
 10
-772.65539999999999
 20
331.79315000000008
 30
0.0
 40
4.0
 50
272.0
 51
315.0
  0
ARC
  5
88C
  8
0
  6
CONTINUOUS
 62
     7
 10
-771.24274000000003
 20
333.20587
 30
0.0
 40
4.0
 50
315.0
 51
0.9319899799999999
  0
ARC
  5
88D
  8
0
  6
CONTINUOUS
 62
     7
 10
-811.24377000000004
 20
297.00463999999999
 30
0.0
 40
3.0
 50
309.62979000000001
 51
0.0
  0
ARC
  5
88E
  8
0
  6
CONTINUOUS
 62
     7
 10
-786.14075000000003
 20
278.54793999999998
 30
0.0
 40
3.0
 50
315.0
 51
90.000003000000007
  0
ARC
  5
88F
  8
0
  6
CONTINUOUS
 62
     7
 10
-806.24377000000004
 20
214.0524099999999
 30
0.0
 40
5.0
 50
90.000003000000007
 51
180.00001
  0
ARC
  5
890
  8
0
  6
CONTINUOUS
 62
     7
 10
-805.24370999999985
 20
323.65087999999992
 30
0.0
 40
3.0
 50
91.999998000000005
 51
180.00001
  0
ARC
  5
891
  8
0
  6
CONTINUOUS
 62
     3
 10
-867.74370999999985
 20
213.04818999999989
 30
0.0
 40
5.5
 50
84.784087999999983
 51
185.21596
  0
ARC
  5
892
  8
0
  6
CONTINUOUS
 62
     7
 10
-943.97540000000004
 20
176.57052999999999
 30
0.0
 40
2.0
 50
188.6433899999999
 51
270.0
  0
ARC
  5
893
  8
0
  6
CONTINUOUS
 62
     7
 10
-943.98876999999993
 20
178.41833
 30
0.0
 40
2.0
 50
189.08497
 51
270.0
  0
ARC
  5
894
  8
0
  6
CONTINUOUS
 62
     7
 10
-944.03734999999995
 20
181.26471000000001
 30
0.0
 40
2.0
 50
190.71569
 51
270.0
  0
ARC
  5
895
  8
0
  6
CONTINUOUS
 62
     7
 10
-956.74377000000015
 20
185.29855000000001
 30
0.0
 40
0.5
 50
0.0
 51
90.000003000000007
  0
ARC
  5
896
  8
0
  6
CONTINUOUS
 62
     7
 10
-956.74377000000015
 20
187.4448499999998
 30
0.0
 40
0.5
 50
270.0
 51
0.0
  0
ARC
  5
897
  8
0
  6
CONTINUOUS
 62
     7
 10
-957.24377000000004
 20
190.04633000000001
 30
0.0
 40
1.0
 50
270.0
 51
0.0
  0
ARC
  5
898
  8
0
  6
CONTINUOUS
 62
     7
 10
-957.24377000000004
 20
194.56305
 30
0.0
 40
1.0
 50
270.0
 51
0.0
  0
ARC
  5
899
  8
0
  6
CONTINUOUS
 62
     7
 10
-960.24370999999985
 20
189.67260999999999
 30
0.0
 40
1.0
 50
179.99998999999991
 51
239.0334
  0
ARC
  5
89A
  8
0
  6
CONTINUOUS
 62
     7
 10
-960.24370999999985
 20
190.70818
 30
0.0
 40
1.0
 50
179.99998999999991
 51
242.07341
  0
ARC
  5
89B
  8
0
  6
CONTINUOUS
 62
     7
 10
-960.24370999999985
 20
194.2745799999999
 30
0.0
 40
1.0
 50
179.99998999999991
 51
236.74527999999981
  0
ARC
  5
89C
  8
0
  6
CONTINUOUS
 62
     7
 10
-960.24370999999985
 20
195.3077099999999
 30
0.0
 40
1.0
 50
179.99998999999991
 51
239.64048999999989
  0
ARC
  5
89D
  8
0
  6
CONTINUOUS
 62
     7
 10
-958.97247000000004
 20
194.56305
 30
0.0
 40
1.0
 50
239.6405
 51
270.0
  0
ARC
  5
89E
  8
0
  6
CONTINUOUS
 62
     7
 10
-958.94512999999995
 20
193.42302000000001
 30
0.0
 40
1.0
 50
236.74527
 51
270.0
  0
ARC
  5
89F
  8
0
  6
CONTINUOUS
 62
     7
 10
-958.99511999999993
 20
190.04633000000001
 30
0.0
 40
1.0
 50
242.07339999999999
 51
270.0
  0
ARC
  5
8A0
  8
0
  6
CONTINUOUS
 62
     7
 10
-958.96673999999973
 20
188.90630999999991
 30
0.0
 40
1.0
 50
239.0334
 51
270.0
  0
ARC
  5
8A1
  8
0
  6
CONTINUOUS
 62
     7
 10
-959.00451999999996
 20
187.9448899999999
 30
0.0
 40
1.0
 50
243.08874
 51
270.0
  0
ARC
  5
8A2
  8
0
  6
CONTINUOUS
 62
     7
 10
-958.97559000000001
 20
186.79857000000001
 30
0.0
 40
1.0
 50
239.9736
 51
270.0
  0
ARC
  5
8A3
  8
0
  6
CONTINUOUS
 62
     7
 10
-960.24370999999985
 20
188.57390000000001
 30
0.0
 40
1.0
 50
179.99998999999991
 51
243.08874999999981
  0
ARC
  5
8A4
  8
0
  6
CONTINUOUS
 62
     7
 10
-960.24370999999985
 20
187.53152
 30
0.0
 40
1.0
 50
179.99998999999991
 51
239.97361000000001
  0
ARC
  5
8A5
  8
0
  6
CONTINUOUS
 62
     7
 10
-910.24370999999985
 20
178.41833
 30
0.0
 40
2.0
 50
270.0
 51
0.0
  0
ARC
  5
8A6
  8
0
  6
CONTINUOUS
 62
     7
 10
-910.24370999999985
 20
176.57052999999999
 30
0.0
 40
2.0
 50
270.0
 51
0.0
  0
ARC
  5
8A7
  8
0
  6
CONTINUOUS
 62
     7
 10
-847.11761000000001
 20
181.26471000000001
 30
0.0
 40
2.0
 50
270.0
 51
345.0
  0
ARC
  5
8A8
  8
0
  6
CONTINUOUS
 62
     7
 10
-910.24370999999985
 20
175.66003000000001
 30
0.0
 40
2.0
 50
270.0
 51
0.0
  0
ARC
  5
8A9
  8
0
  6
CONTINUOUS
 62
     7
 10
-943.95403999999996
 20
175.66003000000001
 30
0.0
 40
2.0
 50
187.9440399999998
 51
270.0
  0
ARC
  5
8AA
  8
0
  6
CONTINUOUS
 62
     7
 10
-839.59276999999975
 20
275.27096999999998
 30
0.0
 40
1.5
 50
195.00001
 51
270.0
  0
ARC
  5
8AB
  8
0
  6
CONTINUOUS
 62
     7
 10
-847.11761000000001
 20
289.83121
 30
0.0
 40
2.0
 50
15.0
 51
90.000003000000007
  0
ARC
  5
8AC
  8
0
  6
CONTINUOUS
 62
     7
 10
-910.24370999999985
 20
295.43585000000002
 30
0.0
 40
2.0
 50
0.0
 51
90.000003000000007
  0
ARC
  5
8AD
  8
0
  6
CONTINUOUS
 62
     7
 10
-910.24370999999985
 20
294.52533
 30
0.0
 40
2.0
 50
0.0
 51
90.000003000000007
  0
ARC
  5
8AE
  8
0
  6
CONTINUOUS
 62
     7
 10
-910.24370999999985
 20
292.67757999999992
 30
0.0
 40
2.0
 50
0.0
 51
90.000003000000007
  0
ARC
  5
8AF
  8
0
  6
CONTINUOUS
 62
     7
 10
-943.95403999999996
 20
295.43585000000002
 30
0.0
 40
2.0
 50
90.000003000000007
 51
172.05596
  0
ARC
  5
8B0
  8
0
  6
CONTINUOUS
 62
     7
 10
-943.97540000000004
 20
294.52533
 30
0.0
 40
2.0
 50
90.000003000000007
 51
171.3566099999999
  0
ARC
  5
8B1
  8
0
  6
CONTINUOUS
 62
     7
 10
-943.98876999999993
 20
292.67757999999992
 30
0.0
 40
2.0
 50
90.000003000000007
 51
170.91503
  0
ARC
  5
8B2
  8
0
  6
CONTINUOUS
 62
     7
 10
-921.74377000000015
 20
272.27099999999967
 30
0.0
 40
1.5
 50
90.000003000000007
 51
180.00001
  0
ARC
  5
8B3
  8
0
  6
CONTINUOUS
 62
     7
 10
-944.03734999999995
 20
289.83121
 30
0.0
 40
2.0
 50
90.000003000000007
 51
169.28431
  0
ARC
  5
8B4
  8
0
  6
CONTINUOUS
 62
     7
 10
-960.24370999999985
 20
195.3077099999999
 30
0.0
 40
1.0
 50
179.99998999999991
 51
239.64048999999989
  0
ARC
  5
8B5
  8
0
  6
CONTINUOUS
 62
     7
 10
-957.24377000000004
 20
194.56305
 30
0.0
 40
1.0
 50
334.63675999999998
 51
0.0
  0
ARC
  5
8B6
  8
0
  6
CONTINUOUS
 62
     7
 10
-945.56586000000004
 20
200.50278999999989
 30
0.0
 40
1.6779174999999991
 50
90.000003000000007
 51
270.0
  0
ARC
  5
8B7
  8
0
  6
CONTINUOUS
 62
     7
 10
-945.78223000000003
 20
210.5232399999999
 30
0.0
 40
1.4615020000000001
 50
90.000003000000007
 51
270.0
  0
ARC
  5
8B8
  8
0
  6
CONTINUOUS
 62
     7
 10
-945.91283999999985
 20
220.53537
 30
0.0
 40
1.330932599999999
 50
90.000003000000007
 51
270.0
  0
ARC
  5
8B9
  8
0
  6
CONTINUOUS
 62
     7
 10
-945.97484999999995
 20
230.54407
 30
0.0
 40
1.268920899999999
 50
90.000003000000007
 51
270.0
  0
ARC
  5
8BA
  8
0
  6
CONTINUOUS
 62
     7
 10
-945.97484999999995
 20
240.55181999999991
 30
0.0
 40
1.268920899999999
 50
90.000003000000007
 51
270.0
  0
ARC
  5
8BB
  8
0
  6
CONTINUOUS
 62
     7
 10
-945.91283999999985
 20
250.56055000000001
 30
0.0
 40
1.330932599999999
 50
90.000003000000007
 51
270.0
  0
ARC
  5
8BC
  8
0
  6
CONTINUOUS
 62
     7
 10
-945.78228999999999
 20
260.57260000000002
 30
0.0
 40
1.4614868000000001
 50
90.000003000000007
 51
270.0
  0
ARC
  5
8BD
  8
0
  6
CONTINUOUS
 62
     7
 10
-944.69439999999997
 20
210.5479599999999
 30
0.0
 40
1.0
 50
90.000003000000007
 51
270.0
  0
ARC
  5
8BE
  8
0
  6
CONTINUOUS
 62
     7
 10
-944.69439999999997
 20
220.5479599999999
 30
0.0
 40
1.0
 50
90.000003000000007
 51
270.0
  0
ARC
  5
8BF
  8
0
  6
CONTINUOUS
 62
     7
 10
-944.69439999999997
 20
230.5479599999999
 30
0.0
 40
1.0
 50
90.000003000000007
 51
270.0
  0
ARC
  5
8C0
  8
0
  6
CONTINUOUS
 62
     7
 10
-944.69439999999997
 20
240.54795999999999
 30
0.0
 40
1.0
 50
90.000003000000007
 51
270.0
  0
ARC
  5
8C1
  8
0
  6
CONTINUOUS
 62
     7
 10
-944.69439999999997
 20
250.54795999999999
 30
0.0
 40
1.0
 50
90.000003000000007
 51
270.0
  0
ARC
  5
8C2
  8
0
  6
CONTINUOUS
 62
     7
 10
-944.69439999999997
 20
260.54797000000002
 30
0.0
 40
1.0
 50
90.000003000000007
 51
270.0
  0
ARC
  5
8C3
  8
0
  6
CONTINUOUS
 62
     7
 10
-944.69439999999997
 20
270.54797000000002
 30
0.0
 40
1.0
 50
90.000003000000007
 51
270.0
  0
ARC
  5
8C4
  8
0
  6
CONTINUOUS
 62
     7
 10
-945.56646999999964
 20
270.59305000000001
 30
0.0
 40
1.6779127
 50
90.000003000000007
 51
270.0
  0
ARC
  5
8C5
  8
0
  6
CONTINUOUS
 62
     7
 10
-861.74376999999981
 20
264.04793999999998
 30
0.0
 40
1.5
 50
0.0
 51
90.000003000000007
  0
ARC
  5
8C6
  8
0
  6
CONTINUOUS
 62
     7
 10
-861.74376999999981
 20
207.04796999999991
 30
0.0
 40
1.5
 50
270.0
 51
0.0
  0
ARC
  5
8C7
  8
0
  6
CONTINUOUS
 62
     7
 10
-957.24377000000004
 20
218.5479599999999
 30
0.0
 40
1.0
 50
0.0
 51
90.000003000000007
  0
ARC
  5
8C8
  8
0
  6
CONTINUOUS
 62
     7
 10
-957.24377000000004
 20
222.54796999999999
 30
0.0
 40
1.0
 50
270.0
 51
0.0
  0
ARC
  5
8C9
  8
0
  6
CONTINUOUS
 62
     7
 10
-957.24377000000004
 20
228.5479599999999
 30
0.0
 40
1.0
 50
0.0
 51
90.000003000000007
  0
ARC
  5
8CA
  8
0
  6
CONTINUOUS
 62
     7
 10
-957.24377000000004
 20
232.54796999999991
 30
0.0
 40
1.0
 50
270.0
 51
0.0
  0
ARC
  5
8CB
  8
0
  6
CONTINUOUS
 62
     7
 10
-960.24370999999985
 20
230.5479599999999
 30
0.0
 40
1.0
 50
90.000003000000007
 51
180.00001
  0
ARC
  5
8CC
  8
0
  6
CONTINUOUS
 62
     7
 10
-960.24370999999985
 20
230.5479599999999
 30
0.0
 40
1.0
 50
179.99998999999991
 51
270.0
  0
ARC
  5
8CD
  8
0
  6
CONTINUOUS
 62
     7
 10
-960.24370999999985
 20
220.5479599999999
 30
0.0
 40
1.0
 50
90.000003000000007
 51
180.00001
  0
ARC
  5
8CE
  8
0
  6
CONTINUOUS
 62
     7
 10
-960.24370999999985
 20
220.5479599999999
 30
0.0
 40
1.0
 50
179.99998999999991
 51
270.0
  0
ARC
  5
8CF
  8
0
  6
CONTINUOUS
 62
     7
 10
-960.24370999999985
 20
210.5479599999999
 30
0.0
 40
1.0
 50
90.000003000000007
 51
180.00001
  0
ARC
  5
8D0
  8
0
  6
CONTINUOUS
 62
     7
 10
-960.24370999999985
 20
210.5479599999999
 30
0.0
 40
1.0
 50
179.99998999999991
 51
270.0
  0
ARC
  5
8D1
  8
0
  6
CONTINUOUS
 62
     7
 10
-960.24370999999985
 20
201.37323000000001
 30
0.0
 40
1.0
 50
179.99998999999991
 51
246.8729799999999
  0
ARC
  5
8D2
  8
0
  6
CONTINUOUS
 62
     7
 10
-960.24370999999985
 20
203.15865999999991
 30
0.0
 40
1.0
 50
179.99998999999991
 51
252.90236999999999
  0
ARC
  5
8D3
  8
0
  6
CONTINUOUS
 62
     7
 10
-959.09343999999999
 20
202.80480999999989
 30
0.0
 40
1.0
 50
252.90236999999999
 51
270.0
  0
ARC
  5
8D4
  8
0
  6
CONTINUOUS
 62
     7
 10
-959.03912000000003
 20
200.85869999999991
 30
0.0
 40
1.0
 50
246.87297000000001
 51
270.0
  0
ARC
  5
8D5
  8
0
  6
CONTINUOUS
 62
     7
 10
-956.94379000000004
 20
199.1587199999999
 30
0.0
 40
0.6999999900000004
 50
0.0
 51
90.000003000000007
  0
ARC
  5
8D6
  8
0
  6
CONTINUOUS
 62
     7
 10
-957.24377000000004
 20
208.5479599999999
 30
0.0
 40
1.0
 50
0.0
 51
90.000003000000007
  0
ARC
  5
8D7
  8
0
  6
CONTINUOUS
 62
     7
 10
-957.24377000000004
 20
212.54796999999999
 30
0.0
 40
1.0
 50
270.0
 51
0.0
  0
ARC
  5
8D8
  8
0
  6
CONTINUOUS
 62
     7
 10
-957.24377000000004
 20
202.80480999999989
 30
0.0
 40
1.0
 50
270.0
 51
0.0
  0
ARC
  5
8D9
  8
0
  6
CONTINUOUS
 62
     7
 10
-842.42169000000013
 20
200.50278999999989
 30
0.0
 40
1.6779127
 50
270.0
 51
90.000003000000007
  0
ARC
  5
8DA
  8
0
  6
CONTINUOUS
 62
     7
 10
-845.89940999999988
 20
200.54795999999999
 30
0.0
 40
1.0
 50
270.0
 51
90.000003000000007
  0
ARC
  5
8DB
  8
0
  6
CONTINUOUS
 62
     7
 10
-845.89940999999988
 20
270.54797000000002
 30
0.0
 40
1.0
 50
270.0
 51
90.000003000000007
  0
ARC
  5
8DC
  8
0
  6
CONTINUOUS
 62
     7
 10
-842.42169000000013
 20
270.59305000000001
 30
0.0
 40
1.6779127
 50
270.0
 51
90.000003000000007
  0
ARC
  5
8DD
  8
0
  6
CONTINUOUS
 62
     7
 10
-858.94379000000004
 20
203.18070999999989
 30
0.0
 40
1.0
 50
179.99998999999991
 51
270.0
  0
ARC
  5
8DE
  8
0
  6
CONTINUOUS
 62
     7
 10
-858.94379000000004
 20
267.91512999999998
 30
0.0
 40
1.0
 50
90.000003000000007
 51
180.00001
  0
ARC
  5
8DF
  8
0
  6
CONTINUOUS
 62
     7
 10
-944.69439999999997
 20
200.54795999999999
 30
0.0
 40
1.0
 50
90.000003000000007
 51
270.0
  0
ARC
  5
8E0
  8
0
  6
CONTINUOUS
 62
     7
 10
-956.74377000000015
 20
285.79736000000008
 30
0.0
 40
0.5
 50
270.0
 51
0.0
  0
ARC
  5
8E1
  8
0
  6
CONTINUOUS
 62
     7
 10
-956.74377000000015
 20
283.65105999999997
 30
0.0
 40
0.5
 50
0.0
 51
90.000003000000007
  0
ARC
  5
8E2
  8
0
  6
CONTINUOUS
 62
     7
 10
-957.24377000000004
 20
281.04958999999991
 30
0.0
 40
1.0
 50
0.0
 51
90.000003000000007
  0
ARC
  5
8E3
  8
0
  6
CONTINUOUS
 62
     7
 10
-956.94379000000004
 20
271.93718999999999
 30
0.0
 40
0.6999999900000004
 50
270.0
 51
0.0
  0
ARC
  5
8E4
  8
0
  6
CONTINUOUS
 62
     7
 10
-957.24377000000004
 20
276.53286999999989
 30
0.0
 40
1.0
 50
0.0
 51
90.000003000000007
  0
ARC
  5
8E5
  8
0
  6
CONTINUOUS
 62
     7
 10
-957.24377000000004
 20
268.29107999999991
 30
0.0
 40
1.0
 50
0.0
 51
90.000003000000007
  0
ARC
  5
8E6
  8
0
  6
CONTINUOUS
 62
     7
 10
-957.24377000000004
 20
262.54797000000002
 30
0.0
 40
1.0
 50
270.0
 51
0.0
  0
ARC
  5
8E7
  8
0
  6
CONTINUOUS
 62
     7
 10
-957.24377000000004
 20
258.54793999999998
 30
0.0
 40
1.0
 50
0.0
 51
90.000003000000007
  0
ARC
  5
8E8
  8
0
  6
CONTINUOUS
 62
     7
 10
-957.24377000000004
 20
252.54796999999991
 30
0.0
 40
1.0
 50
270.0
 51
0.0
  0
ARC
  5
8E9
  8
0
  6
CONTINUOUS
 62
     7
 10
-957.24377000000004
 20
248.54795999999999
 30
0.0
 40
1.0
 50
0.0
 51
90.000003000000007
  0
ARC
  5
8EA
  8
0
  6
CONTINUOUS
 62
     7
 10
-957.24377000000004
 20
242.54796999999991
 30
0.0
 40
1.0
 50
270.0
 51
0.0
  0
ARC
  5
8EB
  8
0
  6
CONTINUOUS
 62
     7
 10
-957.24377000000004
 20
238.54795999999999
 30
0.0
 40
1.0
 50
0.0
 51
90.000003000000007
  0
ARC
  5
8EC
  8
0
  6
CONTINUOUS
 62
     7
 10
-960.24370999999985
 20
240.54795999999999
 30
0.0
 40
1.0
 50
179.99998999999991
 51
270.0
  0
ARC
  5
8ED
  8
0
  6
CONTINUOUS
 62
     7
 10
-960.24370999999985
 20
240.54795999999999
 30
0.0
 40
1.0
 50
90.000003000000007
 51
180.00001
  0
ARC
  5
8EE
  8
0
  6
CONTINUOUS
 62
     7
 10
-960.24370999999985
 20
250.54795999999999
 30
0.0
 40
1.0
 50
179.99998999999991
 51
270.0
  0
ARC
  5
8EF
  8
0
  6
CONTINUOUS
 62
     7
 10
-960.24370999999985
 20
250.54795999999999
 30
0.0
 40
1.0
 50
90.000003000000007
 51
180.00001
  0
ARC
  5
8F0
  8
0
  6
CONTINUOUS
 62
     7
 10
-960.24370999999985
 20
260.54797000000002
 30
0.0
 40
1.0
 50
179.99998999999991
 51
270.0
  0
ARC
  5
8F1
  8
0
  6
CONTINUOUS
 62
     7
 10
-960.24370999999985
 20
260.54797000000002
 30
0.0
 40
1.0
 50
90.000003000000007
 51
180.00001
  0
ARC
  5
8F2
  8
0
  6
CONTINUOUS
 62
     7
 10
-960.24370999999985
 20
269.72268999999989
 30
0.0
 40
1.0
 50
113.12703
 51
180.00001
  0
ARC
  5
8F3
  8
0
  6
CONTINUOUS
 62
     7
 10
-960.24370999999985
 20
267.93725999999992
 30
0.0
 40
1.0
 50
107.0976299999999
 51
180.00001
  0
ARC
  5
8F4
  8
0
  6
CONTINUOUS
 62
     7
 10
-959.09343999999999
 20
268.29107999999991
 30
0.0
 40
1.0
 50
90.000003000000007
 51
107.0976299999999
  0
ARC
  5
8F5
  8
0
  6
CONTINUOUS
 62
     7
 10
-959.03912000000003
 20
270.2371799999998
 30
0.0
 40
1.0
 50
90.000003000000007
 51
113.12703
  0
ARC
  5
8F6
  8
0
  6
CONTINUOUS
 62
     7
 10
-960.24370999999985
 20
281.42327999999992
 30
0.0
 40
1.0
 50
120.9666
 51
180.00001
  0
ARC
  5
8F7
  8
0
  6
CONTINUOUS
 62
     7
 10
-960.24370999999985
 20
280.38765999999998
 30
0.0
 40
1.0
 50
117.92659999999979
 51
180.00001
  0
ARC
  5
8F8
  8
0
  6
CONTINUOUS
 62
     7
 10
-960.24370999999985
 20
276.82126
 30
0.0
 40
1.0
 50
123.25473
 51
180.00001
  0
ARC
  5
8F9
  8
0
  6
CONTINUOUS
 62
     7
 10
-960.24370999999985
 20
275.78820999999982
 30
0.0
 40
1.0
 50
120.3594999999999
 51
180.00001
  0
ARC
  5
8FA
  8
0
  6
CONTINUOUS
 62
     7
 10
-958.97247000000004
 20
276.53286999999989
 30
0.0
 40
1.0
 50
90.000003000000007
 51
120.3594999999999
  0
ARC
  5
8FB
  8
0
  6
CONTINUOUS
 62
     7
 10
-958.94512999999995
 20
277.67281999999989
 30
0.0
 40
1.0
 50
90.000003000000007
 51
123.25473
  0
ARC
  5
8FC
  8
0
  6
CONTINUOUS
 62
     7
 10
-958.99511999999993
 20
281.04958999999991
 30
0.0
 40
1.0
 50
90.000003000000007
 51
117.92659999999979
  0
ARC
  5
8FD
  8
0
  6
CONTINUOUS
 62
     7
 10
-958.96673999999973
 20
282.18957999999992
 30
0.0
 40
1.0
 50
90.000003000000007
 51
120.9666
  0
ARC
  5
8FE
  8
0
  6
CONTINUOUS
 62
     7
 10
-959.00451999999996
 20
283.15102999999999
 30
0.0
 40
1.0
 50
90.000003000000007
 51
116.91126
  0
ARC
  5
8FF
  8
0
  6
CONTINUOUS
 62
     7
 10
-958.97559000000001
 20
284.29736000000008
 30
0.0
 40
1.0
 50
90.000003000000007
 51
120.0264
  0
ARC
  5
900
  8
0
  6
CONTINUOUS
 62
     7
 10
-960.24370999999985
 20
282.52202999999992
 30
0.0
 40
1.0
 50
116.91126
 51
180.00001
  0
ARC
  5
901
  8
0
  6
CONTINUOUS
 62
     7
 10
-960.24370999999985
 20
283.56432999999998
 30
0.0
 40
1.0
 50
120.0264
 51
180.00001
  0
ARC
  5
902
  8
0
  6
CONTINUOUS
 62
     7
 10
-763.24377000000004
 20
333.33600000000001
 30
0.0
 40
4.0
 50
91.999998000000005
 51
180.93198000000001
  0
ARC
  5
903
  8
0
  6
CONTINUOUS
 62
     7
 10
-813.20312999999987
 20
296.68038999999999
 30
0.0
 40
4.0
 50
272.0
 51
309.62979000000001
  0
ARC
  5
904
  8
0
  6
CONTINUOUS
 62
     7
 10
-770.09589000000005
 20
189.63095000000001
 30
0.0
 40
4.0
 50
31.072340999999991
 51
88.0
  0
ARC
  5
905
  8
0
  6
CONTINUOUS
 62
     7
 10
-763.24377000000004
 20
193.75993
 30
0.0
 40
4.0
 50
211.07233999999991
 51
268.0
  0
ARC
  5
906
  8
0
  6
CONTINUOUS
 62
     3
 10
-912.74370999999985
 20
258.04773
 30
0.0
 40
5.5
 50
264.78411999999992
 51
5.2159094000000001
  0
ARC
  5
907
  8
0
  6
CONTINUOUS
 62
     7
 10
-150.28093999999979
 20
150.96466000000001
 30
0.0
 40
10.0
 50
255.0
 51
345.0
  0
CIRCLE
  5
908
  8
0
  6
CONTINUOUS
 62
     7
 10
-215.2809399999999
 20
301.54793999999993
 30
0.0
 40
41.0
  0
ARC
  5
909
  8
0
  6
CONTINUOUS
 62
     7
 10
-215.2809399999999
 20
263.54793999999998
 30
0.0
 40
130.0
 50
246.6310399999999
 51
293.36896000000002
  0
ARC
  5
90A
  8
0
  6
CONTINUOUS
 62
     7
 10
-215.2809399999999
 20
263.54793999999998
 30
0.0
 40
122.0
 50
93.837626000000014
 51
119.8569399999999
  0
ARC
  5
90B
  8
0
  6
CONTINUOUS
 62
     7
 10
-625.98644999999988
 20
400.37633999999991
 30
0.0
 40
5.0
 50
271.49999999999972
 51
315.0
  0
ARC
  5
90C
  8
0
  6
CONTINUOUS
 62
     7
 10
-594.13122999999985
 20
321.47109999999992
 30
0.0
 40
5.0
 50
198.30292
 51
270.0
  0
ARC
  5
90D
  8
0
  6
CONTINUOUS
 62
     7
 10
-206.78095999999991
 20
390.26317999999992
 30
0.0
 40
5.0
 50
179.99998999999991
 51
266.16235999999992
  0
ARC
  5
90E
  8
0
  6
CONTINUOUS
 62
     7
 10
-280.28093999999999
 20
150.96466000000001
 30
0.0
 40
10.0
 50
195.00001
 51
285.0
  0
ARC
  5
90F
  8
0
  6
CONTINUOUS
 62
     7
 10
-109.7584499999999
 20
278.54793999999998
 30
0.0
 40
5.0
 50
270.0
 51
347.70395000000002
  0
ARC
  5
910
  8
0
  6
CONTINUOUS
 62
     7
 10
-320.8034399999998
 20
278.54793999999998
 30
0.0
 40
5.0
 50
192.29603999999981
 51
270.0
  0
ARC
  5
911
  8
0
  6
CENTER
 62
     7
 10
-215.2809399999999
 20
301.54793999999993
 30
0.0
 40
170.0
 50
38.919685000000001
 51
51.014603999999991
  0
CIRCLE
  5
912
  8
0
  6
CONTINUOUS
 62
     7
 10
-215.2809399999999
 20
301.54793999999993
 30
0.0
 40
113.0
  0
ARC
  5
913
  8
0
  6
CONTINUOUS
 62
     7
 10
-94.272209000000004
 20
422.55669999999981
 30
0.0
 40
19.0
 50
2.0
 51
88.0
  0
CIRCLE
  5
914
  8
0
  6
CONTINUOUS
 62
     7
 10
-95.072799999999987
 20
421.75609999999989
 30
0.0
 40
9.5
  0
ARC
  5
915
  8
0
  6
CENTER
 62
     7
 10
-215.2809399999999
 20
301.54793999999993
 30
0.0
 40
170.0
 50
218.8532899999997
 51
231.01461
  0
ARC
  5
916
  8
0
  6
CONTINUOUS
 62
     7
 10
-594.74377000000004
 20
440.52230999999989
 30
0.0
 40
3.0
 50
91.999998000000005
 51
180.00001
  0
ARC
  5
917
  8
0
  6
CONTINUOUS
 62
     7
 10
-215.2809399999999
 20
263.54793999999998
 30
0.0
 40
122.0
 50
60.143059999999998
 51
86.162371999999962
  0
ARC
  5
918
  8
0
  6
CONTINUOUS
 62
     7
 10
-594.74377000000004
 20
161.52597
 30
0.0
 40
3.0
 50
179.99998999999991
 51
271.99998999999991
  0
ARC
  5
919
  8
0
  6
CONTINUOUS
 62
     7
 10
-215.2809399999999
 20
263.54793999999998
 30
0.0
 40
122.0
 50
124.67318
 51
157.42802
  0
ARC
  5
91A
  8
0
  6
CONTINUOUS
 62
     7
 10
-146.31255999999991
 20
384.65848
 30
0.0
 40
5.0
 50
315.0
 51
50.312775000000002
  0
ARC
  5
91B
  8
0
  6
CONTINUOUS
 62
     7
 10
-223.78095999999991
 20
390.26317999999992
 30
0.0
 40
5.0
 50
273.83762999999999
 51
0.0
  0
ARC
  5
91C
  8
0
  6
CONTINUOUS
 62
     7
 10
-602.74377000000004
 20
423.61901999999998
 30
0.0
 40
5.0
 50
315.0
 51
0.0
  0
ARC
  5
91D
  8
0
  6
CONTINUOUS
 62
     7
 10
-223.78095999999991
 20
409.21292
 30
0.0
 40
5.0
 50
0.0
 51
94.514060999999984
  0
ARC
  5
91E
  8
0
  6
CONTINUOUS
 62
     7
 10
-206.78095999999991
 20
409.21292
 30
0.0
 40
5.0
 50
85.485943999999975
 51
180.00001
  0
ARC
  5
91F
  8
0
  6
CONTINUOUS
 62
     7
 10
-215.2809399999999
 20
263.54793999999998
 30
0.0
 40
122.0
 50
22.571977
 51
55.326820000000012
  0
ARC
  5
920
  8
0
  6
CONTINUOUS
 62
     7
 10
-594.74377000000004
 20
412.50524999999988
 30
0.0
 40
5.0
 50
0.0
 51
91.999998000000005
  0
ARC
  5
921
  8
0
  6
CONTINUOUS
 62
     7
 10
-175.50655
 20
355.46454
 30
0.0
 40
5.0
 50
233.5836799999999
 51
315.0
  0
ARC
  5
922
  8
0
  6
CONTINUOUS
 62
     7
 10
-132.17043000000001
 20
370.51632999999993
 30
0.0
 40
5.0
 50
39.687224000000001
 51
135.0
  0
ARC
  5
923
  8
0
  6
CONTINUOUS
 62
     7
 10
-706.74377000000004
 20
135.9333
 30
0.0
 40
2.0
 50
179.99998999999991
 51
268.00000999999992
  0
ARC
  5
924
  8
0
  6
CONTINUOUS
 62
     7
 10
-592.74377000000004
 20
210.04111
 30
0.0
 40
5.0
 50
90.000003000000007
 51
180.00001
  0
ARC
  5
925
  8
0
  6
CONTINUOUS
 62
     7
 10
-594.74377000000004
 20
190.59065000000001
 30
0.0
 40
5.0
 50
268.0
 51
0.0
  0
ARC
  5
926
  8
0
  6
CONTINUOUS
 62
     7
 10
-215.2809399999999
 20
301.54793999999993
 30
0.0
 40
61.999995999999989
 50
142.11498999999981
 51
180.00001
  0
ARC
  5
927
  8
0
  6
CONTINUOUS
 62
     7
 10
-215.2809399999999
 20
301.54793999999993
 30
0.0
 40
61.999995999999989
 50
53.583680999999999
 51
126.41632
  0
CIRCLE
  5
928
  8
0
  6
CONTINUOUS
 62
     7
 10
-95.072799999999987
 20
181.33981
 30
0.0
 40
9.5
  0
ARC
  5
929
  8
0
  6
CONTINUOUS
 62
     7
 10
-94.272209000000004
 20
180.53923
 30
0.0
 40
19.0
 50
272.0
 51
358.0
  0
CIRCLE
  5
92A
  8
0
  6
CONTINUOUS
 62
     7
 10
-215.2809399999999
 20
301.54793999999993
 30
0.0
 40
120.0
  0
ARC
  5
92B
  8
0
  6
CONTINUOUS
 62
     7
 10
-336.28969999999993
 20
180.53923
 30
0.0
 40
19.0
 50
182.0
 51
268.0
  0
ARC
  5
92C
  8
0
  6
CONTINUOUS
 62
     7
 10
-145.2809399999999
 20
281.54793999999998
 30
0.0
 40
8.0
 50
179.99998999999991
 51
270.0
  0
CIRCLE
  5
92D
  8
0
  6
CONTINUOUS
 62
     7
 10
-335.48910999999993
 20
181.33981
 30
0.0
 40
9.5
  0
CIRCLE
  5
92E
  8
0
  6
CONTINUOUS
 62
     7
 10
-335.48910999999993
 20
421.75609999999989
 30
0.0
 40
9.5
  0
ARC
  5
92F
  8
0
  6
CONTINUOUS
 62
     7
 10
-336.28969999999993
 20
422.55669999999981
 30
0.0
 40
19.0
 50
91.999998000000005
 51
178.0
  0
ARC
  5
930
  8
0
  6
CENTER
 62
     7
 10
-215.2809399999999
 20
301.54793999999993
 30
0.0
 40
170.0
 50
129.34115
 51
141.01461
  0
ARC
  5
931
  8
0
  6
CONTINUOUS
 62
     7
 10
-215.2809399999999
 20
301.54793999999993
 30
0.0
 40
61.999995999999989
 50
0.0
 51
36.416317999999983
  0
ARC
  5
932
  8
0
  6
CONTINUOUS
 62
     7
 10
-255.05537000000001
 20
355.46454
 30
0.0
 40
5.0
 50
225.0
 51
306.41631999999993
  0
ARC
  5
933
  8
0
  6
CONTINUOUS
 62
     7
 10
-269.19747999999998
 20
341.32238999999993
 30
0.0
 40
5.0
 50
323.5836799999999
 51
45.00000099999999
  0
ARC
  5
934
  8
0
  6
CONTINUOUS
 62
     7
 10
-298.39147999999989
 20
370.51632999999993
 30
0.0
 40
5.0
 50
45.00000099999999
 51
140.31278
  0
ARC
  5
935
  8
0
  6
CONTINUOUS
 62
     7
 10
-284.24932999999999
 20
384.65848
 30
0.0
 40
5.0
 50
129.68721999999991
 51
225.0
  0
ARC
  5
936
  8
0
  6
CONTINUOUS
 62
     7
 10
-161.36439999999979
 20
341.32238999999993
 30
0.0
 40
5.0
 50
135.0
 51
216.41632000000001
  0
ARC
  5
937
  8
0
  6
CENTER
 62
     7
 10
-215.2809399999999
 20
301.54793999999993
 30
0.0
 40
170.0
 50
308.87071999999989
 51
321.01461
  0
ARC
  5
938
  8
0
  6
CONTINUOUS
 62
     7
 10
-285.28093999999982
 20
281.54793999999998
 30
0.0
 40
8.0
 50
270.0
 51
0.0
  0
ARC
  5
939
  8
0
  6
CONTINUOUS
 62
     7
 10
-667.74377000000004
 20
190.4648399999999
 30
0.0
 40
9.7211408999999982
 50
90.000003000000007
 51
270.0
  0
ARC
  5
93A
  8
0
  6
CONTINUOUS
 62
     7
 10
-616.79076999999995
 20
374.03687000000002
 30
0.0
 40
5.0
 50
270.0
 51
306.72320999999999
  0
ARC
  5
93B
  8
0
  6
CONTINUOUS
 62
     7
 10
-644.24377000000004
 20
374.03687000000002
 30
0.0
 40
5.0
 50
229.76332999999991
 51
270.0
  0
ARC
  5
93C
  8
0
  6
CONTINUOUS
 62
     7
 10
-665.54394999999988
 20
395.34307999999987
 30
0.0
 40
30.946884000000001
 50
307.55230999999992
 51
335.5961299999999
  0
ARC
  5
93D
  8
0
  6
CONTINUOUS
 62
     7
 10
-602.74377000000004
 20
409.08575000000002
 30
0.0
 40
5.0
 50
300.88097999999979
 51
0.0
  0
ARC
  5
93E
  8
0
  6
CONTINUOUS
 62
     7
 10
-602.74377000000004
 20
794.40404999999964
 30
0.0
 40
5.0
 50
300.88097999999979
 51
0.0
  0
ARC
  5
93F
  8
0
  6
CONTINUOUS
 62
     7
 10
-594.74377000000004
 20
797.82354999999984
 30
0.0
 40
5.0
 50
0.0
 51
91.999998000000005
  0
ARC
  5
940
  8
0
  6
CONTINUOUS
 62
     7
 10
-594.74377000000004
 20
825.84064000000001
 30
0.0
 40
3.0
 50
91.999998000000005
 51
180.00001
  0
ARC
  5
941
  8
0
  6
CONTINUOUS
 62
     7
 10
-640.05627000000004
 20
762.76837
 30
0.0
 40
3.0
 50
120.88096999999991
 51
270.0
  0
ARC
  5
942
  8
0
  6
CONTINUOUS
 62
     7
 10
-643.94799999999975
 20
767.43206999999984
 30
0.0
 40
3.0
 50
270.0
 51
300.88097999999979
  0
ARC
  5
943
  8
0
  6
CONTINUOUS
 62
     7
 10
-592.74377000000004
 20
753.00067000000001
 30
0.0
 40
5.0
 50
179.99998999999991
 51
270.0
  0
ARC
  5
944
  8
0
  6
CONTINUOUS
 62
     7
 10
-640.05627000000004
 20
610.96416999999997
 30
0.0
 40
3.0
 50
90.000003000000007
 51
239.11902000000001
  0
ARC
  5
945
  8
0
  6
CONTINUOUS
 62
     7
 10
-643.94799999999975
 20
606.30047999999977
 30
0.0
 40
3.0
 50
59.11902300000002
 51
90.000003000000007
  0
ARC
  5
946
  8
0
  6
CONTINUOUS
 62
     7
 10
-594.74377000000004
 20
547.89191000000005
 30
0.0
 40
3.0
 50
179.99998999999991
 51
268.00000999999992
  0
ARC
  5
947
  8
0
  6
CONTINUOUS
 62
     7
 10
-592.74377000000004
 20
620.73186999999996
 30
0.0
 40
5.0
 50
90.000003000000007
 51
180.00001
  0
ARC
  5
948
  8
0
  6
CONTINUOUS
 62
     7
 10
-594.74377000000004
 20
575.90899999999965
 30
0.0
 40
5.0
 50
268.0
 51
0.0
  0
ARC
  5
949
  8
0
  6
CONTINUOUS
 62
     7
 10
-602.74377000000004
 20
579.32848999999965
 30
0.0
 40
5.0
 50
0.0
 51
59.119017000000007
  0
POLYLINE
  5
94A
  8
0
  6
CONTINUOUS
 62
     7
 66
     1
 10
0.0
 20
0.0
 30
0.0
  0
VERTEX
  5
94B
  8
0
  6
CONTINUOUS
 62
     7
 10
-788.12405000000001
 20
641.44817999999987
 30
0.0
 42
0.011693477
  0
VERTEX
  5
94C
  8
0
  6
CONTINUOUS
 62
     7
 10
-784.56115999999975
 20
636.95181999999988
 30
0.0
 42
0.01121672
  0
VERTEX
  5
94D
  8
0
  6
CONTINUOUS
 62
     7
 10
-780.79628000000002
 20
632.62305000000003
 30
0.0
 42
0.011000161
  0
VERTEX
  5
94E
  8
0
  6
CONTINUOUS
 62
     7
 10
-776.84417999999982
 20
628.46660999999995
 30
0.0
  0
SEQEND
  5
94F
  8
0
 62
     7
  0
POLYLINE
  5
950
  8
0
  6
CONTINUOUS
 62
     7
 66
     1
 10
0.0
 20
0.0
 30
0.0
  0
VERTEX
  5
951
  8
0
  6
CONTINUOUS
 62
     7
 10
-792.56578000000002
 20
653.44752000000005
 30
0.0
 42
0.0058779346
  0
VERTEX
  5
952
  8
0
  6
CONTINUOUS
 62
     7
 10
-791.35615999999982
 20
651.44593999999995
 30
0.0
 42
0.0056588677
  0
VERTEX
  5
953
  8
0
  6
CONTINUOUS
 62
     7
 10
-790.10068000000001
 20
649.47279000000003
 30
0.0
 42
0.0054619133
  0
VERTEX
  5
954
  8
0
  6
CONTINUOUS
 62
     7
 10
-788.80164000000002
 20
647.52804000000003
 30
0.0
 42
0.0052861212
  0
VERTEX
  5
955
  8
0
  6
CONTINUOUS
 62
     7
 10
-787.46110999999985
 20
645.61163999999985
 30
0.0
  0
SEQEND
  5
956
  8
0
 62
     7
  0
POLYLINE
  5
957
  8
0
  6
CONTINUOUS
 62
     7
 66
     1
 10
0.0
 20
0.0
 30
0.0
  0
VERTEX
  5
958
  8
0
  6
CONTINUOUS
 62
     7
 10
-804.27427999999986
 20
699.86599999999999
 30
0.0
  0
VERTEX
  5
959
  8
0
  6
CONTINUOUS
 62
     7
 10
-796.84699999999987
 20
718.80543
 30
0.0
 42
-1.0
  0
SEQEND
  5
95A
  8
0
 62
     7
  0
POLYLINE
  5
95B
  8
0
  6
CONTINUOUS
 62
     7
 66
     1
 10
0.0
 20
0.0
 30
0.0
  0
VERTEX
  5
95C
  8
0
  6
CONTINUOUS
 62
     7
 10
-804.27427999999986
 20
673.86654999999985
 30
0.0
  0
VERTEX
  5
95D
  8
0
  6
CONTINUOUS
 62
     7
 10
-796.84699999999987
 20
654.92714999999976
 30
0.0
 42
-1.0
  0
SEQEND
  5
95E
  8
0
 62
     7
  0
POLYLINE
  5
95F
  8
0
  6
CONTINUOUS
 62
     7
 66
     1
 10
0.0
 20
0.0
 30
0.0
  0
VERTEX
  5
960
  8
0
  6
CONTINUOUS
 62
     7
 10
-788.12405000000001
 20
732.28440999999998
 30
0.0
 42
-0.011693505
  0
VERTEX
  5
961
  8
0
  6
CONTINUOUS
 62
     7
 10
-784.56115999999975
 20
736.78077999999982
 30
0.0
 42
-0.01121677
  0
VERTEX
  5
962
  8
0
  6
CONTINUOUS
 62
     7
 10
-780.79628000000002
 20
741.10955000000001
 30
0.0
 42
-0.011000238
  0
VERTEX
  5
963
  8
0
  6
CONTINUOUS
 62
     7
 10
-776.84417999999982
 20
745.26598999999999
 30
0.0
  0
SEQEND
  5
964
  8
0
 62
     7
  0
POLYLINE
  5
965
  8
0
  6
CONTINUOUS
 62
     7
 66
     1
 10
0.0
 20
0.0
 30
0.0
  0
VERTEX
  5
966
  8
0
  6
CONTINUOUS
 62
     7
 10
-792.56578000000002
 20
720.28505999999959
 30
0.0
 42
-0.0058779314
  0
VERTEX
  5
967
  8
0
  6
CONTINUOUS
 62
     7
 10
-791.35615999999982
 20
722.28665000000001
 30
0.0
 42
-0.0056588672
  0
VERTEX
  5
968
  8
0
  6
CONTINUOUS
 62
     7
 10
-790.10068000000001
 20
724.25980000000004
 30
0.0
 42
-0.0054619156
  0
VERTEX
  5
969
  8
0
  6
CONTINUOUS
 62
     7
 10
-788.80164000000002
 20
726.20455000000004
 30
0.0
 42
-0.0052861264
  0
VERTEX
  5
96A
  8
0
  6
CONTINUOUS
 62
     7
 10
-787.46110999999985
 20
728.12094999999999
 30
0.0
  0
SEQEND
  5
96B
  8
0
 62
     7
  0
POLYLINE
  5
96C
  8
0
  6
CONTINUOUS
 62
     7
 66
     1
 10
0.0
 20
0.0
 30
0.0
  0
VERTEX
  5
96D
  8
0
  6
CONTINUOUS
 62
     7
 10
-944.88385000000005
 20
686.86626999999976
 30
0.0
 42
0.00039106592
  0
VERTEX
  5
96E
  8
0
  6
CONTINUOUS
 62
     7
 10
-944.88620999999989
 20
686.55514000000005
 30
0.0
 42
0.00035488583
  0
VERTEX
  5
96F
  8
0
  6
CONTINUOUS
 62
     7
 10
-944.88810000000001
 20
686.24402999999995
 30
0.0
 42
0.00039705231
  0
VERTEX
  5
970
  8
0
  6
CONTINUOUS
 62
     7
 10
-944.88953000000004
 20
685.93291999999985
 30
0.0
 42
0.00038766493
  0
VERTEX
  5
971
  8
0
  6
CONTINUOUS
 62
     7
 10
-944.89045999999996
 20
685.62177999999994
 30
0.0
 42
0.00035527306
  0
VERTEX
  5
972
  8
0
  6
CONTINUOUS
 62
     7
 10
-944.89093000000003
 20
685.31067999999982
 30
0.0
 42
0.00039931891
  0
VERTEX
  5
973
  8
0
  6
CONTINUOUS
 62
     7
 10
-944.89093000000003
 20
684.99956999999995
 30
0.0
 42
0.00038547361
  0
VERTEX
  5
974
  8
0
  6
CONTINUOUS
 62
     7
 10
-944.8904399999999
 20
684.68842999999981
 30
0.0
 42
0.00040585667
  0
VERTEX
  5
975
  8
0
  6
CONTINUOUS
 62
     7
 10
-944.88945999999999
 20
684.37733000000003
 30
0.0
 42
0.00035762026
  0
VERTEX
  5
976
  8
0
  6
CONTINUOUS
 62
     7
 10
-944.88800000000003
 20
684.06609999999978
 30
0.0
 42
0.00038319869
  0
VERTEX
  5
977
  8
0
  6
CONTINUOUS
 62
     7
 10
-944.88608000000022
 20
683.75495999999998
 30
0.0
 42
0.00035656354
  0
VERTEX
  5
978
  8
0
  6
CONTINUOUS
 62
     7
 10
-944.88369999999986
 20
683.44372999999985
 30
0.0
 42
0.0004014099
  0
VERTEX
  5
979
  8
0
  6
CONTINUOUS
 62
     7
 10
-944.88085999999987
 20
683.13262999999995
 30
0.0
  0
SEQEND
  5
97A
  8
0
 62
     7
  0
POLYLINE
  5
97B
  8
0
  6
CONTINUOUS
 62
     7
 66
     1
 10
0.0
 20
0.0
 30
0.0
  0
VERTEX
  5
97C
  8
0
  6
CONTINUOUS
 62
     7
 10
-944.83978000000002
 20
680.59589000000017
 30
0.0
 42
0.00074501067
  0
VERTEX
  5
97D
  8
0
  6
CONTINUOUS
 62
     7
 10
-944.82502999999974
 20
679.97811999999988
 30
0.0
 42
0.00078382347
  0
VERTEX
  5
97E
  8
0
  6
CONTINUOUS
 62
     7
 10
-944.80839000000003
 20
679.36051999999995
 30
0.0
 42
0.00074332124
  0
VERTEX
  5
97F
  8
0
  6
CONTINUOUS
 62
     7
 10
-944.78985999999998
 20
678.74285999999995
 30
0.0
 42
0.00075144491
  0
VERTEX
  5
980
  8
0
  6
CONTINUOUS
 62
     7
 10
-944.76949000000002
 20
678.12525000000005
 30
0.0
 42
0.00076035095
  0
VERTEX
  5
981
  8
0
  6
CONTINUOUS
 62
     7
 10
-944.74724999999989
 20
677.50782000000004
 30
0.0
 42
0.00075543153
  0
VERTEX
  5
982
  8
0
  6
CONTINUOUS
 62
     7
 10
-944.72313999999994
 20
676.89044000000001
 30
0.0
 42
0.00075773253
  0
VERTEX
  5
983
  8
0
  6
CONTINUOUS
 62
     7
 10
-944.69716000000005
 20
676.2730499999999
 30
0.0
 42
0.00076034584
  0
VERTEX
  5
984
  8
0
  6
CONTINUOUS
 62
     7
 10
-944.66931
 20
675.65565000000004
 30
0.0
 42
0.00074823141
  0
VERTEX
  5
985
  8
0
  6
CONTINUOUS
 62
     7
 10
-944.63959
 20
675.03827000000001
 30
0.0
 42
0.00074896608
  0
VERTEX
  5
986
  8
0
  6
CONTINUOUS
 62
     7
 10
-944.6080300000001
 20
674.42114000000004
 30
0.0
 42
0.00076039762
  0
VERTEX
  5
987
  8
0
  6
CONTINUOUS
 62
     7
 10
-944.57459999999992
 20
673.80410999999981
 30
0.0
 42
0.00075616125
  0
VERTEX
  5
988
  8
0
  6
CONTINUOUS
 62
     7
 10
-944.53931
 20
673.18706999999995
 30
0.0
  0
SEQEND
  5
989
  8
0
 62
     7
  0
POLYLINE
  5
98A
  8
0
  6
CONTINUOUS
 62
     7
 66
     1
 10
0.0
 20
0.0
 30
0.0
  0
VERTEX
  5
98B
  8
0
  6
CONTINUOUS
 62
     7
 10
-944.36559999999997
 20
670.52570000000003
 30
0.0
 42
0.00073721997
  0
VERTEX
  5
98C
  8
0
  6
CONTINUOUS
 62
     7
 10
-944.32144999999991
 20
669.92329000000007
 30
0.0
 42
0.00074398494
  0
VERTEX
  5
98D
  8
0
  6
CONTINUOUS
 62
     7
 10
-944.2755199999998
 20
669.32101999999998
 30
0.0
 42
0.00073322622
  0
VERTEX
  5
98E
  8
0
  6
CONTINUOUS
 62
     7
 10
-944.22778000000005
 20
668.71869000000004
 30
0.0
 42
0.00073594294
  0
VERTEX
  5
98F
  8
0
  6
CONTINUOUS
 62
     7
 10
-944.17830000000004
 20
668.11670000000004
 30
0.0
 42
0.00072133179
  0
VERTEX
  5
990
  8
0
  6
CONTINUOUS
 62
     7
 10
-944.12704999999994
 20
667.51482999999996
 30
0.0
 42
0.00075453052
  0
VERTEX
  5
991
  8
0
  6
CONTINUOUS
 62
     7
 10
-944.07403999999985
 20
666.91301999999985
 30
0.0
 42
0.0007418407
  0
VERTEX
  5
992
  8
0
  6
CONTINUOUS
 62
     7
 10
-944.01921000000004
 20
666.31149000000005
 30
0.0
 42
0.00074685393
  0
VERTEX
  5
993
  8
0
  6
CONTINUOUS
 62
     7
 10
-943.96262000000013
 20
665.71027000000004
 30
0.0
 42
0.00072742995
  0
VERTEX
  5
994
  8
0
  6
CONTINUOUS
 62
     7
 10
-943.90423999999985
 20
665.10906999999997
 30
0.0
 42
0.00074288894
  0
VERTEX
  5
995
  8
0
  6
CONTINUOUS
 62
     7
 10
-943.84407999999996
 20
664.50805000000003
 30
0.0
 42
0.00072503676
  0
VERTEX
  5
996
  8
0
  6
CONTINUOUS
 62
     7
 10
-943.78218000000004
 20
663.90729999999985
 30
0.0
 42
0.00074640581
  0
VERTEX
  5
997
  8
0
  6
CONTINUOUS
 62
     7
 10
-943.71850999999981
 20
663.30669999999975
 30
0.0
  0
SEQEND
  5
998
  8
0
 62
     7
  0
POLYLINE
  5
999
  8
0
  6
CONTINUOUS
 62
     7
 66
     1
 10
0.0
 20
0.0
 30
0.0
  0
VERTEX
  5
99A
  8
0
  6
CONTINUOUS
 62
     7
 10
-943.38292999999987
 20
660.38323999999989
 30
0.0
 42
0.0006890002
  0
VERTEX
  5
99B
  8
0
  6
CONTINUOUS
 62
     7
 10
-943.31205999999997
 20
659.80848999999989
 30
0.0
 42
0.00067934106
  0
VERTEX
  5
99C
  8
0
  6
CONTINUOUS
 62
     7
 10
-943.23956999999984
 20
659.23379999999975
 30
0.0
 42
0.00071569314
  0
VERTEX
  5
99D
  8
0
  6
CONTINUOUS
 62
     7
 10
-943.16552999999999
 20
658.65948000000003
 30
0.0
 42
0.00071908359
  0
VERTEX
  5
99E
  8
0
  6
CONTINUOUS
 62
     7
 10
-943.08979999999985
 20
658.08534999999995
 30
0.0
 42
0.00066272258
  0
VERTEX
  5
99F
  8
0
  6
CONTINUOUS
 62
     7
 10
-943.01248999999984
 20
657.51134999999999
 30
0.0
 42
0.00072079191
  0
VERTEX
  5
9A0
  8
0
  6
CONTINUOUS
 62
     7
 10
-942.93358999999964
 20
656.93755999999985
 30
0.0
 42
0.00071003152
  0
VERTEX
  5
9A1
  8
0
  6
CONTINUOUS
 62
     7
 10
-942.85305000000005
 20
656.36409000000003
 30
0.0
 42
0.00069954538
  0
VERTEX
  5
9A2
  8
0
  6
CONTINUOUS
 62
     7
 10
-942.77091999999982
 20
655.79099000000019
 30
0.0
 42
0.00071888515
  0
VERTEX
  5
9A3
  8
0
  6
CONTINUOUS
 62
     7
 10
-942.68713000000002
 20
655.21795999999995
 30
0.0
 42
0.00073581337
  0
VERTEX
  5
9A4
  8
0
  6
CONTINUOUS
 62
     7
 10
-942.6016699999999
 20
654.64520000000016
 30
0.0
 42
0.0006891394
  0
VERTEX
  5
9A5
  8
0
  6
CONTINUOUS
 62
     7
 10
-942.51460999999995
 20
654.07285000000002
 30
0.0
 42
0.00072290801
  0
VERTEX
  5
9A6
  8
0
  6
CONTINUOUS
 62
     7
 10
-942.42589999999996
 20
653.50054999999975
 30
0.0
  0
SEQEND
  5
9A7
  8
0
 62
     7
  0
POLYLINE
  5
9A8
  8
0
  6
CONTINUOUS
 62
     7
 66
     1
 10
0.0
 20
0.0
 30
0.0
  0
VERTEX
  5
9A9
  8
0
  6
CONTINUOUS
 62
     7
 10
-944.88385000000005
 20
686.86626999999976
 30
0.0
 42
-0.00039106652
  0
VERTEX
  5
9AA
  8
0
  6
CONTINUOUS
 62
     7
 10
-944.88620999999989
 20
687.17740000000003
 30
0.0
 42
-0.00035488197
  0
VERTEX
  5
9AB
  8
0
  6
CONTINUOUS
 62
     7
 10
-944.88810000000001
 20
687.48851000000002
 30
0.0
 42
-0.00039706112
  0
VERTEX
  5
9AC
  8
0
  6
CONTINUOUS
 62
     7
 10
-944.88953000000004
 20
687.79962
 30
0.0
 42
-0.00038765721
  0
VERTEX
  5
9AD
  8
0
  6
CONTINUOUS
 62
     7
 10
-944.89045999999996
 20
688.11075999999969
 30
0.0
 42
-0.00035526961
  0
VERTEX
  5
9AE
  8
0
  6
CONTINUOUS
 62
     7
 10
-944.89093000000003
 20
688.4218699999999
 30
0.0
 42
-0.0003993348
  0
VERTEX
  5
9AF
  8
0
  6
CONTINUOUS
 62
     7
 10
-944.89093000000003
 20
688.73297000000002
 30
0.0
 42
-0.00038545886
  0
VERTEX
  5
9B0
  8
0
  6
CONTINUOUS
 62
     7
 10
-944.8904399999999
 20
689.04410999999982
 30
0.0
 42
-0.0004058537
  0
VERTEX
  5
9B1
  8
0
  6
CONTINUOUS
 62
     7
 10
-944.88945999999999
 20
689.35521000000006
 30
0.0
 42
-0.00035764179
  0
VERTEX
  5
9B2
  8
0
  6
CONTINUOUS
 62
     7
 10
-944.88800000000003
 20
689.66643999999985
 30
0.0
 42
-0.0003831782
  0
VERTEX
  5
9B3
  8
0
  6
CONTINUOUS
 62
     7
 10
-944.88608000000022
 20
689.97757999999999
 30
0.0
 42
-0.00035656082
  0
VERTEX
  5
9B4
  8
0
  6
CONTINUOUS
 62
     7
 10
-944.88369999999986
 20
690.28881000000001
 30
0.0
 42
-0.00040143614
  0
VERTEX
  5
9B5
  8
0
  6
CONTINUOUS
 62
     7
 10
-944.88085999999987
 20
690.59990999999968
 30
0.0
  0
SEQEND
  5
9B6
  8
0
 62
     7
  0
POLYLINE
  5
9B7
  8
0
  6
CONTINUOUS
 62
     7
 66
     1
 10
0.0
 20
0.0
 30
0.0
  0
VERTEX
  5
9B8
  8
0
  6
CONTINUOUS
 62
     7
 10
-944.83978000000002
 20
693.13666000000001
 30
0.0
 42
-0.00074497821
  0
VERTEX
  5
9B9
  8
0
  6
CONTINUOUS
 62
     7
 10
-944.82502999999974
 20
693.75441999999964
 30
0.0
 42
-0.00078382095
  0
VERTEX
  5
9BA
  8
0
  6
CONTINUOUS
 62
     7
 10
-944.80839000000003
 20
694.37202000000002
 30
0.0
 42
-0.00074335669
  0
VERTEX
  5
9BB
  8
0
  6
CONTINUOUS
 62
     7
 10
-944.78985999999998
 20
694.98968999999965
 30
0.0
 42
-0.000751411
  0
VERTEX
  5
9BC
  8
0
  6
CONTINUOUS
 62
     7
 10
-944.76949000000002
 20
695.60729000000003
 30
0.0
 42
-0.00075841686
  0
VERTEX
  5
9BD
  8
0
  6
CONTINUOUS
 62
     7
 10
-944.74724999999989
 20
696.22470999999985
 30
0.0
 42
-0.00075711786
  0
VERTEX
  5
9BE
  8
0
  6
CONTINUOUS
 62
     7
 10
-944.72313999999994
 20
696.84222
 30
0.0
 42
-0.00075976006
  0
VERTEX
  5
9BF
  8
0
  6
CONTINUOUS
 62
     7
 10
-944.69716000000005
 20
697.45961999999975
 30
0.0
 42
-0.0007579731
  0
VERTEX
  5
9C0
  8
0
  6
CONTINUOUS
 62
     7
 10
-944.66931
 20
698.07689000000005
 30
0.0
 42
-0.00074826129
  0
VERTEX
  5
9C1
  8
0
  6
CONTINUOUS
 62
     7
 10
-944.63959
 20
698.69427000000007
 30
0.0
 42
-0.00074893564
  0
VERTEX
  5
9C2
  8
0
  6
CONTINUOUS
 62
     7
 10
-944.6080300000001
 20
699.31140999999968
 30
0.0
 42
-0.00076039837
  0
VERTEX
  5
9C3
  8
0
  6
CONTINUOUS
 62
     7
 10
-944.57459999999992
 20
699.92844000000002
 30
0.0
 42
-0.00075618785
  0
VERTEX
  5
9C4
  8
0
  6
CONTINUOUS
 62
     7
 10
-944.53931
 20
700.54547000000002
 30
0.0
  0
SEQEND
  5
9C5
  8
0
 62
     7
  0
POLYLINE
  5
9C6
  8
0
  6
CONTINUOUS
 62
     7
 66
     1
 10
0.0
 20
0.0
 30
0.0
  0
VERTEX
  5
9C7
  8
0
  6
CONTINUOUS
 62
     7
 10
-944.36559999999997
 20
703.20685000000003
 30
0.0
 42
-0.00073370515
  0
VERTEX
  5
9C8
  8
0
  6
CONTINUOUS
 62
     7
 10
-944.32146000000012
 20
703.80925999999965
 30
0.0
 42
-0.0007521132
  0
VERTEX
  5
9C9
  8
0
  6
CONTINUOUS
 62
     7
 10
-944.27551000000005
 20
704.41165999999964
 30
0.0
 42
-0.00072974907
  0
VERTEX
  5
9CA
  8
0
  6
CONTINUOUS
 62
     7
 10
-944.22778000000005
 20
705.01385000000005
 30
0.0
 42
-0.00073593047
  0
VERTEX
  5
9CB
  8
0
  6
CONTINUOUS
 62
     7
 10
-944.17830000000004
 20
705.61585000000002
 30
0.0
 42
-0.0007213335
  0
VERTEX
  5
9CC
  8
0
  6
CONTINUOUS
 62
     7
 10
-944.12704999999994
 20
706.21771000000001
 30
0.0
 42
-0.00075453664
  0
VERTEX
  5
9CD
  8
0
  6
CONTINUOUS
 62
     7
 10
-944.07403999999985
 20
706.8195199999999
 30
0.0
 42
-0.00073754173
  0
VERTEX
  5
9CE
  8
0
  6
CONTINUOUS
 62
     7
 10
-944.01921999999979
 20
707.42105000000004
 30
0.0
 42
-0.00075683458
  0
VERTEX
  5
9CF
  8
0
  6
CONTINUOUS
 62
     7
 10
-943.96262000000013
 20
708.0224099999997
 30
0.0
 42
-0.00072314512
  0
VERTEX
  5
9D0
  8
0
  6
CONTINUOUS
 62
     7
 10
-943.90423999999985
 20
708.62347
 30
0.0
 42
-0.00074288421
  0
VERTEX
  5
9D1
  8
0
  6
CONTINUOUS
 62
     7
 10
-943.84407999999996
 20
709.22450000000003
 30
0.0
 42
-0.00072503998
  0
VERTEX
  5
9D2
  8
0
  6
CONTINUOUS
 62
     7
 10
-943.78218000000004
 20
709.82523999999967
 30
0.0
 42
-0.00074640664
  0
VERTEX
  5
9D3
  8
0
  6
CONTINUOUS
 62
     7
 10
-943.71850999999981
 20
710.42583999999988
 30
0.0
  0
SEQEND
  5
9D4
  8
0
 62
     7
  0
POLYLINE
  5
9D5
  8
0
  6
CONTINUOUS
 62
     7
 66
     1
 10
0.0
 20
0.0
 30
0.0
  0
VERTEX
  5
9D6
  8
0
  6
CONTINUOUS
 62
     7
 10
-943.38292999999987
 20
713.34929999999974
 30
0.0
 42
-0.00068898293
  0
VERTEX
  5
9D7
  8
0
  6
CONTINUOUS
 62
     7
 10
-943.31205999999997
 20
713.92406000000005
 30
0.0
 42
-0.00067933813
  0
VERTEX
  5
9D8
  8
0
  6
CONTINUOUS
 62
     7
 10
-943.23956999999984
 20
714.49873999999966
 30
0.0
 42
-0.000715718
  0
VERTEX
  5
9D9
  8
0
  6
CONTINUOUS
 62
     7
 10
-943.16552999999999
 20
715.07306000000005
 30
0.0
 42
-0.00071906223
  0
VERTEX
  5
9DA
  8
0
  6
CONTINUOUS
 62
     7
 10
-943.08979999999985
 20
715.64719000000002
 30
0.0
 42
-0.00066272437
  0
VERTEX
  5
9DB
  8
0
  6
CONTINUOUS
 62
     7
 10
-943.01248999999984
 20
716.22119999999995
 30
0.0
 42
-0.00072080101
  0
VERTEX
  5
9DC
  8
0
  6
CONTINUOUS
 62
     7
 10
-942.93358999999964
 20
716.79498000000001
 30
0.0
 42
-0.00071002313
  0
VERTEX
  5
9DD
  8
0
  6
CONTINUOUS
 62
     7
 10
-942.85305000000005
 20
717.36845999999957
 30
0.0
 42
-0.00069954883
  0
VERTEX
  5
9DE
  8
0
  6
CONTINUOUS
 62
     7
 10
-942.77091999999982
 20
717.94155999999964
 30
0.0
 42
-0.00071887942
  0
VERTEX
  5
9DF
  8
0
  6
CONTINUOUS
 62
     7
 10
-942.68713000000002
 20
718.51459
 30
0.0
 42
-0.00073582106
  0
VERTEX
  5
9E0
  8
0
  6
CONTINUOUS
 62
     7
 10
-942.6016699999999
 20
719.08735000000001
 30
0.0
 42
-0.00068913793
  0
VERTEX
  5
9E1
  8
0
  6
CONTINUOUS
 62
     7
 10
-942.51460999999995
 20
719.65970000000004
 30
0.0
 42
-0.00072288972
  0
VERTEX
  5
9E2
  8
0
  6
CONTINUOUS
 62
     7
 10
-942.42589999999996
 20
720.23198999999988
 30
0.0
  0
SEQEND
  5
9E3
  8
0
 62
     7
  0
POLYLINE
  5
9E4
  8
0
  6
CONTINUOUS
 62
     7
 66
     1
 10
0.0
 20
0.0
 30
0.0
  0
VERTEX
  5
9E5
  8
0
  6
CONTINUOUS
 62
     7
 10
-943.38157999999987
 20
262.03487000000001
 30
0.0
  0
VERTEX
  5
9E6
  8
0
  6
CONTINUOUS
 62
     7
 10
-942.42109999999991
 20
268.91651999999999
 30
0.0
 42
-1.0
  0
SEQEND
  5
9E7
  8
0
 62
     7
  0
POLYLINE
  5
9E8
  8
0
  6
CONTINUOUS
 62
     7
 66
     1
 10
0.0
 20
0.0
 30
0.0
  0
VERTEX
  5
9E9
  8
0
  6
CONTINUOUS
 62
     7
 10
-944.36333000000002
 20
251.89048999999989
 30
0.0
  0
VERTEX
  5
9EA
  8
0
  6
CONTINUOUS
 62
     7
 10
-943.71726999999987
 20
259.11140999999992
 30
0.0
 42
-1.0
  0
SEQEND
  5
9EB
  8
0
 62
     7
  0
POLYLINE
  5
9EC
  8
0
  6
CONTINUOUS
 62
     7
 66
     1
 10
0.0
 20
0.0
 30
0.0
  0
VERTEX
  5
9ED
  8
0
  6
CONTINUOUS
 62
     7
 10
-944.83498999999995
 20
241.81923999999981
 30
0.0
  0
VERTEX
  5
9EE
  8
0
  6
CONTINUOUS
 62
     7
 10
-944.53632000000005
 20
249.22926000000001
 30
0.0
 42
-1.0
  0
SEQEND
  5
9EF
  8
0
 62
     7
  0
POLYLINE
  5
9F0
  8
0
  6
CONTINUOUS
 62
     7
 66
     1
 10
0.0
 20
0.0
 30
0.0
  0
VERTEX
  5
9F1
  8
0
  6
CONTINUOUS
 62
     7
 10
-944.87835999999982
 20
235.5479599999999
 30
0.0
  0
VERTEX
  5
9F2
  8
0
  6
CONTINUOUS
 62
     7
 10
-944.87563999999998
 20
239.28044
 30
0.0
 42
-1.0
  0
SEQEND
  5
9F3
  8
0
 62
     7
  0
POLYLINE
  5
9F4
  8
0
  6
CONTINUOUS
 62
     7
 66
     1
 10
0.0
 20
0.0
 30
0.0
  0
VERTEX
  5
9F5
  8
0
  6
CONTINUOUS
 62
     7
 10
-943.38157999999987
 20
209.06096999999991
 30
0.0
  0
VERTEX
  5
9F6
  8
0
  6
CONTINUOUS
 62
     7
 10
-942.42109999999991
 20
202.17939000000001
 30
0.0
 42
-1.0
  0
SEQEND
  5
9F7
  8
0
 62
     7
  0
POLYLINE
  5
9F8
  8
0
  6
CONTINUOUS
 62
     7
 66
     1
 10
0.0
 20
0.0
 30
0.0
  0
VERTEX
  5
9F9
  8
0
  6
CONTINUOUS
 62
     7
 10
-944.36333000000002
 20
219.20536000000001
 30
0.0
  0
VERTEX
  5
9FA
  8
0
  6
CONTINUOUS
 62
     7
 10
-943.71726999999987
 20
211.98442
 30
0.0
 42
-1.0
  0
SEQEND
  5
9FB
  8
0
 62
     7
  0
POLYLINE
  5
9FC
  8
0
  6
CONTINUOUS
 62
     7
 66
     1
 10
0.0
 20
0.0
 30
0.0
  0
VERTEX
  5
9FD
  8
0
  6
CONTINUOUS
 62
     7
 10
-944.83498999999995
 20
229.27665999999991
 30
0.0
  0
VERTEX
  5
9FE
  8
0
  6
CONTINUOUS
 62
     7
 10
-944.53632000000005
 20
221.86660000000001
 30
0.0
 42
-1.0
  0
SEQEND
  5
9FF
  8
0
 62
     7
  0
POLYLINE
  5
A00
  8
0
  6
CONTINUOUS
 62
     7
 66
     1
 10
0.0
 20
0.0
 30
0.0
  0
VERTEX
  5
A01
  8
0
  6
CONTINUOUS
 62
     7
 10
-944.87835999999982
 20
235.5479599999999
 30
0.0
  0
VERTEX
  5
A02
  8
0
  6
CONTINUOUS
 62
     7
 10
-944.87563999999998
 20
231.81547999999981
 30
0.0
 42
-1.0
  0
SEQEND
  5
A03
  8
0
 62
     7
  0
POLYLINE
  5
A04
  8
0
  6
CONTINUOUS
 62
     7
 66
     1
 10
0.0
 20
0.0
 30
0.0
  0
VERTEX
  5
A05
  8
0
  6
CONTINUOUS
 62
     7
 10
-597.74377000000004
 20
806.05913999999984
 30
0.0
  0
VERTEX
  5
A06
  8
0
  6
CONTINUOUS
 62
     7
 10
-605.40260000000001
 20
786.98844999999983
 30
0.0
 42
-1.0
  0
SEQEND
  5
A07
  8
0
 62
     7
  0
POLYLINE
  5
A08
  8
0
  6
CONTINUOUS
 62
     7
 66
     1
 10
0.0
 20
0.0
 30
0.0
  0
VERTEX
  5
A09
  8
0
  6
CONTINUOUS
 62
     7
 10
-605.40266999999994
 20
586.74429000000021
 30
0.0
 42
0.0052467582
  0
VERTEX
  5
A0A
  8
0
  6
CONTINUOUS
 62
     7
 10
-602.98244999999997
 20
580.33445999999981
 30
0.0
 42
0.0052066449
  0
VERTEX
  5
A0B
  8
0
  6
CONTINUOUS
 62
     7
 10
-600.42876999999987
 20
573.97663
 30
0.0
 42
0.0051740769
  0
VERTEX
  5
A0C
  8
0
  6
CONTINUOUS
 62
     7
 10
-597.74377000000004
 20
567.67340000000002
 30
0.0
  0
SEQEND
  5
A0D
  8
0
 62
     7
  0
POLYLINE
  5
A0E
  8
0
  6
CONTINUOUS
 62
     7
 66
     1
 10
0.0
 20
0.0
 30
0.0
  0
VERTEX
  5
A0F
  8
0
  6
CONTINUOUS
 62
     7
 10
-618.87952999999982
 20
738.43079
 30
0.0
 42
0.030646372
  0
VERTEX
  5
A10
  8
0
  6
CONTINUOUS
 62
     7
 10
-623.28905999999995
 20
704.14738
 30
0.0
 42
0.064801293
  0
VERTEX
  5
A11
  8
0
  6
CONTINUOUS
 62
     7
 10
-618.87952999999982
 20
635.30173000000002
 30
0.0
  0
SEQEND
  5
A12
  8
0
 62
     7
  0
TEXT
  5
BCE
  8
0
  6
CONTINUOUS
 62
     0
 10
-374.63389413916371
 20
661.73800470806668
 30
0.0
 40
15.0
  1
VX02-800MF~VX02-K20MF
  0
ENDSEC
  0
EOF
