  0
SECTION
  2
HEADER
  9
$ACADVER
  1
AC1009
  9
$INSBASE
 10
0.0
 20
0.0
 30
0.0
  9
$EXTMIN
 10
-625.90376784673072
 20
43.475114624881371
 30
-0.0000000000112498
  9
$EXTMAX
 10
-54.999703234823301
 20
437.00559935994238
 30
0.0000000000002956
  9
$LIMMIN
 10
0.0
 20
0.0
  9
$LIMMAX
 10
12.0
 20
9.0
  9
$ORTHOMODE
 70
     0
  9
$REGENMODE
 70
     1
  9
$FILLMODE
 70
     1
  9
$QTEXTMODE
 70
     0
  9
$MIRRTEXT
 70
     1
  9
$DRAGMODE
 70
     2
  9
$LTSCALE
 40
1.0
  9
$OSMODE
 70
   551
  9
$ATTMODE
 70
     1
  9
$TEXTSIZE
 40
0.2
  9
$TRACEWID
 40
0.05
  9
$TEXTSTYLE
  7
STANDARD
  9
$CLAYER
  8
0
  9
$CELTYPE
  6
CONTINUOUS
  9
$CECOLOR
 62
   256
  9
$DIMSCALE
 40
1.0
  9
$DIMASZ
 40
0.1
  9
$DIMEXO
 40
0.05
  9
$DIMDLI
 40
0.5
  9
$DIMRND
 40
0.0
  9
$DIMDLE
 40
0.0
  9
$DIMEXE
 40
0.1
  9
$DIMTP
 40
0.1
  9
$DIMTM
 40
0.1
  9
$DIMTXT
 40
0.12
  9
$DIMCEN
 40
0.0
  9
$DIMTSZ
 40
0.0
  9
$DIMTOL
 70
     0
  9
$DIMLIM
 70
     0
  9
$DIMTIH
 70
     1
  9
$DIMTOH
 70
     1
  9
$DIMSE1
 70
     0
  9
$DIMSE2
 70
     0
  9
$DIMTAD
 70
     0
  9
$DIMZIN
 70
     0
  9
$DIMBLK
  1

  9
$DIMASO
 70
     1
  9
$DIMSHO
 70
     1
  9
$DIMPOST
  1

  9
$DIMAPOST
  1
mm
  9
$DIMALT
 70
     0
  9
$DIMALTD
 70
     2
  9
$DIMALTF
 40
25.399999999999999
  9
$DIMLFAC
 40
1.0
  9
$DIMTOFL
 70
     0
  9
$DIMTVP
 40
0.0
  9
$DIMTIX
 70
     0
  9
$DIMSOXD
 70
     0
  9
$DIMSAH
 70
     0
  9
$DIMBLK1
  1

  9
$DIMBLK2
  1

  9
$DIMSTYLE
  2
AM_ANSI
  9
$DIMCLRD
 70
   256
  9
$DIMCLRE
 70
   256
  9
$DIMCLRT
 70
     2
  9
$DIMTFAC
 40
0.71
  9
$DIMGAP
 40
0.06
  9
$LUNITS
 70
     2
  9
$LUPREC
 70
     4
  9
$SKETCHINC
 40
0.1
  9
$FILLETRAD
 40
0.0
  9
$AUNITS
 70
     0
  9
$AUPREC
 70
     0
  9
$MENU
  1
.
  9
$ELEVATION
 40
0.0
  9
$PELEVATION
 40
0.0
  9
$THICKNESS
 40
0.0
  9
$LIMCHECK
 70
     0
  9
$BLIPMODE
 70
     0
  9
$CHAMFERA
 40
0.0
  9
$CHAMFERB
 40
0.0
  9
$SKPOLY
 70
     0
  9
$TDCREATE
 40
2452300.430994641
  9
$TDUPDATE
 40
2458540.6482255789
  9
$TDINDWG
 40
0.0531418287
  9
$TDUSRTIMER
 40
0.0531414468
  9
$USRTIMER
 70
     1
  9
$ANGBASE
 50
0.0
  9
$ANGDIR
 70
     0
  9
$PDMODE
 70
     0
  9
$PDSIZE
 40
0.0
  9
$PLINEWID
 40
0.0
  9
$COORDS
 70
     1
  9
$SPLFRAME
 70
     0
  9
$SPLINETYPE
 70
     6
  9
$SPLINESEGS
 70
     8
  9
$ATTDIA
 70
     1
  9
$ATTREQ
 70
     1
  9
$HANDLING
 70
     1
  9
$HANDSEED
  5
1077
  9
$SURFTAB1
 70
     6
  9
$SURFTAB2
 70
     6
  9
$SURFTYPE
 70
     6
  9
$SURFU
 70
     6
  9
$SURFV
 70
     6
  9
$UCSNAME
  2

  9
$UCSORG
 10
0.0
 20
0.0
 30
0.0
  9
$UCSXDIR
 10
1.0
 20
0.0
 30
0.0
  9
$UCSYDIR
 10
0.0
 20
1.0
 30
0.0
  9
$PUCSNAME
  2

  9
$PUCSORG
 10
0.0
 20
0.0
 30
0.0
  9
$PUCSXDIR
 10
1.0
 20
0.0
 30
0.0
  9
$PUCSYDIR
 10
0.0
 20
1.0
 30
0.0
  9
$USERI1
 70
     0
  9
$USERI2
 70
     0
  9
$USERI3
 70
     0
  9
$USERI4
 70
     0
  9
$USERI5
 70
     0
  9
$USERR1
 40
0.0
  9
$USERR2
 40
0.0
  9
$USERR3
 40
0.0
  9
$USERR4
 40
0.0
  9
$USERR5
 40
0.0
  9
$WORLDVIEW
 70
     1
  9
$SHADEDGE
 70
     3
  9
$SHADEDIF
 70
    70
  9
$TILEMODE
 70
     1
  9
$MAXACTVP
 70
    64
  9
$PLIMCHECK
 70
     0
  9
$PEXTMIN
 10
1.0000000000000000E+020
 20
1.0000000000000000E+020
 30
1.0000000000000000E+020
  9
$PEXTMAX
 10
-1.0000000000000000E+020
 20
-1.0000000000000000E+020
 30
-1.0000000000000000E+020
  9
$PLIMMIN
 10
0.0
 20
0.0
  9
$PLIMMAX
 10
12.0
 20
9.0
  9
$UNITMODE
 70
     0
  9
$VISRETAIN
 70
     1
  9
$PLINEGEN
 70
     0
  9
$PSLTSCALE
 70
     1
  0
ENDSEC
  0
SECTION
  2
TABLES
  0
TABLE
  2
VPORT
 70
     1
  0
VPORT
  2
*ACTIVE
 70
     0
 10
0.0
 20
0.0
 11
1.0
 21
1.0
 12
-340.45173554077701
 22
240.2403569924119
 13
0.0
 23
0.0
 14
1.0
 24
1.0
 15
0.0
 25
0.0
 16
0.0
 26
0.0
 36
1.0
 17
0.0
 27
0.0
 37
0.0
 40
396.23206701013021
 41
1.7571592210767459
 42
50.0
 43
0.0
 44
0.0
 50
0.0
 51
0.0
 71
     0
 72
   100
 73
     1
 74
     1
 75
     0
 76
     0
 77
     0
 78
     0
  0
ENDTAB
  0
TABLE
  2
LTYPE
 70
    23
  0
LTYPE
  2
CONTINUOUS
 70
     0
  3
Solid line
 72
    65
 73
     0
 40
0.0
  0
LTYPE
  2
DASHED
 70
     0
  3
__ __ __ __ __ __ __ __ __ __ __ __ __ __ __
 72
    65
 73
     2
 40
3.5
 49
2.0
 49
-1.5
  0
LTYPE
  2
CENTER
 70
     0
  3
____ _ ____ _ ____ _ ____ _ ____ _ ____ _ ____
 72
    65
 73
     4
 40
17.5
 49
13.0
 49
-1.5
 49
1.5
 49
-1.5
  0
LTYPE
  2
PHANTOM
 70
     0
  3
_____ _ _ _____ _ _ _____ _ _ _____ _ _ ____  
 72
    65
 73
     6
 40
15.5
 49
8.0
 49
-1.5
 49
1.5
 49
-1.5
 49
1.5
 49
-1.5
  0
LTYPE
  2
DOT
 70
     0
  3
. . . . . . . . . . . . . . . . . . . . . . . .
 72
    65
 73
     2
 40
0.25
 49
0.0
 49
-0.25
  0
LTYPE
  2
AM_ISO02W050
 70
     0
  3
__ __ __ __ __ __ __ __ __ __ __ __ __ __ __
 72
    65
 73
     2
 40
7.5
 49
6.0
 49
-1.5
  0
LTYPE
  2
AM_ISO08W050
 70
     0
  3
____ . ____ . ____ . ____ . ____ . ____ . ____
 72
    65
 73
     4
 40
18.0
 49
12.0
 49
-1.5
 49
3.0
 49
-1.5
  0
LTYPE
  2
AM_ISO09W050
 70
     0
  3
_____ . . _____ . . _____ . . ____ .. ____
 72
    65
 73
     6
 40
22.5
 49
12.0
 49
-1.5
 49
3.0
 49
-1.5
 49
3.0
 49
-1.5
  0
LTYPE
  2
AMCONSTR
 70
     0
  3
_______________________
 72
    65
 73
     2
 40
9999.0
 49
9999.0
 49
0.0
  0
LTYPE
  2
AM_ISO08W050X2
 70
     0
  3
__ . __ . __ . __ . __ . __
 72
    65
 73
     4
 40
9.0
 49
6.0
 49
-0.75
 49
1.5
 49
-0.75
  0
LTYPE
  2
AM_ISO02W050X2
 70
     0
  3
 _ _ _ _ _ _ _ _ _ _ _ _
 72
    65
 73
     2
 40
3.75
 49
3.0
 49
-0.75
  0
LTYPE
  2
AMZIGZAG
 70
     0
  3
/\/-/\/-/\/-/\/-/\/-/\/
 72
    65
 73
     2
 40
11.000099999999991
 49
0.0001
 49
-11.0
  0
LTYPE
  2
HIDDEN
 70
     0
  3
Hidden __ __ __ __ __ __ __ __ __ __ __ __ __ _
 72
    65
 73
     2
 40
0.375
 49
0.25
 49
-0.125
  0
LTYPE
  2
PHANTOM2
 70
     0
  3
Phantom (.5x) ___ _ _ ___ _ _ ___ _ _ ___ _ _
 72
    65
 73
     6
 40
1.25
 49
0.625
 49
-0.125
 49
0.125
 49
-0.125
 49
0.125
 49
-0.125
  0
LTYPE
  2
CENTER2
 70
     0
  3
Center (.5x) ___ _ ___ _ ___ _ ___ _ ___ _ ___
 72
    65
 73
     4
 40
1.125
 49
0.75
 49
-0.125
 49
0.125
 49
-0.125
  0
LTYPE
  2
HIDDEN2
 70
     0
  3
Hidden (.5x) _ _ _ _ _ _ _ _ _ _ _ _ _ _ _ _ _
 72
    65
 73
     2
 40
0.1875
 49
0.125
 49
-0.0625
  0
LTYPE
  2
AMZIGZAG2
 70
     0
  3
/\/-/\/-/\/-/\/-/\/-/\/
 72
    65
 73
     2
 40
0.4401
 49
0.0001
 49
-0.4400000000000003
  0
LTYPE
  2
ACANSTGB
 70
     0
  3
__ . . __ . .
 72
    65
 73
     6
 40
0.35433070866
 49
0.15748031496
 49
-0.03937007874
 49
0.03937007874
 49
-0.03937007874
 49
0.03937007874
 49
-0.03937007874
  0
LTYPE
  2
ACANSTGL
 70
     0
  3
_ _ _ _ _
 72
    65
 73
     2
 40
0.11811023622
 49
0.07874015748
 49
-0.03937007874
  0
LTYPE
  2
ACISOWELD
 70
     0
  3
_ _ _ _ _
 72
    65
 73
     2
 40
2.0
 49
2.0
 49
-1.0
  0
LTYPE
  2
ACISOTGB
 70
     0
  3
__ . . __ . .
 72
    65
 73
     6
 40
9.0
 49
4.0
 49
-1.0
 49
1.0
 49
-1.0
 49
1.0
 49
-1.0
  0
LTYPE
  2
ACISOTGL
 70
     0
  3
_ _ _ _ _
 72
    65
 73
     2
 40
3.0
 49
2.0
 49
-1.0
  0
ENDTAB
  0
TABLE
  2
LAYER
 70
     2
  0
LAYER
  2
0
 70
     0
 62
     7
  6
CONTINUOUS
  0
LAYER
  2
AM_5
 70
     0
 62
     3
  6
CONTINUOUS
  0
ENDTAB
  0
TABLE
  2
STYLE
 70
     6
  0
STYLE
  2
STANDARD
 70
     0
 40
0.0
 41
1.0
 50
0.0
 71
     0
 42
0.2
  3
txt
  4

  0
STYLE
  2
ANNOTATIVE
 70
     0
 40
0.0
 41
1.0
 50
0.0
 71
     0
 42
0.2
  3
txt
  4

  0
STYLE
  2

 70
     1
 40
0.0
 41
1.0
 50
0.0
 71
     0
 42
0.2
  3
ltypeshp.shx
  4

  0
STYLE
  2
ACANSTS
 70
     0
 40
1.0
 41
1.0
 50
0.0
 71
     0
 42
0.2
  3
romans.shx
  4
extfont.shx
  0
STYLE
  2
ACANSGDT
 70
     0
 40
0.0
 41
1.0
 50
0.0
 71
     0
 42
0.2
  3
amgdt.shx
  4

  0
STYLE
  2
ACISOGDT
 70
     0
 40
0.0
 41
1.0
 50
0.0
 71
     0
 42
2.5
  3
amgdt.shx
  4

  0
ENDTAB
  0
TABLE
  2
VIEW
 70
     0
  0
ENDTAB
  0
TABLE
  2
UCS
 70
     0
  0
ENDTAB
  0
TABLE
  2
APPID
 70
    12
  0
APPID
  2
ACAD
 70
     0
  0
APPID
  2
ACADANNOTATIVE
 70
     0
  0
APPID
  2
MCAD_NO_VIS
 70
     0
  0
APPID
  2
ACAD_TEMP_GRAPHIC
 70
     0
  0
APPID
  2
ACATTRIBSERVICES
 70
     0
  0
APPID
  2
DESIGNERASSEMBLIES
 70
     0
  0
APPID
  2
ACAD_DSTYLE_DIMBREAK
 70
     0
  0
APPID
  2
ACAD_DSTYLE_DIMJAG
 70
     0
  0
APPID
  2
ACAD_NAV_VCDISPLAY
 70
     0
  0
APPID
  2
ACAD_PSEXT
 70
     0
  0
APPID
  2
ACAD_EXEMPT_FROM_CAD_STANDARDS
 70
     0
  0
APPID
  2
ACAD_MLEADERVER
 70
     0
  0
ENDTAB
  0
TABLE
  2
DIMSTYLE
 70
    16
  0
DIMSTYLE
  2
STANDARD
 70
     0
  3

  4

  5

  6

  7

 40
1.0
 41
0.18
 42
0.0625
 43
0.38
 44
0.18
 45
0.0
 46
0.0
 47
0.0
 48
0.0
140
0.18
141
0.09
142
0.0
143
25.399999999999999
144
1.0
145
0.0
146
1.0
147
0.09
 71
     0
 72
     0
 73
     1
 74
     1
 75
     0
 76
     0
 77
     0
 78
     0
170
     0
171
     2
172
     0
173
     0
174
     0
175
     0
176
     0
177
     0
178
     0
  0
DIMSTYLE
  2
ANNOTATIVE
 70
     0
  3

  4

  5

  6

  7

 40
1.0
 41
0.18
 42
0.0625
 43
0.38
 44
0.18
 45
0.0
 46
0.0
 47
0.0
 48
0.0
140
0.18
141
0.09
142
0.0
143
25.399999999999999
144
1.0
145
0.0
146
1.0
147
0.09
 71
     0
 72
     0
 73
     1
 74
     1
 75
     0
 76
     0
 77
     0
 78
     0
170
     0
171
     2
172
     0
173
     0
174
     0
175
     0
176
     0
177
     0
178
     0
  0
DIMSTYLE
  2
AM_ANSI
 70
     0
  3

  4
mm
  5

  6

  7

 40
1.0
 41
0.1
 42
0.05
 43
0.5
 44
0.1
 45
0.0
 46
0.0
 47
0.1
 48
0.1
140
0.12
141
0.0
142
0.0
143
25.399999999999999
144
1.0
145
0.0
146
0.71
147
0.06
 71
     0
 72
     0
 73
     1
 74
     1
 75
     0
 76
     0
 77
     0
 78
     7
170
     0
171
     2
172
     0
173
     0
174
     0
175
     0
176
   256
177
   256
178
     2
  0
DIMSTYLE
  2
AM_ANSI$3
 70
     0
  3

  4
mm
  5

  6

  7

 40
1.0
 41
0.1
 42
0.05
 43
0.5
 44
0.1
 45
0.0
 46
0.0
 47
0.1
 48
0.1
140
0.12
141
0.0
142
0.0
143
25.399999999999999
144
1.0
145
0.0
146
0.71
147
0.06
 71
     0
 72
     0
 73
     1
 74
     1
 75
     0
 76
     0
 77
     0
 78
     7
170
     0
171
     2
172
     0
173
     0
174
     0
175
     0
176
   256
177
   256
178
     2
  0
DIMSTYLE
  2
AM_ANSI$4
 70
     0
  3

  4
mm
  5

  6

  7

 40
1.0
 41
0.1
 42
0.05
 43
0.5
 44
0.1
 45
0.0
 46
0.0
 47
0.1
 48
0.1
140
0.12
141
0.0
142
0.0
143
25.399999999999999
144
1.0
145
0.0
146
0.71
147
0.06
 71
     0
 72
     0
 73
     1
 74
     1
 75
     0
 76
     0
 77
     0
 78
     7
170
     0
171
     2
172
     0
173
     0
174
     0
175
     0
176
   256
177
   256
178
     2
  0
DIMSTYLE
  2
AM_ANSI$7
 70
     0
  3

  4
mm
  5

  6

  7

 40
1.0
 41
0.1
 42
0.05
 43
0.5
 44
0.1
 45
0.0
 46
0.0
 47
0.1
 48
0.1
140
0.24
141
0.0
142
0.0
143
25.399999999999999
144
1.0
145
0.0
146
0.71
147
0.06
 71
     0
 72
     0
 73
     1
 74
     1
 75
     0
 76
     0
 77
     0
 78
     7
170
     0
171
     2
172
     0
173
     0
174
     0
175
     0
176
   256
177
   256
178
     2
  0
DIMSTYLE
  2
AM_ANSI$SF
 70
     0
  3

  4
mm
  5

  6

  7

 40
1.0
 41
0.1
 42
0.05
 43
0.5
 44
0.1
 45
0.0
 46
0.0
 47
0.1
 48
0.1
140
0.12
141
0.0
142
0.0
143
25.399999999999999
144
1.0
145
0.0
146
0.71
147
0.06
 71
     0
 72
     0
 73
     1
 74
     1
 75
     1
 76
     1
 77
     0
 78
     7
170
     0
171
     2
172
     0
173
     0
174
     0
175
     0
176
   256
177
   256
178
     2
  0
DIMSTYLE
  2
AM_ANSI$SH
 70
     0
  3

  4
mm
  5

  6

  7

 40
1.0
 41
0.1
 42
0.05
 43
0.5
 44
0.1
 45
0.0
 46
0.0
 47
0.1
 48
0.1
140
0.12
141
0.0
142
0.0
143
25.399999999999999
144
1.0
145
0.0
146
0.71
147
0.06
 71
     0
 72
     0
 73
     1
 74
     1
 75
     1
 76
     1
 77
     0
 78
     7
170
     0
171
     2
172
     0
173
     1
174
     0
175
     0
176
   256
177
   256
178
     2
  0
DIMSTYLE
  2
AM_ISO
 70
     0
  3

  4
"
  5

  6

  7

 40
1.0
 41
2.5
 42
1.0
 43
10.0
 44
1.0
 45
0.0
 46
0.0
 47
0.1
 48
0.1
140
3.5
141
0.0
142
0.0
143
0.0393701
144
1.0
145
0.0
146
0.71
147
1.5
 71
     0
 72
     0
 73
     0
 74
     0
 75
     0
 76
     0
 77
     1
 78
     8
170
     0
171
     2
172
     1
173
     0
174
     0
175
     0
176
   256
177
   256
178
     2
  0
DIMSTYLE
  2
AM_ISO$3
 70
     0
  3

  4
"
  5

  6

  7

 40
1.0
 41
2.5
 42
1.0
 43
10.0
 44
1.0
 45
0.0
 46
0.0
 47
0.1
 48
0.1
140
3.5
141
0.0
142
0.0
143
0.0393701
144
1.0
145
0.0
146
0.71
147
1.5
 71
     0
 72
     0
 73
     0
 74
     1
 75
     0
 76
     0
 77
     1
 78
     8
170
     0
171
     2
172
     0
173
     0
174
     0
175
     0
176
   256
177
   256
178
     2
  0
DIMSTYLE
  2
AM_ISO$4
 70
     0
  3

  4
"
  5

  6

  7

 40
1.0
 41
2.5
 42
1.0
 43
10.0
 44
1.0
 45
0.0
 46
0.0
 47
0.1
 48
0.1
140
3.5
141
0.0
142
0.0
143
0.0393701
144
1.0
145
0.0
146
0.71
147
1.5
 71
     0
 72
     0
 73
     0
 74
     1
 75
     0
 76
     0
 77
     1
 78
     8
170
     0
171
     2
172
     0
173
     0
174
     0
175
     0
176
   256
177
   256
178
     2
  0
DIMSTYLE
  2
AM_ISO$6
 70
     0
  3

  4
"
  5

  6

  7

 40
1.0
 41
2.5
 42
1.0
 43
10.0
 44
1.0
 45
0.0
 46
0.0
 47
0.1
 48
0.1
140
3.5
141
0.0
142
0.0
143
0.0393701
144
1.0
145
0.0
146
0.71
147
1.5
 71
     0
 72
     0
 73
     0
 74
     0
 75
     0
 76
     0
 77
     0
 78
     8
170
     0
171
     2
172
     1
173
     0
174
     0
175
     0
176
   256
177
   256
178
     2
  0
DIMSTYLE
  2
AM_ISO$7
 70
     0
  3

  4
"
  5

  6

  7

 40
1.0
 41
2.5
 42
1.0
 43
10.0
 44
1.0
 45
0.0
 46
0.0
 47
0.1
 48
0.1
140
5.0
141
0.0
142
0.0
143
0.0393701
144
1.0
145
0.0
146
0.71
147
1.5
 71
     0
 72
     0
 73
     0
 74
     0
 75
     0
 76
     0
 77
     1
 78
     8
170
     0
171
     2
172
     1
173
     0
174
     0
175
     0
176
   256
177
   256
178
     2
  0
DIMSTYLE
  2
AM_ISO$SF
 70
     0
  3

  4
"
  5

  6

  7

 40
1.0
 41
2.5
 42
1.0
 43
10.0
 44
1.0
 45
0.0
 46
0.0
 47
0.1
 48
0.1
140
3.5
141
0.0
142
0.0
143
0.0393701
144
1.0
145
0.0
146
0.71
147
1.5
 71
     0
 72
     0
 73
     0
 74
     0
 75
     1
 76
     1
 77
     1
 78
     8
170
     0
171
     2
172
     1
173
     0
174
     0
175
     0
176
   256
177
   256
178
     2
  0
DIMSTYLE
  2
AM_ISO$SH
 70
     0
  3

  4
"
  5

  6
GENAXEH
  7

 40
1.0
 41
2.5
 42
1.0
 43
10.0
 44
1.0
 45
0.0
 46
0.0
 47
0.1
 48
0.1
140
3.5
141
0.0
142
0.0
143
0.0393701
144
2.0
145
0.0
146
0.71
147
1.5
 71
     0
 72
     0
 73
     0
 74
     0
 75
     1
 76
     1
 77
     1
 78
     8
170
     0
171
     2
172
     1
173
     1
174
     0
175
     0
176
   256
177
   256
178
     2
  0
DIMSTYLE
  2
AM_JIS
 70
     0
  3

  4
"
  5

  6

  7

 40
1.0
 41
2.0
 42
1.0
 43
8.0
 44
1.0
 45
0.0
 46
0.0
 47
0.1
 48
0.1
140
2.5
141
0.0
142
0.0
143
0.0393701
144
1.0
145
0.0
146
0.71
147
1.5
 71
     0
 72
     0
 73
     0
 74
     0
 75
     0
 76
     0
 77
     3
 78
     8
170
     0
171
     2
172
     1
173
     0
174
     0
175
     0
176
     2
177
     2
178
     4
  0
ENDTAB
  0
ENDSEC
  0
SECTION
  2
BLOCKS
  0
BLOCK
  8
0
  2
$MODEL_SPACE
 70
     0
 10
0.0
 20
0.0
 30
0.0
  3
$MODEL_SPACE
  1

  0
ENDBLK
  5
F05
  8
0
  0
BLOCK
 67
     1
  8
0
  2
$PAPER_SPACE
 70
     0
 10
0.0
 20
0.0
 30
0.0
  3
$PAPER_SPACE
  1

  0
ENDBLK
  5
F01
 67
     1
  8
0
  0
BLOCK
  8
0
  2
GENAXEH
 70
     0
 10
0.0
 20
0.0
 30
0.0
  3
GENAXEH
  1

  0
LINE
  5
9D2
  8
0
 10
-1.0
 20
0.0
 30
0.0
 11
1.0
 21
0.0
 31
0.0
  0
ENDBLK
  5
9D3
  8
0
  0
BLOCK
  8
0
  2
_ACMFILLEDHALF
 70
     0
 10
0.0
 20
0.0
 30
0.0
  3
_ACMFILLEDHALF
  1

  0
TRACE
  5
F7F
  8
0
  6
CONTINUOUS
 62
     0
 10
-0.8
 20
0.0
 30
0.0
 11
-1.0
 21
0.166666666
 31
0.0
 12
0.0
 22
0.0
 32
0.0
 13
0.0
 23
0.0
 33
0.0
  0
LINE
  5
F80
  8
0
  6
CONTINUOUS
 62
     0
 10
-1.0
 20
0.0
 30
0.0
 11
-0.8
 21
0.0
 31
0.0
  0
ENDBLK
  5
F7E
  8
0
  0
BLOCK
  8
0
  2
*U7
 70
     1
 10
0.0
 20
0.0
 30
0.0
  3
*U7
  1

  0
TEXT
  5
1073
  8
0
  6
CONTINUOUS
 62
     0
 10
5.0768189741019834
 20
5.9826223594979657
 30
0.0
 40
15.0
  1
ＶＸ０８－００３ＥＭ～ＶＸ０８
  0
TEXT
  5
1074
  8
0
  6
CONTINUOUS
 62
     0
 10
2.17909170137471
 20
-19.18783218595658
 30
0.0
 40
15.0
  1
－０３０ＥＭ
  0
ENDBLK
  5
1076
  8
0
  0
ENDSEC
  0
SECTION
  2
ENTITIES
  0
LINE
  5
9D4
  8
0
  6
CENTER
 62
     7
 10
-624.99755999999979
 20
361.99090999999999
 30
0.0
 11
-327.46332000000001
 21
361.99090999999999
 31
0.0
  0
LINE
  5
9D5
  8
0
  6
CONTINUOUS
 62
     7
 10
-422.82709
 20
301.99090999999999
 30
0.0
 11
-422.82709
 21
421.99090999999987
 31
0.0
  0
LINE
  5
9D6
  8
0
  6
CONTINUOUS
 62
     7
 10
-455.32709
 20
301.13986
 30
0.0
 11
-422.82709
 21
301.99090999999999
 31
0.0
  0
LINE
  5
9D7
  8
0
  6
CONTINUOUS
 62
     7
 10
-455.32709
 20
422.84192000000002
 30
0.0
 11
-422.82709
 21
421.99087999999989
 31
0.0
  0
LINE
  5
9D8
  8
0
  6
CONTINUOUS
 62
     7
 10
-455.32709
 20
417.51724000000002
 30
0.0
 11
-422.82709
 21
417.51724000000002
 31
0.0
  0
LINE
  5
9D9
  8
0
  6
CONTINUOUS
 62
     7
 10
-455.32709
 20
306.46453999999972
 30
0.0
 11
-422.82709
 21
306.46453999999972
 31
0.0
  0
LINE
  5
9DA
  8
0
  6
CENTER
 62
     1
 10
-145.2809399999999
 20
43.486305000000002
 30
0.0
 11
-145.2809399999999
 21
208.25545
 31
0.0
  0
LINE
  5
9DB
  8
0
  6
CENTER
 62
     1
 10
-66.039649999999995
 20
130.34795999999969
 30
0.0
 11
-227.22686999999999
 21
130.34795999999969
 31
0.0
  0
LINE
  5
9DC
  8
0
  6
CONTINUOUS
 62
     7
 10
-455.32709
 20
299.09598
 30
0.0
 11
-455.32709
 21
310.49059999999992
 31
0.0
  0
LINE
  5
9DD
  8
0
  6
CONTINUOUS
 62
     7
 10
-460.32709
 20
297.99090999999999
 30
0.0
 11
-460.32709
 21
425.99090999999987
 31
0.0
  0
LINE
  5
9DE
  8
0
  6
CONTINUOUS
 62
     7
 10
-456.30092999999999
 20
425.88546999999988
 30
0.0
 11
-460.32709
 21
425.99087999999989
 31
0.0
  0
LINE
  5
9DF
  8
0
  6
CONTINUOUS
 62
     7
 10
-456.30092999999999
 20
298.09631000000002
 30
0.0
 11
-460.32709
 21
297.99088
 31
0.0
  0
LINE
  5
9E0
  8
0
  6
CONTINUOUS
 62
     7
 10
-460.32709
 20
310.49059999999992
 30
0.0
 11
-448.20197000000002
 21
310.49059999999992
 31
0.0
  0
LINE
  5
9E1
  8
0
  6
CONTINUOUS
 62
     7
 10
-460.32709
 20
323.93603999999982
 30
0.0
 11
-455.32709
 21
323.93603999999982
 31
0.0
  0
LINE
  5
9E2
  8
0
  6
CONTINUOUS
 62
     7
 10
-447.32709000000011
 20
312.70257999999973
 30
0.0
 11
-447.32709000000011
 21
322.61581000000001
 31
0.0
  0
LINE
  5
9E3
  8
0
  6
CONTINUOUS
 62
     7
 10
-437.32709
 20
313.67110999999983
 30
0.0
 11
-437.32709
 21
323.6413
 31
0.0
  0
LINE
  5
9E4
  8
0
  6
CONTINUOUS
 62
     7
 10
-455.32709
 20
323.93603999999982
 30
0.0
 11
-455.32709
 21
400.04577999999992
 31
0.0
  0
LINE
  5
9E5
  8
0
  6
CONTINUOUS
 62
     7
 10
-455.32709
 20
413.49090999999987
 30
0.0
 11
-455.32709
 21
424.88580000000002
 31
0.0
  0
LINE
  5
9E6
  8
0
  6
CONTINUOUS
 62
     7
 10
-437.32711999999992
 20
312.25385
 30
0.0
 11
-446.46547999999979
 21
310.64251999999982
 31
0.0
  0
LINE
  5
9E7
  8
0
  6
CONTINUOUS
 62
     7
 10
-455.32709
 20
324.81090999999992
 30
0.0
 11
-437.32709
 21
324.81090999999992
 31
0.0
  0
LINE
  5
9E8
  8
0
  6
CONTINUOUS
 62
     7
 10
-447.32709000000011
 20
411.27920999999998
 30
0.0
 11
-447.32709000000011
 21
401.36596999999989
 31
0.0
  0
LINE
  5
9E9
  8
0
  6
CONTINUOUS
 62
     7
 10
-437.32711999999992
 20
411.72793999999999
 30
0.0
 11
-446.46552000000003
 21
413.33926000000002
 31
0.0
  0
LINE
  5
9EA
  8
0
  6
CONTINUOUS
 62
     7
 10
-460.32709
 20
400.04577999999992
 30
0.0
 11
-455.32709
 21
400.04577999999992
 31
0.0
  0
LINE
  5
9EB
  8
0
  6
CONTINUOUS
 62
     7
 10
-455.32709
 20
399.17086999999992
 30
0.0
 11
-437.32709
 21
399.17086999999992
 31
0.0
  0
LINE
  5
9EC
  8
0
  6
CONTINUOUS
 62
     7
 10
-460.32709
 20
413.49117999999999
 30
0.0
 11
-448.20197000000002
 21
413.49117999999999
 31
0.0
  0
LINE
  5
9ED
  8
0
  6
CONTINUOUS
 62
     7
 10
-437.32709
 20
410.31067000000002
 30
0.0
 11
-437.32709
 21
400.34044999999998
 31
0.0
  0
LINE
  5
9EE
  8
0
  6
CONTINUOUS
 62
     7
 10
-489.32709
 20
289.99090999999981
 30
0.0
 11
-549.32708999999966
 21
289.99090999999981
 31
0.0
  0
LINE
  5
9EF
  8
0
  6
CONTINUOUS
 62
     3
 10
-568.59997999999985
 20
288.99090999999999
 30
0.0
 11
-568.59997999999985
 21
285.49090999999999
 31
0.0
  0
LINE
  5
9F0
  8
0
  6
CONTINUOUS
 62
     3
 10
-570.59997999999985
 20
285.49090999999999
 30
0.0
 11
-488.6001
 21
285.49090999999999
 31
0.0
  0
LINE
  5
9F1
  8
0
  6
CONTINUOUS
 62
     3
 10
-548.1001
 20
281.99090999999981
 30
0.0
 11
-488.6001
 21
281.99090999999981
 31
0.0
  0
LINE
  5
9F2
  8
0
  6
CONTINUOUS
 62
     3
 10
-559.59997999999985
 20
285.49090999999999
 30
0.0
 11
-559.59997999999985
 21
277.99090999999981
 31
0.0
  0
LINE
  5
9F3
  8
0
  6
CONTINUOUS
 62
     3
 10
-551.6001
 20
285.49090999999999
 30
0.0
 11
-551.6001
 21
277.99090999999981
 31
0.0
  0
LINE
  5
9F4
  8
0
  6
CONTINUOUS
 62
     3
 10
-567.09997999999985
 20
270.49187999999992
 30
0.0
 11
-570.59997999999985
 21
270.49187999999992
 31
0.0
  0
LINE
  5
9F5
  8
0
  6
CONTINUOUS
 62
     3
 10
-570.59997999999985
 20
285.49090999999999
 30
0.0
 11
-570.59997999999985
 21
270.49187999999992
 31
0.0
  0
LINE
  5
9F6
  8
0
  6
CONTINUOUS
 62
     3
 10
-537.90015000000005
 20
262.49088
 30
0.0
 11
-543.1001
 21
265.49083999999999
 31
0.0
  0
LINE
  5
9F7
  8
0
  6
CONTINUOUS
 62
     3
 10
-497.10012999999998
 20
265.49088
 30
0.0
 11
-502.30011000000002
 21
262.49088
 31
0.0
  0
LINE
  5
9F8
  8
0
  6
CONTINUOUS
 62
     3
 10
-567.09997999999985
 20
281.99090999999981
 30
0.0
 11
-563.09997999999985
 21
281.99090999999981
 31
0.0
  0
LINE
  5
9F9
  8
0
  6
CONTINUOUS
 62
     3
 10
-567.09997999999985
 20
265.49090999999981
 30
0.0
 11
-490.10009999999988
 21
265.49090999999981
 31
0.0
  0
LINE
  5
9FA
  8
0
  6
CONTINUOUS
 62
     3
 10
-537.90009000000009
 20
262.49090999999981
 30
0.0
 11
-502.30011000000002
 21
262.49090999999981
 31
0.0
  0
LINE
  5
9FB
  8
0
  6
CONTINUOUS
 62
     3
 10
-567.09997999999985
 20
285.49090999999999
 30
0.0
 11
-567.09997999999985
 21
265.49090999999981
 31
0.0
  0
LINE
  5
9FC
  8
0
  6
CONTINUOUS
 62
     3
 10
-563.09997999999985
 20
285.49090999999999
 30
0.0
 11
-563.09997999999985
 21
277.99090999999981
 31
0.0
  0
LINE
  5
9FD
  8
0
  6
CONTINUOUS
 62
     3
 10
-548.1001
 20
277.99090999999981
 30
0.0
 11
-548.1001
 21
285.49090999999999
 31
0.0
  0
LINE
  5
9FE
  8
0
  6
CONTINUOUS
 62
     3
 10
-490.10009999999988
 20
265.49090999999981
 30
0.0
 11
-490.10009999999988
 21
281.99090999999981
 31
0.0
  0
LINE
  5
9FF
  8
0
  6
CONTINUOUS
 62
     3
 10
-488.6001
 20
288.99090999999999
 30
0.0
 11
-488.6001
 21
281.99090999999981
 31
0.0
  0
LINE
  5
A00
  8
0
  6
CONTINUOUS
 62
     3
 10
-568.59997999999985
 20
288.99090999999999
 30
0.0
 11
-488.6001
 21
288.99090999999999
 31
0.0
  0
LINE
  5
A01
  8
0
  6
CONTINUOUS
 62
     7
 10
-489.82709
 20
289.99090999999981
 30
0.0
 11
-489.82709
 21
288.99090999999999
 31
0.0
  0
LINE
  5
A02
  8
0
  6
CONTINUOUS
 62
     7
 10
-548.82708999999977
 20
289.99090999999981
 30
0.0
 11
-548.82708999999977
 21
288.99090999999999
 31
0.0
  0
LINE
  5
A03
  8
0
  6
CONTINUOUS
 62
     7
 10
-618.32709
 20
312.49090999999981
 30
0.0
 11
-618.32709
 21
313.02094
 31
0.0
  0
LINE
  5
A04
  8
0
  6
CONTINUOUS
 62
     7
 10
-618.32709
 20
314.59087999999991
 30
0.0
 11
-618.32709
 21
315.14092999999991
 31
0.0
  0
LINE
  5
A05
  8
0
  6
CONTINUOUS
 62
     7
 10
-618.32709
 20
319.16095000000001
 30
0.0
 11
-618.32709
 21
319.63091999999989
 31
0.0
  0
LINE
  5
A06
  8
0
  6
CONTINUOUS
 62
     7
 10
-618.54712000000018
 20
315.61090000000002
 30
0.0
 11
-619.79711999999995
 21
316.27087
 31
0.0
  0
LINE
  5
A07
  8
0
  6
CONTINUOUS
 62
     7
 10
-618.53710999999998
 20
313.50092000000001
 30
0.0
 11
-619.77715999999998
 21
314.13092
 31
0.0
  0
LINE
  5
A08
  8
0
  6
CONTINUOUS
 62
     7
 10
-618.55713000000003
 20
320.14089999999982
 30
0.0
 11
-619.83709999999985
 21
320.89087000000001
 31
0.0
  0
LINE
  5
A09
  8
0
  6
CONTINUOUS
 62
     7
 10
-618.08709999999985
 20
313.39092999999991
 30
0.0
 11
-615.82708999999966
 21
313.39092999999991
 31
0.0
  0
LINE
  5
A0A
  8
0
  6
CONTINUOUS
 62
     7
 10
-618.07708999999966
 20
315.49090999999981
 30
0.0
 11
-616.32709
 21
315.49090999999981
 31
0.0
  0
LINE
  5
A0B
  8
0
  6
CONTINUOUS
 62
     7
 10
-618.05706999999995
 20
320.01092999999992
 30
0.0
 11
-616.32709
 21
320.01092999999992
 31
0.0
  0
LINE
  5
A0C
  8
0
  6
CONTINUOUS
 62
     7
 10
-618.02710000000002
 20
318.87090999999998
 30
0.0
 11
-615.32708999999977
 21
318.87090999999998
 31
0.0
  0
LINE
  5
A0D
  8
0
  6
CONTINUOUS
 62
     7
 10
-618.04705999999965
 20
314.35088999999999
 30
0.0
 11
-615.32708999999977
 21
314.35088999999999
 31
0.0
  0
LINE
  5
A0E
  8
0
  6
CONTINUOUS
 62
     7
 10
-618.57709
 20
319.03087999999991
 30
0.0
 11
-619.87707999999998
 21
319.88085999999998
 31
0.0
  0
LINE
  5
A0F
  8
0
  6
CONTINUOUS
 62
     7
 10
-618.56708000000003
 20
314.49083999999982
 30
0.0
 11
-619.84704999999985
 21
315.26085999999992
 31
0.0
  0
LINE
  5
A10
  8
0
  6
CONTINUOUS
 62
     7
 10
-618.55706999999995
 20
312.38088999999991
 30
0.0
 11
-619.82703000000004
 21
313.11086999999992
 31
0.0
  0
LINE
  5
A11
  8
0
  6
CONTINUOUS
 62
     7
 10
-618.05706999999995
 20
312.24090999999999
 30
0.0
 11
-615.82708999999966
 21
312.24090999999999
 31
0.0
  0
LINE
  5
A12
  8
0
  6
CONTINUOUS
 62
     7
 10
-620.32708999999966
 20
313.97089
 30
0.0
 11
-620.32708999999966
 21
356.99090999999987
 31
0.0
  0
LINE
  5
A13
  8
0
  6
CONTINUOUS
 62
     7
 10
-619.83709999999985
 20
320.89089999999982
 30
0.0
 11
-619.8571199999999
 21
320.90087999999992
 31
0.0
  0
LINE
  5
A14
  8
0
  6
CONTINUOUS
 62
     7
 10
-621.82709
 20
344.71087999999992
 30
0.0
 11
-620.32708999999966
 21
344.71087999999992
 31
0.0
  0
LINE
  5
A15
  8
0
  6
CONTINUOUS
 62
     7
 10
-621.82709
 20
346.84087999999991
 30
0.0
 11
-620.32708999999966
 21
346.84087999999991
 31
0.0
  0
LINE
  5
A16
  8
0
  6
CONTINUOUS
 62
     7
 10
-621.82709
 20
341.99090999999981
 30
0.0
 11
-620.32708999999966
 21
341.86090000000002
 31
0.0
  0
LINE
  5
A17
  8
0
  6
CONTINUOUS
 62
     7
 10
-621.82709
 20
341.99090999999981
 30
0.0
 11
-621.82709
 21
361.99090999999999
 31
0.0
  0
LINE
  5
A18
  8
0
  6
CONTINUOUS
 62
     7
 10
-618.32709
 20
326.60088999999999
 30
0.0
 11
-618.32709
 21
327.66095000000001
 31
0.0
  0
LINE
  5
A19
  8
0
  6
CONTINUOUS
 62
     7
 10
-618.32709
 20
336.36090000000002
 30
0.0
 11
-618.32709
 21
337.73090000000002
 31
0.0
  0
LINE
  5
A1A
  8
0
  6
CONTINUOUS
 62
     7
 10
-618.32709
 20
356.38092
 30
0.0
 11
-618.32709
 21
357.54095000000001
 31
0.0
  0
LINE
  5
A1B
  8
0
  6
CONTINUOUS
 62
     7
 10
-618.32709
 20
346.38092
 30
0.0
 11
-618.32709
 21
347.60088999999999
 31
0.0
  0
LINE
  5
A1C
  8
0
  6
CONTINUOUS
 62
     7
 10
-616.32709
 20
357.99090999999999
 30
0.0
 11
-619.32708999999988
 21
357.99090999999999
 31
0.0
  0
LINE
  5
A1D
  8
0
  6
CONTINUOUS
 62
     7
 10
-616.32709
 20
355.99090999999999
 30
0.0
 11
-619.32708999999988
 21
355.99090999999999
 31
0.0
  0
LINE
  5
A1E
  8
0
  6
CONTINUOUS
 62
     7
 10
-616.32709
 20
347.99090999999987
 30
0.0
 11
-619.32708999999988
 21
347.99090999999987
 31
0.0
  0
LINE
  5
A1F
  8
0
  6
CONTINUOUS
 62
     7
 10
-616.32709
 20
345.99090999999987
 30
0.0
 11
-619.32708999999988
 21
345.99090999999987
 31
0.0
  0
LINE
  5
A20
  8
0
  6
CONTINUOUS
 62
     7
 10
-616.32709
 20
337.99090999999987
 30
0.0
 11
-619.32708999999988
 21
337.99090999999987
 31
0.0
  0
LINE
  5
A21
  8
0
  6
CONTINUOUS
 62
     7
 10
-616.32709
 20
335.99090999999981
 30
0.0
 11
-619.32708999999988
 21
335.99090999999981
 31
0.0
  0
LINE
  5
A22
  8
0
  6
CONTINUOUS
 62
     7
 10
-618.46709999999985
 20
328.29092000000009
 30
0.0
 11
-619.61712999999975
 21
328.65093999999988
 31
0.0
  0
LINE
  5
A23
  8
0
  6
CONTINUOUS
 62
     7
 10
-618.17705999999998
 20
328.25092000000001
 30
0.0
 11
-616.32709
 21
328.25092000000001
 31
0.0
  0
LINE
  5
A24
  8
0
  6
CONTINUOUS
 62
     7
 10
-618.51715000000002
 20
326.38088999999991
 30
0.0
 11
-619.71709999999985
 21
326.90087999999992
 31
0.0
  0
LINE
  5
A25
  8
0
  6
CONTINUOUS
 62
     7
 10
-618.12707999999998
 20
326.30095999999992
 30
0.0
 11
-616.02710000000002
 21
326.30095999999992
 31
0.0
  0
LINE
  5
A26
  8
0
  6
CONTINUOUS
 62
     7
 10
-621.82709
 20
379.27094
 30
0.0
 11
-620.32708999999966
 21
379.27094
 31
0.0
  0
LINE
  5
A27
  8
0
  6
CONTINUOUS
 62
     7
 10
-621.82709
 20
377.14092999999991
 30
0.0
 11
-620.32708999999966
 21
377.14092999999991
 31
0.0
  0
LINE
  5
A28
  8
0
  6
CONTINUOUS
 62
     7
 10
-621.82709
 20
381.99093999999991
 30
0.0
 11
-620.32708999999966
 21
382.12094000000002
 31
0.0
  0
LINE
  5
A29
  8
0
  6
CONTINUOUS
 62
     7
 10
-621.82709
 20
381.99090999999987
 30
0.0
 11
-621.82709
 21
361.99090999999999
 31
0.0
  0
LINE
  5
A2A
  8
0
  6
CONTINUOUS
 62
     7
 10
-618.32709
 20
411.49090999999999
 30
0.0
 11
-618.32709
 21
410.96087999999997
 31
0.0
  0
LINE
  5
A2B
  8
0
  6
CONTINUOUS
 62
     7
 10
-618.32709
 20
409.39092999999991
 30
0.0
 11
-618.32709
 21
408.8408799999998
 31
0.0
  0
LINE
  5
A2C
  8
0
  6
CONTINUOUS
 62
     7
 10
-618.32709
 20
404.82085999999993
 30
0.0
 11
-618.32709
 21
404.35088999999988
 31
0.0
  0
LINE
  5
A2D
  8
0
  6
CONTINUOUS
 62
     7
 10
-618.32709
 20
397.38092
 30
0.0
 11
-618.32709
 21
396.32085999999993
 31
0.0
  0
LINE
  5
A2E
  8
0
  6
CONTINUOUS
 62
     7
 10
-618.32709
 20
387.62090999999998
 30
0.0
 11
-618.32709
 21
386.25092000000001
 31
0.0
  0
LINE
  5
A2F
  8
0
  6
CONTINUOUS
 62
     7
 10
-618.32709
 20
367.60088999999988
 30
0.0
 11
-618.32709
 21
366.44085999999987
 31
0.0
  0
LINE
  5
A30
  8
0
  6
CONTINUOUS
 62
     7
 10
-618.32709
 20
377.60088999999988
 30
0.0
 11
-618.32709
 21
376.39092999999991
 31
0.0
  0
LINE
  5
A31
  8
0
  6
CONTINUOUS
 62
     7
 10
-616.32709
 20
365.99090999999999
 30
0.0
 11
-619.32708999999988
 21
365.99090999999999
 31
0.0
  0
LINE
  5
A32
  8
0
  6
CONTINUOUS
 62
     7
 10
-616.32709
 20
367.99090999999987
 30
0.0
 11
-619.32708999999988
 21
367.99090999999987
 31
0.0
  0
LINE
  5
A33
  8
0
  6
CONTINUOUS
 62
     7
 10
-616.32709
 20
375.99090999999987
 30
0.0
 11
-619.32708999999988
 21
375.99090999999987
 31
0.0
  0
LINE
  5
A34
  8
0
  6
CONTINUOUS
 62
     7
 10
-616.32709
 20
377.99090999999987
 30
0.0
 11
-619.32708999999988
 21
377.99090999999987
 31
0.0
  0
LINE
  5
A35
  8
0
  6
CONTINUOUS
 62
     7
 10
-616.32709
 20
385.99090999999987
 30
0.0
 11
-619.32708999999988
 21
385.99090999999987
 31
0.0
  0
LINE
  5
A36
  8
0
  6
CONTINUOUS
 62
     7
 10
-616.32709
 20
387.99090999999987
 30
0.0
 11
-619.32708999999988
 21
387.99090999999987
 31
0.0
  0
LINE
  5
A37
  8
0
  6
CONTINUOUS
 62
     7
 10
-618.54712000000018
 20
408.38092
 30
0.0
 11
-619.79705999999965
 21
407.71093999999999
 31
0.0
  0
LINE
  5
A38
  8
0
  6
CONTINUOUS
 62
     7
 10
-618.53710999999998
 20
410.49090999999987
 30
0.0
 11
-619.77710000000002
 21
409.86090000000002
 31
0.0
  0
LINE
  5
A39
  8
0
  6
CONTINUOUS
 62
     7
 10
-618.46715999999958
 20
395.69094999999999
 30
0.0
 11
-619.61712999999975
 21
395.34093999999988
 31
0.0
  0
LINE
  5
A3A
  8
0
  6
CONTINUOUS
 62
     7
 10
-618.55713000000003
 20
403.84084999999999
 30
0.0
 11
-619.83709999999985
 21
403.09084999999988
 31
0.0
  0
LINE
  5
A3B
  8
0
  6
CONTINUOUS
 62
     7
 10
-618.08709999999985
 20
410.59087999999991
 30
0.0
 11
-615.82708999999966
 21
410.59087999999991
 31
0.0
  0
LINE
  5
A3C
  8
0
  6
CONTINUOUS
 62
     7
 10
-618.07708999999966
 20
408.49090999999987
 30
0.0
 11
-616.32709
 21
408.49090999999987
 31
0.0
  0
LINE
  5
A3D
  8
0
  6
CONTINUOUS
 62
     7
 10
-618.05706999999995
 20
403.98089999999991
 30
0.0
 11
-616.32709
 21
403.98089999999991
 31
0.0
  0
LINE
  5
A3E
  8
0
  6
CONTINUOUS
 62
     7
 10
-618.17705999999998
 20
395.73090000000002
 30
0.0
 11
-616.32709
 21
395.73090000000002
 31
0.0
  0
LINE
  5
A3F
  8
0
  6
CONTINUOUS
 62
     7
 10
-618.02710000000002
 20
405.12090999999992
 30
0.0
 11
-615.32708999999977
 21
405.12090999999992
 31
0.0
  0
LINE
  5
A40
  8
0
  6
CONTINUOUS
 62
     7
 10
-618.04705999999965
 20
409.63092
 30
0.0
 11
-615.32708999999977
 21
409.63092
 31
0.0
  0
LINE
  5
A41
  8
0
  6
CONTINUOUS
 62
     7
 10
-618.51702999999998
 20
397.60091999999997
 30
0.0
 11
-619.71704
 21
397.09091000000001
 31
0.0
  0
LINE
  5
A42
  8
0
  6
CONTINUOUS
 62
     7
 10
-618.57709
 20
404.95089999999988
 30
0.0
 11
-619.87707999999998
 21
404.10088999999988
 31
0.0
  0
LINE
  5
A43
  8
0
  6
CONTINUOUS
 62
     7
 10
-618.56708000000003
 20
409.49083999999988
 30
0.0
 11
-619.84704999999985
 21
408.72089
 31
0.0
  0
LINE
  5
A44
  8
0
  6
CONTINUOUS
 62
     7
 10
-618.55713000000003
 20
411.61089999999979
 30
0.0
 11
-619.82708999999977
 21
410.87090999999992
 31
0.0
  0
LINE
  5
A45
  8
0
  6
CONTINUOUS
 62
     7
 10
-618.12707999999998
 20
397.68085000000002
 30
0.0
 11
-616.02710000000002
 21
397.68085000000002
 31
0.0
  0
LINE
  5
A46
  8
0
  6
CONTINUOUS
 62
     7
 10
-618.05706999999995
 20
411.74090999999987
 30
0.0
 11
-615.82708999999966
 21
411.74090999999987
 31
0.0
  0
LINE
  5
A47
  8
0
  6
CONTINUOUS
 62
     7
 10
-620.32708999999966
 20
410.0109299999998
 30
0.0
 11
-620.32708999999966
 21
366.99090999999987
 31
0.0
  0
LINE
  5
A48
  8
0
  6
CONTINUOUS
 62
     7
 10
-468.32709000000011
 20
399.14092999999991
 30
0.0
 11
-460.32709
 21
399.14092999999991
 31
0.0
  0
LINE
  5
A49
  8
0
  6
CONTINUOUS
 62
     7
 10
-467.32709
 20
309.95087000000001
 30
0.0
 11
-460.32709
 21
309.95087000000001
 31
0.0
  0
LINE
  5
A4A
  8
0
  6
CONTINUOUS
 62
     7
 10
-468.32709000000011
 20
324.84087999999991
 30
0.0
 11
-460.32709
 21
324.84087999999991
 31
0.0
  0
LINE
  5
A4B
  8
0
  6
CONTINUOUS
 62
     7
 10
-467.32709
 20
298.49090999999987
 30
0.0
 11
-460.32709
 21
298.49090999999987
 31
0.0
  0
LINE
  5
A4C
  8
0
  6
CONTINUOUS
 62
     7
 10
-467.32709
 20
414.03093999999987
 30
0.0
 11
-460.32709
 21
414.03093999999987
 31
0.0
  0
LINE
  5
A4D
  8
0
  6
CONTINUOUS
 62
     7
 10
-467.32709
 20
425.49090999999987
 30
0.0
 11
-460.32709
 21
425.49090999999987
 31
0.0
  0
LINE
  5
A4E
  8
0
  6
CONTINUOUS
 62
     7
 10
-615.32708999999977
 20
304.56088
 30
0.0
 11
-612.50707999999975
 21
304.50088999999991
 31
0.0
  0
LINE
  5
A4F
  8
0
  6
CONTINUOUS
 62
     7
 10
-574.32708999999966
 20
315.64092999999991
 30
0.0
 11
-468.32709000000011
 21
315.64092999999991
 31
0.0
  0
LINE
  5
A50
  8
0
  6
CONTINUOUS
 62
     7
 10
-473.61712999999992
 20
301.49090999999999
 30
0.0
 11
-468.32709000000011
 21
301.49090999999999
 31
0.0
  0
LINE
  5
A51
  8
0
  6
CONTINUOUS
 62
     7
 10
-601.6570999999999
 20
328.63092
 30
0.0
 11
-507.30712999999992
 21
328.63092
 31
0.0
  0
LINE
  5
A52
  8
0
  6
CONTINUOUS
 62
     7
 10
-519.32708999999988
 20
325.99090999999981
 30
0.0
 11
-600.79137999999978
 21
325.99090999999981
 31
0.0
  0
LINE
  5
A53
  8
0
  6
CONTINUOUS
 62
     7
 10
-519.32708999999988
 20
325.27094
 30
0.0
 11
-471.50707999999992
 21
325.27094
 31
0.0
  0
LINE
  5
A54
  8
0
  6
CONTINUOUS
 62
     7
 10
-601.6570999999999
 20
325.27094
 30
0.0
 11
-519.32708999999988
 21
325.27094
 31
0.0
  0
LINE
  5
A55
  8
0
  6
CONTINUOUS
 62
     7
 10
-601.62945999999999
 20
303.73090000000002
 30
0.0
 11
-595.82709
 21
303.73090000000002
 31
0.0
  0
LINE
  5
A56
  8
0
  6
CONTINUOUS
 62
     7
 10
-592.32709
 20
300.13092
 30
0.0
 11
-475.51709
 21
300.13092
 31
0.0
  0
LINE
  5
A57
  8
0
  6
CONTINUOUS
 62
     7
 10
-601.56719999999984
 20
309.01092999999992
 30
0.0
 11
-595.82709
 21
309.01092999999992
 31
0.0
  0
LINE
  5
A58
  8
0
  6
CONTINUOUS
 62
     7
 10
-605.32709
 20
313.64092999999991
 30
0.0
 11
-605.32709
 21
327.69085999999999
 31
0.0
  0
LINE
  5
A59
  8
0
  6
CONTINUOUS
 62
     7
 10
-615.32708999999977
 20
313.64092999999991
 30
0.0
 11
-605.32709
 21
313.64092999999991
 31
0.0
  0
LINE
  5
A5A
  8
0
  6
CONTINUOUS
 62
     7
 10
-473.58706999999993
 20
301.62081999999992
 30
0.0
 11
-470.12704000000002
 21
314.53090999999989
 31
0.0
  0
LINE
  5
A5B
  8
0
  6
CONTINUOUS
 62
     7
 10
-611.56579999999985
 20
301.83190999999982
 30
0.0
 11
-612.04711999999995
 21
303.74090999999999
 31
0.0
  0
LINE
  5
A5C
  8
0
  6
CONTINUOUS
 62
     7
 10
-611.13707999999986
 20
301.86086999999992
 30
0.0
 11
-612.05706999999995
 21
305.74093999999991
 31
0.0
  0
LINE
  5
A5D
  8
0
  6
CONTINUOUS
 62
     7
 10
-594.32708999999988
 20
300.10187000000002
 30
0.0
 11
-594.32708999999988
 21
307.51092999999992
 31
0.0
  0
LINE
  5
A5E
  8
0
  6
CONTINUOUS
 62
     7
 10
-613.49707000000001
 20
304.87090999999992
 30
0.0
 11
-611.84710999999982
 21
304.87090999999992
 31
0.0
  0
LINE
  5
A5F
  8
0
  6
CONTINUOUS
 62
     7
 10
-574.32708999999966
 20
408.34087999999991
 30
0.0
 11
-468.32709000000011
 21
408.34087999999991
 31
0.0
  0
LINE
  5
A60
  8
0
  6
CONTINUOUS
 62
     7
 10
-468.32709000000011
 20
299.49090999999999
 30
0.0
 11
-468.32709000000011
 21
424.49090999999999
 31
0.0
  0
LINE
  5
A61
  8
0
  6
CONTINUOUS
 62
     7
 10
-615.32703000000004
 20
419.42089999999979
 30
0.0
 11
-612.50707999999975
 21
419.49090999999999
 31
0.0
  0
LINE
  5
A62
  8
0
  6
CONTINUOUS
 62
     7
 10
-615.32708999999977
 20
304.56085000000002
 30
0.0
 11
-615.32708999999977
 21
361.99090999999999
 31
0.0
  0
LINE
  5
A63
  8
0
  6
CONTINUOUS
 62
     7
 10
-474.98712
 20
325.99090999999981
 30
0.0
 11
-519.32708999999988
 21
325.99090999999981
 31
0.0
  0
LINE
  5
A64
  8
0
  6
CONTINUOUS
 62
     7
 10
-605.32709
 20
410.34087999999991
 30
0.0
 11
-605.32709
 21
396.30095999999992
 31
0.0
  0
LINE
  5
A65
  8
0
  6
CONTINUOUS
 62
     7
 10
-615.32708999999977
 20
396.30095999999992
 30
0.0
 11
-605.32709
 21
396.30095999999992
 31
0.0
  0
LINE
  5
A66
  8
0
  6
CONTINUOUS
 62
     7
 10
-615.32708999999977
 20
404.68085000000002
 30
0.0
 11
-605.32709
 21
404.68085000000002
 31
0.0
  0
LINE
  5
A67
  8
0
  6
CONTINUOUS
 62
     7
 10
-615.32708999999977
 20
410.34087999999991
 30
0.0
 11
-605.32709
 21
410.34087999999991
 31
0.0
  0
LINE
  5
A68
  8
0
  6
CONTINUOUS
 62
     7
 10
-539.88500999999985
 20
347.99090999999987
 30
0.0
 11
-609.77710000000002
 21
347.99090999999987
 31
0.0
  0
LINE
  5
A69
  8
0
  6
CONTINUOUS
 62
     7
 10
-592.32709
 20
423.85088999999999
 30
0.0
 11
-475.51709
 21
423.85088999999999
 31
0.0
  0
LINE
  5
A6A
  8
0
  6
CONTINUOUS
 62
     7
 10
-601.37279999999998
 20
414.98090000000002
 30
0.0
 11
-595.82709
 21
414.98090000000002
 31
0.0
  0
LINE
  5
A6B
  8
0
  6
CONTINUOUS
 62
     7
 10
-604.11785999999995
 20
408.98424999999992
 30
0.0
 11
-603.33281999999986
 21
413.3309299999998
 31
0.0
  0
LINE
  5
A6C
  8
0
  6
CONTINUOUS
 62
     7
 10
-601.43664999999999
 20
420.2609299999998
 30
0.0
 11
-595.82709
 21
420.2609299999998
 31
0.0
  0
LINE
  5
A6D
  8
0
  6
CONTINUOUS
 62
     7
 10
-609.19708000000003
 20
423.66095000000001
 30
0.0
 11
-595.82709
 21
423.66095000000001
 31
0.0
  0
LINE
  5
A6E
  8
0
  6
CONTINUOUS
 62
     7
 10
-609.21709999999985
 20
425.29095000000001
 30
0.0
 11
-595.71709999999985
 21
425.29095000000001
 31
0.0
  0
LINE
  5
A6F
  8
0
  6
CONTINUOUS
 62
     7
 10
-592.32709
 20
427.91095000000001
 30
0.0
 11
-474.24347
 21
427.91095000000001
 31
0.0
  0
LINE
  5
A70
  8
0
  6
CONTINUOUS
 62
     7
 10
-592.32709
 20
427.24090999999987
 30
0.0
 11
-474.09942999999993
 21
427.24090999999987
 31
0.0
  0
LINE
  5
A71
  8
0
  6
CONTINUOUS
 62
     7
 10
-592.32709
 20
425.88091999999989
 30
0.0
 11
-473.80712999999992
 21
425.88091999999989
 31
0.0
  0
LINE
  5
A72
  8
0
  6
CONTINUOUS
 62
     7
 10
-605.81281000000001
 20
413.03093999999987
 30
0.0
 11
-603.39282000000003
 21
413.03093999999987
 31
0.0
  0
LINE
  5
A73
  8
0
  6
CONTINUOUS
 62
     7
 10
-603.38280999999995
 20
418.68093999999991
 30
0.0
 11
-604.34283000000016
 21
414.21084999999988
 31
0.0
  0
LINE
  5
A74
  8
0
  6
CONTINUOUS
 62
     7
 10
-613.51709000000017
 20
417.09087999999991
 30
0.0
 11
-603.72429999999997
 21
417.09087999999991
 31
0.0
  0
LINE
  5
A75
  8
0
  6
CONTINUOUS
 62
     7
 10
-474.98712
 20
397.99090999999999
 30
0.0
 11
-600.77709999999979
 21
397.99090999999999
 31
0.0
  0
LINE
  5
A76
  8
0
  6
CONTINUOUS
 62
     7
 10
-474.98712
 20
395.99090999999987
 30
0.0
 11
-489.32709
 21
395.99090999999987
 31
0.0
  0
LINE
  5
A77
  8
0
  6
CONTINUOUS
 62
     7
 10
-474.97997999999978
 20
387.99090999999987
 30
0.0
 11
-489.32709
 21
387.99090999999987
 31
0.0
  0
LINE
  5
A78
  8
0
  6
CONTINUOUS
 62
     7
 10
-611.13707999999986
 20
422.12094000000002
 30
0.0
 11
-612.05713000000003
 21
418.25089000000003
 31
0.0
  0
LINE
  5
A79
  8
0
  6
CONTINUOUS
 62
     7
 10
-474.99425999999988
 20
385.99090999999987
 30
0.0
 11
-600.77709999999979
 21
385.99090999999987
 31
0.0
  0
LINE
  5
A7A
  8
0
  6
CONTINUOUS
 62
     7
 10
-613.49707000000001
 20
419.11089999999979
 30
0.0
 11
-611.84710999999982
 21
419.11089999999979
 31
0.0
  0
LINE
  5
A7B
  8
0
  6
CONTINUOUS
 62
     7
 10
-611.15710000000001
 20
423.78084999999982
 30
0.0
 11
-612.04711999999995
 21
420.25094999999988
 31
0.0
  0
LINE
  5
A7C
  8
0
  6
CONTINUOUS
 62
     7
 10
-539.88836999999978
 20
377.99090999999987
 30
0.0
 11
-609.77710000000002
 21
377.99090999999987
 31
0.0
  0
LINE
  5
A7D
  8
0
  6
CONTINUOUS
 62
     7
 10
-594.32708999999988
 20
423.88092
 30
0.0
 11
-594.32708999999988
 21
416.48089999999991
 31
0.0
  0
LINE
  5
A7E
  8
0
  6
CONTINUOUS
 62
     7
 10
-539.88836999999978
 20
375.99090999999987
 30
0.0
 11
-609.77710000000002
 21
375.99090999999987
 31
0.0
  0
LINE
  5
A7F
  8
0
  6
CONTINUOUS
 62
     7
 10
-539.88500999999985
 20
367.99090999999987
 30
0.0
 11
-609.77710000000002
 21
367.99090999999987
 31
0.0
  0
LINE
  5
A80
  8
0
  6
CONTINUOUS
 62
     7
 10
-539.88500999999985
 20
365.99090999999999
 30
0.0
 11
-609.77710000000002
 21
365.99090999999999
 31
0.0
  0
LINE
  5
A81
  8
0
  6
CONTINUOUS
 62
     7
 10
-473.58710000000002
 20
422.37096999999989
 30
0.0
 11
-470.12707999999992
 21
409.45087000000001
 31
0.0
  0
LINE
  5
A82
  8
0
  6
CONTINUOUS
 62
     7
 10
-471.86669999999992
 20
422.49090999999987
 30
0.0
 11
-468.32709000000011
 21
422.49090999999987
 31
0.0
  0
LINE
  5
A83
  8
0
  6
CONTINUOUS
 62
     7
 10
-468.6171299999998
 20
413.03093999999987
 30
0.0
 11
-471.03710999999993
 21
413.03093999999987
 31
0.0
  0
LINE
  5
A84
  8
0
  6
CONTINUOUS
 62
     7
 10
-472.77692000000002
 20
426.72609999999992
 30
0.0
 11
-470.08706999999998
 21
414.21087999999992
 31
0.0
  0
LINE
  5
A85
  8
0
  6
CONTINUOUS
 62
     7
 10
-615.32708999999977
 20
419.42095999999981
 30
0.0
 11
-615.32708999999977
 21
361.99090999999999
 31
0.0
  0
LINE
  5
A86
  8
0
  6
CONTINUOUS
 62
     7
 10
-615.32708999999977
 20
327.69085999999999
 30
0.0
 11
-605.32709
 21
327.69085999999999
 31
0.0
  0
LINE
  5
A87
  8
0
  6
CONTINUOUS
 62
     7
 10
-609.62645999999995
 20
300.32085999999993
 30
0.0
 11
-595.58434999999963
 21
300.32085999999993
 31
0.0
  0
LINE
  5
A88
  8
0
  6
CONTINUOUS
 62
     7
 10
-615.32708999999977
 20
319.30095999999992
 30
0.0
 11
-605.32709
 21
319.30095999999992
 31
0.0
  0
LINE
  5
A89
  8
0
  6
CONTINUOUS
 62
     7
 10
-613.51709000000017
 20
306.89092999999991
 30
0.0
 11
-603.72429999999997
 21
306.89092999999991
 31
0.0
  0
LINE
  5
A8A
  8
0
  6
CONTINUOUS
 62
     7
 10
-592.32709
 20
298.10088999999982
 30
0.0
 11
-551.00072999999986
 21
298.10088999999982
 31
0.0
  0
LINE
  5
A8B
  8
0
  6
CONTINUOUS
 62
     7
 10
-601.86707000000001
 20
335.51092999999992
 30
0.0
 11
-507.32709
 21
335.51092999999992
 31
0.0
  0
LINE
  5
A8C
  8
0
  6
CONTINUOUS
 62
     7
 10
-507.32709
 20
327.99090999999981
 30
0.0
 11
-600.79137999999978
 21
327.99090999999981
 31
0.0
  0
LINE
  5
A8D
  8
0
  6
CONTINUOUS
 62
     7
 10
-601.6570999999999
 20
398.72089
 30
0.0
 11
-471.50707999999992
 21
398.72089
 31
0.0
  0
LINE
  5
A8E
  8
0
  6
CONTINUOUS
 62
     7
 10
-601.6570999999999
 20
395.36090000000002
 30
0.0
 11
-507.30712999999992
 21
395.36090000000002
 31
0.0
  0
LINE
  5
A8F
  8
0
  6
CONTINUOUS
 62
     7
 10
-601.86707000000001
 20
388.48090000000002
 30
0.0
 11
-507.32709
 21
388.48090000000002
 31
0.0
  0
LINE
  5
A90
  8
0
  6
CONTINUOUS
 62
     7
 10
-601.86707000000001
 20
385.56085000000002
 30
0.0
 11
-471.29284999999999
 21
385.56085000000002
 31
0.0
  0
LINE
  5
A91
  8
0
  6
CONTINUOUS
 62
     7
 10
-610.99706999999978
 20
378.34087999999991
 30
0.0
 11
-538.65581999999995
 21
378.34087999999991
 31
0.0
  0
LINE
  5
A92
  8
0
  6
CONTINUOUS
 62
     7
 10
-610.99706999999978
 20
375.67095999999992
 30
0.0
 11
-538.66840000000002
 21
375.67095999999992
 31
0.0
  0
LINE
  5
A93
  8
0
  6
CONTINUOUS
 62
     7
 10
-611.05707000000018
 20
368.27094
 30
0.0
 11
-538.59198000000004
 21
368.27094
 31
0.0
  0
LINE
  5
A94
  8
0
  6
CONTINUOUS
 62
     7
 10
-611.05707000000018
 20
365.73090000000002
 30
0.0
 11
-538.59198000000004
 21
365.73090000000002
 31
0.0
  0
LINE
  5
A95
  8
0
  6
CONTINUOUS
 62
     7
 10
-611.05707000000018
 20
358.26092999999992
 30
0.0
 11
-538.59198000000004
 21
358.26092999999992
 31
0.0
  0
LINE
  5
A96
  8
0
  6
CONTINUOUS
 62
     7
 10
-539.88500999999985
 20
355.99090999999999
 30
0.0
 11
-609.77710000000002
 21
355.99090999999999
 31
0.0
  0
LINE
  5
A97
  8
0
  6
CONTINUOUS
 62
     7
 10
-539.88500999999985
 20
357.99090999999999
 30
0.0
 11
-609.77710000000002
 21
357.99090999999999
 31
0.0
  0
LINE
  5
A98
  8
0
  6
CONTINUOUS
 62
     7
 10
-610.99706999999978
 20
348.31085000000002
 30
0.0
 11
-538.65581999999995
 21
348.31085000000002
 31
0.0
  0
LINE
  5
A99
  8
0
  6
CONTINUOUS
 62
     7
 10
-539.88500999999985
 20
345.99090999999987
 30
0.0
 11
-609.77710000000002
 21
345.99090999999987
 31
0.0
  0
LINE
  5
A9A
  8
0
  6
CONTINUOUS
 62
     7
 10
-610.99706999999978
 20
345.65093999999982
 30
0.0
 11
-538.65581999999995
 21
345.65093999999982
 31
0.0
  0
LINE
  5
A9B
  8
0
  6
CONTINUOUS
 62
     7
 10
-474.99425999999988
 20
337.99090999999987
 30
0.0
 11
-600.79137999999978
 21
337.99090999999987
 31
0.0
  0
LINE
  5
A9C
  8
0
  6
CONTINUOUS
 62
     7
 10
-601.86707000000001
 20
338.43085000000002
 30
0.0
 11
-471.29284999999999
 21
338.43085000000002
 31
0.0
  0
LINE
  5
A9D
  8
0
  6
CONTINUOUS
 62
     7
 10
-474.99425999999988
 20
335.99090999999981
 30
0.0
 11
-489.32709
 21
335.99090999999981
 31
0.0
  0
LINE
  5
A9E
  8
0
  6
CONTINUOUS
 62
     7
 10
-474.98712
 20
327.99090999999981
 30
0.0
 11
-489.32709
 21
327.99090999999981
 31
0.0
  0
LINE
  5
A9F
  8
0
  6
CONTINUOUS
 62
     7
 10
-611.05707000000018
 20
355.72089
 30
0.0
 11
-538.59198000000004
 21
355.72089
 31
0.0
  0
LINE
  5
AA0
  8
0
  6
CONTINUOUS
 62
     7
 10
-604.11785999999995
 20
314.99749999999989
 30
0.0
 11
-603.33281999999986
 21
310.65084999999988
 31
0.0
  0
LINE
  5
AA1
  8
0
  6
CONTINUOUS
 62
     7
 10
-605.81281000000001
 20
310.95087000000001
 30
0.0
 11
-603.39282000000003
 21
310.95087000000001
 31
0.0
  0
LINE
  5
AA2
  8
0
  6
CONTINUOUS
 62
     7
 10
-603.38280999999995
 20
305.30086999999992
 30
0.0
 11
-604.34283000000016
 21
309.77087
 31
0.0
  0
LINE
  5
AA3
  8
0
  6
CONTINUOUS
 62
     3
 10
-549.32708999999966
 20
289.99088
 30
0.0
 11
-549.59265000000005
 21
300.13083
 31
0.0
  0
LINE
  5
AA4
  8
0
  6
CONTINUOUS
 62
     3
 10
-489.32709
 20
289.99088
 30
0.0
 11
-489.06155000000001
 21
300.13085999999993
 31
0.0
  0
LINE
  5
AA5
  8
0
  6
CONTINUOUS
 62
     7
 10
-487.8134799999998
 20
291.99090999999981
 30
0.0
 11
-476.31090999999998
 21
291.99090999999981
 31
0.0
  0
LINE
  5
AA6
  8
0
  6
CONTINUOUS
 62
     3
 10
-469.32709
 20
301.49088
 30
0.0
 11
-475.05285999999978
 21
292.67394999999999
 31
0.0
  0
LINE
  5
AA7
  8
0
  6
CONTINUOUS
 62
     7
 10
-505.82709000000011
 20
334.49090999999981
 30
0.0
 11
-505.82709000000011
 21
329.49090999999981
 31
0.0
  0
LINE
  5
AA8
  8
0
  6
CONTINUOUS
 62
     7
 10
-490.82709
 20
334.49090999999981
 30
0.0
 11
-490.82709
 21
329.49090999999981
 31
0.0
  0
LINE
  5
AA9
  8
0
  6
CONTINUOUS
 62
     7
 10
-507.32709
 20
335.99090999999981
 30
0.0
 11
-600.79137999999978
 21
335.99090999999981
 31
0.0
  0
LINE
  5
AAA
  8
0
  6
CONTINUOUS
 62
     7
 10
-506.3071299999998
 20
334.49090999999981
 30
0.0
 11
-506.3071299999998
 21
329.63092
 31
0.0
  0
LINE
  5
AAB
  8
0
  6
CONTINUOUS
 62
     7
 10
-490.34710999999987
 20
334.49090999999981
 30
0.0
 11
-490.34710999999987
 21
329.63092
 31
0.0
  0
LINE
  5
AAC
  8
0
  6
CONTINUOUS
 62
     7
 10
-489.32709
 20
335.51092999999992
 30
0.0
 11
-471.29284999999999
 21
335.51092999999992
 31
0.0
  0
LINE
  5
AAD
  8
0
  6
CONTINUOUS
 62
     7
 10
-489.34710999999999
 20
328.63092
 30
0.0
 11
-471.50707999999992
 21
328.63092
 31
0.0
  0
LINE
  5
AAE
  8
0
  6
CONTINUOUS
 62
     7
 10
-490.34710999999987
 20
389.49090999999987
 30
0.0
 11
-490.34710999999987
 21
394.35088999999988
 31
0.0
  0
LINE
  5
AAF
  8
0
  6
CONTINUOUS
 62
     7
 10
-506.3071299999998
 20
389.49090999999987
 30
0.0
 11
-506.3071299999998
 21
394.35088999999988
 31
0.0
  0
LINE
  5
AB0
  8
0
  6
CONTINUOUS
 62
     7
 10
-490.82709
 20
389.49090999999987
 30
0.0
 11
-490.82709
 21
394.49090999999987
 31
0.0
  0
LINE
  5
AB1
  8
0
  6
CONTINUOUS
 62
     7
 10
-505.82709000000011
 20
389.49090999999987
 30
0.0
 11
-505.82709000000011
 21
394.49090999999987
 31
0.0
  0
LINE
  5
AB2
  8
0
  6
CONTINUOUS
 62
     7
 10
-507.32709
 20
395.99090999999987
 30
0.0
 11
-600.77709999999979
 21
395.99090999999987
 31
0.0
  0
LINE
  5
AB3
  8
0
  6
CONTINUOUS
 62
     7
 10
-489.34710999999999
 20
395.36090000000002
 30
0.0
 11
-471.50707999999992
 21
395.36090000000002
 31
0.0
  0
LINE
  5
AB4
  8
0
  6
CONTINUOUS
 62
     7
 10
-489.32709
 20
388.48090000000002
 30
0.0
 11
-471.28136999999981
 21
388.48090000000002
 31
0.0
  0
LINE
  5
AB5
  8
0
  6
CONTINUOUS
 62
     7
 10
-507.32709
 20
387.99090999999987
 30
0.0
 11
-600.77709999999979
 21
387.99090999999987
 31
0.0
  0
LINE
  5
AB6
  8
0
  6
CONTINUOUS
 62
     3
 10
-534.32709
 20
382.49090999999987
 30
0.0
 11
-534.32709
 21
341.49090999999999
 31
0.0
  0
LINE
  5
AB7
  8
0
  6
CONTINUOUS
 62
     3
 10
-471.32709
 20
382.49090999999987
 30
0.0
 11
-471.32709
 21
341.49090999999999
 31
0.0
  0
LINE
  5
AB8
  8
0
  6
CONTINUOUS
 62
     7
 10
-534.32709
 20
382.49090999999987
 30
0.0
 11
-471.32709
 21
382.49090999999987
 31
0.0
  0
LINE
  5
AB9
  8
0
  6
CONTINUOUS
 62
     7
 10
-534.32709
 20
341.49090999999999
 30
0.0
 11
-471.32709
 21
341.49090999999999
 31
0.0
  0
LINE
  5
ABA
  8
0
  6
CONTINUOUS
 62
     7
 10
-534.32709
 20
374.99090999999987
 30
0.0
 11
-471.32709
 21
374.99090999999987
 31
0.0
  0
LINE
  5
ABB
  8
0
  6
CONTINUOUS
 62
     3
 10
-574.32708999999966
 20
408.34084999999988
 30
0.0
 11
-605.32709
 21
406.31085000000002
 31
0.0
  0
LINE
  5
ABC
  8
0
  6
CONTINUOUS
 62
     3
 10
-574.32708999999966
 20
315.64087000000001
 30
0.0
 11
-605.32709
 21
317.67086999999992
 31
0.0
  0
LINE
  5
ABD
  8
0
  6
CONTINUOUS
 62
     7
 10
-422.82709
 20
306.46453999999972
 30
0.0
 11
-390.82709
 21
306.46453999999972
 31
0.0
  0
LINE
  5
ABE
  8
0
  6
CONTINUOUS
 62
     7
 10
-422.82709
 20
417.51720999999998
 30
0.0
 11
-390.82709
 21
417.51720999999998
 31
0.0
  0
LINE
  5
ABF
  8
0
  6
CONTINUOUS
 62
     1
 10
-362.82708999999988
 20
351.99090999999999
 30
0.0
 11
-360.82715000000002
 21
351.99090999999999
 31
0.0
  0
LINE
  5
AC0
  8
0
  6
CONTINUOUS
 62
     1
 10
-362.82708999999988
 20
371.99090999999987
 30
0.0
 11
-360.82715000000002
 21
371.99090999999987
 31
0.0
  0
LINE
  5
AC1
  8
0
  6
CONTINUOUS
 62
     7
 10
-367.82715000000002
 20
291.99083999999999
 30
0.0
 11
-363.82709
 21
291.99083999999999
 31
0.0
  0
LINE
  5
AC2
  8
0
  6
CONTINUOUS
 62
     7
 10
-375.89693999999992
 20
287.27267000000001
 30
0.0
 11
-367.82711999999992
 21
286.99088
 31
0.0
  0
LINE
  5
AC3
  8
0
  6
CONTINUOUS
 62
     7
 10
-354.82715000000002
 20
358.99090999999987
 30
0.0
 11
-354.82715000000002
 21
364.99090999999987
 31
0.0
  0
LINE
  5
AC4
  8
0
  6
CONTINUOUS
 62
     7
 10
-377.82715000000002
 20
289.27147999999983
 30
0.0
 11
-377.82715000000002
 21
321.55047999999999
 31
0.0
  0
LINE
  5
AC5
  8
0
  6
CONTINUOUS
 62
     7
 10
-386.00162
 20
292.76279
 30
0.0
 11
-380.72241000000002
 21
292.57842999999991
 31
0.0
  0
LINE
  5
AC6
  8
0
  6
CONTINUOUS
 62
     7
 10
-360.82715000000002
 20
352.49090999999987
 30
0.0
 11
-332.82715000000002
 21
352.49090999999987
 31
0.0
  0
LINE
  5
AC7
  8
0
  6
CONTINUOUS
 62
     7
 10
-360.82715000000002
 20
371.49090999999987
 30
0.0
 11
-332.82715000000002
 21
371.49090999999987
 31
0.0
  0
LINE
  5
AC8
  8
0
  6
CONTINUOUS
 62
     7
 10
-332.82715000000002
 20
352.49090999999987
 30
0.0
 11
-332.82715000000002
 21
371.49090999999987
 31
0.0
  0
LINE
  5
AC9
  8
0
  6
CONTINUOUS
 62
     7
 10
-354.82715000000002
 20
358.99090999999987
 30
0.0
 11
-332.82715000000002
 21
358.99090999999987
 31
0.0
  0
LINE
  5
ACA
  8
0
  6
CONTINUOUS
 62
     7
 10
-360.82715000000002
 20
351.99090999999999
 30
0.0
 11
-360.82715000000002
 21
371.99090999999987
 31
0.0
  0
LINE
  5
ACB
  8
0
  6
CONTINUOUS
 62
     7
 10
-354.82715000000002
 20
364.99090999999987
 30
0.0
 11
-332.82715000000002
 21
364.99090999999987
 31
0.0
  0
LINE
  5
ACC
  8
0
  6
CONTINUOUS
 62
     7
 10
-422.82709
 20
421.99090999999987
 30
0.0
 11
-390.82709
 21
422.82885999999991
 31
0.0
  0
LINE
  5
ACD
  8
0
  6
CONTINUOUS
 62
     7
 10
-363.82711999999992
 20
341.06371999999999
 30
0.0
 11
-363.41287
 21
341.47793999999999
 31
0.0
  0
LINE
  5
ACE
  8
0
  6
CENTER
 62
     7
 10
-381.19702000000001
 20
301.88677999999982
 30
0.0
 11
-360.22638000000001
 21
301.88677999999982
 31
0.0
  0
LINE
  5
ACF
  8
0
  6
CONTINUOUS
 62
     7
 10
-390.82711999999992
 20
301.15291999999999
 30
0.0
 11
-422.82709
 21
301.99088
 31
0.0
  0
LINE
  5
AD0
  8
0
  6
CONTINUOUS
 62
     7
 10
-377.82715000000002
 20
434.71026999999992
 30
0.0
 11
-377.82715000000002
 21
402.43126999999998
 31
0.0
  0
LINE
  5
AD1
  8
0
  6
CONTINUOUS
 62
     7
 10
-362.82715000000002
 20
381.01672000000002
 30
0.0
 11
-362.82715000000002
 21
342.74646000000001
 31
0.0
  0
LINE
  5
AD2
  8
0
  6
CONTINUOUS
 62
     7
 10
-386.00155999999998
 20
431.21893
 30
0.0
 11
-380.72237999999999
 21
431.40328999999991
 31
0.0
  0
LINE
  5
AD3
  8
0
  6
CONTINUOUS
 62
     7
 10
-372.82709
 20
421.49090999999981
 30
0.0
 11
-372.82709
 21
302.49083999999999
 31
0.0
  0
LINE
  5
AD4
  8
0
  6
CONTINUOUS
 62
     7
 10
-367.82715000000002
 20
431.99090999999999
 30
0.0
 11
-363.82709
 21
431.99090999999999
 31
0.0
  0
LINE
  5
AD5
  8
0
  6
CONTINUOUS
 62
     7
 10
-367.82715000000002
 20
436.99083999999988
 30
0.0
 11
-367.82715000000002
 21
286.99083999999988
 31
0.0
  0
LINE
  5
AD6
  8
0
  6
CONTINUOUS
 62
     7
 10
-363.82709
 20
431.99090999999999
 30
0.0
 11
-363.82709
 21
291.99083999999999
 31
0.0
  0
LINE
  5
AD7
  8
0
  6
CONTINUOUS
 62
     7
 10
-375.89690999999988
 20
436.7090799999998
 30
0.0
 11
-367.82709
 21
436.99088
 31
0.0
  0
LINE
  5
AD8
  8
0
  6
CONTINUOUS
 62
     7
 10
-363.82711999999992
 20
382.91802999999987
 30
0.0
 11
-363.41289999999992
 21
382.50378000000001
 31
0.0
  0
LINE
  5
AD9
  8
0
  6
CENTER
 62
     7
 10
-380.99484000000001
 20
422.09496999999999
 30
0.0
 11
-360.22638000000001
 21
422.09496999999999
 31
0.0
  0
LINE
  5
ADA
  8
0
  6
CONTINUOUS
 62
     7
 10
-390.82709
 20
426.22197999999992
 30
0.0
 11
-390.82709
 21
297.77727999999968
 31
0.0
  0
LINE
  5
ADB
  8
0
  6
CONTINUOUS
 62
     7
 10
-383.27187999999978
 20
58.018546999999991
 30
0.0
 11
-386.82711999999992
 21
58.018546999999991
 31
0.0
  0
LINE
  5
ADC
  8
0
  6
CONTINUOUS
 62
     7
 10
-383.27187999999978
 20
49.393546999999991
 30
0.0
 11
-386.82711999999992
 21
49.393546999999991
 31
0.0
  0
LINE
  5
ADD
  8
0
  6
CONTINUOUS
 62
     7
 10
-383.27187999999978
 20
60.893554999999992
 30
0.0
 11
-386.82711999999992
 21
60.893554999999992
 31
0.0
  0
LINE
  5
ADE
  8
0
  6
CONTINUOUS
 62
     7
 10
-386.00162
 20
199.57603
 30
0.0
 11
-380.72237999999999
 21
199.76039
 31
0.0
  0
LINE
  5
ADF
  8
0
  6
CONTINUOUS
 62
     7
 10
-372.82709
 20
189.8479599999998
 30
0.0
 11
-372.82709
 21
75.732651000000004
 31
0.0
  0
LINE
  5
AE0
  8
0
  6
CONTINUOUS
 62
     7
 10
-169.38999999999999
 20
48.143543000000001
 30
0.0
 11
-121.17188
 21
48.143543000000001
 31
0.0
  0
LINE
  5
AE1
  8
0
  6
CONTINUOUS
 62
     7
 10
-382.82711999999992
 20
59.456051000000002
 30
0.0
 11
-382.82711999999992
 21
50.831039000000011
 31
0.0
  0
LINE
  5
AE2
  8
0
  6
CENTER
 62
     7
 10
-380.68453999999991
 20
70.243881000000002
 30
0.0
 11
-360.22638000000001
 21
70.243881000000002
 31
0.0
  0
LINE
  5
AE3
  8
0
  6
CONTINUOUS
 62
     7
 10
-367.82709
 20
64.743209999999991
 30
0.0
 11
-363.82711999999992
 21
64.847954000000001
 31
0.0
  0
LINE
  5
AE4
  8
0
  6
CONTINUOUS
 62
     7
 10
-367.82711999999992
 20
200.34795999999989
 30
0.0
 11
-363.82709
 21
200.34795999999989
 31
0.0
  0
LINE
  5
AE5
  8
0
  6
CONTINUOUS
 62
     7
 10
-375.89684999999992
 20
60.725948000000002
 30
0.0
 11
-367.82709
 21
60.444148999999989
 31
0.0
  0
LINE
  5
AE6
  8
0
  6
CONTINUOUS
 62
     7
 10
-367.82711999999992
 20
205.34796
 30
0.0
 11
-367.82711999999992
 21
60.444144999999992
 31
0.0
  0
LINE
  5
AE7
  8
0
  6
CONTINUOUS
 62
     7
 10
-363.82706000000002
 20
109.27507
 30
0.0
 11
-363.41284000000002
 21
109.68928
 31
0.0
  0
LINE
  5
AE8
  8
0
  6
CONTINUOUS
 62
     7
 10
-363.82709
 20
130.34795999999969
 30
0.0
 11
-363.82709
 21
64.847954000000001
 31
0.0
  0
LINE
  5
AE9
  8
0
  6
CONTINUOUS
 62
     7
 10
-183.77986000000001
 20
59.347949999999997
 30
0.0
 11
-180.60443000000001
 21
64.847945999999993
 31
0.0
  0
LINE
  5
AEA
  8
0
  6
CONTINUOUS
 62
     7
 10
-120.80161
 20
151.99886999999981
 30
0.0
 11
-99.459534000000005
 21
173.34095999999991
 31
0.0
  0
LINE
  5
AEB
  8
0
  6
CENTER
 62
     7
 10
-434.17650999999989
 20
130.34795999999969
 30
0.0
 11
-331.09359999999992
 21
130.34795999999969
 31
0.0
  0
LINE
  5
AEC
  8
0
  6
CONTINUOUS
 62
     7
 10
-123.6300399999997
 20
154.82730000000001
 30
0.0
 11
-102.2879599999999
 21
176.16938999999999
 31
0.0
  0
LINE
  5
AED
  8
0
  6
CENTER
 62
     7
 10
-198.8160399999999
 20
183.88306
 30
0.0
 11
-211.5765199999999
 21
196.64354
 31
0.0
  0
LINE
  5
AEE
  8
0
  6
CONTINUOUS
 62
     7
 10
-375.89687999999978
 20
205.0661299999999
 30
0.0
 11
-367.82711999999992
 21
205.34794999999991
 31
0.0
  0
LINE
  5
AEF
  8
0
  6
CONTINUOUS
 62
     7
 10
-363.82709
 20
200.34795999999989
 30
0.0
 11
-363.82709
 21
130.34795999999969
 31
0.0
  0
LINE
  5
AF0
  8
0
  6
CONTINUOUS
 62
     7
 10
-111.57003
 20
79.589896999999979
 30
0.0
 11
-110.57068
 21
77.972389000000007
 31
0.0
  0
LINE
  5
AF1
  8
0
  6
CONTINUOUS
 62
     1
 10
-183.77987999999991
 20
59.347949999999997
 30
0.0
 11
-206.65572
 21
59.347949999999997
 31
0.0
  0
LINE
  5
AF2
  8
0
  6
CONTINUOUS
 62
     1
 10
-70.280936999999994
 20
130.34795999999969
 30
0.0
 11
-70.280936999999994
 21
110.3479699999999
 31
0.0
  0
LINE
  5
AF3
  8
0
  6
CONTINUOUS
 62
     7
 10
-166.9318699999998
 20
154.82731999999979
 30
0.0
 11
-188.27393000000001
 21
176.16936000000001
 31
0.0
  0
LINE
  5
AF4
  8
0
  6
CENTER
 62
     7
 10
-91.190628000000004
 20
76.257644999999982
 30
0.0
 11
-78.864861000000005
 21
63.931870000000011
 31
0.0
  0
LINE
  5
AF5
  8
0
  6
CONTINUOUS
 62
     1
 10
-220.28093999999999
 20
130.34795999999969
 30
0.0
 11
-220.28093999999999
 21
110.3479699999999
 31
0.0
  0
LINE
  5
AF6
  8
0
  6
CONTINUOUS
 62
     7
 10
-422.82709
 20
48.53405399999999
 30
0.0
 11
-386.82706000000002
 21
47.276904999999999
 31
0.0
  0
LINE
  5
AF7
  8
0
  6
CONTINUOUS
 62
     1
 10
-121.32786
 20
68.847954000000001
 30
0.0
 11
-169.23401999999979
 21
68.847954000000001
 31
0.0
  0
LINE
  5
AF8
  8
0
  6
CENTER
 62
     7
 10
-625.89404000000002
 20
113.34796999999971
 30
0.0
 11
-424.86355999999989
 21
113.34796999999971
 31
0.0
  0
LINE
  5
AF9
  8
0
  6
CONTINUOUS
 62
     7
 10
-114.97293999999999
 20
77.48747299999998
 30
0.0
 11
-113.9735899999999
 21
75.869964999999965
 31
0.0
  0
LINE
  5
AFA
  8
0
  6
CENTER
 62
     7
 10
-91.245025999999996
 20
184.38388
 30
0.0
 11
-78.998299000000003
 21
196.6305999999999
 31
0.0
  0
LINE
  5
AFB
  8
0
  6
CONTINUOUS
 62
     7
 10
-103.9344599999999
 20
145.39683999999991
 30
0.0
 11
-99.721519000000001
 21
133.82187999999991
 31
0.0
  0
LINE
  5
AFC
  8
0
  6
CONTINUOUS
 62
     7
 10
-167.15271000000001
 20
105.64778
 30
0.0
 11
-188.2739399999999
 21
84.52655
 31
0.0
  0
LINE
  5
AFD
  8
0
  6
CONTINUOUS
 62
     7
 10
-220.28093999999999
 20
150.34796
 30
0.0
 11
-216.58751000000001
 21
192.56415000000001
 31
0.0
  0
LINE
  5
AFE
  8
0
  6
CONTINUOUS
 62
     7
 10
-386.82711999999992
 20
63.546753000000002
 30
0.0
 11
-386.82711999999992
 21
47.347960999999991
 31
0.0
  0
LINE
  5
AFF
  8
0
  6
CONTINUOUS
 62
     7
 10
-363.82709
 20
151.27508999999981
 30
0.0
 11
-363.41287
 21
150.86087000000001
 31
0.0
  0
LINE
  5
B00
  8
0
  6
CONTINUOUS
 62
     7
 10
-169.7602999999998
 20
108.69705
 30
0.0
 11
-191.10237000000001
 21
87.354973000000001
 31
0.0
  0
LINE
  5
B01
  8
0
  6
CONTINUOUS
 62
     7
 10
-385.85326999999972
 20
64.271179000000004
 30
0.0
 11
-377.82706000000002
 21
64.48135400000001
 31
0.0
  0
LINE
  5
B02
  8
0
  6
CONTINUOUS
 62
     7
 10
-354.82715000000002
 20
139.84798000000001
 30
0.0
 11
-354.82715000000002
 21
142.34796
 31
0.0
  0
LINE
  5
B03
  8
0
  6
CONTINUOUS
 62
     7
 10
-422.82709
 20
60.567329000000001
 30
0.0
 11
-386.82711999999992
 21
60.567329000000001
 31
0.0
  0
LINE
  5
B04
  8
0
  6
CONTINUOUS
 62
     7
 10
-385.82711999999992
 20
83.612662999999998
 30
0.0
 11
-377.82711999999992
 21
83.612662999999998
 31
0.0
  0
LINE
  5
B05
  8
0
  6
CONTINUOUS
 62
     7
 10
-422.82711999999998
 20
173.34796
 30
0.0
 11
-393.74856999999992
 21
174.10942
 31
0.0
  0
LINE
  5
B06
  8
0
  6
CENTER
 62
     7
 10
-380.75893999999988
 20
190.4520599999999
 30
0.0
 11
-360.22638000000001
 21
190.4520599999999
 31
0.0
  0
LINE
  5
B07
  8
0
  6
CONTINUOUS
 62
     7
 10
-390.82709
 20
194.57908999999981
 30
0.0
 11
-390.82709
 21
88.612662999999998
 31
0.0
  0
LINE
  5
B08
  8
0
  6
CONTINUOUS
 62
     7
 10
-126.17188999999991
 20
58.030312000000002
 30
0.0
 11
-126.17188999999991
 21
52.256790000000002
 31
0.0
  0
LINE
  5
B09
  8
0
  6
CONTINUOUS
 62
     7
 10
-116.17188
 20
52.256790000000002
 30
0.0
 11
-116.17188
 21
58.030312000000002
 31
0.0
  0
LINE
  5
B0A
  8
0
  6
CONTINUOUS
 62
     7
 10
-95.299674999999993
 20
157.47343000000001
 30
0.0
 11
-100.29966999999991
 21
154.58669
 31
0.0
  0
LINE
  5
B0B
  8
0
  6
CONTINUOUS
 62
     7
 10
-200.26218
 20
148.81314
 30
0.0
 11
-195.26218
 21
145.92639
 31
0.0
  0
LINE
  5
B0C
  8
0
  6
CONTINUOUS
 62
     7
 10
-70.280936999999994
 20
110.3479699999999
 30
0.0
 11
-73.944229000000007
 21
68.476394999999997
 31
0.0
  0
LINE
  5
B0D
  8
0
  6
CONTINUOUS
 62
     1
 10
-106.78201
 20
59.347949999999997
 30
0.0
 11
-83.906181000000004
 21
59.347949999999997
 31
0.0
  0
LINE
  5
B0E
  8
0
  6
CONTINUOUS
 62
     7
 10
-70.280944999999988
 20
150.34795
 30
0.0
 11
-73.974380000000025
 21
192.56412
 31
0.0
  0
LINE
  5
B0F
  8
0
  6
CONTINUOUS
 62
     7
 10
-165.2809399999999
 20
205.34794999999991
 30
0.0
 11
-207.49711999999991
 21
201.65450999999999
 31
0.0
  0
LINE
  5
B10
  8
0
  6
CONTINUOUS
 62
     1
 10
-220.28093999999999
 20
130.34795999999969
 30
0.0
 11
-220.28093999999999
 21
150.34795
 31
0.0
  0
LINE
  5
B11
  8
0
  6
CONTINUOUS
 62
     7
 10
-220.2809299999999
 20
110.34796
 30
0.0
 11
-216.61765
 21
68.476387000000003
 31
0.0
  0
LINE
  5
B12
  8
0
  6
CONTINUOUS
 62
     7
 10
-125.28095
 20
205.34796
 30
0.0
 11
-83.064766000000006
 21
201.65452999999991
 31
0.0
  0
LINE
  5
B13
  8
0
  6
CONTINUOUS
 62
     1
 10
-145.2809399999999
 20
205.34796
 30
0.0
 11
-165.28093000000001
 21
205.34796
 31
0.0
  0
LINE
  5
B14
  8
0
  6
CONTINUOUS
 62
     7
 10
-106.782
 20
59.347926999999999
 30
0.0
 11
-109.9574199999999
 21
64.847931000000003
 31
0.0
  0
LINE
  5
B15
  8
0
  6
CONTINUOUS
 62
     7
 10
-362.82711999999992
 20
149.37380999999991
 30
0.0
 11
-362.82711999999992
 21
111.10353000000001
 31
0.0
  0
LINE
  5
B16
  8
0
  6
CONTINUOUS
 62
     7
 10
-104.66630000000001
 20
101.51273999999979
 30
0.0
 11
-116.68398999999999
 21
139.41515999999979
 31
0.0
  0
LINE
  5
B17
  8
0
  6
CONTINUOUS
 62
     7
 10
-377.82711999999992
 20
203.06738000000001
 30
0.0
 11
-377.82711999999992
 21
170.78832999999969
 31
0.0
  0
LINE
  5
B18
  8
0
  6
CONTINUOUS
 62
     7
 10
-137.66770999999969
 20
81.123397999999995
 30
0.0
 11
-166.18611000000001
 21
108.8311299999999
 31
0.0
  0
LINE
  5
B19
  8
0
  6
CONTINUOUS
 62
     7
 10
-377.82711999999992
 20
62.724724000000002
 30
0.0
 11
-377.82711999999992
 21
89.812965000000005
 31
0.0
  0
LINE
  5
B1A
  8
0
  6
CONTINUOUS
 62
     1
 10
-82.441863999999981
 20
128.84796
 30
0.0
 11
-93.626723999999996
 21
128.84796
 31
0.0
  0
LINE
  5
B1B
  8
0
  6
CONTINUOUS
 62
     1
 10
-82.441863999999981
 20
131.84796
 30
0.0
 11
-96.902457999999996
 21
131.84796
 31
0.0
  0
LINE
  5
B1C
  8
0
  6
CONTINUOUS
 62
     7
 10
-383.27187999999978
 20
52.268543000000001
 30
0.0
 11
-386.82711999999992
 21
52.268543000000001
 31
0.0
  0
LINE
  5
B1D
  8
0
  6
CONTINUOUS
 62
     1
 10
-208.1200399999999
 20
131.84796
 30
0.0
 11
-192.06503000000001
 21
131.84796
 31
0.0
  0
LINE
  5
B1E
  8
0
  6
CONTINUOUS
 62
     1
 10
-208.1200399999999
 20
128.84796
 30
0.0
 11
-192.06503000000001
 21
128.84796
 31
0.0
  0
LINE
  5
B1F
  8
0
  6
CONTINUOUS
 62
     1
 10
-143.7809399999999
 20
193.18702999999991
 30
0.0
 11
-143.7809399999999
 21
177.13204999999991
 31
0.0
  0
LINE
  5
B20
  8
0
  6
CONTINUOUS
 62
     1
 10
-146.7809399999999
 20
193.18702999999991
 30
0.0
 11
-146.7809399999999
 21
177.13204999999991
 31
0.0
  0
LINE
  5
B21
  8
0
  6
CONTINUOUS
 62
     7
 10
-96.445785999999998
 20
124.82187999999979
 30
0.0
 11
-87.421576999999985
 21
100.02807
 31
0.0
  0
LINE
  5
B22
  8
0
  6
CONTINUOUS
 62
     7
 10
-450.87473
 20
155.95481999999981
 30
0.0
 11
-422.82709
 21
155.95481999999981
 31
0.0
  0
LINE
  5
B23
  8
0
  6
CONTINUOUS
 62
     7
 10
-200.2622099999999
 20
154.58669
 30
0.0
 11
-200.2622099999999
 21
148.81318999999991
 31
0.0
  0
LINE
  5
B24
  8
0
  6
CONTINUOUS
 62
     7
 10
-195.26215999999999
 20
157.4734
 30
0.0
 11
-200.26218
 21
154.58664999999991
 31
0.0
  0
LINE
  5
B25
  8
0
  6
CONTINUOUS
 62
     7
 10
-190.26218
 20
154.58664999999991
 30
0.0
 11
-195.26218
 21
157.4734
 31
0.0
  0
LINE
  5
B26
  8
0
  6
CONTINUOUS
 62
     7
 10
-190.26218999999969
 20
148.81318999999991
 30
0.0
 11
-190.26218999999969
 21
154.58669
 31
0.0
  0
LINE
  5
B27
  8
0
  6
CONTINUOUS
 62
     7
 10
-121.17188
 20
60.917053000000003
 30
0.0
 11
-126.17188
 21
58.03029999999999
 31
0.0
  0
LINE
  5
B28
  8
0
  6
CONTINUOUS
 62
     7
 10
-116.17186
 20
58.030281000000002
 30
0.0
 11
-121.17186
 21
60.917029999999983
 31
0.0
  0
LINE
  5
B29
  8
0
  6
CONTINUOUS
 62
     7
 10
-174.38997000000001
 20
52.256782999999999
 30
0.0
 11
-169.38998000000001
 21
49.370032999999999
 31
0.0
  0
LINE
  5
B2A
  8
0
  6
CONTINUOUS
 62
     7
 10
-195.26218
 20
145.92641999999981
 30
0.0
 11
-190.26218
 21
148.81316999999979
 31
0.0
  0
LINE
  5
B2B
  8
0
  6
CONTINUOUS
 62
     7
 10
-90.299667000000014
 20
154.58666999999991
 30
0.0
 11
-95.299667000000014
 21
157.47341999999981
 31
0.0
  0
LINE
  5
B2C
  8
0
  6
CONTINUOUS
 62
     7
 10
-174.38999999999999
 20
58.030312000000002
 30
0.0
 11
-174.38999999999999
 21
52.256790000000002
 31
0.0
  0
LINE
  5
B2D
  8
0
  6
CONTINUOUS
 62
     7
 10
-100.29966999999991
 20
148.81316000000001
 30
0.0
 11
-95.299667000000014
 21
145.92641
 31
0.0
  0
LINE
  5
B2E
  8
0
  6
CONTINUOUS
 62
     7
 10
-354.82715000000002
 20
142.34796
 30
0.0
 11
-332.82711999999992
 21
142.34796
 31
0.0
  0
LINE
  5
B2F
  8
0
  6
CONTINUOUS
 62
     1
 10
-70.280936999999994
 20
130.34795999999969
 30
0.0
 11
-70.280936999999994
 21
150.34795
 31
0.0
  0
LINE
  5
B30
  8
0
  6
CONTINUOUS
 62
     1
 10
-180.6044599999999
 20
64.847945999999993
 30
0.0
 11
-145.2809399999999
 21
64.847945999999993
 31
0.0
  0
LINE
  5
B31
  8
0
  6
CONTINUOUS
 62
     1
 10
-109.95743999999991
 20
64.847945999999993
 30
0.0
 11
-145.2809399999999
 21
64.847945999999993
 31
0.0
  0
LINE
  5
B32
  8
0
  6
CONTINUOUS
 62
     1
 10
-145.2809399999999
 20
205.34796
 30
0.0
 11
-125.2809399999997
 21
205.34796
 31
0.0
  0
LINE
  5
B33
  8
0
  6
CONTINUOUS
 62
     1
 10
-362.82711999999992
 20
120.34797999999969
 30
0.0
 11
-360.82715000000002
 21
120.34797999999969
 31
0.0
  0
LINE
  5
B34
  8
0
  6
CONTINUOUS
 62
     1
 10
-362.82711999999992
 20
140.34796
 30
0.0
 11
-360.82715000000002
 21
140.34796
 31
0.0
  0
LINE
  5
B35
  8
0
  6
CONTINUOUS
 62
     7
 10
-360.82715000000002
 20
140.34796
 30
0.0
 11
-360.82715000000002
 21
130.34795999999969
 31
0.0
  0
LINE
  5
B36
  8
0
  6
CENTER
 62
     7
 10
-199.26743999999999
 20
76.361457999999999
 30
0.0
 11
-211.2085099999999
 21
64.420387000000005
 31
0.0
  0
LINE
  5
B37
  8
0
  6
CONTINUOUS
 62
     7
 10
-169.7602999999998
 20
151.9988899999999
 30
0.0
 11
-191.10236
 21
173.34093999999999
 31
0.0
  0
LINE
  5
B38
  8
0
  6
CONTINUOUS
 62
     7
 10
-360.82715000000002
 20
120.34797999999969
 30
0.0
 11
-360.82715000000002
 21
130.34795999999969
 31
0.0
  0
LINE
  5
B39
  8
0
  6
CONTINUOUS
 62
     7
 10
-422.82709
 20
155.95481999999981
 30
0.0
 11
-392.6311
 21
155.95481999999981
 31
0.0
  0
LINE
  5
B3A
  8
0
  6
CONTINUOUS
 62
     7
 10
-174.97943000000001
 20
97.821053000000006
 30
0.0
 11
-151.12765999999991
 21
73.969275999999965
 31
0.0
  0
LINE
  5
B3B
  8
0
  6
CENTER
 62
     7
 10
-434.17650999999989
 20
130.34795999999969
 30
0.0
 11
-331.09359999999992
 21
130.34795999999969
 31
0.0
  0
LINE
  5
B3C
  8
0
  6
CONTINUOUS
 62
     7
 10
-360.82715000000002
 20
120.8479699999999
 30
0.0
 11
-332.82711999999992
 21
120.8479699999999
 31
0.0
  0
LINE
  5
B3D
  8
0
  6
CONTINUOUS
 62
     7
 10
-360.82715000000002
 20
139.84798000000001
 30
0.0
 11
-332.82711999999992
 21
139.84798000000001
 31
0.0
  0
LINE
  5
B3E
  8
0
  6
CONTINUOUS
 62
     7
 10
-332.82711999999992
 20
120.8479699999999
 30
0.0
 11
-332.82711999999992
 21
142.34796
 31
0.0
  0
LINE
  5
B3F
  8
0
  6
CONTINUOUS
 62
     7
 10
-142.28093999999999
 20
142.34796
 30
0.0
 11
-148.28093999999979
 21
142.34796
 31
0.0
  0
LINE
  5
B40
  8
0
  6
CONTINUOUS
 62
     7
 10
-142.28093999999999
 20
136.34796
 30
0.0
 11
-142.28093999999999
 21
142.34796
 31
0.0
  0
LINE
  5
B41
  8
0
  6
CONTINUOUS
 62
     7
 10
-148.28093999999979
 20
136.34796
 30
0.0
 11
-142.28093999999999
 21
136.34796
 31
0.0
  0
LINE
  5
B42
  8
0
  6
CONTINUOUS
 62
     7
 10
-148.28093999999979
 20
142.34796
 30
0.0
 11
-148.28093999999979
 21
136.34796
 31
0.0
  0
LINE
  5
B43
  8
0
  6
CONTINUOUS
 62
     7
 10
-452.8725
 20
47.747272000000002
 30
0.0
 11
-422.82711999999998
 21
48.534038999999993
 31
0.0
  0
LINE
  5
B44
  8
0
  6
CONTINUOUS
 62
     7
 10
-460.32709
 20
164.8479599999998
 30
0.0
 11
-454.32709
 21
164.8479599999998
 31
0.0
  0
LINE
  5
B45
  8
0
  6
CONTINUOUS
 62
     7
 10
-422.82709
 20
48.534050000000001
 30
0.0
 11
-422.82709
 21
173.34796
 31
0.0
  0
LINE
  5
B46
  8
0
  6
CONTINUOUS
 62
     7
 10
-460.32709
 20
75.351654000000025
 30
0.0
 11
-454.32709
 21
75.351654000000025
 31
0.0
  0
LINE
  5
B47
  8
0
  6
CONTINUOUS
 62
     7
 10
-454.35329999999999
 20
174.17350999999991
 30
0.0
 11
-422.82711999999998
 21
173.34798000000001
 31
0.0
  0
LINE
  5
B48
  8
0
  6
CONTINUOUS
 62
     7
 10
-460.32709
 20
151.34426999999971
 30
0.0
 11
-454.32709
 21
151.34426999999971
 31
0.0
  0
LINE
  5
B49
  8
0
  6
CONTINUOUS
 62
     7
 10
-460.32711999999998
 20
49.847954000000001
 30
0.0
 11
-455.36777000000001
 21
49.977820999999999
 31
0.0
  0
LINE
  5
B4A
  8
0
  6
CONTINUOUS
 62
     7
 10
-455.32709
 20
50.95304500000001
 30
0.0
 11
-455.32709
 21
61.847957999999991
 31
0.0
  0
LINE
  5
B4B
  8
0
  6
CONTINUOUS
 62
     7
 10
-454.35327000000001
 20
52.522387999999999
 30
0.0
 11
-422.82709
 21
53.347931000000003
 31
0.0
  0
LINE
  5
B4C
  8
0
  6
CONTINUOUS
 62
     7
 10
-452.32709
 20
153.34426999999991
 30
0.0
 11
-452.32709
 21
162.84796
 31
0.0
  0
LINE
  5
B4D
  8
0
  6
CONTINUOUS
 62
     7
 10
-460.32709
 20
61.847957999999991
 30
0.0
 11
-454.32709
 21
61.847957999999991
 31
0.0
  0
LINE
  5
B4E
  8
0
  6
CONTINUOUS
 62
     7
 10
-455.32709
 20
164.8479599999998
 30
0.0
 11
-455.32709
 21
175.7428699999999
 31
0.0
  0
LINE
  5
B4F
  8
0
  6
CONTINUOUS
 62
     7
 10
-452.32709
 20
63.847960999999991
 30
0.0
 11
-452.32709
 21
73.351662000000005
 31
0.0
  0
LINE
  5
B50
  8
0
  6
CONTINUOUS
 62
     7
 10
-455.32709
 20
75.351654000000025
 30
0.0
 11
-455.32709
 21
151.34426999999971
 31
0.0
  0
LINE
  5
B51
  8
0
  6
CONTINUOUS
 62
     7
 10
-460.32711999999998
 20
176.84796
 30
0.0
 11
-456.30095999999992
 21
176.7425199999999
 31
0.0
  0
LINE
  5
B52
  8
0
  6
CONTINUOUS
 62
     7
 10
-95.299667000000014
 20
145.92641999999981
 30
0.0
 11
-90.299667000000014
 21
148.81316999999979
 31
0.0
  0
LINE
  5
B53
  8
0
  6
CONTINUOUS
 62
     7
 10
-164.38997999999981
 20
58.030281000000002
 30
0.0
 11
-169.38998000000001
 21
60.917029999999983
 31
0.0
  0
LINE
  5
B54
  8
0
  6
CONTINUOUS
 62
     7
 10
-100.29968
 20
154.58669
 30
0.0
 11
-100.29968
 21
148.81318999999991
 31
0.0
  0
LINE
  5
B55
  8
0
  6
CONTINUOUS
 62
     7
 10
-121.17188
 20
49.370041000000001
 30
0.0
 11
-116.17188
 21
52.256793999999999
 31
0.0
  0
LINE
  5
B56
  8
0
  6
CONTINUOUS
 62
     7
 10
-169.38998000000001
 20
49.370052000000001
 30
0.0
 11
-164.3899999999999
 21
52.256802
 31
0.0
  0
LINE
  5
B57
  8
0
  6
CONTINUOUS
 62
     7
 10
-126.17186
 20
52.25677499999999
 30
0.0
 11
-121.17186
 21
49.370026000000003
 31
0.0
  0
LINE
  5
B58
  8
0
  6
CONTINUOUS
 62
     7
 10
-169.38998000000001
 20
60.917037999999998
 30
0.0
 11
-174.38998000000001
 21
58.03028900000001
 31
0.0
  0
LINE
  5
B59
  8
0
  6
CONTINUOUS
 62
     7
 10
-90.299674999999993
 20
148.81318999999991
 30
0.0
 11
-90.299674999999993
 21
154.58669
 31
0.0
  0
LINE
  5
B5A
  8
0
  6
CONTINUOUS
 62
     7
 10
-164.3900099999999
 20
52.256790000000002
 30
0.0
 11
-164.3900099999999
 21
58.030312000000002
 31
0.0
  0
LINE
  5
B5B
  8
0
  6
CONTINUOUS
 62
     7
 10
-237.29082
 20
83.347960999999998
 30
0.0
 11
-237.29082
 21
79.847968999999978
 31
0.0
  0
LINE
  5
B5C
  8
0
  6
CONTINUOUS
 62
     7
 10
-242.29082
 20
136.34796
 30
0.0
 11
-245.29082
 21
131.15795999999969
 31
0.0
  0
LINE
  5
B5D
  8
0
  6
CONTINUOUS
 62
     7
 10
-223.79082
 20
144.84795999999969
 30
0.0
 11
-220.2907999999999
 21
144.84795999999969
 31
0.0
  0
LINE
  5
B5E
  8
0
  6
CONTINUOUS
 62
     7
 10
-242.29082
 20
83.347960999999998
 30
0.0
 11
-223.79082
 21
83.347960999999998
 31
0.0
  0
LINE
  5
B5F
  8
0
  6
CONTINUOUS
 62
     7
 10
-223.79082
 20
81.847960999999984
 30
0.0
 11
-223.79082
 21
144.84795999999969
 31
0.0
  0
LINE
  5
B60
  8
0
  6
CONTINUOUS
 62
     7
 10
-237.29082
 20
143.34796
 30
0.0
 11
-237.29082
 21
146.84796
 31
0.0
  0
LINE
  5
B61
  8
0
  6
CONTINUOUS
 62
     7
 10
-570.32708999999966
 20
66.997955000000005
 30
0.0
 11
-605.32709
 21
69.027962000000002
 31
0.0
  0
LINE
  5
B62
  8
0
  6
CONTINUOUS
 62
     7
 10
-570.32703000000004
 20
159.69797
 30
0.0
 11
-605.32709
 21
157.66796999999991
 31
0.0
  0
LINE
  5
B63
  8
0
  6
CONTINUOUS
 62
     7
 10
-454.47561999999999
 20
49.478172000000001
 30
0.0
 11
-453.76473999999979
 21
48.246924999999997
 31
0.0
  0
LINE
  5
B64
  8
0
  6
CONTINUOUS
 62
     3
 10
-618.04711999999995
 20
65.707969999999975
 30
0.0
 11
-615.32708999999977
 21
65.707969999999975
 31
0.0
  0
LINE
  5
B65
  8
0
  6
CONTINUOUS
 62
     3
 10
-618.55713000000003
 20
63.737999000000002
 30
0.0
 11
-619.82708999999977
 21
64.467995000000002
 31
0.0
  0
LINE
  5
B66
  8
0
  6
CONTINUOUS
 62
     3
 10
-615.32708999999977
 20
55.917946000000001
 30
0.0
 11
-612.50707999999975
 21
55.847945999999993
 31
0.0
  0
LINE
  5
B67
  8
0
  6
CONTINUOUS
 62
     3
 10
-618.57709
 20
70.387969999999996
 30
0.0
 11
-619.87700999999981
 21
71.237938
 31
0.0
  0
LINE
  5
B68
  8
0
  6
CONTINUOUS
 62
     3
 10
-618.56708000000003
 20
65.847954000000001
 30
0.0
 11
-619.84710999999982
 21
66.61796600000001
 31
0.0
  0
LINE
  5
B69
  8
0
  6
CONTINUOUS
 62
     3
 10
-618.05713000000003
 20
63.597954000000001
 30
0.0
 11
-615.82708999999966
 21
63.597954000000001
 31
0.0
  0
LINE
  5
B6A
  8
0
  6
CONTINUOUS
 62
     3
 10
-618.08709999999985
 20
64.747970999999993
 30
0.0
 11
-615.82708999999966
 21
64.747970999999993
 31
0.0
  0
LINE
  5
B6B
  8
0
  6
CONTINUOUS
 62
     3
 10
-618.53710999999998
 20
64.857963999999996
 30
0.0
 11
-619.77710000000002
 21
65.487960999999999
 31
0.0
  0
LINE
  5
B6C
  8
0
  6
CONTINUOUS
 62
     3
 10
-618.05713000000003
 20
71.367966000000024
 30
0.0
 11
-616.32709
 21
71.367966000000024
 31
0.0
  0
LINE
  5
B6D
  8
0
  6
CONTINUOUS
 62
     3
 10
-618.02710000000002
 20
70.227951000000004
 30
0.0
 11
-615.32708999999977
 21
70.227951000000004
 31
0.0
  0
LINE
  5
B6E
  8
0
  6
CONTINUOUS
 62
     3
 10
-618.07708999999966
 20
66.847960999999984
 30
0.0
 11
-616.32709
 21
66.847960999999984
 31
0.0
  0
LINE
  5
B6F
  8
0
  6
CONTINUOUS
 62
     3
 10
-618.55713000000003
 20
71.497970999999978
 30
0.0
 11
-619.83709999999985
 21
72.247962999999999
 31
0.0
  0
LINE
  5
B70
  8
0
  6
CONTINUOUS
 62
     3
 10
-467.32709
 20
49.847968999999999
 30
0.0
 11
-460.32709
 21
49.847968999999999
 31
0.0
  0
LINE
  5
B71
  8
0
  6
CONTINUOUS
 62
     3
 10
-467.32709
 20
61.307968000000002
 30
0.0
 11
-460.32709
 21
61.307968000000002
 31
0.0
  0
LINE
  5
B72
  8
0
  6
CONTINUOUS
 62
     3
 10
-570.32708999999966
 20
66.997970999999993
 30
0.0
 11
-468.32711999999998
 21
66.997970999999993
 31
0.0
  0
LINE
  5
B73
  8
0
  6
CONTINUOUS
 62
     7
 10
-460.32709
 20
176.84796
 30
0.0
 11
-460.32709
 21
49.847900000000003
 31
0.0
  0
LINE
  5
B74
  8
0
  6
CONTINUOUS
 62
     3
 10
-468.61709999999988
 20
62.317954999999998
 30
0.0
 11
-471.02710000000002
 21
62.317954999999998
 31
0.0
  0
LINE
  5
B75
  8
0
  6
CONTINUOUS
 62
     3
 10
-471.52713
 20
54.427956000000009
 30
0.0
 11
-470.08713
 21
61.127963999999999
 31
0.0
  0
LINE
  5
B76
  8
0
  6
CONTINUOUS
 62
     3
 10
-473.61707000000001
 20
52.847968999999992
 30
0.0
 11
-468.32711999999998
 21
52.847968999999992
 31
0.0
  0
LINE
  5
B77
  8
0
  6
CONTINUOUS
 62
     3
 10
-566.32708999999954
 20
83.347960999999998
 30
0.0
 11
-478.55707000000001
 21
83.347960999999998
 31
0.0
  0
LINE
  5
B78
  8
0
  6
CONTINUOUS
 62
     3
 10
-610.64709000000005
 20
79.977951000000004
 30
0.0
 11
-562.32709
 21
79.977951000000004
 31
0.0
  0
LINE
  5
B79
  8
0
  6
CONTINUOUS
 62
     3
 10
-519.32708999999988
 20
77.347960999999998
 30
0.0
 11
-609.77710000000002
 21
77.347960999999998
 31
0.0
  0
LINE
  5
B7A
  8
0
  6
CONTINUOUS
 62
     3
 10
-519.32708999999988
 20
76.627968000000024
 30
0.0
 11
-471.50710999999961
 21
76.627968000000024
 31
0.0
  0
LINE
  5
B7B
  8
0
  6
CONTINUOUS
 62
     3
 10
-610.64709000000005
 20
76.627968000000024
 30
0.0
 11
-519.32708999999988
 21
76.627968000000024
 31
0.0
  0
LINE
  5
B7C
  8
0
  6
CONTINUOUS
 62
     3
 10
-615.32708999999977
 20
79.04795799999998
 30
0.0
 11
-612.15710000000001
 21
79.04795799999998
 31
0.0
  0
LINE
  5
B7D
  8
0
  6
CONTINUOUS
 62
     3
 10
-609.15710000000001
 20
55.087967000000013
 30
0.0
 11
-595.82709
 21
55.087967000000013
 31
0.0
  0
LINE
  5
B7E
  8
0
  6
CONTINUOUS
 62
     3
 10
-592.32709
 20
51.48795299999999
 30
0.0
 11
-475.51711999999992
 21
51.48795299999999
 31
0.0
  0
LINE
  5
B7F
  8
0
  6
CONTINUOUS
 62
     3
 10
-609.21709999999985
 20
50.047965999999981
 30
0.0
 11
-595.71709999999985
 21
50.047965999999981
 31
0.0
  0
LINE
  5
B80
  8
0
  6
CONTINUOUS
 62
     3
 10
-609.09710999999982
 20
60.36795
 30
0.0
 11
-595.82709
 21
60.36795
 31
0.0
  0
LINE
  5
B81
  8
0
  6
CONTINUOUS
 62
     3
 10
-611.60712000000001
 20
64.997962999999984
 30
0.0
 11
-611.06708000000003
 21
62.007945999999997
 31
0.0
  0
LINE
  5
B82
  8
0
  6
CONTINUOUS
 62
     3
 10
-618.32709
 20
70.517966999999999
 30
0.0
 11
-618.32709
 21
70.987953000000019
 31
0.0
  0
LINE
  5
B83
  8
0
  6
CONTINUOUS
 62
     3
 10
-615.32708999999977
 20
64.997955000000005
 30
0.0
 11
-605.32709
 21
64.997955000000005
 31
0.0
  0
LINE
  5
B84
  8
0
  6
CONTINUOUS
 62
     3
 10
-618.32709
 20
65.947952000000001
 30
0.0
 11
-618.32709
 21
66.497955000000005
 31
0.0
  0
LINE
  5
B85
  8
0
  6
CONTINUOUS
 62
     3
 10
-618.54712000000018
 20
66.967972000000003
 30
0.0
 11
-619.79711999999995
 21
67.627953000000005
 31
0.0
  0
LINE
  5
B86
  8
0
  6
CONTINUOUS
 62
     3
 10
-605.32709
 20
64.997955000000005
 30
0.0
 11
-605.32709
 21
79.04795799999998
 31
0.0
  0
LINE
  5
B87
  8
0
  6
CONTINUOUS
 62
     3
 10
-618.32709
 20
63.847960999999991
 30
0.0
 11
-618.32709
 21
64.377960000000002
 31
0.0
  0
LINE
  5
B88
  8
0
  6
CONTINUOUS
 62
     3
 10
-473.58710000000002
 20
52.967959999999998
 30
0.0
 11
-470.12710999999962
 21
65.887955000000005
 31
0.0
  0
LINE
  5
B89
  8
0
  6
CONTINUOUS
 62
     3
 10
-611.15710000000001
 20
51.557963999999991
 30
0.0
 11
-612.04711999999995
 21
55.097960999999991
 31
0.0
  0
LINE
  5
B8A
  8
0
  6
CONTINUOUS
 62
     3
 10
-611.13715000000002
 20
53.217956999999998
 30
0.0
 11
-612.05713000000003
 21
57.097954000000001
 31
0.0
  0
LINE
  5
B8B
  8
0
  6
CONTINUOUS
 62
     3
 10
-537.32709
 20
49.437950000000001
 30
0.0
 11
-537.32709
 21
51.48795299999999
 31
0.0
  0
LINE
  5
B8C
  8
0
  6
CONTINUOUS
 62
     3
 10
-594.32708999999988
 20
51.457970000000003
 30
0.0
 11
-594.32708999999988
 21
58.86795
 31
0.0
  0
LINE
  5
B8D
  8
0
  6
CONTINUOUS
 62
     3
 10
-613.49712999999997
 20
56.227958999999991
 30
0.0
 11
-611.84710999999982
 21
56.227958999999991
 31
0.0
  0
LINE
  5
B8E
  8
0
  6
CENTER
 62
     7
 10
-519.32708999999988
 20
151.94796999999991
 30
0.0
 11
-519.32708999999988
 21
70.697959999999995
 31
0.0
  0
LINE
  5
B8F
  8
0
  6
CONTINUOUS
 62
     7
 10
-487.82711999999992
 20
81.847960999999984
 30
0.0
 11
-487.82711999999992
 21
144.84795999999969
 31
0.0
  0
LINE
  5
B90
  8
0
  6
CONTINUOUS
 62
     3
 10
-570.32708999999966
 20
159.69794999999991
 30
0.0
 11
-468.32711999999998
 21
159.69794999999991
 31
0.0
  0
LINE
  5
B91
  8
0
  6
CONTINUOUS
 62
     3
 10
-468.32711999999998
 20
175.84798000000001
 30
0.0
 11
-468.32711999999998
 21
50.847954000000001
 31
0.0
  0
LINE
  5
B92
  8
0
  6
CONTINUOUS
 62
     3
 10
-488.05709999999988
 20
83.077956999999984
 30
0.0
 11
-478.55709999999999
 21
83.347954000000001
 31
0.0
  0
LINE
  5
B93
  8
0
  6
CONTINUOUS
 62
     3
 10
-467.32709
 20
176.84796
 30
0.0
 11
-460.32709
 21
176.84796
 31
0.0
  0
LINE
  5
B94
  8
0
  6
CONTINUOUS
 62
     7
 10
-536.34710999999993
 20
136.34796
 30
0.0
 11
-496.32709
 21
136.34796
 31
0.0
  0
LINE
  5
B95
  8
0
  6
CONTINUOUS
 62
     3
 10
-468.32711999999998
 20
150.49796000000001
 30
0.0
 11
-460.32709
 21
150.49796000000001
 31
0.0
  0
LINE
  5
B96
  8
0
  6
CONTINUOUS
 62
     3
 10
-467.32709
 20
165.3879499999999
 30
0.0
 11
-460.32709
 21
165.3879499999999
 31
0.0
  0
LINE
  5
B97
  8
0
  6
CONTINUOUS
 62
     3
 10
-468.32711999999998
 20
76.197968000000003
 30
0.0
 11
-460.32709
 21
76.197968000000003
 31
0.0
  0
LINE
  5
B98
  8
0
  6
CONTINUOUS
 62
     3
 10
-478.55707000000001
 20
143.34796
 30
0.0
 11
-478.55707000000001
 21
83.347960999999998
 31
0.0
  0
LINE
  5
B99
  8
0
  6
CONTINUOUS
 62
     3
 10
-615.32714999999985
 20
170.77795
 30
0.0
 11
-612.50714000000016
 21
170.84794999999991
 31
0.0
  0
LINE
  5
B9A
  8
0
  6
CONTINUOUS
 62
     3
 10
-615.32708999999977
 20
170.77796999999981
 30
0.0
 11
-615.32708999999977
 21
113.34796999999971
 31
0.0
  0
LINE
  5
B9B
  8
0
  6
CONTINUOUS
 62
     3
 10
-620.32708999999966
 20
161.36796999999979
 30
0.0
 11
-620.32708999999966
 21
118.34796
 31
0.0
  0
LINE
  5
B9C
  8
0
  6
CONTINUOUS
 62
     3
 10
-618.05713000000003
 20
163.09798000000001
 30
0.0
 11
-615.82708999999966
 21
163.09798000000001
 31
0.0
  0
LINE
  5
B9D
  8
0
  6
CONTINUOUS
 62
     3
 10
-474.98712
 20
77.347960999999998
 30
0.0
 11
-519.32708999999988
 21
77.347960999999998
 31
0.0
  0
LINE
  5
B9E
  8
0
  6
CONTINUOUS
 62
     3
 10
-618.12714000000005
 20
149.03795999999991
 30
0.0
 11
-616.02710000000002
 21
149.03795999999991
 31
0.0
  0
LINE
  5
B9F
  8
0
  6
CONTINUOUS
 62
     3
 10
-618.55700999999965
 20
162.96796000000001
 30
0.0
 11
-619.82703000000004
 21
162.22794999999991
 31
0.0
  0
LINE
  5
BA0
  8
0
  6
CONTINUOUS
 62
     3
 10
-618.56713999999999
 20
160.84792999999991
 30
0.0
 11
-619.84704999999985
 21
160.0779599999999
 31
0.0
  0
LINE
  5
BA1
  8
0
  6
CONTINUOUS
 62
     3
 10
-618.57709
 20
156.30794
 30
0.0
 11
-619.87707999999998
 21
155.45795000000001
 31
0.0
  0
LINE
  5
BA2
  8
0
  6
CONTINUOUS
 62
     3
 10
-618.51709000000005
 20
148.95797999999999
 30
0.0
 11
-619.71709999999985
 21
148.44797
 31
0.0
  0
LINE
  5
BA3
  8
0
  6
CONTINUOUS
 62
     3
 10
-618.04711999999995
 20
160.98795999999999
 30
0.0
 11
-615.32708999999977
 21
160.98795999999999
 31
0.0
  0
LINE
  5
BA4
  8
0
  6
CONTINUOUS
 62
     3
 10
-618.02710000000002
 20
156.47798
 30
0.0
 11
-615.32708999999977
 21
156.47798
 31
0.0
  0
LINE
  5
BA5
  8
0
  6
CONTINUOUS
 62
     3
 10
-618.17711999999995
 20
147.0879699999999
 30
0.0
 11
-616.32709
 21
147.0879699999999
 31
0.0
  0
LINE
  5
BA6
  8
0
  6
CONTINUOUS
 62
     3
 10
-618.05713000000003
 20
155.33796999999981
 30
0.0
 11
-616.32709
 21
155.33796999999981
 31
0.0
  0
LINE
  5
BA7
  8
0
  6
CONTINUOUS
 62
     3
 10
-618.07708999999966
 20
159.84796
 30
0.0
 11
-616.32709
 21
159.84796
 31
0.0
  0
LINE
  5
BA8
  8
0
  6
CONTINUOUS
 62
     3
 10
-618.08709999999985
 20
161.94794999999991
 30
0.0
 11
-615.82708999999966
 21
161.94794999999991
 31
0.0
  0
LINE
  5
BA9
  8
0
  6
CONTINUOUS
 62
     3
 10
-618.55713000000003
 20
155.19793999999999
 30
0.0
 11
-619.83709999999985
 21
154.4479399999999
 31
0.0
  0
LINE
  5
BAA
  8
0
  6
CONTINUOUS
 62
     3
 10
-618.46709999999985
 20
147.0479599999999
 30
0.0
 11
-619.61707000000001
 21
146.69794999999979
 31
0.0
  0
LINE
  5
BAB
  8
0
  6
CONTINUOUS
 62
     3
 10
-618.53705000000002
 20
161.84792999999991
 30
0.0
 11
-619.77704000000017
 21
161.21793
 31
0.0
  0
LINE
  5
BAC
  8
0
  6
CONTINUOUS
 62
     3
 10
-618.54712000000018
 20
159.73797999999979
 30
0.0
 11
-619.79711999999995
 21
159.06796
 31
0.0
  0
LINE
  5
BAD
  8
0
  6
CONTINUOUS
 62
     3
 10
-616.32709
 20
139.34796
 30
0.0
 11
-619.32708999999988
 21
139.34796
 31
0.0
  0
LINE
  5
BAE
  8
0
  6
CONTINUOUS
 62
     3
 10
-616.32709
 20
137.34796
 30
0.0
 11
-619.32708999999988
 21
137.34796
 31
0.0
  0
LINE
  5
BAF
  8
0
  6
CONTINUOUS
 62
     3
 10
-616.32709
 20
129.34798000000001
 30
0.0
 11
-619.32708999999988
 21
129.34798000000001
 31
0.0
  0
LINE
  5
BB0
  8
0
  6
CONTINUOUS
 62
     3
 10
-616.32709
 20
127.34796
 30
0.0
 11
-619.32708999999988
 21
127.34796
 31
0.0
  0
LINE
  5
BB1
  8
0
  6
CONTINUOUS
 62
     3
 10
-616.32709
 20
119.3479699999999
 30
0.0
 11
-619.32708999999988
 21
119.3479699999999
 31
0.0
  0
LINE
  5
BB2
  8
0
  6
CONTINUOUS
 62
     3
 10
-616.32709
 20
117.34798000000001
 30
0.0
 11
-619.32708999999988
 21
117.34798000000001
 31
0.0
  0
LINE
  5
BB3
  8
0
  6
CONTINUOUS
 62
     3
 10
-618.32709
 20
128.95796000000001
 30
0.0
 11
-618.32709
 21
127.74798
 31
0.0
  0
LINE
  5
BB4
  8
0
  6
CONTINUOUS
 62
     3
 10
-618.32709
 20
118.95798000000001
 30
0.0
 11
-618.32709
 21
117.79796
 31
0.0
  0
LINE
  5
BB5
  8
0
  6
CONTINUOUS
 62
     3
 10
-618.32709
 20
138.97797
 30
0.0
 11
-618.32709
 21
137.60796999999999
 31
0.0
  0
LINE
  5
BB6
  8
0
  6
CONTINUOUS
 62
     3
 10
-618.32709
 20
148.73797999999999
 30
0.0
 11
-618.32709
 21
147.67797999999991
 31
0.0
  0
LINE
  5
BB7
  8
0
  6
CONTINUOUS
 62
     3
 10
-618.32709
 20
156.17796000000001
 30
0.0
 11
-618.32709
 21
155.70797999999991
 31
0.0
  0
LINE
  5
BB8
  8
0
  6
CONTINUOUS
 62
     3
 10
-618.32709
 20
160.74797000000001
 30
0.0
 11
-618.32709
 21
160.19797
 31
0.0
  0
LINE
  5
BB9
  8
0
  6
CONTINUOUS
 62
     3
 10
-618.32709
 20
162.84796
 30
0.0
 11
-618.32709
 21
162.31796
 31
0.0
  0
LINE
  5
BBA
  8
0
  6
CONTINUOUS
 62
     3
 10
-621.82709
 20
133.34795999999969
 30
0.0
 11
-621.82709
 21
113.34796999999971
 31
0.0
  0
LINE
  5
BBB
  8
0
  6
CONTINUOUS
 62
     3
 10
-621.82709
 20
133.34794999999991
 30
0.0
 11
-620.32708999999966
 21
133.47794999999999
 31
0.0
  0
LINE
  5
BBC
  8
0
  6
CONTINUOUS
 62
     3
 10
-621.82709
 20
130.62798000000001
 30
0.0
 11
-620.32708999999966
 21
130.62798000000001
 31
0.0
  0
LINE
  5
BBD
  8
0
  6
CONTINUOUS
 62
     7
 10
-542.32709
 20
90.347977
 30
0.0
 11
-502.30709999999988
 21
90.347977
 31
0.0
  0
LINE
  5
BBE
  8
0
  6
CONTINUOUS
 62
     7
 10
-567.82709
 20
144.84795999999969
 30
0.0
 11
-562.32709
 21
144.84795999999969
 31
0.0
  0
LINE
  5
BBF
  8
0
  6
CONTINUOUS
 62
     7
 10
-567.82709
 20
81.847960999999984
 30
0.0
 11
-567.82709
 21
105.8479699999999
 31
0.0
  0
LINE
  5
BC0
  8
0
  6
CONTINUOUS
 62
     7
 10
-541.82709
 20
133.78795999999991
 30
0.0
 11
-541.82709
 21
137.8079699999997
 31
0.0
  0
LINE
  5
BC1
  8
0
  6
CONTINUOUS
 62
     7
 10
-567.82709
 20
81.847960999999984
 30
0.0
 11
-562.32709
 21
81.847960999999984
 31
0.0
  0
LINE
  5
BC2
  8
0
  6
CONTINUOUS
 62
     7
 10
-496.82711999999998
 20
88.787964000000002
 30
0.0
 11
-496.82711999999998
 21
92.817977999999997
 31
0.0
  0
LINE
  5
BC3
  8
0
  6
CONTINUOUS
 62
     3
 10
-605.32709
 20
161.69796999999991
 30
0.0
 11
-605.32709
 21
147.65797000000001
 31
0.0
  0
LINE
  5
BC4
  8
0
  6
CONTINUOUS
 62
     3
 10
-615.32708999999977
 20
147.65797000000001
 30
0.0
 11
-605.32709
 21
147.65797000000001
 31
0.0
  0
LINE
  5
BC5
  8
0
  6
CONTINUOUS
 62
     3
 10
-615.32708999999977
 20
156.03797999999969
 30
0.0
 11
-605.32709
 21
156.03797999999969
 31
0.0
  0
LINE
  5
BC6
  8
0
  6
CONTINUOUS
 62
     3
 10
-615.32708999999977
 20
161.69796999999991
 30
0.0
 11
-605.32709
 21
161.69796999999991
 31
0.0
  0
LINE
  5
BC7
  8
0
  6
CONTINUOUS
 62
     7
 10
-496.32709
 20
96.327972000000003
 30
0.0
 11
-496.32709
 21
136.34796
 31
0.0
  0
LINE
  5
BC8
  8
0
  6
CONTINUOUS
 62
     7
 10
-547.32709
 20
79.847968999999978
 30
0.0
 11
-547.32709
 21
83.347960999999998
 31
0.0
  0
LINE
  5
BC9
  8
0
  6
CONTINUOUS
 62
     7
 10
-498.95708999999999
 20
90.847968999999964
 30
0.0
 11
-494.74707000000001
 21
90.847968999999964
 31
0.0
  0
LINE
  5
BCA
  8
0
  6
CONTINUOUS
 62
     7
 10
-537.12714000000005
 20
131.14796000000001
 30
0.0
 11
-501.52710000000002
 21
131.14796000000001
 31
0.0
  0
LINE
  5
BCB
  8
0
  6
CONTINUOUS
 62
     7
 10
-537.12714000000005
 20
95.547966000000017
 30
0.0
 11
-501.52710000000002
 21
95.547966000000017
 31
0.0
  0
LINE
  5
BCC
  8
0
  6
CONTINUOUS
 62
     7
 10
-501.52710000000002
 20
95.547966000000017
 30
0.0
 11
-501.52710000000002
 21
131.14796000000001
 31
0.0
  0
LINE
  5
BCD
  8
0
  6
CONTINUOUS
 62
     7
 10
-537.12714000000005
 20
95.547966000000017
 30
0.0
 11
-537.12714000000005
 21
131.14796000000001
 31
0.0
  0
LINE
  5
BCE
  8
0
  6
CONTINUOUS
 62
     7
 10
-566.32708999999954
 20
143.34796
 30
0.0
 11
-478.55707000000001
 21
143.34796
 31
0.0
  0
LINE
  5
BCF
  8
0
  6
CONTINUOUS
 62
     7
 10
-547.32709
 20
144.84795999999969
 30
0.0
 11
-487.82711999999992
 21
144.84795999999969
 31
0.0
  0
LINE
  5
BD0
  8
0
  6
CONTINUOUS
 62
     7
 10
-547.32709
 20
81.847960999999984
 30
0.0
 11
-487.82711999999992
 21
81.847960999999984
 31
0.0
  0
LINE
  5
BD1
  8
0
  6
CONTINUOUS
 62
     7
 10
-489.32711999999998
 20
83.347960999999998
 30
0.0
 11
-489.32711999999998
 21
143.34796
 31
0.0
  0
LINE
  5
BD2
  8
0
  6
CONTINUOUS
 62
     7
 10
-566.32708999999954
 20
83.347960999999998
 30
0.0
 11
-566.32708999999954
 21
143.34796
 31
0.0
  0
LINE
  5
BD3
  8
0
  6
CONTINUOUS
 62
     3
 10
-567.82709
 20
99.347977
 30
0.0
 11
-609.77710000000002
 21
99.347977
 31
0.0
  0
LINE
  5
BD4
  8
0
  6
CONTINUOUS
 62
     7
 10
-562.32709
 20
146.84796
 30
0.0
 11
-562.32709
 21
143.34796
 31
0.0
  0
LINE
  5
BD5
  8
0
  6
CONTINUOUS
 62
     7
 10
-569.82708999999977
 20
120.8479699999999
 30
0.0
 11
-566.32708999999954
 21
120.8479699999999
 31
0.0
  0
LINE
  5
BD6
  8
0
  6
CONTINUOUS
 62
     7
 10
-569.82708999999977
 20
105.8479699999999
 30
0.0
 11
-569.82708999999977
 21
120.8479699999999
 31
0.0
  0
LINE
  5
BD7
  8
0
  6
CONTINUOUS
 62
     7
 10
-569.82708999999977
 20
105.8479699999999
 30
0.0
 11
-566.32708999999954
 21
105.8479699999999
 31
0.0
  0
LINE
  5
BD8
  8
0
  6
CONTINUOUS
 62
     7
 10
-562.32709
 20
79.847968999999978
 30
0.0
 11
-562.32709
 21
83.347960999999998
 31
0.0
  0
LINE
  5
BD9
  8
0
  6
CONTINUOUS
 62
     3
 10
-592.32709
 20
175.20797999999991
 30
0.0
 11
-475.51711999999992
 21
175.20797999999991
 31
0.0
  0
LINE
  5
BDA
  8
0
  6
CONTINUOUS
 62
     3
 10
-609.09710999999982
 20
166.32796999999991
 30
0.0
 11
-595.82709
 21
166.32796999999991
 31
0.0
  0
LINE
  5
BDB
  8
0
  6
CONTINUOUS
 62
     3
 10
-611.60705999999982
 20
161.69796999999991
 30
0.0
 11
-611.06708000000003
 21
164.68796
 31
0.0
  0
LINE
  5
BDC
  8
0
  6
CONTINUOUS
 62
     3
 10
-609.15710000000001
 20
171.61796999999979
 30
0.0
 11
-595.82709
 21
171.61796999999979
 31
0.0
  0
LINE
  5
BDD
  8
0
  6
CONTINUOUS
 62
     7
 10
-547.32709
 20
79.847968999999978
 30
0.0
 11
-562.32709
 21
79.847968999999978
 31
0.0
  0
LINE
  5
BDE
  8
0
  6
CONTINUOUS
 62
     3
 10
-609.18707000000018
 20
175.0179599999999
 30
0.0
 11
-595.82709
 21
175.0179599999999
 31
0.0
  0
LINE
  5
BDF
  8
0
  6
CONTINUOUS
 62
     3
 10
-609.21709999999985
 20
176.64796000000001
 30
0.0
 11
-595.71709999999985
 21
176.64796000000001
 31
0.0
  0
LINE
  5
BE0
  8
0
  6
CONTINUOUS
 62
     3
 10
-592.32709
 20
179.26796999999991
 30
0.0
 11
-539.32709
 21
179.26796999999991
 31
0.0
  0
LINE
  5
BE1
  8
0
  6
CONTINUOUS
 62
     3
 10
-592.32709
 20
178.5879699999999
 30
0.0
 11
-539.32709
 21
178.5879699999999
 31
0.0
  0
LINE
  5
BE2
  8
0
  6
CONTINUOUS
 62
     3
 10
-592.32709
 20
177.23797999999991
 30
0.0
 11
-539.32709
 21
177.23797999999991
 31
0.0
  0
LINE
  5
BE3
  8
0
  6
CONTINUOUS
 62
     3
 10
-613.53710999999998
 20
164.38797
 30
0.0
 11
-611.12707999999975
 21
164.38797
 31
0.0
  0
LINE
  5
BE4
  8
0
  6
CONTINUOUS
 62
     3
 10
-611.11712999999975
 20
170.03798
 30
0.0
 11
-612.07714999999996
 21
165.56798000000001
 31
0.0
  0
LINE
  5
BE5
  8
0
  6
CONTINUOUS
 62
     3
 10
-613.51709000000017
 20
168.44796999999991
 30
0.0
 11
-611.45708999999999
 21
168.44796999999991
 31
0.0
  0
LINE
  5
BE6
  8
0
  6
CONTINUOUS
 62
     3
 10
-474.98712
 20
149.34796
 30
0.0
 11
-600.77709999999979
 21
149.34796
 31
0.0
  0
LINE
  5
BE7
  8
0
  6
CONTINUOUS
 62
     3
 10
-474.98712
 20
147.34797999999981
 30
0.0
 11
-600.77709999999979
 21
147.34797999999981
 31
0.0
  0
LINE
  5
BE8
  8
0
  6
CONTINUOUS
 62
     3
 10
-567.82709
 20
139.34796
 30
0.0
 11
-600.77709999999979
 21
139.34796
 31
0.0
  0
LINE
  5
BE9
  8
0
  6
CONTINUOUS
 62
     3
 10
-611.13707999999986
 20
173.47796999999991
 30
0.0
 11
-612.05706999999995
 21
169.59796
 31
0.0
  0
LINE
  5
BEA
  8
0
  6
CONTINUOUS
 62
     3
 10
-567.82709
 20
137.34796
 30
0.0
 11
-600.77709999999979
 21
137.34796
 31
0.0
  0
LINE
  5
BEB
  8
0
  6
CONTINUOUS
 62
     3
 10
-613.49712999999997
 20
170.46796999999981
 30
0.0
 11
-611.84710999999982
 21
170.46796999999981
 31
0.0
  0
LINE
  5
BEC
  8
0
  6
CONTINUOUS
 62
     3
 10
-611.15710000000001
 20
175.13799
 30
0.0
 11
-612.04711999999995
 21
171.60796999999991
 31
0.0
  0
LINE
  5
BED
  8
0
  6
CONTINUOUS
 62
     3
 10
-567.82709
 20
129.34798000000001
 30
0.0
 11
-609.77710000000002
 21
129.34798000000001
 31
0.0
  0
LINE
  5
BEE
  8
0
  6
CONTINUOUS
 62
     3
 10
-594.32708999999988
 20
175.2379599999999
 30
0.0
 11
-594.32708999999988
 21
167.82796999999999
 31
0.0
  0
LINE
  5
BEF
  8
0
  6
CONTINUOUS
 62
     3
 10
-567.82709
 20
127.34796
 30
0.0
 11
-609.77710000000002
 21
127.34796
 31
0.0
  0
LINE
  5
BF0
  8
0
  6
CONTINUOUS
 62
     3
 10
-569.82708999999977
 20
119.3479699999999
 30
0.0
 11
-609.77710000000002
 21
119.3479699999999
 31
0.0
  0
LINE
  5
BF1
  8
0
  6
CONTINUOUS
 62
     3
 10
-537.32709
 20
177.26795999999999
 30
0.0
 11
-537.32709
 21
175.20797999999991
 31
0.0
  0
LINE
  5
BF2
  8
0
  6
CONTINUOUS
 62
     3
 10
-569.82708999999977
 20
117.34798000000001
 30
0.0
 11
-609.77710000000002
 21
117.34798000000001
 31
0.0
  0
LINE
  5
BF3
  8
0
  6
CONTINUOUS
 62
     3
 10
-473.58710000000002
 20
173.72793999999999
 30
0.0
 11
-470.12707999999992
 21
160.80794
 31
0.0
  0
LINE
  5
BF4
  8
0
  6
CONTINUOUS
 62
     3
 10
-473.61707000000001
 20
173.8479599999998
 30
0.0
 11
-468.32711999999998
 21
173.8479599999998
 31
0.0
  0
LINE
  5
BF5
  8
0
  6
CONTINUOUS
 62
     3
 10
-468.61709999999988
 20
164.38797
 30
0.0
 11
-471.02710000000002
 21
164.38797
 31
0.0
  0
LINE
  5
BF6
  8
0
  6
CONTINUOUS
 62
     3
 10
-471.52710000000002
 20
172.2679399999999
 30
0.0
 11
-470.08710000000002
 21
165.56794999999991
 31
0.0
  0
LINE
  5
BF7
  8
0
  6
CONTINUOUS
 62
     3
 10
-615.32708999999977
 20
55.917960999999991
 30
0.0
 11
-615.32708999999977
 21
113.34796999999971
 31
0.0
  0
LINE
  5
BF8
  8
0
  6
CONTINUOUS
 62
     3
 10
-620.32708999999966
 20
64.757949999999994
 30
0.0
 11
-620.32708999999966
 21
108.34798000000001
 31
0.0
  0
LINE
  5
BF9
  8
0
  6
CONTINUOUS
 62
     3
 10
-618.12714000000005
 20
77.657958999999977
 30
0.0
 11
-616.02710000000002
 21
77.657958999999977
 31
0.0
  0
LINE
  5
BFA
  8
0
  6
CONTINUOUS
 62
     3
 10
-618.51715000000002
 20
77.737990999999965
 30
0.0
 11
-619.71709999999985
 21
78.257956999999976
 31
0.0
  0
LINE
  5
BFB
  8
0
  6
CONTINUOUS
 62
     3
 10
-618.17711999999995
 20
79.607963999999981
 30
0.0
 11
-616.32709
 21
79.607963999999981
 31
0.0
  0
LINE
  5
BFC
  8
0
  6
CONTINUOUS
 62
     3
 10
-618.46709999999985
 20
79.647971999999982
 30
0.0
 11
-619.61707000000001
 21
80.007973000000007
 31
0.0
  0
LINE
  5
BFD
  8
0
  6
CONTINUOUS
 62
     3
 10
-616.32709
 20
87.347976999999986
 30
0.0
 11
-619.32708999999988
 21
87.347976999999986
 31
0.0
  0
LINE
  5
BFE
  8
0
  6
CONTINUOUS
 62
     3
 10
-616.32709
 20
89.347969000000006
 30
0.0
 11
-619.32708999999988
 21
89.347969000000006
 31
0.0
  0
LINE
  5
BFF
  8
0
  6
CONTINUOUS
 62
     3
 10
-616.32709
 20
97.347960999999998
 30
0.0
 11
-619.32708999999988
 21
97.347960999999998
 31
0.0
  0
LINE
  5
C00
  8
0
  6
CONTINUOUS
 62
     3
 10
-616.32709
 20
99.347977
 30
0.0
 11
-619.32708999999988
 21
99.347977
 31
0.0
  0
LINE
  5
C01
  8
0
  6
CONTINUOUS
 62
     3
 10
-616.32709
 20
107.3479699999999
 30
0.0
 11
-619.32708999999988
 21
107.3479699999999
 31
0.0
  0
LINE
  5
C02
  8
0
  6
CONTINUOUS
 62
     3
 10
-616.32709
 20
109.34796
 30
0.0
 11
-619.32708999999988
 21
109.34796
 31
0.0
  0
LINE
  5
C03
  8
0
  6
CONTINUOUS
 62
     3
 10
-618.32709
 20
97.737976000000003
 30
0.0
 11
-618.32709
 21
98.957961999999995
 31
0.0
  0
LINE
  5
C04
  8
0
  6
CONTINUOUS
 62
     3
 10
-618.32709
 20
107.73796
 30
0.0
 11
-618.32709
 21
108.89798
 31
0.0
  0
LINE
  5
C05
  8
0
  6
CONTINUOUS
 62
     3
 10
-618.32709
 20
87.717963999999967
 30
0.0
 11
-618.32709
 21
89.087958999999984
 31
0.0
  0
LINE
  5
C06
  8
0
  6
CONTINUOUS
 62
     3
 10
-618.32709
 20
77.957954000000001
 30
0.0
 11
-618.32709
 21
79.01795199999998
 31
0.0
  0
LINE
  5
C07
  8
0
  6
CONTINUOUS
 62
     3
 10
-621.82709
 20
93.347977000000014
 30
0.0
 11
-621.82709
 21
113.34796999999971
 31
0.0
  0
LINE
  5
C08
  8
0
  6
CONTINUOUS
 62
     3
 10
-621.82709
 20
93.347945999999993
 30
0.0
 11
-620.32708999999966
 21
93.217940999999996
 31
0.0
  0
LINE
  5
C09
  8
0
  6
CONTINUOUS
 62
     3
 10
-621.82709
 20
96.067963000000006
 30
0.0
 11
-620.32708999999966
 21
96.067963000000006
 31
0.0
  0
LINE
  5
C0A
  8
0
  6
CONTINUOUS
 62
     3
 10
-592.32709
 20
47.427956000000002
 30
0.0
 11
-539.32709
 21
47.427956000000002
 31
0.0
  0
LINE
  5
C0B
  8
0
  6
CONTINUOUS
 62
     3
 10
-609.18707000000018
 20
51.677970999999999
 30
0.0
 11
-595.82709
 21
51.677970999999999
 31
0.0
  0
LINE
  5
C0C
  8
0
  6
CONTINUOUS
 62
     3
 10
-615.32708999999977
 20
70.657950999999997
 30
0.0
 11
-605.32709
 21
70.657950999999997
 31
0.0
  0
LINE
  5
C0D
  8
0
  6
CONTINUOUS
 62
     3
 10
-592.32709
 20
48.107964000000003
 30
0.0
 11
-539.32709
 21
48.107964000000003
 31
0.0
  0
LINE
  5
C0E
  8
0
  6
CONTINUOUS
 62
     3
 10
-613.51709000000017
 20
58.247954999999997
 30
0.0
 11
-611.45708999999999
 21
58.247954999999997
 31
0.0
  0
LINE
  5
C0F
  8
0
  6
CONTINUOUS
 62
     3
 10
-613.53710999999998
 20
62.317954999999998
 30
0.0
 11
-611.12707999999975
 21
62.317954999999998
 31
0.0
  0
LINE
  5
C10
  8
0
  6
CONTINUOUS
 62
     3
 10
-611.11707000000001
 20
56.667968999999992
 30
0.0
 11
-612.07709
 21
61.127953000000012
 31
0.0
  0
LINE
  5
C11
  8
0
  6
CONTINUOUS
 62
     3
 10
-592.32709
 20
49.457954000000001
 30
0.0
 11
-539.32709
 21
49.457954000000001
 31
0.0
  0
LINE
  5
C12
  8
0
  6
CONTINUOUS
 62
     3
 10
-610.86712999999997
 20
86.857963999999996
 30
0.0
 11
-567.82709
 21
86.857963999999996
 31
0.0
  0
LINE
  5
C13
  8
0
  6
CONTINUOUS
 62
     3
 10
-519.32708999999988
 20
79.347954000000001
 30
0.0
 11
-609.33709999999985
 21
79.347954000000001
 31
0.0
  0
LINE
  5
C14
  8
0
  6
CONTINUOUS
 62
     3
 10
-601.64709000000005
 20
150.06795999999991
 30
0.0
 11
-471.50710999999961
 21
150.06795999999991
 31
0.0
  0
LINE
  5
C15
  8
0
  6
CONTINUOUS
 62
     3
 10
-601.64709000000005
 20
146.71797000000001
 30
0.0
 11
-562.32709
 21
146.71797000000001
 31
0.0
  0
LINE
  5
C16
  8
0
  6
CONTINUOUS
 62
     3
 10
-601.86712999999997
 20
139.8379699999999
 30
0.0
 11
-567.82709
 21
139.8379699999999
 31
0.0
  0
LINE
  5
C17
  8
0
  6
CONTINUOUS
 62
     3
 10
-601.86712999999997
 20
136.90796
 30
0.0
 11
-567.82709
 21
136.90796
 31
0.0
  0
LINE
  5
C18
  8
0
  6
CONTINUOUS
 62
     3
 10
-610.99706999999978
 20
129.6879899999999
 30
0.0
 11
-567.82709
 21
129.6879899999999
 31
0.0
  0
LINE
  5
C19
  8
0
  6
CONTINUOUS
 62
     3
 10
-610.99706999999978
 20
127.02795999999999
 30
0.0
 11
-567.82709
 21
127.02795999999999
 31
0.0
  0
LINE
  5
C1A
  8
0
  6
CONTINUOUS
 62
     3
 10
-611.05707000000018
 20
119.61796
 30
0.0
 11
-569.82708999999977
 21
119.61796
 31
0.0
  0
LINE
  5
C1B
  8
0
  6
CONTINUOUS
 62
     3
 10
-611.05707000000018
 20
117.0879699999999
 30
0.0
 11
-569.82708999999977
 21
117.0879699999999
 31
0.0
  0
LINE
  5
C1C
  8
0
  6
CONTINUOUS
 62
     3
 10
-471.50710999999961
 20
146.71797000000001
 30
0.0
 11
-488.02710000000002
 21
146.71797000000001
 31
0.0
  0
LINE
  5
C1D
  8
0
  6
CONTINUOUS
 62
     3
 10
-489.02710000000002
 20
145.71797000000001
 30
0.0
 11
-489.02710000000002
 21
144.6179699999999
 31
0.0
  0
LINE
  5
C1E
  8
0
  6
CONTINUOUS
 62
     3
 10
-488.0571299999998
 20
143.61796999999979
 30
0.0
 11
-478.55712999999992
 21
143.34798000000001
 31
0.0
  0
LINE
  5
C1F
  8
0
  6
CONTINUOUS
 62
     3
 10
-611.05707000000018
 20
109.6179699999999
 30
0.0
 11
-569.82708999999977
 21
109.6179699999999
 31
0.0
  0
LINE
  5
C20
  8
0
  6
CONTINUOUS
 62
     3
 10
-569.82708999999977
 20
107.3479699999999
 30
0.0
 11
-609.77710000000002
 21
107.3479699999999
 31
0.0
  0
LINE
  5
C21
  8
0
  6
CONTINUOUS
 62
     3
 10
-569.82708999999977
 20
109.34796
 30
0.0
 11
-609.77710000000002
 21
109.34796
 31
0.0
  0
LINE
  5
C22
  8
0
  6
CONTINUOUS
 62
     7
 10
-562.32709
 20
146.84796
 30
0.0
 11
-547.32709
 21
146.84796
 31
0.0
  0
LINE
  5
C23
  8
0
  6
CONTINUOUS
 62
     7
 10
-547.32709
 20
146.84796
 30
0.0
 11
-547.32709
 21
143.34796
 31
0.0
  0
LINE
  5
C24
  8
0
  6
CONTINUOUS
 62
     3
 10
-610.99706999999978
 20
99.667975999999996
 30
0.0
 11
-567.82709
 21
99.667975999999996
 31
0.0
  0
LINE
  5
C25
  8
0
  6
CONTINUOUS
 62
     3
 10
-621.82709
 20
128.4979899999999
 30
0.0
 11
-617.54705999999965
 21
128.4979899999999
 31
0.0
  0
LINE
  5
C26
  8
0
  6
CONTINUOUS
 62
     3
 10
-471.50710999999961
 20
79.977951000000004
 30
0.0
 11
-488.02710000000002
 21
79.977951000000004
 31
0.0
  0
LINE
  5
C27
  8
0
  6
CONTINUOUS
 62
     3
 10
-489.02710000000002
 20
80.977958999999984
 30
0.0
 11
-489.02710000000002
 21
82.077965000000006
 31
0.0
  0
LINE
  5
C28
  8
0
  6
CONTINUOUS
 62
     3
 10
-567.82709
 20
97.347960999999998
 30
0.0
 11
-609.77710000000002
 21
97.347960999999998
 31
0.0
  0
LINE
  5
C29
  8
0
  6
CONTINUOUS
 62
     3
 10
-610.99706999999978
 20
97.007957000000005
 30
0.0
 11
-567.82709
 21
97.007957000000005
 31
0.0
  0
LINE
  5
C2A
  8
0
  6
CONTINUOUS
 62
     3
 10
-567.82709
 20
89.347969000000006
 30
0.0
 11
-609.77710000000002
 21
89.347969000000006
 31
0.0
  0
LINE
  5
C2B
  8
0
  6
CONTINUOUS
 62
     3
 10
-610.86712999999997
 20
89.787970999999985
 30
0.0
 11
-567.82709
 21
89.787970999999985
 31
0.0
  0
LINE
  5
C2C
  8
0
  6
CONTINUOUS
 62
     3
 10
-567.82709
 20
87.347976999999986
 30
0.0
 11
-609.77710000000002
 21
87.347976999999986
 31
0.0
  0
LINE
  5
C2D
  8
0
  6
CONTINUOUS
 62
     3
 10
-474.98712
 20
79.347954000000001
 30
0.0
 11
-519.32708999999988
 21
79.347954000000001
 31
0.0
  0
LINE
  5
C2E
  8
0
  6
CONTINUOUS
 62
     3
 10
-611.05707000000018
 20
107.07798
 30
0.0
 11
-569.82708999999977
 21
107.07798
 31
0.0
  0
LINE
  5
C2F
  8
0
  6
CONTINUOUS
 62
     3
 10
-621.82709
 20
98.197959999999995
 30
0.0
 11
-617.24712999999986
 21
98.197959999999995
 31
0.0
  0
LINE
  5
C30
  8
0
  6
CONTINUOUS
 62
     7
 10
-543.95708999999965
 20
135.84796
 30
0.0
 11
-539.74707000000001
 21
135.84796
 31
0.0
  0
LINE
  5
C31
  8
0
  6
CONTINUOUS
 62
     7
 10
-567.82709
 20
120.8479699999999
 30
0.0
 11
-567.82709
 21
144.84795999999969
 31
0.0
  0
LINE
  5
C32
  8
0
  6
CONTINUOUS
 62
     7
 10
-542.32709
 20
90.347977
 30
0.0
 11
-542.32709
 21
130.3679699999999
 31
0.0
  0
LINE
  5
C33
  8
0
  6
CONTINUOUS
 62
     7
 10
-242.29082
 20
83.347960999999998
 30
0.0
 11
-242.29082
 21
143.34796
 31
0.0
  0
LINE
  5
C34
  8
0
  6
CONTINUOUS
 62
     7
 10
-220.2907999999999
 20
79.847968999999978
 30
0.0
 11
-220.2907999999999
 21
110.46065
 31
0.0
  0
LINE
  5
C35
  8
0
  6
CONTINUOUS
 62
     7
 10
-217.61254999999991
 20
79.847968999999978
 30
0.0
 11
-237.29082
 21
79.847968999999978
 31
0.0
  0
LINE
  5
C36
  8
0
  6
CENTER
 62
     1
 10
-127.42625
 20
113.34796999999971
 30
0.0
 11
-165.77703999999969
 21
113.34796999999971
 31
0.0
  0
LINE
  5
C37
  8
0
  6
CONTINUOUS
 62
     7
 10
-220.28093999999999
 20
146.84796
 30
0.0
 11
-237.29082
 21
146.84796
 31
0.0
  0
LINE
  5
C38
  8
0
  6
CONTINUOUS
 62
     7
 10
-242.29082
 20
143.34796
 30
0.0
 11
-223.79082
 21
143.34796
 31
0.0
  0
LINE
  5
C39
  8
0
  6
CONTINUOUS
 62
     7
 10
-223.79082
 20
81.847960999999984
 30
0.0
 11
-220.2907999999999
 21
81.847960999999984
 31
0.0
  0
LINE
  5
C3A
  8
0
  6
CONTINUOUS
 62
     7
 10
-245.29082
 20
95.547966000000017
 30
0.0
 11
-245.29082
 21
131.15797000000001
 31
0.0
  0
LINE
  5
C3B
  8
0
  6
CONTINUOUS
 62
     7
 10
-242.2907899999999
 20
90.347954000000001
 30
0.0
 11
-245.2907999999999
 21
95.547957999999994
 31
0.0
  0
ARC
  5
C3C
  8
0
  6
CONTINUOUS
 62
     7
 10
-456.32709
 20
424.88580000000002
 30
0.0
 40
1.0
 50
0.0
 51
88.499996999999965
  0
ARC
  5
C3D
  8
0
  6
CONTINUOUS
 62
     7
 10
-456.32709
 20
299.09598
 30
0.0
 40
1.0
 50
271.49999999999972
 51
0.0
  0
ARC
  5
C3E
  8
0
  6
CONTINUOUS
 62
     7
 10
-448.20197000000002
 20
320.49059999999992
 30
0.0
 40
10.0
 50
270.0
 51
280.00000999999992
  0
ARC
  5
C3F
  8
0
  6
CONTINUOUS
 62
     7
 10
-448.20197000000002
 20
403.49117999999987
 30
0.0
 40
10.0
 50
79.999998000000005
 51
90.000003000000007
  0
ARC
  5
C40
  8
0
  6
CONTINUOUS
 62
     3
 10
-555.59997999999985
 20
277.99090999999981
 30
0.0
 40
4.0
 50
179.99997999999991
 51
0.000010017912
  0
ARC
  5
C41
  8
0
  6
CONTINUOUS
 62
     3
 10
-555.59997999999985
 20
277.99090999999981
 30
0.0
 40
7.5
 50
179.99997999999991
 51
0.000010017913
  0
ARC
  5
C42
  8
0
  6
CONTINUOUS
 62
     7
 10
-615.82659999999998
 20
311.7413899999998
 30
0.0
 40
0.49952301
 50
359.94522999999992
 51
90.054773999999981
  0
ARC
  5
C43
  8
0
  6
CONTINUOUS
 62
     7
 10
-615.83043999999995
 20
313.89434999999992
 30
0.0
 40
0.5033929900000002
 50
270.38490999999982
 51
359.61509999999993
  0
ARC
  5
C44
  8
0
  6
CONTINUOUS
 62
     7
 10
-616.33118000000002
 20
316.49506000000002
 30
0.0
 40
1.004119999999999
 50
270.23460999999992
 51
359.76538999999991
  0
ARC
  5
C45
  8
0
  6
CONTINUOUS
 62
     7
 10
-616.32952999999975
 20
321.01337000000001
 30
0.0
 40
1.002470999999999
 50
270.14107000000001
 51
359.85892999999987
  0
ARC
  5
C46
  8
0
  6
CONTINUOUS
 62
     7
 10
-619.32830999999999
 20
316.11443999999989
 30
0.0
 40
0.9987969999999998
 50
179.62728000000001
 51
238.70795000000001
  0
ARC
  5
C47
  8
0
  6
CONTINUOUS
 62
     7
 10
-619.32934999999998
 20
317.15215999999992
 30
0.0
 40
0.9977070099999998
 50
180.0740199999999
 51
242.04481000000001
  0
ARC
  5
C48
  8
0
  6
CONTINUOUS
 62
     7
 10
-619.32799999999975
 20
320.71564000000001
 30
0.0
 40
0.9990889999999998
 50
179.69508999999991
 51
236.66209000000001
  0
ARC
  5
C49
  8
0
  6
CONTINUOUS
 62
     7
 10
-619.3286099999998
 20
321.75017999999989
 30
0.0
 40
0.9984580299999999
 50
179.9595799999999
 51
239.38657000000001
  0
ARC
  5
C4A
  8
0
  6
CONTINUOUS
 62
     7
 10
-618.06371999999965
 20
321.01190000000008
 30
0.0
 40
1.0010449999999991
 50
240.47187
 51
270.37970999999999
  0
ARC
  5
C4B
  8
0
  6
CONTINUOUS
 62
     7
 10
-618.03430000000003
 20
319.87139999999982
 30
0.0
 40
1.000521999999999
 50
237.14617999999999
 51
270.41343999999998
  0
ARC
  5
C4C
  8
0
  6
CONTINUOUS
 62
     7
 10
-618.07190000000003
 20
316.49151999999992
 30
0.0
 40
1.0006820000000001
 50
241.65062
 51
269.7039299999999
  0
ARC
  5
C4D
  8
0
  6
CONTINUOUS
 62
     7
 10
-618.05572999999981
 20
315.35455000000002
 30
0.0
 40
1.0037439999999991
 50
239.37112999999999
 51
270.49189999999987
  0
ARC
  5
C4E
  8
0
  6
CONTINUOUS
 62
     7
 10
-618.08123999999975
 20
314.39019999999999
 30
0.0
 40
0.9993420200000001
 50
242.86199999999999
 51
269.66546
  0
ARC
  5
C4F
  8
0
  6
CONTINUOUS
 62
     7
 10
-618.0463900000002
 20
313.24200000000002
 30
0.0
 40
1.001123999999999
 50
239.32782000000009
 51
269.38767999999988
  0
ARC
  5
C50
  8
0
  6
CONTINUOUS
 62
     7
 10
-619.33141999999975
 20
315.02129999999988
 30
0.0
 40
0.9956849800000001
 50
180.02112999999991
 51
243.40913999999981
  0
ARC
  5
C51
  8
0
  6
CONTINUOUS
 62
     7
 10
-619.32947000000001
 20
313.97552000000002
 30
0.0
 40
0.9976310099999999
 50
180.26780999999991
 51
240.07924
  0
ARC
  5
C52
  8
0
  6
CONTINUOUS
 62
     7
 10
-619.3286099999998
 20
321.75017999999989
 30
0.0
 40
0.9984580299999999
 50
179.9595799999999
 51
239.38657000000001
  0
ARC
  5
C53
  8
0
  6
CONTINUOUS
 62
     7
 10
-616.33032000000003
 20
321.01763999999991
 30
0.0
 40
1.0032760000000001
 50
334.19810000000001
 51
359.61810999999972
  0
ARC
  5
C54
  8
0
  6
CONTINUOUS
 62
     7
 10
-616.32690000000002
 20
344.99102999999991
 30
0.0
 40
0.9998210099999999
 50
359.98971999999998
 51
90.010281999999961
  0
ARC
  5
C55
  8
0
  6
CONTINUOUS
 62
     7
 10
-616.33203000000003
 20
348.99579
 30
0.0
 40
1.004939
 50
270.28093999999999
 51
359.71906999999999
  0
ARC
  5
C56
  8
0
  6
CONTINUOUS
 62
     7
 10
-616.32690000000002
 20
354.99102999999991
 30
0.0
 40
0.9998279799999998
 50
359.99015999999972
 51
90.009838000000002
  0
ARC
  5
C57
  8
0
  6
CONTINUOUS
 62
     7
 10
-616.33203000000003
 20
358.99578999999972
 30
0.0
 40
1.004942999999999
 50
270.28113999999988
 51
359.71886999999992
  0
ARC
  5
C58
  8
0
  6
CONTINUOUS
 62
     7
 10
-619.33203000000003
 20
356.99578999999972
 30
0.0
 40
0.9950770099999999
 50
89.715860000000006
 51
180.28413999999989
  0
ARC
  5
C59
  8
0
  6
CONTINUOUS
 62
     7
 10
-619.32690000000002
 20
356.99114999999972
 30
0.0
 40
1.0002040000000001
 50
180.01166000000001
 51
269.9883200000001
  0
ARC
  5
C5A
  8
0
  6
CONTINUOUS
 62
     7
 10
-619.33203000000003
 20
346.99579
 30
0.0
 40
0.9950810099999999
 50
89.716071999999997
 51
180.28391999999999
  0
ARC
  5
C5B
  8
0
  6
CONTINUOUS
 62
     7
 10
-619.32690000000002
 20
346.99115
 30
0.0
 40
1.0001999999999991
 50
180.01146
 51
269.98853999999972
  0
ARC
  5
C5C
  8
0
  6
CONTINUOUS
 62
     7
 10
-619.33203000000003
 20
336.99579
 30
0.0
 40
0.9950849999999999
 50
89.716282999999976
 51
180.2837199999999
  0
ARC
  5
C5D
  8
0
  6
CONTINUOUS
 62
     7
 10
-619.32690000000002
 20
336.99115
 30
0.0
 40
1.0001959999999981
 50
180.01124999999999
 51
269.98874999999992
  0
ARC
  5
C5E
  8
0
  6
CONTINUOUS
 62
     7
 10
-619.33056999999985
 20
327.81939999999992
 30
0.0
 40
0.9965090199999998
 50
179.91374999999999
 51
247.17845
  0
ARC
  5
C5F
  8
0
  6
CONTINUOUS
 62
     7
 10
-619.33069
 20
329.60528999999991
 30
0.0
 40
0.99638802
 50
180.24991
 51
253.29664
  0
ARC
  5
C60
  8
0
  6
CONTINUOUS
 62
     7
 10
-618.18651999999975
 20
329.25360000000001
 30
0.0
 40
1.002699
 50
253.7527199999999
 51
270.54064
  0
ARC
  5
C61
  8
0
  6
CONTINUOUS
 62
     7
 10
-618.12408000000016
 20
327.30608999999993
 30
0.0
 40
1.005233
 50
246.98638999999989
 51
269.82924999999989
  0
ARC
  5
C62
  8
0
  6
CONTINUOUS
 62
     7
 10
-616.02655000000004
 20
325.60149999999999
 30
0.0
 40
0.6994530000000001
 50
359.95517000000001
 51
90.044829000000021
  0
ARC
  5
C63
  8
0
  6
CONTINUOUS
 62
     7
 10
-616.32690000000002
 20
334.99102999999991
 30
0.0
 40
0.9998239899999999
 50
359.98991999999993
 51
90.010076999999981
  0
ARC
  5
C64
  8
0
  6
CONTINUOUS
 62
     7
 10
-616.33203000000003
 20
338.99579
 30
0.0
 40
1.0049469
 50
270.28136999999992
 51
359.71863000000002
  0
ARC
  5
C65
  8
0
  6
CONTINUOUS
 62
     7
 10
-616.33044000000018
 20
329.25420999999989
 30
0.0
 40
1.003352
 50
270.19110999999992
 51
359.80889999999982
  0
ARC
  5
C66
  8
0
  6
CONTINUOUS
 62
     7
 10
-615.83167000000003
 20
412.24553999999989
 30
0.0
 40
0.50463498
 50
270.52382999999992
 51
359.47617000000002
  0
ARC
  5
C67
  8
0
  6
CONTINUOUS
 62
     7
 10
-615.82537999999977
 20
410.09258999999997
 30
0.0
 40
0.4983060100000002
 50
359.80489
 51
90.195107000000007
  0
ARC
  5
C68
  8
0
  6
CONTINUOUS
 62
     7
 10
-616.32610999999963
 20
407.49187999999981
 30
0.0
 40
0.9990100299999999
 50
359.94319000000002
 51
90.056808999999959
  0
ARC
  5
C69
  8
0
  6
CONTINUOUS
 62
     7
 10
-616.03161999999975
 20
398.38544000000002
 30
0.0
 40
0.704566
 50
270.37009999999992
 51
359.62990999999982
  0
ARC
  5
C6A
  8
0
  6
CONTINUOUS
 62
     7
 10
-616.32941000000005
 20
402.97857999999991
 30
0.0
 40
1.002353
 50
0.13432682
 51
89.865673000000001
  0
ARC
  5
C6B
  8
0
  6
CONTINUOUS
 62
     7
 10
-616.32537999999965
 20
394.73259999999988
 30
0.0
 40
0.9982839799999999
 50
359.90141999999992
 51
90.098575999999994
  0
ARC
  5
C6C
  8
0
  6
CONTINUOUS
 62
     7
 10
-616.33203000000003
 20
388.99579
 30
0.0
 40
1.004942999999999
 50
270.28111000000001
 51
359.71888999999987
  0
ARC
  5
C6D
  8
0
  6
CONTINUOUS
 62
     7
 10
-616.32690000000002
 20
384.99102999999991
 30
0.0
 40
0.9998289899999999
 50
359.99018999999993
 51
90.009810999999985
  0
ARC
  5
C6E
  8
0
  6
CONTINUOUS
 62
     7
 10
-616.33203000000003
 20
378.99579
 30
0.0
 40
1.004939
 50
270.28091000000001
 51
359.71910000000008
  0
ARC
  5
C6F
  8
0
  6
CONTINUOUS
 62
     7
 10
-616.32690000000002
 20
374.99102999999991
 30
0.0
 40
0.9998210099999999
 50
359.98975000000002
 51
90.010255000000001
  0
ARC
  5
C70
  8
0
  6
CONTINUOUS
 62
     7
 10
-616.33203000000003
 20
368.99579
 30
0.0
 40
1.0049469
 50
270.28134999999992
 51
359.71866
  0
ARC
  5
C71
  8
0
  6
CONTINUOUS
 62
     7
 10
-616.32690000000002
 20
364.99102999999991
 30
0.0
 40
0.9998249999999999
 50
359.98995000000002
 51
90.010050000000007
  0
ARC
  5
C72
  8
0
  6
CONTINUOUS
 62
     7
 10
-619.32690000000002
 20
366.99114999999989
 30
0.0
 40
1.0001959999999981
 50
180.01122000000001
 51
269.98877999999991
  0
ARC
  5
C73
  8
0
  6
CONTINUOUS
 62
     7
 10
-619.33203000000003
 20
366.99578999999989
 30
0.0
 40
0.9950849999999999
 50
89.716311000000005
 51
180.28368999999981
  0
ARC
  5
C74
  8
0
  6
CONTINUOUS
 62
     7
 10
-619.32690000000002
 20
376.99115
 30
0.0
 40
1.0001999999999991
 50
180.0114299999999
 51
269.98856999999992
  0
ARC
  5
C75
  8
0
  6
CONTINUOUS
 62
     7
 10
-619.33203000000003
 20
376.99579
 30
0.0
 40
0.99508202
 50
89.716099
 51
180.28390999999991
  0
ARC
  5
C76
  8
0
  6
CONTINUOUS
 62
     7
 10
-619.32690000000002
 20
386.99115
 30
0.0
 40
1.000203
 50
180.01165
 51
269.98835000000003
  0
ARC
  5
C77
  8
0
  6
CONTINUOUS
 62
     7
 10
-619.33203000000003
 20
386.99579
 30
0.0
 40
0.99507803
 50
89.715886999999981
 51
180.28411
  0
ARC
  5
C78
  8
0
  6
CONTINUOUS
 62
     7
 10
-619.33069
 20
396.17241999999987
 30
0.0
 40
0.9963999999999998
 50
112.8173599999997
 51
180.09041999999991
  0
ARC
  5
C79
  8
0
  6
CONTINUOUS
 62
     7
 10
-619.33080999999981
 20
394.38666000000001
 30
0.0
 40
0.9962710099999999
 50
106.69792
 51
180.33004999999969
  0
ARC
  5
C7A
  8
0
  6
CONTINUOUS
 62
     7
 10
-618.18793000000016
 20
394.73822000000001
 30
0.0
 40
0.9927430199999999
 50
89.374555000000001
 51
106.33207
  0
ARC
  5
C7B
  8
0
  6
CONTINUOUS
 62
     7
 10
-618.12609999999995
 20
396.68549000000002
 30
0.0
 40
0.9954450099999999
 50
90.056905000000043
 51
113.1274499999999
  0
ARC
  5
C7C
  8
0
  6
CONTINUOUS
 62
     7
 10
-619.33264000000008
 20
407.86992999999961
 30
0.0
 40
0.9944329899999999
 50
121.15213
 51
179.9405099999999
  0
ARC
  5
C7D
  8
0
  6
CONTINUOUS
 62
     7
 10
-619.33385999999985
 20
406.83233999999987
 30
0.0
 40
0.9932109699999999
 50
117.7993199999999
 51
180.08187000000001
  0
ARC
  5
C7E
  8
0
  6
CONTINUOUS
 62
     7
 10
-619.33227999999986
 20
403.26848999999987
 30
0.0
 40
0.9948369899999999
 50
123.20496
 51
180.43785999999969
  0
ARC
  5
C7F
  8
0
  6
CONTINUOUS
 62
     7
 10
-619.33307000000002
 20
402.23406999999992
 30
0.0
 40
0.99404597
 50
120.4682
 51
180.18563999999989
  0
ARC
  5
C80
  8
0
  6
CONTINUOUS
 62
     7
 10
-618.04767000000004
 20
402.98443999999989
 30
0.0
 40
0.99648702
 50
90.540720999999976
 51
120.74377
  0
ARC
  5
C81
  8
0
  6
CONTINUOUS
 62
     7
 10
-618.02044999999998
 20
404.12468999999987
 30
0.0
 40
0.99617702
 50
90.381317999999979
 51
123.9704899999999
  0
ARC
  5
C82
  8
0
  6
CONTINUOUS
 62
     7
 10
-618.09198000000004
 20
407.49554000000001
 30
0.0
 40
0.99545902
 50
89.141291000000024
 51
117.20381999999999
  0
ARC
  5
C83
  8
0
  6
CONTINUOUS
 62
     7
 10
-618.05822999999998
 20
408.63665999999989
 30
0.0
 40
0.99427301
 50
89.356065999999984
 51
120.78091000000001
  0
ARC
  5
C84
  8
0
  6
CONTINUOUS
 62
     7
 10
-618.10229000000004
 20
409.59685999999988
 30
0.0
 40
0.99411702
 50
89.122643999999966
 51
115.93498
  0
ARC
  5
C85
  8
0
  6
CONTINUOUS
 62
     7
 10
-618.06505999999979
 20
410.74505999999991
 30
0.0
 40
0.9959030199999999
 50
89.541267000000005
 51
119.60717
  0
ARC
  5
C86
  8
0
  6
CONTINUOUS
 62
     7
 10
-619.33148000000017
 20
408.97063999999989
 30
0.0
 40
0.995579
 50
116.5870899999999
 51
179.98264
  0
ARC
  5
C87
  8
0
  6
CONTINUOUS
 62
     7
 10
-619.33385999999985
 20
410.00885
 30
0.0
 40
0.99319202
 50
119.77338
 51
179.87958999999981
  0
ARC
  5
C88
  8
0
  6
CONTINUOUS
 62
     7
 10
-602.18628000000001
 20
320.78057999999999
 30
0.0
 40
1.0032491999999991
 50
314.98118999999991
 51
5.1676434000000002
  0
ARC
  5
C89
  8
0
  6
CONTINUOUS
 62
     7
 10
-467.32727
 20
424.49114999999989
 30
0.0
 40
0.99980682
 50
89.98893099999998
 51
180.0110699999999
  0
ARC
  5
C8A
  8
0
  6
CONTINUOUS
 62
     7
 10
-475.52582000000001
 20
302.13715000000002
 30
0.0
 40
2.0062942999999991
 50
270.24932999999987
 51
345.08843999999999
  0
ARC
  5
C8B
  8
0
  6
CONTINUOUS
 62
     7
 10
-467.32799999999997
 20
413.03179999999992
 30
0.0
 40
0.9990923399999999
 50
89.947921999999977
 51
180.0520799999999
  0
ARC
  5
C8C
  8
0
  6
CONTINUOUS
 62
     7
 10
-593.33429000000001
 20
366.99090999999987
 30
0.0
 40
1.0000259
 50
89.587533999999977
 51
270.41246000000001
  0
ARC
  5
C8D
  8
0
  6
CONTINUOUS
 62
     7
 10
-601.36761000000001
 20
412.98566
 30
0.0
 40
1.9952742999999991
 50
90.148580000000024
 51
170.0352199999999
  0
ARC
  5
C8E
  8
0
  6
CONTINUOUS
 62
     7
 10
-601.42975000000001
 20
418.26384999999999
 30
0.0
 40
1.997119399999999
 50
89.801366999999999
 51
167.94476
  0
ARC
  5
C8F
  8
0
  6
CONTINUOUS
 62
     7
 10
-605.81024000000002
 20
414.53325999999993
 30
0.0
 40
1.502416299999999
 50
269.9013799999999
 51
347.60813000000002
  0
ARC
  5
C90
  8
0
  6
CONTINUOUS
 62
     7
 10
-609.19683999999995
 20
421.66863999999993
 30
0.0
 40
1.9922863
 50
90.007720999999947
 51
166.87839
  0
ARC
  5
C91
  8
0
  6
CONTINUOUS
 62
     7
 10
-613.52184999999963
 20
418.59575999999998
 30
0.0
 40
1.5048382
 50
270.18263999999982
 51
346.7530799999999
  0
ARC
  5
C92
  8
0
  6
CONTINUOUS
 62
     7
 10
-613.5075099999998
 20
420.61626999999999
 30
0.0
 40
1.505448699999999
 50
270.39686999999992
 51
345.95247000000001
  0
ARC
  5
C93
  8
0
  6
CONTINUOUS
 62
     7
 10
-609.22222999999985
 20
423.29632999999973
 30
0.0
 40
1.994612099999999
 50
89.851992000000024
 51
165.93885999999969
  0
ARC
  5
C94
  8
0
  6
CONTINUOUS
 62
     7
 10
-592.3338
 20
421.85759999999988
 30
0.0
 40
1.9933081999999991
 50
89.807322999999968
 51
180.19266999999991
  0
ARC
  5
C95
  8
0
  6
CONTINUOUS
 62
     7
 10
-592.33294999999998
 20
423.88677999999987
 30
0.0
 40
1.994130499999996
 50
89.831106000000005
 51
180.16889
  0
ARC
  5
C96
  8
0
  6
CONTINUOUS
 62
     7
 10
-592.33056999999985
 20
425.24444999999997
 30
0.0
 40
1.996488899999999
 50
89.899147999999997
 51
180.10085000000001
  0
ARC
  5
C97
  8
0
  6
CONTINUOUS
 62
     7
 10
-592.33330999999976
 20
425.91437000000002
 30
0.0
 40
1.9964978999999961
 50
89.821482000000003
 51
165.6006099999999
  0
ARC
  5
C98
  8
0
  6
CONTINUOUS
 62
     7
 10
-595.83080999999981
 20
416.48467999999991
 30
0.0
 40
1.5037541000000001
 50
270.14287000000002
 51
359.85714000000002
  0
ARC
  5
C99
  8
0
  6
CONTINUOUS
 62
     7
 10
-595.83196999999996
 20
421.76580999999987
 30
0.0
 40
1.504891299999997
 50
270.18592999999998
 51
359.81407000000002
  0
ARC
  5
C9A
  8
0
  6
CONTINUOUS
 62
     7
 10
-595.83398
 20
425.16779000000002
 30
0.0
 40
1.506942899999999
 50
270.26337000000001
 51
359.73662999999999
  0
ARC
  5
C9B
  8
0
  6
CONTINUOUS
 62
     7
 10
-595.72216999999978
 20
426.79607999999979
 30
0.0
 40
1.505230099999999
 50
270.19421
 51
345.17177999999979
  0
ARC
  5
C9C
  8
0
  6
CONTINUOUS
 62
     7
 10
-468.67694000000012
 20
409.84320000000002
 30
0.0
 40
1.5022733999999991
 50
195.1365099999999
 51
269.99412000000001
  0
ARC
  5
C9D
  8
0
  6
CONTINUOUS
 62
     7
 10
-475.5176399999998
 20
421.85174999999992
 30
0.0
 40
1.9991226
 50
15.050791
 51
89.984388999999979
  0
ARC
  5
C9E
  8
0
  6
CONTINUOUS
 62
     7
 10
-467.33411000000001
 20
299.48394999999988
 30
0.0
 40
0.99304521
 50
179.59730999999991
 51
270.40267999999992
  0
ARC
  5
C9F
  8
0
  6
CONTINUOUS
 62
     7
 10
-467.33478000000002
 20
310.94330000000002
 30
0.0
 40
0.99237448
 50
179.55802
 51
270.44197000000003
  0
ARC
  5
CA0
  8
0
  6
CONTINUOUS
 62
     7
 10
-468.62139999999988
 20
414.53118999999998
 30
0.0
 40
1.500286
 50
192.32630999999989
 51
270.16417000000001
  0
ARC
  5
CA1
  8
0
  6
CONTINUOUS
 62
     7
 10
-606.17151000000001
 20
403.58513999999991
 30
0.0
 40
5.0059714
 50
279.71098000000001
 51
354.67887999999999
  0
ARC
  5
CA2
  8
0
  6
CONTINUOUS
 62
     7
 10
-605.70612000000006
 20
399.65839
 30
0.0
 40
6.0044340999999992
 50
45.225577999999999
 51
86.380821999999966
  0
ARC
  5
CA3
  8
0
  6
CONTINUOUS
 62
     7
 10
-602.18511999999998
 20
403.21161000000001
 30
0.0
 40
1.002184699999999
 50
354.80385999999987
 51
45.047306999999968
  0
ARC
  5
CA4
  8
0
  6
CONTINUOUS
 62
     7
 10
-605.70740000000001
 20
324.33623999999992
 30
0.0
 40
6.0073843
 50
273.62973999999991
 51
314.76384999999999
  0
ARC
  5
CA5
  8
0
  6
CONTINUOUS
 62
     7
 10
-606.16425000000004
 20
320.40239999999989
 30
0.0
 40
4.9991421999999961
 50
5.3780269000000001
 51
80.360065000000006
  0
ARC
  5
CA6
  8
0
  6
CONTINUOUS
 62
     7
 10
-609.19024999999965
 20
302.32146999999998
 30
0.0
 40
2.0005671999999981
 50
193.3095899999999
 51
269.80430999999999
  0
ARC
  5
CA7
  8
0
  6
CONTINUOUS
 62
     7
 10
-613.51385000000005
 20
305.39325000000002
 30
0.0
 40
1.497715799999999
 50
13.424379
 51
90.122644999999963
  0
ARC
  5
CA8
  8
0
  6
CONTINUOUS
 62
     7
 10
-613.49938999999995
 20
303.37261999999993
 30
0.0
 40
1.4982997
 50
14.22974
 51
89.910949999999985
  0
ARC
  5
CA9
  8
0
  6
CONTINUOUS
 62
     7
 10
-592.32703000000004
 20
302.13092
 30
0.0
 40
2.0000371999999991
 50
180.00105999999991
 51
269.99892999999992
  0
ARC
  5
CAA
  8
0
  6
CONTINUOUS
 62
     7
 10
-592.32617000000016
 20
300.10187000000002
 30
0.0
 40
2.0009109999999981
 50
180.00001
 51
269.97390999999988
  0
ARC
  5
CAB
  8
0
  6
CONTINUOUS
 62
     7
 10
-595.82903999999996
 20
307.50896999999992
 30
0.0
 40
1.501982699999999
 50
0.075587202
 51
89.924413000000015
  0
ARC
  5
CAC
  8
0
  6
CONTINUOUS
 62
     7
 10
-595.83019999999965
 20
302.22771999999992
 30
0.0
 40
1.503128599999999
 50
0.11912965
 51
89.880870000000002
  0
ARC
  5
CAD
  8
0
  6
CONTINUOUS
 62
     7
 10
-468.68347
 20
314.14715999999999
 30
0.0
 40
1.4937901
 50
89.756423999999981
 51
165.11291999999969
  0
ARC
  5
CAE
  8
0
  6
CONTINUOUS
 62
     7
 10
-593.33429000000001
 20
376.99090999999999
 30
0.0
 40
1.0000259
 50
89.587533999999977
 51
270.41246000000001
  0
ARC
  5
CAF
  8
0
  6
CONTINUOUS
 62
     7
 10
-593.33429000000001
 20
386.99090999999999
 30
0.0
 40
1.0000259
 50
89.587533999999977
 51
270.41246000000001
  0
ARC
  5
CB0
  8
0
  6
CONTINUOUS
 62
     7
 10
-593.33429000000001
 20
396.99090999999987
 30
0.0
 40
1.0000259
 50
89.587533999999977
 51
270.41246000000001
  0
ARC
  5
CB1
  8
0
  6
CONTINUOUS
 62
     7
 10
-611.06530999999995
 20
367.00091999999989
 30
0.0
 40
1.2700266
 50
89.629328000000001
 51
270.37065999999987
  0
ARC
  5
CB2
  8
0
  6
CONTINUOUS
 62
     7
 10
-611.00335999999982
 20
377.00591999999989
 30
0.0
 40
1.3350147999999991
 50
89.730435000000014
 51
270.26956999999999
  0
ARC
  5
CB3
  8
0
  6
CONTINUOUS
 62
     7
 10
-601.87279999999998
 20
387.02094
 30
0.0
 40
1.460011199999999
 50
89.775248000000005
 51
270.22474
  0
ARC
  5
CB4
  8
0
  6
CONTINUOUS
 62
     7
 10
-601.6570999999999
 20
397.04095000000001
 30
0.0
 40
1.6800002000000001
 50
90.000003000000007
 51
270.0
  0
ARC
  5
CB5
  8
0
  6
CONTINUOUS
 62
     7
 10
-609.77710000000002
 20
366.99090999999987
 30
0.0
 40
1.0000056999999991
 50
90.000003000000007
 51
270.0
  0
ARC
  5
CB6
  8
0
  6
CONTINUOUS
 62
     7
 10
-609.77710000000002
 20
376.99090999999999
 30
0.0
 40
1.0000056999999991
 50
90.000003000000007
 51
270.0
  0
ARC
  5
CB7
  8
0
  6
CONTINUOUS
 62
     7
 10
-600.78424000000018
 20
396.99090999999987
 30
0.0
 40
1.0000255999999981
 50
89.589473999999967
 51
270.41052000000002
  0
ARC
  5
CB8
  8
0
  6
CONTINUOUS
 62
     7
 10
-600.78424000000018
 20
386.99090999999999
 30
0.0
 40
1.0000255999999981
 50
89.589473999999967
 51
270.41052000000002
  0
ARC
  5
CB9
  8
0
  6
CONTINUOUS
 62
     7
 10
-471.50707999999992
 20
397.04095000000001
 30
0.0
 40
1.6800077
 50
269.99998999999991
 51
90.000003000000007
  0
ARC
  5
CBA
  8
0
  6
CONTINUOUS
 62
     7
 10
-474.98712
 20
396.99090999999987
 30
0.0
 40
1.0000040999999991
 50
269.99998999999991
 51
90.000003000000007
  0
ARC
  5
CBB
  8
0
  6
CONTINUOUS
 62
     7
 10
-474.98712
 20
326.99090999999999
 30
0.0
 40
1.0000040999999991
 50
269.99998999999991
 51
90.000003000000007
  0
ARC
  5
CBC
  8
0
  6
CONTINUOUS
 62
     7
 10
-471.50707999999992
 20
326.95087000000001
 30
0.0
 40
1.6800077
 50
269.99998999999991
 51
90.000003000000007
  0
ARC
  5
CBD
  8
0
  6
CONTINUOUS
 62
     7
 10
-609.77710000000002
 20
356.99090999999987
 30
0.0
 40
1.0000056999999991
 50
90.000003000000007
 51
270.0
  0
ARC
  5
CBE
  8
0
  6
CONTINUOUS
 62
     7
 10
-593.33429000000001
 20
346.99090999999987
 30
0.0
 40
1.0000259
 50
89.587533999999977
 51
270.41246000000001
  0
ARC
  5
CBF
  8
0
  6
CONTINUOUS
 62
     7
 10
-593.33429000000001
 20
336.99090999999999
 30
0.0
 40
1.0000259
 50
89.587533999999977
 51
270.41246000000001
  0
ARC
  5
CC0
  8
0
  6
CONTINUOUS
 62
     7
 10
-611.00335999999982
 20
346.98090000000002
 30
0.0
 40
1.3300148000000001
 50
89.729417999999995
 51
270.27058999999991
  0
ARC
  5
CC1
  8
0
  6
CONTINUOUS
 62
     7
 10
-593.33429000000001
 20
356.99090999999987
 30
0.0
 40
1.0000259
 50
89.587533999999977
 51
270.41246000000001
  0
ARC
  5
CC2
  8
0
  6
CONTINUOUS
 62
     7
 10
-593.33429000000001
 20
326.99090999999999
 30
0.0
 40
1.0000259
 50
89.587533999999977
 51
270.41246000000001
  0
ARC
  5
CC3
  8
0
  6
CONTINUOUS
 62
     7
 10
-611.06530999999995
 20
356.99090999999987
 30
0.0
 40
1.2700266
 50
89.629320999999962
 51
270.37068999999991
  0
ARC
  5
CC4
  8
0
  6
CONTINUOUS
 62
     7
 10
-609.77710000000002
 20
346.99090999999987
 30
0.0
 40
1.0000056999999991
 50
90.000003000000007
 51
270.0
  0
ARC
  5
CC5
  8
0
  6
CONTINUOUS
 62
     7
 10
-605.59393
 20
409.25092000000001
 30
0.0
 40
1.5
 50
280.24788999999998
 51
349.76262000000008
  0
ARC
  5
CC6
  8
0
  6
CONTINUOUS
 62
     7
 10
-605.59393
 20
314.73090000000002
 30
0.0
 40
1.5
 50
10.23737899999999
 51
79.752110000000002
  0
ARC
  5
CC7
  8
0
  6
CONTINUOUS
 62
     7
 10
-601.36761000000001
 20
310.99615
 30
0.0
 40
1.9952742999999991
 50
189.96477999999959
 51
269.85142000000002
  0
ARC
  5
CC8
  8
0
  6
CONTINUOUS
 62
     7
 10
-605.81024000000002
 20
309.44855000000001
 30
0.0
 40
1.502416299999999
 50
12.39188699999999
 51
90.098617000000004
  0
ARC
  5
CC9
  8
0
  6
CONTINUOUS
 62
     7
 10
-601.42975000000001
 20
305.71795999999989
 30
0.0
 40
1.997119399999999
 50
192.05524
 51
270.19862999999992
  0
ARC
  5
CCA
  8
0
  6
CONTINUOUS
 62
     7
 10
-601.6570999999999
 20
326.94085999999982
 30
0.0
 40
1.6800002000000001
 50
90.000003000000007
 51
270.0
  0
ARC
  5
CCB
  8
0
  6
CONTINUOUS
 62
     7
 10
-600.78424000000018
 20
326.99090999999999
 30
0.0
 40
1.0000255999999981
 50
89.589473999999967
 51
270.41052000000002
  0
ARC
  5
CCC
  8
0
  6
CONTINUOUS
 62
     7
 10
-600.78424000000018
 20
336.99090999999999
 30
0.0
 40
1.0000255999999981
 50
89.589473999999967
 51
270.41052000000002
  0
ARC
  5
CCD
  8
0
  6
CONTINUOUS
 62
     7
 10
-601.87279999999998
 20
336.96087999999992
 30
0.0
 40
1.460011199999999
 50
89.775248000000005
 51
270.22474
  0
ARC
  5
CCE
  8
0
  6
CONTINUOUS
 62
     7
 10
-551.00072999999986
 20
296.60088999999982
 30
0.0
 40
1.5
 50
1.5000026999999989
 51
90.000003000000007
  0
ARC
  5
CCF
  8
0
  6
CONTINUOUS
 62
     3
 10
-476.31090999999998
 20
293.49090999999999
 30
0.0
 40
1.5
 50
269.99998999999991
 51
327.0
  0
ARC
  5
CD0
  8
0
  6
CONTINUOUS
 62
     7
 10
-487.8134799999998
 20
290.49090999999987
 30
0.0
 40
1.5
 50
90.000003000000007
 51
178.5
  0
ARC
  5
CD1
  8
0
  6
CONTINUOUS
 62
     7
 10
-473.80712999999992
 20
424.38092
 30
0.0
 40
1.5
 50
12.129792
 51
90.000003000000007
  0
ARC
  5
CD2
  8
0
  6
CONTINUOUS
 62
     7
 10
-474.09942999999993
 20
425.74090999999999
 30
0.0
 40
1.5
 50
12.129792
 51
90.000003000000007
  0
ARC
  5
CD3
  8
0
  6
CONTINUOUS
 62
     7
 10
-474.24347
 20
426.41094999999979
 30
0.0
 40
1.5
 50
12.129792
 51
90.000003000000007
  0
ARC
  5
CD4
  8
0
  6
CONTINUOUS
 62
     7
 10
-471.28710999999998
 20
336.96087999999992
 30
0.0
 40
1.460011199999999
 50
269.77525000000003
 51
90.224749999999986
  0
ARC
  5
CD5
  8
0
  6
CONTINUOUS
 62
     7
 10
-474.98712
 20
336.99090999999999
 30
0.0
 40
1.0000255999999981
 50
269.58947000000001
 51
90.410531000000006
  0
ARC
  5
CD6
  8
0
  6
CONTINUOUS
 62
     7
 10
-471.28710999999998
 20
387.02094
 30
0.0
 40
1.460011199999999
 50
269.77525000000003
 51
90.224749999999986
  0
ARC
  5
CD7
  8
0
  6
CONTINUOUS
 62
     7
 10
-474.98712
 20
386.99090999999999
 30
0.0
 40
1.0000255999999981
 50
269.58947000000001
 51
90.410531000000006
  0
ARC
  5
CD8
  8
0
  6
CONTINUOUS
 62
     7
 10
-538.66210999999998
 20
377.00591999999989
 30
0.0
 40
1.3350147999999991
 50
269.73043000000001
 51
90.269555999999994
  0
ARC
  5
CD9
  8
0
  6
CONTINUOUS
 62
     7
 10
-539.88836999999978
 20
376.99090999999999
 30
0.0
 40
1.0000056999999991
 50
269.99998999999991
 51
90.000003000000007
  0
ARC
  5
CDA
  8
0
  6
CONTINUOUS
 62
     7
 10
-539.88836999999978
 20
366.99090999999987
 30
0.0
 40
1.0000056999999991
 50
269.99998999999991
 51
90.000003000000007
  0
ARC
  5
CDB
  8
0
  6
CONTINUOUS
 62
     7
 10
-538.60015999999985
 20
367.00091999999989
 30
0.0
 40
1.2700266
 50
269.62931999999989
 51
90.370669999999961
  0
ARC
  5
CDC
  8
0
  6
CONTINUOUS
 62
     7
 10
-539.88836999999978
 20
356.99090999999987
 30
0.0
 40
1.0000056999999991
 50
269.99998999999991
 51
90.000003000000007
  0
ARC
  5
CDD
  8
0
  6
CONTINUOUS
 62
     7
 10
-538.60015999999985
 20
356.99090999999987
 30
0.0
 40
1.2700266
 50
269.62931999999989
 51
90.370669999999961
  0
ARC
  5
CDE
  8
0
  6
CONTINUOUS
 62
     7
 10
-539.88836999999978
 20
346.99090999999987
 30
0.0
 40
1.0000056999999991
 50
269.99998999999991
 51
90.000003000000007
  0
ARC
  5
CDF
  8
0
  6
CONTINUOUS
 62
     7
 10
-538.66210999999998
 20
346.98090000000002
 30
0.0
 40
1.3300148000000001
 50
269.72941999999989
 51
90.270567000000014
  0
ARC
  5
CE0
  8
0
  6
CONTINUOUS
 62
     7
 10
-489.32709
 20
334.49090999999981
 30
0.0
 40
1.5
 50
90.000003000000007
 51
180.00001
  0
ARC
  5
CE1
  8
0
  6
CONTINUOUS
 62
     7
 10
-489.32709
 20
329.49090999999981
 30
0.0
 40
1.5
 50
179.99998999999991
 51
270.0
  0
ARC
  5
CE2
  8
0
  6
CONTINUOUS
 62
     7
 10
-507.32709
 20
334.49090999999981
 30
0.0
 40
1.5
 50
0.0
 51
90.000003000000007
  0
ARC
  5
CE3
  8
0
  6
CONTINUOUS
 62
     7
 10
-507.32709
 20
329.49090999999981
 30
0.0
 40
1.5
 50
269.99998999999991
 51
0.00000068324516
  0
ARC
  5
CE4
  8
0
  6
CONTINUOUS
 62
     7
 10
-489.32709
 20
334.49090999999981
 30
0.0
 40
1.02
 50
90.000003000000007
 51
180.00001
  0
ARC
  5
CE5
  8
0
  6
CONTINUOUS
 62
     7
 10
-507.32709
 20
334.49090999999981
 30
0.0
 40
1.02
 50
0.0
 51
90.000003000000007
  0
ARC
  5
CE6
  8
0
  6
CONTINUOUS
 62
     7
 10
-507.30712999999992
 20
329.63092
 30
0.0
 40
1.0
 50
269.99998999999991
 51
0.00000068324625
  0
ARC
  5
CE7
  8
0
  6
CONTINUOUS
 62
     7
 10
-489.34710999999999
 20
329.63092
 30
0.0
 40
1.0
 50
179.99998999999991
 51
270.0
  0
CIRCLE
  5
CE8
  8
0
  6
CONTINUOUS
 62
     3
 10
-500.82709
 20
333.49090999999981
 30
0.0
 40
1.1000000000000001
  0
CIRCLE
  5
CE9
  8
0
  6
CONTINUOUS
 62
     3
 10
-500.82709
 20
333.49090999999981
 30
0.0
 40
1.149999999999999
  0
CIRCLE
  5
CEA
  8
0
  6
CONTINUOUS
 62
     3
 10
-495.82709
 20
333.49090999999981
 30
0.0
 40
1.0
  0
ARC
  5
CEB
  8
0
  6
CONTINUOUS
 62
     7
 10
-489.32709
 20
389.49090999999987
 30
0.0
 40
1.5
 50
179.99998999999991
 51
270.0
  0
ARC
  5
CEC
  8
0
  6
CONTINUOUS
 62
     7
 10
-489.32709
 20
394.49090999999987
 30
0.0
 40
1.5
 50
90.000003000000007
 51
180.00001
  0
ARC
  5
CED
  8
0
  6
CONTINUOUS
 62
     7
 10
-507.32709
 20
389.49090999999987
 30
0.0
 40
1.5
 50
269.99998999999991
 51
0.00000068324516
  0
ARC
  5
CEE
  8
0
  6
CONTINUOUS
 62
     7
 10
-507.32709
 20
394.49090999999987
 30
0.0
 40
1.5
 50
0.0
 51
90.000003000000007
  0
ARC
  5
CEF
  8
0
  6
CONTINUOUS
 62
     7
 10
-489.32709
 20
389.49090999999987
 30
0.0
 40
1.02
 50
179.99998999999991
 51
270.0
  0
ARC
  5
CF0
  8
0
  6
CONTINUOUS
 62
     7
 10
-507.32709
 20
389.49090999999987
 30
0.0
 40
1.02
 50
269.99998999999991
 51
0.00000068324403
  0
ARC
  5
CF1
  8
0
  6
CONTINUOUS
 62
     7
 10
-507.30712999999992
 20
394.35088999999988
 30
0.0
 40
1.0
 50
0.0
 51
90.000003000000007
  0
ARC
  5
CF2
  8
0
  6
CONTINUOUS
 62
     7
 10
-489.34710999999999
 20
394.35088999999988
 30
0.0
 40
1.0
 50
90.000003000000007
 51
180.00001
  0
CIRCLE
  5
CF3
  8
0
  6
CONTINUOUS
 62
     3
 10
-495.82709
 20
390.49090999999987
 30
0.0
 40
1.0
  0
CIRCLE
  5
CF4
  8
0
  6
CONTINUOUS
 62
     3
 10
-500.82709
 20
390.49090999999987
 30
0.0
 40
1.149999999999999
  0
CIRCLE
  5
CF5
  8
0
  6
CONTINUOUS
 62
     3
 10
-500.82709
 20
390.49090999999987
 30
0.0
 40
1.1000000000000001
  0
ARC
  5
CF6
  8
0
  6
CONTINUOUS
 62
     7
 10
-609.62645999999995
 20
302.32085999999993
 30
0.0
 40
2.0
 50
194.1507499999999
 51
269.99998999999991
  0
ARC
  5
CF7
  8
0
  6
CONTINUOUS
 62
     7
 10
-595.58434999999963
 20
298.82085999999998
 30
0.0
 40
1.5
 50
21.461708999999988
 51
90.000003000000007
  0
ARC
  5
CF8
  8
0
  6
CONTINUOUS
 62
     7
 10
-375.82708999999988
 20
289.27147999999983
 30
0.0
 40
2.0
 50
179.99998999999991
 51
268.00000999999992
  0
ARC
  5
CF9
  8
0
  6
CONTINUOUS
 62
     7
 10
-354.82715000000002
 20
361.99090999999999
 30
0.0
 40
3.0
 50
89.986013999999983
 51
270.01398999999992
  0
ARC
  5
CFA
  8
0
  6
CONTINUOUS
 62
     7
 10
-375.82708999999988
 20
321.55047999999999
 30
0.0
 40
2.0
 50
88.485352999999989
 51
180.00001
  0
ARC
  5
CFB
  8
0
  6
CONTINUOUS
 62
     7
 10
-364.82715000000002
 20
342.89215000000002
 30
0.0
 40
2.0
 50
315.0
 51
0.0
  0
ARC
  5
CFC
  8
0
  6
CONTINUOUS
 62
     7
 10
-375.82708999999988
 20
302.49083999999999
 30
0.0
 40
3.0
 50
270.0
 51
0.0
  0
ARC
  5
CFD
  8
0
  6
CONTINUOUS
 62
     7
 10
-380.82715000000002
 20
289.58026000000001
 30
0.0
 40
3.0
 50
0.0
 51
88.0
  0
ARC
  5
CFE
  8
0
  6
CONTINUOUS
 62
     7
 10
-385.82715000000002
 20
297.75977
 30
0.0
 40
5.0
 50
179.99998999999991
 51
268.00000999999992
  0
ARC
  5
CFF
  8
0
  6
CONTINUOUS
 62
     7
 10
-375.82708999999988
 20
434.71026999999992
 30
0.0
 40
2.0
 50
91.999998000000005
 51
180.00001
  0
ARC
  5
D00
  8
0
  6
CONTINUOUS
 62
     7
 10
-375.82708999999988
 20
421.49090999999981
 30
0.0
 40
3.0
 50
0.0
 51
90.000003000000007
  0
ARC
  5
D01
  8
0
  6
CONTINUOUS
 62
     7
 10
-364.82715000000002
 20
381.08959999999968
 30
0.0
 40
2.0
 50
0.0
 51
45.00000099999999
  0
ARC
  5
D02
  8
0
  6
CONTINUOUS
 62
     7
 10
-385.82715000000002
 20
426.22197999999992
 30
0.0
 40
5.0
 50
91.999998000000005
 51
180.00001
  0
ARC
  5
D03
  8
0
  6
CONTINUOUS
 62
     7
 10
-380.82715000000002
 20
434.40149000000002
 30
0.0
 40
3.0
 50
272.0
 51
0.0
  0
ARC
  5
D04
  8
0
  6
CONTINUOUS
 62
     7
 10
-375.82708999999988
 20
402.43126999999998
 30
0.0
 40
2.0
 50
179.99998999999991
 51
271.51463999999999
  0
ARC
  5
D05
  8
0
  6
CONTINUOUS
 62
     7
 10
-97.338202999999993
 20
171.21964
 30
0.0
 40
3.0
 50
40.447929000000002
 51
135.0
  0
ARC
  5
D06
  8
0
  6
CONTINUOUS
 62
     7
 10
-121.17188
 20
55.14353899999999
 30
0.0
 40
7.0000004999999987
 50
270.0
 51
18.251978000000001
  0
ARC
  5
D07
  8
0
  6
CONTINUOUS
 62
     7
 10
-145.2809399999999
 20
130.34795999999969
 30
0.0
 40
20.0
 50
270.0
 51
90.000003000000007
  0
ARC
  5
D08
  8
0
  6
CONTINUOUS
 62
     7
 10
-364.82711999999992
 20
111.10353000000001
 30
0.0
 40
2.0
 50
315.0
 51
0.0
  0
ARC
  5
D09
  8
0
  6
CONTINUOUS
 62
     7
 10
-375.82708999999988
 20
189.8479599999998
 30
0.0
 40
3.0
 50
0.0
 51
90.000003000000007
  0
ARC
  5
D0A
  8
0
  6
CONTINUOUS
 62
     7
 10
-145.2809399999999
 20
130.34795999999969
 30
0.0
 40
20.0
 50
90.000003000000007
 51
270.0
  0
ARC
  5
D0B
  8
0
  6
CONTINUOUS
 62
     7
 10
-385.82711999999992
 20
63.271522999999981
 30
0.0
 40
1.0
 50
91.500000999999969
 51
180.00001
  0
ARC
  5
D0C
  8
0
  6
CONTINUOUS
 62
     7
 10
-364.82711999999992
 20
149.4466899999999
 30
0.0
 40
2.0
 50
0.0
 51
45.00000099999999
  0
ARC
  5
D0D
  8
0
  6
CONTINUOUS
 62
     7
 10
-385.82711999999992
 20
88.612662999999998
 30
0.0
 40
5.0
 50
179.99998999999991
 51
270.0
  0
ARC
  5
D0E
  8
0
  6
CENTER
 62
     7
 10
-145.2809399999999
 20
130.34795999999969
 30
0.0
 40
85.0
 50
127.99867
 51
141.56525999999999
  0
ARC
  5
D0F
  8
0
  6
CONTINUOUS
 62
     7
 10
-385.82711999999992
 20
194.57908999999981
 30
0.0
 40
5.0
 50
91.999998000000005
 51
180.00001
  0
ARC
  5
D10
  8
0
  6
CENTER
 62
     7
 10
-145.2809399999999
 20
130.34795999999969
 30
0.0
 40
85.0
 50
308.11930000000001
 51
321.49358000000001
  0
ARC
  5
D11
  8
0
  6
CONTINUOUS
 62
     7
 10
-171.88160999999991
 20
110.81837
 30
0.0
 40
3.0
 50
315.0
 51
36.285257000000001
  0
ARC
  5
D12
  8
0
  6
CONTINUOUS
 62
     7
 10
-206.65572
 20
69.347945999999993
 30
0.0
 40
10.0
 50
184.99999
 51
270.0
  0
ARC
  5
D13
  8
0
  6
CONTINUOUS
 62
     7
 10
-153.24897999999999
 20
71.847954000000001
 30
0.0
 40
3.0
 50
270.0
 51
45.00000099999999
  0
ARC
  5
D14
  8
0
  6
CONTINUOUS
 62
     7
 10
-83.906181000000004
 20
69.347945999999993
 30
0.0
 40
10.0
 50
270.0
 51
355.0
  0
ARC
  5
D15
  8
0
  6
CONTINUOUS
 62
     7
 10
-186.1526199999999
 20
82.40522
 30
0.0
 40
3.0
 50
135.0
 51
229.55207999999999
  0
ARC
  5
D16
  8
0
  6
CONTINUOUS
 62
     7
 10
-149.7809399999999
 20
193.18702999999991
 30
0.0
 40
3.0
 50
0.0
 51
94.096045999999987
  0
ARC
  5
D17
  8
0
  6
CONTINUOUS
 62
     7
 10
-125.7513399999999
 20
156.94862000000001
 30
0.0
 40
3.0
 50
233.7147499999999
 51
315.0
  0
ARC
  5
D18
  8
0
  6
CONTINUOUS
 62
     7
 10
-186.1526199999999
 20
178.2906999999999
 30
0.0
 40
3.0
 50
130.44793000000001
 51
225.0
  0
ARC
  5
D19
  8
0
  6
CONTINUOUS
 62
     7
 10
-145.2809399999999
 20
130.34795999999969
 30
0.0
 40
20.0
 50
270.0
 51
90.000003000000007
  0
ARC
  5
D1A
  8
0
  6
CONTINUOUS
 62
     7
 10
-206.62555
 20
191.6925699999999
 30
0.0
 40
10.0
 50
95.000001999999995
 51
175.00001
  0
ARC
  5
D1B
  8
0
  6
CONTINUOUS
 62
     7
 10
-145.2809399999999
 20
130.34795999999969
 30
0.0
 40
44.0
 50
137.5473199999997
 51
174.50581
  0
ARC
  5
D1C
  8
0
  6
CONTINUOUS
 62
     7
 10
-171.88160999999991
 20
149.87755000000001
 30
0.0
 40
3.0
 50
323.71474000000001
 51
45.00000099999999
  0
ARC
  5
D1D
  8
0
  6
CONTINUOUS
 62
     7
 10
-380.82711999999998
 20
202.75857999999991
 30
0.0
 40
3.0
 50
272.0
 51
0.0
  0
ARC
  5
D1E
  8
0
  6
CONTINUOUS
 62
     7
 10
-375.82708999999988
 20
170.78832999999969
 30
0.0
 40
2.0
 50
179.99998999999991
 51
271.51463999999999
  0
ARC
  5
D1F
  8
0
  6
CONTINUOUS
 62
     7
 10
-145.2809399999999
 20
113.34796999999971
 30
0.0
 40
60.0
 50
303.10913999999991
 51
306.06658999999991
  0
ARC
  5
D20
  8
0
  6
CONTINUOUS
 62
     7
 10
-83.936324999999982
 20
191.6925699999999
 30
0.0
 40
10.0
 50
4.9999998999999971
 51
84.999996999999979
  0
ARC
  5
D21
  8
0
  6
CONTINUOUS
 62
     7
 10
-385.37252999999993
 20
50.831039000000011
 30
0.0
 40
2.545406299999998
 50
325.61556999999982
 51
34.384439
  0
ARC
  5
D22
  8
0
  6
CONTINUOUS
 62
     7
 10
-392.34161
 20
55.143551000000002
 30
0.0
 40
9.5144920000000006
 50
342.41196000000002
 51
17.588032999999999
  0
ARC
  5
D23
  8
0
  6
CONTINUOUS
 62
     7
 10
-164.81053
 20
156.94862000000001
 30
0.0
 40
3.0
 50
225.0
 51
306.28525999999982
  0
ARC
  5
D24
  8
0
  6
CONTINUOUS
 62
     7
 10
-118.6802899999999
 20
149.87755000000001
 30
0.0
 40
3.0
 50
135.0
 51
216.28525999999991
  0
ARC
  5
D25
  8
0
  6
CONTINUOUS
 62
     7
 10
-145.2809399999999
 20
130.34795999999969
 30
0.0
 40
30.0
 50
17.592213999999991
 51
225.82602999999969
  0
ARC
  5
D26
  8
0
  6
CENTER
 62
     7
 10
-145.2809399999999
 20
130.34795999999969
 30
0.0
 40
85.0
 50
37.863040999999988
 51
51.602066000000001
  0
ARC
  5
D27
  8
0
  6
CONTINUOUS
 62
     7
 10
-374.82711999999998
 20
75.732651000000004
 30
0.0
 40
2.0
 50
268.0
 51
0.0
  0
ARC
  5
D28
  8
0
  6
CONTINUOUS
 62
     7
 10
-375.82708999999988
 20
62.724724000000002
 30
0.0
 40
2.0
 50
179.99998999999991
 51
268.00000999999992
  0
ARC
  5
D29
  8
0
  6
CONTINUOUS
 62
     7
 10
-375.82708999999988
 20
89.812965000000005
 30
0.0
 40
2.0
 50
90.000003000000007
 51
180.00001
  0
ARC
  5
D2A
  8
0
  6
CONTINUOUS
 62
     7
 10
-193.22368
 20
171.21964
 30
0.0
 40
3.0
 50
45.00000099999999
 51
139.5520799999999
  0
ARC
  5
D2B
  8
0
  6
CONTINUOUS
 62
     7
 10
-96.902457999999996
 20
134.84796
 30
0.0
 40
3.0
 50
200.0
 51
270.0
  0
ARC
  5
D2C
  8
0
  6
CONTINUOUS
 62
     7
 10
-93.626723999999996
 20
125.84796
 30
0.0
 40
3.0
 50
90.000003000000007
 51
200.0
  0
ARC
  5
D2D
  8
0
  6
CONTINUOUS
 62
     7
 10
-82.441863999999981
 20
125.84796
 30
0.0
 40
3.0
 50
355.90395999999993
 51
90.000003000000007
  0
ARC
  5
D2E
  8
0
  6
CONTINUOUS
 62
     7
 10
-393.82709
 20
177.1083999999999
 30
0.0
 40
3.0
 50
271.49999999999972
 51
0.0
  0
ARC
  5
D2F
  8
0
  6
CONTINUOUS
 62
     7
 10
-82.441863999999981
 20
134.84796
 30
0.0
 40
3.0
 50
270.0
 51
4.096044
  0
ARC
  5
D30
  8
0
  6
CONTINUOUS
 62
     7
 10
-192.06503000000001
 20
134.84796
 30
0.0
 40
3.0
 50
270.0
 51
354.50582000000009
  0
ARC
  5
D31
  8
0
  6
CONTINUOUS
 62
     7
 10
-385.37252999999993
 20
59.456051000000002
 30
0.0
 40
2.545406299999998
 50
325.61556999999982
 51
34.384439
  0
ARC
  5
D32
  8
0
  6
CONTINUOUS
 62
     7
 10
-192.06503000000001
 20
125.84796
 30
0.0
 40
3.0
 50
5.494178999999999
 51
90.000003000000007
  0
ARC
  5
D33
  8
0
  6
CONTINUOUS
 62
     7
 10
-208.1200399999999
 20
134.84796
 30
0.0
 40
3.0
 50
175.90395000000001
 51
270.0
  0
ARC
  5
D34
  8
0
  6
CONTINUOUS
 62
     7
 10
-140.78093999999979
 20
177.13204999999991
 30
0.0
 40
3.0
 50
179.99998999999991
 51
264.50582000000003
  0
ARC
  5
D35
  8
0
  6
CONTINUOUS
 62
     7
 10
-149.7809399999999
 20
177.13204999999991
 30
0.0
 40
3.0
 50
275.49417999999991
 51
0.0
  0
ARC
  5
D36
  8
0
  6
CONTINUOUS
 62
     7
 10
-145.2809399999999
 20
130.34795999999969
 30
0.0
 40
44.0
 50
185.49419
 51
222.45267999999999
  0
ARC
  5
D37
  8
0
  6
CONTINUOUS
 62
     7
 10
-208.1200399999999
 20
125.84796
 30
0.0
 40
3.0
 50
90.000003000000007
 51
184.09603999999999
  0
ARC
  5
D38
  8
0
  6
CONTINUOUS
 62
     7
 10
-140.78093999999979
 20
193.18702999999991
 30
0.0
 40
3.0
 50
85.903959
 51
180.00001
  0
ARC
  5
D39
  8
0
  6
CONTINUOUS
 62
     7
 10
-145.2809399999999
 20
130.34795999999969
 30
0.0
 40
20.0
 50
90.000003000000007
 51
270.0
  0
ARC
  5
D3A
  8
0
  6
CONTINUOUS
 62
     7
 10
-375.82708999999988
 20
203.06738000000001
 30
0.0
 40
2.0
 50
91.999998000000005
 51
180.00001
  0
ARC
  5
D3B
  8
0
  6
CONTINUOUS
 62
     7
 10
-104.40926
 20
178.2906999999999
 30
0.0
 40
3.0
 50
315.0
 51
49.552073
  0
CIRCLE
  5
D3C
  8
0
  6
CONTINUOUS
 62
     7
 10
-195.26221000000001
 20
151.69993999999991
 30
0.0
 40
4.9999995000000004
  0
CIRCLE
  5
D3D
  8
0
  6
CONTINUOUS
 62
     7
 10
-121.17188
 20
55.143562000000003
 30
0.0
 40
4.9999995000000004
  0
ARC
  5
D3E
  8
0
  6
CENTER
 62
     7
 10
-145.2809399999999
 20
130.34795999999969
 30
0.0
 40
85.0
 50
218.07263999999969
 51
231.24776
  0
CIRCLE
  5
D3F
  8
0
  6
CONTINUOUS
 62
     7
 10
-205.38500999999999
 20
190.45203000000001
 30
0.0
 40
5.0
  0
ARC
  5
D40
  8
0
  6
CONTINUOUS
 62
     7
 10
-145.2809399999999
 20
113.34796999999971
 30
0.0
 40
60.0
 50
303.10913999999991
 51
304.41151000000002
  0
ARC
  5
D41
  8
0
  6
CONTINUOUS
 62
     7
 10
-145.2809399999999
 20
113.34796999999971
 30
0.0
 40
60.0
 50
233.93341000000001
 51
236.89085
  0
ARC
  5
D42
  8
0
  6
CONTINUOUS
 62
     7
 10
-169.38999999999999
 20
55.14353899999999
 30
0.0
 40
7.0000004999999987
 50
161.74801999999991
 51
270.0
  0
CIRCLE
  5
D43
  8
0
  6
CONTINUOUS
 62
     7
 10
-205.38500999999999
 20
70.243881000000002
 30
0.0
 40
5.0
  0
CIRCLE
  5
D44
  8
0
  6
CONTINUOUS
 62
     7
 10
-85.176865000000006
 20
190.45203000000001
 30
0.0
 40
5.0
  0
ARC
  5
D45
  8
0
  6
CONTINUOUS
 62
     7
 10
-123.7309299999999
 20
95.467949000000004
 30
0.0
 40
20.0
 50
225.82602999999969
 51
17.592213999999991
  0
ARC
  5
D46
  8
0
  6
CONTINUOUS
 62
     7
 10
-145.2809399999999
 20
130.34795999999969
 30
0.0
 40
66.0
 50
291.2799599999999
 51
248.72002999999989
  0
ARC
  5
D47
  8
0
  6
CONTINUOUS
 62
     7
 10
-145.2809399999999
 20
130.34795999999969
 30
0.0
 40
70.0
 50
290.65615000000008
 51
249.3438399999998
  0
ARC
  5
D48
  8
0
  6
CONTINUOUS
 62
     7
 10
-108.01852
 20
79.549210000000002
 30
0.0
 40
3.0
 50
211.70912000000001
 51
306.26119999999992
  0
ARC
  5
D49
  8
0
  6
CONTINUOUS
 62
     7
 10
-116.52578
 20
74.293143999999984
 30
0.0
 40
3.0
 50
297.15705000000008
 51
31.70912199999999
  0
ARC
  5
D4A
  8
0
  6
CONTINUOUS
 62
     7
 10
-193.22368
 20
89.476279999999988
 30
0.0
 40
3.0
 50
220.44792000000001
 51
315.0
  0
ARC
  5
D4B
  8
0
  6
CONTINUOUS
 62
     7
 10
-180.78624999999971
 20
58.901893999999992
 30
0.0
 40
5.0
 50
341.74801999999988
 51
56.890858999999999
  0
ARC
  5
D4C
  8
0
  6
CONTINUOUS
 62
     7
 10
-109.77561999999971
 20
58.901893999999992
 30
0.0
 40
5.0
 50
123.10912999999979
 51
198.25198
  0
ARC
  5
D4D
  8
0
  6
CONTINUOUS
 62
     7
 10
-145.2809399999999
 20
130.34795999999969
 30
0.0
 40
44.0
 50
95.494178999999988
 51
132.4526799999999
  0
CIRCLE
  5
D4E
  8
0
  6
CONTINUOUS
 62
     7
 10
-85.176865000000006
 20
70.243881000000002
 30
0.0
 40
5.0
  0
ARC
  5
D4F
  8
0
  6
CONTINUOUS
 62
     7
 10
-145.2809399999999
 20
130.34795999999969
 30
0.0
 40
44.0
 50
19.999998999999981
 51
42.452682000000003
  0
ARC
  5
D50
  8
0
  6
CONTINUOUS
 62
     7
 10
-165.03138999999999
 20
103.52643999999979
 30
0.0
 40
3.0
 50
45.826031
 51
135.0
  0
CIRCLE
  5
D51
  8
0
  6
CONTINUOUS
 62
     7
 10
-145.2809399999999
 20
130.34795999999969
 30
0.0
 40
2.4999997999999981
  0
CIRCLE
  5
D52
  8
0
  6
CONTINUOUS
 62
     2
 10
-145.2809399999999
 20
130.34795999999969
 30
0.0
 40
3.0
  0
ARC
  5
D53
  8
0
  6
CONTINUOUS
 62
     7
 10
-145.2809399999999
 20
130.34795999999969
 30
0.0
 40
9.5
 50
108.40848
 51
71.591511999999994
  0
ARC
  5
D54
  8
0
  6
CONTINUOUS
 62
     7
 10
-454.32709
 20
63.847960999999991
 30
0.0
 40
2.0
 50
270.0
 51
0.0
  0
ARC
  5
D55
  8
0
  6
CONTINUOUS
 62
     7
 10
-454.32709
 20
51.522742999999998
 30
0.0
 40
1.0
 50
91.500000999999969
 51
180.00001
  0
ARC
  5
D56
  8
0
  6
CONTINUOUS
 62
     7
 10
-456.32711999999992
 20
50.95304500000001
 30
0.0
 40
1.0
 50
271.49999999999972
 51
0.0
  0
ARC
  5
D57
  8
0
  6
CONTINUOUS
 62
     7
 10
-456.32711999999992
 20
175.7428699999999
 30
0.0
 40
1.0
 50
0.0
 51
88.499996999999965
  0
ARC
  5
D58
  8
0
  6
CONTINUOUS
 62
     7
 10
-454.32709
 20
175.17318999999981
 30
0.0
 40
1.0
 50
179.99998999999991
 51
268.50000999999992
  0
ARC
  5
D59
  8
0
  6
CONTINUOUS
 62
     7
 10
-454.32709
 20
162.84796
 30
0.0
 40
2.0
 50
0.0
 51
90.000003000000007
  0
ARC
  5
D5A
  8
0
  6
CONTINUOUS
 62
     7
 10
-454.32709
 20
73.351662000000005
 30
0.0
 40
2.0
 50
0.0
 51
90.000003000000007
  0
ARC
  5
D5B
  8
0
  6
CONTINUOUS
 62
     7
 10
-454.32709
 20
153.34426999999991
 30
0.0
 40
2.0
 50
270.0
 51
0.0
  0
ARC
  5
D5C
  8
0
  6
CONTINUOUS
 62
     7
 10
-455.34157999999979
 20
48.978161
 30
0.0
 40
1.0
 50
30.000001000000001
 51
91.500000999999969
  0
CIRCLE
  5
D5D
  8
0
  6
CONTINUOUS
 62
     7
 10
-169.38999999999999
 20
55.143562000000003
 30
0.0
 40
4.9999995000000004
  0
CIRCLE
  5
D5E
  8
0
  6
CONTINUOUS
 62
     7
 10
-95.299689999999984
 20
151.69993999999991
 30
0.0
 40
4.9999995000000004
  0
ARC
  5
D5F
  8
0
  6
CONTINUOUS
 62
     7
 10
-145.2809399999999
 20
130.34795999999969
 30
0.0
 40
44.0
 50
47.547316999999993
 51
84.505819000000017
  0
ARC
  5
D60
  8
0
  6
CONTINUOUS
 62
     3
 10
-619.33392000000003
 20
161.36588999999981
 30
0.0
 40
0.99319202
 50
119.7734
 51
179.87956
  0
ARC
  5
D61
  8
0
  6
CONTINUOUS
 62
     3
 10
-619.33148000000017
 20
160.32764999999969
 30
0.0
 40
0.99558806
 50
116.58749
 51
179.98224999999991
  0
ARC
  5
D62
  8
0
  6
CONTINUOUS
 62
     3
 10
-618.06505999999979
 20
162.10208
 30
0.0
 40
0.9959119600000002
 50
89.541443999999998
 51
119.6069899999999
  0
ARC
  5
D63
  8
0
  6
CONTINUOUS
 62
     3
 10
-618.10229000000004
 20
160.95394999999991
 30
0.0
 40
0.9941280500000002
 50
89.122808000000006
 51
115.93481
  0
ARC
  5
D64
  8
0
  6
CONTINUOUS
 62
     3
 10
-618.05829000000006
 20
159.99376000000001
 30
0.0
 40
0.9942600099999999
 50
89.355881999999966
 51
120.78109000000001
  0
ARC
  5
D65
  8
0
  6
CONTINUOUS
 62
     3
 10
-618.09198000000004
 20
158.85259999999991
 30
0.0
 40
0.99546796
 50
89.141447999999983
 51
117.2036599999999
  0
ARC
  5
D66
  8
0
  6
CONTINUOUS
 62
     3
 10
-618.02044999999998
 20
155.4817699999999
 30
0.0
 40
0.9962120099999999
 50
90.381906000000001
 51
123.9699
  0
ARC
  5
D67
  8
0
  6
CONTINUOUS
 62
     3
 10
-618.04767000000004
 20
154.34147999999979
 30
0.0
 40
0.9965200400000001
 50
90.541213000000027
 51
120.7432799999999
  0
ARC
  5
D68
  8
0
  6
CONTINUOUS
 62
     3
 10
-619.33307000000002
 20
153.59116
 30
0.0
 40
0.99407601
 50
120.4692
 51
180.18464
  0
ARC
  5
D69
  8
0
  6
CONTINUOUS
 62
     7
 10
-452.89867999999962
 20
48.746932999999999
 30
0.0
 40
1.0
 50
210.0
 51
271.49999999999972
  0
ARC
  5
D6A
  8
0
  6
CONTINUOUS
 62
     3
 10
-619.33234000000004
 20
154.62556000000001
 30
0.0
 40
0.9948279899999999
 50
123.2046899999999
 51
180.43813
  0
ARC
  5
D6B
  8
0
  6
CONTINUOUS
 62
     3
 10
-619.33385999999985
 20
158.18939
 30
0.0
 40
0.9932120399999999
 50
117.7993399999999
 51
180.08183
  0
ARC
  5
D6C
  8
0
  6
CONTINUOUS
 62
     7
 10
-496.83215000000001
 20
90.853026999999969
 30
0.0
 40
5.4981922999999986
 50
84.729479999999981
 51
185.27052
  0
ARC
  5
D6D
  8
0
  6
CONTINUOUS
 62
     3
 10
-490.83199999999988
 20
84.852858999999995
 30
0.0
 40
1.5049160999999991
 50
270.18678
 51
359.81322
  0
ARC
  5
D6E
  8
0
  6
CONTINUOUS
 62
     3
 10
-619.33270000000005
 20
159.2269399999999
 30
0.0
 40
0.9944360299999999
 50
121.15217
 51
179.9404899999999
  0
ARC
  5
D6F
  8
0
  6
CONTINUOUS
 62
     3
 10
-618.12609999999995
 20
148.04249999999979
 30
0.0
 40
0.99548006
 50
90.057320999999988
 51
113.12703
  0
ARC
  5
D70
  8
0
  6
CONTINUOUS
 62
     3
 10
-602.18640000000005
 20
72.128838000000002
 30
0.0
 40
1.004235999999999
 50
314.93782999999991
 51
5.6649238999999989
  0
ARC
  5
D71
  8
0
  6
CONTINUOUS
 62
     3
 10
-490.82692999999989
 20
141.84813
 30
0.0
 40
1.4998400000000001
 50
359.99394000000001
 51
90.006061000000003
  0
ARC
  5
D72
  8
0
  6
CONTINUOUS
 62
     7
 10
-541.83185000000003
 20
135.8527499999997
 30
0.0
 40
5.5071000999999971
 50
264.84087999999991
 51
5.1591262000000002
  0
ARC
  5
D73
  8
0
  6
CONTINUOUS
 62
     3
 10
-618.18793000000016
 20
146.09525999999991
 30
0.0
 40
0.99277198
 50
89.374808000000016
 51
106.33181999999969
  0
ARC
  5
D74
  8
0
  6
CONTINUOUS
 62
     3
 10
-619.33087
 20
145.74370999999991
 30
0.0
 40
0.9962600499999998
 50
106.6974899999999
 51
180.33049
  0
ARC
  5
D75
  8
0
  6
CONTINUOUS
 62
     3
 10
-619.33069
 20
147.52954
 30
0.0
 40
0.99640006
 50
112.8173899999997
 51
180.0903999999999
  0
ARC
  5
D76
  8
0
  6
CONTINUOUS
 62
     3
 10
-619.33203000000003
 20
138.35288999999969
 30
0.0
 40
0.9950800499999999
 50
89.71592099999998
 51
180.2840699999999
  0
ARC
  5
D77
  8
0
  6
CONTINUOUS
 62
     3
 10
-619.32690000000002
 20
138.34818000000001
 30
0.0
 40
1.0002040000000001
 50
180.0116699999999
 51
269.9883200000001
  0
ARC
  5
D78
  8
0
  6
CONTINUOUS
 62
     3
 10
-619.33203000000003
 20
128.35289
 30
0.0
 40
0.99508399
 50
89.716132999999985
 51
180.28387000000001
  0
ARC
  5
D79
  8
0
  6
CONTINUOUS
 62
     3
 10
-619.32690000000002
 20
128.34818000000001
 30
0.0
 40
1.0001999999999991
 50
180.01146999999969
 51
269.98852999999991
  0
ARC
  5
D7A
  8
0
  6
CONTINUOUS
 62
     3
 10
-619.33203000000003
 20
118.3529099999998
 30
0.0
 40
0.9950879799999999
 50
89.716344999999961
 51
180.28364999999991
  0
ARC
  5
D7B
  8
0
  6
CONTINUOUS
 62
     3
 10
-619.32690000000002
 20
118.3481699999999
 30
0.0
 40
1.0001959999999981
 50
180.01124999999999
 51
269.98874000000001
  0
ARC
  5
D7C
  8
0
  6
CONTINUOUS
 62
     3
 10
-616.32696999999985
 20
116.3481299999999
 30
0.0
 40
0.99984801
 50
359.99121999999988
 51
90.008778999999976
  0
ARC
  5
D7D
  8
0
  6
CONTINUOUS
 62
     3
 10
-616.33196999999996
 20
120.3528699999999
 30
0.0
 40
1.0049238999999981
 50
270.28001
 51
359.71999
  0
ARC
  5
D7E
  8
0
  6
CONTINUOUS
 62
     3
 10
-616.32696999999985
 20
126.34811000000001
 30
0.0
 40
0.9998440099999999
 50
359.99101000000002
 51
90.008991000000023
  0
ARC
  5
D7F
  8
0
  6
CONTINUOUS
 62
     3
 10
-616.33196999999996
 20
130.35286999999991
 30
0.0
 40
1.004928
 50
270.28021999999987
 51
359.71977999999967
  0
ARC
  5
D80
  8
0
  6
CONTINUOUS
 62
     3
 10
-616.32696999999985
 20
136.34810999999999
 30
0.0
 40
0.99985206
 50
359.99144999999999
 51
90.008546999999993
  0
ARC
  5
D81
  8
0
  6
CONTINUOUS
 62
     3
 10
-616.33196999999996
 20
140.35288999999969
 30
0.0
 40
1.0049318999999981
 50
270.28041999999999
 51
359.71958000000001
  0
ARC
  5
D82
  8
0
  6
CONTINUOUS
 62
     3
 10
-616.32537999999965
 20
146.0896799999999
 30
0.0
 40
0.99829602
 50
359.90204
 51
90.097960999999998
  0
ARC
  5
D83
  8
0
  6
CONTINUOUS
 62
     3
 10
-616.32947000000001
 20
154.33559999999991
 30
0.0
 40
1.002375999999999
 50
0.13559199
 51
89.864409999999964
  0
ARC
  5
D84
  8
0
  6
CONTINUOUS
 62
     3
 10
-616.03168000000016
 20
149.74251000000001
 30
0.0
 40
0.7045519900000004
 50
270.36910999999992
 51
359.63088999999991
  0
ARC
  5
D85
  8
0
  6
CONTINUOUS
 62
     3
 10
-616.32610999999963
 20
158.84897000000001
 30
0.0
 40
0.9990080599999998
 50
359.94315
 51
90.056843000000015
  0
ARC
  5
D86
  8
0
  6
CONTINUOUS
 62
     3
 10
-615.82550000000003
 20
161.44961999999981
 30
0.0
 40
0.4983640000000002
 50
359.81141000000002
 51
90.188598000000013
  0
ARC
  5
D87
  8
0
  6
CONTINUOUS
 62
     3
 10
-615.83172999999999
 20
163.60257999999979
 30
0.0
 40
0.5046359900000002
 50
270.52375999999992
 51
359.47624000000002
  0
ARC
  5
D88
  8
0
  6
CONTINUOUS
 62
     3
 10
-467.32690000000002
 20
50.848137000000001
 30
0.0
 40
1.0001799999999981
 50
180.01031
 51
269.98967999999968
  0
ARC
  5
D89
  8
0
  6
CONTINUOUS
 62
     3
 10
-475.52242999999999
 20
53.493346999999993
 30
0.0
 40
2.0053917999999991
 50
270.15275000000003
 51
344.81207000000001
  0
ARC
  5
D8A
  8
0
  6
CONTINUOUS
 62
     3
 10
-467.3276399999998
 20
62.307426
 30
0.0
 40
0.9994760199999999
 50
179.97008999999991
 51
270.02991999999989
  0
ARC
  5
D8B
  8
0
  6
CONTINUOUS
 62
     3
 10
-593.33190999999999
 20
118.34796
 30
0.0
 40
1.0000119000000001
 50
89.726507999999981
 51
270.27347999999989
  0
ARC
  5
D8C
  8
0
  6
CONTINUOUS
 62
     3
 10
-609.10608000000002
 20
164.3355399999999
 30
0.0
 40
1.9924479999999991
 50
89.742107999999988
 51
169.81178999999969
  0
ARC
  5
D8D
  8
0
  6
CONTINUOUS
 62
     3
 10
-609.16228999999987
 20
169.61868000000001
 30
0.0
 40
1.999288
 50
89.851815000000016
 51
167.89433
  0
ARC
  5
D8E
  8
0
  6
CONTINUOUS
 62
     3
 10
-613.54278999999985
 20
165.88820000000001
 30
0.0
 40
1.500248
 50
270.21661999999992
 51
347.67500000000001
  0
ARC
  5
D8F
  8
0
  6
CONTINUOUS
 62
     3
 10
-609.19506999999987
 20
173.02344999999991
 30
0.0
 40
1.9945159999999991
 50
89.771334999999979
 51
166.8280399999999
  0
ARC
  5
D90
  8
0
  6
CONTINUOUS
 62
     3
 10
-613.51868000000002
 20
169.95174999999981
 30
0.0
 40
1.503776
 50
270.05984000000001
 51
346.39312999999999
  0
ARC
  5
D91
  8
0
  6
CONTINUOUS
 62
     3
 10
-613.50580000000002
 20
171.9711799999998
 30
0.0
 40
1.5032319999999959
 50
270.33132000000001
 51
346.01802999999978
  0
ARC
  5
D92
  8
0
  6
CONTINUOUS
 62
     3
 10
-609.22051999999985
 20
174.65114999999969
 30
0.0
 40
1.996815999999999
 50
89.901436000000004
 51
165.88940999999991
  0
ARC
  5
D93
  8
0
  6
CONTINUOUS
 62
     3
 10
-592.33172999999988
 20
173.21260000000001
 30
0.0
 40
1.9953640999999991
 50
89.866758999999988
 51
180.13323
  0
ARC
  5
D94
  8
0
  6
CONTINUOUS
 62
     3
 10
-592.33086999999966
 20
175.24178000000001
 30
0.0
 40
1.9961880000000001
 50
89.890486999999965
 51
180.10950999999989
  0
ARC
  5
D95
  8
0
  6
CONTINUOUS
 62
     3
 10
-592.33355999999958
 20
176.5944199999999
 30
0.0
 40
1.9935560999999991
 50
89.814515
 51
180.18548999999999
  0
ARC
  5
D96
  8
0
  6
CONTINUOUS
 62
     3
 10
-592.33159999999975
 20
177.26923999999991
 30
0.0
 40
1.9987239999999991
 50
89.871137000000004
 51
165.55096
  0
ARC
  5
D97
  8
0
  6
CONTINUOUS
 62
     3
 10
-595.8338
 20
167.83466000000001
 30
0.0
 40
1.506699899999999
 50
270.2541599999999
 51
359.74583999999987
  0
ARC
  5
D98
  8
0
  6
CONTINUOUS
 62
     3
 10
-595.8299599999998
 20
173.1208
 30
0.0
 40
1.5028360000000001
 50
270.10793999999999
 51
359.89206000000001
  0
ARC
  5
D99
  8
0
  6
CONTINUOUS
 62
     3
 10
-595.83196999999996
 20
176.52282999999991
 30
0.0
 40
1.5048719999999991
 50
270.18518
 51
359.81482
  0
ARC
  5
D9A
  8
0
  6
CONTINUOUS
 62
     3
 10
-595.72051999999985
 20
178.15098999999981
 30
0.0
 40
1.5030159999999959
 50
270.12945000000002
 51
345.23653999999999
  0
ARC
  5
D9B
  8
0
  6
CONTINUOUS
 62
     3
 10
-539.32806000000005
 20
175.23705000000001
 30
0.0
 40
2.0009238999999992
 50
0.026462999
 51
89.973535999999982
  0
ARC
  5
D9C
  8
0
  6
CONTINUOUS
 62
     3
 10
-539.32538
 20
176.58966000000001
 30
0.0
 40
1.9982919999999991
 50
359.95102999999972
 51
90.048975000000013
  0
ARC
  5
D9D
  8
0
  6
CONTINUOUS
 62
     3
 10
-539.32892000000004
 20
177.26613999999981
 30
0.0
 40
2.0018279999999962
 50
0.052301
 51
89.947696999999977
  0
ARC
  5
D9E
  8
0
  6
CONTINUOUS
 62
     3
 10
-468.67685
 20
161.2003599999999
 30
0.0
 40
1.502391899999999
 50
195.1400099999999
 51
269.99063999999998
  0
ARC
  5
D9F
  8
0
  6
CONTINUOUS
 62
     3
 10
-475.51751999999999
 20
173.20897999999991
 30
0.0
 40
1.998987899999999
 50
15.047801
 51
89.987373000000005
  0
ARC
  5
DA0
  8
0
  6
CONTINUOUS
 62
     3
 10
-467.33205999999961
 20
175.8529199999999
 30
0.0
 40
0.9950640200000001
 50
89.714938000000004
 51
180.28505999999999
  0
ARC
  5
DA1
  8
0
  6
CONTINUOUS
 62
     3
 10
-467.33269999999987
 20
164.3935899999999
 30
0.0
 40
0.9944000200000001
 50
89.676490999999999
 51
180.32351
  0
ARC
  5
DA2
  8
0
  6
CONTINUOUS
 62
     3
 10
-468.62121999999988
 20
165.88842999999969
 30
0.0
 40
1.500475999999999
 50
192.33223000000001
 51
270.15827999999999
  0
ARC
  5
DA3
  8
0
  6
CONTINUOUS
 62
     3
 10
-473.47964000000002
 20
171.8514899999999
 30
0.0
 40
1.996488
 50
12.040875
 51
89.926440999999969
  0
ARC
  5
DA4
  8
0
  6
CONTINUOUS
 62
     3
 10
-616.33044000000018
 20
80.611312999999967
 30
0.0
 40
1.003363999999999
 50
270.19171
 51
359.80827999999991
  0
ARC
  5
DA5
  8
0
  6
CONTINUOUS
 62
     3
 10
-616.33196999999996
 20
90.352874999999997
 30
0.0
 40
1.0049238999999981
 50
270.28003999999999
 51
359.71996999999988
  0
ARC
  5
DA6
  8
0
  6
CONTINUOUS
 62
     3
 10
-616.32696999999985
 20
86.348129
 30
0.0
 40
0.99984801
 50
359.99119000000002
 51
90.008807000000004
  0
ARC
  5
DA7
  8
0
  6
CONTINUOUS
 62
     3
 10
-616.02655000000004
 20
76.958518999999981
 30
0.0
 40
0.69944
 50
359.95416
 51
90.045839999999984
  0
ARC
  5
DA8
  8
0
  6
CONTINUOUS
 62
     3
 10
-618.12408000000016
 20
78.663184999999999
 30
0.0
 40
1.005223999999999
 50
246.98628999999991
 51
269.82935999999989
  0
ARC
  5
DA9
  8
0
  6
CONTINUOUS
 62
     3
 10
-618.18658000000005
 20
80.610648999999981
 30
0.0
 40
1.0027280000000001
 50
253.75297
 51
270.54039999999992
  0
ARC
  5
DAA
  8
0
  6
CONTINUOUS
 62
     3
 10
-619.33069
 20
80.962303000000006
 30
0.0
 40
0.9963800299999999
 50
180.24948999999981
 51
253.29706999999991
  0
ARC
  5
DAB
  8
0
  6
CONTINUOUS
 62
     3
 10
-619.3306299999997
 20
79.176430000000025
 30
0.0
 40
0.9964760499999998
 50
179.91257999999991
 51
247.17966000000001
  0
ARC
  5
DAC
  8
0
  6
CONTINUOUS
 62
     3
 10
-619.32690000000002
 20
88.348167000000004
 30
0.0
 40
1.0001959999999981
 50
180.01127999999991
 51
269.98872
  0
ARC
  5
DAD
  8
0
  6
CONTINUOUS
 62
     3
 10
-619.33203000000003
 20
88.352905000000007
 30
0.0
 40
0.99508399
 50
89.716324
 51
180.28368
  0
ARC
  5
DAE
  8
0
  6
CONTINUOUS
 62
     3
 10
-619.32690000000002
 20
98.348174999999983
 30
0.0
 40
1.0001999999999991
 50
180.01150000000001
 51
269.98851000000002
  0
ARC
  5
DAF
  8
0
  6
CONTINUOUS
 62
     3
 10
-619.33203000000003
 20
98.352890000000016
 30
0.0
 40
0.99508399
 50
89.716106000000025
 51
180.2838899999999
  0
ARC
  5
DB0
  8
0
  6
CONTINUOUS
 62
     3
 10
-619.32690000000002
 20
108.3481799999999
 30
0.0
 40
1.0002040000000001
 50
180.01169999999999
 51
269.98829999999992
  0
ARC
  5
DB1
  8
0
  6
CONTINUOUS
 62
     3
 10
-619.33203000000003
 20
108.35290000000001
 30
0.0
 40
0.9950800499999999
 50
89.715893999999963
 51
180.2841
  0
ARC
  5
DB2
  8
0
  6
CONTINUOUS
 62
     3
 10
-616.33203000000003
 20
110.3528899999999
 30
0.0
 40
1.0049318999999981
 50
270.28044999999992
 51
359.71955000000008
  0
ARC
  5
DB3
  8
0
  6
CONTINUOUS
 62
     3
 10
-616.32696999999985
 20
106.34811999999999
 30
0.0
 40
0.99985206
 50
359.99142999999998
 51
90.008574000000024
  0
ARC
  5
DB4
  8
0
  6
CONTINUOUS
 62
     3
 10
-616.33196999999996
 20
100.3528799999999
 30
0.0
 40
1.004928
 50
270.28023999999988
 51
359.71976000000001
  0
ARC
  5
DB5
  8
0
  6
CONTINUOUS
 62
     3
 10
-616.32696999999985
 20
96.348113999999995
 30
0.0
 40
0.9998440099999999
 50
359.99097999999992
 51
90.00901800000004
  0
ARC
  5
DB6
  8
0
  6
CONTINUOUS
 62
     3
 10
-606.16881999999976
 20
154.94077999999999
 30
0.0
 40
5.004112199999998
 50
279.68356999999992
 51
354.57833999999991
  0
ARC
  5
DB7
  8
0
  6
CONTINUOUS
 62
     3
 10
-605.70636000000002
 20
151.0150499999998
 30
0.0
 40
6.0049156999999971
 50
45.22730700000001
 51
86.379093999999981
  0
ARC
  5
DB8
  8
0
  6
CONTINUOUS
 62
     3
 10
-602.18316999999979
 20
154.56825000000001
 30
0.0
 40
1.0011080999999991
 50
354.25024999999982
 51
45.146993999999992
  0
ARC
  5
DB9
  8
0
  6
CONTINUOUS
 62
     3
 10
-473.48464999999987
 20
54.850570999999981
 30
0.0
 40
2.0026237999999981
 50
270.21533999999991
 51
347.81734
  0
ARC
  5
DBA
  8
0
  6
CONTINUOUS
 62
     3
 10
-468.62002999999999
 20
60.818641999999997
 30
0.0
 40
1.499328
 50
89.888150999999979
 51
168.09384
  0
ARC
  5
DBB
  8
0
  6
CONTINUOUS
 62
     3
 10
-605.69713999999999
 20
75.695137000000003
 30
0.0
 40
6.0085920999999987
 50
273.53095000000002
 51
314.61478
  0
ARC
  5
DBC
  8
0
  6
CONTINUOUS
 62
     3
 10
-606.1637599999998
 20
71.759880000000024
 30
0.0
 40
4.9985837999999987
 50
5.3731198999999981
 51
80.364975999999999
  0
ARC
  5
DBD
  8
0
  6
CONTINUOUS
 62
     3
 10
-619.32947000000001
 20
65.332626000000005
 30
0.0
 40
0.9976240400000001
 50
180.2675099999999
 51
240.07953999999981
  0
ARC
  5
DBE
  8
0
  6
CONTINUOUS
 62
     3
 10
-619.33141999999975
 20
66.378318999999991
 30
0.0
 40
0.99566799
 50
180.02043
 51
243.40982999999991
  0
ARC
  5
DBF
  8
0
  6
CONTINUOUS
 62
     3
 10
-618.0463900000002
 20
64.599036999999996
 30
0.0
 40
1.0011358999999991
 50
239.328
 51
269.38751000000002
  0
ARC
  5
DC0
  8
0
  6
CONTINUOUS
 62
     3
 10
-618.08130000000006
 20
65.747222999999991
 30
0.0
 40
0.99928796
 50
242.86126999999991
 51
269.66618999999992
  0
ARC
  5
DC1
  8
0
  6
CONTINUOUS
 62
     3
 10
-618.05572999999981
 20
66.711617000000004
 30
0.0
 40
1.003687999999999
 50
239.37027
 51
270.49275
  0
ARC
  5
DC2
  8
0
  6
CONTINUOUS
 62
     3
 10
-618.07195999999965
 20
67.848586999999995
 30
0.0
 40
1.0006280000000001
 50
241.64985999999999
 51
269.70470999999992
  0
ARC
  5
DC3
  8
0
  6
CONTINUOUS
 62
     3
 10
-618.03430000000003
 20
71.228461999999965
 30
0.0
 40
1.0005360000000001
 50
237.1464
 51
270.41322000000002
  0
ARC
  5
DC4
  8
0
  6
CONTINUOUS
 62
     3
 10
-618.06377999999995
 20
72.368957999999978
 30
0.0
 40
1.001012
 50
240.47136
 51
270.3802
  0
ARC
  5
DC5
  8
0
  6
CONTINUOUS
 62
     3
 10
-619.32799999999975
 20
72.072647000000003
 30
0.0
 40
0.9991000299999999
 50
179.69542000000001
 51
236.66176999999999
  0
ARC
  5
DC6
  8
0
  6
CONTINUOUS
 62
     3
 10
-619.32941000000005
 20
68.509253999999999
 30
0.0
 40
0.99770796
 50
180.07404999999969
 51
242.04476
  0
ARC
  5
DC7
  8
0
  6
CONTINUOUS
 62
     3
 10
-619.32830999999999
 20
67.471457999999998
 30
0.0
 40
0.9987800700000001
 50
179.6266699999999
 51
238.70855
  0
ARC
  5
DC8
  8
0
  6
CONTINUOUS
 62
     3
 10
-616.32959000000005
 20
72.370421999999976
 30
0.0
 40
1.002459999999999
 50
270.14037999999999
 51
359.85962000000001
  0
ARC
  5
DC9
  8
0
  6
CONTINUOUS
 62
     3
 10
-619.32866999999976
 20
73.107262000000006
 30
0.0
 40
0.9984599899999999
 50
179.95962
 51
239.38655
  0
ARC
  5
DCA
  8
0
  6
CONTINUOUS
 62
     3
 10
-616.33118000000002
 20
67.852043000000009
 30
0.0
 40
1.0040839999999991
 50
270.23262999999992
 51
359.76737000000008
  0
ARC
  5
DCB
  8
0
  6
CONTINUOUS
 62
     3
 10
-615.83050999999966
 20
65.251350000000002
 30
0.0
 40
0.50340396
 50
270.38612999999992
 51
359.61387000000002
  0
ARC
  5
DCC
  8
0
  6
CONTINUOUS
 62
     3
 10
-615.82665999999995
 20
63.098396000000001
 30
0.0
 40
0.49955601
 50
359.94911000000002
 51
90.050894000000014
  0
ARC
  5
DCD
  8
0
  6
CONTINUOUS
 62
     3
 10
-609.10107000000005
 20
62.366385999999999
 30
0.0
 40
1.998443999999999
 50
190.33239999999989
 51
270.11368999999968
  0
ARC
  5
DCE
  8
0
  6
CONTINUOUS
 62
     3
 10
-609.16217000000006
 20
57.087341000000002
 30
0.0
 40
1.9993919999999981
 50
192.1080399999999
 51
270.14582000000001
  0
ARC
  5
DCF
  8
0
  6
CONTINUOUS
 62
     3
 10
-613.54400999999984
 20
60.818870999999987
 30
0.0
 40
1.4991000000000001
 50
11.89856
 51
89.736657999999963
  0
ARC
  5
DD0
  8
0
  6
CONTINUOUS
 62
     3
 10
-609.19011999999975
 20
53.678718999999987
 30
0.0
 40
2.0007559999999991
 50
193.3141599999999
 51
270.08645000000001
  0
ARC
  5
DD1
  8
0
  6
CONTINUOUS
 62
     3
 10
-613.51373000000001
 20
56.750450000000001
 30
0.0
 40
1.497512
 50
13.418233000000001
 51
90.128792999999988
  0
ARC
  5
DD2
  8
0
  6
CONTINUOUS
 62
     3
 10
-613.49932999999965
 20
54.729835999999999
 30
0.0
 40
1.4981281
 50
14.224575
 51
89.916113999999979
  0
ARC
  5
DD3
  8
0
  6
CONTINUOUS
 62
     3
 10
-609.21557999999982
 20
52.051093999999999
 30
0.0
 40
2.0031319000000001
 50
194.25158999999999
 51
269.95755000000003
  0
ARC
  5
DD4
  8
0
  6
CONTINUOUS
 62
     3
 10
-592.32665999999995
 20
53.488402999999991
 30
0.0
 40
2.0004520000000001
 50
180.0129
 51
269.98709999999988
  0
ARC
  5
DD5
  8
0
  6
CONTINUOUS
 62
     3
 10
-592.32573999999977
 20
51.459274000000001
 30
0.0
 40
2.0013119999999991
 50
180.03756000000001
 51
269.96244000000002
  0
ARC
  5
DD6
  8
0
  6
CONTINUOUS
 62
     3
 10
-592.32848999999965
 20
50.106583000000001
 30
0.0
 40
1.998619899999996
 50
179.9604699999999
 51
270.03952999999967
  0
ARC
  5
DD7
  8
0
  6
CONTINUOUS
 62
     3
 10
-592.33312999999998
 20
49.438018999999997
 30
0.0
 40
2.000076099999998
 50
194.77497999999991
 51
270.17352999999991
  0
ARC
  5
DD8
  8
0
  6
CONTINUOUS
 62
     3
 10
-595.82866999999999
 20
58.866393999999993
 30
0.0
 40
1.501567999999998
 50
0.059805003
 51
89.940196999999998
  0
ARC
  5
DD9
  8
0
  6
CONTINUOUS
 62
     3
 10
-595.82983000000002
 20
53.585242999999998
 30
0.0
 40
1.502715899999999
 50
0.103436
 51
89.896566000000007
  0
ARC
  5
DDA
  8
0
  6
CONTINUOUS
 62
     3
 10
-595.82683999999995
 20
50.178199999999997
 30
0.0
 40
1.499755999999999
 50
359.99058999999983
 51
90.009407999999965
  0
ARC
  5
DDB
  8
0
  6
CONTINUOUS
 62
     3
 10
-595.71557999999982
 20
48.551307999999999
 30
0.0
 40
1.4966440000000001
 50
14.57574
 51
90.058278000000001
  0
ARC
  5
DDC
  8
0
  6
CONTINUOUS
 62
     3
 10
-539.33312999999976
 20
51.463988999999998
 30
0.0
 40
2.0060479999999981
 50
270.17248999999998
 51
359.82751000000002
  0
ARC
  5
DDD
  8
0
  6
CONTINUOUS
 62
     3
 10
-539.33043999999995
 20
50.111319999999992
 30
0.0
 40
2.0033560000000001
 50
270.09593999999998
 51
359.90406000000002
  0
ARC
  5
DDE
  8
0
  6
CONTINUOUS
 62
     3
 10
-539.32897999999977
 20
49.43985
 30
0.0
 40
2.0019
 50
270.05437999999992
 51
359.94562000000002
  0
ARC
  5
DDF
  8
0
  6
CONTINUOUS
 62
     3
 10
-468.68172999999962
 20
65.501975999999999
 30
0.0
 40
1.495995999999999
 50
89.821707000000004
 51
165.04766000000001
  0
ARC
  5
DE0
  8
0
  6
CONTINUOUS
 62
     3
 10
-593.33190999999999
 20
128.34798000000001
 30
0.0
 40
1.0000119000000001
 50
89.726507999999981
 51
270.27347999999989
  0
ARC
  5
DE1
  8
0
  6
CONTINUOUS
 62
     3
 10
-593.33190999999999
 20
138.34798000000001
 30
0.0
 40
1.0000119000000001
 50
89.726507999999981
 51
270.27347999999989
  0
ARC
  5
DE2
  8
0
  6
CONTINUOUS
 62
     3
 10
-593.33190999999999
 20
148.34796
 30
0.0
 40
1.0000119000000001
 50
89.726507999999981
 51
270.27347999999989
  0
ARC
  5
DE3
  8
0
  6
CONTINUOUS
 62
     3
 10
-611.06293000000016
 20
118.35297
 30
0.0
 40
1.265012
 50
89.737716000000006
 51
270.26227999999992
  0
ARC
  5
DE4
  8
0
  6
CONTINUOUS
 62
     3
 10
-610.99706999999978
 20
128.35796999999991
 30
0.0
 40
1.3300080000000001
 50
90.000003000000007
 51
270.0
  0
ARC
  5
DE5
  8
0
  6
CONTINUOUS
 62
     3
 10
-601.86712999999997
 20
138.37297000000001
 30
0.0
 40
1.465004
 50
90.000003000000007
 51
270.0
  0
ARC
  5
DE6
  8
0
  6
CONTINUOUS
 62
     3
 10
-601.65392999999995
 20
148.3929599999999
 30
0.0
 40
1.6750160000000001
 50
89.766540000000006
 51
270.23345999999992
  0
ARC
  5
DE7
  8
0
  6
CONTINUOUS
 62
     3
 10
-609.77710000000002
 20
118.34796
 30
0.0
 40
1.0
 50
90.000003000000007
 51
270.0
  0
ARC
  5
DE8
  8
0
  6
CONTINUOUS
 62
     3
 10
-609.77710000000002
 20
128.34798000000001
 30
0.0
 40
1.0
 50
90.000003000000007
 51
270.0
  0
ARC
  5
DE9
  8
0
  6
CONTINUOUS
 62
     3
 10
-600.78186000000017
 20
148.34796
 30
0.0
 40
1.0000119000000001
 50
89.728448
 51
270.27154000000002
  0
ARC
  5
DEA
  8
0
  6
CONTINUOUS
 62
     3
 10
-600.78186000000017
 20
138.34798000000001
 30
0.0
 40
1.0000119000000001
 50
89.728448
 51
270.27154000000002
  0
ARC
  5
DEB
  8
0
  6
CONTINUOUS
 62
     3
 10
-488.03057999999999
 20
145.7214699999999
 30
0.0
 40
0.996512
 50
89.798963000000015
 51
180.20103
  0
ARC
  5
DEC
  8
0
  6
CONTINUOUS
 62
     3
 10
-488.02587999999997
 20
144.61870999999991
 30
0.0
 40
1.001239999999999
 50
180.04312999999991
 51
268.21195999999992
  0
ARC
  5
DED
  8
0
  6
CONTINUOUS
 62
     3
 10
-488.03093999999987
 20
82.082130000000006
 30
0.0
 40
0.99615997
 50
91.504365000000007
 51
180.24055000000001
  0
ARC
  5
DEE
  8
0
  6
CONTINUOUS
 62
     3
 10
-488.02550999999988
 20
80.979561000000004
 30
0.0
 40
1.001595999999999
 50
180.09126000000001
 51
269.90875
  0
ARC
  5
DEF
  8
0
  6
CONTINUOUS
 62
     3
 10
-471.50710999999961
 20
148.3929599999999
 30
0.0
 40
1.6750041
 50
270.0
 51
90.000003000000007
  0
ARC
  5
DF0
  8
0
  6
CONTINUOUS
 62
     3
 10
-474.98712
 20
148.34796
 30
0.0
 40
1.0
 50
270.0
 51
90.000003000000007
  0
ARC
  5
DF1
  8
0
  6
CONTINUOUS
 62
     3
 10
-474.98712
 20
78.347968999999964
 30
0.0
 40
1.0
 50
270.0
 51
90.000003000000007
  0
ARC
  5
DF2
  8
0
  6
CONTINUOUS
 62
     3
 10
-471.50710999999961
 20
78.302970999999999
 30
0.0
 40
1.6750041
 50
270.0
 51
90.000003000000007
  0
ARC
  5
DF3
  8
0
  6
CONTINUOUS
 62
     3
 10
-609.77710000000002
 20
108.34798000000001
 30
0.0
 40
1.0
 50
90.000003000000007
 51
270.0
  0
ARC
  5
DF4
  8
0
  6
CONTINUOUS
 62
     3
 10
-593.33190999999999
 20
98.347969000000006
 30
0.0
 40
1.0000119000000001
 50
89.726507999999981
 51
270.27347999999989
  0
ARC
  5
DF5
  8
0
  6
CONTINUOUS
 62
     3
 10
-593.33190999999999
 20
88.347960999999998
 30
0.0
 40
1.0000119000000001
 50
89.726507999999981
 51
270.27347999999989
  0
ARC
  5
DF6
  8
0
  6
CONTINUOUS
 62
     3
 10
-610.99706999999978
 20
98.337967000000006
 30
0.0
 40
1.3300080000000001
 50
90.000003000000007
 51
270.0
  0
ARC
  5
DF7
  8
0
  6
CONTINUOUS
 62
     3
 10
-610.86712999999997
 20
88.322967999999989
 30
0.0
 40
1.465004
 50
90.000003000000007
 51
270.0
  0
ARC
  5
DF8
  8
0
  6
CONTINUOUS
 62
     3
 10
-609.78186000000005
 20
78.347968999999964
 30
0.0
 40
1.0000119000000001
 50
89.728461999999965
 51
270.27154000000002
  0
ARC
  5
DF9
  8
0
  6
CONTINUOUS
 62
     3
 10
-593.33190999999999
 20
108.34798000000001
 30
0.0
 40
1.0000119000000001
 50
89.726507999999981
 51
270.27347999999989
  0
ARC
  5
DFA
  8
0
  6
CONTINUOUS
 62
     3
 10
-593.33190999999999
 20
78.347968999999964
 30
0.0
 40
1.0000119000000001
 50
89.726507999999981
 51
270.27347999999989
  0
ARC
  5
DFB
  8
0
  6
CONTINUOUS
 62
     3
 10
-611.06293000000016
 20
108.34798000000001
 30
0.0
 40
1.270011999999999
 50
89.738748000000001
 51
270.26123999999999
  0
ARC
  5
DFC
  8
0
  6
CONTINUOUS
 62
     3
 10
-610.65399000000002
 20
78.302970999999999
 30
0.0
 40
1.6750160000000001
 50
89.764983000000015
 51
270.23500999999987
  0
ARC
  5
DFD
  8
0
  6
CONTINUOUS
 62
     3
 10
-609.77710000000002
 20
98.347969000000006
 30
0.0
 40
1.0
 50
90.000003000000007
 51
270.0
  0
ARC
  5
DFE
  8
0
  6
CONTINUOUS
 62
     3
 10
-609.78186000000005
 20
88.347960999999998
 30
0.0
 40
1.0000119000000001
 50
89.728461999999965
 51
270.27154000000002
  0
TEXT
  5
1003
  8
0
  6
CONTINUOUS
 62
     0
 10
-255.0374807156962
 20
344.23895181612642
 30
0.0
 40
10.0
  1
VX04-003MF~VX04-010MF
  0
ENDSEC
  0
EOF
