  0
SECTION
  2
HEADER
  9
$ACADVER
  1
AC1009
  9
$INSBASE
 10
0.0
 20
0.0
 30
0.0
  9
$EXTMIN
 10
-652.25611802726576
 20
34.940994991870753
 30
-0.0000000349181948
  9
$EXTMAX
 10
-44.3834217726112
 20
505.61809637078852
 30
0.0000000814935747
  9
$LIMMIN
 10
0.0
 20
0.0
  9
$LIMMAX
 10
12.0
 20
9.0
  9
$ORTHOMODE
 70
     0
  9
$REGENMODE
 70
     1
  9
$FILLMODE
 70
     1
  9
$QTEXTMODE
 70
     0
  9
$MIRRTEXT
 70
     1
  9
$DRAGMODE
 70
     2
  9
$LTSCALE
 40
1.0
  9
$OSMODE
 70
   551
  9
$ATTMODE
 70
     1
  9
$TEXTSIZE
 40
0.2
  9
$TRACEWID
 40
0.05
  9
$TEXTSTYLE
  7
STANDARD
  9
$CLAYER
  8
0
  9
$CELTYPE
  6
CONTINUOUS
  9
$CECOLOR
 62
   256
  9
$DIMSCALE
 40
1.0
  9
$DIMASZ
 40
0.18
  9
$DIMEXO
 40
0.0625
  9
$DIMDLI
 40
0.38
  9
$DIMRND
 40
0.0
  9
$DIMDLE
 40
0.0
  9
$DIMEXE
 40
0.18
  9
$DIMTP
 40
0.0
  9
$DIMTM
 40
0.0
  9
$DIMTXT
 40
0.18
  9
$DIMCEN
 40
0.09
  9
$DIMTSZ
 40
0.0
  9
$DIMTOL
 70
     0
  9
$DIMLIM
 70
     0
  9
$DIMTIH
 70
     1
  9
$DIMTOH
 70
     1
  9
$DIMSE1
 70
     0
  9
$DIMSE2
 70
     0
  9
$DIMTAD
 70
     0
  9
$DIMZIN
 70
     0
  9
$DIMBLK
  1

  9
$DIMASO
 70
     1
  9
$DIMSHO
 70
     1
  9
$DIMPOST
  1

  9
$DIMAPOST
  1

  9
$DIMALT
 70
     0
  9
$DIMALTD
 70
     2
  9
$DIMALTF
 40
25.399999999999999
  9
$DIMLFAC
 40
1.0
  9
$DIMTOFL
 70
     0
  9
$DIMTVP
 40
0.0
  9
$DIMTIX
 70
     0
  9
$DIMSOXD
 70
     0
  9
$DIMSAH
 70
     0
  9
$DIMBLK1
  1

  9
$DIMBLK2
  1

  9
$DIMSTYLE
  2
STANDARD
  9
$DIMCLRD
 70
     0
  9
$DIMCLRE
 70
     0
  9
$DIMCLRT
 70
     0
  9
$DIMTFAC
 40
1.0
  9
$DIMGAP
 40
0.09
  9
$LUNITS
 70
     2
  9
$LUPREC
 70
     4
  9
$SKETCHINC
 40
0.1
  9
$FILLETRAD
 40
0.0
  9
$AUNITS
 70
     0
  9
$AUPREC
 70
     0
  9
$MENU
  1
.
  9
$ELEVATION
 40
0.0
  9
$PELEVATION
 40
0.0
  9
$THICKNESS
 40
0.0
  9
$LIMCHECK
 70
     0
  9
$BLIPMODE
 70
     0
  9
$CHAMFERA
 40
0.0
  9
$CHAMFERB
 40
0.0
  9
$SKPOLY
 70
     0
  9
$TDCREATE
 40
2452300.4323030561
  9
$TDUPDATE
 40
2458540.6494610999
  9
$TDINDWG
 40
0.0425423495
  9
$TDUSRTIMER
 40
0.0425421412
  9
$USRTIMER
 70
     1
  9
$ANGBASE
 50
0.0
  9
$ANGDIR
 70
     0
  9
$PDMODE
 70
     0
  9
$PDSIZE
 40
0.0
  9
$PLINEWID
 40
0.0
  9
$COORDS
 70
     1
  9
$SPLFRAME
 70
     0
  9
$SPLINETYPE
 70
     6
  9
$SPLINESEGS
 70
     8
  9
$ATTDIA
 70
     1
  9
$ATTREQ
 70
     1
  9
$HANDLING
 70
     1
  9
$HANDSEED
  5
AE0
  9
$SURFTAB1
 70
     6
  9
$SURFTAB2
 70
     6
  9
$SURFTYPE
 70
     6
  9
$SURFU
 70
     6
  9
$SURFV
 70
     6
  9
$UCSNAME
  2

  9
$UCSORG
 10
0.0
 20
0.0
 30
0.0
  9
$UCSXDIR
 10
1.0
 20
0.0
 30
0.0
  9
$UCSYDIR
 10
0.0
 20
1.0
 30
0.0
  9
$PUCSNAME
  2

  9
$PUCSORG
 10
0.0
 20
0.0
 30
0.0
  9
$PUCSXDIR
 10
1.0
 20
0.0
 30
0.0
  9
$PUCSYDIR
 10
0.0
 20
1.0
 30
0.0
  9
$USERI1
 70
     0
  9
$USERI2
 70
     0
  9
$USERI3
 70
     0
  9
$USERI4
 70
     0
  9
$USERI5
 70
     0
  9
$USERR1
 40
0.0
  9
$USERR2
 40
0.0
  9
$USERR3
 40
0.0
  9
$USERR4
 40
0.0
  9
$USERR5
 40
0.0
  9
$WORLDVIEW
 70
     1
  9
$SHADEDGE
 70
     3
  9
$SHADEDIF
 70
    70
  9
$TILEMODE
 70
     1
  9
$MAXACTVP
 70
    64
  9
$PLIMCHECK
 70
     0
  9
$PEXTMIN
 10
1.0000000000000000E+020
 20
1.0000000000000000E+020
 30
1.0000000000000000E+020
  9
$PEXTMAX
 10
-1.0000000000000000E+020
 20
-1.0000000000000000E+020
 30
-1.0000000000000000E+020
  9
$PLIMMIN
 10
0.0
 20
0.0
  9
$PLIMMAX
 10
12.0
 20
9.0
  9
$UNITMODE
 70
     0
  9
$VISRETAIN
 70
     1
  9
$PLINEGEN
 70
     0
  9
$PSLTSCALE
 70
     1
  0
ENDSEC
  0
SECTION
  2
TABLES
  0
TABLE
  2
VPORT
 70
     1
  0
VPORT
  2
*ACTIVE
 70
     0
 10
0.0
 20
0.0
 11
1.0
 21
1.0
 12
-348.31976989993848
 22
270.27954568132969
 13
0.0
 23
0.0
 14
1.0
 24
1.0
 15
0.0
 25
0.0
 16
0.0
 26
0.0
 36
1.0
 17
0.0
 27
0.0
 37
0.0
 40
473.90829429456249
 41
1.7571592210767459
 42
50.0
 43
0.0
 44
0.0
 50
0.0
 51
0.0
 71
     0
 72
   100
 73
     1
 74
     1
 75
     0
 76
     0
 77
     0
 78
     0
  0
ENDTAB
  0
TABLE
  2
LTYPE
 70
    23
  0
LTYPE
  2
CONTINUOUS
 70
     0
  3
Solid line
 72
    65
 73
     0
 40
0.0
  0
LTYPE
  2
DASHED
 70
     0
  3
__ __ __ __ __ __ __ __ __ __ __ __ __ __ __
 72
    65
 73
     2
 40
3.5
 49
2.0
 49
-1.5
  0
LTYPE
  2
CENTER
 70
     0
  3
____ _ ____ _ ____ _ ____ _ ____ _ ____ _ ____
 72
    65
 73
     4
 40
17.5
 49
13.0
 49
-1.5
 49
1.5
 49
-1.5
  0
LTYPE
  2
PHANTOM
 70
     0
  3
_____ _ _ _____ _ _ _____ _ _ _____ _ _ ____  
 72
    65
 73
     6
 40
15.5
 49
8.0
 49
-1.5
 49
1.5
 49
-1.5
 49
1.5
 49
-1.5
  0
LTYPE
  2
DOT
 70
     0
  3
. . . . . . . . . . . . . . . . . . . . . . . .
 72
    65
 73
     2
 40
0.25
 49
0.0
 49
-0.25
  0
LTYPE
  2
AM_ISO02W050
 70
     0
  3
__ __ __ __ __ __ __ __ __ __ __ __ __ __ __
 72
    65
 73
     2
 40
7.5
 49
6.0
 49
-1.5
  0
LTYPE
  2
AM_ISO08W050
 70
     0
  3
____ . ____ . ____ . ____ . ____ . ____ . ____
 72
    65
 73
     4
 40
18.0
 49
12.0
 49
-1.5
 49
3.0
 49
-1.5
  0
LTYPE
  2
AM_ISO09W050
 70
     0
  3
_____ . . _____ . . _____ . . ____ .. ____
 72
    65
 73
     6
 40
22.5
 49
12.0
 49
-1.5
 49
3.0
 49
-1.5
 49
3.0
 49
-1.5
  0
LTYPE
  2
AMCONSTR
 70
     0
  3
_______________________
 72
    65
 73
     2
 40
9999.0
 49
9999.0
 49
0.0
  0
LTYPE
  2
AM_ISO08W050X2
 70
     0
  3
__ . __ . __ . __ . __ . __
 72
    65
 73
     4
 40
9.0
 49
6.0
 49
-0.75
 49
1.5
 49
-0.75
  0
LTYPE
  2
AM_ISO02W050X2
 70
     0
  3
 _ _ _ _ _ _ _ _ _ _ _ _
 72
    65
 73
     2
 40
3.75
 49
3.0
 49
-0.75
  0
LTYPE
  2
AMZIGZAG
 70
     0
  3
/\/-/\/-/\/-/\/-/\/-/\/
 72
    65
 73
     2
 40
11.000099999999991
 49
0.0001
 49
-11.0
  0
LTYPE
  2
HIDDEN
 70
     0
  3
Hidden __ __ __ __ __ __ __ __ __ __ __ __ __ _
 72
    65
 73
     2
 40
0.375
 49
0.25
 49
-0.125
  0
LTYPE
  2
PHANTOM2
 70
     0
  3
Phantom (.5x) ___ _ _ ___ _ _ ___ _ _ ___ _ _
 72
    65
 73
     6
 40
1.25
 49
0.625
 49
-0.125
 49
0.125
 49
-0.125
 49
0.125
 49
-0.125
  0
LTYPE
  2
CENTER2
 70
     0
  3
Center (.5x) ___ _ ___ _ ___ _ ___ _ ___ _ ___
 72
    65
 73
     4
 40
1.125
 49
0.75
 49
-0.125
 49
0.125
 49
-0.125
  0
LTYPE
  2
HIDDEN2
 70
     0
  3
Hidden (.5x) _ _ _ _ _ _ _ _ _ _ _ _ _ _ _ _ _
 72
    65
 73
     2
 40
0.1875
 49
0.125
 49
-0.0625
  0
LTYPE
  2
AMZIGZAG2
 70
     0
  3
/\/-/\/-/\/-/\/-/\/-/\/
 72
    65
 73
     2
 40
0.4401
 49
0.0001
 49
-0.4400000000000003
  0
LTYPE
  2
ACANSTGB
 70
     0
  3
__ . . __ . .
 72
    65
 73
     6
 40
0.35433070866
 49
0.15748031496
 49
-0.03937007874
 49
0.03937007874
 49
-0.03937007874
 49
0.03937007874
 49
-0.03937007874
  0
LTYPE
  2
ACANSTGL
 70
     0
  3
_ _ _ _ _
 72
    65
 73
     2
 40
0.11811023622
 49
0.07874015748
 49
-0.03937007874
  0
LTYPE
  2
ACISOWELD
 70
     0
  3
_ _ _ _ _
 72
    65
 73
     2
 40
2.0
 49
2.0
 49
-1.0
  0
LTYPE
  2
ACISOTGB
 70
     0
  3
__ . . __ . .
 72
    65
 73
     6
 40
9.0
 49
4.0
 49
-1.0
 49
1.0
 49
-1.0
 49
1.0
 49
-1.0
  0
LTYPE
  2
ACISOTGL
 70
     0
  3
_ _ _ _ _
 72
    65
 73
     2
 40
3.0
 49
2.0
 49
-1.0
  0
ENDTAB
  0
TABLE
  2
LAYER
 70
     1
  0
LAYER
  2
0
 70
     0
 62
     7
  6
CONTINUOUS
  0
ENDTAB
  0
TABLE
  2
STYLE
 70
     6
  0
STYLE
  2
STANDARD
 70
     0
 40
0.0
 41
1.0
 50
0.0
 71
     0
 42
0.2
  3
txt
  4

  0
STYLE
  2
ANNOTATIVE
 70
     0
 40
0.0
 41
1.0
 50
0.0
 71
     0
 42
0.2
  3
txt
  4

  0
STYLE
  2

 70
     1
 40
0.0
 41
1.0
 50
0.0
 71
     0
 42
0.2
  3
ltypeshp.shx
  4

  0
STYLE
  2
ACANSTS
 70
     0
 40
1.0
 41
1.0
 50
0.0
 71
     0
 42
0.2
  3
romans.shx
  4
extfont.shx
  0
STYLE
  2
ACANSGDT
 70
     0
 40
0.0
 41
1.0
 50
0.0
 71
     0
 42
0.2
  3
amgdt.shx
  4

  0
STYLE
  2
ACISOGDT
 70
     0
 40
0.0
 41
1.0
 50
0.0
 71
     0
 42
2.5
  3
amgdt.shx
  4

  0
ENDTAB
  0
TABLE
  2
VIEW
 70
     0
  0
ENDTAB
  0
TABLE
  2
UCS
 70
     0
  0
ENDTAB
  0
TABLE
  2
APPID
 70
    12
  0
APPID
  2
ACAD
 70
     0
  0
APPID
  2
ACADANNOTATIVE
 70
     0
  0
APPID
  2
MCAD_NO_VIS
 70
     0
  0
APPID
  2
ACAD_TEMP_GRAPHIC
 70
     0
  0
APPID
  2
ACATTRIBSERVICES
 70
     0
  0
APPID
  2
DESIGNERASSEMBLIES
 70
     0
  0
APPID
  2
ACAD_DSTYLE_DIMBREAK
 70
     0
  0
APPID
  2
ACAD_DSTYLE_DIMJAG
 70
     0
  0
APPID
  2
ACAD_NAV_VCDISPLAY
 70
     0
  0
APPID
  2
ACAD_PSEXT
 70
     0
  0
APPID
  2
ACAD_EXEMPT_FROM_CAD_STANDARDS
 70
     0
  0
APPID
  2
ACAD_MLEADERVER
 70
     0
  0
ENDTAB
  0
TABLE
  2
DIMSTYLE
 70
    16
  0
DIMSTYLE
  2
STANDARD
 70
     0
  3

  4

  5

  6

  7

 40
1.0
 41
0.18
 42
0.0625
 43
0.38
 44
0.18
 45
0.0
 46
0.0
 47
0.0
 48
0.0
140
0.18
141
0.09
142
0.0
143
25.399999999999999
144
1.0
145
0.0
146
1.0
147
0.09
 71
     0
 72
     0
 73
     1
 74
     1
 75
     0
 76
     0
 77
     0
 78
     0
170
     0
171
     2
172
     0
173
     0
174
     0
175
     0
176
     0
177
     0
178
     0
  0
DIMSTYLE
  2
ANNOTATIVE
 70
     0
  3

  4

  5

  6

  7

 40
1.0
 41
0.18
 42
0.0625
 43
0.38
 44
0.18
 45
0.0
 46
0.0
 47
0.0
 48
0.0
140
0.18
141
0.09
142
0.0
143
25.399999999999999
144
1.0
145
0.0
146
1.0
147
0.09
 71
     0
 72
     0
 73
     1
 74
     1
 75
     0
 76
     0
 77
     0
 78
     0
170
     0
171
     2
172
     0
173
     0
174
     0
175
     0
176
     0
177
     0
178
     0
  0
DIMSTYLE
  2
AM_ANSI
 70
     0
  3

  4
mm
  5

  6

  7

 40
1.0
 41
0.1
 42
0.05
 43
0.5
 44
0.1
 45
0.0
 46
0.0
 47
0.1
 48
0.1
140
0.12
141
0.0
142
0.0
143
25.399999999999999
144
1.0
145
0.0
146
0.71
147
0.06
 71
     0
 72
     0
 73
     1
 74
     1
 75
     0
 76
     0
 77
     0
 78
     7
170
     0
171
     2
172
     0
173
     0
174
     0
175
     0
176
   256
177
   256
178
     2
  0
DIMSTYLE
  2
AM_ANSI$3
 70
     0
  3

  4
mm
  5

  6

  7

 40
1.0
 41
0.1
 42
0.05
 43
0.5
 44
0.1
 45
0.0
 46
0.0
 47
0.1
 48
0.1
140
0.12
141
0.0
142
0.0
143
25.399999999999999
144
1.0
145
0.0
146
0.71
147
0.06
 71
     0
 72
     0
 73
     1
 74
     1
 75
     0
 76
     0
 77
     0
 78
     7
170
     0
171
     2
172
     0
173
     0
174
     0
175
     0
176
   256
177
   256
178
     2
  0
DIMSTYLE
  2
AM_ANSI$4
 70
     0
  3

  4
mm
  5

  6

  7

 40
1.0
 41
0.1
 42
0.05
 43
0.5
 44
0.1
 45
0.0
 46
0.0
 47
0.1
 48
0.1
140
0.12
141
0.0
142
0.0
143
25.399999999999999
144
1.0
145
0.0
146
0.71
147
0.06
 71
     0
 72
     0
 73
     1
 74
     1
 75
     0
 76
     0
 77
     0
 78
     7
170
     0
171
     2
172
     0
173
     0
174
     0
175
     0
176
   256
177
   256
178
     2
  0
DIMSTYLE
  2
AM_ANSI$7
 70
     0
  3

  4
mm
  5

  6

  7

 40
1.0
 41
0.1
 42
0.05
 43
0.5
 44
0.1
 45
0.0
 46
0.0
 47
0.1
 48
0.1
140
0.24
141
0.0
142
0.0
143
25.399999999999999
144
1.0
145
0.0
146
0.71
147
0.06
 71
     0
 72
     0
 73
     1
 74
     1
 75
     0
 76
     0
 77
     0
 78
     7
170
     0
171
     2
172
     0
173
     0
174
     0
175
     0
176
   256
177
   256
178
     2
  0
DIMSTYLE
  2
AM_ANSI$SF
 70
     0
  3

  4
mm
  5

  6

  7

 40
1.0
 41
0.1
 42
0.05
 43
0.5
 44
0.1
 45
0.0
 46
0.0
 47
0.1
 48
0.1
140
0.12
141
0.0
142
0.0
143
25.399999999999999
144
1.0
145
0.0
146
0.71
147
0.06
 71
     0
 72
     0
 73
     1
 74
     1
 75
     1
 76
     1
 77
     0
 78
     7
170
     0
171
     2
172
     0
173
     0
174
     0
175
     0
176
   256
177
   256
178
     2
  0
DIMSTYLE
  2
AM_ANSI$SH
 70
     0
  3

  4
mm
  5

  6

  7

 40
1.0
 41
0.1
 42
0.05
 43
0.5
 44
0.1
 45
0.0
 46
0.0
 47
0.1
 48
0.1
140
0.12
141
0.0
142
0.0
143
25.399999999999999
144
1.0
145
0.0
146
0.71
147
0.06
 71
     0
 72
     0
 73
     1
 74
     1
 75
     1
 76
     1
 77
     0
 78
     7
170
     0
171
     2
172
     0
173
     1
174
     0
175
     0
176
   256
177
   256
178
     2
  0
DIMSTYLE
  2
AM_ISO
 70
     0
  3

  4
"
  5

  6

  7

 40
1.0
 41
2.5
 42
1.0
 43
10.0
 44
1.0
 45
0.0
 46
0.0
 47
0.1
 48
0.1
140
3.5
141
0.0
142
0.0
143
0.0393701
144
1.0
145
0.0
146
0.71
147
1.5
 71
     0
 72
     0
 73
     0
 74
     0
 75
     0
 76
     0
 77
     1
 78
     8
170
     0
171
     2
172
     1
173
     0
174
     0
175
     0
176
   256
177
   256
178
     2
  0
DIMSTYLE
  2
AM_ISO$3
 70
     0
  3

  4
"
  5

  6

  7

 40
1.0
 41
2.5
 42
1.0
 43
10.0
 44
1.0
 45
0.0
 46
0.0
 47
0.1
 48
0.1
140
3.5
141
0.0
142
0.0
143
0.0393701
144
1.0
145
0.0
146
0.71
147
1.5
 71
     0
 72
     0
 73
     0
 74
     1
 75
     0
 76
     0
 77
     1
 78
     8
170
     0
171
     2
172
     0
173
     0
174
     0
175
     0
176
   256
177
   256
178
     2
  0
DIMSTYLE
  2
AM_ISO$4
 70
     0
  3

  4
"
  5

  6

  7

 40
1.0
 41
2.5
 42
1.0
 43
10.0
 44
1.0
 45
0.0
 46
0.0
 47
0.1
 48
0.1
140
3.5
141
0.0
142
0.0
143
0.0393701
144
1.0
145
0.0
146
0.71
147
1.5
 71
     0
 72
     0
 73
     0
 74
     1
 75
     0
 76
     0
 77
     1
 78
     8
170
     0
171
     2
172
     0
173
     0
174
     0
175
     0
176
   256
177
   256
178
     2
  0
DIMSTYLE
  2
AM_ISO$6
 70
     0
  3

  4
"
  5

  6

  7

 40
1.0
 41
2.5
 42
1.0
 43
10.0
 44
1.0
 45
0.0
 46
0.0
 47
0.1
 48
0.1
140
3.5
141
0.0
142
0.0
143
0.0393701
144
1.0
145
0.0
146
0.71
147
1.5
 71
     0
 72
     0
 73
     0
 74
     0
 75
     0
 76
     0
 77
     0
 78
     8
170
     0
171
     2
172
     1
173
     0
174
     0
175
     0
176
   256
177
   256
178
     2
  0
DIMSTYLE
  2
AM_ISO$7
 70
     0
  3

  4
"
  5

  6

  7

 40
1.0
 41
2.5
 42
1.0
 43
10.0
 44
1.0
 45
0.0
 46
0.0
 47
0.1
 48
0.1
140
5.0
141
0.0
142
0.0
143
0.0393701
144
1.0
145
0.0
146
0.71
147
1.5
 71
     0
 72
     0
 73
     0
 74
     0
 75
     0
 76
     0
 77
     1
 78
     8
170
     0
171
     2
172
     1
173
     0
174
     0
175
     0
176
   256
177
   256
178
     2
  0
DIMSTYLE
  2
AM_ISO$SF
 70
     0
  3

  4
"
  5

  6

  7

 40
1.0
 41
2.5
 42
1.0
 43
10.0
 44
1.0
 45
0.0
 46
0.0
 47
0.1
 48
0.1
140
3.5
141
0.0
142
0.0
143
0.0393701
144
1.0
145
0.0
146
0.71
147
1.5
 71
     0
 72
     0
 73
     0
 74
     0
 75
     1
 76
     1
 77
     1
 78
     8
170
     0
171
     2
172
     1
173
     0
174
     0
175
     0
176
   256
177
   256
178
     2
  0
DIMSTYLE
  2
AM_ISO$SH
 70
     0
  3

  4
"
  5

  6
GENAXEH
  7

 40
1.0
 41
2.5
 42
1.0
 43
10.0
 44
1.0
 45
0.0
 46
0.0
 47
0.1
 48
0.1
140
3.5
141
0.0
142
0.0
143
0.0393701
144
2.0
145
0.0
146
0.71
147
1.5
 71
     0
 72
     0
 73
     0
 74
     0
 75
     1
 76
     1
 77
     1
 78
     8
170
     0
171
     2
172
     1
173
     1
174
     0
175
     0
176
   256
177
   256
178
     2
  0
DIMSTYLE
  2
AM_JIS
 70
     0
  3

  4
"
  5

  6

  7

 40
1.0
 41
2.0
 42
1.0
 43
8.0
 44
1.0
 45
0.0
 46
0.0
 47
0.1
 48
0.1
140
2.5
141
0.0
142
0.0
143
0.0393701
144
1.0
145
0.0
146
0.71
147
1.5
 71
     0
 72
     0
 73
     0
 74
     0
 75
     0
 76
     0
 77
     3
 78
     8
170
     0
171
     2
172
     1
173
     0
174
     0
175
     0
176
     2
177
     2
178
     4
  0
ENDTAB
  0
ENDSEC
  0
SECTION
  2
BLOCKS
  0
BLOCK
  8
0
  2
$MODEL_SPACE
 70
     0
 10
0.0
 20
0.0
 30
0.0
  3
$MODEL_SPACE
  1

  0
ENDBLK
  5
971
  8
0
  0
BLOCK
 67
     1
  8
0
  2
$PAPER_SPACE
 70
     0
 10
0.0
 20
0.0
 30
0.0
  3
$PAPER_SPACE
  1

  0
ENDBLK
  5
96D
 67
     1
  8
0
  0
BLOCK
  8
0
  2
GENAXEH
 70
     0
 10
0.0
 20
0.0
 30
0.0
  3
GENAXEH
  1

  0
LINE
  5
4D3
  8
0
 10
-1.0
 20
0.0
 30
0.0
 11
1.0
 21
0.0
 31
0.0
  0
ENDBLK
  5
4D4
  8
0
  0
BLOCK
  8
0
  2
_ACMFILLEDHALF
 70
     0
 10
0.0
 20
0.0
 30
0.0
  3
_ACMFILLEDHALF
  1

  0
TRACE
  5
9EA
  8
0
  6
CONTINUOUS
 62
     0
 10
-0.8
 20
0.0
 30
0.0
 11
-1.0
 21
0.166666666
 31
0.0
 12
0.0
 22
0.0
 32
0.0
 13
0.0
 23
0.0
 33
0.0
  0
LINE
  5
9EB
  8
0
  6
CONTINUOUS
 62
     0
 10
-1.0
 20
0.0
 30
0.0
 11
-0.8
 21
0.0
 31
0.0
  0
ENDBLK
  5
9E9
  8
0
  0
BLOCK
  8
0
  2
*U7
 70
     1
 10
0.0
 20
0.0
 30
0.0
  3
*U7
  1

  0
TEXT
  5
ADC
  8
0
  6
CONTINUOUS
 62
     0
 10
5.0768189741019834
 20
5.9826223594979657
 30
0.0
 40
15.0
  1
ＶＸ０８－００３ＥＭ～ＶＸ０８
  0
TEXT
  5
ADD
  8
0
  6
CONTINUOUS
 62
     0
 10
2.17909170137471
 20
-19.18783218595658
 30
0.0
 40
15.0
  1
－０３０ＥＭ
  0
ENDBLK
  5
ADF
  8
0
  0
ENDSEC
  0
SECTION
  2
ENTITIES
  0
LINE
  5
4D5
  8
0
  6
CENTER
 62
     7
 10
-646.88964999999985
 20
413.09487999999988
 30
0.0
 11
-309.92684999999989
 21
413.09487999999988
 31
0.0
  0
LINE
  5
4D6
  8
0
  6
CONTINUOUS
 62
     7
 10
-435.63384999999988
 20
330.84392999999972
 30
0.0
 11
-435.63384999999988
 21
495.34582999999998
 31
0.0
  0
LINE
  5
4D7
  8
0
  6
CONTINUOUS
 62
     7
 10
-435.63384999999988
 20
330.84392999999972
 30
0.0
 11
-447.80835000000002
 21
331.26907
 31
0.0
  0
LINE
  5
4D8
  8
0
  6
CONTINUOUS
 62
     7
 10
-435.63387999999992
 20
495.34582999999998
 30
0.0
 11
-447.80838
 21
494.92067999999989
 31
0.0
  0
LINE
  5
4D9
  8
0
  6
CONTINUOUS
 62
     7
 10
-452.63385
 20
336.26602000000008
 30
0.0
 11
-452.63385
 21
489.92374000000001
 31
0.0
  0
LINE
  5
4DA
  8
0
  6
CONTINUOUS
 62
     7
 10
-452.63385
 20
472.40337999999991
 30
0.0
 11
-442.63387999999992
 21
472.40337999999991
 31
0.0
  0
LINE
  5
4DB
  8
0
  6
CONTINUOUS
 62
     7
 10
-452.63385
 20
353.78638000000001
 30
0.0
 11
-442.63387999999992
 21
353.78638000000001
 31
0.0
  0
LINE
  5
4DC
  8
0
  6
CONTINUOUS
 62
     7
 10
-442.63387999999992
 20
342.00470000000001
 30
0.0
 11
-442.63387999999992
 21
484.18505999999991
 31
0.0
  0
LINE
  5
4DD
  8
0
  6
CONTINUOUS
 62
     7
 10
-479.13385
 20
349.59487999999988
 30
0.0
 11
-479.13385
 21
476.59487999999999
 31
0.0
  0
LINE
  5
4DE
  8
0
  6
CENTER
 62
     7
 10
-145.2809399999999
 20
34.947932999999992
 30
0.0
 11
-145.2809399999999
 21
244.38422
 31
0.0
  0
LINE
  5
4DF
  8
0
  6
CENTER
 62
     7
 10
-248.17097000000001
 20
147.34795
 30
0.0
 11
-47.967384000000003
 21
147.34795
 31
0.0
  0
LINE
  5
4E0
  8
0
  6
CONTINUOUS
 62
     7
 10
-479.13385
 20
465.13488999999998
 30
0.0
 11
-452.63387999999992
 21
465.13488999999998
 31
0.0
  0
LINE
  5
4E1
  8
0
  6
CONTINUOUS
 62
     7
 10
-479.13385
 20
450.24279999999999
 30
0.0
 11
-452.63387999999992
 21
450.24279999999999
 31
0.0
  0
LINE
  5
4E2
  8
0
  6
CONTINUOUS
 62
     7
 10
-479.13385
 20
476.59487999999999
 30
0.0
 11
-455.52913999999993
 21
477.41918999999979
 31
0.0
  0
LINE
  5
4E3
  8
0
  6
CONTINUOUS
 62
     7
 10
-479.13382000000001
 20
349.59485000000001
 30
0.0
 11
-455.52917000000002
 21
348.77057000000002
 31
0.0
  0
LINE
  5
4E4
  8
0
  6
CONTINUOUS
 62
     7
 10
-479.13385
 20
375.94695999999999
 30
0.0
 11
-452.63387999999992
 21
375.94695999999999
 31
0.0
  0
LINE
  5
4E5
  8
0
  6
CONTINUOUS
 62
     7
 10
-479.13385
 20
361.05486999999988
 30
0.0
 11
-452.63387999999992
 21
361.05486999999988
 31
0.0
  0
LINE
  5
4E6
  8
0
  6
CONTINUOUS
 62
     7
 10
-508.13385
 20
341.09487999999988
 30
0.0
 11
-568.13391000000001
 21
341.09487999999988
 31
0.0
  0
LINE
  5
4E7
  8
0
  6
CONTINUOUS
 62
     3
 10
-587.40674000000001
 20
340.09487999999999
 30
0.0
 11
-587.40674000000001
 21
336.59487999999982
 31
0.0
  0
LINE
  5
4E8
  8
0
  6
CONTINUOUS
 62
     3
 10
-589.4067399999999
 20
336.59487999999982
 30
0.0
 11
-507.40685999999988
 21
336.59487999999982
 31
0.0
  0
LINE
  5
4E9
  8
0
  6
CONTINUOUS
 62
     3
 10
-566.90686000000005
 20
333.09487999999982
 30
0.0
 11
-507.40685999999988
 21
333.09487999999982
 31
0.0
  0
LINE
  5
4EA
  8
0
  6
CONTINUOUS
 62
     3
 10
-578.40674000000001
 20
336.59487999999982
 30
0.0
 11
-578.40674000000001
 21
329.09487999999982
 31
0.0
  0
LINE
  5
4EB
  8
0
  6
CONTINUOUS
 62
     3
 10
-570.40686000000017
 20
336.59487999999982
 30
0.0
 11
-570.40686000000017
 21
329.09487999999982
 31
0.0
  0
LINE
  5
4EC
  8
0
  6
CONTINUOUS
 62
     3
 10
-585.90673999999979
 20
321.59586000000002
 30
0.0
 11
-589.4067399999999
 21
321.59586000000002
 31
0.0
  0
LINE
  5
4ED
  8
0
  6
CONTINUOUS
 62
     3
 10
-589.4067399999999
 20
336.59487999999982
 30
0.0
 11
-589.4067399999999
 21
321.59586000000002
 31
0.0
  0
LINE
  5
4EE
  8
0
  6
CONTINUOUS
 62
     3
 10
-556.70690999999999
 20
313.59487999999982
 30
0.0
 11
-561.90686000000005
 21
316.59485000000001
 31
0.0
  0
LINE
  5
4EF
  8
0
  6
CONTINUOUS
 62
     3
 10
-515.90686000000005
 20
316.59487999999982
 30
0.0
 11
-521.10687000000007
 21
313.59487999999982
 31
0.0
  0
LINE
  5
4F0
  8
0
  6
CONTINUOUS
 62
     3
 10
-585.90673999999979
 20
333.09487999999982
 30
0.0
 11
-581.90674000000001
 21
333.09487999999982
 31
0.0
  0
LINE
  5
4F1
  8
0
  6
CONTINUOUS
 62
     3
 10
-585.90673999999979
 20
316.59487999999982
 30
0.0
 11
-508.90685999999988
 21
316.59487999999982
 31
0.0
  0
LINE
  5
4F2
  8
0
  6
CONTINUOUS
 62
     3
 10
-556.70690999999999
 20
313.59487999999982
 30
0.0
 11
-521.10681
 21
313.59487999999982
 31
0.0
  0
LINE
  5
4F3
  8
0
  6
CONTINUOUS
 62
     3
 10
-585.90673999999979
 20
336.59487999999982
 30
0.0
 11
-585.90673999999979
 21
316.59487999999982
 31
0.0
  0
LINE
  5
4F4
  8
0
  6
CONTINUOUS
 62
     3
 10
-581.90674000000001
 20
336.59487999999982
 30
0.0
 11
-581.90674000000001
 21
329.09487999999982
 31
0.0
  0
LINE
  5
4F5
  8
0
  6
CONTINUOUS
 62
     3
 10
-566.90686000000005
 20
329.09487999999982
 30
0.0
 11
-566.90686000000005
 21
336.59487999999982
 31
0.0
  0
LINE
  5
4F6
  8
0
  6
CONTINUOUS
 62
     3
 10
-508.90685999999988
 20
316.59487999999982
 30
0.0
 11
-508.90685999999988
 21
333.09487999999982
 31
0.0
  0
LINE
  5
4F7
  8
0
  6
CONTINUOUS
 62
     3
 10
-507.40685999999988
 20
340.09487999999999
 30
0.0
 11
-507.40685999999988
 21
333.09487999999982
 31
0.0
  0
LINE
  5
4F8
  8
0
  6
CONTINUOUS
 62
     3
 10
-587.40674000000001
 20
340.09487999999999
 30
0.0
 11
-507.40685999999988
 21
340.09487999999999
 31
0.0
  0
LINE
  5
4F9
  8
0
  6
CONTINUOUS
 62
     7
 10
-508.63385
 20
341.09487999999988
 30
0.0
 11
-508.63385
 21
340.09487999999999
 31
0.0
  0
LINE
  5
4FA
  8
0
  6
CONTINUOUS
 62
     7
 10
-567.63390999999979
 20
341.09487999999988
 30
0.0
 11
-567.63390999999979
 21
340.09487999999999
 31
0.0
  0
LINE
  5
4FB
  8
0
  6
CONTINUOUS
 62
     7
 10
-637.13391000000001
 20
363.59487999999988
 30
0.0
 11
-637.13391000000001
 21
364.12491
 31
0.0
  0
LINE
  5
4FC
  8
0
  6
CONTINUOUS
 62
     7
 10
-637.13391000000001
 20
365.69484999999992
 30
0.0
 11
-637.13391000000001
 21
366.24489999999992
 31
0.0
  0
LINE
  5
4FD
  8
0
  6
CONTINUOUS
 62
     7
 10
-637.13391000000001
 20
370.26492000000002
 30
0.0
 11
-637.13391000000001
 21
370.73488999999989
 31
0.0
  0
LINE
  5
4FE
  8
0
  6
CONTINUOUS
 62
     7
 10
-637.35388
 20
366.71487000000002
 30
0.0
 11
-638.60382000000004
 21
367.37484999999992
 31
0.0
  0
LINE
  5
4FF
  8
0
  6
CONTINUOUS
 62
     7
 10
-637.34387000000004
 20
364.60489000000001
 30
0.0
 11
-638.58385999999985
 21
365.23489000000001
 31
0.0
  0
LINE
  5
500
  8
0
  6
CONTINUOUS
 62
     7
 10
-637.3638900000002
 20
371.24486999999988
 30
0.0
 11
-638.6438599999999
 21
371.99486999999988
 31
0.0
  0
LINE
  5
501
  8
0
  6
CONTINUOUS
 62
     7
 10
-636.89380000000006
 20
364.49489999999992
 30
0.0
 11
-634.63391000000001
 21
364.49489999999992
 31
0.0
  0
LINE
  5
502
  8
0
  6
CONTINUOUS
 62
     7
 10
-636.88391000000001
 20
366.59487999999988
 30
0.0
 11
-635.13391000000001
 21
366.59487999999988
 31
0.0
  0
LINE
  5
503
  8
0
  6
CONTINUOUS
 62
     7
 10
-636.86388999999986
 20
371.11489999999992
 30
0.0
 11
-635.13391000000001
 21
371.11489999999992
 31
0.0
  0
LINE
  5
504
  8
0
  6
CONTINUOUS
 62
     7
 10
-636.83385999999985
 20
369.97487999999998
 30
0.0
 11
-634.1339099999999
 21
369.97487999999998
 31
0.0
  0
LINE
  5
505
  8
0
  6
CONTINUOUS
 62
     7
 10
-636.85388
 20
365.45486
 30
0.0
 11
-634.1339099999999
 21
365.45486
 31
0.0
  0
LINE
  5
506
  8
0
  6
CONTINUOUS
 62
     7
 10
-637.38385000000005
 20
370.13488999999993
 30
0.0
 11
-638.68384000000003
 21
370.98486000000003
 31
0.0
  0
LINE
  5
507
  8
0
  6
CONTINUOUS
 62
     7
 10
-637.37378000000001
 20
365.59485000000001
 30
0.0
 11
-638.65380999999979
 21
366.36486999999988
 31
0.0
  0
LINE
  5
508
  8
0
  6
CONTINUOUS
 62
     7
 10
-637.36383000000001
 20
363.48486000000003
 30
0.0
 11
-638.63378999999998
 21
364.21487000000002
 31
0.0
  0
LINE
  5
509
  8
0
  6
CONTINUOUS
 62
     7
 10
-636.86388999999986
 20
363.34487999999999
 30
0.0
 11
-634.63391000000001
 21
363.34487999999999
 31
0.0
  0
LINE
  5
50A
  8
0
  6
CONTINUOUS
 62
     7
 10
-639.13391000000001
 20
365.07486
 30
0.0
 11
-639.13391000000001
 21
408.09487999999988
 31
0.0
  0
LINE
  5
50B
  8
0
  6
CONTINUOUS
 62
     7
 10
-638.6438599999999
 20
371.99486999999988
 30
0.0
 11
-638.66381999999999
 21
372.00484999999992
 31
0.0
  0
LINE
  5
50C
  8
0
  6
CONTINUOUS
 62
     7
 10
-640.63391000000001
 20
395.81484999999998
 30
0.0
 11
-639.13391000000001
 21
395.81484999999998
 31
0.0
  0
LINE
  5
50D
  8
0
  6
CONTINUOUS
 62
     7
 10
-640.63391000000001
 20
397.94484999999992
 30
0.0
 11
-639.13391000000001
 21
397.94484999999992
 31
0.0
  0
LINE
  5
50E
  8
0
  6
CONTINUOUS
 62
     7
 10
-640.63385000000017
 20
393.09491000000003
 30
0.0
 11
-639.13385000000005
 21
392.96489999999989
 31
0.0
  0
LINE
  5
50F
  8
0
  6
CONTINUOUS
 62
     7
 10
-640.63391000000001
 20
393.09487999999988
 30
0.0
 11
-640.63391000000001
 21
413.09487999999988
 31
0.0
  0
LINE
  5
510
  8
0
  6
CONTINUOUS
 62
     7
 10
-637.13391000000001
 20
377.70486
 30
0.0
 11
-637.13391000000001
 21
378.76492000000002
 31
0.0
  0
LINE
  5
511
  8
0
  6
CONTINUOUS
 62
     7
 10
-637.13391000000001
 20
387.46487000000002
 30
0.0
 11
-637.13391000000001
 21
388.83487000000002
 31
0.0
  0
LINE
  5
512
  8
0
  6
CONTINUOUS
 62
     7
 10
-637.13391000000001
 20
407.48489000000001
 30
0.0
 11
-637.13391000000001
 21
408.64492999999987
 31
0.0
  0
LINE
  5
513
  8
0
  6
CONTINUOUS
 62
     7
 10
-637.13391000000001
 20
397.48488999999989
 30
0.0
 11
-637.13391000000001
 21
398.70485999999988
 31
0.0
  0
LINE
  5
514
  8
0
  6
CONTINUOUS
 62
     7
 10
-635.13391000000001
 20
409.09487999999988
 30
0.0
 11
-638.1339099999999
 21
409.09487999999988
 31
0.0
  0
LINE
  5
515
  8
0
  6
CONTINUOUS
 62
     7
 10
-635.13391000000001
 20
407.09487999999999
 30
0.0
 11
-638.1339099999999
 21
407.09487999999999
 31
0.0
  0
LINE
  5
516
  8
0
  6
CONTINUOUS
 62
     7
 10
-635.13391000000001
 20
399.09487999999988
 30
0.0
 11
-638.1339099999999
 21
399.09487999999988
 31
0.0
  0
LINE
  5
517
  8
0
  6
CONTINUOUS
 62
     7
 10
-635.13391000000001
 20
397.09487999999999
 30
0.0
 11
-638.1339099999999
 21
397.09487999999999
 31
0.0
  0
LINE
  5
518
  8
0
  6
CONTINUOUS
 62
     7
 10
-635.13391000000001
 20
389.09487999999988
 30
0.0
 11
-638.1339099999999
 21
389.09487999999988
 31
0.0
  0
LINE
  5
519
  8
0
  6
CONTINUOUS
 62
     7
 10
-635.13391000000001
 20
387.09487999999988
 30
0.0
 11
-638.1339099999999
 21
387.09487999999988
 31
0.0
  0
LINE
  5
51A
  8
0
  6
CONTINUOUS
 62
     7
 10
-637.2738599999999
 20
379.39490000000001
 30
0.0
 11
-638.42382999999995
 21
379.75490999999988
 31
0.0
  0
LINE
  5
51B
  8
0
  6
CONTINUOUS
 62
     7
 10
-636.9838900000002
 20
379.35489000000001
 30
0.0
 11
-635.13391000000001
 21
379.35489000000001
 31
0.0
  0
LINE
  5
51C
  8
0
  6
CONTINUOUS
 62
     7
 10
-637.32390999999996
 20
377.48486000000003
 30
0.0
 11
-638.52386000000001
 21
378.00484999999992
 31
0.0
  0
LINE
  5
51D
  8
0
  6
CONTINUOUS
 62
     7
 10
-636.93384000000003
 20
377.40493999999978
 30
0.0
 11
-634.83385999999985
 21
377.40493999999978
 31
0.0
  0
LINE
  5
51E
  8
0
  6
CONTINUOUS
 62
     7
 10
-640.63391000000001
 20
430.37490999999989
 30
0.0
 11
-639.13391000000001
 21
430.37490999999989
 31
0.0
  0
LINE
  5
51F
  8
0
  6
CONTINUOUS
 62
     7
 10
-640.63391000000001
 20
428.2448999999998
 30
0.0
 11
-639.13391000000001
 21
428.2448999999998
 31
0.0
  0
LINE
  5
520
  8
0
  6
CONTINUOUS
 62
     7
 10
-640.6337900000002
 20
433.09494000000001
 30
0.0
 11
-639.13378999999986
 21
433.22494999999992
 31
0.0
  0
LINE
  5
521
  8
0
  6
CONTINUOUS
 62
     7
 10
-640.63391000000001
 20
433.09487999999988
 30
0.0
 11
-640.63391000000001
 21
413.09487999999988
 31
0.0
  0
LINE
  5
522
  8
0
  6
CONTINUOUS
 62
     7
 10
-637.13391000000001
 20
462.59487999999988
 30
0.0
 11
-637.13391000000001
 21
462.06484999999992
 31
0.0
  0
LINE
  5
523
  8
0
  6
CONTINUOUS
 62
     7
 10
-637.13391000000001
 20
460.49489999999992
 30
0.0
 11
-637.13391000000001
 21
459.94484999999997
 31
0.0
  0
LINE
  5
524
  8
0
  6
CONTINUOUS
 62
     7
 10
-637.13391000000001
 20
455.92484000000002
 30
0.0
 11
-637.13391000000001
 21
455.45485999999988
 31
0.0
  0
LINE
  5
525
  8
0
  6
CONTINUOUS
 62
     7
 10
-637.13391000000001
 20
448.48489000000012
 30
0.0
 11
-637.13391000000001
 21
447.42484000000002
 31
0.0
  0
LINE
  5
526
  8
0
  6
CONTINUOUS
 62
     7
 10
-637.13391000000001
 20
438.72487999999998
 30
0.0
 11
-637.13391000000001
 21
437.35489000000001
 31
0.0
  0
LINE
  5
527
  8
0
  6
CONTINUOUS
 62
     7
 10
-637.13391000000001
 20
418.70485999999988
 30
0.0
 11
-637.13391000000001
 21
417.54482999999999
 31
0.0
  0
LINE
  5
528
  8
0
  6
CONTINUOUS
 62
     7
 10
-637.13391000000001
 20
428.70485999999988
 30
0.0
 11
-637.13391000000001
 21
427.49489999999992
 31
0.0
  0
LINE
  5
529
  8
0
  6
CONTINUOUS
 62
     7
 10
-635.13391000000001
 20
417.09487999999988
 30
0.0
 11
-638.1339099999999
 21
417.09487999999988
 31
0.0
  0
LINE
  5
52A
  8
0
  6
CONTINUOUS
 62
     7
 10
-635.13391000000001
 20
419.09487999999999
 30
0.0
 11
-638.1339099999999
 21
419.09487999999999
 31
0.0
  0
LINE
  5
52B
  8
0
  6
CONTINUOUS
 62
     7
 10
-635.13391000000001
 20
427.09487999999999
 30
0.0
 11
-638.1339099999999
 21
427.09487999999999
 31
0.0
  0
LINE
  5
52C
  8
0
  6
CONTINUOUS
 62
     7
 10
-635.13391000000001
 20
429.09487999999988
 30
0.0
 11
-638.1339099999999
 21
429.09487999999988
 31
0.0
  0
LINE
  5
52D
  8
0
  6
CONTINUOUS
 62
     7
 10
-635.13391000000001
 20
437.09487999999988
 30
0.0
 11
-638.1339099999999
 21
437.09487999999988
 31
0.0
  0
LINE
  5
52E
  8
0
  6
CONTINUOUS
 62
     7
 10
-635.13391000000001
 20
439.09487999999999
 30
0.0
 11
-638.1339099999999
 21
439.09487999999999
 31
0.0
  0
LINE
  5
52F
  8
0
  6
CONTINUOUS
 62
     7
 10
-637.35382000000004
 20
459.48489000000001
 30
0.0
 11
-638.60388
 21
458.81487999999979
 31
0.0
  0
LINE
  5
530
  8
0
  6
CONTINUOUS
 62
     7
 10
-637.34387000000004
 20
461.59487999999988
 30
0.0
 11
-638.58385999999985
 21
460.96487000000002
 31
0.0
  0
LINE
  5
531
  8
0
  6
CONTINUOUS
 62
     7
 10
-637.2738599999999
 20
446.79489000000001
 30
0.0
 11
-638.42389000000003
 21
446.44488999999987
 31
0.0
  0
LINE
  5
532
  8
0
  6
CONTINUOUS
 62
     7
 10
-637.36383000000001
 20
454.94488999999987
 30
0.0
 11
-638.6438599999999
 21
454.19488999999999
 31
0.0
  0
LINE
  5
533
  8
0
  6
CONTINUOUS
 62
     7
 10
-636.89380000000006
 20
461.69484999999992
 30
0.0
 11
-634.63391000000001
 21
461.69484999999992
 31
0.0
  0
LINE
  5
534
  8
0
  6
CONTINUOUS
 62
     7
 10
-636.88391000000001
 20
459.59487999999999
 30
0.0
 11
-635.13391000000001
 21
459.59487999999999
 31
0.0
  0
LINE
  5
535
  8
0
  6
CONTINUOUS
 62
     7
 10
-636.86388999999986
 20
455.08487000000002
 30
0.0
 11
-635.13391000000001
 21
455.08487000000002
 31
0.0
  0
LINE
  5
536
  8
0
  6
CONTINUOUS
 62
     7
 10
-636.9838900000002
 20
446.83486999999991
 30
0.0
 11
-635.13391000000001
 21
446.83486999999991
 31
0.0
  0
LINE
  5
537
  8
0
  6
CONTINUOUS
 62
     7
 10
-636.83385999999985
 20
456.22487999999981
 30
0.0
 11
-634.1339099999999
 21
456.22487999999981
 31
0.0
  0
LINE
  5
538
  8
0
  6
CONTINUOUS
 62
     7
 10
-636.85388
 20
460.73488999999989
 30
0.0
 11
-634.1339099999999
 21
460.73488999999989
 31
0.0
  0
LINE
  5
539
  8
0
  6
CONTINUOUS
 62
     7
 10
-637.32379000000003
 20
448.70482999999967
 30
0.0
 11
-638.52380000000005
 21
448.19481999999988
 31
0.0
  0
LINE
  5
53A
  8
0
  6
CONTINUOUS
 62
     7
 10
-637.38378999999975
 20
456.05486999999999
 30
0.0
 11
-638.68384000000003
 21
455.20485999999988
 31
0.0
  0
LINE
  5
53B
  8
0
  6
CONTINUOUS
 62
     7
 10
-637.37383999999975
 20
460.59485000000001
 30
0.0
 11
-638.65380999999979
 21
459.82485999999989
 31
0.0
  0
LINE
  5
53C
  8
0
  6
CONTINUOUS
 62
     7
 10
-637.3638900000002
 20
462.71494000000001
 30
0.0
 11
-638.63385000000005
 21
461.97494999999998
 31
0.0
  0
LINE
  5
53D
  8
0
  6
CONTINUOUS
 62
     7
 10
-636.93384000000003
 20
448.78482000000002
 30
0.0
 11
-634.83385999999985
 21
448.78482000000002
 31
0.0
  0
LINE
  5
53E
  8
0
  6
CONTINUOUS
 62
     7
 10
-636.86388999999986
 20
462.84487999999999
 30
0.0
 11
-634.63391000000001
 21
462.84487999999999
 31
0.0
  0
LINE
  5
53F
  8
0
  6
CONTINUOUS
 62
     7
 10
-639.13391000000001
 20
461.11489999999998
 30
0.0
 11
-639.13391000000001
 21
418.09487999999999
 31
0.0
  0
LINE
  5
540
  8
0
  6
CONTINUOUS
 62
     7
 10
-487.13385
 20
450.24489999999992
 30
0.0
 11
-479.13385
 21
450.24489999999992
 31
0.0
  0
LINE
  5
541
  8
0
  6
CONTINUOUS
 62
     7
 10
-486.13385
 20
361.05484000000001
 30
0.0
 11
-479.13385
 21
361.05484000000001
 31
0.0
  0
LINE
  5
542
  8
0
  6
CONTINUOUS
 62
     7
 10
-487.13385
 20
375.94484999999992
 30
0.0
 11
-479.13385
 21
375.94484999999992
 31
0.0
  0
LINE
  5
543
  8
0
  6
CONTINUOUS
 62
     7
 10
-486.13385
 20
349.59487999999988
 30
0.0
 11
-479.13385
 21
349.59487999999988
 31
0.0
  0
LINE
  5
544
  8
0
  6
CONTINUOUS
 62
     7
 10
-486.13385
 20
465.13492000000002
 30
0.0
 11
-479.13385
 21
465.13492000000002
 31
0.0
  0
LINE
  5
545
  8
0
  6
CONTINUOUS
 62
     7
 10
-486.13385
 20
476.59487999999999
 30
0.0
 11
-479.13385
 21
476.59487999999999
 31
0.0
  0
LINE
  5
546
  8
0
  6
CONTINUOUS
 62
     7
 10
-634.13385000000005
 20
355.66485999999992
 30
0.0
 11
-631.31377999999995
 21
355.60485999999997
 31
0.0
  0
LINE
  5
547
  8
0
  6
CONTINUOUS
 62
     7
 10
-593.13391000000001
 20
366.74489999999992
 30
0.0
 11
-487.13385
 21
366.74489999999992
 31
0.0
  0
LINE
  5
548
  8
0
  6
CONTINUOUS
 62
     7
 10
-492.42385999999988
 20
352.59487999999999
 30
0.0
 11
-487.13385
 21
352.59487999999999
 31
0.0
  0
LINE
  5
549
  8
0
  6
CONTINUOUS
 62
     7
 10
-620.46387000000004
 20
379.73489000000001
 30
0.0
 11
-526.11388999999986
 21
379.73489000000001
 31
0.0
  0
LINE
  5
54A
  8
0
  6
CONTINUOUS
 62
     7
 10
-538.1339099999999
 20
377.09487999999988
 30
0.0
 11
-619.59813999999994
 21
377.09487999999988
 31
0.0
  0
LINE
  5
54B
  8
0
  6
CONTINUOUS
 62
     7
 10
-538.1339099999999
 20
376.37491
 30
0.0
 11
-490.31384000000003
 21
376.37491
 31
0.0
  0
LINE
  5
54C
  8
0
  6
CONTINUOUS
 62
     7
 10
-620.46387000000004
 20
376.37491
 30
0.0
 11
-538.1339099999999
 21
376.37491
 31
0.0
  0
LINE
  5
54D
  8
0
  6
CONTINUOUS
 62
     7
 10
-620.43628000000001
 20
354.83487000000002
 30
0.0
 11
-614.63391000000001
 21
354.83487000000002
 31
0.0
  0
LINE
  5
54E
  8
0
  6
CONTINUOUS
 62
     7
 10
-611.13391000000001
 20
351.23489000000001
 30
0.0
 11
-494.32384999999988
 21
351.23489000000001
 31
0.0
  0
LINE
  5
54F
  8
0
  6
CONTINUOUS
 62
     7
 10
-620.37401999999975
 20
360.11489999999992
 30
0.0
 11
-614.63391000000001
 21
360.11489999999992
 31
0.0
  0
LINE
  5
550
  8
0
  6
CONTINUOUS
 62
     7
 10
-624.13391000000001
 20
364.74489999999992
 30
0.0
 11
-624.13391000000001
 21
378.79482999999999
 31
0.0
  0
LINE
  5
551
  8
0
  6
CONTINUOUS
 62
     7
 10
-634.1339099999999
 20
364.74489999999992
 30
0.0
 11
-624.13391000000001
 21
364.74489999999992
 31
0.0
  0
LINE
  5
552
  8
0
  6
CONTINUOUS
 62
     7
 10
-492.39385999999968
 20
352.72482000000002
 30
0.0
 11
-488.9338399999998
 21
365.63492000000002
 31
0.0
  0
LINE
  5
553
  8
0
  6
CONTINUOUS
 62
     7
 10
-630.37255999999979
 20
352.93588
 30
0.0
 11
-630.85388
 21
354.84487999999999
 31
0.0
  0
LINE
  5
554
  8
0
  6
CONTINUOUS
 62
     7
 10
-629.94390999999985
 20
352.96481
 30
0.0
 11
-630.86388999999997
 21
356.84491000000008
 31
0.0
  0
LINE
  5
555
  8
0
  6
CONTINUOUS
 62
     7
 10
-613.1339099999999
 20
351.20583999999991
 30
0.0
 11
-613.1339099999999
 21
358.61489999999992
 31
0.0
  0
LINE
  5
556
  8
0
  6
CONTINUOUS
 62
     7
 10
-632.30382999999995
 20
355.97487999999993
 30
0.0
 11
-630.65380999999979
 21
355.97487999999993
 31
0.0
  0
LINE
  5
557
  8
0
  6
CONTINUOUS
 62
     7
 10
-593.13391000000001
 20
459.44484999999992
 30
0.0
 11
-487.13385
 21
459.44484999999992
 31
0.0
  0
LINE
  5
558
  8
0
  6
CONTINUOUS
 62
     7
 10
-487.13385
 20
350.59487999999999
 30
0.0
 11
-487.13385
 21
475.59487999999988
 31
0.0
  0
LINE
  5
559
  8
0
  6
CONTINUOUS
 62
     7
 10
-634.13385000000005
 20
470.5249
 30
0.0
 11
-631.31384000000003
 21
470.59487999999988
 31
0.0
  0
LINE
  5
55A
  8
0
  6
CONTINUOUS
 62
     7
 10
-634.1339099999999
 20
355.66482999999982
 30
0.0
 11
-634.1339099999999
 21
413.09487999999988
 31
0.0
  0
LINE
  5
55B
  8
0
  6
CONTINUOUS
 62
     7
 10
-493.79385000000002
 20
377.09487999999988
 30
0.0
 11
-538.1339099999999
 21
377.09487999999988
 31
0.0
  0
LINE
  5
55C
  8
0
  6
CONTINUOUS
 62
     7
 10
-624.13391000000001
 20
461.44484999999992
 30
0.0
 11
-624.13391000000001
 21
447.40494000000001
 31
0.0
  0
LINE
  5
55D
  8
0
  6
CONTINUOUS
 62
     7
 10
-634.1339099999999
 20
447.40494000000001
 30
0.0
 11
-624.13391000000001
 21
447.40494000000001
 31
0.0
  0
LINE
  5
55E
  8
0
  6
CONTINUOUS
 62
     7
 10
-634.1339099999999
 20
455.78482000000002
 30
0.0
 11
-624.13391000000001
 21
455.78482000000002
 31
0.0
  0
LINE
  5
55F
  8
0
  6
CONTINUOUS
 62
     7
 10
-634.1339099999999
 20
461.44484999999992
 30
0.0
 11
-624.13391000000001
 21
461.44484999999992
 31
0.0
  0
LINE
  5
560
  8
0
  6
CONTINUOUS
 62
     7
 10
-558.69176999999979
 20
399.09487999999988
 30
0.0
 11
-628.58385999999985
 21
399.09487999999988
 31
0.0
  0
LINE
  5
561
  8
0
  6
CONTINUOUS
 62
     7
 10
-611.13391000000001
 20
474.95485999999988
 30
0.0
 11
-494.32384999999988
 21
474.95485999999988
 31
0.0
  0
LINE
  5
562
  8
0
  6
CONTINUOUS
 62
     7
 10
-620.1795699999999
 20
466.08487000000002
 30
0.0
 11
-614.63391000000001
 21
466.08487000000002
 31
0.0
  0
LINE
  5
563
  8
0
  6
CONTINUOUS
 62
     7
 10
-622.92455999999981
 20
460.08822999999973
 30
0.0
 11
-622.13953000000004
 21
464.43490999999989
 31
0.0
  0
LINE
  5
564
  8
0
  6
CONTINUOUS
 62
     7
 10
-620.2434099999997
 20
471.36489999999998
 30
0.0
 11
-614.63391000000001
 21
471.36489999999998
 31
0.0
  0
LINE
  5
565
  8
0
  6
CONTINUOUS
 62
     7
 10
-628.00391000000002
 20
474.76492000000002
 30
0.0
 11
-614.63391000000001
 21
474.76492000000002
 31
0.0
  0
LINE
  5
566
  8
0
  6
CONTINUOUS
 62
     7
 10
-628.02380000000005
 20
476.39492999999999
 30
0.0
 11
-614.52380000000005
 21
476.39492999999999
 31
0.0
  0
LINE
  5
567
  8
0
  6
CONTINUOUS
 62
     7
 10
-611.13391000000001
 20
479.01492000000002
 30
0.0
 11
-493.05020000000002
 21
479.01492000000002
 31
0.0
  0
LINE
  5
568
  8
0
  6
CONTINUOUS
 62
     7
 10
-611.13391000000001
 20
478.34487999999999
 30
0.0
 11
-492.90618999999992
 21
478.34487999999999
 31
0.0
  0
LINE
  5
569
  8
0
  6
CONTINUOUS
 62
     7
 10
-611.13391000000001
 20
476.98489000000001
 30
0.0
 11
-492.61389000000003
 21
476.98489000000001
 31
0.0
  0
LINE
  5
56A
  8
0
  6
CONTINUOUS
 62
     7
 10
-624.61963000000003
 20
464.13492000000002
 30
0.0
 11
-622.19957999999997
 21
464.13492000000002
 31
0.0
  0
LINE
  5
56B
  8
0
  6
CONTINUOUS
 62
     7
 10
-622.18957999999975
 20
469.78490999999991
 30
0.0
 11
-623.14959999999985
 21
465.31482
 31
0.0
  0
LINE
  5
56C
  8
0
  6
CONTINUOUS
 62
     7
 10
-632.32384999999999
 20
468.1948499999998
 30
0.0
 11
-622.53112999999985
 21
468.1948499999998
 31
0.0
  0
LINE
  5
56D
  8
0
  6
CONTINUOUS
 62
     7
 10
-493.79385000000002
 20
449.09487999999988
 30
0.0
 11
-619.58385999999996
 21
449.09487999999988
 31
0.0
  0
LINE
  5
56E
  8
0
  6
CONTINUOUS
 62
     7
 10
-493.79385000000002
 20
447.09487999999999
 30
0.0
 11
-508.13385
 21
447.09487999999999
 31
0.0
  0
LINE
  5
56F
  8
0
  6
CONTINUOUS
 62
     7
 10
-493.78671000000003
 20
439.09487999999999
 30
0.0
 11
-508.13385
 21
439.09487999999999
 31
0.0
  0
LINE
  5
570
  8
0
  6
CONTINUOUS
 62
     7
 10
-629.94384999999988
 20
473.2249099999998
 30
0.0
 11
-630.86388999999997
 21
469.3548599999998
 31
0.0
  0
LINE
  5
571
  8
0
  6
CONTINUOUS
 62
     7
 10
-493.80103000000003
 20
437.09487999999988
 30
0.0
 11
-619.58385999999996
 21
437.09487999999988
 31
0.0
  0
LINE
  5
572
  8
0
  6
CONTINUOUS
 62
     7
 10
-632.30382999999995
 20
470.21487000000002
 30
0.0
 11
-630.65380999999979
 21
470.21487000000002
 31
0.0
  0
LINE
  5
573
  8
0
  6
CONTINUOUS
 62
     7
 10
-629.96380999999997
 20
474.88482999999968
 30
0.0
 11
-630.85382000000004
 21
471.35489000000001
 31
0.0
  0
LINE
  5
574
  8
0
  6
CONTINUOUS
 62
     7
 10
-558.69519000000003
 20
429.09487999999988
 30
0.0
 11
-628.58385999999985
 21
429.09487999999988
 31
0.0
  0
LINE
  5
575
  8
0
  6
CONTINUOUS
 62
     7
 10
-613.1339099999999
 20
474.98488999999989
 30
0.0
 11
-613.1339099999999
 21
467.58487000000002
 31
0.0
  0
LINE
  5
576
  8
0
  6
CONTINUOUS
 62
     7
 10
-558.69519000000003
 20
427.09487999999999
 30
0.0
 11
-628.58385999999985
 21
427.09487999999999
 31
0.0
  0
LINE
  5
577
  8
0
  6
CONTINUOUS
 62
     7
 10
-558.69176999999979
 20
419.09487999999999
 30
0.0
 11
-628.58385999999985
 21
419.09487999999999
 31
0.0
  0
LINE
  5
578
  8
0
  6
CONTINUOUS
 62
     7
 10
-558.69176999999979
 20
417.09487999999988
 30
0.0
 11
-628.58385999999985
 21
417.09487999999988
 31
0.0
  0
LINE
  5
579
  8
0
  6
CONTINUOUS
 62
     7
 10
-492.39385999999968
 20
473.47491000000002
 30
0.0
 11
-488.9338399999998
 21
460.55483999999979
 31
0.0
  0
LINE
  5
57A
  8
0
  6
CONTINUOUS
 62
     7
 10
-490.67343
 20
473.59487999999999
 30
0.0
 11
-487.13385
 21
473.59487999999999
 31
0.0
  0
LINE
  5
57B
  8
0
  6
CONTINUOUS
 62
     7
 10
-487.42385999999988
 20
464.13492000000002
 30
0.0
 11
-489.84384
 21
464.13492000000002
 31
0.0
  0
LINE
  5
57C
  8
0
  6
CONTINUOUS
 62
     7
 10
-491.58368000000002
 20
477.83008000000001
 30
0.0
 11
-488.89382999999992
 21
465.31484999999992
 31
0.0
  0
LINE
  5
57D
  8
0
  6
CONTINUOUS
 62
     7
 10
-634.1339099999999
 20
470.52492999999998
 30
0.0
 11
-634.1339099999999
 21
413.09487999999988
 31
0.0
  0
LINE
  5
57E
  8
0
  6
CONTINUOUS
 62
     7
 10
-634.1339099999999
 20
378.79482999999999
 30
0.0
 11
-624.13391000000001
 21
378.79482999999999
 31
0.0
  0
LINE
  5
57F
  8
0
  6
CONTINUOUS
 62
     7
 10
-628.43322999999987
 20
351.42484000000002
 30
0.0
 11
-614.39110999999946
 21
351.42484000000002
 31
0.0
  0
LINE
  5
580
  8
0
  6
CONTINUOUS
 62
     7
 10
-634.1339099999999
 20
370.40494000000001
 30
0.0
 11
-624.13391000000001
 21
370.40494000000001
 31
0.0
  0
LINE
  5
581
  8
0
  6
CONTINUOUS
 62
     7
 10
-632.32384999999999
 20
357.99489999999992
 30
0.0
 11
-622.53112999999985
 21
357.99489999999992
 31
0.0
  0
LINE
  5
582
  8
0
  6
CONTINUOUS
 62
     7
 10
-611.13391000000001
 20
349.20485999999983
 30
0.0
 11
-569.8075
 21
349.20485999999983
 31
0.0
  0
LINE
  5
583
  8
0
  6
CONTINUOUS
 62
     7
 10
-620.67382999999995
 20
386.61489999999998
 30
0.0
 11
-526.13385000000005
 21
386.61489999999998
 31
0.0
  0
LINE
  5
584
  8
0
  6
CONTINUOUS
 62
     7
 10
-526.13385000000005
 20
379.09487999999988
 30
0.0
 11
-619.59813999999994
 21
379.09487999999988
 31
0.0
  0
LINE
  5
585
  8
0
  6
CONTINUOUS
 62
     7
 10
-620.46387000000004
 20
449.82485999999989
 30
0.0
 11
-490.31384000000003
 21
449.82485999999989
 31
0.0
  0
LINE
  5
586
  8
0
  6
CONTINUOUS
 62
     7
 10
-620.46387000000004
 20
446.46487000000002
 30
0.0
 11
-526.11388999999986
 21
446.46487000000002
 31
0.0
  0
LINE
  5
587
  8
0
  6
CONTINUOUS
 62
     7
 10
-620.67382999999995
 20
439.58487000000002
 30
0.0
 11
-526.13385000000005
 21
439.58487000000002
 31
0.0
  0
LINE
  5
588
  8
0
  6
CONTINUOUS
 62
     7
 10
-620.67382999999995
 20
436.66482999999999
 30
0.0
 11
-490.09960999999993
 21
436.66482999999999
 31
0.0
  0
LINE
  5
589
  8
0
  6
CONTINUOUS
 62
     7
 10
-629.80382999999995
 20
429.44484999999992
 30
0.0
 11
-557.46265000000005
 21
429.44484999999992
 31
0.0
  0
LINE
  5
58A
  8
0
  6
CONTINUOUS
 62
     7
 10
-629.80382999999995
 20
426.77492999999998
 30
0.0
 11
-557.4751
 21
426.77492999999998
 31
0.0
  0
LINE
  5
58B
  8
0
  6
CONTINUOUS
 62
     7
 10
-629.8638900000002
 20
419.37490999999989
 30
0.0
 11
-557.39868000000001
 21
419.37490999999989
 31
0.0
  0
LINE
  5
58C
  8
0
  6
CONTINUOUS
 62
     7
 10
-629.8638900000002
 20
416.83487000000002
 30
0.0
 11
-557.39868000000001
 21
416.83487000000002
 31
0.0
  0
LINE
  5
58D
  8
0
  6
CONTINUOUS
 62
     7
 10
-629.8638900000002
 20
409.36489999999998
 30
0.0
 11
-557.39868000000001
 21
409.36489999999998
 31
0.0
  0
LINE
  5
58E
  8
0
  6
CONTINUOUS
 62
     7
 10
-558.69176999999979
 20
407.09487999999999
 30
0.0
 11
-628.58385999999985
 21
407.09487999999999
 31
0.0
  0
LINE
  5
58F
  8
0
  6
CONTINUOUS
 62
     7
 10
-558.69176999999979
 20
409.09487999999988
 30
0.0
 11
-628.58385999999985
 21
409.09487999999988
 31
0.0
  0
LINE
  5
590
  8
0
  6
CONTINUOUS
 62
     7
 10
-629.80382999999995
 20
399.41482999999988
 30
0.0
 11
-557.46265000000005
 21
399.41482999999988
 31
0.0
  0
LINE
  5
591
  8
0
  6
CONTINUOUS
 62
     7
 10
-558.69176999999979
 20
397.09487999999999
 30
0.0
 11
-628.58385999999985
 21
397.09487999999999
 31
0.0
  0
LINE
  5
592
  8
0
  6
CONTINUOUS
 62
     7
 10
-629.80382999999995
 20
396.75490999999988
 30
0.0
 11
-557.46265000000005
 21
396.75490999999988
 31
0.0
  0
LINE
  5
593
  8
0
  6
CONTINUOUS
 62
     7
 10
-493.80103000000003
 20
389.09487999999988
 30
0.0
 11
-619.59813999999994
 21
389.09487999999988
 31
0.0
  0
LINE
  5
594
  8
0
  6
CONTINUOUS
 62
     7
 10
-620.67382999999995
 20
389.53482000000002
 30
0.0
 11
-490.09960999999993
 21
389.53482000000002
 31
0.0
  0
LINE
  5
595
  8
0
  6
CONTINUOUS
 62
     7
 10
-493.80103000000003
 20
387.09487999999988
 30
0.0
 11
-508.13385
 21
387.09487999999988
 31
0.0
  0
LINE
  5
596
  8
0
  6
CONTINUOUS
 62
     7
 10
-493.79385000000002
 20
379.09487999999988
 30
0.0
 11
-508.13385
 21
379.09487999999988
 31
0.0
  0
LINE
  5
597
  8
0
  6
CONTINUOUS
 62
     7
 10
-629.8638900000002
 20
406.82486
 30
0.0
 11
-557.39868000000001
 21
406.82486
 31
0.0
  0
LINE
  5
598
  8
0
  6
CONTINUOUS
 62
     7
 10
-622.92462
 20
366.10149999999987
 30
0.0
 11
-622.13959
 21
361.75481999999988
 31
0.0
  0
LINE
  5
599
  8
0
  6
CONTINUOUS
 62
     7
 10
-624.61963000000003
 20
362.05484000000001
 30
0.0
 11
-622.19957999999997
 21
362.05484000000001
 31
0.0
  0
LINE
  5
59A
  8
0
  6
CONTINUOUS
 62
     7
 10
-622.18957999999975
 20
356.40487999999999
 30
0.0
 11
-623.14954
 21
360.87484999999992
 31
0.0
  0
LINE
  5
59B
  8
0
  6
CONTINUOUS
 62
     3
 10
-568.13385000000005
 20
341.09487999999988
 30
0.0
 11
-568.39935000000003
 21
351.23482999999987
 31
0.0
  0
LINE
  5
59C
  8
0
  6
CONTINUOUS
 62
     3
 10
-508.13385
 20
341.09487999999988
 30
0.0
 11
-507.86831999999993
 21
351.23482999999987
 31
0.0
  0
LINE
  5
59D
  8
0
  6
CONTINUOUS
 62
     7
 10
-506.62024000000002
 20
343.09487999999988
 30
0.0
 11
-495.11765000000003
 21
343.09487999999988
 31
0.0
  0
LINE
  5
59E
  8
0
  6
CONTINUOUS
 62
     3
 10
-488.13382000000001
 20
352.59487999999999
 30
0.0
 11
-493.85962000000001
 21
343.77791999999999
 31
0.0
  0
LINE
  5
59F
  8
0
  6
CONTINUOUS
 62
     7
 10
-524.63385000000005
 20
385.59487999999999
 30
0.0
 11
-524.63385000000005
 21
380.59487999999988
 31
0.0
  0
LINE
  5
5A0
  8
0
  6
CONTINUOUS
 62
     7
 10
-509.63384999999988
 20
385.59487999999999
 30
0.0
 11
-509.63384999999988
 21
380.59487999999988
 31
0.0
  0
LINE
  5
5A1
  8
0
  6
CONTINUOUS
 62
     7
 10
-526.13385000000005
 20
387.09487999999988
 30
0.0
 11
-619.59813999999994
 21
387.09487999999988
 31
0.0
  0
LINE
  5
5A2
  8
0
  6
CONTINUOUS
 62
     7
 10
-525.11388999999986
 20
385.59487999999999
 30
0.0
 11
-525.11388999999986
 21
380.73489000000001
 31
0.0
  0
LINE
  5
5A3
  8
0
  6
CONTINUOUS
 62
     7
 10
-509.15384000000012
 20
385.59487999999999
 30
0.0
 11
-509.15384000000012
 21
380.73489000000001
 31
0.0
  0
LINE
  5
5A4
  8
0
  6
CONTINUOUS
 62
     7
 10
-508.13385
 20
386.61489999999998
 30
0.0
 11
-490.09960999999993
 21
386.61489999999998
 31
0.0
  0
LINE
  5
5A5
  8
0
  6
CONTINUOUS
 62
     7
 10
-508.15384
 20
379.73489000000001
 30
0.0
 11
-490.31384000000003
 21
379.73489000000001
 31
0.0
  0
LINE
  5
5A6
  8
0
  6
CONTINUOUS
 62
     7
 10
-509.15384000000012
 20
440.59487999999988
 30
0.0
 11
-509.15384000000012
 21
445.45485999999988
 31
0.0
  0
LINE
  5
5A7
  8
0
  6
CONTINUOUS
 62
     7
 10
-525.11388999999986
 20
440.59487999999988
 30
0.0
 11
-525.11388999999986
 21
445.45485999999988
 31
0.0
  0
LINE
  5
5A8
  8
0
  6
CONTINUOUS
 62
     7
 10
-509.63384999999988
 20
440.59487999999988
 30
0.0
 11
-509.63384999999988
 21
445.59487999999988
 31
0.0
  0
LINE
  5
5A9
  8
0
  6
CONTINUOUS
 62
     7
 10
-524.63385000000005
 20
440.59487999999988
 30
0.0
 11
-524.63385000000005
 21
445.59487999999988
 31
0.0
  0
LINE
  5
5AA
  8
0
  6
CONTINUOUS
 62
     7
 10
-526.13385000000005
 20
447.09487999999999
 30
0.0
 11
-619.58385999999996
 21
447.09487999999999
 31
0.0
  0
LINE
  5
5AB
  8
0
  6
CONTINUOUS
 62
     7
 10
-508.15384
 20
446.46487000000002
 30
0.0
 11
-490.31384000000003
 21
446.46487000000002
 31
0.0
  0
LINE
  5
5AC
  8
0
  6
CONTINUOUS
 62
     7
 10
-508.13385
 20
439.58487000000002
 30
0.0
 11
-490.08816999999999
 21
439.58487000000002
 31
0.0
  0
LINE
  5
5AD
  8
0
  6
CONTINUOUS
 62
     7
 10
-526.13385000000005
 20
439.09487999999999
 30
0.0
 11
-619.58385999999996
 21
439.09487999999999
 31
0.0
  0
LINE
  5
5AE
  8
0
  6
CONTINUOUS
 62
     3
 10
-553.13391000000001
 20
433.59487999999988
 30
0.0
 11
-553.13391000000001
 21
392.59487999999999
 31
0.0
  0
LINE
  5
5AF
  8
0
  6
CONTINUOUS
 62
     3
 10
-490.13385
 20
433.59487999999988
 30
0.0
 11
-490.13385
 21
392.59487999999999
 31
0.0
  0
LINE
  5
5B0
  8
0
  6
CONTINUOUS
 62
     7
 10
-553.13391000000001
 20
433.59487999999988
 30
0.0
 11
-490.13385
 21
433.59487999999988
 31
0.0
  0
LINE
  5
5B1
  8
0
  6
CONTINUOUS
 62
     7
 10
-553.13391000000001
 20
392.59487999999999
 30
0.0
 11
-490.13385
 21
392.59487999999999
 31
0.0
  0
LINE
  5
5B2
  8
0
  6
CONTINUOUS
 62
     7
 10
-553.13391000000001
 20
426.09487999999988
 30
0.0
 11
-490.13385
 21
426.09487999999988
 31
0.0
  0
LINE
  5
5B3
  8
0
  6
CONTINUOUS
 62
     3
 10
-593.13385000000005
 20
459.44481999999999
 30
0.0
 11
-624.13385000000017
 21
457.41482999999999
 31
0.0
  0
LINE
  5
5B4
  8
0
  6
CONTINUOUS
 62
     3
 10
-593.13385000000005
 20
366.74484000000001
 30
0.0
 11
-624.13385000000017
 21
368.77483999999993
 31
0.0
  0
LINE
  5
5B5
  8
0
  6
CONTINUOUS
 62
     7
 10
-346.63387999999992
 20
164.34796
 30
0.0
 11
-346.63387999999992
 21
161.3479599999998
 31
0.0
  0
LINE
  5
5B6
  8
0
  6
CONTINUOUS
 62
     7
 10
-346.63387999999992
 20
164.34796
 30
0.0
 11
-314.63387999999992
 21
164.34796
 31
0.0
  0
LINE
  5
5B7
  8
0
  6
CENTER
 62
     7
 10
-461.27487000000002
 20
147.34795
 30
0.0
 11
-309.68610000000001
 21
147.34795
 31
0.0
  0
LINE
  5
5B8
  8
0
  6
CONTINUOUS
 62
     7
 10
-356.63387999999998
 20
133.3479599999998
 30
0.0
 11
-314.63387999999992
 21
133.3479599999998
 31
0.0
  0
LINE
  5
5B9
  8
0
  6
CONTINUOUS
 62
     7
 10
-356.63387999999998
 20
232.34792999999991
 30
0.0
 11
-356.63387999999998
 21
62.347954000000001
 31
0.0
  0
LINE
  5
5BA
  8
0
  6
CONTINUOUS
 62
     7
 10
-356.63387999999998
 20
161.3479599999998
 30
0.0
 11
-314.63387999999992
 21
161.3479599999998
 31
0.0
  0
LINE
  5
5BB
  8
0
  6
CONTINUOUS
 62
     7
 10
-314.63387999999992
 20
164.34796
 30
0.0
 11
-314.63387999999992
 21
133.3479599999998
 31
0.0
  0
LINE
  5
5BC
  8
0
  6
CONTINUOUS
 62
     7
 10
-149.28093999999979
 20
164.34796
 30
0.0
 11
-141.28095999999991
 21
164.34796
 31
0.0
  0
LINE
  5
5BD
  8
0
  6
CONTINUOUS
 62
     7
 10
-149.28093999999979
 20
157.34794999999991
 30
0.0
 11
-141.28095999999991
 21
157.34794999999991
 31
0.0
  0
LINE
  5
5BE
  8
0
  6
CONTINUOUS
 62
     7
 10
-435.63384999999988
 20
205.14795000000001
 30
0.0
 11
-435.63384999999988
 21
43.147948999999983
 31
0.0
  0
LINE
  5
5BF
  8
0
  6
CONTINUOUS
 62
     7
 10
-479.13385
 20
72.647964000000002
 30
0.0
 11
-452.63385
 21
72.647964000000002
 31
0.0
  0
LINE
  5
5C0
  8
0
  6
CONTINUOUS
 62
     7
 10
-479.13385
 20
87.000022999999985
 30
0.0
 11
-452.63385
 21
87.000022999999985
 31
0.0
  0
LINE
  5
5C1
  8
0
  6
CONTINUOUS
 62
     7
 10
-452.63385
 20
194.97028999999989
 30
0.0
 11
-452.63385
 21
45.672984999999983
 31
0.0
  0
LINE
  5
5C2
  8
0
  6
CONTINUOUS
 62
     7
 10
-447.80838
 20
199.96725000000001
 30
0.0
 11
-447.16320999999988
 21
199.98978
 31
0.0
  0
LINE
  5
5C3
  8
0
  6
CONTINUOUS
 62
     7
 10
-479.13385
 20
175.64795000000001
 30
0.0
 11
-452.63385
 21
175.64795000000001
 31
0.0
  0
LINE
  5
5C4
  8
0
  6
CONTINUOUS
 62
     7
 10
-456.35300000000001
 20
188.49213
 30
0.0
 11
-455.11291999999997
 21
188.71079999999981
 31
0.0
  0
LINE
  5
5C5
  8
0
  6
CONTINUOUS
 62
     7
 10
-456.49077999999992
 20
59.828040999999999
 30
0.0
 11
-455.11291999999997
 21
59.585082999999997
 31
0.0
  0
LINE
  5
5C6
  8
0
  6
CONTINUOUS
 62
     7
 10
-435.63384999999988
 20
205.14793
 30
0.0
 11
-440.70366999999987
 21
204.97089
 31
0.0
  0
LINE
  5
5C7
  8
0
  6
CENTER
 62
     7
 10
-652.21557999999982
 20
124.14796
 30
0.0
 11
-429.27230999999989
 21
124.14796
 31
0.0
  0
LINE
  5
5C8
  8
0
  6
CONTINUOUS
 62
     7
 10
-442.63387999999992
 20
202.97214
 30
0.0
 11
-442.63387999999992
 21
180.48203000000001
 31
0.0
  0
LINE
  5
5C9
  8
0
  6
CONTINUOUS
 62
     7
 10
-479.13387999999998
 20
60.647960999999981
 30
0.0
 11
-456.90703999999999
 21
59.871780000000001
 31
0.0
  0
LINE
  5
5CA
  8
0
  6
CONTINUOUS
 62
     7
 10
-479.13387999999998
 20
187.6479299999998
 30
0.0
 11
-457.04677999999973
 21
188.41924
 31
0.0
  0
LINE
  5
5CB
  8
0
  6
CONTINUOUS
 62
     7
 10
-479.13385
 20
161.29588000000001
 30
0.0
 11
-452.63385
 21
161.29588000000001
 31
0.0
  0
LINE
  5
5CC
  8
0
  6
CONTINUOUS
 62
     7
 10
-450.63385
 20
157.29715999999991
 30
0.0
 11
-444.63385
 21
157.29715999999991
 31
0.0
  0
LINE
  5
5CD
  8
0
  6
CONTINUOUS
 62
     7
 10
-450.63385
 20
178.4820299999999
 30
0.0
 11
-444.63385
 21
178.4820299999999
 31
0.0
  0
LINE
  5
5CE
  8
0
  6
CONTINUOUS
 62
     7
 10
-451.71840999999989
 20
150.82003999999981
 30
0.0
 11
-444.63385
 21
150.82003999999981
 31
0.0
  0
LINE
  5
5CF
  8
0
  6
CONTINUOUS
 62
     7
 10
-450.63385
 20
62.60398099999999
 30
0.0
 11
-444.63385
 21
62.60398099999999
 31
0.0
  0
LINE
  5
5D0
  8
0
  6
CONTINUOUS
 62
     7
 10
-442.63387999999992
 20
155.2971499999999
 30
0.0
 11
-442.63387999999992
 21
64.603981000000005
 31
0.0
  0
LINE
  5
5D1
  8
0
  6
CONTINUOUS
 62
     7
 10
-589.13378999999986
 20
77.79795799999998
 30
0.0
 11
-624.13385000000017
 21
79.827956999999998
 31
0.0
  0
LINE
  5
5D2
  8
0
  6
CONTINUOUS
 62
     7
 10
-589.13378999999986
 20
170.49797000000001
 30
0.0
 11
-624.1337900000002
 21
168.46797000000001
 31
0.0
  0
LINE
  5
5D3
  8
0
  6
CONTINUOUS
 62
     3
 10
-636.85382000000004
 20
76.507980000000003
 30
0.0
 11
-634.13385000000005
 21
76.507980000000003
 31
0.0
  0
LINE
  5
5D4
  8
0
  6
CONTINUOUS
 62
     3
 10
-637.36383000000001
 20
74.537970999999999
 30
0.0
 11
-638.63378999999998
 21
75.267966999999999
 31
0.0
  0
LINE
  5
5D5
  8
0
  6
CONTINUOUS
 62
     3
 10
-634.13385000000005
 20
66.717963999999995
 30
0.0
 11
-631.31384000000003
 21
66.647964000000002
 31
0.0
  0
LINE
  5
5D6
  8
0
  6
CONTINUOUS
 62
     3
 10
-637.38385000000005
 20
81.187980999999965
 30
0.0
 11
-638.68389999999999
 21
82.037987000000001
 31
0.0
  0
LINE
  5
5D7
  8
0
  6
CONTINUOUS
 62
     3
 10
-637.37383999999975
 20
76.647987000000001
 30
0.0
 11
-638.65386999999998
 21
77.41799899999998
 31
0.0
  0
LINE
  5
5D8
  8
0
  6
CONTINUOUS
 62
     3
 10
-636.86388999999986
 20
74.397964000000002
 30
0.0
 11
-634.63385000000005
 21
74.397964000000002
 31
0.0
  0
LINE
  5
5D9
  8
0
  6
CONTINUOUS
 62
     3
 10
-636.8938599999999
 20
75.547980999999979
 30
0.0
 11
-634.63385000000005
 21
75.547980999999979
 31
0.0
  0
LINE
  5
5DA
  8
0
  6
CONTINUOUS
 62
     3
 10
-637.34380999999985
 20
75.657958999999977
 30
0.0
 11
-638.58385999999985
 21
76.287964000000002
 31
0.0
  0
LINE
  5
5DB
  8
0
  6
CONTINUOUS
 62
     3
 10
-636.86388999999986
 20
82.167975999999967
 30
0.0
 11
-635.13385000000005
 21
82.167975999999967
 31
0.0
  0
LINE
  5
5DC
  8
0
  6
CONTINUOUS
 62
     3
 10
-636.83385999999985
 20
81.027962000000002
 30
0.0
 11
-634.13385000000005
 21
81.027962000000002
 31
0.0
  0
LINE
  5
5DD
  8
0
  6
CONTINUOUS
 62
     3
 10
-636.88385000000005
 20
77.647971999999982
 30
0.0
 11
-635.13385000000005
 21
77.647971999999982
 31
0.0
  0
LINE
  5
5DE
  8
0
  6
CONTINUOUS
 62
     3
 10
-637.36383000000001
 20
82.297996999999995
 30
0.0
 11
-638.6438599999999
 21
83.047980999999965
 31
0.0
  0
LINE
  5
5DF
  8
0
  6
CONTINUOUS
 62
     3
 10
-486.13382000000001
 20
60.64797999999999
 30
0.0
 11
-479.13385
 21
60.64797999999999
 31
0.0
  0
LINE
  5
5E0
  8
0
  6
CONTINUOUS
 62
     3
 10
-486.13382000000001
 20
72.107979
 30
0.0
 11
-479.13385
 21
72.107979
 31
0.0
  0
LINE
  5
5E1
  8
0
  6
CONTINUOUS
 62
     3
 10
-589.13385000000005
 20
77.797980999999979
 30
0.0
 11
-487.13385
 21
77.797980999999979
 31
0.0
  0
LINE
  5
5E2
  8
0
  6
CONTINUOUS
 62
     7
 10
-479.13385
 20
187.64792
 30
0.0
 11
-479.13385
 21
60.6479
 31
0.0
  0
LINE
  5
5E3
  8
0
  6
CONTINUOUS
 62
     3
 10
-487.42385999999988
 20
73.117965999999981
 30
0.0
 11
-489.83382999999981
 21
73.117965999999981
 31
0.0
  0
LINE
  5
5E4
  8
0
  6
CONTINUOUS
 62
     3
 10
-490.33382999999992
 20
65.227951000000004
 30
0.0
 11
-488.89382999999992
 21
71.927956000000023
 31
0.0
  0
LINE
  5
5E5
  8
0
  6
CONTINUOUS
 62
     3
 10
-492.42382999999978
 20
63.647979999999997
 30
0.0
 11
-487.13385
 21
63.647979999999997
 31
0.0
  0
LINE
  5
5E6
  8
0
  6
CONTINUOUS
 62
     3
 10
-585.13385000000005
 20
94.147957000000005
 30
0.0
 11
-497.36383000000001
 21
94.147957000000005
 31
0.0
  0
LINE
  5
5E7
  8
0
  6
CONTINUOUS
 62
     3
 10
-629.45385999999996
 20
90.777946
 30
0.0
 11
-581.13385000000005
 21
90.777946
 31
0.0
  0
LINE
  5
5E8
  8
0
  6
CONTINUOUS
 62
     3
 10
-538.13385000000005
 20
88.147956999999948
 30
0.0
 11
-628.58385999999985
 21
88.147956999999948
 31
0.0
  0
LINE
  5
5E9
  8
0
  6
CONTINUOUS
 62
     3
 10
-538.13385000000005
 20
87.427963000000005
 30
0.0
 11
-490.31384000000003
 21
87.427963000000005
 31
0.0
  0
LINE
  5
5EA
  8
0
  6
CONTINUOUS
 62
     3
 10
-629.45385999999996
 20
87.427963000000005
 30
0.0
 11
-538.13385000000005
 21
87.427963000000005
 31
0.0
  0
LINE
  5
5EB
  8
0
  6
CONTINUOUS
 62
     3
 10
-634.13385000000005
 20
89.847954000000016
 30
0.0
 11
-630.96387000000004
 21
89.847954000000016
 31
0.0
  0
LINE
  5
5EC
  8
0
  6
CONTINUOUS
 62
     3
 10
-627.96387000000004
 20
65.887978000000004
 30
0.0
 11
-614.63385000000005
 21
65.887978000000004
 31
0.0
  0
LINE
  5
5ED
  8
0
  6
CONTINUOUS
 62
     3
 10
-611.13385000000017
 20
62.287964000000002
 30
0.0
 11
-494.32384999999988
 21
62.287964000000002
 31
0.0
  0
LINE
  5
5EE
  8
0
  6
CONTINUOUS
 62
     3
 10
-628.02386000000001
 20
60.847977
 30
0.0
 11
-614.52385999999979
 21
60.847977
 31
0.0
  0
LINE
  5
5EF
  8
0
  6
CONTINUOUS
 62
     3
 10
-627.90380999999979
 20
71.167961000000005
 30
0.0
 11
-614.63385000000005
 21
71.167961000000005
 31
0.0
  0
LINE
  5
5F0
  8
0
  6
CONTINUOUS
 62
     3
 10
-630.41387999999995
 20
75.79795799999998
 30
0.0
 11
-629.8738400000002
 21
72.807944999999975
 31
0.0
  0
LINE
  5
5F1
  8
0
  6
CONTINUOUS
 62
     3
 10
-637.13385000000017
 20
81.317977999999997
 30
0.0
 11
-637.13385000000017
 21
81.787964000000017
 31
0.0
  0
LINE
  5
5F2
  8
0
  6
CONTINUOUS
 62
     3
 10
-634.13385000000005
 20
75.797966000000002
 30
0.0
 11
-624.13385000000017
 21
75.797966000000002
 31
0.0
  0
LINE
  5
5F3
  8
0
  6
CONTINUOUS
 62
     3
 10
-637.13385000000017
 20
76.747962999999999
 30
0.0
 11
-637.13385000000017
 21
77.297966000000002
 31
0.0
  0
LINE
  5
5F4
  8
0
  6
CONTINUOUS
 62
     3
 10
-637.35388
 20
77.767982000000003
 30
0.0
 11
-638.60382000000004
 21
78.427970999999999
 31
0.0
  0
LINE
  5
5F5
  8
0
  6
CONTINUOUS
 62
     3
 10
-624.13385000000017
 20
75.797966000000002
 30
0.0
 11
-624.13385000000017
 21
89.847954000000016
 31
0.0
  0
LINE
  5
5F6
  8
0
  6
CONTINUOUS
 62
     3
 10
-637.13385000000017
 20
74.647971999999982
 30
0.0
 11
-637.13385000000017
 21
75.177970999999999
 31
0.0
  0
LINE
  5
5F7
  8
0
  6
CONTINUOUS
 62
     3
 10
-492.39382999999992
 20
63.767956000000012
 30
0.0
 11
-488.9338399999998
 21
76.687957999999981
 31
0.0
  0
LINE
  5
5F8
  8
0
  6
CONTINUOUS
 62
     3
 10
-629.96387000000004
 20
62.357967000000002
 30
0.0
 11
-630.85382000000004
 21
65.897964000000002
 31
0.0
  0
LINE
  5
5F9
  8
0
  6
CONTINUOUS
 62
     3
 10
-629.94384999999988
 20
64.017960000000002
 30
0.0
 11
-630.86383000000001
 21
67.897956999999991
 31
0.0
  0
LINE
  5
5FA
  8
0
  6
CONTINUOUS
 62
     3
 10
-556.13385000000005
 20
60.237960999999999
 30
0.0
 11
-556.13385000000005
 21
62.287964000000002
 31
0.0
  0
LINE
  5
5FB
  8
0
  6
CONTINUOUS
 62
     3
 10
-613.13385000000005
 20
62.257980000000011
 30
0.0
 11
-613.13385000000005
 21
69.667961000000005
 31
0.0
  0
LINE
  5
5FC
  8
0
  6
CONTINUOUS
 62
     3
 10
-632.30382999999995
 20
67.027968999999999
 30
0.0
 11
-630.65386999999987
 21
67.027968999999999
 31
0.0
  0
LINE
  5
5FD
  8
0
  6
CENTER
 62
     7
 10
-538.13385000000005
 20
162.74796000000001
 30
0.0
 11
-538.13385000000005
 21
81.497970999999978
 31
0.0
  0
LINE
  5
5FE
  8
0
  6
CONTINUOUS
 62
     7
 10
-506.63384999999988
 20
92.647956999999963
 30
0.0
 11
-506.63384999999988
 21
155.64795000000001
 31
0.0
  0
LINE
  5
5FF
  8
0
  6
CONTINUOUS
 62
     3
 10
-589.13385000000005
 20
170.49794
 30
0.0
 11
-487.13385
 21
170.49794
 31
0.0
  0
LINE
  5
600
  8
0
  6
CONTINUOUS
 62
     3
 10
-487.13385
 20
186.64796000000001
 30
0.0
 11
-487.13385
 21
61.647964000000002
 31
0.0
  0
LINE
  5
601
  8
0
  6
CONTINUOUS
 62
     3
 10
-506.86382999999989
 20
93.877944999999997
 30
0.0
 11
-497.36385999999999
 21
94.147948999999997
 31
0.0
  0
LINE
  5
602
  8
0
  6
CONTINUOUS
 62
     3
 10
-486.13382000000001
 20
187.64795000000001
 30
0.0
 11
-479.13385
 21
187.64795000000001
 31
0.0
  0
LINE
  5
603
  8
0
  6
CONTINUOUS
 62
     7
 10
-555.15380999999991
 20
147.14795000000001
 30
0.0
 11
-515.13385000000005
 21
147.14795000000001
 31
0.0
  0
LINE
  5
604
  8
0
  6
CONTINUOUS
 62
     3
 10
-487.13385
 20
161.2979399999999
 30
0.0
 11
-479.13385
 21
161.2979399999999
 31
0.0
  0
LINE
  5
605
  8
0
  6
CONTINUOUS
 62
     3
 10
-486.13382000000001
 20
176.18793999999991
 30
0.0
 11
-479.13385
 21
176.18793999999991
 31
0.0
  0
LINE
  5
606
  8
0
  6
CONTINUOUS
 62
     3
 10
-487.13385
 20
86.997962999999999
 30
0.0
 11
-479.13385
 21
86.997962999999999
 31
0.0
  0
LINE
  5
607
  8
0
  6
CONTINUOUS
 62
     3
 10
-497.36383000000001
 20
154.14795000000001
 30
0.0
 11
-497.36383000000001
 21
94.147957000000005
 31
0.0
  0
LINE
  5
608
  8
0
  6
CONTINUOUS
 62
     3
 10
-634.13385000000005
 20
181.57796999999999
 30
0.0
 11
-631.31384000000003
 21
181.64796000000001
 31
0.0
  0
LINE
  5
609
  8
0
  6
CONTINUOUS
 62
     3
 10
-634.13385000000005
 20
181.5779599999999
 30
0.0
 11
-634.13385000000005
 21
124.14796
 31
0.0
  0
LINE
  5
60A
  8
0
  6
CONTINUOUS
 62
     3
 10
-639.13385000000005
 20
172.16794999999999
 30
0.0
 11
-639.13385000000005
 21
129.14795000000001
 31
0.0
  0
LINE
  5
60B
  8
0
  6
CONTINUOUS
 62
     3
 10
-636.86388999999986
 20
173.89796000000001
 30
0.0
 11
-634.63385000000005
 21
173.89796000000001
 31
0.0
  0
LINE
  5
60C
  8
0
  6
CONTINUOUS
 62
     3
 10
-493.79385000000002
 20
88.147956999999948
 30
0.0
 11
-538.13385000000005
 21
88.147956999999948
 31
0.0
  0
LINE
  5
60D
  8
0
  6
CONTINUOUS
 62
     3
 10
-636.93384000000003
 20
159.83795000000001
 30
0.0
 11
-634.83385999999985
 21
159.83795000000001
 31
0.0
  0
LINE
  5
60E
  8
0
  6
CONTINUOUS
 62
     3
 10
-637.36383000000001
 20
173.76796999999991
 30
0.0
 11
-638.63385000000005
 21
173.0279699999999
 31
0.0
  0
LINE
  5
60F
  8
0
  6
CONTINUOUS
 62
     3
 10
-637.37390000000005
 20
171.64795000000001
 30
0.0
 11
-638.65386999999998
 21
170.8779599999998
 31
0.0
  0
LINE
  5
610
  8
0
  6
CONTINUOUS
 62
     3
 10
-637.38385000000005
 20
167.1079399999999
 30
0.0
 11
-638.68384000000003
 21
166.25794999999991
 31
0.0
  0
LINE
  5
611
  8
0
  6
CONTINUOUS
 62
     3
 10
-637.32379000000003
 20
159.75798
 30
0.0
 11
-638.52380000000005
 21
159.24797000000001
 31
0.0
  0
LINE
  5
612
  8
0
  6
CONTINUOUS
 62
     3
 10
-636.85382000000004
 20
171.78795
 30
0.0
 11
-634.13385000000005
 21
171.78795
 31
0.0
  0
LINE
  5
613
  8
0
  6
CONTINUOUS
 62
     3
 10
-636.83385999999985
 20
167.2779699999999
 30
0.0
 11
-634.13385000000005
 21
167.2779699999999
 31
0.0
  0
LINE
  5
614
  8
0
  6
CONTINUOUS
 62
     3
 10
-636.98383000000001
 20
157.88794999999999
 30
0.0
 11
-635.13385000000005
 21
157.88794999999999
 31
0.0
  0
LINE
  5
615
  8
0
  6
CONTINUOUS
 62
     3
 10
-636.86388999999986
 20
166.1379499999999
 30
0.0
 11
-635.13385000000005
 21
166.1379499999999
 31
0.0
  0
LINE
  5
616
  8
0
  6
CONTINUOUS
 62
     3
 10
-636.88385000000005
 20
170.64795000000001
 30
0.0
 11
-635.13385000000005
 21
170.64795000000001
 31
0.0
  0
LINE
  5
617
  8
0
  6
CONTINUOUS
 62
     3
 10
-636.8938599999999
 20
172.7479399999998
 30
0.0
 11
-634.63385000000005
 21
172.7479399999998
 31
0.0
  0
LINE
  5
618
  8
0
  6
CONTINUOUS
 62
     3
 10
-637.36383000000001
 20
165.99791999999991
 30
0.0
 11
-638.6438599999999
 21
165.24791999999991
 31
0.0
  0
LINE
  5
619
  8
0
  6
CONTINUOUS
 62
     3
 10
-637.2738599999999
 20
157.84792999999979
 30
0.0
 11
-638.42382999999995
 21
157.49791999999999
 31
0.0
  0
LINE
  5
61A
  8
0
  6
CONTINUOUS
 62
     3
 10
-637.34387000000004
 20
172.6479799999999
 30
0.0
 11
-638.58385999999985
 21
172.01796999999991
 31
0.0
  0
LINE
  5
61B
  8
0
  6
CONTINUOUS
 62
     3
 10
-637.35382000000004
 20
170.53798
 30
0.0
 11
-638.60382000000004
 21
169.8679799999999
 31
0.0
  0
LINE
  5
61C
  8
0
  6
CONTINUOUS
 62
     3
 10
-635.13385000000005
 20
150.14795000000001
 30
0.0
 11
-638.13385000000005
 21
150.14795000000001
 31
0.0
  0
LINE
  5
61D
  8
0
  6
CONTINUOUS
 62
     3
 10
-635.13385000000005
 20
148.14795000000001
 30
0.0
 11
-638.13385000000005
 21
148.14795000000001
 31
0.0
  0
LINE
  5
61E
  8
0
  6
CONTINUOUS
 62
     3
 10
-635.13385000000005
 20
140.14796000000001
 30
0.0
 11
-638.13385000000005
 21
140.14796000000001
 31
0.0
  0
LINE
  5
61F
  8
0
  6
CONTINUOUS
 62
     3
 10
-635.13385000000005
 20
138.14795000000001
 30
0.0
 11
-638.13385000000005
 21
138.14795000000001
 31
0.0
  0
LINE
  5
620
  8
0
  6
CONTINUOUS
 62
     3
 10
-635.13385000000005
 20
130.14796000000001
 30
0.0
 11
-638.13385000000005
 21
130.14796000000001
 31
0.0
  0
LINE
  5
621
  8
0
  6
CONTINUOUS
 62
     3
 10
-635.13385000000005
 20
128.14796000000001
 30
0.0
 11
-638.13385000000005
 21
128.14796000000001
 31
0.0
  0
LINE
  5
622
  8
0
  6
CONTINUOUS
 62
     3
 10
-637.13385000000017
 20
139.75794999999991
 30
0.0
 11
-637.13385000000017
 21
138.54796999999991
 31
0.0
  0
LINE
  5
623
  8
0
  6
CONTINUOUS
 62
     3
 10
-637.13385000000017
 20
129.75797
 30
0.0
 11
-637.13385000000017
 21
128.59795
 31
0.0
  0
LINE
  5
624
  8
0
  6
CONTINUOUS
 62
     3
 10
-637.13385000000017
 20
149.77795
 30
0.0
 11
-637.13385000000017
 21
148.40796
 31
0.0
  0
LINE
  5
625
  8
0
  6
CONTINUOUS
 62
     3
 10
-637.13385000000017
 20
159.53796
 30
0.0
 11
-637.13385000000017
 21
158.47797
 31
0.0
  0
LINE
  5
626
  8
0
  6
CONTINUOUS
 62
     3
 10
-637.13385000000017
 20
166.97794999999991
 30
0.0
 11
-637.13385000000017
 21
166.5079699999998
 31
0.0
  0
LINE
  5
627
  8
0
  6
CONTINUOUS
 62
     3
 10
-637.13385000000017
 20
171.5479599999999
 30
0.0
 11
-637.13385000000017
 21
170.99796000000001
 31
0.0
  0
LINE
  5
628
  8
0
  6
CONTINUOUS
 62
     3
 10
-637.13385000000017
 20
173.64795000000001
 30
0.0
 11
-637.13385000000017
 21
173.11795000000001
 31
0.0
  0
LINE
  5
629
  8
0
  6
CONTINUOUS
 62
     3
 10
-640.63385000000017
 20
144.14794999999981
 30
0.0
 11
-640.63385000000017
 21
124.14796
 31
0.0
  0
LINE
  5
62A
  8
0
  6
CONTINUOUS
 62
     3
 10
-640.63385000000017
 20
144.1479799999999
 30
0.0
 11
-639.13378999999986
 21
144.27798000000001
 31
0.0
  0
LINE
  5
62B
  8
0
  6
CONTINUOUS
 62
     3
 10
-640.63385000000017
 20
141.42796000000001
 30
0.0
 11
-639.13385000000005
 21
141.42796000000001
 31
0.0
  0
LINE
  5
62C
  8
0
  6
CONTINUOUS
 62
     7
 10
-561.13385000000005
 20
101.1479599999999
 30
0.0
 11
-521.11383000000001
 21
101.1479599999999
 31
0.0
  0
LINE
  5
62D
  8
0
  6
CONTINUOUS
 62
     7
 10
-586.63385000000017
 20
155.64795000000001
 30
0.0
 11
-581.13385000000005
 21
155.64795000000001
 31
0.0
  0
LINE
  5
62E
  8
0
  6
CONTINUOUS
 62
     7
 10
-586.63385000000017
 20
92.647956999999963
 30
0.0
 11
-586.63385000000017
 21
116.64796
 31
0.0
  0
LINE
  5
62F
  8
0
  6
CONTINUOUS
 62
     7
 10
-560.63385000000005
 20
144.58795000000001
 30
0.0
 11
-560.63385000000005
 21
148.60795999999991
 31
0.0
  0
LINE
  5
630
  8
0
  6
CONTINUOUS
 62
     7
 10
-586.63385000000017
 20
92.647956999999963
 30
0.0
 11
-581.13385000000005
 21
92.647956999999963
 31
0.0
  0
LINE
  5
631
  8
0
  6
CONTINUOUS
 62
     7
 10
-515.63385000000005
 20
99.587952000000001
 30
0.0
 11
-515.63385000000005
 21
103.6179699999999
 31
0.0
  0
LINE
  5
632
  8
0
  6
CONTINUOUS
 62
     3
 10
-624.13385000000017
 20
172.49796000000001
 30
0.0
 11
-624.13385000000017
 21
158.45796000000001
 31
0.0
  0
LINE
  5
633
  8
0
  6
CONTINUOUS
 62
     3
 10
-634.13385000000005
 20
158.45796000000001
 30
0.0
 11
-624.13385000000017
 21
158.45796000000001
 31
0.0
  0
LINE
  5
634
  8
0
  6
CONTINUOUS
 62
     3
 10
-634.13385000000005
 20
166.8379699999999
 30
0.0
 11
-624.13385000000017
 21
166.8379699999999
 31
0.0
  0
LINE
  5
635
  8
0
  6
CONTINUOUS
 62
     3
 10
-634.13385000000005
 20
172.49796000000001
 30
0.0
 11
-624.13385000000017
 21
172.49796000000001
 31
0.0
  0
LINE
  5
636
  8
0
  6
CONTINUOUS
 62
     7
 10
-515.13385000000005
 20
107.12796
 30
0.0
 11
-515.13385000000005
 21
147.14795000000001
 31
0.0
  0
LINE
  5
637
  8
0
  6
CONTINUOUS
 62
     7
 10
-566.13385000000017
 20
90.647964000000002
 30
0.0
 11
-566.13385000000017
 21
94.147957000000005
 31
0.0
  0
LINE
  5
638
  8
0
  6
CONTINUOUS
 62
     7
 10
-517.76385000000005
 20
101.64796
 30
0.0
 11
-513.55382999999995
 21
101.64796
 31
0.0
  0
LINE
  5
639
  8
0
  6
CONTINUOUS
 62
     7
 10
-555.93384000000003
 20
141.94796999999991
 30
0.0
 11
-520.33385999999985
 21
141.94796999999991
 31
0.0
  0
LINE
  5
63A
  8
0
  6
CONTINUOUS
 62
     7
 10
-555.93384000000003
 20
106.3479499999999
 30
0.0
 11
-520.33385999999985
 21
106.3479499999999
 31
0.0
  0
LINE
  5
63B
  8
0
  6
CONTINUOUS
 62
     7
 10
-520.33385999999985
 20
106.3479499999999
 30
0.0
 11
-520.33385999999985
 21
141.94796999999991
 31
0.0
  0
LINE
  5
63C
  8
0
  6
CONTINUOUS
 62
     7
 10
-555.93384000000003
 20
106.3479499999999
 30
0.0
 11
-555.93384000000003
 21
141.94796999999991
 31
0.0
  0
LINE
  5
63D
  8
0
  6
CONTINUOUS
 62
     7
 10
-585.13385000000005
 20
154.14795000000001
 30
0.0
 11
-497.36383000000001
 21
154.14795000000001
 31
0.0
  0
LINE
  5
63E
  8
0
  6
CONTINUOUS
 62
     7
 10
-566.13385000000017
 20
155.64795000000001
 30
0.0
 11
-506.63384999999988
 21
155.64795000000001
 31
0.0
  0
LINE
  5
63F
  8
0
  6
CONTINUOUS
 62
     7
 10
-566.13385000000017
 20
92.647956999999963
 30
0.0
 11
-506.63384999999988
 21
92.647956999999963
 31
0.0
  0
LINE
  5
640
  8
0
  6
CONTINUOUS
 62
     7
 10
-508.13385
 20
94.147957000000005
 30
0.0
 11
-508.13385
 21
154.14795000000001
 31
0.0
  0
LINE
  5
641
  8
0
  6
CONTINUOUS
 62
     7
 10
-585.13385000000005
 20
94.147957000000005
 30
0.0
 11
-585.13385000000005
 21
154.14795000000001
 31
0.0
  0
LINE
  5
642
  8
0
  6
CONTINUOUS
 62
     3
 10
-586.63385000000017
 20
110.14796
 30
0.0
 11
-628.58385999999985
 21
110.14796
 31
0.0
  0
LINE
  5
643
  8
0
  6
CONTINUOUS
 62
     7
 10
-581.13385000000005
 20
157.64795000000001
 30
0.0
 11
-581.13385000000005
 21
154.14795000000001
 31
0.0
  0
LINE
  5
644
  8
0
  6
CONTINUOUS
 62
     7
 10
-588.63385000000005
 20
131.64796000000001
 30
0.0
 11
-585.13385000000005
 21
131.64796000000001
 31
0.0
  0
LINE
  5
645
  8
0
  6
CONTINUOUS
 62
     7
 10
-588.63385000000005
 20
116.64796
 30
0.0
 11
-588.63385000000005
 21
131.64796000000001
 31
0.0
  0
LINE
  5
646
  8
0
  6
CONTINUOUS
 62
     7
 10
-588.63385000000005
 20
116.64796
 30
0.0
 11
-585.13385000000005
 21
116.64796
 31
0.0
  0
LINE
  5
647
  8
0
  6
CONTINUOUS
 62
     7
 10
-581.13385000000005
 20
90.647964000000002
 30
0.0
 11
-581.13385000000005
 21
94.147957000000005
 31
0.0
  0
LINE
  5
648
  8
0
  6
CONTINUOUS
 62
     3
 10
-611.13385000000017
 20
186.00797
 30
0.0
 11
-494.32384999999988
 21
186.00797
 31
0.0
  0
LINE
  5
649
  8
0
  6
CONTINUOUS
 62
     3
 10
-627.90380999999979
 20
177.1279599999998
 30
0.0
 11
-614.63385000000005
 21
177.1279599999998
 31
0.0
  0
LINE
  5
64A
  8
0
  6
CONTINUOUS
 62
     3
 10
-630.41387999999995
 20
172.4979899999999
 30
0.0
 11
-629.8738400000002
 21
175.48797999999991
 31
0.0
  0
LINE
  5
64B
  8
0
  6
CONTINUOUS
 62
     3
 10
-627.96387000000004
 20
182.41794999999991
 30
0.0
 11
-614.63385000000005
 21
182.41794999999991
 31
0.0
  0
LINE
  5
64C
  8
0
  6
CONTINUOUS
 62
     7
 10
-566.13385000000017
 20
90.647964000000002
 30
0.0
 11
-581.13385000000005
 21
90.647964000000002
 31
0.0
  0
LINE
  5
64D
  8
0
  6
CONTINUOUS
 62
     3
 10
-627.99383999999975
 20
185.81795
 30
0.0
 11
-614.63385000000005
 21
185.81795
 31
0.0
  0
LINE
  5
64E
  8
0
  6
CONTINUOUS
 62
     3
 10
-628.02386000000001
 20
187.44794999999991
 30
0.0
 11
-614.52385999999979
 21
187.44794999999991
 31
0.0
  0
LINE
  5
64F
  8
0
  6
CONTINUOUS
 62
     3
 10
-611.13385000000017
 20
190.06796
 30
0.0
 11
-558.13385000000005
 21
190.06796
 31
0.0
  0
LINE
  5
650
  8
0
  6
CONTINUOUS
 62
     3
 10
-611.13385000000017
 20
189.3879499999999
 30
0.0
 11
-558.13385000000005
 21
189.3879499999999
 31
0.0
  0
LINE
  5
651
  8
0
  6
CONTINUOUS
 62
     3
 10
-611.13385000000017
 20
188.03795999999991
 30
0.0
 11
-558.13385000000005
 21
188.03795999999991
 31
0.0
  0
LINE
  5
652
  8
0
  6
CONTINUOUS
 62
     3
 10
-632.34387000000004
 20
175.18796
 30
0.0
 11
-629.93384000000003
 21
175.18796
 31
0.0
  0
LINE
  5
653
  8
0
  6
CONTINUOUS
 62
     3
 10
-629.92389000000003
 20
180.8379799999999
 30
0.0
 11
-630.88391000000001
 21
176.36797999999999
 31
0.0
  0
LINE
  5
654
  8
0
  6
CONTINUOUS
 62
     3
 10
-632.32384999999999
 20
179.24796000000001
 30
0.0
 11
-630.26385000000005
 21
179.24796000000001
 31
0.0
  0
LINE
  5
655
  8
0
  6
CONTINUOUS
 62
     3
 10
-493.79385000000002
 20
160.14795000000001
 30
0.0
 11
-619.58385999999996
 21
160.14795000000001
 31
0.0
  0
LINE
  5
656
  8
0
  6
CONTINUOUS
 62
     3
 10
-493.79385000000002
 20
158.14796000000001
 30
0.0
 11
-619.58385999999996
 21
158.14796000000001
 31
0.0
  0
LINE
  5
657
  8
0
  6
CONTINUOUS
 62
     3
 10
-586.63385000000017
 20
150.14795000000001
 30
0.0
 11
-619.58385999999996
 21
150.14795000000001
 31
0.0
  0
LINE
  5
658
  8
0
  6
CONTINUOUS
 62
     3
 10
-629.94390999999985
 20
184.27798000000001
 30
0.0
 11
-630.86388999999997
 21
180.39797999999999
 31
0.0
  0
LINE
  5
659
  8
0
  6
CONTINUOUS
 62
     3
 10
-586.63385000000017
 20
148.14795000000001
 30
0.0
 11
-619.58385999999996
 21
148.14795000000001
 31
0.0
  0
LINE
  5
65A
  8
0
  6
CONTINUOUS
 62
     3
 10
-632.30382999999995
 20
181.2679599999999
 30
0.0
 11
-630.65386999999987
 21
181.2679599999999
 31
0.0
  0
LINE
  5
65B
  8
0
  6
CONTINUOUS
 62
     3
 10
-629.96387000000004
 20
185.93797000000001
 30
0.0
 11
-630.85388
 21
182.40797000000001
 31
0.0
  0
LINE
  5
65C
  8
0
  6
CONTINUOUS
 62
     3
 10
-586.63385000000017
 20
140.14796000000001
 30
0.0
 11
-628.58385999999985
 21
140.14796000000001
 31
0.0
  0
LINE
  5
65D
  8
0
  6
CONTINUOUS
 62
     3
 10
-613.13385000000005
 20
186.03795
 30
0.0
 11
-613.13385000000005
 21
178.62796
 31
0.0
  0
LINE
  5
65E
  8
0
  6
CONTINUOUS
 62
     3
 10
-586.63385000000017
 20
138.14795000000001
 30
0.0
 11
-628.58385999999985
 21
138.14795000000001
 31
0.0
  0
LINE
  5
65F
  8
0
  6
CONTINUOUS
 62
     3
 10
-588.63385000000005
 20
130.14796000000001
 30
0.0
 11
-628.58385999999985
 21
130.14796000000001
 31
0.0
  0
LINE
  5
660
  8
0
  6
CONTINUOUS
 62
     3
 10
-556.13385000000005
 20
188.06795
 30
0.0
 11
-556.13385000000005
 21
186.00797
 31
0.0
  0
LINE
  5
661
  8
0
  6
CONTINUOUS
 62
     3
 10
-588.63385000000005
 20
128.14796000000001
 30
0.0
 11
-628.58385999999985
 21
128.14796000000001
 31
0.0
  0
LINE
  5
662
  8
0
  6
CONTINUOUS
 62
     3
 10
-492.39382999999992
 20
184.5279699999999
 30
0.0
 11
-488.9338399999998
 21
171.608
 31
0.0
  0
LINE
  5
663
  8
0
  6
CONTINUOUS
 62
     3
 10
-492.42382999999978
 20
184.64795000000001
 30
0.0
 11
-487.13385
 21
184.64795000000001
 31
0.0
  0
LINE
  5
664
  8
0
  6
CONTINUOUS
 62
     3
 10
-487.42385999999988
 20
175.18796
 30
0.0
 11
-489.83382999999981
 21
175.18796
 31
0.0
  0
LINE
  5
665
  8
0
  6
CONTINUOUS
 62
     3
 10
-490.33379999999988
 20
183.06795
 30
0.0
 11
-488.8938
 21
176.36795000000001
 31
0.0
  0
LINE
  5
666
  8
0
  6
CONTINUOUS
 62
     3
 10
-634.13385000000005
 20
66.717972000000003
 30
0.0
 11
-634.13385000000005
 21
124.14796
 31
0.0
  0
LINE
  5
667
  8
0
  6
CONTINUOUS
 62
     3
 10
-639.13385000000005
 20
75.557960999999978
 30
0.0
 11
-639.13385000000005
 21
119.14796
 31
0.0
  0
LINE
  5
668
  8
0
  6
CONTINUOUS
 62
     3
 10
-636.93384000000003
 20
88.457954000000001
 30
0.0
 11
-634.83385999999985
 21
88.457954000000001
 31
0.0
  0
LINE
  5
669
  8
0
  6
CONTINUOUS
 62
     3
 10
-637.32384999999999
 20
88.537970999999985
 30
0.0
 11
-638.52380000000005
 21
89.057937999999965
 31
0.0
  0
LINE
  5
66A
  8
0
  6
CONTINUOUS
 62
     3
 10
-636.98383000000001
 20
90.407959000000005
 30
0.0
 11
-635.13385000000005
 21
90.407959000000005
 31
0.0
  0
LINE
  5
66B
  8
0
  6
CONTINUOUS
 62
     3
 10
-637.2738599999999
 20
90.447982999999994
 30
0.0
 11
-638.42382999999995
 21
90.807982999999993
 31
0.0
  0
LINE
  5
66C
  8
0
  6
CONTINUOUS
 62
     3
 10
-635.13385000000005
 20
98.147964000000002
 30
0.0
 11
-638.13385000000005
 21
98.147964000000002
 31
0.0
  0
LINE
  5
66D
  8
0
  6
CONTINUOUS
 62
     3
 10
-635.13385000000005
 20
100.1479599999999
 30
0.0
 11
-638.13385000000005
 21
100.1479599999999
 31
0.0
  0
LINE
  5
66E
  8
0
  6
CONTINUOUS
 62
     3
 10
-635.13385000000005
 20
108.1479499999998
 30
0.0
 11
-638.13385000000005
 21
108.1479499999998
 31
0.0
  0
LINE
  5
66F
  8
0
  6
CONTINUOUS
 62
     3
 10
-635.13385000000005
 20
110.14796
 30
0.0
 11
-638.13385000000005
 21
110.14796
 31
0.0
  0
LINE
  5
670
  8
0
  6
CONTINUOUS
 62
     3
 10
-635.13385000000005
 20
118.14796
 30
0.0
 11
-638.13385000000005
 21
118.14796
 31
0.0
  0
LINE
  5
671
  8
0
  6
CONTINUOUS
 62
     3
 10
-635.13385000000005
 20
120.14794999999999
 30
0.0
 11
-638.13385000000005
 21
120.14794999999999
 31
0.0
  0
LINE
  5
672
  8
0
  6
CONTINUOUS
 62
     3
 10
-637.13385000000017
 20
108.53796
 30
0.0
 11
-637.13385000000017
 21
109.75794999999979
 31
0.0
  0
LINE
  5
673
  8
0
  6
CONTINUOUS
 62
     3
 10
-637.13385000000017
 20
118.53795
 30
0.0
 11
-637.13385000000017
 21
119.6979699999999
 31
0.0
  0
LINE
  5
674
  8
0
  6
CONTINUOUS
 62
     3
 10
-637.13385000000017
 20
98.517951999999994
 30
0.0
 11
-637.13385000000017
 21
99.887946999999997
 31
0.0
  0
LINE
  5
675
  8
0
  6
CONTINUOUS
 62
     3
 10
-637.13385000000017
 20
88.75794999999998
 30
0.0
 11
-637.13385000000017
 21
89.817947000000004
 31
0.0
  0
LINE
  5
676
  8
0
  6
CONTINUOUS
 62
     3
 10
-640.63385000000017
 20
104.1479599999999
 30
0.0
 11
-640.63385000000017
 21
124.14796
 31
0.0
  0
LINE
  5
677
  8
0
  6
CONTINUOUS
 62
     3
 10
-640.63385000000017
 20
104.1479599999999
 30
0.0
 11
-639.13385000000005
 21
104.01796
 31
0.0
  0
LINE
  5
678
  8
0
  6
CONTINUOUS
 62
     3
 10
-640.63385000000017
 20
106.86794999999999
 30
0.0
 11
-639.13385000000005
 21
106.86794999999999
 31
0.0
  0
LINE
  5
679
  8
0
  6
CONTINUOUS
 62
     3
 10
-611.13385000000017
 20
58.227966000000002
 30
0.0
 11
-558.13385000000005
 21
58.227966000000002
 31
0.0
  0
LINE
  5
67A
  8
0
  6
CONTINUOUS
 62
     3
 10
-627.99383999999975
 20
62.477981999999997
 30
0.0
 11
-614.63385000000005
 21
62.477981999999997
 31
0.0
  0
LINE
  5
67B
  8
0
  6
CONTINUOUS
 62
     3
 10
-634.13385000000005
 20
81.457961999999966
 30
0.0
 11
-624.13385000000017
 21
81.457961999999966
 31
0.0
  0
LINE
  5
67C
  8
0
  6
CONTINUOUS
 62
     3
 10
-611.13385000000017
 20
58.907974000000003
 30
0.0
 11
-558.13385000000005
 21
58.907974000000003
 31
0.0
  0
LINE
  5
67D
  8
0
  6
CONTINUOUS
 62
     3
 10
-632.32384999999999
 20
69.047966000000002
 30
0.0
 11
-630.26385000000005
 21
69.047966000000002
 31
0.0
  0
LINE
  5
67E
  8
0
  6
CONTINUOUS
 62
     3
 10
-632.34387000000004
 20
73.117965999999981
 30
0.0
 11
-629.93384000000003
 21
73.117965999999981
 31
0.0
  0
LINE
  5
67F
  8
0
  6
CONTINUOUS
 62
     3
 10
-629.92382999999995
 20
67.467956999999984
 30
0.0
 11
-630.8837900000002
 21
71.927948000000001
 31
0.0
  0
LINE
  5
680
  8
0
  6
CONTINUOUS
 62
     3
 10
-611.13385000000017
 20
60.257965000000013
 30
0.0
 11
-558.13385000000005
 21
60.257965000000013
 31
0.0
  0
LINE
  5
681
  8
0
  6
CONTINUOUS
 62
     3
 10
-629.67389000000003
 20
97.657950999999997
 30
0.0
 11
-586.63385000000017
 21
97.657950999999997
 31
0.0
  0
LINE
  5
682
  8
0
  6
CONTINUOUS
 62
     3
 10
-538.13385000000005
 20
90.147948999999997
 30
0.0
 11
-628.14386000000002
 21
90.147948999999997
 31
0.0
  0
LINE
  5
683
  8
0
  6
CONTINUOUS
 62
     3
 10
-620.45385999999985
 20
160.86795000000001
 30
0.0
 11
-490.31384000000003
 21
160.86795000000001
 31
0.0
  0
LINE
  5
684
  8
0
  6
CONTINUOUS
 62
     3
 10
-620.45385999999985
 20
157.51795999999999
 30
0.0
 11
-581.13385000000005
 21
157.51795999999999
 31
0.0
  0
LINE
  5
685
  8
0
  6
CONTINUOUS
 62
     3
 10
-620.67389000000003
 20
150.6379499999999
 30
0.0
 11
-586.63385000000017
 21
150.6379499999999
 31
0.0
  0
LINE
  5
686
  8
0
  6
CONTINUOUS
 62
     3
 10
-620.67389000000003
 20
147.70795000000001
 30
0.0
 11
-586.63385000000017
 21
147.70795000000001
 31
0.0
  0
LINE
  5
687
  8
0
  6
CONTINUOUS
 62
     3
 10
-629.80382999999995
 20
140.48797999999991
 30
0.0
 11
-586.63385000000017
 21
140.48797999999991
 31
0.0
  0
LINE
  5
688
  8
0
  6
CONTINUOUS
 62
     3
 10
-629.80382999999995
 20
137.8279599999999
 30
0.0
 11
-586.63385000000017
 21
137.8279599999999
 31
0.0
  0
LINE
  5
689
  8
0
  6
CONTINUOUS
 62
     3
 10
-629.86383000000001
 20
130.41794999999991
 30
0.0
 11
-588.63385000000005
 21
130.41794999999991
 31
0.0
  0
LINE
  5
68A
  8
0
  6
CONTINUOUS
 62
     3
 10
-629.86383000000001
 20
127.88795
 30
0.0
 11
-588.63385000000005
 21
127.88795
 31
0.0
  0
LINE
  5
68B
  8
0
  6
CONTINUOUS
 62
     3
 10
-613.13385000000005
 20
161.3879399999999
 30
0.0
 11
-613.13385000000005
 21
161.31795
 31
0.0
  0
LINE
  5
68C
  8
0
  6
CONTINUOUS
 62
     3
 10
-490.31384000000003
 20
157.51795999999999
 30
0.0
 11
-506.83385999999967
 21
157.51795999999999
 31
0.0
  0
LINE
  5
68D
  8
0
  6
CONTINUOUS
 62
     3
 10
-507.83382999999992
 20
156.51795999999999
 30
0.0
 11
-507.83382999999992
 21
155.41794999999999
 31
0.0
  0
LINE
  5
68E
  8
0
  6
CONTINUOUS
 62
     3
 10
-506.86379999999991
 20
154.41794999999999
 30
0.0
 11
-497.36383000000001
 21
154.14796000000001
 31
0.0
  0
LINE
  5
68F
  8
0
  6
CONTINUOUS
 62
     3
 10
-629.86383000000001
 20
120.41795999999999
 30
0.0
 11
-588.63385000000005
 21
120.41795999999999
 31
0.0
  0
LINE
  5
690
  8
0
  6
CONTINUOUS
 62
     3
 10
-588.63385000000005
 20
118.14796
 30
0.0
 11
-628.58385999999985
 21
118.14796
 31
0.0
  0
LINE
  5
691
  8
0
  6
CONTINUOUS
 62
     3
 10
-588.63385000000005
 20
120.14794999999999
 30
0.0
 11
-628.58385999999985
 21
120.14794999999999
 31
0.0
  0
LINE
  5
692
  8
0
  6
CONTINUOUS
 62
     7
 10
-581.13385000000005
 20
157.64795000000001
 30
0.0
 11
-566.13385000000017
 21
157.64795000000001
 31
0.0
  0
LINE
  5
693
  8
0
  6
CONTINUOUS
 62
     7
 10
-566.13385000000017
 20
157.64795000000001
 30
0.0
 11
-566.13385000000017
 21
154.14795000000001
 31
0.0
  0
LINE
  5
694
  8
0
  6
CONTINUOUS
 62
     3
 10
-629.80382999999995
 20
110.46796000000001
 30
0.0
 11
-586.63385000000017
 21
110.46796000000001
 31
0.0
  0
LINE
  5
695
  8
0
  6
CONTINUOUS
 62
     3
 10
-640.63385000000017
 20
139.29796999999991
 30
0.0
 11
-636.35382000000004
 21
139.29796999999991
 31
0.0
  0
LINE
  5
696
  8
0
  6
CONTINUOUS
 62
     3
 10
-490.31384000000003
 20
90.777946
 30
0.0
 11
-506.83385999999967
 21
90.777946
 31
0.0
  0
LINE
  5
697
  8
0
  6
CONTINUOUS
 62
     3
 10
-507.83382999999992
 20
91.777953999999994
 30
0.0
 11
-507.83382999999992
 21
92.877960000000002
 31
0.0
  0
LINE
  5
698
  8
0
  6
CONTINUOUS
 62
     3
 10
-586.63385000000017
 20
108.1479499999998
 30
0.0
 11
-628.58385999999985
 21
108.1479499999998
 31
0.0
  0
LINE
  5
699
  8
0
  6
CONTINUOUS
 62
     3
 10
-629.80382999999995
 20
107.80795000000001
 30
0.0
 11
-586.63385000000017
 21
107.80795000000001
 31
0.0
  0
LINE
  5
69A
  8
0
  6
CONTINUOUS
 62
     3
 10
-586.63385000000017
 20
100.1479599999999
 30
0.0
 11
-628.58385999999985
 21
100.1479599999999
 31
0.0
  0
LINE
  5
69B
  8
0
  6
CONTINUOUS
 62
     3
 10
-629.67389000000003
 20
100.5879599999999
 30
0.0
 11
-586.63385000000017
 21
100.5879599999999
 31
0.0
  0
LINE
  5
69C
  8
0
  6
CONTINUOUS
 62
     3
 10
-586.63385000000017
 20
98.147964000000002
 30
0.0
 11
-628.58385999999985
 21
98.147964000000002
 31
0.0
  0
LINE
  5
69D
  8
0
  6
CONTINUOUS
 62
     3
 10
-493.79385000000002
 20
90.147948999999997
 30
0.0
 11
-538.13385000000005
 21
90.147948999999997
 31
0.0
  0
LINE
  5
69E
  8
0
  6
CONTINUOUS
 62
     3
 10
-629.86383000000001
 20
117.87796999999991
 30
0.0
 11
-588.63385000000005
 21
117.87796999999991
 31
0.0
  0
LINE
  5
69F
  8
0
  6
CONTINUOUS
 62
     3
 10
-640.63385000000017
 20
108.99795
 30
0.0
 11
-636.05382999999995
 21
108.99795
 31
0.0
  0
LINE
  5
6A0
  8
0
  6
CONTINUOUS
 62
     7
 10
-562.76385000000005
 20
146.64796000000001
 30
0.0
 11
-558.55382999999995
 21
146.64796000000001
 31
0.0
  0
LINE
  5
6A1
  8
0
  6
CONTINUOUS
 62
     7
 10
-586.63385000000017
 20
131.64796000000001
 30
0.0
 11
-586.63385000000017
 21
155.64795000000001
 31
0.0
  0
LINE
  5
6A2
  8
0
  6
CONTINUOUS
 62
     7
 10
-561.13385000000005
 20
101.1479599999999
 30
0.0
 11
-561.13385000000005
 21
141.16794999999991
 31
0.0
  0
LINE
  5
6A3
  8
0
  6
CONTINUOUS
 62
     7
 10
-141.28095999999991
 20
157.34794999999991
 30
0.0
 11
-141.28095999999991
 21
164.34796
 31
0.0
  0
LINE
  5
6A4
  8
0
  6
CONTINUOUS
 62
     7
 10
-149.28093999999979
 20
157.34794999999991
 30
0.0
 11
-149.28093999999979
 21
164.34796
 31
0.0
  0
LINE
  5
6A5
  8
0
  6
CONTINUOUS
 62
     7
 10
-410.63387999999992
 20
72.063170999999983
 30
0.0
 11
-410.63387999999992
 21
84.383170999999976
 31
0.0
  0
LINE
  5
6A6
  8
0
  6
CONTINUOUS
 62
     7
 10
-410.63387999999992
 20
85.543487999999968
 30
0.0
 11
-370.63387999999992
 21
85.543487999999968
 31
0.0
  0
LINE
  5
6A7
  8
0
  6
CONTINUOUS
 62
     7
 10
-410.63387999999992
 20
70.880172999999999
 30
0.0
 11
-370.63387999999992
 21
70.880172999999999
 31
0.0
  0
LINE
  5
6A8
  8
0
  6
CONTINUOUS
 62
     7
 10
-145.2809399999999
 20
54.847954000000001
 30
0.0
 11
-115.28095999999979
 21
54.847954000000001
 31
0.0
  0
LINE
  5
6A9
  8
0
  6
CONTINUOUS
 62
     7
 10
-145.2809399999999
 20
54.847954000000001
 30
0.0
 11
-175.2809399999999
 21
54.847954000000001
 31
0.0
  0
LINE
  5
6AA
  8
0
  6
CONTINUOUS
 62
     7
 10
-237.78095999999991
 20
177.34792999999991
 30
0.0
 11
-235.37542999999991
 21
223.2480299999998
 31
0.0
  0
LINE
  5
6AB
  8
0
  6
CONTINUOUS
 62
     7
 10
-237.7809399999999
 20
147.34795
 30
0.0
 11
-237.7809399999999
 21
177.34795
 31
0.0
  0
LINE
  5
6AC
  8
0
  6
CONTINUOUS
 62
     7
 10
-372.05910999999998
 20
165.82223999999991
 30
0.0
 11
-376.3956
 21
142.69145
 31
0.0
  0
LINE
  5
6AD
  8
0
  6
CONTINUOUS
 62
     7
 10
-115.28095
 20
239.84795999999989
 30
0.0
 11
-69.380875000000003
 21
237.44244
 31
0.0
  0
LINE
  5
6AE
  8
0
  6
CONTINUOUS
 62
     7
 10
-145.2809399999999
 20
239.84792999999991
 30
0.0
 11
-115.28095999999979
 21
239.84792999999991
 31
0.0
  0
LINE
  5
6AF
  8
0
  6
CONTINUOUS
 62
     7
 10
-175.2809399999999
 20
54.847945999999993
 30
0.0
 11
-221.18102999999991
 21
57.253467999999998
 31
0.0
  0
LINE
  5
6B0
  8
0
  6
CONTINUOUS
 62
     7
 10
-142.7809399999999
 20
207.96768
 30
0.0
 11
-142.7809399999999
 21
218.5357799999999
 31
0.0
  0
LINE
  5
6B1
  8
0
  6
CONTINUOUS
 62
     7
 10
-52.78096399999999
 20
147.34795
 30
0.0
 11
-52.78096399999999
 21
117.34795
 31
0.0
  0
LINE
  5
6B2
  8
0
  6
CONTINUOUS
 62
     7
 10
-52.780956000000003
 20
117.34795
 30
0.0
 11
-55.186478000000001
 21
71.447868
 31
0.0
  0
LINE
  5
6B3
  8
0
  6
CONTINUOUS
 62
     7
 10
-52.780951999999999
 20
177.34795
 30
0.0
 11
-55.186473999999983
 21
223.24802
 31
0.0
  0
LINE
  5
6B4
  8
0
  6
CONTINUOUS
 62
     7
 10
-52.78096399999999
 20
147.34795
 30
0.0
 11
-52.78096399999999
 21
177.34795
 31
0.0
  0
LINE
  5
6B5
  8
0
  6
CONTINUOUS
 62
     7
 10
-237.7809799999998
 20
117.34793000000001
 30
0.0
 11
-235.37544
 21
71.447868
 31
0.0
  0
LINE
  5
6B6
  8
0
  6
CONTINUOUS
 62
     7
 10
-379.7038
 20
188.7190699999999
 30
0.0
 11
-379.7038
 21
188.7190699999999
 31
0.0
  0
LINE
  5
6B7
  8
0
  6
CONTINUOUS
 62
     7
 10
-399.05655000000002
 20
206.42525000000001
 30
0.0
 11
-379.7038
 21
188.71906000000001
 31
0.0
  0
LINE
  5
6B8
  8
0
  6
CONTINUOUS
 62
     7
 10
-368.70364000000001
 20
239.56612000000001
 30
0.0
 11
-360.63387999999992
 21
239.84791999999999
 31
0.0
  0
LINE
  5
6B9
  8
0
  6
CONTINUOUS
 62
     7
 10
-392.87993999999992
 20
41.654964
 30
0.0
 11
-370.63387999999992
 21
54.498744999999992
 31
0.0
  0
LINE
  5
6BA
  8
0
  6
CONTINUOUS
 62
     7
 10
-370.63387999999992
 20
123.43758
 30
0.0
 11
-370.63387999999992
 21
198.47316000000001
 31
0.0
  0
LINE
  5
6BB
  8
0
  6
CONTINUOUS
 62
     7
 10
-435.63384999999988
 20
205.14793
 30
0.0
 11
-400.23752000000002
 21
206.3839999999999
 31
0.0
  0
LINE
  5
6BC
  8
0
  6
CONTINUOUS
 62
     7
 10
-435.63387999999992
 20
43.147948999999983
 30
0.0
 11
-392.87993999999992
 21
41.654949000000002
 31
0.0
  0
LINE
  5
6BD
  8
0
  6
CENTER
 62
     7
 10
-373.75223
 20
71.333968999999996
 30
0.0
 11
-354.12993999999992
 21
71.333968999999996
 31
0.0
  0
LINE
  5
6BE
  8
0
  6
CONTINUOUS
 62
     7
 10
-172.5535099999999
 20
178.86313000000001
 30
0.0
 11
-197.44127999999981
 21
203.75092000000001
 31
0.0
  0
LINE
  5
6BF
  8
0
  6
CONTINUOUS
 62
     7
 10
-176.79613999999989
 20
174.62049999999991
 30
0.0
 11
-201.68393
 21
199.5082699999999
 31
0.0
  0
LINE
  5
6C0
  8
0
  6
CONTINUOUS
 62
     7
 10
-435.63384999999988
 20
170.39795000000001
 30
0.0
 11
-373.68853999999988
 21
170.39795000000001
 31
0.0
  0
LINE
  5
6C1
  8
0
  6
CONTINUOUS
 62
     7
 10
-370.63387999999992
 20
57.605328
 30
0.0
 11
-370.63387999999992
 21
92.977294999999998
 31
0.0
  0
LINE
  5
6C2
  8
0
  6
CONTINUOUS
 62
     7
 10
-398.22091999999992
 20
207.2608799999999
 30
0.0
 11
-370.63387999999992
 21
234.84792999999999
 31
0.0
  0
LINE
  5
6C3
  8
0
  6
CONTINUOUS
 62
     7
 10
-220.14590000000001
 20
119.14793999999991
 30
0.0
 11
-189.28095999999991
 21
119.14793999999991
 31
0.0
  0
LINE
  5
6C4
  8
0
  6
CONTINUOUS
 62
     7
 10
-70.416022999999996
 20
119.14793999999991
 30
0.0
 11
-101.28095
 21
119.14793999999991
 31
0.0
  0
LINE
  5
6C5
  8
0
  6
CONTINUOUS
 62
     7
 10
-369.00484999999992
 20
121.43758
 30
0.0
 11
-366.63385
 21
121.43758
 31
0.0
  0
LINE
  5
6C6
  8
0
  6
CONTINUOUS
 62
     7
 10
-115.2809699999999
 20
54.847942000000003
 30
0.0
 11
-69.380882
 21
57.253464000000001
 31
0.0
  0
LINE
  5
6C7
  8
0
  6
CENTER
 62
     7
 10
-78.718399000000005
 20
213.9104899999999
 30
0.0
 11
-61.429152999999999
 21
231.19973999999999
 31
0.0
  0
LINE
  5
6C8
  8
0
  6
CENTER
 62
     7
 10
-213.33885000000001
 20
215.4058399999999
 30
0.0
 11
-228.90754999999999
 21
230.9745299999999
 31
0.0
  0
LINE
  5
6C9
  8
0
  6
CONTINUOUS
 62
     7
 10
-237.7809399999999
 20
147.34795
 30
0.0
 11
-237.7809399999999
 21
117.34795
 31
0.0
  0
LINE
  5
6CA
  8
0
  6
CENTER
 62
     7
 10
-213.37074000000001
 20
79.258147999999963
 30
0.0
 11
-228.84533999999991
 21
63.783566
 31
0.0
  0
LINE
  5
6CB
  8
0
  6
CONTINUOUS
 62
     7
 10
-360.63385
 20
54.847942000000003
 30
0.0
 11
-360.63385
 21
147.34795
 31
0.0
  0
LINE
  5
6CC
  8
0
  6
CONTINUOUS
 62
     7
 10
-370.63385
 20
54.498721999999987
 30
0.0
 11
-360.63385
 21
54.847931000000003
 31
0.0
  0
LINE
  5
6CD
  8
0
  6
CENTER
 62
     7
 10
-180.28399999999991
 20
124.14796
 30
0.0
 11
-110.63401999999979
 21
124.14796
 31
0.0
  0
LINE
  5
6CE
  8
0
  6
CONTINUOUS
 62
     7
 10
-147.7809399999999
 20
207.96768
 30
0.0
 11
-147.7809399999999
 21
218.5357799999999
 31
0.0
  0
LINE
  5
6CF
  8
0
  6
CONTINUOUS
 62
     7
 10
-113.7657499999999
 20
174.62049999999991
 30
0.0
 11
-88.877959999999987
 21
199.5082899999999
 31
0.0
  0
LINE
  5
6D0
  8
0
  6
CONTINUOUS
 62
     7
 10
-175.28098
 20
239.84795
 30
0.0
 11
-221.18104999999991
 21
237.44241
 31
0.0
  0
LINE
  5
6D1
  8
0
  6
CONTINUOUS
 62
     7
 10
-184.28095999999999
 20
147.34795
 30
0.0
 11
-184.28095999999999
 21
124.14796
 31
0.0
  0
LINE
  5
6D2
  8
0
  6
CONTINUOUS
 62
     7
 10
-360.63385
 20
232.34792999999991
 30
0.0
 11
-356.63387999999998
 21
232.34792999999991
 31
0.0
  0
LINE
  5
6D3
  8
0
  6
CONTINUOUS
 62
     7
 10
-106.2809399999999
 20
147.34795
 30
0.0
 11
-106.2809399999999
 21
124.14796
 31
0.0
  0
LINE
  5
6D4
  8
0
  6
CENTER
 62
     7
 10
-373.38814999999988
 20
223.36190999999991
 30
0.0
 11
-354.10506999999978
 21
223.36190999999991
 31
0.0
  0
LINE
  5
6D5
  8
0
  6
CONTINUOUS
 62
     7
 10
-118.00838999999991
 20
178.8631399999999
 30
0.0
 11
-93.120604999999983
 21
203.7509299999999
 31
0.0
  0
LINE
  5
6D6
  8
0
  6
CENTER
 62
     7
 10
-77.400168999999977
 20
79.46714799999998
 30
0.0
 11
-61.301349999999999
 21
63.368332000000002
 31
0.0
  0
LINE
  5
6D7
  8
0
  6
CONTINUOUS
 62
     7
 10
-366.63385
 20
76.847938999999982
 30
0.0
 11
-366.63385
 21
217.52022999999991
 31
0.0
  0
LINE
  5
6D8
  8
0
  6
CONTINUOUS
 62
     7
 10
-435.63384999999988
 20
58.037731000000001
 30
0.0
 11
-370.63387999999992
 21
58.037731000000001
 31
0.0
  0
LINE
  5
6D9
  8
0
  6
CONTINUOUS
 62
     7
 10
-145.2809399999999
 20
239.84792999999991
 30
0.0
 11
-175.2809399999999
 21
239.84792999999991
 31
0.0
  0
LINE
  5
6DA
  8
0
  6
CONTINUOUS
 62
     7
 10
-360.63385
 20
62.347954000000001
 30
0.0
 11
-356.63387999999998
 21
62.347954000000001
 31
0.0
  0
LINE
  5
6DB
  8
0
  6
CONTINUOUS
 62
     7
 10
-360.63385
 20
147.34795
 30
0.0
 11
-360.63385
 21
239.84792999999991
 31
0.0
  0
LINE
  5
6DC
  8
0
  6
CONTINUOUS
 62
     7
 10
-370.63387999999992
 20
198.47316000000001
 30
0.0
 11
-370.63387999999992
 21
237.56734999999989
 31
0.0
  0
LINE
  5
6DD
  8
0
  6
CONTINUOUS
 62
     7
 10
-435.63387999999992
 20
43.147960999999967
 30
0.0
 11
-450.70364000000001
 21
43.674205999999991
 31
0.0
  0
LINE
  5
6DE
  8
0
  6
DASHED
 62
     7
 10
-236.56511
 20
94.147957000000005
 30
0.0
 11
-223.79082
 21
94.147957000000005
 31
0.0
  0
LINE
  5
6DF
  8
0
  6
DASHED
 62
     7
 10
-217.29079999999999
 20
90.647964000000002
 30
0.0
 11
-236.3816799999999
 21
90.647964000000002
 31
0.0
  0
LINE
  5
6E0
  8
0
  6
DASHED
 62
     3
 10
-215.29082
 20
154.20023
 30
0.0
 11
-217.29082999999989
 21
154.14796000000001
 31
0.0
  0
LINE
  5
6E1
  8
0
  6
DASHED
 62
     3
 10
-215.29082
 20
154.14795000000001
 30
0.0
 11
-215.29082
 21
94.097945999999993
 31
0.0
  0
LINE
  5
6E2
  8
0
  6
DASHED
 62
     3
 10
-215.29079999999999
 20
94.095710999999994
 30
0.0
 11
-217.29082
 21
94.147971999999996
 31
0.0
  0
LINE
  5
6E3
  8
0
  6
DASHED
 62
     7
 10
-223.79082
 20
155.64795000000001
 30
0.0
 11
-220.2907999999999
 21
155.64795000000001
 31
0.0
  0
LINE
  5
6E4
  8
0
  6
CONTINUOUS
 62
     7
 10
-242.29082
 20
94.147957000000005
 30
0.0
 11
-236.56511
 21
94.147957000000005
 31
0.0
  0
LINE
  5
6E5
  8
0
  6
DASHED
 62
     7
 10
-223.79082
 20
92.647956999999963
 30
0.0
 11
-223.79082
 21
155.64795000000001
 31
0.0
  0
LINE
  5
6E6
  8
0
  6
DASHED
 62
     7
 10
-237.29082
 20
154.14795000000001
 30
0.0
 11
-237.29082
 21
157.64795000000001
 31
0.0
  0
LINE
  5
6E7
  8
0
  6
CONTINUOUS
 62
     7
 10
-242.29082999999989
 20
147.14796000000001
 30
0.0
 11
-245.2908299999998
 21
141.95796000000001
 31
0.0
  0
LINE
  5
6E8
  8
0
  6
CONTINUOUS
 62
     7
 10
-242.29082
 20
94.147957000000005
 30
0.0
 11
-242.29082
 21
154.14795000000001
 31
0.0
  0
LINE
  5
6E9
  8
0
  6
CONTINUOUS
 62
     7
 10
-237.29082
 20
94.147957000000005
 30
0.0
 11
-237.29082
 21
90.647964000000002
 31
0.0
  0
LINE
  5
6EA
  8
0
  6
DASHED
 62
     7
 10
-220.2907999999999
 20
90.647964000000002
 30
0.0
 11
-220.2907999999999
 21
157.64795000000001
 31
0.0
  0
LINE
  5
6EB
  8
0
  6
DASHED
 62
     7
 10
-217.29079999999999
 20
90.647964000000002
 30
0.0
 11
-217.29079999999999
 21
157.64795000000001
 31
0.0
  0
LINE
  5
6EC
  8
0
  6
CONTINUOUS
 62
     7
 10
-242.29082
 20
101.1479599999999
 30
0.0
 11
-245.29082
 21
106.34798000000001
 31
0.0
  0
LINE
  5
6ED
  8
0
  6
CONTINUOUS
 62
     7
 10
-245.29082
 20
106.3479499999999
 30
0.0
 11
-245.29082
 21
141.95796000000001
 31
0.0
  0
LINE
  5
6EE
  8
0
  6
DASHED
 62
     7
 10
-223.79082
 20
92.647956999999963
 30
0.0
 11
-220.2907999999999
 21
92.647956999999963
 31
0.0
  0
LINE
  5
6EF
  8
0
  6
CONTINUOUS
 62
     7
 10
-242.29082
 20
154.14795000000001
 30
0.0
 11
-237.7809399999999
 21
154.14795000000001
 31
0.0
  0
LINE
  5
6F0
  8
0
  6
DASHED
 62
     7
 10
-217.29079999999999
 20
157.64795000000001
 30
0.0
 11
-237.29082
 21
157.64795000000001
 31
0.0
  0
LINE
  5
6F1
  8
0
  6
DASHED
 62
     7
 10
-237.7809399999999
 20
154.14795000000001
 30
0.0
 11
-223.79082
 21
154.14795000000001
 31
0.0
  0
LINE
  5
6F2
  8
0
  6
CONTINUOUS
 62
     7
 10
-236.3816799999999
 20
90.647964000000002
 30
0.0
 11
-237.29082
 21
90.647964000000002
 31
0.0
  0
LINE
  5
6F3
  8
0
  6
CONTINUOUS
 62
     7
 10
-360.63385
 20
328.09487999999982
 30
0.0
 11
-356.63382000000001
 21
328.09487999999982
 31
0.0
  0
LINE
  5
6F4
  8
0
  6
CONTINUOUS
 62
     7
 10
-346.63387999999992
 20
417.09484999999989
 30
0.0
 11
-314.63387999999992
 21
417.09484999999989
 31
0.0
  0
LINE
  5
6F5
  8
0
  6
CONTINUOUS
 62
     7
 10
-368.70361000000003
 20
505.31304999999992
 30
0.0
 11
-360.63385
 21
505.59485000000001
 31
0.0
  0
LINE
  5
6F6
  8
0
  6
CONTINUOUS
 62
     7
 10
-372.32808999999992
 20
327.28917999999999
 30
0.0
 11
-370.63382000000001
 21
325.59491000000008
 31
0.0
  0
LINE
  5
6F7
  8
0
  6
CENTER
 62
     7
 10
-374.58867999999978
 20
337.08089999999982
 30
0.0
 11
-353.24374
 21
337.08089999999982
 31
0.0
  0
LINE
  5
6F8
  8
0
  6
CONTINUOUS
 62
     7
 10
-346.63387999999992
 20
417.09484999999989
 30
0.0
 11
-346.63387999999992
 21
409.09487999999988
 31
0.0
  0
LINE
  5
6F9
  8
0
  6
CONTINUOUS
 62
     7
 10
-356.63385
 20
399.09491000000003
 30
0.0
 11
-314.63387999999992
 21
399.09491000000003
 31
0.0
  0
LINE
  5
6FA
  8
0
  6
CONTINUOUS
 62
     7
 10
-356.63385
 20
427.09491000000003
 30
0.0
 11
-314.63387999999992
 21
427.09491000000003
 31
0.0
  0
LINE
  5
6FB
  8
0
  6
CONTINUOUS
 62
     7
 10
-314.63387999999992
 20
427.09491000000003
 30
0.0
 11
-314.63387999999992
 21
399.09491000000003
 31
0.0
  0
LINE
  5
6FC
  8
0
  6
CONTINUOUS
 62
     7
 10
-375.68914999999998
 20
497.43912
 30
0.0
 11
-435.63384999999988
 21
495.34582999999998
 31
0.0
  0
LINE
  5
6FD
  8
0
  6
CONTINUOUS
 62
     7
 10
-375.68914999999998
 20
328.75060999999982
 30
0.0
 11
-435.63384999999988
 21
330.84392999999972
 31
0.0
  0
LINE
  5
6FE
  8
0
  6
CONTINUOUS
 62
     7
 10
-360.63385
 20
320.59487999999982
 30
0.0
 11
-360.63385
 21
505.59487999999999
 31
0.0
  0
LINE
  5
6FF
  8
0
  6
CONTINUOUS
 62
     7
 10
-360.63385
 20
498.09487999999999
 30
0.0
 11
-356.63382000000001
 21
498.09487999999999
 31
0.0
  0
LINE
  5
700
  8
0
  6
CENTER
 62
     7
 10
-373.94934000000001
 20
489.10885999999988
 30
0.0
 11
-353.72503999999998
 21
489.10885999999988
 31
0.0
  0
LINE
  5
701
  8
0
  6
CONTINUOUS
 62
     7
 10
-366.63385
 20
342.59487999999999
 30
0.0
 11
-366.63385
 21
483.26717999999988
 31
0.0
  0
LINE
  5
702
  8
0
  6
CONTINUOUS
 62
     7
 10
-372.32808999999992
 20
498.90053999999992
 30
0.0
 11
-370.63382000000001
 21
500.59485000000001
 31
0.0
  0
LINE
  5
703
  8
0
  6
CONTINUOUS
 62
     7
 10
-370.63385
 20
322.87549000000001
 30
0.0
 11
-370.63385
 21
503.31426999999991
 31
0.0
  0
LINE
  5
704
  8
0
  6
CONTINUOUS
 62
     7
 10
-346.63387999999992
 20
409.09487999999988
 30
0.0
 11
-314.63387999999992
 21
409.09487999999988
 31
0.0
  0
LINE
  5
705
  8
0
  6
CONTINUOUS
 62
     7
 10
-356.63382000000001
 20
498.09487999999999
 30
0.0
 11
-356.63382000000001
 21
328.09487999999982
 31
0.0
  0
LINE
  5
706
  8
0
  6
CONTINUOUS
 62
     7
 10
-368.70364000000001
 20
320.87667999999991
 30
0.0
 11
-360.63387999999992
 21
320.59487999999982
 31
0.0
  0
ARC
  5
707
  8
0
  6
CONTINUOUS
 62
     7
 10
-447.63384999999988
 20
336.26602000000008
 30
0.0
 40
5.0
 50
180.00001
 51
268.0
  0
ARC
  5
708
  8
0
  6
CONTINUOUS
 62
     7
 10
-447.63384999999988
 20
489.92374000000001
 30
0.0
 40
5.0
 50
91.999998000000005
 51
180.00001
  0
ARC
  5
709
  8
0
  6
CONTINUOUS
 62
     7
 10
-455.63384999999988
 20
345.7724
 30
0.0
 40
3.0
 50
0.0
 51
88.0
  0
ARC
  5
70A
  8
0
  6
CONTINUOUS
 62
     7
 10
-455.63384999999988
 20
480.41735999999992
 30
0.0
 40
3.0
 50
272.0
 51
0.0
  0
ARC
  5
70B
  8
0
  6
CONTINUOUS
 62
     3
 10
-574.40674000000001
 20
329.09487999999982
 30
0.0
 40
4.0
 50
179.99997999999991
 51
0.000010017912
  0
ARC
  5
70C
  8
0
  6
CONTINUOUS
 62
     3
 10
-574.40674000000001
 20
329.09487999999982
 30
0.0
 40
7.5
 50
179.99997999999991
 51
0.000010017913
  0
ARC
  5
70D
  8
0
  6
CONTINUOUS
 62
     7
 10
-634.63342
 20
362.84537
 30
0.0
 40
0.49952301
 50
359.94522999999992
 51
90.054773999999981
  0
ARC
  5
70E
  8
0
  6
CONTINUOUS
 62
     7
 10
-634.63720999999987
 20
364.99831999999992
 30
0.0
 40
0.5033929900000002
 50
270.38490999999982
 51
359.61509999999993
  0
ARC
  5
70F
  8
0
  6
CONTINUOUS
 62
     7
 10
-635.13793999999984
 20
367.59902999999991
 30
0.0
 40
1.004119999999999
 50
270.23460999999992
 51
359.76538999999991
  0
ARC
  5
710
  8
0
  6
CONTINUOUS
 62
     7
 10
-635.13634999999965
 20
372.11734000000001
 30
0.0
 40
1.002470999999999
 50
270.14107000000001
 51
359.85892999999987
  0
ARC
  5
711
  8
0
  6
CONTINUOUS
 62
     7
 10
-638.13513
 20
367.21840999999989
 30
0.0
 40
0.9987969999999998
 50
179.62728000000001
 51
238.70795000000001
  0
ARC
  5
712
  8
0
  6
CONTINUOUS
 62
     7
 10
-638.1361099999998
 20
368.25612999999993
 30
0.0
 40
0.9977070099999998
 50
180.0740199999999
 51
242.04481000000001
  0
ARC
  5
713
  8
0
  6
CONTINUOUS
 62
     7
 10
-638.13477
 20
371.81961000000001
 30
0.0
 40
0.9990889999999998
 50
179.69508999999991
 51
236.66209000000001
  0
ARC
  5
714
  8
0
  6
CONTINUOUS
 62
     7
 10
-638.13538000000017
 20
372.85415999999992
 30
0.0
 40
0.9984580299999999
 50
179.9595799999999
 51
239.38657000000001
  0
ARC
  5
715
  8
0
  6
CONTINUOUS
 62
     7
 10
-636.8704799999997
 20
372.11587999999989
 30
0.0
 40
1.0010449999999991
 50
240.47187
 51
270.37970999999999
  0
ARC
  5
716
  8
0
  6
CONTINUOUS
 62
     7
 10
-636.84105999999986
 20
370.97537
 30
0.0
 40
1.000521999999999
 50
237.14617999999999
 51
270.41343999999998
  0
ARC
  5
717
  8
0
  6
CONTINUOUS
 62
     7
 10
-636.87865999999985
 20
367.59548999999993
 30
0.0
 40
1.0006820000000001
 50
241.65062
 51
269.7039299999999
  0
ARC
  5
718
  8
0
  6
CONTINUOUS
 62
     7
 10
-636.86243000000002
 20
366.45853
 30
0.0
 40
1.0037439999999991
 50
239.37112999999999
 51
270.49189999999987
  0
ARC
  5
719
  8
0
  6
CONTINUOUS
 62
     7
 10
-636.88805999999977
 20
365.49417
 30
0.0
 40
0.9993420200000001
 50
242.86199999999999
 51
269.66546
  0
ARC
  5
71A
  8
0
  6
CONTINUOUS
 62
     7
 10
-636.85315000000003
 20
364.34598
 30
0.0
 40
1.001123999999999
 50
239.32782000000009
 51
269.38767999999988
  0
ARC
  5
71B
  8
0
  6
CONTINUOUS
 62
     7
 10
-638.13818000000003
 20
366.12526999999989
 30
0.0
 40
0.9956849800000001
 50
180.02112999999991
 51
243.40913999999981
  0
ARC
  5
71C
  8
0
  6
CONTINUOUS
 62
     7
 10
-638.13622999999995
 20
365.0795
 30
0.0
 40
0.9976310099999999
 50
180.26780999999991
 51
240.07924
  0
ARC
  5
71D
  8
0
  6
CONTINUOUS
 62
     7
 10
-638.13538000000017
 20
372.85415999999992
 30
0.0
 40
0.9984580299999999
 50
179.9595799999999
 51
239.38657000000001
  0
ARC
  5
71E
  8
0
  6
CONTINUOUS
 62
     7
 10
-635.13707999999986
 20
372.12160999999992
 30
0.0
 40
1.0032760000000001
 50
334.19810000000001
 51
359.61810999999977
  0
ARC
  5
71F
  8
0
  6
CONTINUOUS
 62
     7
 10
-635.13367000000005
 20
396.09500000000003
 30
0.0
 40
0.9998210099999999
 50
359.98971999999998
 51
90.010281999999961
  0
ARC
  5
720
  8
0
  6
CONTINUOUS
 62
     7
 10
-635.13878999999974
 20
400.09975999999989
 30
0.0
 40
1.004939
 50
270.28093999999999
 51
359.71906999999999
  0
ARC
  5
721
  8
0
  6
CONTINUOUS
 62
     7
 10
-635.13367000000005
 20
406.09500000000003
 30
0.0
 40
0.9998279799999998
 50
359.99015999999978
 51
90.009838000000002
  0
ARC
  5
722
  8
0
  6
CONTINUOUS
 62
     7
 10
-635.13878999999974
 20
410.09976
 30
0.0
 40
1.004942999999999
 50
270.28113999999988
 51
359.71886999999992
  0
ARC
  5
723
  8
0
  6
CONTINUOUS
 62
     7
 10
-638.13878999999997
 20
408.09975999999989
 30
0.0
 40
0.9950770099999999
 50
89.715860000000006
 51
180.28413999999989
  0
ARC
  5
724
  8
0
  6
CONTINUOUS
 62
     7
 10
-638.13367000000017
 20
408.09512000000001
 30
0.0
 40
1.0002040000000001
 50
180.01166000000001
 51
269.9883200000001
  0
ARC
  5
725
  8
0
  6
CONTINUOUS
 62
     7
 10
-638.13878999999997
 20
398.09976
 30
0.0
 40
0.9950810099999999
 50
89.716071999999997
 51
180.28391999999999
  0
ARC
  5
726
  8
0
  6
CONTINUOUS
 62
     7
 10
-638.13367000000017
 20
398.09512000000001
 30
0.0
 40
1.0001999999999991
 50
180.01146
 51
269.98853999999972
  0
ARC
  5
727
  8
0
  6
CONTINUOUS
 62
     7
 10
-638.13878999999997
 20
388.09976
 30
0.0
 40
0.9950849999999999
 50
89.716282999999976
 51
180.2837199999999
  0
ARC
  5
728
  8
0
  6
CONTINUOUS
 62
     7
 10
-638.13367000000017
 20
388.09512000000001
 30
0.0
 40
1.0001959999999981
 50
180.01124999999999
 51
269.98874999999992
  0
ARC
  5
729
  8
0
  6
CONTINUOUS
 62
     7
 10
-638.13732999999979
 20
378.92336999999998
 30
0.0
 40
0.9965090199999998
 50
179.91374999999999
 51
247.17845
  0
ARC
  5
72A
  8
0
  6
CONTINUOUS
 62
     7
 10
-638.13744999999994
 20
380.70925999999992
 30
0.0
 40
0.99638802
 50
180.24991
 51
253.29664
  0
ARC
  5
72B
  8
0
  6
CONTINUOUS
 62
     7
 10
-636.99329
 20
380.35757000000001
 30
0.0
 40
1.002699
 50
253.7527199999999
 51
270.54064
  0
ARC
  5
72C
  8
0
  6
CONTINUOUS
 62
     7
 10
-636.9309099999997
 20
378.41005999999987
 30
0.0
 40
1.005233
 50
246.98638999999989
 51
269.82924999999989
  0
ARC
  5
72D
  8
0
  6
CONTINUOUS
 62
     7
 10
-634.83325000000002
 20
376.70546999999999
 30
0.0
 40
0.6994530000000001
 50
359.95517000000001
 51
90.044829000000021
  0
ARC
  5
72E
  8
0
  6
CONTINUOUS
 62
     7
 10
-635.13367000000005
 20
386.09500000000003
 30
0.0
 40
0.9998239899999999
 50
359.98991999999993
 51
90.010076999999981
  0
ARC
  5
72F
  8
0
  6
CONTINUOUS
 62
     7
 10
-635.13878999999974
 20
390.09976
 30
0.0
 40
1.0049469
 50
270.28136999999992
 51
359.71863000000002
  0
ARC
  5
730
  8
0
  6
CONTINUOUS
 62
     7
 10
-635.13720999999975
 20
380.35817999999989
 30
0.0
 40
1.003352
 50
270.19110999999992
 51
359.80889999999982
  0
ARC
  5
731
  8
0
  6
CONTINUOUS
 62
     7
 10
-634.63842999999963
 20
463.34951999999993
 30
0.0
 40
0.50463498
 50
270.52382999999992
 51
359.47617000000002
  0
ARC
  5
732
  8
0
  6
CONTINUOUS
 62
     7
 10
-634.63220000000001
 20
461.19655999999992
 30
0.0
 40
0.4983060100000002
 50
359.80489
 51
90.195107000000007
  0
ARC
  5
733
  8
0
  6
CONTINUOUS
 62
     7
 10
-635.13280999999995
 20
458.59585999999967
 30
0.0
 40
0.9990100299999999
 50
359.94319000000002
 51
90.056808999999959
  0
ARC
  5
734
  8
0
  6
CONTINUOUS
 62
     7
 10
-634.83838000000003
 20
449.48940999999979
 30
0.0
 40
0.704566
 50
270.37009999999992
 51
359.62990999999982
  0
ARC
  5
735
  8
0
  6
CONTINUOUS
 62
     7
 10
-635.13622999999995
 20
454.08255000000003
 30
0.0
 40
1.002353
 50
0.13432682
 51
89.865673000000001
  0
ARC
  5
736
  8
0
  6
CONTINUOUS
 62
     7
 10
-635.13207999999975
 20
445.83658000000003
 30
0.0
 40
0.9982839799999999
 50
359.90141999999992
 51
90.098575999999994
  0
ARC
  5
737
  8
0
  6
CONTINUOUS
 62
     7
 10
-635.13878999999974
 20
440.09975999999989
 30
0.0
 40
1.004942999999999
 50
270.28111000000001
 51
359.71888999999987
  0
ARC
  5
738
  8
0
  6
CONTINUOUS
 62
     7
 10
-635.13367000000005
 20
436.09500000000003
 30
0.0
 40
0.9998289899999999
 50
359.99018999999993
 51
90.009810999999985
  0
ARC
  5
739
  8
0
  6
CONTINUOUS
 62
     7
 10
-635.13878999999974
 20
430.09975999999989
 30
0.0
 40
1.004939
 50
270.28091000000001
 51
359.71910000000008
  0
ARC
  5
73A
  8
0
  6
CONTINUOUS
 62
     7
 10
-635.13367000000005
 20
426.09500000000003
 30
0.0
 40
0.9998210099999999
 50
359.98975000000002
 51
90.010255000000001
  0
ARC
  5
73B
  8
0
  6
CONTINUOUS
 62
     7
 10
-635.13878999999974
 20
420.09975999999989
 30
0.0
 40
1.0049469
 50
270.28134999999992
 51
359.71866
  0
ARC
  5
73C
  8
0
  6
CONTINUOUS
 62
     7
 10
-635.13367000000005
 20
416.09500000000003
 30
0.0
 40
0.9998249999999999
 50
359.98995000000002
 51
90.010050000000007
  0
ARC
  5
73D
  8
0
  6
CONTINUOUS
 62
     7
 10
-638.13367000000017
 20
418.09511999999989
 30
0.0
 40
1.0001959999999981
 50
180.01122000000001
 51
269.98877999999991
  0
ARC
  5
73E
  8
0
  6
CONTINUOUS
 62
     7
 10
-638.13878999999997
 20
418.09976
 30
0.0
 40
0.9950849999999999
 50
89.716311000000005
 51
180.28368999999981
  0
ARC
  5
73F
  8
0
  6
CONTINUOUS
 62
     7
 10
-638.13367000000017
 20
428.09512000000001
 30
0.0
 40
1.0001999999999991
 50
180.0114299999999
 51
269.98856999999992
  0
ARC
  5
740
  8
0
  6
CONTINUOUS
 62
     7
 10
-638.13878999999997
 20
428.09975999999989
 30
0.0
 40
0.99508202
 50
89.716099
 51
180.28390999999991
  0
ARC
  5
741
  8
0
  6
CONTINUOUS
 62
     7
 10
-638.13367000000017
 20
438.09512000000001
 30
0.0
 40
1.000203
 50
180.01165
 51
269.98835000000003
  0
ARC
  5
742
  8
0
  6
CONTINUOUS
 62
     7
 10
-638.13878999999997
 20
438.09975999999989
 30
0.0
 40
0.99507803
 50
89.715886999999981
 51
180.28411
  0
ARC
  5
743
  8
0
  6
CONTINUOUS
 62
     7
 10
-638.13744999999994
 20
447.27640000000002
 30
0.0
 40
0.9963999999999998
 50
112.81735999999979
 51
180.09041999999991
  0
ARC
  5
744
  8
0
  6
CONTINUOUS
 62
     7
 10
-638.13756999999976
 20
445.49062999999973
 30
0.0
 40
0.9962710099999999
 50
106.69792
 51
180.3300499999998
  0
ARC
  5
745
  8
0
  6
CONTINUOUS
 62
     7
 10
-636.99474999999995
 20
445.84219000000002
 30
0.0
 40
0.9927430199999999
 50
89.374555000000001
 51
106.33207
  0
ARC
  5
746
  8
0
  6
CONTINUOUS
 62
     7
 10
-636.93286000000001
 20
447.78945999999991
 30
0.0
 40
0.9954450099999999
 50
90.056905000000043
 51
113.1274499999999
  0
ARC
  5
747
  8
0
  6
CONTINUOUS
 62
     7
 10
-638.13940000000002
 20
458.97390999999999
 30
0.0
 40
0.9944329899999999
 50
121.15213
 51
179.9405099999999
  0
ARC
  5
748
  8
0
  6
CONTINUOUS
 62
     7
 10
-638.14062999999999
 20
457.93630999999988
 30
0.0
 40
0.9932109699999999
 50
117.7993199999999
 51
180.08187000000001
  0
ARC
  5
749
  8
0
  6
CONTINUOUS
 62
     7
 10
-638.13904000000002
 20
454.37247000000002
 30
0.0
 40
0.9948369899999999
 50
123.20496
 51
180.4378599999998
  0
ARC
  5
74A
  8
0
  6
CONTINUOUS
 62
     7
 10
-638.13976999999988
 20
453.33803999999992
 30
0.0
 40
0.99404597
 50
120.4682
 51
180.18563999999989
  0
ARC
  5
74B
  8
0
  6
CONTINUOUS
 62
     7
 10
-636.85449000000006
 20
454.08840999999973
 30
0.0
 40
0.99648702
 50
90.540720999999976
 51
120.74377
  0
ARC
  5
74C
  8
0
  6
CONTINUOUS
 62
     7
 10
-636.82727
 20
455.22867000000002
 30
0.0
 40
0.99617702
 50
90.381317999999979
 51
123.9704899999999
  0
ARC
  5
74D
  8
0
  6
CONTINUOUS
 62
     7
 10
-636.89880000000005
 20
458.59951999999998
 30
0.0
 40
0.99545902
 50
89.141291000000024
 51
117.20381999999999
  0
ARC
  5
74E
  8
0
  6
CONTINUOUS
 62
     7
 10
-636.86499000000003
 20
459.74062999999973
 30
0.0
 40
0.99427301
 50
89.356065999999984
 51
120.78091000000001
  0
ARC
  5
74F
  8
0
  6
CONTINUOUS
 62
     7
 10
-636.90905999999995
 20
460.70084000000003
 30
0.0
 40
0.99411702
 50
89.122643999999966
 51
115.93498
  0
ARC
  5
750
  8
0
  6
CONTINUOUS
 62
     7
 10
-636.87182999999982
 20
461.84902999999991
 30
0.0
 40
0.9959030199999999
 50
89.541267000000005
 51
119.60717
  0
ARC
  5
751
  8
0
  6
CONTINUOUS
 62
     7
 10
-638.13830999999982
 20
460.07461999999992
 30
0.0
 40
0.995579
 50
116.5870899999999
 51
179.98264
  0
ARC
  5
752
  8
0
  6
CONTINUOUS
 62
     7
 10
-638.14062999999999
 20
461.11282
 30
0.0
 40
0.99319202
 50
119.77338
 51
179.87958999999981
  0
ARC
  5
753
  8
0
  6
CONTINUOUS
 62
     7
 10
-620.99304000000006
 20
371.88454999999999
 30
0.0
 40
1.0032491999999991
 50
314.98118999999991
 51
5.1676434000000002
  0
ARC
  5
754
  8
0
  6
CONTINUOUS
 62
     7
 10
-486.13403
 20
475.59512000000001
 30
0.0
 40
0.99980682
 50
89.98893099999998
 51
180.0110699999999
  0
ARC
  5
755
  8
0
  6
CONTINUOUS
 62
     7
 10
-494.33258000000001
 20
353.24112000000002
 30
0.0
 40
2.0062942999999991
 50
270.24932999999987
 51
345.08843999999999
  0
ARC
  5
756
  8
0
  6
CONTINUOUS
 62
     7
 10
-486.13477
 20
464.13576999999992
 30
0.0
 40
0.9990923399999999
 50
89.947921999999977
 51
180.0520799999999
  0
ARC
  5
757
  8
0
  6
CONTINUOUS
 62
     7
 10
-612.14110999999946
 20
418.09487999999999
 30
0.0
 40
1.0000259
 50
89.587533999999977
 51
270.41246000000001
  0
ARC
  5
758
  8
0
  6
CONTINUOUS
 62
     7
 10
-620.17443999999989
 20
464.08963
 30
0.0
 40
1.9952742999999991
 50
90.148580000000024
 51
170.0352199999999
  0
ARC
  5
759
  8
0
  6
CONTINUOUS
 62
     7
 10
-620.23657000000003
 20
469.36783000000003
 30
0.0
 40
1.997119399999999
 50
89.801366999999999
 51
167.94476
  0
ARC
  5
75A
  8
0
  6
CONTINUOUS
 62
     7
 10
-624.61707000000001
 20
465.63724000000002
 30
0.0
 40
1.502416299999999
 50
269.9013799999999
 51
347.60813000000002
  0
ARC
  5
75B
  8
0
  6
CONTINUOUS
 62
     7
 10
-628.00354000000004
 20
472.77260999999987
 30
0.0
 40
1.9922863
 50
90.007720999999947
 51
166.87839
  0
ARC
  5
75C
  8
0
  6
CONTINUOUS
 62
     7
 10
-632.3286099999998
 20
469.69973999999979
 30
0.0
 40
1.5048382
 50
270.18263999999982
 51
346.7530799999999
  0
ARC
  5
75D
  8
0
  6
CONTINUOUS
 62
     7
 10
-632.31432999999981
 20
471.72024999999991
 30
0.0
 40
1.505448699999999
 50
270.39686999999992
 51
345.95247000000001
  0
ARC
  5
75E
  8
0
  6
CONTINUOUS
 62
     7
 10
-628.02904999999976
 20
474.40030000000002
 30
0.0
 40
1.994612099999999
 50
89.851992000000024
 51
165.93885999999981
  0
ARC
  5
75F
  8
0
  6
CONTINUOUS
 62
     7
 10
-611.14049999999975
 20
472.96157999999991
 30
0.0
 40
1.9933081999999991
 50
89.807322999999968
 51
180.19266999999991
  0
ARC
  5
760
  8
0
  6
CONTINUOUS
 62
     7
 10
-611.13977
 20
474.99074999999988
 30
0.0
 40
1.9941304999999969
 50
89.831106000000005
 51
180.16889
  0
ARC
  5
761
  8
0
  6
CONTINUOUS
 62
     7
 10
-611.13733000000002
 20
476.34841999999992
 30
0.0
 40
1.996488899999999
 50
89.899147999999997
 51
180.10085000000001
  0
ARC
  5
762
  8
0
  6
CONTINUOUS
 62
     7
 10
-611.14013999999997
 20
477.01834000000002
 30
0.0
 40
1.9964978999999969
 50
89.821482000000003
 51
165.6006099999999
  0
ARC
  5
763
  8
0
  6
CONTINUOUS
 62
     7
 10
-614.63756999999998
 20
467.5886499999998
 30
0.0
 40
1.5037541000000001
 50
270.14287000000002
 51
359.85714000000002
  0
ARC
  5
764
  8
0
  6
CONTINUOUS
 62
     7
 10
-614.63878999999974
 20
472.86977999999988
 30
0.0
 40
1.5048912999999979
 50
270.18592999999998
 51
359.81407000000002
  0
ARC
  5
765
  8
0
  6
CONTINUOUS
 62
     7
 10
-614.64075000000003
 20
476.27175999999997
 30
0.0
 40
1.506942899999999
 50
270.26337000000001
 51
359.73662999999999
  0
ARC
  5
766
  8
0
  6
CONTINUOUS
 62
     7
 10
-614.52892999999995
 20
477.90005000000002
 30
0.0
 40
1.505230099999999
 50
270.19421
 51
345.17177999999979
  0
ARC
  5
767
  8
0
  6
CONTINUOUS
 62
     7
 10
-487.4837
 20
460.94717000000003
 30
0.0
 40
1.5022733999999991
 50
195.1365099999999
 51
269.99412000000001
  0
ARC
  5
768
  8
0
  6
CONTINUOUS
 62
     7
 10
-494.32439999999991
 20
472.95571999999999
 30
0.0
 40
1.9991226
 50
15.050791
 51
89.984388999999979
  0
ARC
  5
769
  8
0
  6
CONTINUOUS
 62
     7
 10
-486.14084000000003
 20
350.58791999999983
 30
0.0
 40
0.99304521
 50
179.59730999999991
 51
270.40267999999992
  0
ARC
  5
76A
  8
0
  6
CONTINUOUS
 62
     7
 10
-486.14150999999998
 20
362.04727000000003
 30
0.0
 40
0.99237448
 50
179.55802
 51
270.44197000000003
  0
ARC
  5
76B
  8
0
  6
CONTINUOUS
 62
     7
 10
-487.42815999999988
 20
465.63515999999993
 30
0.0
 40
1.500286
 50
192.32630999999989
 51
270.16417000000001
  0
ARC
  5
76C
  8
0
  6
CONTINUOUS
 62
     7
 10
-624.97826999999995
 20
454.68912
 30
0.0
 40
5.0059714
 50
279.71098000000001
 51
354.67887999999999
  0
ARC
  5
76D
  8
0
  6
CONTINUOUS
 62
     7
 10
-624.51293999999984
 20
450.76235999999989
 30
0.0
 40
6.0044340999999992
 50
45.225577999999999
 51
86.380821999999966
  0
ARC
  5
76E
  8
0
  6
CONTINUOUS
 62
     7
 10
-620.99194
 20
454.31558000000001
 30
0.0
 40
1.002184699999999
 50
354.80385999999987
 51
45.047306999999968
  0
ARC
  5
76F
  8
0
  6
CONTINUOUS
 62
     7
 10
-624.51415999999995
 20
375.44022000000001
 30
0.0
 40
6.0073843
 50
273.62973999999991
 51
314.76384999999999
  0
ARC
  5
770
  8
0
  6
CONTINUOUS
 62
     7
 10
-624.97095000000002
 20
371.50637999999992
 30
0.0
 40
4.999142199999997
 50
5.3780269000000001
 51
80.360065000000006
  0
ARC
  5
771
  8
0
  6
CONTINUOUS
 62
     7
 10
-627.99706999999978
 20
353.42545000000001
 30
0.0
 40
2.0005671999999981
 50
193.3095899999999
 51
269.80430999999999
  0
ARC
  5
772
  8
0
  6
CONTINUOUS
 62
     7
 10
-632.32067999999981
 20
356.49722000000008
 30
0.0
 40
1.497715799999999
 50
13.424379
 51
90.122644999999963
  0
ARC
  5
773
  8
0
  6
CONTINUOUS
 62
     7
 10
-632.30615
 20
354.47658999999987
 30
0.0
 40
1.4982997
 50
14.22974
 51
89.910949999999985
  0
ARC
  5
774
  8
0
  6
CONTINUOUS
 62
     7
 10
-611.1337900000002
 20
353.23489000000001
 30
0.0
 40
2.0000371999999991
 50
180.00105999999991
 51
269.99892999999992
  0
ARC
  5
775
  8
0
  6
CONTINUOUS
 62
     7
 10
-611.13292999999999
 20
351.20583999999991
 30
0.0
 40
2.0009109999999981
 50
180.00001
 51
269.97390999999988
  0
ARC
  5
776
  8
0
  6
CONTINUOUS
 62
     7
 10
-614.63585999999998
 20
358.61295000000001
 30
0.0
 40
1.501982699999999
 50
0.075587202
 51
89.924413000000015
  0
ARC
  5
777
  8
0
  6
CONTINUOUS
 62
     7
 10
-614.63695999999982
 20
353.33170000000001
 30
0.0
 40
1.503128599999999
 50
0.11912965
 51
89.880870000000002
  0
ARC
  5
778
  8
0
  6
CONTINUOUS
 62
     7
 10
-487.49020000000002
 20
365.25112999999999
 30
0.0
 40
1.4937901
 50
89.756423999999981
 51
165.1129199999998
  0
ARC
  5
779
  8
0
  6
CONTINUOUS
 62
     7
 10
-612.14110999999946
 20
428.09487999999988
 30
0.0
 40
1.0000259
 50
89.587533999999977
 51
270.41246000000001
  0
ARC
  5
77A
  8
0
  6
CONTINUOUS
 62
     7
 10
-612.14110999999946
 20
438.09487999999988
 30
0.0
 40
1.0000259
 50
89.587533999999977
 51
270.41246000000001
  0
ARC
  5
77B
  8
0
  6
CONTINUOUS
 62
     7
 10
-612.14110999999946
 20
448.09487999999999
 30
0.0
 40
1.0000259
 50
89.587533999999977
 51
270.41246000000001
  0
ARC
  5
77C
  8
0
  6
CONTINUOUS
 62
     7
 10
-629.87207000000001
 20
418.10489000000001
 30
0.0
 40
1.2700266
 50
89.629328000000001
 51
270.37065999999987
  0
ARC
  5
77D
  8
0
  6
CONTINUOUS
 62
     7
 10
-629.81017999999995
 20
428.10988999999989
 30
0.0
 40
1.3350147999999991
 50
89.730435000000014
 51
270.26956999999999
  0
ARC
  5
77E
  8
0
  6
CONTINUOUS
 62
     7
 10
-620.67957000000001
 20
438.12490999999989
 30
0.0
 40
1.460011199999999
 50
89.775248000000005
 51
270.22474
  0
ARC
  5
77F
  8
0
  6
CONTINUOUS
 62
     7
 10
-620.46387000000004
 20
448.14492999999999
 30
0.0
 40
1.6800002000000001
 50
90.000003000000007
 51
270.0
  0
ARC
  5
780
  8
0
  6
CONTINUOUS
 62
     7
 10
-628.58385999999985
 20
418.09487999999999
 30
0.0
 40
1.0000056999999991
 50
90.000003000000007
 51
270.0
  0
ARC
  5
781
  8
0
  6
CONTINUOUS
 62
     7
 10
-628.58385999999985
 20
428.09487999999988
 30
0.0
 40
1.0000056999999991
 50
90.000003000000007
 51
270.0
  0
ARC
  5
782
  8
0
  6
CONTINUOUS
 62
     7
 10
-619.59105999999986
 20
448.09487999999999
 30
0.0
 40
1.0000255999999981
 50
89.589473999999967
 51
270.41052000000002
  0
ARC
  5
783
  8
0
  6
CONTINUOUS
 62
     7
 10
-619.59105999999986
 20
438.09487999999988
 30
0.0
 40
1.0000255999999981
 50
89.589473999999967
 51
270.41052000000002
  0
ARC
  5
784
  8
0
  6
CONTINUOUS
 62
     7
 10
-490.31384000000003
 20
448.14492999999999
 30
0.0
 40
1.6800077
 50
269.99998999999991
 51
90.000003000000007
  0
ARC
  5
785
  8
0
  6
CONTINUOUS
 62
     7
 10
-493.79385000000002
 20
448.09487999999999
 30
0.0
 40
1.0000040999999991
 50
269.99998999999991
 51
90.000003000000007
  0
ARC
  5
786
  8
0
  6
CONTINUOUS
 62
     7
 10
-493.79385000000002
 20
378.09487999999988
 30
0.0
 40
1.0000040999999991
 50
269.99998999999991
 51
90.000003000000007
  0
ARC
  5
787
  8
0
  6
CONTINUOUS
 62
     7
 10
-490.31384000000003
 20
378.05484000000001
 30
0.0
 40
1.6800077
 50
269.99998999999991
 51
90.000003000000007
  0
ARC
  5
788
  8
0
  6
CONTINUOUS
 62
     7
 10
-628.58385999999985
 20
408.09487999999988
 30
0.0
 40
1.0000056999999991
 50
90.000003000000007
 51
270.0
  0
ARC
  5
789
  8
0
  6
CONTINUOUS
 62
     7
 10
-612.14110999999946
 20
398.09487999999999
 30
0.0
 40
1.0000259
 50
89.587533999999977
 51
270.41246000000001
  0
ARC
  5
78A
  8
0
  6
CONTINUOUS
 62
     7
 10
-612.14110999999946
 20
388.09487999999999
 30
0.0
 40
1.0000259
 50
89.587533999999977
 51
270.41246000000001
  0
ARC
  5
78B
  8
0
  6
CONTINUOUS
 62
     7
 10
-629.81017999999995
 20
398.08487000000002
 30
0.0
 40
1.3300148000000001
 50
89.729417999999995
 51
270.27058999999991
  0
ARC
  5
78C
  8
0
  6
CONTINUOUS
 62
     7
 10
-612.14110999999946
 20
408.09487999999988
 30
0.0
 40
1.0000259
 50
89.587533999999977
 51
270.41246000000001
  0
ARC
  5
78D
  8
0
  6
CONTINUOUS
 62
     7
 10
-612.14110999999946
 20
378.09487999999988
 30
0.0
 40
1.0000259
 50
89.587533999999977
 51
270.41246000000001
  0
ARC
  5
78E
  8
0
  6
CONTINUOUS
 62
     7
 10
-629.87207000000001
 20
408.09487999999988
 30
0.0
 40
1.2700266
 50
89.629320999999962
 51
270.37068999999991
  0
ARC
  5
78F
  8
0
  6
CONTINUOUS
 62
     7
 10
-628.58385999999985
 20
398.09487999999999
 30
0.0
 40
1.0000056999999991
 50
90.000003000000007
 51
270.0
  0
ARC
  5
790
  8
0
  6
CONTINUOUS
 62
     7
 10
-624.40075999999965
 20
460.35488999999978
 30
0.0
 40
1.5
 50
280.24788999999998
 51
349.76262000000008
  0
ARC
  5
791
  8
0
  6
CONTINUOUS
 62
     7
 10
-624.40075999999965
 20
365.83487000000002
 30
0.0
 40
1.5
 50
10.23737899999999
 51
79.752110000000002
  0
ARC
  5
792
  8
0
  6
CONTINUOUS
 62
     7
 10
-620.17443999999989
 20
362.10012999999992
 30
0.0
 40
1.9952742999999991
 50
189.96477999999971
 51
269.85142000000002
  0
ARC
  5
793
  8
0
  6
CONTINUOUS
 62
     7
 10
-624.61707000000001
 20
360.55252000000002
 30
0.0
 40
1.502416299999999
 50
12.39188699999999
 51
90.098617000000004
  0
ARC
  5
794
  8
0
  6
CONTINUOUS
 62
     7
 10
-620.23657000000003
 20
356.82192999999978
 30
0.0
 40
1.997119399999999
 50
192.05524
 51
270.19862999999992
  0
ARC
  5
795
  8
0
  6
CONTINUOUS
 62
     7
 10
-620.46387000000004
 20
378.04482999999988
 30
0.0
 40
1.6800002000000001
 50
90.000003000000007
 51
270.0
  0
ARC
  5
796
  8
0
  6
CONTINUOUS
 62
     7
 10
-619.59105999999986
 20
378.09487999999988
 30
0.0
 40
1.0000255999999981
 50
89.589473999999967
 51
270.41052000000002
  0
ARC
  5
797
  8
0
  6
CONTINUOUS
 62
     7
 10
-619.59105999999986
 20
388.09487999999999
 30
0.0
 40
1.0000255999999981
 50
89.589473999999967
 51
270.41052000000002
  0
ARC
  5
798
  8
0
  6
CONTINUOUS
 62
     7
 10
-620.67957000000001
 20
388.06484999999992
 30
0.0
 40
1.460011199999999
 50
89.775248000000005
 51
270.22474
  0
ARC
  5
799
  8
0
  6
CONTINUOUS
 62
     7
 10
-569.8075
 20
347.70485999999983
 30
0.0
 40
1.5
 50
1.5000026999999989
 51
90.000003000000007
  0
ARC
  5
79A
  8
0
  6
CONTINUOUS
 62
     3
 10
-495.11765000000003
 20
344.59487999999999
 30
0.0
 40
1.5
 50
269.99998999999991
 51
327.0
  0
ARC
  5
79B
  8
0
  6
CONTINUOUS
 62
     7
 10
-506.62024000000002
 20
341.59487999999982
 30
0.0
 40
1.5
 50
90.000003000000007
 51
178.5
  0
ARC
  5
79C
  8
0
  6
CONTINUOUS
 62
     7
 10
-492.61389000000003
 20
475.48488999999989
 30
0.0
 40
1.5
 50
12.129792
 51
90.000003000000007
  0
ARC
  5
79D
  8
0
  6
CONTINUOUS
 62
     7
 10
-492.90618999999992
 20
476.84487999999988
 30
0.0
 40
1.5
 50
12.129792
 51
90.000003000000007
  0
ARC
  5
79E
  8
0
  6
CONTINUOUS
 62
     7
 10
-493.05020000000002
 20
477.51492000000002
 30
0.0
 40
1.5
 50
12.129792
 51
90.000003000000007
  0
ARC
  5
79F
  8
0
  6
CONTINUOUS
 62
     7
 10
-490.09386999999998
 20
388.06484999999992
 30
0.0
 40
1.460011199999999
 50
269.77525000000003
 51
90.224749999999986
  0
ARC
  5
7A0
  8
0
  6
CONTINUOUS
 62
     7
 10
-493.79388
 20
388.09487999999999
 30
0.0
 40
1.0000255999999981
 50
269.58947000000001
 51
90.410531000000006
  0
ARC
  5
7A1
  8
0
  6
CONTINUOUS
 62
     7
 10
-490.09386999999998
 20
438.12490999999989
 30
0.0
 40
1.460011199999999
 50
269.77525000000003
 51
90.224749999999986
  0
ARC
  5
7A2
  8
0
  6
CONTINUOUS
 62
     7
 10
-493.79388
 20
438.09487999999988
 30
0.0
 40
1.0000255999999981
 50
269.58947000000001
 51
90.410531000000006
  0
ARC
  5
7A3
  8
0
  6
CONTINUOUS
 62
     7
 10
-557.46887000000004
 20
428.10988999999989
 30
0.0
 40
1.3350147999999991
 50
269.73043000000001
 51
90.269555999999994
  0
ARC
  5
7A4
  8
0
  6
CONTINUOUS
 62
     7
 10
-558.69519000000003
 20
428.09487999999988
 30
0.0
 40
1.0000056999999991
 50
269.99998999999991
 51
90.000003000000007
  0
ARC
  5
7A5
  8
0
  6
CONTINUOUS
 62
     7
 10
-558.69519000000003
 20
418.09487999999999
 30
0.0
 40
1.0000056999999991
 50
269.99998999999991
 51
90.000003000000007
  0
ARC
  5
7A6
  8
0
  6
CONTINUOUS
 62
     7
 10
-557.40697999999998
 20
418.10489000000001
 30
0.0
 40
1.2700266
 50
269.62931999999989
 51
90.370669999999961
  0
ARC
  5
7A7
  8
0
  6
CONTINUOUS
 62
     7
 10
-558.69519000000003
 20
408.09487999999988
 30
0.0
 40
1.0000056999999991
 50
269.99998999999991
 51
90.000003000000007
  0
ARC
  5
7A8
  8
0
  6
CONTINUOUS
 62
     7
 10
-557.40697999999998
 20
408.09487999999988
 30
0.0
 40
1.2700266
 50
269.62931999999989
 51
90.370669999999961
  0
ARC
  5
7A9
  8
0
  6
CONTINUOUS
 62
     7
 10
-558.69519000000003
 20
398.09487999999999
 30
0.0
 40
1.0000056999999991
 50
269.99998999999991
 51
90.000003000000007
  0
ARC
  5
7AA
  8
0
  6
CONTINUOUS
 62
     7
 10
-557.46887000000004
 20
398.08487000000002
 30
0.0
 40
1.3300148000000001
 50
269.72941999999989
 51
90.270567000000014
  0
ARC
  5
7AB
  8
0
  6
CONTINUOUS
 62
     7
 10
-508.13385
 20
385.59487999999999
 30
0.0
 40
1.5
 50
90.000003000000007
 51
180.00001
  0
ARC
  5
7AC
  8
0
  6
CONTINUOUS
 62
     7
 10
-508.13385
 20
380.59487999999988
 30
0.0
 40
1.5
 50
179.99998999999991
 51
270.0
  0
ARC
  5
7AD
  8
0
  6
CONTINUOUS
 62
     7
 10
-526.13385000000005
 20
385.59487999999999
 30
0.0
 40
1.5
 50
0.0
 51
90.000003000000007
  0
ARC
  5
7AE
  8
0
  6
CONTINUOUS
 62
     7
 10
-526.13385000000005
 20
380.59487999999988
 30
0.0
 40
1.5
 50
269.99998999999991
 51
0.00000068324516
  0
ARC
  5
7AF
  8
0
  6
CONTINUOUS
 62
     7
 10
-508.13385
 20
385.59487999999999
 30
0.0
 40
1.02
 50
90.000003000000007
 51
180.00001
  0
ARC
  5
7B0
  8
0
  6
CONTINUOUS
 62
     7
 10
-526.13385000000005
 20
385.59487999999999
 30
0.0
 40
1.02
 50
0.0
 51
90.000003000000007
  0
ARC
  5
7B1
  8
0
  6
CONTINUOUS
 62
     7
 10
-526.11388999999986
 20
380.73489000000001
 30
0.0
 40
1.0
 50
269.99998999999991
 51
0.00000068324625
  0
ARC
  5
7B2
  8
0
  6
CONTINUOUS
 62
     7
 10
-508.15384
 20
380.73489000000001
 30
0.0
 40
1.0
 50
179.99998999999991
 51
270.0
  0
CIRCLE
  5
7B3
  8
0
  6
CONTINUOUS
 62
     3
 10
-519.63385000000005
 20
384.59487999999999
 30
0.0
 40
1.1000000000000001
  0
CIRCLE
  5
7B4
  8
0
  6
CONTINUOUS
 62
     3
 10
-519.63385000000005
 20
384.59487999999999
 30
0.0
 40
1.149999999999999
  0
CIRCLE
  5
7B5
  8
0
  6
CONTINUOUS
 62
     3
 10
-514.63385000000005
 20
384.59487999999999
 30
0.0
 40
1.0
  0
ARC
  5
7B6
  8
0
  6
CONTINUOUS
 62
     7
 10
-508.13385
 20
440.59487999999988
 30
0.0
 40
1.5
 50
179.99998999999991
 51
270.0
  0
ARC
  5
7B7
  8
0
  6
CONTINUOUS
 62
     7
 10
-508.13385
 20
445.59487999999988
 30
0.0
 40
1.5
 50
90.000003000000007
 51
180.00001
  0
ARC
  5
7B8
  8
0
  6
CONTINUOUS
 62
     7
 10
-526.13385000000005
 20
440.59487999999988
 30
0.0
 40
1.5
 50
269.99998999999991
 51
0.00000068324516
  0
ARC
  5
7B9
  8
0
  6
CONTINUOUS
 62
     7
 10
-526.13385000000005
 20
445.59487999999988
 30
0.0
 40
1.5
 50
0.0
 51
90.000003000000007
  0
ARC
  5
7BA
  8
0
  6
CONTINUOUS
 62
     7
 10
-508.13385
 20
440.59487999999988
 30
0.0
 40
1.02
 50
179.99998999999991
 51
270.0
  0
ARC
  5
7BB
  8
0
  6
CONTINUOUS
 62
     7
 10
-526.13385000000005
 20
440.59487999999988
 30
0.0
 40
1.02
 50
269.99998999999991
 51
0.00000068324403
  0
ARC
  5
7BC
  8
0
  6
CONTINUOUS
 62
     7
 10
-526.11388999999986
 20
445.45485999999988
 30
0.0
 40
1.0
 50
0.0
 51
90.000003000000007
  0
ARC
  5
7BD
  8
0
  6
CONTINUOUS
 62
     7
 10
-508.15384
 20
445.45485999999988
 30
0.0
 40
1.0
 50
90.000003000000007
 51
180.00001
  0
CIRCLE
  5
7BE
  8
0
  6
CONTINUOUS
 62
     3
 10
-514.63385000000005
 20
441.59487999999988
 30
0.0
 40
1.0
  0
CIRCLE
  5
7BF
  8
0
  6
CONTINUOUS
 62
     3
 10
-519.63385000000005
 20
441.59487999999988
 30
0.0
 40
1.149999999999999
  0
CIRCLE
  5
7C0
  8
0
  6
CONTINUOUS
 62
     3
 10
-519.63385000000005
 20
441.59487999999988
 30
0.0
 40
1.1000000000000001
  0
ARC
  5
7C1
  8
0
  6
CONTINUOUS
 62
     7
 10
-628.43322999999987
 20
353.42484000000002
 30
0.0
 40
2.0
 50
194.1507499999999
 51
269.99998999999991
  0
ARC
  5
7C2
  8
0
  6
CONTINUOUS
 62
     7
 10
-614.39110999999946
 20
349.92484000000002
 30
0.0
 40
1.5
 50
21.461708999999988
 51
90.000003000000007
  0
ARC
  5
7C3
  8
0
  6
CONTINUOUS
 62
     7
 10
-447.63384999999988
 20
194.97028999999989
 30
0.0
 40
5.0
 50
91.999998000000005
 51
180.00001
  0
ARC
  5
7C4
  8
0
  6
CONTINUOUS
 62
     7
 10
-450.63385
 20
60.603977
 30
0.0
 40
2.0
 50
90.000003000000007
 51
180.00001
  0
ARC
  5
7C5
  8
0
  6
CONTINUOUS
 62
     7
 10
-455.63384999999988
 20
191.6652499999999
 30
0.0
 40
3.0
 50
280.0
 51
0.0
  0
ARC
  5
7C6
  8
0
  6
CONTINUOUS
 62
     7
 10
-444.63385
 20
64.603981000000005
 30
0.0
 40
2.0
 50
270.0
 51
0.0
  0
ARC
  5
7C7
  8
0
  6
CONTINUOUS
 62
     7
 10
-440.63385
 20
202.97214
 30
0.0
 40
2.0
 50
91.999998000000005
 51
163.27365
  0
ARC
  5
7C8
  8
0
  6
CONTINUOUS
 62
     7
 10
-444.63385
 20
148.82002
 30
0.0
 40
2.0
 50
0.0
 51
90.000003000000007
  0
ARC
  5
7C9
  8
0
  6
CONTINUOUS
 62
     7
 10
-447.33767999999992
 20
204.98671999999999
 30
0.0
 40
5.0
 50
272.0
 51
343.27366000000001
  0
ARC
  5
7CA
  8
0
  6
CONTINUOUS
 62
     7
 10
-455.63384999999988
 20
56.630668999999997
 30
0.0
 40
3.0
 50
0.0
 51
79.999998000000005
  0
ARC
  5
7CB
  8
0
  6
CONTINUOUS
 62
     7
 10
-450.63385
 20
176.4820399999999
 30
0.0
 40
2.0
 50
90.000003000000007
 51
180.00001
  0
ARC
  5
7CC
  8
0
  6
CONTINUOUS
 62
     7
 10
-457.01172000000003
 20
56.873615000000001
 30
0.0
 40
3.0
 50
79.999998000000005
 51
88.0
  0
ARC
  5
7CD
  8
0
  6
CONTINUOUS
 62
     7
 10
-457.22125
 20
193.4162
 30
0.0
 40
5.0
 50
272.0
 51
280.0
  0
ARC
  5
7CE
  8
0
  6
CONTINUOUS
 62
     7
 10
-444.63385
 20
155.2971499999999
 30
0.0
 40
2.0
 50
0.0
 51
90.000003000000007
  0
ARC
  5
7CF
  8
0
  6
CONTINUOUS
 62
     7
 10
-450.63385
 20
159.2971499999999
 30
0.0
 40
2.0
 50
179.99998999999991
 51
270.0
  0
ARC
  5
7D0
  8
0
  6
CONTINUOUS
 62
     7
 10
-444.63385
 20
180.48203000000001
 30
0.0
 40
2.0
 50
270.0
 51
0.0
  0
ARC
  5
7D1
  8
0
  6
CONTINUOUS
 62
     3
 10
-638.14068999999995
 20
172.1658799999999
 30
0.0
 40
0.99319202
 50
119.7734
 51
179.87956
  0
ARC
  5
7D2
  8
0
  6
CONTINUOUS
 62
     3
 10
-638.13823999999966
 20
171.1276399999999
 30
0.0
 40
0.99558806
 50
116.58749
 51
179.98224999999991
  0
ARC
  5
7D3
  8
0
  6
CONTINUOUS
 62
     3
 10
-636.87182999999982
 20
172.90207000000001
 30
0.0
 40
0.9959119600000002
 50
89.541443999999998
 51
119.6069899999999
  0
ARC
  5
7D4
  8
0
  6
CONTINUOUS
 62
     3
 10
-636.90905999999995
 20
171.7539399999998
 30
0.0
 40
0.9941280500000002
 50
89.122808000000006
 51
115.93481
  0
ARC
  5
7D5
  8
0
  6
CONTINUOUS
 62
     3
 10
-636.86499000000003
 20
170.79374999999979
 30
0.0
 40
0.9942600099999999
 50
89.355881999999966
 51
120.78109000000001
  0
ARC
  5
7D6
  8
0
  6
CONTINUOUS
 62
     3
 10
-636.89873999999986
 20
169.65259
 30
0.0
 40
0.99546796
 50
89.141447999999983
 51
117.2036599999999
  0
ARC
  5
7D7
  8
0
  6
CONTINUOUS
 62
     3
 10
-636.82720999999981
 20
166.2817499999999
 30
0.0
 40
0.9962120099999999
 50
90.381906000000001
 51
123.9699
  0
ARC
  5
7D8
  8
0
  6
CONTINUOUS
 62
     3
 10
-636.85442999999987
 20
165.14146
 30
0.0
 40
0.9965200400000001
 50
90.541213000000027
 51
120.7432799999999
  0
ARC
  5
7D9
  8
0
  6
CONTINUOUS
 62
     3
 10
-638.13976999999988
 20
164.39113999999981
 30
0.0
 40
0.99407601
 50
120.4692
 51
180.18464
  0
ARC
  5
7DA
  8
0
  6
CONTINUOUS
 62
     3
 10
-638.13904000000002
 20
165.42554999999979
 30
0.0
 40
0.9948279899999999
 50
123.2046899999999
 51
180.43813
  0
ARC
  5
7DB
  8
0
  6
CONTINUOUS
 62
     3
 10
-638.14062999999999
 20
168.98938000000001
 30
0.0
 40
0.9932120399999999
 50
117.7993399999999
 51
180.08183
  0
ARC
  5
7DC
  8
0
  6
CONTINUOUS
 62
     7
 10
-515.63891999999964
 20
101.65302
 30
0.0
 40
5.4981922999999986
 50
84.729479999999981
 51
185.27052
  0
ARC
  5
7DD
  8
0
  6
CONTINUOUS
 62
     7
 10
-560.63860999999986
 20
146.65273999999991
 30
0.0
 40
5.5071000999999971
 50
264.84087999999991
 51
5.1591262000000002
  0
ARC
  5
7DE
  8
0
  6
CONTINUOUS
 62
     3
 10
-509.63367
 20
152.64812000000001
 30
0.0
 40
1.4998400000000001
 50
359.99394000000001
 51
90.006061000000003
  0
ARC
  5
7DF
  8
0
  6
CONTINUOUS
 62
     3
 10
-620.99315999999988
 20
82.928848000000016
 30
0.0
 40
1.004235999999999
 50
314.93782999999991
 51
5.6649238999999989
  0
ARC
  5
7E0
  8
0
  6
CONTINUOUS
 62
     3
 10
-636.93286000000001
 20
158.84247999999999
 30
0.0
 40
0.99548006
 50
90.057320999999988
 51
113.12703
  0
ARC
  5
7E1
  8
0
  6
CONTINUOUS
 62
     3
 10
-638.13940000000002
 20
170.02692999999991
 30
0.0
 40
0.9944360299999999
 50
121.15217
 51
179.9404899999999
  0
ARC
  5
7E2
  8
0
  6
CONTINUOUS
 62
     3
 10
-509.63875999999988
 20
95.652854999999988
 30
0.0
 40
1.5049160999999991
 50
270.18678
 51
359.81322
  0
ARC
  5
7E3
  8
0
  6
CONTINUOUS
 62
     3
 10
-636.99468999999999
 20
156.89524999999981
 30
0.0
 40
0.99277198
 50
89.374808000000016
 51
106.33181999999979
  0
ARC
  5
7E4
  8
0
  6
CONTINUOUS
 62
     3
 10
-638.13756999999976
 20
156.5437
 30
0.0
 40
0.9962600499999998
 50
106.6974899999999
 51
180.33049
  0
ARC
  5
7E5
  8
0
  6
CONTINUOUS
 62
     3
 10
-638.13744999999994
 20
158.32953000000001
 30
0.0
 40
0.99640006
 50
112.8173899999998
 51
180.0903999999999
  0
ARC
  5
7E6
  8
0
  6
CONTINUOUS
 62
     3
 10
-638.13878999999997
 20
149.15288000000001
 30
0.0
 40
0.9950800499999999
 50
89.71592099999998
 51
180.2840699999999
  0
ARC
  5
7E7
  8
0
  6
CONTINUOUS
 62
     3
 10
-638.13367000000017
 20
149.14815999999999
 30
0.0
 40
1.0002040000000001
 50
180.0116699999999
 51
269.9883200000001
  0
ARC
  5
7E8
  8
0
  6
CONTINUOUS
 62
     3
 10
-638.13878999999997
 20
139.15288000000001
 30
0.0
 40
0.99508399
 50
89.716132999999985
 51
180.28387000000001
  0
ARC
  5
7E9
  8
0
  6
CONTINUOUS
 62
     3
 10
-638.13367000000017
 20
139.1481599999999
 30
0.0
 40
1.0001999999999991
 50
180.0114699999998
 51
269.98852999999991
  0
ARC
  5
7EA
  8
0
  6
CONTINUOUS
 62
     3
 10
-638.13878999999997
 20
129.15288999999979
 30
0.0
 40
0.9950879799999999
 50
89.716344999999961
 51
180.28364999999991
  0
ARC
  5
7EB
  8
0
  6
CONTINUOUS
 62
     3
 10
-638.13367000000017
 20
129.14815999999999
 30
0.0
 40
1.0001959999999981
 50
180.01124999999999
 51
269.98874000000001
  0
ARC
  5
7EC
  8
0
  6
CONTINUOUS
 62
     3
 10
-635.1337299999999
 20
127.14811999999991
 30
0.0
 40
0.99984801
 50
359.99121999999988
 51
90.008778999999976
  0
ARC
  5
7ED
  8
0
  6
CONTINUOUS
 62
     3
 10
-635.13872999999978
 20
131.15286
 30
0.0
 40
1.0049238999999981
 50
270.28001
 51
359.71999
  0
ARC
  5
7EE
  8
0
  6
CONTINUOUS
 62
     3
 10
-635.1337299999999
 20
137.14809999999991
 30
0.0
 40
0.9998440099999999
 50
359.99101000000002
 51
90.008991000000023
  0
ARC
  5
7EF
  8
0
  6
CONTINUOUS
 62
     3
 10
-635.13872999999978
 20
141.15288000000001
 30
0.0
 40
1.004928
 50
270.28021999999987
 51
359.71977999999979
  0
ARC
  5
7F0
  8
0
  6
CONTINUOUS
 62
     3
 10
-635.1337299999999
 20
147.14812000000001
 30
0.0
 40
0.99985206
 50
359.99144999999999
 51
90.008546999999993
  0
ARC
  5
7F1
  8
0
  6
CONTINUOUS
 62
     3
 10
-635.13872999999978
 20
151.15288000000001
 30
0.0
 40
1.0049318999999981
 50
270.28041999999999
 51
359.71958000000001
  0
ARC
  5
7F2
  8
0
  6
CONTINUOUS
 62
     3
 10
-635.13214000000005
 20
156.88965999999991
 30
0.0
 40
0.99829602
 50
359.90204
 51
90.097960999999998
  0
ARC
  5
7F3
  8
0
  6
CONTINUOUS
 62
     3
 10
-635.13622999999995
 20
165.13558999999981
 30
0.0
 40
1.002375999999999
 50
0.13559199
 51
89.864409999999964
  0
ARC
  5
7F4
  8
0
  6
CONTINUOUS
 62
     3
 10
-634.83838000000003
 20
160.54249999999979
 30
0.0
 40
0.7045519900000004
 50
270.36910999999992
 51
359.63088999999991
  0
ARC
  5
7F5
  8
0
  6
CONTINUOUS
 62
     3
 10
-635.13280999999995
 20
169.6489599999999
 30
0.0
 40
0.9990080599999998
 50
359.94315
 51
90.056843000000015
  0
ARC
  5
7F6
  8
0
  6
CONTINUOUS
 62
     3
 10
-634.63220000000001
 20
172.2495999999999
 30
0.0
 40
0.4983640000000002
 50
359.81141000000002
 51
90.188598000000013
  0
ARC
  5
7F7
  8
0
  6
CONTINUOUS
 62
     3
 10
-634.63842999999963
 20
174.40256999999991
 30
0.0
 40
0.5046359900000002
 50
270.52375999999992
 51
359.47624000000002
  0
ARC
  5
7F8
  8
0
  6
CONTINUOUS
 62
     3
 10
-486.13363999999979
 20
61.648147999999999
 30
0.0
 40
1.0001799999999981
 50
180.01031
 51
269.98967999999968
  0
ARC
  5
7F9
  8
0
  6
CONTINUOUS
 62
     3
 10
-494.32915999999989
 20
64.293357999999998
 30
0.0
 40
2.0053917999999991
 50
270.15275000000003
 51
344.81207000000001
  0
ARC
  5
7FA
  8
0
  6
CONTINUOUS
 62
     3
 10
-486.13436999999988
 20
73.107437000000004
 30
0.0
 40
0.9994760199999999
 50
179.97008999999991
 51
270.02991999999989
  0
ARC
  5
7FB
  8
0
  6
CONTINUOUS
 62
     3
 10
-612.13860999999963
 20
129.14795000000001
 30
0.0
 40
1.0000119000000001
 50
89.726507999999981
 51
270.27347999999989
  0
ARC
  5
7FC
  8
0
  6
CONTINUOUS
 62
     3
 10
-627.91278
 20
175.1355299999999
 30
0.0
 40
1.9924479999999991
 50
89.742107999999988
 51
169.8117899999998
  0
ARC
  5
7FD
  8
0
  6
CONTINUOUS
 62
     3
 10
-627.96899000000008
 20
180.41866999999991
 30
0.0
 40
1.999288
 50
89.851815000000016
 51
167.89433
  0
ARC
  5
7FE
  8
0
  6
CONTINUOUS
 62
     3
 10
-632.34954999999979
 20
176.68818999999999
 30
0.0
 40
1.500248
 50
270.21661999999992
 51
347.67500000000001
  0
ARC
  5
7FF
  8
0
  6
CONTINUOUS
 62
     3
 10
-628.00176999999996
 20
183.82343999999989
 30
0.0
 40
1.9945159999999991
 50
89.771334999999979
 51
166.8280399999999
  0
ARC
  5
800
  8
0
  6
CONTINUOUS
 62
     3
 10
-632.32543999999984
 20
180.7517399999999
 30
0.0
 40
1.503776
 50
270.05984000000001
 51
346.39312999999999
  0
ARC
  5
801
  8
0
  6
CONTINUOUS
 62
     3
 10
-632.31255999999996
 20
182.77116000000001
 30
0.0
 40
1.503231999999997
 50
270.33132000000001
 51
346.01802999999978
  0
ARC
  5
802
  8
0
  6
CONTINUOUS
 62
     3
 10
-628.02728000000002
 20
185.4511399999999
 30
0.0
 40
1.996815999999999
 50
89.901436000000004
 51
165.88940999999991
  0
ARC
  5
803
  8
0
  6
CONTINUOUS
 62
     3
 10
-611.13849000000005
 20
184.0125899999999
 30
0.0
 40
1.9953640999999991
 50
89.866758999999988
 51
180.13323
  0
ARC
  5
804
  8
0
  6
CONTINUOUS
 62
     3
 10
-611.13762999999994
 20
186.04176000000001
 30
0.0
 40
1.9961880000000001
 50
89.890486999999965
 51
180.10950999999989
  0
ARC
  5
805
  8
0
  6
CONTINUOUS
 62
     3
 10
-611.14031999999975
 20
187.39440999999991
 30
0.0
 40
1.9935560999999991
 50
89.814515
 51
180.18548999999999
  0
ARC
  5
806
  8
0
  6
CONTINUOUS
 62
     3
 10
-611.13830999999982
 20
188.06922999999981
 30
0.0
 40
1.9987239999999991
 50
89.871137000000004
 51
165.55096
  0
ARC
  5
807
  8
0
  6
CONTINUOUS
 62
     3
 10
-614.64056000000005
 20
178.63463999999999
 30
0.0
 40
1.506699899999999
 50
270.2541599999999
 51
359.74583999999987
  0
ARC
  5
808
  8
0
  6
CONTINUOUS
 62
     3
 10
-614.63671999999997
 20
183.9207899999999
 30
0.0
 40
1.5028360000000001
 50
270.10793999999999
 51
359.89206000000001
  0
ARC
  5
809
  8
0
  6
CONTINUOUS
 62
     3
 10
-614.63873000000001
 20
187.32281
 30
0.0
 40
1.5048719999999991
 50
270.18518
 51
359.81482
  0
ARC
  5
80A
  8
0
  6
CONTINUOUS
 62
     3
 10
-614.52722000000006
 20
188.9509699999999
 30
0.0
 40
1.503015999999997
 50
270.12945000000002
 51
345.23653999999999
  0
ARC
  5
80B
  8
0
  6
CONTINUOUS
 62
     3
 10
-558.13477
 20
186.0370299999999
 30
0.0
 40
2.0009238999999992
 50
0.026462999
 51
89.973535999999982
  0
ARC
  5
80C
  8
0
  6
CONTINUOUS
 62
     3
 10
-558.13214000000005
 20
187.3896499999999
 30
0.0
 40
1.9982919999999991
 50
359.95102999999978
 51
90.048975000000013
  0
ARC
  5
80D
  8
0
  6
CONTINUOUS
 62
     3
 10
-558.13567999999998
 20
188.0661299999999
 30
0.0
 40
2.0018279999999971
 50
0.052301
 51
89.947696999999977
  0
ARC
  5
80E
  8
0
  6
CONTINUOUS
 62
     3
 10
-487.48357999999968
 20
172.00034999999991
 30
0.0
 40
1.502391899999999
 50
195.1400099999999
 51
269.99063999999998
  0
ARC
  5
80F
  8
0
  6
CONTINUOUS
 62
     3
 10
-494.32427999999999
 20
184.00897000000001
 30
0.0
 40
1.998987899999999
 50
15.047801
 51
89.987373000000005
  0
ARC
  5
810
  8
0
  6
CONTINUOUS
 62
     3
 10
-486.13882000000001
 20
186.65290999999991
 30
0.0
 40
0.9950640200000001
 50
89.714938000000004
 51
180.28505999999999
  0
ARC
  5
811
  8
0
  6
CONTINUOUS
 62
     3
 10
-486.13946999999979
 20
175.19356999999991
 30
0.0
 40
0.9944000200000001
 50
89.676490999999999
 51
180.32351
  0
ARC
  5
812
  8
0
  6
CONTINUOUS
 62
     3
 10
-487.42797999999999
 20
176.68841999999981
 30
0.0
 40
1.500475999999999
 50
192.33223000000001
 51
270.15827999999999
  0
ARC
  5
813
  8
0
  6
CONTINUOUS
 62
     3
 10
-492.28640999999988
 20
182.6514699999999
 30
0.0
 40
1.996488
 50
12.040875
 51
89.926440999999969
  0
ARC
  5
814
  8
0
  6
CONTINUOUS
 62
     3
 10
-635.13720999999975
 20
91.411308000000005
 30
0.0
 40
1.003363999999999
 50
270.19171
 51
359.80827999999991
  0
ARC
  5
815
  8
0
  6
CONTINUOUS
 62
     3
 10
-635.13872999999978
 20
101.15286
 30
0.0
 40
1.0049238999999981
 50
270.28003999999999
 51
359.71996999999988
  0
ARC
  5
816
  8
0
  6
CONTINUOUS
 62
     3
 10
-635.1337299999999
 20
97.148116999999999
 30
0.0
 40
0.99984801
 50
359.99119000000002
 51
90.008807000000004
  0
ARC
  5
817
  8
0
  6
CONTINUOUS
 62
     3
 10
-634.83325000000002
 20
87.758514000000005
 30
0.0
 40
0.69944
 50
359.95416
 51
90.045839999999984
  0
ARC
  5
818
  8
0
  6
CONTINUOUS
 62
     3
 10
-636.93084999999985
 20
89.463181000000006
 30
0.0
 40
1.005223999999999
 50
246.98628999999991
 51
269.82935999999989
  0
ARC
  5
819
  8
0
  6
CONTINUOUS
 62
     3
 10
-636.99334999999996
 20
91.410645000000002
 30
0.0
 40
1.0027280000000001
 50
253.75297
 51
270.54039999999992
  0
ARC
  5
81A
  8
0
  6
CONTINUOUS
 62
     3
 10
-638.13744999999994
 20
91.762298999999999
 30
0.0
 40
0.9963800299999999
 50
180.24948999999981
 51
253.29706999999991
  0
ARC
  5
81B
  8
0
  6
CONTINUOUS
 62
     3
 10
-638.13738999999975
 20
89.976425000000006
 30
0.0
 40
0.9964760499999998
 50
179.91257999999991
 51
247.17966000000001
  0
ARC
  5
81C
  8
0
  6
CONTINUOUS
 62
     3
 10
-638.13367000000017
 20
99.148155000000017
 30
0.0
 40
1.0001959999999981
 50
180.01127999999991
 51
269.98872
  0
ARC
  5
81D
  8
0
  6
CONTINUOUS
 62
     3
 10
-638.13878999999997
 20
99.152893000000006
 30
0.0
 40
0.99508399
 50
89.716324
 51
180.28368
  0
ARC
  5
81E
  8
0
  6
CONTINUOUS
 62
     3
 10
-638.13367000000017
 20
109.14816
 30
0.0
 40
1.0001999999999991
 50
180.01150000000001
 51
269.98851000000002
  0
ARC
  5
81F
  8
0
  6
CONTINUOUS
 62
     3
 10
-638.13878999999997
 20
109.15288
 30
0.0
 40
0.99508399
 50
89.716106000000025
 51
180.2838899999999
  0
ARC
  5
820
  8
0
  6
CONTINUOUS
 62
     3
 10
-638.13367000000017
 20
119.14816999999979
 30
0.0
 40
1.0002040000000001
 50
180.01169999999999
 51
269.98829999999992
  0
ARC
  5
821
  8
0
  6
CONTINUOUS
 62
     3
 10
-638.13878999999997
 20
119.1528899999999
 30
0.0
 40
0.9950800499999999
 50
89.715893999999963
 51
180.2841
  0
ARC
  5
822
  8
0
  6
CONTINUOUS
 62
     3
 10
-635.13878999999974
 20
121.15288
 30
0.0
 40
1.0049318999999981
 50
270.28044999999992
 51
359.71955000000008
  0
ARC
  5
823
  8
0
  6
CONTINUOUS
 62
     3
 10
-635.1337299999999
 20
117.14811
 30
0.0
 40
0.99985206
 50
359.99142999999998
 51
90.008574000000024
  0
ARC
  5
824
  8
0
  6
CONTINUOUS
 62
     3
 10
-635.13872999999978
 20
111.15286999999999
 30
0.0
 40
1.004928
 50
270.28023999999988
 51
359.71976000000001
  0
ARC
  5
825
  8
0
  6
CONTINUOUS
 62
     3
 10
-635.1337299999999
 20
107.1481
 30
0.0
 40
0.9998440099999999
 50
359.99097999999992
 51
90.00901800000004
  0
ARC
  5
826
  8
0
  6
CONTINUOUS
 62
     3
 10
-624.97559000000001
 20
165.74077
 30
0.0
 40
5.004112199999998
 50
279.68356999999992
 51
354.57833999999991
  0
ARC
  5
827
  8
0
  6
CONTINUOUS
 62
     3
 10
-624.51306
 20
161.81503000000001
 30
0.0
 40
6.0049156999999971
 50
45.22730700000001
 51
86.379093999999981
  0
ARC
  5
828
  8
0
  6
CONTINUOUS
 62
     3
 10
-620.98992999999996
 20
165.3682399999999
 30
0.0
 40
1.0011080999999991
 50
354.25024999999982
 51
45.146993999999992
  0
ARC
  5
829
  8
0
  6
CONTINUOUS
 62
     3
 10
-492.29137999999989
 20
65.650581000000003
 30
0.0
 40
2.0026237999999981
 50
270.21533999999991
 51
347.81734
  0
ARC
  5
82A
  8
0
  6
CONTINUOUS
 62
     3
 10
-487.42678999999993
 20
71.618651999999997
 30
0.0
 40
1.499328
 50
89.888150999999979
 51
168.09384
  0
ARC
  5
82B
  8
0
  6
CONTINUOUS
 62
     3
 10
-624.50391000000002
 20
86.495131999999984
 30
0.0
 40
6.0085920999999987
 50
273.53095000000002
 51
314.61478
  0
ARC
  5
82C
  8
0
  6
CONTINUOUS
 62
     3
 10
-624.97046
 20
82.559890999999979
 30
0.0
 40
4.9985837999999987
 50
5.3731198999999981
 51
80.364975999999999
  0
ARC
  5
82D
  8
0
  6
CONTINUOUS
 62
     3
 10
-638.13622999999995
 20
76.132637000000003
 30
0.0
 40
0.9976240400000001
 50
180.2675099999999
 51
240.07953999999981
  0
ARC
  5
82E
  8
0
  6
CONTINUOUS
 62
     3
 10
-638.13818000000003
 20
77.178329000000005
 30
0.0
 40
0.99566799
 50
180.02043
 51
243.40982999999991
  0
ARC
  5
82F
  8
0
  6
CONTINUOUS
 62
     3
 10
-636.85315000000003
 20
75.399047999999979
 30
0.0
 40
1.0011358999999991
 50
239.328
 51
269.38751000000002
  0
ARC
  5
830
  8
0
  6
CONTINUOUS
 62
     3
 10
-636.88805999999977
 20
76.547234000000003
 30
0.0
 40
0.99928796
 50
242.86126999999991
 51
269.66618999999992
  0
ARC
  5
831
  8
0
  6
CONTINUOUS
 62
     3
 10
-636.86249000000021
 20
77.511627000000004
 30
0.0
 40
1.003687999999999
 50
239.37027
 51
270.49275
  0
ARC
  5
832
  8
0
  6
CONTINUOUS
 62
     3
 10
-636.87872000000004
 20
78.648597999999964
 30
0.0
 40
1.0006280000000001
 50
241.64985999999999
 51
269.70470999999992
  0
ARC
  5
833
  8
0
  6
CONTINUOUS
 62
     3
 10
-636.84105999999986
 20
82.028473000000005
 30
0.0
 40
1.0005360000000001
 50
237.1464
 51
270.41322000000002
  0
ARC
  5
834
  8
0
  6
CONTINUOUS
 62
     3
 10
-636.8704799999997
 20
83.168968000000007
 30
0.0
 40
1.001012
 50
240.47136
 51
270.3802
  0
ARC
  5
835
  8
0
  6
CONTINUOUS
 62
     3
 10
-638.13477
 20
82.872658000000001
 30
0.0
 40
0.9991000299999999
 50
179.69542000000001
 51
236.66176999999999
  0
ARC
  5
836
  8
0
  6
CONTINUOUS
 62
     3
 10
-638.1361099999998
 20
79.309264999999982
 30
0.0
 40
0.99770796
 50
180.0740499999998
 51
242.04476
  0
ARC
  5
837
  8
0
  6
CONTINUOUS
 62
     3
 10
-638.13507000000004
 20
78.271468999999982
 30
0.0
 40
0.9987800700000001
 50
179.6266699999999
 51
238.70855
  0
ARC
  5
838
  8
0
  6
CONTINUOUS
 62
     3
 10
-635.13629000000003
 20
83.170432999999989
 30
0.0
 40
1.002459999999999
 50
270.14037999999999
 51
359.85962000000001
  0
ARC
  5
839
  8
0
  6
CONTINUOUS
 62
     3
 10
-638.13538000000017
 20
83.907257000000001
 30
0.0
 40
0.9984599899999999
 50
179.95962
 51
239.38655
  0
ARC
  5
83A
  8
0
  6
CONTINUOUS
 62
     3
 10
-635.13793999999984
 20
78.652054000000007
 30
0.0
 40
1.0040839999999991
 50
270.23262999999992
 51
359.76737000000008
  0
ARC
  5
83B
  8
0
  6
CONTINUOUS
 62
     3
 10
-634.63726999999994
 20
76.051361
 30
0.0
 40
0.50340396
 50
270.38612999999992
 51
359.61387000000002
  0
ARC
  5
83C
  8
0
  6
CONTINUOUS
 62
     3
 10
-634.63342
 20
73.898406999999963
 30
0.0
 40
0.49955601
 50
359.94911000000002
 51
90.050894000000014
  0
ARC
  5
83D
  8
0
  6
CONTINUOUS
 62
     3
 10
-627.90784000000019
 20
73.166397000000003
 30
0.0
 40
1.998443999999999
 50
190.33239999999989
 51
270.11368999999979
  0
ARC
  5
83E
  8
0
  6
CONTINUOUS
 62
     3
 10
-627.96893
 20
67.887352000000007
 30
0.0
 40
1.9993919999999981
 50
192.1080399999999
 51
270.14582000000001
  0
ARC
  5
83F
  8
0
  6
CONTINUOUS
 62
     3
 10
-632.35071000000005
 20
71.618881000000002
 30
0.0
 40
1.4991000000000001
 50
11.89856
 51
89.736657999999963
  0
ARC
  5
840
  8
0
  6
CONTINUOUS
 62
     3
 10
-627.99682999999982
 20
64.478729000000001
 30
0.0
 40
2.0007559999999991
 50
193.3141599999999
 51
270.08645000000001
  0
ARC
  5
841
  8
0
  6
CONTINUOUS
 62
     3
 10
-632.32050000000004
 20
67.550460999999999
 30
0.0
 40
1.497512
 50
13.418233000000001
 51
90.128792999999988
  0
ARC
  5
842
  8
0
  6
CONTINUOUS
 62
     3
 10
-632.30602999999985
 20
65.529845999999992
 30
0.0
 40
1.4981281
 50
14.224575
 51
89.916113999999979
  0
ARC
  5
843
  8
0
  6
CONTINUOUS
 62
     3
 10
-628.02233999999964
 20
62.851104999999997
 30
0.0
 40
2.0031319000000001
 50
194.25158999999999
 51
269.95755000000003
  0
ARC
  5
844
  8
0
  6
CONTINUOUS
 62
     3
 10
-611.13335999999981
 20
64.288414000000003
 30
0.0
 40
2.0004520000000001
 50
180.0129
 51
269.98709999999988
  0
ARC
  5
845
  8
0
  6
CONTINUOUS
 62
     3
 10
-611.1325099999998
 20
62.259284999999998
 30
0.0
 40
2.0013119999999991
 50
180.03756000000001
 51
269.96244000000002
  0
ARC
  5
846
  8
0
  6
CONTINUOUS
 62
     3
 10
-611.13518999999985
 20
60.906593000000008
 30
0.0
 40
1.9986198999999969
 50
179.9604699999999
 51
270.03952999999967
  0
ARC
  5
847
  8
0
  6
CONTINUOUS
 62
     3
 10
-611.13989000000004
 20
60.23802899999999
 30
0.0
 40
2.000076099999998
 50
194.77497999999991
 51
270.17352999999991
  0
ARC
  5
848
  8
0
  6
CONTINUOUS
 62
     3
 10
-614.63543999999979
 20
69.666405000000012
 30
0.0
 40
1.501567999999998
 50
0.059805003
 51
89.940196999999998
  0
ARC
  5
849
  8
0
  6
CONTINUOUS
 62
     3
 10
-614.63653999999985
 20
64.385254000000003
 30
0.0
 40
1.502715899999999
 50
0.103436
 51
89.896566000000007
  0
ARC
  5
84A
  8
0
  6
CONTINUOUS
 62
     3
 10
-614.63360999999998
 20
60.97820999999999
 30
0.0
 40
1.499755999999999
 50
359.99058999999983
 51
90.009407999999965
  0
ARC
  5
84B
  8
0
  6
CONTINUOUS
 62
     3
 10
-614.5222799999998
 20
59.351317999999999
 30
0.0
 40
1.4966440000000001
 50
14.57574
 51
90.058278000000001
  0
ARC
  5
84C
  8
0
  6
CONTINUOUS
 62
     3
 10
-558.13989000000004
 20
62.263999999999989
 30
0.0
 40
2.0060479999999981
 50
270.17248999999998
 51
359.82751000000002
  0
ARC
  5
84D
  8
0
  6
CONTINUOUS
 62
     3
 10
-558.13720999999998
 20
60.911330999999997
 30
0.0
 40
2.0033560000000001
 50
270.09593999999998
 51
359.90406000000002
  0
ARC
  5
84E
  8
0
  6
CONTINUOUS
 62
     3
 10
-558.13574000000006
 20
60.239860999999998
 30
0.0
 40
2.0019
 50
270.05437999999992
 51
359.94562000000002
  0
ARC
  5
84F
  8
0
  6
CONTINUOUS
 62
     3
 10
-487.48849000000001
 20
76.301986999999983
 30
0.0
 40
1.495995999999999
 50
89.821707000000004
 51
165.04766000000001
  0
ARC
  5
850
  8
0
  6
CONTINUOUS
 62
     3
 10
-612.13860999999963
 20
139.14796000000001
 30
0.0
 40
1.0000119000000001
 50
89.726507999999981
 51
270.27347999999989
  0
ARC
  5
851
  8
0
  6
CONTINUOUS
 62
     3
 10
-612.13860999999963
 20
149.14796000000001
 30
0.0
 40
1.0000119000000001
 50
89.726507999999981
 51
270.27347999999989
  0
ARC
  5
852
  8
0
  6
CONTINUOUS
 62
     3
 10
-612.13860999999963
 20
159.14795000000001
 30
0.0
 40
1.0000119000000001
 50
89.726507999999981
 51
270.27347999999989
  0
ARC
  5
853
  8
0
  6
CONTINUOUS
 62
     3
 10
-629.86963000000003
 20
129.1529699999999
 30
0.0
 40
1.265012
 50
89.737716000000006
 51
270.26227999999992
  0
ARC
  5
854
  8
0
  6
CONTINUOUS
 62
     3
 10
-629.80382999999995
 20
139.15796
 30
0.0
 40
1.3300080000000001
 50
90.000003000000007
 51
270.0
  0
ARC
  5
855
  8
0
  6
CONTINUOUS
 62
     3
 10
-620.67389000000003
 20
149.17295999999999
 30
0.0
 40
1.465004
 50
90.000003000000007
 51
270.0
  0
ARC
  5
856
  8
0
  6
CONTINUOUS
 62
     3
 10
-620.46068999999989
 20
159.19294999999991
 30
0.0
 40
1.6750160000000001
 50
89.766540000000006
 51
270.23345999999992
  0
ARC
  5
857
  8
0
  6
CONTINUOUS
 62
     3
 10
-628.58385999999985
 20
129.14795000000001
 30
0.0
 40
1.0
 50
90.000003000000007
 51
270.0
  0
ARC
  5
858
  8
0
  6
CONTINUOUS
 62
     3
 10
-628.58385999999985
 20
139.14796000000001
 30
0.0
 40
1.0
 50
90.000003000000007
 51
270.0
  0
ARC
  5
859
  8
0
  6
CONTINUOUS
 62
     3
 10
-619.58861999999999
 20
159.14795000000001
 30
0.0
 40
1.0000119000000001
 50
89.728448
 51
270.27154000000002
  0
ARC
  5
85A
  8
0
  6
CONTINUOUS
 62
     3
 10
-619.58861999999999
 20
149.14796000000001
 30
0.0
 40
1.0000119000000001
 50
89.728448
 51
270.27154000000002
  0
ARC
  5
85B
  8
0
  6
CONTINUOUS
 62
     3
 10
-506.83733999999993
 20
156.5214499999999
 30
0.0
 40
0.996512
 50
89.798963000000015
 51
180.20103
  0
ARC
  5
85C
  8
0
  6
CONTINUOUS
 62
     3
 10
-506.83260999999999
 20
155.4186999999998
 30
0.0
 40
1.001239999999999
 50
180.04312999999991
 51
268.21195999999992
  0
ARC
  5
85D
  8
0
  6
CONTINUOUS
 62
     3
 10
-506.83770999999979
 20
92.882125999999985
 30
0.0
 40
0.99615997
 50
91.504365000000007
 51
180.24055000000001
  0
ARC
  5
85E
  8
0
  6
CONTINUOUS
 62
     3
 10
-506.83224000000001
 20
91.779555999999999
 30
0.0
 40
1.001595999999999
 50
180.09126000000001
 51
269.90875
  0
ARC
  5
85F
  8
0
  6
CONTINUOUS
 62
     3
 10
-490.31384000000003
 20
159.19294999999991
 30
0.0
 40
1.6750041
 50
270.0
 51
90.000003000000007
  0
ARC
  5
860
  8
0
  6
CONTINUOUS
 62
     3
 10
-493.79385000000002
 20
159.14795000000001
 30
0.0
 40
1.0
 50
270.0
 51
90.000003000000007
  0
ARC
  5
861
  8
0
  6
CONTINUOUS
 62
     3
 10
-493.79385000000002
 20
89.147964000000002
 30
0.0
 40
1.0
 50
270.0
 51
90.000003000000007
  0
ARC
  5
862
  8
0
  6
CONTINUOUS
 62
     3
 10
-490.31384000000003
 20
89.102965999999981
 30
0.0
 40
1.6750041
 50
270.0
 51
90.000003000000007
  0
ARC
  5
863
  8
0
  6
CONTINUOUS
 62
     3
 10
-628.58385999999985
 20
119.14796
 30
0.0
 40
1.0
 50
90.000003000000007
 51
270.0
  0
ARC
  5
864
  8
0
  6
CONTINUOUS
 62
     3
 10
-612.13860999999963
 20
109.14796
 30
0.0
 40
1.0000119000000001
 50
89.726507999999981
 51
270.27347999999989
  0
ARC
  5
865
  8
0
  6
CONTINUOUS
 62
     3
 10
-612.13860999999963
 20
99.147948999999997
 30
0.0
 40
1.0000119000000001
 50
89.726507999999981
 51
270.27347999999989
  0
ARC
  5
866
  8
0
  6
CONTINUOUS
 62
     3
 10
-629.80382999999995
 20
109.13795
 30
0.0
 40
1.3300080000000001
 50
90.000003000000007
 51
270.0
  0
ARC
  5
867
  8
0
  6
CONTINUOUS
 62
     3
 10
-629.67389000000003
 20
99.122955000000005
 30
0.0
 40
1.465004
 50
90.000003000000007
 51
270.0
  0
ARC
  5
868
  8
0
  6
CONTINUOUS
 62
     3
 10
-628.58861999999999
 20
89.147964000000002
 30
0.0
 40
1.0000119000000001
 50
89.728461999999965
 51
270.27154000000002
  0
ARC
  5
869
  8
0
  6
CONTINUOUS
 62
     3
 10
-612.13860999999963
 20
119.14796
 30
0.0
 40
1.0000119000000001
 50
89.726507999999981
 51
270.27347999999989
  0
ARC
  5
86A
  8
0
  6
CONTINUOUS
 62
     3
 10
-612.13860999999963
 20
89.147964000000002
 30
0.0
 40
1.0000119000000001
 50
89.726507999999981
 51
270.27347999999989
  0
ARC
  5
86B
  8
0
  6
CONTINUOUS
 62
     3
 10
-629.86963000000003
 20
119.14796
 30
0.0
 40
1.270011999999999
 50
89.738748000000001
 51
270.26123999999999
  0
ARC
  5
86C
  8
0
  6
CONTINUOUS
 62
     3
 10
-629.46074999999985
 20
89.102965999999981
 30
0.0
 40
1.6750160000000001
 50
89.764983000000015
 51
270.23500999999987
  0
ARC
  5
86D
  8
0
  6
CONTINUOUS
 62
     3
 10
-628.58385999999985
 20
109.14796
 30
0.0
 40
1.0
 50
90.000003000000007
 51
270.0
  0
ARC
  5
86E
  8
0
  6
CONTINUOUS
 62
     3
 10
-628.58861999999999
 20
99.147948999999997
 30
0.0
 40
1.0000119000000001
 50
89.728461999999965
 51
270.27154000000002
  0
CIRCLE
  5
86F
  8
0
  6
CONTINUOUS
 62
     7
 10
-145.2809399999999
 20
147.34795
 30
0.0
 40
4.0
  0
ARC
  5
870
  8
0
  6
CONTINUOUS
 62
     7
 10
-145.2809399999999
 20
147.34795
 30
0.0
 40
14.00000099999999
 50
106.6015399999999
 51
73.398452000000006
  0
CIRCLE
  5
871
  8
0
  6
CONTINUOUS
 62
     7
 10
-145.2809399999999
 20
147.34795
 30
0.0
 40
3.0
  0
ARC
  5
872
  8
0
  6
CONTINUOUS
 62
     7
 10
-410.63222999999999
 20
78.211844999999983
 30
0.0
 40
7.331658799999996
 50
90.000003000000007
 51
270.0
  0
ARC
  5
873
  8
0
  6
CONTINUOUS
 62
     7
 10
-145.2809399999999
 20
124.14796
 30
0.0
 40
81.0
 50
93.75419500000001
 51
121.13906
  0
ARC
  5
874
  8
0
  6
CONTINUOUS
 62
     7
 10
-145.2809399999999
 20
124.14796
 30
0.0
 40
76.0
 50
358.60644999999982
 51
12.760202
  0
ARC
  5
875
  8
0
  6
CONTINUOUS
 62
     7
 10
-145.2809399999999
 20
124.14796
 30
0.0
 40
76.0
 50
167.2398
 51
181.39354
  0
ARC
  5
876
  8
0
  6
CONTINUOUS
 62
     7
 10
-145.2809399999999
 20
147.34795
 30
0.0
 40
74.400002000000001
 50
171.8834499999999
 51
184.9454199999999
  0
ARC
  5
877
  8
0
  6
CONTINUOUS
 62
     7
 10
-220.39597999999981
 20
222.4629799999999
 30
0.0
 40
15.0
 50
92.999999000000017
 51
176.99999
  0
ARC
  5
878
  8
0
  6
CONTINUOUS
 62
     7
 10
-70.165931999999984
 20
222.4629799999999
 30
0.0
 40
15.0
 50
3.0000000999999981
 51
86.999998999999988
  0
ARC
  5
879
  8
0
  6
CONTINUOUS
 62
     7
 10
-70.165931999999984
 20
72.232910000000004
 30
0.0
 40
15.0
 50
273.0
 51
357.0
  0
ARC
  5
87A
  8
0
  6
CONTINUOUS
 62
     7
 10
-139.78093999999979
 20
207.96768
 30
0.0
 40
3.0
 50
180.00001
 51
266.24579999999992
  0
ARC
  5
87B
  8
0
  6
CONTINUOUS
 62
     7
 10
-70.165931999999984
 20
222.4629799999999
 30
0.0
 40
15.0
 50
3.0000000999999981
 51
86.999998999999988
  0
ARC
  5
87C
  8
0
  6
CONTINUOUS
 62
     7
 10
-150.78093999999999
 20
218.5357799999999
 30
0.0
 40
3.0
 50
0.0
 51
94.417918999999998
  0
ARC
  5
87D
  8
0
  6
CONTINUOUS
 62
     7
 10
-70.165931999999984
 20
72.232910000000004
 30
0.0
 40
15.0
 50
273.0
 51
357.0
  0
ARC
  5
87E
  8
0
  6
CONTINUOUS
 62
     7
 10
-139.78093999999979
 20
218.5357799999999
 30
0.0
 40
3.0
 50
85.582086000000032
 51
180.00001
  0
ARC
  5
87F
  8
0
  6
CONTINUOUS
 62
     7
 10
-145.2809399999999
 20
147.34795
 30
0.0
 40
74.400002000000001
 50
355.05457999999999
 51
8.1165494000000002
  0
ARC
  5
880
  8
0
  6
CONTINUOUS
 62
     7
 10
-220.39597999999981
 20
72.232910000000004
 30
0.0
 40
15.0
 50
183.00001
 51
267.0
  0
ARC
  5
881
  8
0
  6
CONTINUOUS
 62
     7
 10
-351.98858999999987
 20
138.11571999999981
 30
0.0
 40
24.83221099999999
 50
169.38167999999999
 51
218.79320999999999
  0
ARC
  5
882
  8
0
  6
CONTINUOUS
 62
     7
 10
-145.2809399999999
 20
124.14796
 30
0.0
 40
81.0
 50
125.47417
 51
155.4112299999999
  0
ARC
  5
883
  8
0
  6
CONTINUOUS
 62
     7
 10
-396.46609000000001
 20
170.39795000000001
 30
0.0
 40
24.83221099999999
 50
349.38167999999979
 51
47.544066000000001
  0
ARC
  5
884
  8
0
  6
CONTINUOUS
 62
     7
 10
-101.28095
 20
124.14796
 30
0.0
 40
5.0
 50
179.99998999999991
 51
270.0
  0
ARC
  5
885
  8
0
  6
CONTINUOUS
 62
     7
 10
-367.63387999999992
 20
57.605328
 30
0.0
 40
3.0
 50
179.99998999999991
 51
271.99998999999991
  0
ARC
  5
886
  8
0
  6
CONTINUOUS
 62
     7
 10
-367.63387999999992
 20
92.977294999999998
 30
0.0
 40
3.0
 50
90.000003000000007
 51
180.00001
  0
ARC
  5
887
  8
0
  6
CONTINUOUS
 62
     7
 10
-145.2809399999999
 20
147.34795
 30
0.0
 40
39.000011000000001
 50
0.0
 51
36.786791000000001
  0
ARC
  5
888
  8
0
  6
CONTINUOUS
 62
     7
 10
-369.63384999999988
 20
217.52022999999991
 30
0.0
 40
3.0
 50
0.0
 51
91.999998000000005
  0
ARC
  5
889
  8
0
  6
CONTINUOUS
 62
     7
 10
-369.63384999999988
 20
76.847938999999982
 30
0.0
 40
3.0
 50
270.0
 51
0.0
  0
ARC
  5
88A
  8
0
  6
CONTINUOUS
 62
     7
 10
-170.43218999999999
 20
180.98446999999999
 30
0.0
 40
3.0
 50
225.0
 51
306.78678999999988
  0
ARC
  5
88B
  8
0
  6
CONTINUOUS
 62
     7
 10
-178.91747000000001
 20
172.49917999999991
 30
0.0
 40
3.0
 50
323.21321
 51
45.00000099999999
  0
ARC
  5
88C
  8
0
  6
CONTINUOUS
 62
     7
 10
-145.2809399999999
 20
147.34795
 30
0.0
 40
39.000011000000001
 50
53.213208000000002
 51
126.78679
  0
ARC
  5
88D
  8
0
  6
CONTINUOUS
 62
     7
 10
-195.3199799999999
 20
205.87225000000001
 30
0.0
 40
3.0
 50
130.5308599999999
 51
225.0
  0
ARC
  5
88E
  8
0
  6
CONTINUOUS
 62
     7
 10
-145.2809399999999
 20
124.14796
 30
0.0
 40
81.0
 50
58.860945000000001
 51
86.245803000000024
  0
ARC
  5
88F
  8
0
  6
CONTINUOUS
 62
     7
 10
-145.2809399999999
 20
147.34795
 30
0.0
 40
39.000011000000001
 50
143.21321
 51
180.00001
  0
ARC
  5
890
  8
0
  6
CONTINUOUS
 62
     7
 10
-189.28095999999991
 20
124.14796
 30
0.0
 40
5.0
 50
270.0
 51
0.0
  0
ARC
  5
891
  8
0
  6
CONTINUOUS
 62
     7
 10
-176.6131
 20
44.058659000000013
 30
0.0
 40
5.0
 50
68.633797999999999
 51
143.26125999999991
  0
ARC
  5
892
  8
0
  6
CONTINUOUS
 62
     7
 10
-187.03093000000001
 20
51.834826999999983
 30
0.0
 40
8.0
 50
156.73873999999981
 51
323.26127000000002
  0
ARC
  5
893
  8
0
  6
CONTINUOUS
 62
     7
 10
-103.53098
 20
51.834826999999983
 30
0.0
 40
8.0
 50
216.73873999999989
 51
23.26125799999998
  0
ARC
  5
894
  8
0
  6
CENTER
 62
     7
 10
-145.2809399999999
 20
147.34795
 30
0.0
 40
107.50001
 50
38.072139999999997
 51
52.304290999999992
  0
ARC
  5
895
  8
0
  6
CONTINUOUS
 62
     7
 10
-145.2809399999999
 20
124.14796
 30
0.0
 40
81.0
 50
248.63379999999989
 51
270.0
  0
ARC
  5
896
  8
0
  6
CONTINUOUS
 62
     7
 10
-113.94880000000001
 20
44.058659000000013
 30
0.0
 40
5.0
 50
36.738737
 51
111.36621
  0
CIRCLE
  5
897
  8
0
  6
CONTINUOUS
 62
     7
 10
-69.266991000000004
 20
223.36190999999991
 30
0.0
 40
6.0
  0
CIRCLE
  5
898
  8
0
  6
CONTINUOUS
 62
     7
 10
-221.2949399999998
 20
223.36190999999991
 30
0.0
 40
6.0
  0
ARC
  5
899
  8
0
  6
CENTER
 62
     7
 10
-145.2809399999999
 20
147.34795
 30
0.0
 40
107.50001
 50
127.87448999999999
 51
141.58974999999981
  0
ARC
  5
89A
  8
0
  6
CONTINUOUS
 62
     7
 10
-203.80525
 20
197.38695999999999
 30
0.0
 40
3.0
 50
45.00000099999999
 51
139.4691399999999
  0
ARC
  5
89B
  8
0
  6
CONTINUOUS
 62
     7
 10
-220.39597999999981
 20
72.232910000000004
 30
0.0
 40
15.0
 50
183.00001
 51
267.0
  0
ARC
  5
89C
  8
0
  6
CENTER
 62
     7
 10
-145.2809399999999
 20
147.34795
 30
0.0
 40
107.50001
 50
218.65717000000001
 51
231.0612099999999
  0
CIRCLE
  5
89D
  8
0
  6
CONTINUOUS
 62
     7
 10
-221.2949399999998
 20
71.333968999999996
 30
0.0
 40
6.0
  0
ARC
  5
89E
  8
0
  6
CONTINUOUS
 62
     7
 10
-368.63387999999992
 20
237.56734999999989
 30
0.0
 40
2.0
 50
91.999998000000005
 51
180.00001
  0
CIRCLE
  5
89F
  8
0
  6
CONTINUOUS
 62
     7
 10
-145.2809399999999
 20
147.34795
 30
0.0
 40
29.0
  0
CIRCLE
  5
8A0
  8
0
  6
CONTINUOUS
 62
     7
 10
-69.266991000000004
 20
71.333968999999996
 30
0.0
 40
6.0
  0
CIRCLE
  5
8A1
  8
0
  6
CONTINUOUS
 62
     7
 10
-145.2809399999999
 20
147.34795
 30
0.0
 40
80.0
  0
ARC
  5
8A2
  8
0
  6
CONTINUOUS
 62
     7
 10
-145.2809399999999
 20
124.14796
 30
0.0
 40
81.0
 50
24.588774999999998
 51
54.525830000000013
  0
CIRCLE
  5
8A3
  8
0
  6
CONTINUOUS
 62
     7
 10
-145.2809399999999
 20
147.34795
 30
0.0
 40
85.0
  0
ARC
  5
8A4
  8
0
  6
CONTINUOUS
 62
     7
 10
-86.756653
 20
197.38695999999999
 30
0.0
 40
3.0
 50
40.530864999999999
 51
135.0
  0
ARC
  5
8A5
  8
0
  6
CONTINUOUS
 62
     7
 10
-120.12969
 20
180.98446999999999
 30
0.0
 40
3.0
 50
233.21321
 51
315.0
  0
ARC
  5
8A6
  8
0
  6
CENTER
 62
     7
 10
-145.2809399999999
 20
147.34795
 30
0.0
 40
107.50001
 50
307.45062999999988
 51
322.71530999999987
  0
ARC
  5
8A7
  8
0
  6
CONTINUOUS
 62
     7
 10
-111.64444
 20
172.49917999999991
 30
0.0
 40
3.0
 50
135.0
 51
216.78679
  0
ARC
  5
8A8
  8
0
  6
CONTINUOUS
 62
     7
 10
-95.241943000000006
 20
205.87225000000001
 30
0.0
 40
3.0
 50
315.0
 51
49.469136999999989
  0
ARC
  5
8A9
  8
0
  6
CONTINUOUS
 62
     7
 10
-220.39597999999981
 20
222.4629799999999
 30
0.0
 40
15.0
 50
92.999999000000017
 51
176.99999
  0
ARC
  5
8AA
  8
0
  6
CONTINUOUS
 62
     7
 10
-145.2809399999999
 20
124.14796
 30
0.0
 40
81.0
 50
270.0
 51
291.36619999999999
  0
ARC
  5
8AB
  8
0
  6
CONTINUOUS
 62
     7
 10
-150.78093999999999
 20
207.96768
 30
0.0
 40
3.0
 50
273.75420000000003
 51
0.0
  0
ARC
  5
8AC
  8
0
  6
CONTINUOUS
 62
     7
 10
-400.34224999999998
 20
209.38216999999989
 30
0.0
 40
3.0
 50
272.0
 51
315.0
  0
ARC
  5
8AD
  8
0
  6
CONTINUOUS
 62
     7
 10
-367.63387999999992
 20
198.47316000000001
 30
0.0
 40
3.0
 50
179.99998999999991
 51
270.0
  0
ARC
  5
8AE
  8
0
  6
CONTINUOUS
 62
     7
 10
-369.00484999999992
 20
124.43758
 30
0.0
 40
3.0
 50
218.79321999999999
 51
270.0
  0
ARC
  5
8AF
  8
0
  6
CONTINUOUS
 62
     7
 10
-450.63385
 20
45.672984999999983
 30
0.0
 40
2.0
 50
179.99998999999991
 51
268.00000999999992
  0
ARC
  5
8B0
  8
0
  6
CONTINUOUS
 62
     7
 10
-367.63384999999988
 20
361.96963999999991
 30
0.0
 40
3.0
 50
90.000003000000007
 51
180.00001
  0
ARC
  5
8B1
  8
0
  6
CONTINUOUS
 62
     7
 10
-375.86365000000001
 20
502.43609999999978
 30
0.0
 40
5.0
 50
272.0
 51
315.0
  0
ARC
  5
8B2
  8
0
  6
CONTINUOUS
 62
     7
 10
-369.63384999999988
 20
483.26717999999988
 30
0.0
 40
3.0
 50
0.0
 51
91.999998000000005
  0
ARC
  5
8B3
  8
0
  6
CONTINUOUS
 62
     7
 10
-346.63387999999992
 20
413.09485000000001
 30
0.0
 40
3.9999962
 50
90.000003000000007
 51
270.0
  0
ARC
  5
8B4
  8
0
  6
CONTINUOUS
 62
     7
 10
-368.63382000000001
 20
503.31426999999991
 30
0.0
 40
2.0
 50
91.999998000000005
 51
180.00001
  0
ARC
  5
8B5
  8
0
  6
CONTINUOUS
 62
     7
 10
-367.63384999999988
 20
464.22012000000001
 30
0.0
 40
3.0
 50
179.99998999999991
 51
270.0
  0
ARC
  5
8B6
  8
0
  6
CONTINUOUS
 62
     7
 10
-368.63382000000001
 20
322.87549000000001
 30
0.0
 40
2.0
 50
179.99998999999991
 51
268.00000999999992
  0
ARC
  5
8B7
  8
0
  6
CONTINUOUS
 62
     7
 10
-369.63384999999988
 20
342.92257999999993
 30
0.0
 40
3.0
 50
268.0
 51
0.0
  0
ARC
  5
8B8
  8
0
  6
CONTINUOUS
 62
     7
 10
-375.86365000000001
 20
323.75366000000002
 30
0.0
 40
5.0
 50
45.00000099999999
 51
88.0
  0
POLYLINE
  5
8B9
  8
0
  6
CONTINUOUS
 62
     7
 66
     1
 10
0.0
 20
0.0
 30
0.0
  0
VERTEX
  5
8BA
  8
0
  6
CONTINUOUS
 62
     7
 10
-373.72078999999991
 20
497.50787000000003
 30
0.0
 42
0.081985852
  0
VERTEX
  5
8BB
  8
0
  6
CONTINUOUS
 62
     7
 10
-395.83668
 20
442.59618999999992
 30
0.0
 42
0.10914194
  0
VERTEX
  5
8BC
  8
0
  6
CONTINUOUS
 62
     7
 10
-395.83659
 20
383.59317999999979
 30
0.0
 42
0.081985219
  0
VERTEX
  5
8BD
  8
0
  6
CONTINUOUS
 62
     7
 10
-373.72078999999991
 20
328.68187999999992
 30
0.0
  0
SEQEND
  5
8BE
  8
0
 62
     7
  0
TEXT
  5
A6E
  8
0
  6
CONTINUOUS
 62
     0
 10
-244.41199755990789
 20
395.77013354992903
 30
0.0
 40
10.0
  1
VX04-060MF~VX04-100MF
  0
ENDSEC
  0
EOF
