  0
SECTION
  2
HEADER
  9
$ACADVER
  1
AC1009
  9
$INSBASE
 10
0.0
 20
0.0
 30
0.0
  9
$EXTMIN
 10
-740.78772979370126
 20
45.598201376123832
 30
-0.0000000000112498
  9
$EXTMAX
 10
12.367590714660761
 20
629.87621023155612
 30
0.0000000000002956
  9
$LIMMIN
 10
0.0
 20
0.0
  9
$LIMMAX
 10
12.0
 20
9.0
  9
$ORTHOMODE
 70
     0
  9
$REGENMODE
 70
     1
  9
$FILLMODE
 70
     1
  9
$QTEXTMODE
 70
     0
  9
$MIRRTEXT
 70
     1
  9
$DRAGMODE
 70
     2
  9
$LTSCALE
 40
1.0
  9
$OSMODE
 70
   551
  9
$ATTMODE
 70
     1
  9
$TEXTSIZE
 40
0.2
  9
$TRACEWID
 40
0.05
  9
$TEXTSTYLE
  7
STANDARD
  9
$CLAYER
  8
0
  9
$CELTYPE
  6
CONTINUOUS
  9
$CECOLOR
 62
   256
  9
$DIMSCALE
 40
1.0
  9
$DIMASZ
 40
0.18
  9
$DIMEXO
 40
0.0625
  9
$DIMDLI
 40
0.38
  9
$DIMRND
 40
0.0
  9
$DIMDLE
 40
0.0
  9
$DIMEXE
 40
0.18
  9
$DIMTP
 40
0.0
  9
$DIMTM
 40
0.0
  9
$DIMTXT
 40
0.18
  9
$DIMCEN
 40
0.09
  9
$DIMTSZ
 40
0.0
  9
$DIMTOL
 70
     0
  9
$DIMLIM
 70
     0
  9
$DIMTIH
 70
     1
  9
$DIMTOH
 70
     1
  9
$DIMSE1
 70
     0
  9
$DIMSE2
 70
     0
  9
$DIMTAD
 70
     0
  9
$DIMZIN
 70
     0
  9
$DIMBLK
  1

  9
$DIMASO
 70
     1
  9
$DIMSHO
 70
     1
  9
$DIMPOST
  1

  9
$DIMAPOST
  1

  9
$DIMALT
 70
     0
  9
$DIMALTD
 70
     2
  9
$DIMALTF
 40
25.399999999999999
  9
$DIMLFAC
 40
1.0
  9
$DIMTOFL
 70
     0
  9
$DIMTVP
 40
0.0
  9
$DIMTIX
 70
     0
  9
$DIMSOXD
 70
     0
  9
$DIMSAH
 70
     0
  9
$DIMBLK1
  1

  9
$DIMBLK2
  1

  9
$DIMSTYLE
  2
STANDARD
  9
$DIMCLRD
 70
     0
  9
$DIMCLRE
 70
     0
  9
$DIMCLRT
 70
     0
  9
$DIMTFAC
 40
1.0
  9
$DIMGAP
 40
0.09
  9
$LUNITS
 70
     2
  9
$LUPREC
 70
     4
  9
$SKETCHINC
 40
0.1
  9
$FILLETRAD
 40
0.0
  9
$AUNITS
 70
     0
  9
$AUPREC
 70
     0
  9
$MENU
  1
.
  9
$ELEVATION
 40
0.0
  9
$PELEVATION
 40
0.0
  9
$THICKNESS
 40
0.0
  9
$LIMCHECK
 70
     0
  9
$BLIPMODE
 70
     0
  9
$CHAMFERA
 40
0.0
  9
$CHAMFERB
 40
0.0
  9
$SKPOLY
 70
     0
  9
$TDCREATE
 40
2452300.432694769
  9
$TDUPDATE
 40
2458540.6500376859
  9
$TDINDWG
 40
0.0381899537
  9
$TDUSRTIMER
 40
0.0381899074
  9
$USRTIMER
 70
     1
  9
$ANGBASE
 50
0.0
  9
$ANGDIR
 70
     0
  9
$PDMODE
 70
     0
  9
$PDSIZE
 40
0.0
  9
$PLINEWID
 40
0.0
  9
$COORDS
 70
     1
  9
$SPLFRAME
 70
     0
  9
$SPLINETYPE
 70
     6
  9
$SPLINESEGS
 70
     8
  9
$ATTDIA
 70
     1
  9
$ATTREQ
 70
     1
  9
$HANDLING
 70
     1
  9
$HANDSEED
  5
AC4
  9
$SURFTAB1
 70
     6
  9
$SURFTAB2
 70
     6
  9
$SURFTYPE
 70
     6
  9
$SURFU
 70
     6
  9
$SURFV
 70
     6
  9
$UCSNAME
  2

  9
$UCSORG
 10
0.0
 20
0.0
 30
0.0
  9
$UCSXDIR
 10
1.0
 20
0.0
 30
0.0
  9
$UCSYDIR
 10
0.0
 20
1.0
 30
0.0
  9
$PUCSNAME
  2

  9
$PUCSORG
 10
0.0
 20
0.0
 30
0.0
  9
$PUCSXDIR
 10
1.0
 20
0.0
 30
0.0
  9
$PUCSYDIR
 10
0.0
 20
1.0
 30
0.0
  9
$USERI1
 70
     0
  9
$USERI2
 70
     0
  9
$USERI3
 70
     0
  9
$USERI4
 70
     0
  9
$USERI5
 70
     0
  9
$USERR1
 40
0.0
  9
$USERR2
 40
0.0
  9
$USERR3
 40
0.0
  9
$USERR4
 40
0.0
  9
$USERR5
 40
0.0
  9
$WORLDVIEW
 70
     1
  9
$SHADEDGE
 70
     3
  9
$SHADEDIF
 70
    70
  9
$TILEMODE
 70
     1
  9
$MAXACTVP
 70
    64
  9
$PLIMCHECK
 70
     0
  9
$PEXTMIN
 10
1.0000000000000000E+020
 20
1.0000000000000000E+020
 30
1.0000000000000000E+020
  9
$PEXTMAX
 10
-1.0000000000000000E+020
 20
-1.0000000000000000E+020
 30
-1.0000000000000000E+020
  9
$PLIMMIN
 10
0.0
 20
0.0
  9
$PLIMMAX
 10
12.0
 20
9.0
  9
$UNITMODE
 70
     0
  9
$VISRETAIN
 70
     1
  9
$PLINEGEN
 70
     0
  9
$PSLTSCALE
 70
     1
  0
ENDSEC
  0
SECTION
  2
TABLES
  0
TABLE
  2
VPORT
 70
     1
  0
VPORT
  2
*ACTIVE
 70
     0
 10
0.0
 20
0.0
 11
1.0
 21
1.0
 12
-364.2100695395203
 22
337.73720580384003
 13
0.0
 23
0.0
 14
1.0
 24
1.0
 15
0.0
 25
0.0
 16
0.0
 26
0.0
 36
1.0
 17
0.0
 27
0.0
 37
0.0
 40
588.28907070112177
 41
1.7571592210767459
 42
50.0
 43
0.0
 44
0.0
 50
0.0
 51
0.0
 71
     0
 72
   100
 73
     1
 74
     1
 75
     0
 76
     0
 77
     0
 78
     0
  0
ENDTAB
  0
TABLE
  2
LTYPE
 70
    23
  0
LTYPE
  2
CONTINUOUS
 70
     0
  3
Solid line
 72
    65
 73
     0
 40
0.0
  0
LTYPE
  2
DASHED
 70
     0
  3
__ __ __ __ __ __ __ __ __ __ __ __ __ __ __
 72
    65
 73
     2
 40
3.5
 49
2.0
 49
-1.5
  0
LTYPE
  2
CENTER
 70
     0
  3
____ _ ____ _ ____ _ ____ _ ____ _ ____ _ ____
 72
    65
 73
     4
 40
17.5
 49
13.0
 49
-1.5
 49
1.5
 49
-1.5
  0
LTYPE
  2
PHANTOM
 70
     0
  3
_____ _ _ _____ _ _ _____ _ _ _____ _ _ ____  
 72
    65
 73
     6
 40
15.5
 49
8.0
 49
-1.5
 49
1.5
 49
-1.5
 49
1.5
 49
-1.5
  0
LTYPE
  2
DOT
 70
     0
  3
. . . . . . . . . . . . . . . . . . . . . . . .
 72
    65
 73
     2
 40
0.25
 49
0.0
 49
-0.25
  0
LTYPE
  2
AM_ISO02W050
 70
     0
  3
__ __ __ __ __ __ __ __ __ __ __ __ __ __ __
 72
    65
 73
     2
 40
7.5
 49
6.0
 49
-1.5
  0
LTYPE
  2
AM_ISO08W050
 70
     0
  3
____ . ____ . ____ . ____ . ____ . ____ . ____
 72
    65
 73
     4
 40
18.0
 49
12.0
 49
-1.5
 49
3.0
 49
-1.5
  0
LTYPE
  2
AM_ISO09W050
 70
     0
  3
_____ . . _____ . . _____ . . ____ .. ____
 72
    65
 73
     6
 40
22.5
 49
12.0
 49
-1.5
 49
3.0
 49
-1.5
 49
3.0
 49
-1.5
  0
LTYPE
  2
AMCONSTR
 70
     0
  3
_______________________
 72
    65
 73
     2
 40
9999.0
 49
9999.0
 49
0.0
  0
LTYPE
  2
AM_ISO08W050X2
 70
     0
  3
__ . __ . __ . __ . __ . __
 72
    65
 73
     4
 40
9.0
 49
6.0
 49
-0.75
 49
1.5
 49
-0.75
  0
LTYPE
  2
AM_ISO02W050X2
 70
     0
  3
 _ _ _ _ _ _ _ _ _ _ _ _
 72
    65
 73
     2
 40
3.75
 49
3.0
 49
-0.75
  0
LTYPE
  2
AMZIGZAG
 70
     0
  3
/\/-/\/-/\/-/\/-/\/-/\/
 72
    65
 73
     2
 40
11.000099999999991
 49
0.0001
 49
-11.0
  0
LTYPE
  2
HIDDEN
 70
     0
  3
Hidden __ __ __ __ __ __ __ __ __ __ __ __ __ _
 72
    65
 73
     2
 40
0.375
 49
0.25
 49
-0.125
  0
LTYPE
  2
PHANTOM2
 70
     0
  3
Phantom (.5x) ___ _ _ ___ _ _ ___ _ _ ___ _ _
 72
    65
 73
     6
 40
1.25
 49
0.625
 49
-0.125
 49
0.125
 49
-0.125
 49
0.125
 49
-0.125
  0
LTYPE
  2
CENTER2
 70
     0
  3
Center (.5x) ___ _ ___ _ ___ _ ___ _ ___ _ ___
 72
    65
 73
     4
 40
1.125
 49
0.75
 49
-0.125
 49
0.125
 49
-0.125
  0
LTYPE
  2
HIDDEN2
 70
     0
  3
Hidden (.5x) _ _ _ _ _ _ _ _ _ _ _ _ _ _ _ _ _
 72
    65
 73
     2
 40
0.1875
 49
0.125
 49
-0.0625
  0
LTYPE
  2
AMZIGZAG2
 70
     0
  3
/\/-/\/-/\/-/\/-/\/-/\/
 72
    65
 73
     2
 40
0.4401
 49
0.0001
 49
-0.4400000000000003
  0
LTYPE
  2
ACANSTGB
 70
     0
  3
__ . . __ . .
 72
    65
 73
     6
 40
0.35433070866
 49
0.15748031496
 49
-0.03937007874
 49
0.03937007874
 49
-0.03937007874
 49
0.03937007874
 49
-0.03937007874
  0
LTYPE
  2
ACANSTGL
 70
     0
  3
_ _ _ _ _
 72
    65
 73
     2
 40
0.11811023622
 49
0.07874015748
 49
-0.03937007874
  0
LTYPE
  2
ACISOWELD
 70
     0
  3
_ _ _ _ _
 72
    65
 73
     2
 40
2.0
 49
2.0
 49
-1.0
  0
LTYPE
  2
ACISOTGB
 70
     0
  3
__ . . __ . .
 72
    65
 73
     6
 40
9.0
 49
4.0
 49
-1.0
 49
1.0
 49
-1.0
 49
1.0
 49
-1.0
  0
LTYPE
  2
ACISOTGL
 70
     0
  3
_ _ _ _ _
 72
    65
 73
     2
 40
3.0
 49
2.0
 49
-1.0
  0
ENDTAB
  0
TABLE
  2
LAYER
 70
     1
  0
LAYER
  2
0
 70
     0
 62
     7
  6
CONTINUOUS
  0
ENDTAB
  0
TABLE
  2
STYLE
 70
     6
  0
STYLE
  2
STANDARD
 70
     0
 40
0.0
 41
1.0
 50
0.0
 71
     0
 42
0.2
  3
txt
  4

  0
STYLE
  2
ANNOTATIVE
 70
     0
 40
0.0
 41
1.0
 50
0.0
 71
     0
 42
0.2
  3
txt
  4

  0
STYLE
  2

 70
     1
 40
0.0
 41
1.0
 50
0.0
 71
     0
 42
0.2
  3
ltypeshp.shx
  4

  0
STYLE
  2
ACANSTS
 70
     0
 40
1.0
 41
1.0
 50
0.0
 71
     0
 42
0.2
  3
romans.shx
  4
extfont.shx
  0
STYLE
  2
ACANSGDT
 70
     0
 40
0.0
 41
1.0
 50
0.0
 71
     0
 42
0.2
  3
amgdt.shx
  4

  0
STYLE
  2
ACISOGDT
 70
     0
 40
0.0
 41
1.0
 50
0.0
 71
     0
 42
2.5
  3
amgdt.shx
  4

  0
ENDTAB
  0
TABLE
  2
VIEW
 70
     0
  0
ENDTAB
  0
TABLE
  2
UCS
 70
     0
  0
ENDTAB
  0
TABLE
  2
APPID
 70
    12
  0
APPID
  2
ACAD
 70
     0
  0
APPID
  2
ACADANNOTATIVE
 70
     0
  0
APPID
  2
MCAD_NO_VIS
 70
     0
  0
APPID
  2
ACAD_TEMP_GRAPHIC
 70
     0
  0
APPID
  2
ACATTRIBSERVICES
 70
     0
  0
APPID
  2
DESIGNERASSEMBLIES
 70
     0
  0
APPID
  2
ACAD_DSTYLE_DIMBREAK
 70
     0
  0
APPID
  2
ACAD_DSTYLE_DIMJAG
 70
     0
  0
APPID
  2
ACAD_NAV_VCDISPLAY
 70
     0
  0
APPID
  2
ACAD_PSEXT
 70
     0
  0
APPID
  2
ACAD_EXEMPT_FROM_CAD_STANDARDS
 70
     0
  0
APPID
  2
ACAD_MLEADERVER
 70
     0
  0
ENDTAB
  0
TABLE
  2
DIMSTYLE
 70
    16
  0
DIMSTYLE
  2
STANDARD
 70
     0
  3

  4

  5

  6

  7

 40
1.0
 41
0.18
 42
0.0625
 43
0.38
 44
0.18
 45
0.0
 46
0.0
 47
0.0
 48
0.0
140
0.18
141
0.09
142
0.0
143
25.399999999999999
144
1.0
145
0.0
146
1.0
147
0.09
 71
     0
 72
     0
 73
     1
 74
     1
 75
     0
 76
     0
 77
     0
 78
     0
170
     0
171
     2
172
     0
173
     0
174
     0
175
     0
176
     0
177
     0
178
     0
  0
DIMSTYLE
  2
ANNOTATIVE
 70
     0
  3

  4

  5

  6

  7

 40
1.0
 41
0.18
 42
0.0625
 43
0.38
 44
0.18
 45
0.0
 46
0.0
 47
0.0
 48
0.0
140
0.18
141
0.09
142
0.0
143
25.399999999999999
144
1.0
145
0.0
146
1.0
147
0.09
 71
     0
 72
     0
 73
     1
 74
     1
 75
     0
 76
     0
 77
     0
 78
     0
170
     0
171
     2
172
     0
173
     0
174
     0
175
     0
176
     0
177
     0
178
     0
  0
DIMSTYLE
  2
AM_ANSI
 70
     0
  3

  4
mm
  5

  6

  7

 40
1.0
 41
0.1
 42
0.05
 43
0.5
 44
0.1
 45
0.0
 46
0.0
 47
0.1
 48
0.1
140
0.12
141
0.0
142
0.0
143
25.399999999999999
144
1.0
145
0.0
146
0.71
147
0.06
 71
     0
 72
     0
 73
     1
 74
     1
 75
     0
 76
     0
 77
     0
 78
     7
170
     0
171
     2
172
     0
173
     0
174
     0
175
     0
176
   256
177
   256
178
     2
  0
DIMSTYLE
  2
AM_ANSI$3
 70
     0
  3

  4
mm
  5

  6

  7

 40
1.0
 41
0.1
 42
0.05
 43
0.5
 44
0.1
 45
0.0
 46
0.0
 47
0.1
 48
0.1
140
0.12
141
0.0
142
0.0
143
25.399999999999999
144
1.0
145
0.0
146
0.71
147
0.06
 71
     0
 72
     0
 73
     1
 74
     1
 75
     0
 76
     0
 77
     0
 78
     7
170
     0
171
     2
172
     0
173
     0
174
     0
175
     0
176
   256
177
   256
178
     2
  0
DIMSTYLE
  2
AM_ANSI$4
 70
     0
  3

  4
mm
  5

  6

  7

 40
1.0
 41
0.1
 42
0.05
 43
0.5
 44
0.1
 45
0.0
 46
0.0
 47
0.1
 48
0.1
140
0.12
141
0.0
142
0.0
143
25.399999999999999
144
1.0
145
0.0
146
0.71
147
0.06
 71
     0
 72
     0
 73
     1
 74
     1
 75
     0
 76
     0
 77
     0
 78
     7
170
     0
171
     2
172
     0
173
     0
174
     0
175
     0
176
   256
177
   256
178
     2
  0
DIMSTYLE
  2
AM_ANSI$7
 70
     0
  3

  4
mm
  5

  6

  7

 40
1.0
 41
0.1
 42
0.05
 43
0.5
 44
0.1
 45
0.0
 46
0.0
 47
0.1
 48
0.1
140
0.24
141
0.0
142
0.0
143
25.399999999999999
144
1.0
145
0.0
146
0.71
147
0.06
 71
     0
 72
     0
 73
     1
 74
     1
 75
     0
 76
     0
 77
     0
 78
     7
170
     0
171
     2
172
     0
173
     0
174
     0
175
     0
176
   256
177
   256
178
     2
  0
DIMSTYLE
  2
AM_ANSI$SF
 70
     0
  3

  4
mm
  5

  6

  7

 40
1.0
 41
0.1
 42
0.05
 43
0.5
 44
0.1
 45
0.0
 46
0.0
 47
0.1
 48
0.1
140
0.12
141
0.0
142
0.0
143
25.399999999999999
144
1.0
145
0.0
146
0.71
147
0.06
 71
     0
 72
     0
 73
     1
 74
     1
 75
     1
 76
     1
 77
     0
 78
     7
170
     0
171
     2
172
     0
173
     0
174
     0
175
     0
176
   256
177
   256
178
     2
  0
DIMSTYLE
  2
AM_ANSI$SH
 70
     0
  3

  4
mm
  5

  6

  7

 40
1.0
 41
0.1
 42
0.05
 43
0.5
 44
0.1
 45
0.0
 46
0.0
 47
0.1
 48
0.1
140
0.12
141
0.0
142
0.0
143
25.399999999999999
144
1.0
145
0.0
146
0.71
147
0.06
 71
     0
 72
     0
 73
     1
 74
     1
 75
     1
 76
     1
 77
     0
 78
     7
170
     0
171
     2
172
     0
173
     1
174
     0
175
     0
176
   256
177
   256
178
     2
  0
DIMSTYLE
  2
AM_ISO
 70
     0
  3

  4
"
  5

  6

  7

 40
1.0
 41
2.5
 42
1.0
 43
10.0
 44
1.0
 45
0.0
 46
0.0
 47
0.1
 48
0.1
140
3.5
141
0.0
142
0.0
143
0.0393701
144
1.0
145
0.0
146
0.71
147
1.5
 71
     0
 72
     0
 73
     0
 74
     0
 75
     0
 76
     0
 77
     1
 78
     8
170
     0
171
     2
172
     1
173
     0
174
     0
175
     0
176
   256
177
   256
178
     2
  0
DIMSTYLE
  2
AM_ISO$3
 70
     0
  3

  4
"
  5

  6

  7

 40
1.0
 41
2.5
 42
1.0
 43
10.0
 44
1.0
 45
0.0
 46
0.0
 47
0.1
 48
0.1
140
3.5
141
0.0
142
0.0
143
0.0393701
144
1.0
145
0.0
146
0.71
147
1.5
 71
     0
 72
     0
 73
     0
 74
     1
 75
     0
 76
     0
 77
     1
 78
     8
170
     0
171
     2
172
     0
173
     0
174
     0
175
     0
176
   256
177
   256
178
     2
  0
DIMSTYLE
  2
AM_ISO$4
 70
     0
  3

  4
"
  5

  6

  7

 40
1.0
 41
2.5
 42
1.0
 43
10.0
 44
1.0
 45
0.0
 46
0.0
 47
0.1
 48
0.1
140
3.5
141
0.0
142
0.0
143
0.0393701
144
1.0
145
0.0
146
0.71
147
1.5
 71
     0
 72
     0
 73
     0
 74
     1
 75
     0
 76
     0
 77
     1
 78
     8
170
     0
171
     2
172
     0
173
     0
174
     0
175
     0
176
   256
177
   256
178
     2
  0
DIMSTYLE
  2
AM_ISO$6
 70
     0
  3

  4
"
  5

  6

  7

 40
1.0
 41
2.5
 42
1.0
 43
10.0
 44
1.0
 45
0.0
 46
0.0
 47
0.1
 48
0.1
140
3.5
141
0.0
142
0.0
143
0.0393701
144
1.0
145
0.0
146
0.71
147
1.5
 71
     0
 72
     0
 73
     0
 74
     0
 75
     0
 76
     0
 77
     0
 78
     8
170
     0
171
     2
172
     1
173
     0
174
     0
175
     0
176
   256
177
   256
178
     2
  0
DIMSTYLE
  2
AM_ISO$7
 70
     0
  3

  4
"
  5

  6

  7

 40
1.0
 41
2.5
 42
1.0
 43
10.0
 44
1.0
 45
0.0
 46
0.0
 47
0.1
 48
0.1
140
5.0
141
0.0
142
0.0
143
0.0393701
144
1.0
145
0.0
146
0.71
147
1.5
 71
     0
 72
     0
 73
     0
 74
     0
 75
     0
 76
     0
 77
     1
 78
     8
170
     0
171
     2
172
     1
173
     0
174
     0
175
     0
176
   256
177
   256
178
     2
  0
DIMSTYLE
  2
AM_ISO$SF
 70
     0
  3

  4
"
  5

  6

  7

 40
1.0
 41
2.5
 42
1.0
 43
10.0
 44
1.0
 45
0.0
 46
0.0
 47
0.1
 48
0.1
140
3.5
141
0.0
142
0.0
143
0.0393701
144
1.0
145
0.0
146
0.71
147
1.5
 71
     0
 72
     0
 73
     0
 74
     0
 75
     1
 76
     1
 77
     1
 78
     8
170
     0
171
     2
172
     1
173
     0
174
     0
175
     0
176
   256
177
   256
178
     2
  0
DIMSTYLE
  2
AM_ISO$SH
 70
     0
  3

  4
"
  5

  6
GENAXEH
  7

 40
1.0
 41
2.5
 42
1.0
 43
10.0
 44
1.0
 45
0.0
 46
0.0
 47
0.1
 48
0.1
140
3.5
141
0.0
142
0.0
143
0.0393701
144
2.0
145
0.0
146
0.71
147
1.5
 71
     0
 72
     0
 73
     0
 74
     0
 75
     1
 76
     1
 77
     1
 78
     8
170
     0
171
     2
172
     1
173
     1
174
     0
175
     0
176
   256
177
   256
178
     2
  0
DIMSTYLE
  2
AM_JIS
 70
     0
  3

  4
"
  5

  6

  7

 40
1.0
 41
2.0
 42
1.0
 43
8.0
 44
1.0
 45
0.0
 46
0.0
 47
0.1
 48
0.1
140
2.5
141
0.0
142
0.0
143
0.0393701
144
1.0
145
0.0
146
0.71
147
1.5
 71
     0
 72
     0
 73
     0
 74
     0
 75
     0
 76
     0
 77
     3
 78
     8
170
     0
171
     2
172
     1
173
     0
174
     0
175
     0
176
     2
177
     2
178
     4
  0
ENDTAB
  0
ENDSEC
  0
SECTION
  2
BLOCKS
  0
BLOCK
  8
0
  2
$MODEL_SPACE
 70
     0
 10
0.0
 20
0.0
 30
0.0
  3
$MODEL_SPACE
  1

  0
ENDBLK
  5
955
  8
0
  0
BLOCK
 67
     1
  8
0
  2
$PAPER_SPACE
 70
     0
 10
0.0
 20
0.0
 30
0.0
  3
$PAPER_SPACE
  1

  0
ENDBLK
  5
951
 67
     1
  8
0
  0
BLOCK
  8
0
  2
GENAXEH
 70
     0
 10
0.0
 20
0.0
 30
0.0
  3
GENAXEH
  1

  0
LINE
  5
4B9
  8
0
 10
-1.0
 20
0.0
 30
0.0
 11
1.0
 21
0.0
 31
0.0
  0
ENDBLK
  5
4BA
  8
0
  0
BLOCK
  8
0
  2
_ACMFILLEDHALF
 70
     0
 10
0.0
 20
0.0
 30
0.0
  3
_ACMFILLEDHALF
  1

  0
TRACE
  5
9CE
  8
0
  6
CONTINUOUS
 62
     0
 10
-0.8
 20
0.0
 30
0.0
 11
-1.0
 21
0.166666666
 31
0.0
 12
0.0
 22
0.0
 32
0.0
 13
0.0
 23
0.0
 33
0.0
  0
LINE
  5
9CF
  8
0
  6
CONTINUOUS
 62
     0
 10
-1.0
 20
0.0
 30
0.0
 11
-0.8
 21
0.0
 31
0.0
  0
ENDBLK
  5
9CD
  8
0
  0
BLOCK
  8
0
  2
*U7
 70
     1
 10
0.0
 20
0.0
 30
0.0
  3
*U7
  1

  0
TEXT
  5
AC0
  8
0
  6
CONTINUOUS
 62
     0
 10
5.0768189741019834
 20
5.9826223594979657
 30
0.0
 40
15.0
  1
ＶＸ０８－００３ＥＭ～ＶＸ０８
  0
TEXT
  5
AC1
  8
0
  6
CONTINUOUS
 62
     0
 10
2.17909170137471
 20
-19.18783218595658
 30
0.0
 40
15.0
  1
－０３０ＥＭ
  0
ENDBLK
  5
AC3
  8
0
  0
ENDSEC
  0
SECTION
  2
ENTITIES
  0
LINE
  5
4BB
  8
0
  6
CENTER
 62
     7
 10
-737.87060999999983
 20
512.36658
 30
0.0
 11
-349.97030999999998
 21
512.36658
 31
0.0
  0
LINE
  5
4BC
  8
0
  6
CENTER
 62
     1
 10
-145.2809399999999
 20
45.611125999999999
 30
0.0
 11
-145.2809399999999
 21
305.45758000000001
 31
0.0
  0
LINE
  5
4BD
  8
0
  6
CONTINUOUS
 62
     7
 10
-599.40307999999982
 20
479.00662
 30
0.0
 11
-581.56311000000005
 21
479.00662
 31
0.0
  0
LINE
  5
4BE
  8
0
  6
CONTINUOUS
 62
     7
 10
-599.3831799999997
 20
485.8866299999998
 30
0.0
 11
-581.34888000000001
 21
485.8866299999998
 31
0.0
  0
LINE
  5
4BF
  8
0
  6
CONTINUOUS
 62
     7
 10
-600.40307999999982
 20
484.86660999999992
 30
0.0
 11
-600.40307999999982
 21
480.00661999999988
 31
0.0
  0
LINE
  5
4C0
  8
0
  6
CONTINUOUS
 62
     7
 10
-616.36315999999999
 20
484.86660999999992
 30
0.0
 11
-616.36315999999999
 21
480.00661999999988
 31
0.0
  0
LINE
  5
4C1
  8
0
  6
CONTINUOUS
 62
     7
 10
-617.38317999999981
 20
486.36660999999992
 30
0.0
 11
-710.84740999999985
 21
486.36660999999992
 31
0.0
  0
LINE
  5
4C2
  8
0
  6
CONTINUOUS
 62
     7
 10
-600.88317999999981
 20
484.86660999999992
 30
0.0
 11
-600.88317999999981
 21
479.86660999999998
 31
0.0
  0
LINE
  5
4C3
  8
0
  6
CONTINUOUS
 62
     7
 10
-615.8831799999997
 20
484.86660999999992
 30
0.0
 11
-615.8831799999997
 21
479.86660999999998
 31
0.0
  0
LINE
  5
4C4
  8
0
  6
CONTINUOUS
 62
     3
 10
-579.38311999999985
 20
451.86660999999992
 30
0.0
 11
-585.10888999999975
 21
443.04964999999999
 31
0.0
  0
LINE
  5
4C5
  8
0
  6
CONTINUOUS
 62
     7
 10
-597.86950999999999
 20
442.36660999999998
 30
0.0
 11
-586.36694
 21
442.36660999999998
 31
0.0
  0
LINE
  5
4C6
  8
0
  6
CONTINUOUS
 62
     3
 10
-599.38311999999985
 20
440.36657999999989
 30
0.0
 11
-599.11761000000001
 21
450.50653
 31
0.0
  0
LINE
  5
4C7
  8
0
  6
CONTINUOUS
 62
     3
 10
-659.38311999999985
 20
440.36657999999989
 30
0.0
 11
-659.64862000000005
 21
450.50653
 31
0.0
  0
LINE
  5
4C8
  8
0
  6
CONTINUOUS
 62
     7
 10
-713.43884000000003
 20
455.67657000000003
 30
0.0
 11
-714.39880000000016
 21
460.14654999999988
 31
0.0
  0
LINE
  5
4C9
  8
0
  6
CONTINUOUS
 62
     7
 10
-715.86890000000005
 20
461.32657
 30
0.0
 11
-713.44884999999965
 21
461.32657
 31
0.0
  0
LINE
  5
4CA
  8
0
  6
CONTINUOUS
 62
     7
 10
-714.17389000000003
 20
465.37322999999992
 30
0.0
 11
-713.38885000000016
 21
461.02654999999987
 31
0.0
  0
LINE
  5
4CB
  8
0
  6
CONTINUOUS
 62
     7
 10
-721.11315999999988
 20
506.09658999999999
 30
0.0
 11
-648.64795000000004
 21
506.09658999999999
 31
0.0
  0
LINE
  5
4CC
  8
0
  6
CONTINUOUS
 62
     7
 10
-585.04309000000001
 20
478.36660999999992
 30
0.0
 11
-599.3831799999997
 21
478.36660999999992
 31
0.0
  0
LINE
  5
4CD
  8
0
  6
CONTINUOUS
 62
     7
 10
-585.05029000000002
 20
486.36660999999992
 30
0.0
 11
-599.3831799999997
 21
486.36660999999992
 31
0.0
  0
LINE
  5
4CE
  8
0
  6
CONTINUOUS
 62
     7
 10
-711.92309999999998
 20
488.80655000000002
 30
0.0
 11
-581.34888000000001
 21
488.80655000000002
 31
0.0
  0
LINE
  5
4CF
  8
0
  6
CONTINUOUS
 62
     7
 10
-585.05029000000002
 20
488.36660999999998
 30
0.0
 11
-710.84740999999985
 21
488.36660999999998
 31
0.0
  0
LINE
  5
4D0
  8
0
  6
CONTINUOUS
 62
     7
 10
-721.05309999999974
 20
496.02663999999999
 30
0.0
 11
-648.71190999999999
 21
496.02663999999999
 31
0.0
  0
LINE
  5
4D1
  8
0
  6
CONTINUOUS
 62
     7
 10
-649.94104000000004
 20
496.36660999999998
 30
0.0
 11
-719.83312999999964
 21
496.36660999999998
 31
0.0
  0
LINE
  5
4D2
  8
0
  6
CONTINUOUS
 62
     7
 10
-721.05309999999974
 20
498.68655000000001
 30
0.0
 11
-648.71190999999999
 21
498.68655000000001
 31
0.0
  0
LINE
  5
4D3
  8
0
  6
CONTINUOUS
 62
     7
 10
-649.94104000000004
 20
508.36660999999998
 30
0.0
 11
-719.83312999999964
 21
508.36660999999998
 31
0.0
  0
LINE
  5
4D4
  8
0
  6
CONTINUOUS
 62
     7
 10
-649.94104000000004
 20
506.36660999999981
 30
0.0
 11
-719.83312999999964
 21
506.36660999999981
 31
0.0
  0
LINE
  5
4D5
  8
0
  6
CONTINUOUS
 62
     7
 10
-721.11315999999988
 20
508.63662999999991
 30
0.0
 11
-648.64795000000004
 21
508.63662999999991
 31
0.0
  0
LINE
  5
4D6
  8
0
  6
CONTINUOUS
 62
     7
 10
-721.11315999999988
 20
516.10657000000003
 30
0.0
 11
-648.64795000000004
 21
516.10657000000003
 31
0.0
  0
LINE
  5
4D7
  8
0
  6
CONTINUOUS
 62
     7
 10
-721.11315999999988
 20
518.64661000000001
 30
0.0
 11
-648.64795000000004
 21
518.64661000000001
 31
0.0
  0
LINE
  5
4D8
  8
0
  6
CONTINUOUS
 62
     7
 10
-721.05309999999974
 20
526.04663000000005
 30
0.0
 11
-648.72437000000002
 21
526.04663000000005
 31
0.0
  0
LINE
  5
4D9
  8
0
  6
CONTINUOUS
 62
     7
 10
-721.05309999999974
 20
528.71654999999976
 30
0.0
 11
-648.71190999999999
 21
528.71654999999976
 31
0.0
  0
LINE
  5
4DA
  8
0
  6
CONTINUOUS
 62
     7
 10
-711.92309999999998
 20
535.93651999999997
 30
0.0
 11
-581.34888000000001
 21
535.93651999999997
 31
0.0
  0
LINE
  5
4DB
  8
0
  6
CONTINUOUS
 62
     7
 10
-711.92309999999998
 20
538.85657000000003
 30
0.0
 11
-617.38317999999981
 21
538.85657000000003
 31
0.0
  0
LINE
  5
4DC
  8
0
  6
CONTINUOUS
 62
     7
 10
-711.71312999999975
 20
545.73657000000003
 30
0.0
 11
-617.36315999999999
 21
545.73657000000003
 31
0.0
  0
LINE
  5
4DD
  8
0
  6
CONTINUOUS
 62
     7
 10
-711.71312999999975
 20
549.09655999999995
 30
0.0
 11
-581.56311000000005
 21
549.09655999999995
 31
0.0
  0
LINE
  5
4DE
  8
0
  6
CONTINUOUS
 62
     7
 10
-617.38317999999981
 20
478.36660999999992
 30
0.0
 11
-710.84740999999985
 21
478.36660999999992
 31
0.0
  0
LINE
  5
4DF
  8
0
  6
CONTINUOUS
 62
     7
 10
-711.92309999999998
 20
485.8866299999998
 30
0.0
 11
-617.38317999999981
 21
485.8866299999998
 31
0.0
  0
LINE
  5
4E0
  8
0
  6
CONTINUOUS
 62
     7
 10
-702.38317999999981
 20
448.47658999999999
 30
0.0
 11
-661.05676000000017
 21
448.47658999999999
 31
0.0
  0
LINE
  5
4E1
  8
0
  6
CONTINUOUS
 62
     7
 10
-723.57312000000002
 20
457.26662999999979
 30
0.0
 11
-713.78039999999999
 21
457.26662999999979
 31
0.0
  0
LINE
  5
4E2
  8
0
  6
CONTINUOUS
 62
     7
 10
-725.38317999999981
 20
469.67667
 30
0.0
 11
-715.38317999999981
 21
469.67667
 31
0.0
  0
LINE
  5
4E3
  8
0
  6
CONTINUOUS
 62
     7
 10
-719.6825
 20
450.69655999999998
 30
0.0
 11
-705.64038000000005
 21
450.69655999999998
 31
0.0
  0
LINE
  5
4E4
  8
0
  6
CONTINUOUS
 62
     7
 10
-725.38317999999981
 20
478.06655999999981
 30
0.0
 11
-715.38317999999981
 21
478.06655999999981
 31
0.0
  0
LINE
  5
4E5
  8
0
  6
CONTINUOUS
 62
     7
 10
-725.38317999999981
 20
569.79663000000005
 30
0.0
 11
-725.38317999999981
 21
512.36658
 31
0.0
  0
LINE
  5
4E6
  8
0
  6
CONTINUOUS
 62
     7
 10
-582.83294999999976
 20
577.10181
 30
0.0
 11
-580.14312999999981
 21
564.58654999999999
 31
0.0
  0
LINE
  5
4E7
  8
0
  6
CONTINUOUS
 62
     7
 10
-578.67309999999975
 20
563.40661999999975
 30
0.0
 11
-581.09313999999995
 21
563.40661999999975
 31
0.0
  0
LINE
  5
4E8
  8
0
  6
CONTINUOUS
 62
     7
 10
-581.92273
 20
572.86657999999989
 30
0.0
 11
-578.3831799999997
 21
572.86657999999989
 31
0.0
  0
LINE
  5
4E9
  8
0
  6
CONTINUOUS
 62
     7
 10
-583.64312999999981
 20
572.74670000000003
 30
0.0
 11
-580.18311000000017
 21
559.82659999999964
 31
0.0
  0
LINE
  5
4EA
  8
0
  6
CONTINUOUS
 62
     7
 10
-649.94104000000004
 20
516.36658
 30
0.0
 11
-719.83312999999964
 21
516.36658
 31
0.0
  0
LINE
  5
4EB
  8
0
  6
CONTINUOUS
 62
     7
 10
-649.94104000000004
 20
518.36657999999989
 30
0.0
 11
-719.83312999999964
 21
518.36657999999989
 31
0.0
  0
LINE
  5
4EC
  8
0
  6
CONTINUOUS
 62
     7
 10
-649.94446000000016
 20
526.36658
 30
0.0
 11
-719.83312999999964
 21
526.36658
 31
0.0
  0
LINE
  5
4ED
  8
0
  6
CONTINUOUS
 62
     7
 10
-704.38317999999981
 20
574.25658999999985
 30
0.0
 11
-704.38317999999981
 21
566.85657000000003
 31
0.0
  0
LINE
  5
4EE
  8
0
  6
CONTINUOUS
 62
     7
 10
-649.94446000000016
 20
528.36658
 30
0.0
 11
-719.83312999999964
 21
528.36658
 31
0.0
  0
LINE
  5
4EF
  8
0
  6
CONTINUOUS
 62
     7
 10
-721.21312999999998
 20
574.15656000000001
 30
0.0
 11
-722.10315000000003
 21
570.62665000000004
 31
0.0
  0
LINE
  5
4F0
  8
0
  6
CONTINUOUS
 62
     7
 10
-723.55309999999986
 20
569.48657000000003
 30
0.0
 11
-721.90307999999982
 21
569.48657000000003
 31
0.0
  0
LINE
  5
4F1
  8
0
  6
CONTINUOUS
 62
     7
 10
-585.05029000000002
 20
536.36657999999966
 30
0.0
 11
-710.83312999999964
 21
536.36657999999966
 31
0.0
  0
LINE
  5
4F2
  8
0
  6
CONTINUOUS
 62
     7
 10
-721.19312000000002
 20
572.49663999999996
 30
0.0
 11
-722.11315999999988
 21
568.62659000000019
 31
0.0
  0
LINE
  5
4F3
  8
0
  6
CONTINUOUS
 62
     7
 10
-585.03600999999958
 20
538.36658
 30
0.0
 11
-599.3831799999997
 21
538.36658
 31
0.0
  0
LINE
  5
4F4
  8
0
  6
CONTINUOUS
 62
     7
 10
-585.04309000000001
 20
546.36658
 30
0.0
 11
-599.3831799999997
 21
546.36658
 31
0.0
  0
LINE
  5
4F5
  8
0
  6
CONTINUOUS
 62
     7
 10
-585.04309000000001
 20
548.36657999999977
 30
0.0
 11
-710.83312999999964
 21
548.36657999999977
 31
0.0
  0
LINE
  5
4F6
  8
0
  6
CONTINUOUS
 62
     7
 10
-723.57312000000002
 20
567.46654999999976
 30
0.0
 11
-713.78039999999999
 21
567.46654999999976
 31
0.0
  0
LINE
  5
4F7
  8
0
  6
CONTINUOUS
 62
     7
 10
-713.43884000000003
 20
569.05664000000002
 30
0.0
 11
-714.39886000000001
 21
564.58654999999999
 31
0.0
  0
LINE
  5
4F8
  8
0
  6
CONTINUOUS
 62
     7
 10
-715.86890000000005
 20
563.40661999999975
 30
0.0
 11
-713.44884999999965
 21
563.40661999999975
 31
0.0
  0
LINE
  5
4F9
  8
0
  6
CONTINUOUS
 62
     7
 10
-702.38317999999981
 20
576.25659000000019
 30
0.0
 11
-583.86315999999999
 21
576.25659000000019
 31
0.0
  0
LINE
  5
4FA
  8
0
  6
CONTINUOUS
 62
     7
 10
-702.38317999999981
 20
577.61658
 30
0.0
 11
-584.15552000000002
 21
577.61658
 31
0.0
  0
LINE
  5
4FB
  8
0
  6
CONTINUOUS
 62
     7
 10
-702.38317999999981
 20
578.28661999999986
 30
0.0
 11
-584.29944
 21
578.28661999999986
 31
0.0
  0
LINE
  5
4FC
  8
0
  6
CONTINUOUS
 62
     7
 10
-719.27307000000019
 20
575.66663000000005
 30
0.0
 11
-705.77306999999985
 21
575.66663000000005
 31
0.0
  0
LINE
  5
4FD
  8
0
  6
CONTINUOUS
 62
     7
 10
-719.25316999999995
 20
574.03661999999952
 30
0.0
 11
-705.88317999999981
 21
574.03661999999952
 31
0.0
  0
LINE
  5
4FE
  8
0
  6
CONTINUOUS
 62
     7
 10
-711.49267999999995
 20
570.63660000000004
 30
0.0
 11
-705.88317999999981
 21
570.63660000000004
 31
0.0
  0
LINE
  5
4FF
  8
0
  6
CONTINUOUS
 62
     7
 10
-714.17382999999995
 20
559.35999000000004
 30
0.0
 11
-713.38879000000031
 21
563.70659999999987
 31
0.0
  0
LINE
  5
500
  8
0
  6
CONTINUOUS
 62
     7
 10
-711.42882999999995
 20
565.35657000000003
 30
0.0
 11
-705.88317999999981
 21
565.35657000000003
 31
0.0
  0
LINE
  5
501
  8
0
  6
CONTINUOUS
 62
     7
 10
-702.38317999999981
 20
574.22655999999995
 30
0.0
 11
-585.57312000000002
 21
574.22655999999995
 31
0.0
  0
LINE
  5
502
  8
0
  6
CONTINUOUS
 62
     7
 10
-649.94104000000004
 20
498.36660999999992
 30
0.0
 11
-719.83312999999964
 21
498.36660999999992
 31
0.0
  0
LINE
  5
503
  8
0
  6
CONTINUOUS
 62
     7
 10
-725.38317999999981
 20
560.71654999999976
 30
0.0
 11
-715.38317999999981
 21
560.71654999999976
 31
0.0
  0
LINE
  5
504
  8
0
  6
CONTINUOUS
 62
     7
 10
-725.38317999999981
 20
555.05651999999998
 30
0.0
 11
-715.38317999999981
 21
555.05651999999998
 31
0.0
  0
LINE
  5
505
  8
0
  6
CONTINUOUS
 62
     7
 10
-725.38317999999981
 20
546.67664000000002
 30
0.0
 11
-715.38317999999981
 21
546.67664000000002
 31
0.0
  0
LINE
  5
506
  8
0
  6
CONTINUOUS
 62
     7
 10
-715.38317999999981
 20
560.71654999999976
 30
0.0
 11
-715.38317999999981
 21
546.67664000000002
 31
0.0
  0
LINE
  5
507
  8
0
  6
CONTINUOUS
 62
     7
 10
-585.04309000000001
 20
476.36660999999998
 30
0.0
 11
-629.38317999999981
 21
476.36660999999998
 31
0.0
  0
LINE
  5
508
  8
0
  6
CONTINUOUS
 62
     7
 10
-725.38317999999981
 20
454.93655000000001
 30
0.0
 11
-725.38317999999981
 21
512.36658
 31
0.0
  0
LINE
  5
509
  8
0
  6
CONTINUOUS
 62
     7
 10
-725.38311999999985
 20
569.79663000000005
 30
0.0
 11
-722.56310999999982
 21
569.86663999999985
 31
0.0
  0
LINE
  5
50A
  8
0
  6
CONTINUOUS
 62
     7
 10
-578.3831799999997
 20
449.86660999999998
 30
0.0
 11
-578.3831799999997
 21
574.86658
 31
0.0
  0
LINE
  5
50B
  8
0
  6
CONTINUOUS
 62
     7
 10
-684.38317999999981
 20
558.71654999999998
 30
0.0
 11
-578.3831799999997
 21
558.71654999999998
 31
0.0
  0
LINE
  5
50C
  8
0
  6
CONTINUOUS
 62
     7
 10
-723.55309999999986
 20
455.24660999999998
 30
0.0
 11
-721.90307999999982
 21
455.24660999999998
 31
0.0
  0
LINE
  5
50D
  8
0
  6
CONTINUOUS
 62
     7
 10
-704.38317999999981
 20
450.47757000000001
 30
0.0
 11
-704.38317999999981
 21
457.88662999999991
 31
0.0
  0
LINE
  5
50E
  8
0
  6
CONTINUOUS
 62
     7
 10
-721.19317999999998
 20
452.23656999999992
 30
0.0
 11
-722.11315999999988
 21
456.11667
 31
0.0
  0
LINE
  5
50F
  8
0
  6
CONTINUOUS
 62
     7
 10
-721.62182999999982
 20
452.20760999999987
 30
0.0
 11
-722.10315000000003
 21
454.11664000000002
 31
0.0
  0
LINE
  5
510
  8
0
  6
CONTINUOUS
 62
     7
 10
-583.64312999999981
 20
451.99655000000001
 30
0.0
 11
-580.18311000000017
 21
464.90664999999979
 31
0.0
  0
LINE
  5
511
  8
0
  6
CONTINUOUS
 62
     7
 10
-725.38317999999981
 20
464.01662999999968
 30
0.0
 11
-715.38317999999981
 21
464.01662999999968
 31
0.0
  0
LINE
  5
512
  8
0
  6
CONTINUOUS
 62
     7
 10
-715.38317999999981
 20
464.01662999999968
 30
0.0
 11
-715.38317999999981
 21
478.06655999999981
 31
0.0
  0
LINE
  5
513
  8
0
  6
CONTINUOUS
 62
     7
 10
-711.62328999999988
 20
459.38663000000003
 30
0.0
 11
-705.88317999999981
 21
459.38663000000003
 31
0.0
  0
LINE
  5
514
  8
0
  6
CONTINUOUS
 62
     7
 10
-702.38317999999981
 20
450.50661999999988
 30
0.0
 11
-585.57312000000002
 21
450.50661999999988
 31
0.0
  0
LINE
  5
515
  8
0
  6
CONTINUOUS
 62
     7
 10
-711.68555000000003
 20
454.10659999999979
 30
0.0
 11
-705.88317999999981
 21
454.10659999999979
 31
0.0
  0
LINE
  5
516
  8
0
  6
CONTINUOUS
 62
     7
 10
-711.71312999999975
 20
475.64663999999988
 30
0.0
 11
-629.38317999999981
 21
475.64663999999988
 31
0.0
  0
LINE
  5
517
  8
0
  6
CONTINUOUS
 62
     7
 10
-629.38317999999981
 20
475.64663999999988
 30
0.0
 11
-581.56311000000005
 21
475.64663999999988
 31
0.0
  0
LINE
  5
518
  8
0
  6
CONTINUOUS
 62
     7
 10
-629.38317999999981
 20
476.36660999999998
 30
0.0
 11
-710.84740999999985
 21
476.36660999999998
 31
0.0
  0
LINE
  5
519
  8
0
  6
CONTINUOUS
 62
     7
 10
-711.71312999999975
 20
479.00662
 30
0.0
 11
-617.36315999999999
 21
479.00662
 31
0.0
  0
LINE
  5
51A
  8
0
  6
CONTINUOUS
 62
     7
 10
-583.67309999999975
 20
451.86660999999992
 30
0.0
 11
-578.3831799999997
 21
451.86660999999992
 31
0.0
  0
LINE
  5
51B
  8
0
  6
CONTINUOUS
 62
     7
 10
-684.38317999999981
 20
466.01662999999991
 30
0.0
 11
-578.3831799999997
 21
466.01662999999991
 31
0.0
  0
LINE
  5
51C
  8
0
  6
CONTINUOUS
 62
     7
 10
-725.38311999999985
 20
454.93657999999999
 30
0.0
 11
-722.56310999999982
 21
454.87655999999998
 31
0.0
  0
LINE
  5
51D
  8
0
  6
CONTINUOUS
 62
     7
 10
-577.38317999999981
 20
575.86658
 30
0.0
 11
-570.3831799999997
 21
575.86658
 31
0.0
  0
LINE
  5
51E
  8
0
  6
CONTINUOUS
 62
     7
 10
-577.38317999999981
 20
564.40661999999998
 30
0.0
 11
-570.3831799999997
 21
564.40661999999998
 31
0.0
  0
LINE
  5
51F
  8
0
  6
CONTINUOUS
 62
     7
 10
-577.38317999999981
 20
448.86660999999992
 30
0.0
 11
-570.3831799999997
 21
448.86660999999992
 31
0.0
  0
LINE
  5
520
  8
0
  6
CONTINUOUS
 62
     7
 10
-578.3831799999997
 20
475.21657999999991
 30
0.0
 11
-570.3831799999997
 21
475.21657999999991
 31
0.0
  0
LINE
  5
521
  8
0
  6
CONTINUOUS
 62
     7
 10
-577.38317999999981
 20
460.32657
 30
0.0
 11
-570.3831799999997
 21
460.32657
 31
0.0
  0
LINE
  5
522
  8
0
  6
CONTINUOUS
 62
     7
 10
-578.3831799999997
 20
549.51660000000004
 30
0.0
 11
-570.3831799999997
 21
549.51660000000004
 31
0.0
  0
LINE
  5
523
  8
0
  6
CONTINUOUS
 62
     7
 10
-730.38317999999981
 20
560.38660000000004
 30
0.0
 11
-730.38317999999981
 21
517.36658
 31
0.0
  0
LINE
  5
524
  8
0
  6
CONTINUOUS
 62
     7
 10
-728.11315999999999
 20
562.11657999999989
 30
0.0
 11
-725.88317999999981
 21
562.11657999999989
 31
0.0
  0
LINE
  5
525
  8
0
  6
CONTINUOUS
 62
     7
 10
-728.18310999999983
 20
548.05651999999998
 30
0.0
 11
-726.08312999999964
 21
548.05651999999998
 31
0.0
  0
LINE
  5
526
  8
0
  6
CONTINUOUS
 62
     7
 10
-728.61310000000003
 20
561.98662999999988
 30
0.0
 11
-729.88311999999985
 21
561.24663999999996
 31
0.0
  0
LINE
  5
527
  8
0
  6
CONTINUOUS
 62
     7
 10
-728.62311
 20
559.86658
 30
0.0
 11
-729.9030799999997
 21
559.09662000000003
 31
0.0
  0
LINE
  5
528
  8
0
  6
CONTINUOUS
 62
     7
 10
-728.63311999999985
 20
555.32659999999976
 30
0.0
 11
-729.93310999999983
 21
554.47662000000003
 31
0.0
  0
LINE
  5
529
  8
0
  6
CONTINUOUS
 62
     7
 10
-728.57305999999983
 20
547.97655999999995
 30
0.0
 11
-729.77313000000004
 21
547.46654999999976
 31
0.0
  0
LINE
  5
52A
  8
0
  6
CONTINUOUS
 62
     7
 10
-728.10315000000003
 20
560.00658999999985
 30
0.0
 11
-725.38317999999981
 21
560.00658999999985
 31
0.0
  0
LINE
  5
52B
  8
0
  6
CONTINUOUS
 62
     7
 10
-728.08312999999998
 20
555.49657999999965
 30
0.0
 11
-725.38317999999981
 21
555.49657999999965
 31
0.0
  0
LINE
  5
52C
  8
0
  6
CONTINUOUS
 62
     7
 10
-728.23315000000002
 20
546.10657000000003
 30
0.0
 11
-726.38317999999981
 21
546.10657000000003
 31
0.0
  0
LINE
  5
52D
  8
0
  6
CONTINUOUS
 62
     7
 10
-728.11315999999999
 20
554.35657000000003
 30
0.0
 11
-726.38317999999981
 21
554.35657000000003
 31
0.0
  0
LINE
  5
52E
  8
0
  6
CONTINUOUS
 62
     7
 10
-728.13317999999981
 20
558.86658
 30
0.0
 11
-726.38317999999981
 21
558.86658
 31
0.0
  0
LINE
  5
52F
  8
0
  6
CONTINUOUS
 62
     7
 10
-728.14306999999985
 20
560.96654999999998
 30
0.0
 11
-725.88317999999981
 21
560.96654999999998
 31
0.0
  0
LINE
  5
530
  8
0
  6
CONTINUOUS
 62
     7
 10
-728.61315999999999
 20
554.21654999999998
 30
0.0
 11
-729.89312999999981
 21
553.46654999999998
 31
0.0
  0
LINE
  5
531
  8
0
  6
CONTINUOUS
 62
     7
 10
-728.52319
 20
546.06664999999998
 30
0.0
 11
-729.67322000000001
 21
545.71660999999995
 31
0.0
  0
LINE
  5
532
  8
0
  6
CONTINUOUS
 62
     7
 10
-728.59313999999983
 20
560.86657999999977
 30
0.0
 11
-729.83312999999998
 21
560.23657000000003
 31
0.0
  0
LINE
  5
533
  8
0
  6
CONTINUOUS
 62
     7
 10
-728.60314999999969
 20
558.75665000000004
 30
0.0
 11
-729.85315000000003
 21
558.08667000000003
 31
0.0
  0
LINE
  5
534
  8
0
  6
CONTINUOUS
 62
     7
 10
-726.38317999999981
 20
538.36658
 30
0.0
 11
-729.38317999999981
 21
538.36658
 31
0.0
  0
LINE
  5
535
  8
0
  6
CONTINUOUS
 62
     7
 10
-726.38317999999981
 20
536.36657999999966
 30
0.0
 11
-729.38317999999981
 21
536.36657999999966
 31
0.0
  0
LINE
  5
536
  8
0
  6
CONTINUOUS
 62
     7
 10
-726.38317999999981
 20
528.36658
 30
0.0
 11
-729.38317999999981
 21
528.36658
 31
0.0
  0
LINE
  5
537
  8
0
  6
CONTINUOUS
 62
     7
 10
-726.38317999999981
 20
526.36658
 30
0.0
 11
-729.38317999999981
 21
526.36658
 31
0.0
  0
LINE
  5
538
  8
0
  6
CONTINUOUS
 62
     7
 10
-726.38317999999981
 20
518.36657999999989
 30
0.0
 11
-729.38317999999981
 21
518.36657999999989
 31
0.0
  0
LINE
  5
539
  8
0
  6
CONTINUOUS
 62
     7
 10
-726.38317999999981
 20
516.36658
 30
0.0
 11
-729.38317999999981
 21
516.36658
 31
0.0
  0
LINE
  5
53A
  8
0
  6
CONTINUOUS
 62
     7
 10
-728.3831799999997
 20
527.97655999999995
 30
0.0
 11
-728.3831799999997
 21
526.76660000000004
 31
0.0
  0
LINE
  5
53B
  8
0
  6
CONTINUOUS
 62
     7
 10
-728.3831799999997
 20
517.97655999999995
 30
0.0
 11
-728.3831799999997
 21
516.81652999999994
 31
0.0
  0
LINE
  5
53C
  8
0
  6
CONTINUOUS
 62
     7
 10
-728.3831799999997
 20
537.99657999999988
 30
0.0
 11
-728.3831799999997
 21
536.62659000000008
 31
0.0
  0
LINE
  5
53D
  8
0
  6
CONTINUOUS
 62
     7
 10
-728.3831799999997
 20
547.75658999999996
 30
0.0
 11
-728.3831799999997
 21
546.69653000000005
 31
0.0
  0
LINE
  5
53E
  8
0
  6
CONTINUOUS
 62
     7
 10
-728.3831799999997
 20
555.19653000000005
 30
0.0
 11
-728.3831799999997
 21
554.72655999999995
 31
0.0
  0
LINE
  5
53F
  8
0
  6
CONTINUOUS
 62
     7
 10
-728.3831799999997
 20
559.76660000000004
 30
0.0
 11
-728.3831799999997
 21
559.21654999999998
 31
0.0
  0
LINE
  5
540
  8
0
  6
CONTINUOUS
 62
     7
 10
-728.3831799999997
 20
561.86658
 30
0.0
 11
-728.3831799999997
 21
561.33654999999965
 31
0.0
  0
LINE
  5
541
  8
0
  6
CONTINUOUS
 62
     7
 10
-731.88317999999981
 20
532.36657999999966
 30
0.0
 11
-731.88317999999981
 21
512.36658
 31
0.0
  0
LINE
  5
542
  8
0
  6
CONTINUOUS
 62
     7
 10
-731.88311999999985
 20
532.36663999999985
 30
0.0
 11
-730.38311999999985
 21
532.49663999999996
 31
0.0
  0
LINE
  5
543
  8
0
  6
CONTINUOUS
 62
     7
 10
-731.88317999999981
 20
527.51660000000004
 30
0.0
 11
-730.38317999999981
 21
527.51660000000004
 31
0.0
  0
LINE
  5
544
  8
0
  6
CONTINUOUS
 62
     7
 10
-731.88317999999981
 20
529.6466099999999
 30
0.0
 11
-730.38317999999981
 21
529.6466099999999
 31
0.0
  0
LINE
  5
545
  8
0
  6
CONTINUOUS
 62
     7
 10
-728.18310999999983
 20
476.67666999999989
 30
0.0
 11
-726.08312999999964
 21
476.67666999999989
 31
0.0
  0
LINE
  5
546
  8
0
  6
CONTINUOUS
 62
     7
 10
-728.57312000000002
 20
476.75659000000002
 30
0.0
 11
-729.77313000000004
 21
477.27658000000002
 31
0.0
  0
LINE
  5
547
  8
0
  6
CONTINUOUS
 62
     7
 10
-728.23315000000002
 20
478.62662
 30
0.0
 11
-726.38317999999981
 21
478.62662
 31
0.0
  0
LINE
  5
548
  8
0
  6
CONTINUOUS
 62
     7
 10
-728.52313000000004
 20
478.66663
 30
0.0
 11
-729.67309999999998
 21
479.02663999999999
 31
0.0
  0
LINE
  5
549
  8
0
  6
CONTINUOUS
 62
     7
 10
-726.38317999999981
 20
486.36660999999992
 30
0.0
 11
-729.38317999999981
 21
486.36660999999992
 31
0.0
  0
LINE
  5
54A
  8
0
  6
CONTINUOUS
 62
     7
 10
-726.38317999999981
 20
488.36660999999998
 30
0.0
 11
-729.38317999999981
 21
488.36660999999998
 31
0.0
  0
LINE
  5
54B
  8
0
  6
CONTINUOUS
 62
     7
 10
-726.38317999999981
 20
496.36660999999998
 30
0.0
 11
-729.38317999999981
 21
496.36660999999998
 31
0.0
  0
LINE
  5
54C
  8
0
  6
CONTINUOUS
 62
     7
 10
-726.38317999999981
 20
498.36660999999992
 30
0.0
 11
-729.38317999999981
 21
498.36660999999992
 31
0.0
  0
LINE
  5
54D
  8
0
  6
CONTINUOUS
 62
     7
 10
-726.38317999999981
 20
506.36660999999981
 30
0.0
 11
-729.38317999999981
 21
506.36660999999981
 31
0.0
  0
LINE
  5
54E
  8
0
  6
CONTINUOUS
 62
     7
 10
-726.38317999999981
 20
508.36660999999998
 30
0.0
 11
-729.38317999999981
 21
508.36660999999998
 31
0.0
  0
LINE
  5
54F
  8
0
  6
CONTINUOUS
 62
     7
 10
-728.3831799999997
 20
496.75662
 30
0.0
 11
-728.3831799999997
 21
497.97658999999999
 31
0.0
  0
LINE
  5
550
  8
0
  6
CONTINUOUS
 62
     7
 10
-728.3831799999997
 20
506.75661999999988
 30
0.0
 11
-728.3831799999997
 21
507.91665999999992
 31
0.0
  0
LINE
  5
551
  8
0
  6
CONTINUOUS
 62
     7
 10
-728.3831799999997
 20
486.73660000000001
 30
0.0
 11
-728.3831799999997
 21
488.10660000000001
 31
0.0
  0
LINE
  5
552
  8
0
  6
CONTINUOUS
 62
     7
 10
-728.3831799999997
 20
476.97658999999999
 30
0.0
 11
-728.3831799999997
 21
478.03665000000001
 31
0.0
  0
LINE
  5
553
  8
0
  6
CONTINUOUS
 62
     7
 10
-731.88317999999981
 20
492.36660999999998
 30
0.0
 11
-731.88317999999981
 21
512.36658
 31
0.0
  0
LINE
  5
554
  8
0
  6
CONTINUOUS
 62
     7
 10
-731.88311999999985
 20
492.36660999999998
 30
0.0
 11
-730.38311999999985
 21
492.23660000000001
 31
0.0
  0
LINE
  5
555
  8
0
  6
CONTINUOUS
 62
     7
 10
-731.88317999999981
 20
497.21657999999991
 30
0.0
 11
-730.38317999999981
 21
497.21657999999991
 31
0.0
  0
LINE
  5
556
  8
0
  6
CONTINUOUS
 62
     7
 10
-731.88317999999981
 20
495.0865799999998
 30
0.0
 11
-730.38317999999981
 21
495.0865799999998
 31
0.0
  0
LINE
  5
557
  8
0
  6
CONTINUOUS
 62
     7
 10
-729.89312999999981
 20
471.26657
 30
0.0
 11
-729.91309000000001
 21
471.2765799999998
 31
0.0
  0
LINE
  5
558
  8
0
  6
CONTINUOUS
 62
     7
 10
-730.38317999999981
 20
464.34658999999988
 30
0.0
 11
-730.38317999999981
 21
507.36660999999992
 31
0.0
  0
LINE
  5
559
  8
0
  6
CONTINUOUS
 62
     7
 10
-728.11315999999999
 20
462.61660999999981
 30
0.0
 11
-725.88317999999981
 21
462.61660999999981
 31
0.0
  0
LINE
  5
55A
  8
0
  6
CONTINUOUS
 62
     7
 10
-728.61310000000003
 20
462.75659000000002
 30
0.0
 11
-729.88306
 21
463.4865699999998
 31
0.0
  0
LINE
  5
55B
  8
0
  6
CONTINUOUS
 62
     7
 10
-728.62311
 20
464.86657999999989
 30
0.0
 11
-729.90314000000001
 21
465.63659999999999
 31
0.0
  0
LINE
  5
55C
  8
0
  6
CONTINUOUS
 62
     7
 10
-728.63306
 20
469.40658999999999
 30
0.0
 11
-729.93304000000001
 21
470.25659000000002
 31
0.0
  0
LINE
  5
55D
  8
0
  6
CONTINUOUS
 62
     7
 10
-728.10315000000003
 20
464.72658999999987
 30
0.0
 11
-725.38317999999981
 21
464.72658999999987
 31
0.0
  0
LINE
  5
55E
  8
0
  6
CONTINUOUS
 62
     7
 10
-728.08312999999998
 20
469.24660999999981
 30
0.0
 11
-725.38317999999981
 21
469.24660999999981
 31
0.0
  0
LINE
  5
55F
  8
0
  6
CONTINUOUS
 62
     7
 10
-728.11315999999999
 20
470.38662999999991
 30
0.0
 11
-726.38317999999981
 21
470.38662999999991
 31
0.0
  0
LINE
  5
560
  8
0
  6
CONTINUOUS
 62
     7
 10
-728.13317999999981
 20
465.86660999999992
 30
0.0
 11
-726.38317999999981
 21
465.86660999999992
 31
0.0
  0
LINE
  5
561
  8
0
  6
CONTINUOUS
 62
     7
 10
-728.14306999999985
 20
463.76662999999991
 30
0.0
 11
-725.88317999999981
 21
463.76662999999991
 31
0.0
  0
LINE
  5
562
  8
0
  6
CONTINUOUS
 62
     7
 10
-728.61310000000003
 20
470.51659999999998
 30
0.0
 11
-729.89306999999985
 21
471.26659999999993
 31
0.0
  0
LINE
  5
563
  8
0
  6
CONTINUOUS
 62
     7
 10
-728.59320000000002
 20
463.87662
 30
0.0
 11
-729.83318999999983
 21
464.50659000000002
 31
0.0
  0
LINE
  5
564
  8
0
  6
CONTINUOUS
 62
     7
 10
-728.60314999999969
 20
465.98662999999999
 30
0.0
 11
-729.85308999999984
 21
466.64661000000001
 31
0.0
  0
LINE
  5
565
  8
0
  6
CONTINUOUS
 62
     7
 10
-728.3831799999997
 20
469.53665000000001
 30
0.0
 11
-728.3831799999997
 21
470.00662
 31
0.0
  0
LINE
  5
566
  8
0
  6
CONTINUOUS
 62
     7
 10
-728.3831799999997
 20
464.96658000000002
 30
0.0
 11
-728.3831799999997
 21
465.51662999999991
 31
0.0
  0
LINE
  5
567
  8
0
  6
CONTINUOUS
 62
     7
 10
-728.3831799999997
 20
462.86660999999998
 30
0.0
 11
-728.3831799999997
 21
463.39663999999999
 31
0.0
  0
LINE
  5
568
  8
0
  6
CONTINUOUS
 62
     7
 10
-658.88317999999981
 20
440.36660999999992
 30
0.0
 11
-658.88317999999981
 21
439.36660999999992
 31
0.0
  0
LINE
  5
569
  8
0
  6
CONTINUOUS
 62
     7
 10
-599.8831799999997
 20
440.36660999999992
 30
0.0
 11
-599.8831799999997
 21
439.36660999999992
 31
0.0
  0
LINE
  5
56A
  8
0
  6
CONTINUOUS
 62
     3
 10
-678.65600999999981
 20
439.36660999999992
 30
0.0
 11
-598.65612999999985
 21
439.36660999999992
 31
0.0
  0
LINE
  5
56B
  8
0
  6
CONTINUOUS
 62
     3
 10
-598.65612999999985
 20
439.36660999999992
 30
0.0
 11
-598.65612999999985
 21
432.36660999999992
 31
0.0
  0
LINE
  5
56C
  8
0
  6
CONTINUOUS
 62
     3
 10
-600.15612999999985
 20
415.86660999999992
 30
0.0
 11
-600.15612999999985
 21
432.36660999999992
 31
0.0
  0
LINE
  5
56D
  8
0
  6
CONTINUOUS
 62
     3
 10
-658.15612999999985
 20
428.36660999999992
 30
0.0
 11
-658.15612999999985
 21
435.86660999999992
 31
0.0
  0
LINE
  5
56E
  8
0
  6
CONTINUOUS
 62
     3
 10
-673.15600999999981
 20
435.86660999999992
 30
0.0
 11
-673.15600999999981
 21
428.36660999999992
 31
0.0
  0
LINE
  5
56F
  8
0
  6
CONTINUOUS
 62
     3
 10
-677.15600999999981
 20
435.86660999999992
 30
0.0
 11
-677.15600999999981
 21
415.86660999999992
 31
0.0
  0
LINE
  5
570
  8
0
  6
CONTINUOUS
 62
     3
 10
-647.9561799999999
 20
412.86660999999998
 30
0.0
 11
-612.35607999999979
 21
412.86660999999998
 31
0.0
  0
LINE
  5
571
  8
0
  6
CONTINUOUS
 62
     3
 10
-677.15600999999981
 20
415.86660999999992
 30
0.0
 11
-600.15612999999985
 21
415.86660999999992
 31
0.0
  0
LINE
  5
572
  8
0
  6
CONTINUOUS
 62
     3
 10
-677.15600999999981
 20
432.36660999999992
 30
0.0
 11
-673.15600999999981
 21
432.36660999999992
 31
0.0
  0
LINE
  5
573
  8
0
  6
CONTINUOUS
 62
     3
 10
-607.15607
 20
415.86660999999992
 30
0.0
 11
-612.35613999999975
 21
412.86660999999998
 31
0.0
  0
LINE
  5
574
  8
0
  6
CONTINUOUS
 62
     3
 10
-647.9561799999999
 20
412.86658
 30
0.0
 11
-653.15612999999985
 21
415.86655000000002
 31
0.0
  0
LINE
  5
575
  8
0
  6
CONTINUOUS
 62
     3
 10
-680.65600999999981
 20
435.86660999999992
 30
0.0
 11
-680.65600999999981
 21
420.86757999999992
 31
0.0
  0
LINE
  5
576
  8
0
  6
CONTINUOUS
 62
     3
 10
-677.15600999999981
 20
420.86757999999992
 30
0.0
 11
-680.65600999999981
 21
420.86757999999992
 31
0.0
  0
LINE
  5
577
  8
0
  6
CONTINUOUS
 62
     3
 10
-658.15612999999985
 20
432.36660999999992
 30
0.0
 11
-598.65612999999985
 21
432.36660999999992
 31
0.0
  0
LINE
  5
578
  8
0
  6
CONTINUOUS
 62
     3
 10
-661.65612999999985
 20
435.86660999999992
 30
0.0
 11
-661.65612999999985
 21
428.36660999999992
 31
0.0
  0
LINE
  5
579
  8
0
  6
CONTINUOUS
 62
     3
 10
-680.65600999999981
 20
435.86660999999992
 30
0.0
 11
-598.65612999999985
 21
435.86660999999992
 31
0.0
  0
LINE
  5
57A
  8
0
  6
CONTINUOUS
 62
     3
 10
-678.65600999999981
 20
439.36660999999992
 30
0.0
 11
-678.65600999999981
 21
435.86660999999992
 31
0.0
  0
LINE
  5
57B
  8
0
  6
CONTINUOUS
 62
     3
 10
-669.65600999999981
 20
435.86660999999992
 30
0.0
 11
-669.65600999999981
 21
428.36660999999992
 31
0.0
  0
LINE
  5
57C
  8
0
  6
CONTINUOUS
 62
     7
 10
-599.3831799999997
 20
440.36660999999992
 30
0.0
 11
-659.38317999999981
 21
440.36660999999992
 31
0.0
  0
LINE
  5
57D
  8
0
  6
CONTINUOUS
 62
     7
 10
-616.36315999999999
 20
539.86657999999977
 30
0.0
 11
-616.36315999999999
 21
544.72655999999995
 31
0.0
  0
LINE
  5
57E
  8
0
  6
CONTINUOUS
 62
     7
 10
-600.40307999999982
 20
539.86657999999977
 30
0.0
 11
-600.40307999999982
 21
544.72655999999995
 31
0.0
  0
LINE
  5
57F
  8
0
  6
CONTINUOUS
 62
     7
 10
-617.38317999999981
 20
546.36658
 30
0.0
 11
-710.83312999999964
 21
546.36658
 31
0.0
  0
LINE
  5
580
  8
0
  6
CONTINUOUS
 62
     7
 10
-615.8831799999997
 20
539.86657999999977
 30
0.0
 11
-615.8831799999997
 21
544.86657999999966
 31
0.0
  0
LINE
  5
581
  8
0
  6
CONTINUOUS
 62
     7
 10
-600.88317999999981
 20
539.86657999999977
 30
0.0
 11
-600.88317999999981
 21
544.86657999999966
 31
0.0
  0
LINE
  5
582
  8
0
  6
CONTINUOUS
 62
     7
 10
-599.40307999999982
 20
545.73657000000003
 30
0.0
 11
-581.56311000000005
 21
545.73657000000003
 31
0.0
  0
LINE
  5
583
  8
0
  6
CONTINUOUS
 62
     7
 10
-617.38317999999981
 20
538.36658
 30
0.0
 11
-710.83312999999964
 21
538.36658
 31
0.0
  0
LINE
  5
584
  8
0
  6
CONTINUOUS
 62
     3
 10
-644.38317999999981
 20
532.86658
 30
0.0
 11
-644.38317999999981
 21
491.86660999999998
 31
0.0
  0
LINE
  5
585
  8
0
  6
CONTINUOUS
 62
     3
 10
-581.38317999999981
 20
532.86658
 30
0.0
 11
-581.38317999999981
 21
491.86660999999998
 31
0.0
  0
LINE
  5
586
  8
0
  6
CONTINUOUS
 62
     7
 10
-644.38317999999981
 20
532.86658
 30
0.0
 11
-581.38317999999981
 21
532.86658
 31
0.0
  0
LINE
  5
587
  8
0
  6
CONTINUOUS
 62
     7
 10
-599.3831799999997
 20
538.85657000000003
 30
0.0
 11
-581.3374
 21
538.85657000000003
 31
0.0
  0
LINE
  5
588
  8
0
  6
CONTINUOUS
 62
     7
 10
-644.38317999999981
 20
491.86660999999998
 30
0.0
 11
-581.38317999999981
 21
491.86660999999998
 31
0.0
  0
LINE
  5
589
  8
0
  6
CONTINUOUS
 62
     3
 10
-684.38311999999985
 20
558.71654999999998
 30
0.0
 11
-715.38311999999985
 21
556.68651999999986
 31
0.0
  0
LINE
  5
58A
  8
0
  6
CONTINUOUS
 62
     3
 10
-684.38311999999985
 20
466.01657
 30
0.0
 11
-715.38317999999981
 21
468.04656999999997
 31
0.0
  0
LINE
  5
58B
  8
0
  6
CONTINUOUS
 62
     7
 10
-644.38317999999981
 20
525.36658
 30
0.0
 11
-581.38317999999981
 21
525.36658
 31
0.0
  0
LINE
  5
58C
  8
0
  6
CONTINUOUS
 62
     7
 10
-532.88317999999992
 20
412.86660999999998
 30
0.0
 11
-532.88317999999992
 21
611.86658
 31
0.0
  0
LINE
  5
58D
  8
0
  6
CONTINUOUS
 62
     7
 10
-570.3831799999997
 20
564.40661999999998
 30
0.0
 11
-557.88317999999992
 21
564.40661999999998
 31
0.0
  0
LINE
  5
58E
  8
0
  6
CONTINUOUS
 62
     7
 10
-570.3831799999997
 20
549.51660000000004
 30
0.0
 11
-557.88317999999992
 21
549.51660000000004
 31
0.0
  0
LINE
  5
58F
  8
0
  6
CONTINUOUS
 62
     7
 10
-557.88317999999992
 20
440.43768
 30
0.0
 11
-557.88317999999992
 21
584.29552999999976
 31
0.0
  0
LINE
  5
590
  8
0
  6
CONTINUOUS
 62
     7
 10
-542.88317999999992
 20
415.14721999999989
 30
0.0
 11
-542.88317999999992
 21
609.58600000000001
 31
0.0
  0
LINE
  5
591
  8
0
  6
CONTINUOUS
 62
     7
 10
-570.3831799999997
 20
475.21660999999989
 30
0.0
 11
-557.88317999999992
 21
475.21660999999989
 31
0.0
  0
LINE
  5
592
  8
0
  6
CONTINUOUS
 62
     7
 10
-570.3831799999997
 20
460.32659999999993
 30
0.0
 11
-557.88317999999992
 21
460.32659999999993
 31
0.0
  0
LINE
  5
593
  8
0
  6
CONTINUOUS
 62
     7
 10
-570.38311999999985
 20
575.86658
 30
0.0
 11
-562.70867999999984
 21
576.1345799999998
 31
0.0
  0
LINE
  5
594
  8
0
  6
CONTINUOUS
 62
     7
 10
-556.41869999999994
 20
436.90215999999992
 30
0.0
 11
-543.76183999999978
 21
424.24532999999991
 31
0.0
  0
LINE
  5
595
  8
0
  6
CONTINUOUS
 62
     7
 10
-540.95294000000001
 20
611.58483999999987
 30
0.0
 11
-532.88317999999992
 21
611.86664000000019
 31
0.0
  0
LINE
  5
596
  8
0
  6
CONTINUOUS
 62
     7
 10
-556.41869999999994
 20
587.83105
 30
0.0
 11
-543.76183999999978
 21
600.48792000000003
 31
0.0
  0
LINE
  5
597
  8
0
  6
CONTINUOUS
 62
     7
 10
-570.3831799999997
 20
575.86658
 30
0.0
 11
-570.3831799999997
 21
448.86655000000002
 31
0.0
  0
LINE
  5
598
  8
0
  6
CONTINUOUS
 62
     7
 10
-570.38311999999985
 20
448.86655000000002
 30
0.0
 11
-562.70861999999988
 21
448.59859999999992
 31
0.0
  0
LINE
  5
599
  8
0
  6
CONTINUOUS
 62
     7
 10
-540.95299999999997
 20
413.14843999999988
 30
0.0
 11
-532.88317999999992
 21
412.86660999999998
 31
0.0
  0
LINE
  5
59A
  8
0
  6
CENTER
 62
     7
 10
-269.82522999999992
 20
181.5479399999999
 30
0.0
 11
-21.370792000000002
 21
181.5479399999999
 31
0.0
  0
LINE
  5
59B
  8
0
  6
CONTINUOUS
 62
     7
 10
-440.82430999999991
 20
408.30777
 30
0.0
 11
-434.88308999999998
 21
402.36654999999979
 31
0.0
  0
LINE
  5
59C
  8
0
  6
CONTINUOUS
 62
     7
 10
-532.88305999999977
 20
412.86660999999998
 30
0.0
 11
-444.18535999999989
 21
409.76922999999999
 31
0.0
  0
LINE
  5
59D
  8
0
  6
CONTINUOUS
 62
     7
 10
-431.16765999999973
 20
418.77499
 30
0.0
 11
-430.98781999999989
 21
418.76870999999988
 31
0.0
  0
LINE
  5
59E
  8
0
  6
CONTINUOUS
 62
     7
 10
-357.88308999999992
 20
528.36663999999985
 30
0.0
 11
-415.88311999999979
 21
528.36663999999985
 31
0.0
  0
LINE
  5
59F
  8
0
  6
CONTINUOUS
 62
     7
 10
-431.98779000000002
 20
395.28931
 30
0.0
 11
-419.88311999999979
 21
394.86660999999998
 31
0.0
  0
LINE
  5
5A0
  8
0
  6
CONTINUOUS
 62
     7
 10
-357.88308999999992
 20
496.36664000000002
 30
0.0
 11
-415.88311999999979
 21
496.36664000000002
 31
0.0
  0
LINE
  5
5A1
  8
0
  6
CONTINUOUS
 62
     7
 10
-357.88308999999992
 20
496.36664000000002
 30
0.0
 11
-357.88308999999992
 21
528.36663999999985
 31
0.0
  0
LINE
  5
5A2
  8
0
  6
CONTINUOUS
 62
     7
 10
-431.88311999999991
 20
456.45587
 30
0.0
 11
-427.88311999999991
 21
456.45587
 31
0.0
  0
LINE
  5
5A3
  8
0
  6
CONTINUOUS
 62
     7
 10
-415.88311999999979
 20
407.36657999999989
 30
0.0
 11
-415.88311999999979
 21
617.36663999999996
 31
0.0
  0
LINE
  5
5A4
  8
0
  6
CONTINUOUS
 62
     7
 10
-419.88311999999979
 20
617.36663999999996
 30
0.0
 11
-415.88311999999979
 21
617.36663999999996
 31
0.0
  0
LINE
  5
5A5
  8
0
  6
CONTINUOUS
 62
     7
 10
-431.16762999999997
 20
605.95818999999995
 30
0.0
 11
-430.98781999999989
 21
605.96447999999998
 31
0.0
  0
LINE
  5
5A6
  8
0
  6
CONTINUOUS
 62
     7
 10
-431.88311999999991
 20
568.27733999999998
 30
0.0
 11
-427.88311999999991
 21
568.27733999999998
 31
0.0
  0
LINE
  5
5A7
  8
0
  6
CONTINUOUS
 62
     7
 10
-419.88311999999979
 20
394.86660999999998
 30
0.0
 11
-419.88311999999979
 21
629.86663999999996
 31
0.0
  0
LINE
  5
5A8
  8
0
  6
CONTINUOUS
 62
     7
 10
-431.98779000000002
 20
629.44390999999985
 30
0.0
 11
-419.88308999999992
 21
629.86658
 31
0.0
  0
LINE
  5
5A9
  8
0
  6
CONTINUOUS
 62
     7
 10
-427.88311999999991
 20
421.76687999999967
 30
0.0
 11
-427.88311999999991
 21
602.96636999999998
 31
0.0
  0
LINE
  5
5AA
  8
0
  6
CENTER
 62
     7
 10
-410.40114999999992
 20
607.82604999999978
 30
0.0
 11
-441.48712
 21
607.82604999999978
 31
0.0
  0
LINE
  5
5AB
  8
0
  6
CONTINUOUS
 62
     7
 10
-532.88311999999985
 20
611.86658
 30
0.0
 11
-444.18533000000002
 21
614.96399000000019
 31
0.0
  0
LINE
  5
5AC
  8
0
  6
CENTER
 62
     7
 10
-410.40114999999992
 20
416.90719999999988
 30
0.0
 11
-441.48712
 21
416.90719999999988
 31
0.0
  0
LINE
  5
5AD
  8
0
  6
CONTINUOUS
 62
     7
 10
-440.82430999999991
 20
616.42542000000003
 30
0.0
 11
-434.88308999999998
 21
622.36663999999985
 31
0.0
  0
LINE
  5
5AE
  8
0
  6
CONTINUOUS
 62
     7
 10
-434.88312000000002
 20
398.28747999999979
 30
0.0
 11
-434.88312000000002
 21
626.44574
 31
0.0
  0
LINE
  5
5AF
  8
0
  6
CONTINUOUS
 62
     7
 10
-419.88311999999979
 20
407.36657999999989
 30
0.0
 11
-415.88311999999979
 21
407.36657999999989
 31
0.0
  0
LINE
  5
5B0
  8
0
  6
CONTINUOUS
 62
     7
 10
-402.88311999999991
 20
517.36658
 30
0.0
 11
-402.88311999999991
 21
507.36660999999992
 31
0.0
  0
LINE
  5
5B1
  8
0
  6
CONTINUOUS
 62
     7
 10
-402.88311999999991
 20
517.36658
 30
0.0
 11
-357.88308999999992
 21
517.36658
 31
0.0
  0
LINE
  5
5B2
  8
0
  6
CONTINUOUS
 62
     7
 10
-402.88311999999991
 20
507.36660999999992
 30
0.0
 11
-357.88308999999992
 21
507.36660999999992
 31
0.0
  0
LINE
  5
5B3
  8
0
  6
CONTINUOUS
 62
     7
 10
-357.88312000000002
 20
197.5479399999999
 30
0.0
 11
-415.88314999999989
 21
197.5479399999999
 31
0.0
  0
LINE
  5
5B4
  8
0
  6
CONTINUOUS
 62
     7
 10
-357.88312000000002
 20
200.54794000000001
 30
0.0
 11
-402.88311999999991
 21
200.54794000000001
 31
0.0
  0
LINE
  5
5B5
  8
0
  6
CONTINUOUS
 62
     7
 10
-431.88314999999989
 20
119.85868000000001
 30
0.0
 11
-427.88314999999989
 21
119.85868000000001
 31
0.0
  0
LINE
  5
5B6
  8
0
  6
CONTINUOUS
 62
     7
 10
-97.280945000000003
 20
181.5479399999999
 30
0.0
 11
-97.280945000000003
 21
143.5479599999999
 31
0.0
  0
LINE
  5
5B7
  8
0
  6
CONTINUOUS
 62
     7
 10
-142.28093999999999
 20
262.06265000000002
 30
0.0
 11
-142.28093999999999
 21
255.87218999999999
 31
0.0
  0
LINE
  5
5B8
  8
0
  6
CONTINUOUS
 62
     7
 10
-148.28093999999979
 20
262.06265000000002
 30
0.0
 11
-148.28093999999979
 21
255.87218999999999
 31
0.0
  0
LINE
  5
5B9
  8
0
  6
CONTINUOUS
 62
     7
 10
-145.2809399999999
 20
64.047966000000002
 30
0.0
 11
-115.2809399999999
 21
64.047966000000002
 31
0.0
  0
LINE
  5
5BA
  8
0
  6
CONTINUOUS
 62
     7
 10
-27.780947000000001
 20
151.5479599999999
 30
0.0
 11
-31.195800999999999
 21
86.388671999999985
 31
0.0
  0
LINE
  5
5BB
  8
0
  6
CONTINUOUS
 62
     7
 10
-145.2809399999999
 20
299.04793999999993
 30
0.0
 11
-115.2809399999999
 21
299.04793999999993
 31
0.0
  0
LINE
  5
5BC
  8
0
  6
CONTINUOUS
 62
     7
 10
-27.780951000000002
 20
181.5479399999999
 30
0.0
 11
-27.780951000000002
 21
211.5479399999999
 31
0.0
  0
LINE
  5
5BD
  8
0
  6
CONTINUOUS
 62
     7
 10
-115.28095
 20
64.047957999999994
 30
0.0
 11
-50.121676999999998
 21
67.462813999999995
 31
0.0
  0
LINE
  5
5BE
  8
0
  6
CONTINUOUS
 62
     7
 10
-115.28095
 20
299.04793999999993
 30
0.0
 11
-50.121681000000002
 21
295.63308999999992
 31
0.0
  0
LINE
  5
5BF
  8
0
  6
CONTINUOUS
 62
     7
 10
-415.88314999999989
 20
76.547966000000002
 30
0.0
 11
-415.88314999999989
 21
286.54797000000002
 31
0.0
  0
LINE
  5
5C0
  8
0
  6
CONTINUOUS
 62
     7
 10
-419.88314999999989
 20
286.54797000000002
 30
0.0
 11
-415.88314999999989
 21
286.54797000000002
 31
0.0
  0
LINE
  5
5C1
  8
0
  6
CONTINUOUS
 62
     7
 10
-357.88312000000002
 20
165.5479599999999
 30
0.0
 11
-415.88314999999989
 21
165.5479599999999
 31
0.0
  0
LINE
  5
5C2
  8
0
  6
CONTINUOUS
 62
     7
 10
-431.16771999999997
 20
275.13956000000002
 30
0.0
 11
-430.98781999999989
 21
275.14580999999998
 31
0.0
  0
LINE
  5
5C3
  8
0
  6
CENTER
 62
     7
 10
-61.179614999999991
 20
265.64928999999989
 30
0.0
 11
-39.988723999999991
 21
286.84017999999998
 31
0.0
  0
LINE
  5
5C4
  8
0
  6
CONTINUOUS
 62
     7
 10
-402.88311999999991
 20
197.5479399999999
 30
0.0
 11
-402.88311999999991
 21
200.54794000000001
 31
0.0
  0
LINE
  5
5C5
  8
0
  6
CONTINUOUS
 62
     7
 10
-532.88317999999992
 20
54.04795799999998
 30
0.0
 11
-532.88317999999992
 21
253.0479399999999
 31
0.0
  0
LINE
  5
5C6
  8
0
  6
CONTINUOUS
 62
     7
 10
-105.52015
 20
215.65190000000001
 30
0.0
 11
-76.289841000000024
 21
244.8822199999999
 31
0.0
  0
LINE
  5
5C7
  8
0
  6
CONTINUOUS
 62
     7
 10
-111.1769899999998
 20
221.3087499999998
 30
0.0
 11
-81.946685999999985
 21
250.53905
 31
0.0
  0
LINE
  5
5C8
  8
0
  6
CONTINUOUS
 62
     7
 10
-357.88312000000002
 20
165.5479599999999
 30
0.0
 11
-357.88312000000002
 21
200.54794000000001
 31
0.0
  0
LINE
  5
5C9
  8
0
  6
CONTINUOUS
 62
     7
 10
-185.04175000000001
 20
215.65190000000001
 30
0.0
 11
-214.27205000000001
 21
244.88220000000001
 31
0.0
  0
LINE
  5
5CA
  8
0
  6
CENTER
 62
     7
 10
-230.4199799999999
 20
96.408919999999995
 30
0.0
 11
-250.86542
 21
75.963486000000003
 31
0.0
  0
LINE
  5
5CB
  8
0
  6
CENTER
 62
     7
 10
-229.40897000000001
 20
265.67595999999992
 30
0.0
 11
-250.33028999999991
 21
286.59728999999999
 31
0.0
  0
LINE
  5
5CC
  8
0
  6
CONTINUOUS
 62
     7
 10
-262.78093999999987
 20
151.54796999999999
 30
0.0
 11
-259.36608999999987
 21
86.388679999999979
 31
0.0
  0
LINE
  5
5CD
  8
0
  6
CONTINUOUS
 62
     7
 10
-27.780951000000002
 20
181.5479399999999
 30
0.0
 11
-27.780951000000002
 21
151.54793999999981
 31
0.0
  0
LINE
  5
5CE
  8
0
  6
CONTINUOUS
 62
     7
 10
-27.780951999999999
 20
211.54796999999991
 30
0.0
 11
-31.195805
 21
276.70720999999992
 31
0.0
  0
LINE
  5
5CF
  8
0
  6
CONTINUOUS
 62
     7
 10
-175.2809399999999
 20
299.04793999999993
 30
0.0
 11
-240.44022000000001
 21
295.63308999999992
 31
0.0
  0
LINE
  5
5D0
  8
0
  6
CONTINUOUS
 62
     7
 10
-175.2809399999999
 20
64.047950999999998
 30
0.0
 11
-240.44023000000001
 21
67.462806999999984
 31
0.0
  0
LINE
  5
5D1
  8
0
  6
CENTER
 62
     7
 10
-60.451607000000003
 20
96.718613000000005
 30
0.0
 11
-40.207725999999987
 21
76.474731000000006
 31
0.0
  0
LINE
  5
5D2
  8
0
  6
CONTINUOUS
 62
     7
 10
-262.78093999999987
 20
211.54795999999999
 30
0.0
 11
-259.36608999999987
 21
276.7072399999999
 31
0.0
  0
LINE
  5
5D3
  8
0
  6
CONTINUOUS
 62
     7
 10
-262.78093999999987
 20
181.5479399999999
 30
0.0
 11
-262.78093999999987
 21
151.54793999999981
 31
0.0
  0
LINE
  5
5D4
  8
0
  6
CONTINUOUS
 62
     7
 10
-145.2809399999999
 20
64.047966000000002
 30
0.0
 11
-175.28095999999991
 21
64.047966000000002
 31
0.0
  0
LINE
  5
5D5
  8
0
  6
CONTINUOUS
 62
     7
 10
-471.78316999999993
 20
254.64792
 30
0.0
 11
-464.55297999999999
 21
253.48665999999989
 31
0.0
  0
LINE
  5
5D6
  8
0
  6
CONTINUOUS
 62
     7
 10
-431.88314999999989
 20
149.78371000000001
 30
0.0
 11
-427.88314999999989
 21
149.78371000000001
 31
0.0
  0
LINE
  5
5D7
  8
0
  6
CONTINUOUS
 62
     7
 10
-431.88314999999989
 20
237.45868999999999
 30
0.0
 11
-427.88314999999989
 21
237.45868999999999
 31
0.0
  0
LINE
  5
5D8
  8
0
  6
CONTINUOUS
 62
     7
 10
-193.28095999999991
 20
181.5479399999999
 30
0.0
 11
-193.28095999999991
 21
143.5479599999999
 31
0.0
  0
LINE
  5
5D9
  8
0
  6
CENTER
 62
     7
 10
-410.53798999999992
 20
86.088554000000016
 30
0.0
 11
-441.40801999999991
 21
86.088554000000016
 31
0.0
  0
LINE
  5
5DA
  8
0
  6
CONTINUOUS
 62
     7
 10
-542.88311999999985
 20
93.167717000000025
 30
0.0
 11
-436.61962999999992
 21
93.167717000000025
 31
0.0
  0
LINE
  5
5DB
  8
0
  6
CONTINUOUS
 62
     7
 10
-447.64620999999988
 20
51.815964000000001
 30
0.0
 11
-426.88315
 21
63.803528
 31
0.0
  0
LINE
  5
5DC
  8
0
  6
CONTINUOUS
 62
     7
 10
-446.99529999999999
 20
230.58501000000001
 30
0.0
 11
-451.41604999999998
 21
187.98111999999981
 31
0.0
  0
LINE
  5
5DD
  8
0
  6
CONTINUOUS
 62
     7
 10
-542.88311999999985
 20
232.7523799999999
 30
0.0
 11
-447.88961999999998
 21
232.7523799999999
 31
0.0
  0
LINE
  5
5DE
  8
0
  6
CONTINUOUS
 62
     7
 10
-434.88315
 20
152.78371000000001
 30
0.0
 11
-434.88315
 21
240.4586899999999
 31
0.0
  0
LINE
  5
5DF
  8
0
  6
CONTINUOUS
 62
     7
 10
-198.2809399999999
 20
138.5479599999999
 30
0.0
 11
-231.25768999999991
 21
138.5479599999999
 31
0.0
  0
LINE
  5
5E0
  8
0
  6
CONTINUOUS
 62
     7
 10
-434.88315
 20
66.63074499999999
 30
0.0
 11
-434.88315
 21
116.85868000000001
 31
0.0
  0
LINE
  5
5E1
  8
0
  6
CONTINUOUS
 62
     7
 10
-179.3848899999999
 20
221.3087499999998
 30
0.0
 11
-208.6151899999999
 21
250.53906000000001
 31
0.0
  0
LINE
  5
5E2
  8
0
  6
CONTINUOUS
 62
     7
 10
-427.88314999999989
 20
181.5479399999999
 30
0.0
 11
-427.88314999999989
 21
272.14767000000001
 31
0.0
  0
LINE
  5
5E3
  8
0
  6
CONTINUOUS
 62
     7
 10
-542.88311999999985
 20
73.130180000000024
 30
0.0
 11
-436.61962999999992
 21
73.130180000000024
 31
0.0
  0
LINE
  5
5E4
  8
0
  6
CENTER
 62
     7
 10
-354.76482999999979
 20
181.5479399999999
 30
0.0
 11
-561.73212000000001
 21
181.5479399999999
 31
0.0
  0
LINE
  5
5E5
  8
0
  6
CENTER
 62
     7
 10
-206.54831999999999
 20
153.5479599999999
 30
0.0
 11
-69.348311999999993
 21
153.5479599999999
 31
0.0
  0
LINE
  5
5E6
  8
0
  6
CONTINUOUS
 62
     7
 10
-431.98784999999992
 20
298.62523999999991
 30
0.0
 11
-419.88311999999979
 21
299.04797000000002
 31
0.0
  0
LINE
  5
5E7
  8
0
  6
CONTINUOUS
 62
     7
 10
-419.88314999999989
 20
181.5479399999999
 30
0.0
 11
-419.88314999999989
 21
299.04793999999993
 31
0.0
  0
LINE
  5
5E8
  8
0
  6
CONTINUOUS
 62
     7
 10
-92.280945000000003
 20
138.5479599999999
 30
0.0
 11
-59.304211000000002
 21
138.5479599999999
 31
0.0
  0
LINE
  5
5E9
  8
0
  6
CONTINUOUS
 62
     7
 10
-145.2809399999999
 20
299.04793999999993
 30
0.0
 11
-175.28095999999991
 21
299.04793999999993
 31
0.0
  0
LINE
  5
5EA
  8
0
  6
CONTINUOUS
 62
     7
 10
-432.59859999999992
 20
87.11824799999998
 30
0.0
 11
-430.77843999999999
 21
87.181807999999975
 31
0.0
  0
LINE
  5
5EB
  8
0
  6
CONTINUOUS
 62
     7
 10
-419.88314999999989
 20
76.547966000000002
 30
0.0
 11
-415.88314999999989
 21
76.547966000000002
 31
0.0
  0
LINE
  5
5EC
  8
0
  6
CONTINUOUS
 62
     7
 10
-427.88314999999989
 20
90.179985000000002
 30
0.0
 11
-427.88314999999989
 21
181.5479399999999
 31
0.0
  0
LINE
  5
5ED
  8
0
  6
CENTER
 62
     7
 10
-411.06121999999999
 20
277.00734999999992
 30
0.0
 11
-439.31511999999998
 21
277.00734999999992
 31
0.0
  0
LINE
  5
5EE
  8
0
  6
CONTINUOUS
 62
     7
 10
-431.77843999999988
 20
63.632565
 30
0.0
 11
-419.88311999999979
 21
64.047957999999994
 31
0.0
  0
LINE
  5
5EF
  8
0
  6
CONTINUOUS
 62
     7
 10
-532.88317999999992
 20
54.047966000000002
 30
0.0
 11
-447.64623999999992
 21
51.815956
 31
0.0
  0
LINE
  5
5F0
  8
0
  6
CONTINUOUS
 62
     7
 10
-532.88311999999985
 20
253.04795999999999
 30
0.0
 11
-473.77728000000002
 21
254.59568999999991
 31
0.0
  0
LINE
  5
5F1
  8
0
  6
CONTINUOUS
 62
     7
 10
-470.37265000000002
 20
256.05847
 30
0.0
 11
-434.88315
 21
291.54797000000002
 31
0.0
  0
LINE
  5
5F2
  8
0
  6
CONTINUOUS
 62
     7
 10
-434.88315
 20
240.4586899999999
 30
0.0
 11
-434.88315
 21
295.62707999999998
 31
0.0
  0
LINE
  5
5F3
  8
0
  6
CONTINUOUS
 62
     7
 10
-150.28093999999979
 20
192.5479599999999
 30
0.0
 11
-140.28095999999991
 21
192.5479599999999
 31
0.0
  0
LINE
  5
5F4
  8
0
  6
CONTINUOUS
 62
     1
 10
-150.28093999999979
 20
192.5479599999999
 30
0.0
 11
-150.28093999999979
 21
200.54794000000001
 31
0.0
  0
LINE
  5
5F5
  8
0
  6
CONTINUOUS
 62
     1
 10
-140.28095999999991
 20
192.5479599999999
 30
0.0
 11
-140.28095999999991
 21
200.54794000000001
 31
0.0
  0
LINE
  5
5F6
  8
0
  6
CONTINUOUS
 62
     7
 10
-150.28093999999979
 20
200.54794000000001
 30
0.0
 11
-140.28095999999991
 21
200.54794000000001
 31
0.0
  0
LINE
  5
5F7
  8
0
  6
CONTINUOUS
 62
     7
 10
-540.95294000000001
 20
54.329762000000002
 30
0.0
 11
-532.88311999999985
 21
54.04795799999998
 31
0.0
  0
LINE
  5
5F8
  8
0
  6
CONTINUOUS
 62
     7
 10
-262.78093999999987
 20
181.5479399999999
 30
0.0
 11
-262.78093999999987
 21
211.5479399999999
 31
0.0
  0
LINE
  5
5F9
  8
0
  6
CONTINUOUS
 62
     7
 10
-532.88317999999992
 20
183.73328000000001
 30
0.0
 11
-532.88159000000007
 21
183.73328000000001
 31
0.0
  0
LINE
  5
5FA
  8
0
  6
CONTINUOUS
 62
     7
 10
-419.88314999999989
 20
64.047966000000002
 30
0.0
 11
-419.88314999999989
 21
181.5479399999999
 31
0.0
  0
LINE
  5
5FB
  8
0
  6
CONTINUOUS
 62
     7
 10
-570.38311999999985
 20
217.04792999999981
 30
0.0
 11
-570.38311999999985
 21
90.047896999999963
 31
0.0
  0
LINE
  5
5FC
  8
0
  6
CONTINUOUS
 62
     7
 10
-570.38311999999985
 20
90.04795799999998
 30
0.0
 11
-562.70861999999988
 21
89.779961
 31
0.0
  0
LINE
  5
5FD
  8
0
  6
CONTINUOUS
 62
     7
 10
-556.41869999999994
 20
229.01243999999991
 30
0.0
 11
-543.76183999999978
 21
241.66929999999991
 31
0.0
  0
LINE
  5
5FE
  8
0
  6
CONTINUOUS
 62
     7
 10
-540.95294000000001
 20
252.76613999999989
 30
0.0
 11
-532.88311999999985
 21
253.0479399999999
 31
0.0
  0
LINE
  5
5FF
  8
0
  6
CONTINUOUS
 62
     7
 10
-556.41869999999994
 20
78.083466000000001
 30
0.0
 11
-543.76183999999978
 21
65.426605000000009
 31
0.0
  0
LINE
  5
600
  8
0
  6
CONTINUOUS
 62
     7
 10
-570.38311999999985
 20
217.04794000000001
 30
0.0
 11
-562.70861999999988
 21
217.31594999999999
 31
0.0
  0
LINE
  5
601
  8
0
  6
CONTINUOUS
 62
     7
 10
-570.38311999999985
 20
190.69588999999999
 30
0.0
 11
-557.88311999999985
 21
190.69588999999999
 31
0.0
  0
LINE
  5
602
  8
0
  6
CONTINUOUS
 62
     7
 10
-570.38311999999985
 20
116.40002
 30
0.0
 11
-557.88311999999985
 21
116.40002
 31
0.0
  0
LINE
  5
603
  8
0
  6
CONTINUOUS
 62
     7
 10
-542.88311999999985
 20
56.328547999999998
 30
0.0
 11
-542.88311999999985
 21
250.76735999999991
 31
0.0
  0
LINE
  5
604
  8
0
  6
CENTER
 62
     7
 10
-740.77625
 20
153.5479599999999
 30
0.0
 11
-524.74383999999998
 21
153.5479599999999
 31
0.0
  0
LINE
  5
605
  8
0
  6
CONTINUOUS
 62
     7
 10
-557.88311999999985
 20
81.619026000000005
 30
0.0
 11
-557.88311999999985
 21
225.47687999999991
 31
0.0
  0
LINE
  5
606
  8
0
  6
CONTINUOUS
 62
     7
 10
-680.38311999999985
 20
107.1979699999999
 30
0.0
 11
-715.38317999999981
 21
109.2279699999999
 31
0.0
  0
LINE
  5
607
  8
0
  6
CONTINUOUS
 62
     7
 10
-680.38306
 20
199.89796000000001
 30
0.0
 11
-715.38311999999985
 21
197.8679699999999
 31
0.0
  0
LINE
  5
608
  8
0
  6
CONTINUOUS
 62
     3
 10
-728.10315000000003
 20
105.9079799999999
 30
0.0
 11
-725.38317999999981
 21
105.9079799999999
 31
0.0
  0
LINE
  5
609
  8
0
  6
CONTINUOUS
 62
     3
 10
-728.61315999999999
 20
103.9379999999999
 30
0.0
 11
-729.88311999999985
 21
104.66799999999991
 31
0.0
  0
LINE
  5
60A
  8
0
  6
CONTINUOUS
 62
     3
 10
-725.38311999999985
 20
96.117958000000016
 30
0.0
 11
-722.56310999999982
 21
96.047957999999994
 31
0.0
  0
LINE
  5
60B
  8
0
  6
CONTINUOUS
 62
     3
 10
-728.63317999999981
 20
110.58798
 30
0.0
 11
-729.93317000000002
 21
111.43798
 31
0.0
  0
LINE
  5
60C
  8
0
  6
CONTINUOUS
 62
     3
 10
-728.62311
 20
106.0479999999998
 30
0.0
 11
-729.90314000000001
 21
106.81801
 31
0.0
  0
LINE
  5
60D
  8
0
  6
CONTINUOUS
 62
     3
 10
-728.11315999999999
 20
103.79796999999991
 30
0.0
 11
-725.88311999999985
 21
103.79796999999991
 31
0.0
  0
LINE
  5
60E
  8
0
  6
CONTINUOUS
 62
     3
 10
-728.14312999999981
 20
104.94798
 30
0.0
 11
-725.88311999999985
 21
104.94798
 31
0.0
  0
LINE
  5
60F
  8
0
  6
CONTINUOUS
 62
     3
 10
-728.59313999999983
 20
105.05795999999999
 30
0.0
 11
-729.83312999999998
 21
105.68796
 31
0.0
  0
LINE
  5
610
  8
0
  6
CONTINUOUS
 62
     3
 10
-728.11315999999999
 20
111.56798000000001
 30
0.0
 11
-726.38311999999985
 21
111.56798000000001
 31
0.0
  0
LINE
  5
611
  8
0
  6
CONTINUOUS
 62
     3
 10
-728.08312999999998
 20
110.42796
 30
0.0
 11
-725.38317999999981
 21
110.42796
 31
0.0
  0
LINE
  5
612
  8
0
  6
CONTINUOUS
 62
     3
 10
-728.13311999999985
 20
107.04796999999991
 30
0.0
 11
-726.38311999999985
 21
107.04796999999991
 31
0.0
  0
LINE
  5
613
  8
0
  6
CONTINUOUS
 62
     3
 10
-728.61315999999999
 20
111.69799
 30
0.0
 11
-729.89312999999981
 21
112.44798
 31
0.0
  0
LINE
  5
614
  8
0
  6
CONTINUOUS
 62
     3
 10
-577.38311999999996
 20
90.047980999999979
 30
0.0
 11
-570.38311999999985
 21
90.047980999999979
 31
0.0
  0
LINE
  5
615
  8
0
  6
CONTINUOUS
 62
     3
 10
-577.38311999999996
 20
101.50798
 30
0.0
 11
-570.38311999999985
 21
101.50798
 31
0.0
  0
LINE
  5
616
  8
0
  6
CONTINUOUS
 62
     3
 10
-680.38317999999981
 20
107.19798
 30
0.0
 11
-578.3831799999997
 21
107.19798
 31
0.0
  0
LINE
  5
617
  8
0
  6
CONTINUOUS
 62
     3
 10
-578.67316000000017
 20
102.51797000000001
 30
0.0
 11
-581.08312999999998
 21
102.51797000000001
 31
0.0
  0
LINE
  5
618
  8
0
  6
CONTINUOUS
 62
     3
 10
-581.58312999999998
 20
94.627953000000005
 30
0.0
 11
-580.14312999999981
 21
101.32796
 31
0.0
  0
LINE
  5
619
  8
0
  6
CONTINUOUS
 62
     3
 10
-583.67309999999975
 20
93.047980999999993
 30
0.0
 11
-578.3831799999997
 21
93.047980999999993
 31
0.0
  0
LINE
  5
61A
  8
0
  6
CONTINUOUS
 62
     3
 10
-676.38311999999985
 20
123.54796
 30
0.0
 11
-588.61310000000003
 21
123.54796
 31
0.0
  0
LINE
  5
61B
  8
0
  6
CONTINUOUS
 62
     3
 10
-720.70318999999984
 20
120.17795
 30
0.0
 11
-672.38311999999985
 21
120.17795
 31
0.0
  0
LINE
  5
61C
  8
0
  6
CONTINUOUS
 62
     3
 10
-629.38317999999981
 20
117.54796
 30
0.0
 11
-719.83312999999964
 21
117.54796
 31
0.0
  0
LINE
  5
61D
  8
0
  6
CONTINUOUS
 62
     3
 10
-629.38317999999981
 20
116.8279599999999
 30
0.0
 11
-581.5631699999999
 21
116.8279599999999
 31
0.0
  0
LINE
  5
61E
  8
0
  6
CONTINUOUS
 62
     3
 10
-720.70318999999984
 20
116.8279599999999
 30
0.0
 11
-629.38317999999981
 21
116.8279599999999
 31
0.0
  0
LINE
  5
61F
  8
0
  6
CONTINUOUS
 62
     3
 10
-725.38317999999981
 20
119.24796000000001
 30
0.0
 11
-722.21312999999998
 21
119.24796000000001
 31
0.0
  0
LINE
  5
620
  8
0
  6
CONTINUOUS
 62
     3
 10
-719.21312999999975
 20
95.287979000000007
 30
0.0
 11
-705.88317999999981
 21
95.287979000000007
 31
0.0
  0
LINE
  5
621
  8
0
  6
CONTINUOUS
 62
     3
 10
-702.38311999999996
 20
91.687965000000005
 30
0.0
 11
-585.57317999999998
 21
91.687965000000005
 31
0.0
  0
LINE
  5
622
  8
0
  6
CONTINUOUS
 62
     3
 10
-719.27313000000004
 20
90.247977999999989
 30
0.0
 11
-705.77313000000004
 21
90.247977999999989
 31
0.0
  0
LINE
  5
623
  8
0
  6
CONTINUOUS
 62
     3
 10
-719.15314000000001
 20
100.56796
 30
0.0
 11
-705.88317999999981
 21
100.56796
 31
0.0
  0
LINE
  5
624
  8
0
  6
CONTINUOUS
 62
     3
 10
-721.66320999999982
 20
105.1979599999999
 30
0.0
 11
-721.12316999999985
 21
102.20795
 31
0.0
  0
LINE
  5
625
  8
0
  6
CONTINUOUS
 62
     3
 10
-728.3831799999997
 20
110.71798
 30
0.0
 11
-728.3831799999997
 21
111.18797000000001
 31
0.0
  0
LINE
  5
626
  8
0
  6
CONTINUOUS
 62
     3
 10
-725.38317999999981
 20
105.1979699999999
 30
0.0
 11
-715.38311999999985
 21
105.1979699999999
 31
0.0
  0
LINE
  5
627
  8
0
  6
CONTINUOUS
 62
     3
 10
-728.3831799999997
 20
106.14796
 30
0.0
 11
-728.3831799999997
 21
106.69797
 31
0.0
  0
LINE
  5
628
  8
0
  6
CONTINUOUS
 62
     3
 10
-728.60320999999988
 20
107.16798
 30
0.0
 11
-729.85315000000003
 21
107.82796
 31
0.0
  0
LINE
  5
629
  8
0
  6
CONTINUOUS
 62
     3
 10
-715.38311999999985
 20
105.1979699999999
 30
0.0
 11
-715.38311999999985
 21
119.24796000000001
 31
0.0
  0
LINE
  5
62A
  8
0
  6
CONTINUOUS
 62
     3
 10
-728.3831799999997
 20
104.04796999999991
 30
0.0
 11
-728.3831799999997
 21
104.57796999999979
 31
0.0
  0
LINE
  5
62B
  8
0
  6
CONTINUOUS
 62
     3
 10
-583.64312999999981
 20
93.167952999999997
 30
0.0
 11
-580.18311000000017
 21
106.08794999999991
 31
0.0
  0
LINE
  5
62C
  8
0
  6
CONTINUOUS
 62
     3
 10
-721.21312999999998
 20
91.757957000000005
 30
0.0
 11
-722.10315000000003
 21
95.297934999999995
 31
0.0
  0
LINE
  5
62D
  8
0
  6
CONTINUOUS
 62
     3
 10
-721.19317999999998
 20
93.417991999999998
 30
0.0
 11
-722.11321999999984
 21
97.297989000000001
 31
0.0
  0
LINE
  5
62E
  8
0
  6
CONTINUOUS
 62
     3
 10
-647.38317999999981
 20
89.637962000000002
 30
0.0
 11
-647.38317999999981
 21
91.687965000000005
 31
0.0
  0
LINE
  5
62F
  8
0
  6
CONTINUOUS
 62
     3
 10
-704.38317999999981
 20
91.657982000000004
 30
0.0
 11
-704.38317999999981
 21
99.067963000000006
 31
0.0
  0
LINE
  5
630
  8
0
  6
CONTINUOUS
 62
     3
 10
-723.55315999999982
 20
96.427971000000014
 30
0.0
 11
-721.90314000000001
 21
96.427971000000014
 31
0.0
  0
LINE
  5
631
  8
0
  6
CENTER
 62
     7
 10
-629.38317999999981
 20
192.1479599999999
 30
0.0
 11
-629.38317999999981
 21
110.89797
 31
0.0
  0
LINE
  5
632
  8
0
  6
CONTINUOUS
 62
     7
 10
-597.88317999999981
 20
122.0479599999999
 30
0.0
 11
-597.88317999999981
 21
185.0479599999999
 31
0.0
  0
LINE
  5
633
  8
0
  6
CONTINUOUS
 62
     3
 10
-680.38317999999981
 20
199.89795000000001
 30
0.0
 11
-578.3831799999997
 21
199.89795000000001
 31
0.0
  0
LINE
  5
634
  8
0
  6
CONTINUOUS
 62
     3
 10
-578.3831799999997
 20
216.0479599999999
 30
0.0
 11
-578.3831799999997
 21
91.047966000000002
 31
0.0
  0
LINE
  5
635
  8
0
  6
CONTINUOUS
 62
     3
 10
-598.11315999999999
 20
123.27795
 30
0.0
 11
-588.61315999999965
 21
123.54795
 31
0.0
  0
LINE
  5
636
  8
0
  6
CONTINUOUS
 62
     3
 10
-577.38311999999996
 20
217.04794000000001
 30
0.0
 11
-570.38311999999985
 21
217.04794000000001
 31
0.0
  0
LINE
  5
637
  8
0
  6
CONTINUOUS
 62
     7
 10
-646.40314000000001
 20
176.5479599999999
 30
0.0
 11
-606.38311999999996
 21
176.5479599999999
 31
0.0
  0
LINE
  5
638
  8
0
  6
CONTINUOUS
 62
     3
 10
-578.3831799999997
 20
190.69794999999999
 30
0.0
 11
-570.38311999999985
 21
190.69794999999999
 31
0.0
  0
LINE
  5
639
  8
0
  6
CONTINUOUS
 62
     3
 10
-577.38311999999996
 20
205.58795000000001
 30
0.0
 11
-570.38311999999985
 21
205.58795000000001
 31
0.0
  0
LINE
  5
63A
  8
0
  6
CONTINUOUS
 62
     3
 10
-578.3831799999997
 20
116.39796
 30
0.0
 11
-570.38311999999985
 21
116.39796
 31
0.0
  0
LINE
  5
63B
  8
0
  6
CONTINUOUS
 62
     3
 10
-588.61310000000003
 20
183.54795999999999
 30
0.0
 11
-588.61310000000003
 21
123.54796
 31
0.0
  0
LINE
  5
63C
  8
0
  6
CONTINUOUS
 62
     3
 10
-725.38317999999981
 20
210.9779799999998
 30
0.0
 11
-722.56317000000001
 21
211.04799
 31
0.0
  0
LINE
  5
63D
  8
0
  6
CONTINUOUS
 62
     3
 10
-725.38317999999981
 20
210.97794999999999
 30
0.0
 11
-725.38317999999981
 21
153.5479599999999
 31
0.0
  0
LINE
  5
63E
  8
0
  6
CONTINUOUS
 62
     3
 10
-730.38311999999985
 20
201.56795999999991
 30
0.0
 11
-730.38311999999985
 21
158.54795999999999
 31
0.0
  0
LINE
  5
63F
  8
0
  6
CONTINUOUS
 62
     3
 10
-728.11315999999999
 20
203.2979599999999
 30
0.0
 11
-725.88311999999985
 21
203.2979599999999
 31
0.0
  0
LINE
  5
640
  8
0
  6
CONTINUOUS
 62
     3
 10
-585.04314999999997
 20
117.54796
 30
0.0
 11
-629.38317999999981
 21
117.54796
 31
0.0
  0
LINE
  5
641
  8
0
  6
CONTINUOUS
 62
     3
 10
-728.18317000000002
 20
189.2379599999999
 30
0.0
 11
-726.08318999999983
 21
189.2379599999999
 31
0.0
  0
LINE
  5
642
  8
0
  6
CONTINUOUS
 62
     3
 10
-728.61310000000003
 20
203.16794999999999
 30
0.0
 11
-729.88317999999981
 21
202.42792
 31
0.0
  0
LINE
  5
643
  8
0
  6
CONTINUOUS
 62
     3
 10
-728.62316999999985
 20
201.04795999999999
 30
0.0
 11
-729.90314000000001
 21
200.27798000000001
 31
0.0
  0
LINE
  5
644
  8
0
  6
CONTINUOUS
 62
     3
 10
-728.63311999999985
 20
196.50794999999999
 30
0.0
 11
-729.93310999999983
 21
195.65796999999981
 31
0.0
  0
LINE
  5
645
  8
0
  6
CONTINUOUS
 62
     3
 10
-728.57312000000002
 20
189.1579899999999
 30
0.0
 11
-729.77313000000004
 21
188.64797999999999
 31
0.0
  0
LINE
  5
646
  8
0
  6
CONTINUOUS
 62
     3
 10
-728.10315000000003
 20
201.18794
 30
0.0
 11
-725.38317999999981
 21
201.18794
 31
0.0
  0
LINE
  5
647
  8
0
  6
CONTINUOUS
 62
     3
 10
-728.08312999999998
 20
196.67796000000001
 30
0.0
 11
-725.38317999999981
 21
196.67796000000001
 31
0.0
  0
LINE
  5
648
  8
0
  6
CONTINUOUS
 62
     3
 10
-728.23315000000002
 20
187.28794999999991
 30
0.0
 11
-726.38311999999985
 21
187.28794999999991
 31
0.0
  0
LINE
  5
649
  8
0
  6
CONTINUOUS
 62
     3
 10
-728.11315999999999
 20
195.53795
 30
0.0
 11
-726.38311999999985
 21
195.53795
 31
0.0
  0
LINE
  5
64A
  8
0
  6
CONTINUOUS
 62
     3
 10
-728.13311999999985
 20
200.0479599999999
 30
0.0
 11
-726.38311999999985
 21
200.0479599999999
 31
0.0
  0
LINE
  5
64B
  8
0
  6
CONTINUOUS
 62
     3
 10
-728.14312999999981
 20
202.14795000000001
 30
0.0
 11
-725.88311999999985
 21
202.14795000000001
 31
0.0
  0
LINE
  5
64C
  8
0
  6
CONTINUOUS
 62
     3
 10
-728.61315999999999
 20
195.39796000000001
 30
0.0
 11
-729.89319
 21
194.64795000000001
 31
0.0
  0
LINE
  5
64D
  8
0
  6
CONTINUOUS
 62
     3
 10
-728.52306999999985
 20
187.2479399999998
 30
0.0
 11
-729.67309999999998
 21
186.89793
 31
0.0
  0
LINE
  5
64E
  8
0
  6
CONTINUOUS
 62
     3
 10
-728.59313999999983
 20
202.04799
 30
0.0
 11
-729.83312999999998
 21
201.41800000000001
 31
0.0
  0
LINE
  5
64F
  8
0
  6
CONTINUOUS
 62
     3
 10
-728.60314999999969
 20
199.93799999999999
 30
0.0
 11
-729.85315000000003
 21
199.26796999999999
 31
0.0
  0
LINE
  5
650
  8
0
  6
CONTINUOUS
 62
     3
 10
-726.38311999999985
 20
179.5479599999999
 30
0.0
 11
-729.38311999999985
 21
179.5479599999999
 31
0.0
  0
LINE
  5
651
  8
0
  6
CONTINUOUS
 62
     3
 10
-726.38311999999985
 20
177.5479599999999
 30
0.0
 11
-729.38311999999985
 21
177.5479599999999
 31
0.0
  0
LINE
  5
652
  8
0
  6
CONTINUOUS
 62
     3
 10
-726.38311999999985
 20
169.54796999999991
 30
0.0
 11
-729.38311999999985
 21
169.54796999999991
 31
0.0
  0
LINE
  5
653
  8
0
  6
CONTINUOUS
 62
     3
 10
-726.38311999999985
 20
167.5479599999999
 30
0.0
 11
-729.38311999999985
 21
167.5479599999999
 31
0.0
  0
LINE
  5
654
  8
0
  6
CONTINUOUS
 62
     3
 10
-726.38311999999985
 20
159.5479599999999
 30
0.0
 11
-729.38311999999985
 21
159.5479599999999
 31
0.0
  0
LINE
  5
655
  8
0
  6
CONTINUOUS
 62
     3
 10
-726.38311999999985
 20
157.54796999999991
 30
0.0
 11
-729.38311999999985
 21
157.54796999999991
 31
0.0
  0
LINE
  5
656
  8
0
  6
CONTINUOUS
 62
     3
 10
-728.3831799999997
 20
169.15796
 30
0.0
 11
-728.3831799999997
 21
167.94796999999991
 31
0.0
  0
LINE
  5
657
  8
0
  6
CONTINUOUS
 62
     3
 10
-728.3831799999997
 20
159.15797000000001
 30
0.0
 11
-728.3831799999997
 21
157.99796000000001
 31
0.0
  0
LINE
  5
658
  8
0
  6
CONTINUOUS
 62
     3
 10
-728.3831799999997
 20
179.17796000000001
 30
0.0
 11
-728.3831799999997
 21
177.8079699999999
 31
0.0
  0
LINE
  5
659
  8
0
  6
CONTINUOUS
 62
     3
 10
-728.3831799999997
 20
188.93796
 30
0.0
 11
-728.3831799999997
 21
187.87796
 31
0.0
  0
LINE
  5
65A
  8
0
  6
CONTINUOUS
 62
     3
 10
-728.3831799999997
 20
196.37793999999991
 30
0.0
 11
-728.3831799999997
 21
195.90796
 31
0.0
  0
LINE
  5
65B
  8
0
  6
CONTINUOUS
 62
     3
 10
-728.3831799999997
 20
200.94796999999991
 30
0.0
 11
-728.3831799999997
 21
200.39796000000001
 31
0.0
  0
LINE
  5
65C
  8
0
  6
CONTINUOUS
 62
     3
 10
-728.3831799999997
 20
203.04795999999999
 30
0.0
 11
-728.3831799999997
 21
202.5179599999999
 31
0.0
  0
LINE
  5
65D
  8
0
  6
CONTINUOUS
 62
     3
 10
-731.88311999999985
 20
173.5479599999999
 30
0.0
 11
-731.88311999999985
 21
153.5479599999999
 31
0.0
  0
LINE
  5
65E
  8
0
  6
CONTINUOUS
 62
     3
 10
-731.88317999999981
 20
173.5479599999999
 30
0.0
 11
-730.38311999999985
 21
173.67796000000001
 31
0.0
  0
LINE
  5
65F
  8
0
  6
CONTINUOUS
 62
     3
 10
-731.88311999999985
 20
170.82796999999999
 30
0.0
 11
-730.38311999999985
 21
170.82796999999999
 31
0.0
  0
LINE
  5
660
  8
0
  6
CONTINUOUS
 62
     7
 10
-652.38311999999996
 20
130.54796999999999
 30
0.0
 11
-612.36315999999999
 21
130.54796999999999
 31
0.0
  0
LINE
  5
661
  8
0
  6
CONTINUOUS
 62
     7
 10
-677.88311999999985
 20
185.0479599999999
 30
0.0
 11
-672.38311999999985
 21
185.0479599999999
 31
0.0
  0
LINE
  5
662
  8
0
  6
CONTINUOUS
 62
     7
 10
-677.88311999999985
 20
122.0479599999999
 30
0.0
 11
-677.88311999999985
 21
146.04795999999999
 31
0.0
  0
LINE
  5
663
  8
0
  6
CONTINUOUS
 62
     7
 10
-651.88317999999981
 20
173.9879599999999
 30
0.0
 11
-651.88317999999981
 21
178.0079699999998
 31
0.0
  0
LINE
  5
664
  8
0
  6
CONTINUOUS
 62
     7
 10
-677.88311999999985
 20
122.0479599999999
 30
0.0
 11
-672.38311999999985
 21
122.0479599999999
 31
0.0
  0
LINE
  5
665
  8
0
  6
CONTINUOUS
 62
     7
 10
-606.88317999999981
 20
128.9879599999999
 30
0.0
 11
-606.88317999999981
 21
133.01796999999991
 31
0.0
  0
LINE
  5
666
  8
0
  6
CONTINUOUS
 62
     3
 10
-715.38311999999985
 20
201.89796000000001
 30
0.0
 11
-715.38311999999985
 21
187.85795999999991
 31
0.0
  0
LINE
  5
667
  8
0
  6
CONTINUOUS
 62
     3
 10
-725.38317999999981
 20
187.85795999999991
 30
0.0
 11
-715.38311999999985
 21
187.85795999999991
 31
0.0
  0
LINE
  5
668
  8
0
  6
CONTINUOUS
 62
     3
 10
-725.38317999999981
 20
196.23795999999999
 30
0.0
 11
-715.38311999999985
 21
196.23795999999999
 31
0.0
  0
LINE
  5
669
  8
0
  6
CONTINUOUS
 62
     3
 10
-725.38317999999981
 20
201.89796000000001
 30
0.0
 11
-715.38311999999985
 21
201.89796000000001
 31
0.0
  0
LINE
  5
66A
  8
0
  6
CONTINUOUS
 62
     7
 10
-606.38311999999996
 20
136.52796999999981
 30
0.0
 11
-606.38311999999996
 21
176.5479599999999
 31
0.0
  0
LINE
  5
66B
  8
0
  6
CONTINUOUS
 62
     7
 10
-657.38311999999985
 20
120.04797000000001
 30
0.0
 11
-657.38311999999985
 21
123.54796
 31
0.0
  0
LINE
  5
66C
  8
0
  6
CONTINUOUS
 62
     7
 10
-609.01311999999996
 20
131.0479599999999
 30
0.0
 11
-604.80309999999986
 21
131.0479599999999
 31
0.0
  0
LINE
  5
66D
  8
0
  6
CONTINUOUS
 62
     7
 10
-647.18317000000002
 20
171.34796
 30
0.0
 11
-611.58312999999987
 21
171.34796
 31
0.0
  0
LINE
  5
66E
  8
0
  6
CONTINUOUS
 62
     7
 10
-647.18317000000002
 20
135.74796000000001
 30
0.0
 11
-611.58312999999987
 21
135.74796000000001
 31
0.0
  0
LINE
  5
66F
  8
0
  6
CONTINUOUS
 62
     7
 10
-611.58312999999987
 20
135.74796000000001
 30
0.0
 11
-611.58312999999987
 21
171.34796
 31
0.0
  0
LINE
  5
670
  8
0
  6
CONTINUOUS
 62
     7
 10
-647.18317000000002
 20
135.74796000000001
 30
0.0
 11
-647.18317000000002
 21
171.34796
 31
0.0
  0
LINE
  5
671
  8
0
  6
CONTINUOUS
 62
     7
 10
-676.38311999999985
 20
183.54795999999999
 30
0.0
 11
-588.61310000000003
 21
183.54795999999999
 31
0.0
  0
LINE
  5
672
  8
0
  6
CONTINUOUS
 62
     7
 10
-657.38311999999985
 20
185.0479599999999
 30
0.0
 11
-597.88317999999981
 21
185.0479599999999
 31
0.0
  0
LINE
  5
673
  8
0
  6
CONTINUOUS
 62
     7
 10
-657.38311999999985
 20
122.0479599999999
 30
0.0
 11
-597.88317999999981
 21
122.0479599999999
 31
0.0
  0
LINE
  5
674
  8
0
  6
CONTINUOUS
 62
     7
 10
-599.3831799999997
 20
123.54796
 30
0.0
 11
-599.3831799999997
 21
183.54795999999999
 31
0.0
  0
LINE
  5
675
  8
0
  6
CONTINUOUS
 62
     7
 10
-676.38311999999985
 20
123.54796
 30
0.0
 11
-676.38311999999985
 21
183.54795999999999
 31
0.0
  0
LINE
  5
676
  8
0
  6
CONTINUOUS
 62
     3
 10
-677.88311999999985
 20
139.54796999999991
 30
0.0
 11
-719.83312999999964
 21
139.54796999999991
 31
0.0
  0
LINE
  5
677
  8
0
  6
CONTINUOUS
 62
     7
 10
-672.38311999999985
 20
187.0479399999999
 30
0.0
 11
-672.38311999999985
 21
183.54795999999999
 31
0.0
  0
LINE
  5
678
  8
0
  6
CONTINUOUS
 62
     7
 10
-679.88311999999985
 20
161.0479599999999
 30
0.0
 11
-676.38311999999985
 21
161.0479599999999
 31
0.0
  0
LINE
  5
679
  8
0
  6
CONTINUOUS
 62
     7
 10
-679.88311999999985
 20
146.04795999999999
 30
0.0
 11
-679.88311999999985
 21
161.0479599999999
 31
0.0
  0
LINE
  5
67A
  8
0
  6
CONTINUOUS
 62
     7
 10
-679.88311999999985
 20
146.04795999999999
 30
0.0
 11
-676.38311999999985
 21
146.04795999999999
 31
0.0
  0
LINE
  5
67B
  8
0
  6
CONTINUOUS
 62
     7
 10
-672.38311999999985
 20
120.04797000000001
 30
0.0
 11
-672.38311999999985
 21
123.54796
 31
0.0
  0
LINE
  5
67C
  8
0
  6
CONTINUOUS
 62
     3
 10
-702.38311999999996
 20
215.40796
 30
0.0
 11
-585.57317999999998
 21
215.40796
 31
0.0
  0
LINE
  5
67D
  8
0
  6
CONTINUOUS
 62
     3
 10
-719.15314000000001
 20
206.52797000000001
 30
0.0
 11
-705.88317999999981
 21
206.52797000000001
 31
0.0
  0
LINE
  5
67E
  8
0
  6
CONTINUOUS
 62
     3
 10
-721.66301999999985
 20
201.8979799999999
 30
0.0
 11
-721.12305000000003
 21
204.88797
 31
0.0
  0
LINE
  5
67F
  8
0
  6
CONTINUOUS
 62
     3
 10
-719.21312999999975
 20
211.81795
 30
0.0
 11
-705.88317999999981
 21
211.81795
 31
0.0
  0
LINE
  5
680
  8
0
  6
CONTINUOUS
 62
     7
 10
-657.38311999999985
 20
120.04797000000001
 30
0.0
 11
-672.38311999999985
 21
120.04797000000001
 31
0.0
  0
LINE
  5
681
  8
0
  6
CONTINUOUS
 62
     3
 10
-719.24310000000003
 20
215.21794
 30
0.0
 11
-705.88317999999981
 21
215.21794
 31
0.0
  0
LINE
  5
682
  8
0
  6
CONTINUOUS
 62
     3
 10
-719.27313000000004
 20
216.84795
 30
0.0
 11
-705.77313000000004
 21
216.84795
 31
0.0
  0
LINE
  5
683
  8
0
  6
CONTINUOUS
 62
     3
 10
-702.38311999999996
 20
219.46796000000001
 30
0.0
 11
-649.38311999999985
 21
219.46796000000001
 31
0.0
  0
LINE
  5
684
  8
0
  6
CONTINUOUS
 62
     3
 10
-702.38311999999996
 20
218.78795
 30
0.0
 11
-649.38311999999985
 21
218.78795
 31
0.0
  0
LINE
  5
685
  8
0
  6
CONTINUOUS
 62
     3
 10
-702.38311999999996
 20
217.43795999999989
 30
0.0
 11
-649.38311999999985
 21
217.43795999999989
 31
0.0
  0
LINE
  5
686
  8
0
  6
CONTINUOUS
 62
     3
 10
-723.59313999999983
 20
204.5879699999999
 30
0.0
 11
-721.18310999999983
 21
204.5879699999999
 31
0.0
  0
LINE
  5
687
  8
0
  6
CONTINUOUS
 62
     3
 10
-721.17315999999983
 20
210.23797999999999
 30
0.0
 11
-722.1331799999997
 21
205.76796999999999
 31
0.0
  0
LINE
  5
688
  8
0
  6
CONTINUOUS
 62
     3
 10
-723.57317999999987
 20
208.64796000000001
 30
0.0
 11
-721.51311999999984
 21
208.64796000000001
 31
0.0
  0
LINE
  5
689
  8
0
  6
CONTINUOUS
 62
     3
 10
-585.04314999999997
 20
189.5479599999999
 30
0.0
 11
-710.83312999999964
 21
189.5479599999999
 31
0.0
  0
LINE
  5
68A
  8
0
  6
CONTINUOUS
 62
     3
 10
-585.04314999999997
 20
187.54795999999999
 30
0.0
 11
-710.83312999999964
 21
187.54795999999999
 31
0.0
  0
LINE
  5
68B
  8
0
  6
CONTINUOUS
 62
     3
 10
-677.88311999999985
 20
179.5479599999999
 30
0.0
 11
-710.83312999999964
 21
179.5479599999999
 31
0.0
  0
LINE
  5
68C
  8
0
  6
CONTINUOUS
 62
     3
 10
-721.19317999999998
 20
213.67798999999999
 30
0.0
 11
-722.11315999999988
 21
209.79796999999991
 31
0.0
  0
LINE
  5
68D
  8
0
  6
CONTINUOUS
 62
     3
 10
-677.88311999999985
 20
177.5479599999999
 30
0.0
 11
-710.83312999999964
 21
177.5479599999999
 31
0.0
  0
LINE
  5
68E
  8
0
  6
CONTINUOUS
 62
     3
 10
-723.55315999999982
 20
210.66794999999991
 30
0.0
 11
-721.90314000000001
 21
210.66794999999991
 31
0.0
  0
LINE
  5
68F
  8
0
  6
CONTINUOUS
 62
     3
 10
-721.21312999999998
 20
215.33797000000001
 30
0.0
 11
-722.10315000000003
 21
211.80797000000001
 31
0.0
  0
LINE
  5
690
  8
0
  6
CONTINUOUS
 62
     3
 10
-677.88311999999985
 20
169.54796999999991
 30
0.0
 11
-719.83312999999964
 21
169.54796999999991
 31
0.0
  0
LINE
  5
691
  8
0
  6
CONTINUOUS
 62
     3
 10
-704.38317999999981
 20
215.43793999999991
 30
0.0
 11
-704.38317999999981
 21
208.0279699999999
 31
0.0
  0
LINE
  5
692
  8
0
  6
CONTINUOUS
 62
     3
 10
-677.88311999999985
 20
167.5479599999999
 30
0.0
 11
-719.83312999999964
 21
167.5479599999999
 31
0.0
  0
LINE
  5
693
  8
0
  6
CONTINUOUS
 62
     3
 10
-679.88311999999985
 20
159.5479599999999
 30
0.0
 11
-719.83312999999964
 21
159.5479599999999
 31
0.0
  0
LINE
  5
694
  8
0
  6
CONTINUOUS
 62
     3
 10
-647.38317999999981
 20
217.46794
 30
0.0
 11
-647.38317999999981
 21
215.40796
 31
0.0
  0
LINE
  5
695
  8
0
  6
CONTINUOUS
 62
     3
 10
-679.88311999999985
 20
157.54796999999991
 30
0.0
 11
-719.83312999999964
 21
157.54796999999991
 31
0.0
  0
LINE
  5
696
  8
0
  6
CONTINUOUS
 62
     3
 10
-583.64312999999981
 20
213.92797999999999
 30
0.0
 11
-580.18317000000002
 21
201.00801000000001
 31
0.0
  0
LINE
  5
697
  8
0
  6
CONTINUOUS
 62
     3
 10
-583.67309999999975
 20
214.0479399999999
 30
0.0
 11
-578.3831799999997
 21
214.0479399999999
 31
0.0
  0
LINE
  5
698
  8
0
  6
CONTINUOUS
 62
     3
 10
-578.67316000000017
 20
204.5879699999999
 30
0.0
 11
-581.08312999999998
 21
204.5879699999999
 31
0.0
  0
LINE
  5
699
  8
0
  6
CONTINUOUS
 62
     3
 10
-581.58312999999998
 20
212.46797000000001
 30
0.0
 11
-580.14312999999981
 21
205.76796999999999
 31
0.0
  0
LINE
  5
69A
  8
0
  6
CONTINUOUS
 62
     3
 10
-725.38317999999981
 20
96.117973000000006
 30
0.0
 11
-725.38317999999981
 21
153.5479599999999
 31
0.0
  0
LINE
  5
69B
  8
0
  6
CONTINUOUS
 62
     3
 10
-730.38311999999985
 20
104.95796
 30
0.0
 11
-730.38311999999985
 21
148.54796999999991
 31
0.0
  0
LINE
  5
69C
  8
0
  6
CONTINUOUS
 62
     3
 10
-728.18317000000002
 20
117.85796000000001
 30
0.0
 11
-726.08318999999983
 21
117.85796000000001
 31
0.0
  0
LINE
  5
69D
  8
0
  6
CONTINUOUS
 62
     3
 10
-728.57317999999964
 20
117.9379999999998
 30
0.0
 11
-729.77313000000004
 21
118.45797
 31
0.0
  0
LINE
  5
69E
  8
0
  6
CONTINUOUS
 62
     3
 10
-728.23315000000002
 20
119.80795999999999
 30
0.0
 11
-726.38311999999985
 21
119.80795999999999
 31
0.0
  0
LINE
  5
69F
  8
0
  6
CONTINUOUS
 62
     3
 10
-728.52313000000004
 20
119.84798000000001
 30
0.0
 11
-729.67315999999983
 21
120.2079699999998
 31
0.0
  0
LINE
  5
6A0
  8
0
  6
CONTINUOUS
 62
     3
 10
-726.38311999999985
 20
127.54796999999991
 30
0.0
 11
-729.38311999999985
 21
127.54796999999991
 31
0.0
  0
LINE
  5
6A1
  8
0
  6
CONTINUOUS
 62
     3
 10
-726.38311999999985
 20
129.5479599999999
 30
0.0
 11
-729.38311999999985
 21
129.5479599999999
 31
0.0
  0
LINE
  5
6A2
  8
0
  6
CONTINUOUS
 62
     3
 10
-726.38311999999985
 20
137.54795999999999
 30
0.0
 11
-729.38311999999985
 21
137.54795999999999
 31
0.0
  0
LINE
  5
6A3
  8
0
  6
CONTINUOUS
 62
     3
 10
-726.38311999999985
 20
139.54796999999991
 30
0.0
 11
-729.38311999999985
 21
139.54796999999991
 31
0.0
  0
LINE
  5
6A4
  8
0
  6
CONTINUOUS
 62
     3
 10
-726.38311999999985
 20
147.5479599999999
 30
0.0
 11
-729.38311999999985
 21
147.5479599999999
 31
0.0
  0
LINE
  5
6A5
  8
0
  6
CONTINUOUS
 62
     3
 10
-726.38311999999985
 20
149.5479599999999
 30
0.0
 11
-729.38311999999985
 21
149.5479599999999
 31
0.0
  0
LINE
  5
6A6
  8
0
  6
CONTINUOUS
 62
     3
 10
-728.3831799999997
 20
137.93797000000001
 30
0.0
 11
-728.3831799999997
 21
139.15796
 31
0.0
  0
LINE
  5
6A7
  8
0
  6
CONTINUOUS
 62
     3
 10
-728.3831799999997
 20
147.93796
 30
0.0
 11
-728.3831799999997
 21
149.09798000000001
 31
0.0
  0
LINE
  5
6A8
  8
0
  6
CONTINUOUS
 62
     3
 10
-728.3831799999997
 20
127.91795
 30
0.0
 11
-728.3831799999997
 21
129.28794999999991
 31
0.0
  0
LINE
  5
6A9
  8
0
  6
CONTINUOUS
 62
     3
 10
-728.3831799999997
 20
118.1579499999999
 30
0.0
 11
-728.3831799999997
 21
119.2179499999999
 31
0.0
  0
LINE
  5
6AA
  8
0
  6
CONTINUOUS
 62
     3
 10
-731.88311999999985
 20
133.54796999999999
 30
0.0
 11
-731.88311999999985
 21
153.5479599999999
 31
0.0
  0
LINE
  5
6AB
  8
0
  6
CONTINUOUS
 62
     3
 10
-731.88317999999981
 20
133.5479599999999
 30
0.0
 11
-730.38311999999985
 21
133.41794999999991
 31
0.0
  0
LINE
  5
6AC
  8
0
  6
CONTINUOUS
 62
     3
 10
-731.88311999999985
 20
136.2679599999999
 30
0.0
 11
-730.38311999999985
 21
136.2679599999999
 31
0.0
  0
LINE
  5
6AD
  8
0
  6
CONTINUOUS
 62
     3
 10
-702.38311999999996
 20
87.627968000000024
 30
0.0
 11
-649.38311999999985
 21
87.627968000000024
 31
0.0
  0
LINE
  5
6AE
  8
0
  6
CONTINUOUS
 62
     3
 10
-719.24310000000003
 20
91.877983
 30
0.0
 11
-705.88317999999981
 21
91.877983
 31
0.0
  0
LINE
  5
6AF
  8
0
  6
CONTINUOUS
 62
     3
 10
-725.38317999999981
 20
110.85796000000001
 30
0.0
 11
-715.38311999999985
 21
110.85796000000001
 31
0.0
  0
LINE
  5
6B0
  8
0
  6
CONTINUOUS
 62
     3
 10
-702.38311999999996
 20
88.307975999999982
 30
0.0
 11
-649.38311999999985
 21
88.307975999999982
 31
0.0
  0
LINE
  5
6B1
  8
0
  6
CONTINUOUS
 62
     3
 10
-723.57317999999987
 20
98.447968000000003
 30
0.0
 11
-721.51311999999984
 21
98.447968000000003
 31
0.0
  0
LINE
  5
6B2
  8
0
  6
CONTINUOUS
 62
     3
 10
-723.59313999999983
 20
102.51797000000001
 30
0.0
 11
-721.18310999999983
 21
102.51797000000001
 31
0.0
  0
LINE
  5
6B3
  8
0
  6
CONTINUOUS
 62
     3
 10
-721.17322000000001
 20
96.867943000000025
 30
0.0
 11
-722.1331799999997
 21
101.32794
 31
0.0
  0
LINE
  5
6B4
  8
0
  6
CONTINUOUS
 62
     3
 10
-702.38311999999996
 20
89.657966999999999
 30
0.0
 11
-649.38311999999985
 21
89.657966999999999
 31
0.0
  0
LINE
  5
6B5
  8
0
  6
CONTINUOUS
 62
     3
 10
-720.92315999999983
 20
127.05794999999991
 30
0.0
 11
-677.88311999999985
 21
127.05794999999991
 31
0.0
  0
LINE
  5
6B6
  8
0
  6
CONTINUOUS
 62
     3
 10
-629.38317999999981
 20
119.54795
 30
0.0
 11
-719.39312999999981
 21
119.54795
 31
0.0
  0
LINE
  5
6B7
  8
0
  6
CONTINUOUS
 62
     3
 10
-711.70318999999995
 20
190.2679399999999
 30
0.0
 11
-581.5631699999999
 21
190.2679399999999
 31
0.0
  0
LINE
  5
6B8
  8
0
  6
CONTINUOUS
 62
     3
 10
-711.70318999999995
 20
186.91797
 30
0.0
 11
-672.38311999999985
 21
186.91797
 31
0.0
  0
LINE
  5
6B9
  8
0
  6
CONTINUOUS
 62
     3
 10
-711.92316000000005
 20
180.03796
 30
0.0
 11
-677.88311999999985
 21
180.03796
 31
0.0
  0
LINE
  5
6BA
  8
0
  6
CONTINUOUS
 62
     3
 10
-711.92316000000005
 20
177.10795999999999
 30
0.0
 11
-677.88311999999985
 21
177.10795999999999
 31
0.0
  0
LINE
  5
6BB
  8
0
  6
CONTINUOUS
 62
     3
 10
-721.05309999999974
 20
169.88796999999991
 30
0.0
 11
-677.88311999999985
 21
169.88796999999991
 31
0.0
  0
LINE
  5
6BC
  8
0
  6
CONTINUOUS
 62
     3
 10
-721.05309999999974
 20
167.22794999999991
 30
0.0
 11
-677.88311999999985
 21
167.22794999999991
 31
0.0
  0
LINE
  5
6BD
  8
0
  6
CONTINUOUS
 62
     3
 10
-721.11315999999988
 20
159.81795
 30
0.0
 11
-679.88311999999985
 21
159.81795
 31
0.0
  0
LINE
  5
6BE
  8
0
  6
CONTINUOUS
 62
     3
 10
-721.11315999999988
 20
157.28796
 30
0.0
 11
-679.88311999999985
 21
157.28796
 31
0.0
  0
LINE
  5
6BF
  8
0
  6
CONTINUOUS
 62
     3
 10
-704.38317999999981
 20
190.78794999999991
 30
0.0
 11
-704.38317999999981
 21
190.71796000000001
 31
0.0
  0
LINE
  5
6C0
  8
0
  6
CONTINUOUS
 62
     3
 10
-581.5631699999999
 20
186.91797
 30
0.0
 11
-598.08312999999998
 21
186.91797
 31
0.0
  0
LINE
  5
6C1
  8
0
  6
CONTINUOUS
 62
     3
 10
-599.08312999999987
 20
185.91794999999991
 30
0.0
 11
-599.08312999999987
 21
184.81795
 31
0.0
  0
LINE
  5
6C2
  8
0
  6
CONTINUOUS
 62
     3
 10
-598.11310000000003
 20
183.8179899999999
 30
0.0
 11
-588.61315999999965
 21
183.54798999999991
 31
0.0
  0
LINE
  5
6C3
  8
0
  6
CONTINUOUS
 62
     3
 10
-721.11315999999988
 20
149.81796
 30
0.0
 11
-679.88311999999985
 21
149.81796
 31
0.0
  0
LINE
  5
6C4
  8
0
  6
CONTINUOUS
 62
     3
 10
-679.88311999999985
 20
147.5479599999999
 30
0.0
 11
-719.83312999999964
 21
147.5479599999999
 31
0.0
  0
LINE
  5
6C5
  8
0
  6
CONTINUOUS
 62
     3
 10
-679.88311999999985
 20
149.5479599999999
 30
0.0
 11
-719.83312999999964
 21
149.5479599999999
 31
0.0
  0
LINE
  5
6C6
  8
0
  6
CONTINUOUS
 62
     7
 10
-672.38311999999985
 20
187.0479399999999
 30
0.0
 11
-657.38311999999985
 21
187.0479399999999
 31
0.0
  0
LINE
  5
6C7
  8
0
  6
CONTINUOUS
 62
     7
 10
-657.38311999999985
 20
187.0479399999999
 30
0.0
 11
-657.38311999999985
 21
183.54795999999999
 31
0.0
  0
LINE
  5
6C8
  8
0
  6
CONTINUOUS
 62
     3
 10
-721.05309999999974
 20
139.8679699999999
 30
0.0
 11
-677.88311999999985
 21
139.8679699999999
 31
0.0
  0
LINE
  5
6C9
  8
0
  6
CONTINUOUS
 62
     3
 10
-731.88311999999985
 20
168.69797
 30
0.0
 11
-727.60315000000003
 21
168.69797
 31
0.0
  0
LINE
  5
6CA
  8
0
  6
CONTINUOUS
 62
     3
 10
-581.5631699999999
 20
120.17795
 30
0.0
 11
-598.08312999999998
 21
120.17795
 31
0.0
  0
LINE
  5
6CB
  8
0
  6
CONTINUOUS
 62
     3
 10
-599.08312999999987
 20
121.17796
 30
0.0
 11
-599.08312999999987
 21
122.27795999999979
 31
0.0
  0
LINE
  5
6CC
  8
0
  6
CONTINUOUS
 62
     3
 10
-677.88311999999985
 20
137.54795999999999
 30
0.0
 11
-719.83312999999964
 21
137.54795999999999
 31
0.0
  0
LINE
  5
6CD
  8
0
  6
CONTINUOUS
 62
     3
 10
-721.05309999999974
 20
137.20795000000001
 30
0.0
 11
-677.88311999999985
 21
137.20795000000001
 31
0.0
  0
LINE
  5
6CE
  8
0
  6
CONTINUOUS
 62
     3
 10
-677.88311999999985
 20
129.5479599999999
 30
0.0
 11
-719.83312999999964
 21
129.5479599999999
 31
0.0
  0
LINE
  5
6CF
  8
0
  6
CONTINUOUS
 62
     3
 10
-720.92315999999983
 20
129.9879599999999
 30
0.0
 11
-677.88311999999985
 21
129.9879599999999
 31
0.0
  0
LINE
  5
6D0
  8
0
  6
CONTINUOUS
 62
     3
 10
-677.88311999999985
 20
127.54796999999991
 30
0.0
 11
-719.83312999999964
 21
127.54796999999991
 31
0.0
  0
LINE
  5
6D1
  8
0
  6
CONTINUOUS
 62
     3
 10
-585.04314999999997
 20
119.54795
 30
0.0
 11
-629.38317999999981
 21
119.54795
 31
0.0
  0
LINE
  5
6D2
  8
0
  6
CONTINUOUS
 62
     3
 10
-721.11315999999988
 20
147.27796999999981
 30
0.0
 11
-679.88311999999985
 21
147.27796999999981
 31
0.0
  0
LINE
  5
6D3
  8
0
  6
CONTINUOUS
 62
     3
 10
-731.88311999999985
 20
138.39795000000001
 30
0.0
 11
-727.30315999999982
 21
138.39795000000001
 31
0.0
  0
LINE
  5
6D4
  8
0
  6
CONTINUOUS
 62
     7
 10
-654.01312000000019
 20
176.04795999999999
 30
0.0
 11
-649.80309999999997
 21
176.04795999999999
 31
0.0
  0
LINE
  5
6D5
  8
0
  6
CONTINUOUS
 62
     7
 10
-677.88311999999985
 20
161.0479599999999
 30
0.0
 11
-677.88311999999985
 21
185.0479599999999
 31
0.0
  0
LINE
  5
6D6
  8
0
  6
CONTINUOUS
 62
     7
 10
-652.38311999999996
 20
130.54796999999999
 30
0.0
 11
-652.38311999999996
 21
170.56796
 31
0.0
  0
LINE
  5
6D7
  8
0
  6
CONTINUOUS
 62
     7
 10
-570.38311999999985
 20
101.50798
 30
0.0
 11
-557.88311999999985
 21
101.50798
 31
0.0
  0
LINE
  5
6D8
  8
0
  6
CONTINUOUS
 62
     7
 10
-570.38311999999985
 20
205.58795000000001
 30
0.0
 11
-557.88311999999985
 21
205.58795000000001
 31
0.0
  0
CIRCLE
  5
6D9
  8
0
  6
CONTINUOUS
 62
     3
 10
-610.88317999999981
 20
540.86658
 30
0.0
 40
1.1000000000000001
  0
CIRCLE
  5
6DA
  8
0
  6
CONTINUOUS
 62
     3
 10
-610.88317999999981
 20
540.86658
 30
0.0
 40
1.149999999999999
  0
CIRCLE
  5
6DB
  8
0
  6
CONTINUOUS
 62
     3
 10
-605.88317999999981
 20
540.86658
 30
0.0
 40
1.0
  0
ARC
  5
6DC
  8
0
  6
CONTINUOUS
 62
     7
 10
-599.40307999999982
 20
544.72655999999995
 30
0.0
 40
1.0
 50
90.000003000000007
 51
180.00001
  0
ARC
  5
6DD
  8
0
  6
CONTINUOUS
 62
     7
 10
-617.36315999999999
 20
544.72655999999995
 30
0.0
 40
1.0
 50
0.0
 51
90.000003000000007
  0
ARC
  5
6DE
  8
0
  6
CONTINUOUS
 62
     7
 10
-617.38317999999981
 20
539.86657999999977
 30
0.0
 40
1.02
 50
269.99998999999991
 51
0.00000068324403
  0
ARC
  5
6DF
  8
0
  6
CONTINUOUS
 62
     7
 10
-599.3831799999997
 20
539.86657999999977
 30
0.0
 40
1.02
 50
179.99998999999991
 51
270.0
  0
ARC
  5
6E0
  8
0
  6
CONTINUOUS
 62
     7
 10
-617.38317999999981
 20
544.86657999999966
 30
0.0
 40
1.5
 50
0.0
 51
90.000003000000007
  0
ARC
  5
6E1
  8
0
  6
CONTINUOUS
 62
     7
 10
-617.38317999999981
 20
539.86657999999977
 30
0.0
 40
1.5
 50
269.99998999999991
 51
0.00000068324733
  0
ARC
  5
6E2
  8
0
  6
CONTINUOUS
 62
     7
 10
-599.3831799999997
 20
544.86657999999966
 30
0.0
 40
1.5
 50
90.000003000000007
 51
180.00001
  0
ARC
  5
6E3
  8
0
  6
CONTINUOUS
 62
     7
 10
-599.3831799999997
 20
539.86657999999977
 30
0.0
 40
1.5
 50
179.99998999999991
 51
270.0
  0
CIRCLE
  5
6E4
  8
0
  6
CONTINUOUS
 62
     3
 10
-605.88317999999981
 20
483.86660999999998
 30
0.0
 40
1.0
  0
CIRCLE
  5
6E5
  8
0
  6
CONTINUOUS
 62
     3
 10
-610.88317999999981
 20
483.86660999999998
 30
0.0
 40
1.149999999999999
  0
CIRCLE
  5
6E6
  8
0
  6
CONTINUOUS
 62
     3
 10
-610.88317999999981
 20
483.86660999999998
 30
0.0
 40
1.1000000000000001
  0
ARC
  5
6E7
  8
0
  6
CONTINUOUS
 62
     7
 10
-599.40307999999982
 20
480.00661999999988
 30
0.0
 40
1.0
 50
179.99998999999991
 51
270.0
  0
ARC
  5
6E8
  8
0
  6
CONTINUOUS
 62
     7
 10
-617.36315999999999
 20
480.00661999999988
 30
0.0
 40
1.0
 50
269.99998999999991
 51
0.00000068324625
  0
ARC
  5
6E9
  8
0
  6
CONTINUOUS
 62
     7
 10
-617.38317999999981
 20
484.86660999999992
 30
0.0
 40
1.02
 50
0.0
 51
90.000003000000007
  0
ARC
  5
6EA
  8
0
  6
CONTINUOUS
 62
     7
 10
-599.3831799999997
 20
484.86660999999992
 30
0.0
 40
1.02
 50
90.000003000000007
 51
180.00001
  0
ARC
  5
6EB
  8
0
  6
CONTINUOUS
 62
     7
 10
-617.38317999999981
 20
479.86660999999998
 30
0.0
 40
1.5
 50
269.99998999999991
 51
0.00000068324516
  0
ARC
  5
6EC
  8
0
  6
CONTINUOUS
 62
     7
 10
-617.38317999999981
 20
484.86660999999992
 30
0.0
 40
1.5
 50
0.0
 51
90.000003000000007
  0
ARC
  5
6ED
  8
0
  6
CONTINUOUS
 62
     7
 10
-599.3831799999997
 20
479.86660999999998
 30
0.0
 40
1.5
 50
179.99998999999991
 51
270.0
  0
ARC
  5
6EE
  8
0
  6
CONTINUOUS
 62
     7
 10
-599.3831799999997
 20
484.86660999999992
 30
0.0
 40
1.5
 50
90.000003000000007
 51
180.00001
  0
ARC
  5
6EF
  8
0
  6
CONTINUOUS
 62
     7
 10
-648.71813999999995
 20
497.35659999999979
 30
0.0
 40
1.3300148000000001
 50
269.72941999999989
 51
90.270567000000014
  0
ARC
  5
6F0
  8
0
  6
CONTINUOUS
 62
     7
 10
-649.94446000000016
 20
497.36660999999992
 30
0.0
 40
1.0000056999999991
 50
269.99998999999991
 51
90.000003000000007
  0
ARC
  5
6F1
  8
0
  6
CONTINUOUS
 62
     7
 10
-648.65624999999977
 20
507.36660999999992
 30
0.0
 40
1.2700266
 50
269.62931999999989
 51
90.370669999999961
  0
ARC
  5
6F2
  8
0
  6
CONTINUOUS
 62
     7
 10
-649.94446000000016
 20
507.36660999999992
 30
0.0
 40
1.0000056999999991
 50
269.99998999999991
 51
90.000003000000007
  0
ARC
  5
6F3
  8
0
  6
CONTINUOUS
 62
     7
 10
-648.65624999999977
 20
517.37659000000008
 30
0.0
 40
1.2700266
 50
269.62931999999989
 51
90.370669999999961
  0
ARC
  5
6F4
  8
0
  6
CONTINUOUS
 62
     7
 10
-649.94446000000016
 20
517.36658
 30
0.0
 40
1.0000056999999991
 50
269.99998999999991
 51
90.000003000000007
  0
ARC
  5
6F5
  8
0
  6
CONTINUOUS
 62
     7
 10
-649.94446000000016
 20
527.36657999999977
 30
0.0
 40
1.0000056999999991
 50
269.99998999999991
 51
90.000003000000007
  0
ARC
  5
6F6
  8
0
  6
CONTINUOUS
 62
     7
 10
-648.71813999999995
 20
527.38158999999985
 30
0.0
 40
1.3350147999999991
 50
269.73043000000001
 51
90.269555999999994
  0
ARC
  5
6F7
  8
0
  6
CONTINUOUS
 62
     7
 10
-585.04320999999982
 20
537.36658
 30
0.0
 40
1.0000255999999981
 50
269.58947000000001
 51
90.410531000000006
  0
ARC
  5
6F8
  8
0
  6
CONTINUOUS
 62
     7
 10
-581.34313999999995
 20
537.39661000000001
 30
0.0
 40
1.460011199999999
 50
269.77525000000003
 51
90.224749999999986
  0
ARC
  5
6F9
  8
0
  6
CONTINUOUS
 62
     7
 10
-585.04320999999982
 20
487.36660999999998
 30
0.0
 40
1.0000255999999981
 50
269.58947000000001
 51
90.410531000000006
  0
ARC
  5
6FA
  8
0
  6
CONTINUOUS
 62
     7
 10
-581.34313999999995
 20
487.33658000000003
 30
0.0
 40
1.460011199999999
 50
269.77525000000003
 51
90.224749999999986
  0
ARC
  5
6FB
  8
0
  6
CONTINUOUS
 62
     7
 10
-584.29944
 20
576.78661999999963
 30
0.0
 40
1.5
 50
12.129792
 51
90.000003000000007
  0
ARC
  5
6FC
  8
0
  6
CONTINUOUS
 62
     7
 10
-584.15552000000002
 20
576.11657999999966
 30
0.0
 40
1.5
 50
12.129792
 51
90.000003000000007
  0
ARC
  5
6FD
  8
0
  6
CONTINUOUS
 62
     7
 10
-583.86315999999999
 20
574.75658999999985
 30
0.0
 40
1.5
 50
12.129792
 51
90.000003000000007
  0
ARC
  5
6FE
  8
0
  6
CONTINUOUS
 62
     7
 10
-597.86950999999999
 20
440.86660999999992
 30
0.0
 40
1.5
 50
90.000003000000007
 51
178.5
  0
ARC
  5
6FF
  8
0
  6
CONTINUOUS
 62
     3
 10
-586.36694
 20
443.86660999999981
 30
0.0
 40
1.5
 50
269.99998999999991
 51
327.0
  0
ARC
  5
700
  8
0
  6
CONTINUOUS
 62
     7
 10
-661.05676000000017
 20
446.97658999999987
 30
0.0
 40
1.5
 50
1.5000026999999989
 51
90.000003000000007
  0
ARC
  5
701
  8
0
  6
CONTINUOUS
 62
     7
 10
-711.92882999999995
 20
487.33658000000003
 30
0.0
 40
1.460011199999999
 50
89.775248000000005
 51
270.22474
  0
ARC
  5
702
  8
0
  6
CONTINUOUS
 62
     7
 10
-710.84032999999988
 20
487.36660999999998
 30
0.0
 40
1.0000255999999981
 50
89.589473999999967
 51
270.41052000000002
  0
ARC
  5
703
  8
0
  6
CONTINUOUS
 62
     7
 10
-710.84032999999988
 20
477.36660999999981
 30
0.0
 40
1.0000255999999981
 50
89.589473999999967
 51
270.41052000000002
  0
ARC
  5
704
  8
0
  6
CONTINUOUS
 62
     7
 10
-711.71312999999975
 20
477.31655999999992
 30
0.0
 40
1.6800002000000001
 50
90.000003000000007
 51
270.0
  0
ARC
  5
705
  8
0
  6
CONTINUOUS
 62
     7
 10
-711.48584000000005
 20
456.09365999999989
 30
0.0
 40
1.997119399999999
 50
192.05524
 51
270.19862999999992
  0
ARC
  5
706
  8
0
  6
CONTINUOUS
 62
     7
 10
-715.86632999999995
 20
459.82425000000001
 30
0.0
 40
1.502416299999999
 50
12.39188699999999
 51
90.098617000000004
  0
ARC
  5
707
  8
0
  6
CONTINUOUS
 62
     7
 10
-711.42370999999957
 20
461.37185999999991
 30
0.0
 40
1.9952742999999991
 50
189.96477999999971
 51
269.85142000000002
  0
ARC
  5
708
  8
0
  6
CONTINUOUS
 62
     7
 10
-715.65002000000004
 20
465.10660000000001
 30
0.0
 40
1.5
 50
10.23737899999999
 51
79.752110000000002
  0
ARC
  5
709
  8
0
  6
CONTINUOUS
 62
     7
 10
-715.65002000000004
 20
559.62658999999985
 30
0.0
 40
1.5
 50
280.24788999999998
 51
349.76262000000008
  0
ARC
  5
70A
  8
0
  6
CONTINUOUS
 62
     7
 10
-719.83312999999964
 20
497.36660999999992
 30
0.0
 40
1.0000056999999991
 50
90.000003000000007
 51
270.0
  0
ARC
  5
70B
  8
0
  6
CONTINUOUS
 62
     7
 10
-721.12134000000003
 20
507.36660999999992
 30
0.0
 40
1.2700266
 50
89.629320999999962
 51
270.37068999999991
  0
ARC
  5
70C
  8
0
  6
CONTINUOUS
 62
     7
 10
-703.39038000000005
 20
477.36660999999981
 30
0.0
 40
1.0000259
 50
89.587533999999977
 51
270.41246000000001
  0
ARC
  5
70D
  8
0
  6
CONTINUOUS
 62
     7
 10
-703.39038000000005
 20
507.36660999999992
 30
0.0
 40
1.0000259
 50
89.587533999999977
 51
270.41246000000001
  0
ARC
  5
70E
  8
0
  6
CONTINUOUS
 62
     7
 10
-721.05944999999986
 20
497.35659999999979
 30
0.0
 40
1.3300148000000001
 50
89.729417999999995
 51
270.27058999999991
  0
ARC
  5
70F
  8
0
  6
CONTINUOUS
 62
     7
 10
-703.39038000000005
 20
487.36660999999998
 30
0.0
 40
1.0000259
 50
89.587533999999977
 51
270.41246000000001
  0
ARC
  5
710
  8
0
  6
CONTINUOUS
 62
     7
 10
-703.39038000000005
 20
497.36660999999992
 30
0.0
 40
1.0000259
 50
89.587533999999977
 51
270.41246000000001
  0
ARC
  5
711
  8
0
  6
CONTINUOUS
 62
     7
 10
-719.83312999999964
 20
507.36660999999992
 30
0.0
 40
1.0000056999999991
 50
90.000003000000007
 51
270.0
  0
ARC
  5
712
  8
0
  6
CONTINUOUS
 62
     7
 10
-581.56311000000005
 20
477.32657
 30
0.0
 40
1.6800077
 50
269.99998999999991
 51
90.000003000000007
  0
ARC
  5
713
  8
0
  6
CONTINUOUS
 62
     7
 10
-585.04309000000001
 20
477.36660999999981
 30
0.0
 40
1.0000040999999991
 50
269.99998999999991
 51
90.000003000000007
  0
ARC
  5
714
  8
0
  6
CONTINUOUS
 62
     7
 10
-585.04309000000001
 20
547.36658
 30
0.0
 40
1.0000040999999991
 50
269.99998999999991
 51
90.000003000000007
  0
ARC
  5
715
  8
0
  6
CONTINUOUS
 62
     7
 10
-581.56311000000005
 20
547.41663000000005
 30
0.0
 40
1.6800077
 50
269.99998999999991
 51
90.000003000000007
  0
ARC
  5
716
  8
0
  6
CONTINUOUS
 62
     7
 10
-710.84032999999988
 20
537.36658
 30
0.0
 40
1.0000255999999981
 50
89.589473999999967
 51
270.41052000000002
  0
ARC
  5
717
  8
0
  6
CONTINUOUS
 62
     7
 10
-710.84032999999988
 20
547.36658
 30
0.0
 40
1.0000255999999981
 50
89.589473999999967
 51
270.41052000000002
  0
ARC
  5
718
  8
0
  6
CONTINUOUS
 62
     7
 10
-719.83312999999964
 20
527.36657999999977
 30
0.0
 40
1.0000056999999991
 50
90.000003000000007
 51
270.0
  0
ARC
  5
719
  8
0
  6
CONTINUOUS
 62
     7
 10
-719.83312999999964
 20
517.36658
 30
0.0
 40
1.0000056999999991
 50
90.000003000000007
 51
270.0
  0
ARC
  5
71A
  8
0
  6
CONTINUOUS
 62
     7
 10
-711.71312999999975
 20
547.41663000000005
 30
0.0
 40
1.6800002000000001
 50
90.000003000000007
 51
270.0
  0
ARC
  5
71B
  8
0
  6
CONTINUOUS
 62
     7
 10
-711.92882999999995
 20
537.39661000000001
 30
0.0
 40
1.460011199999999
 50
89.775248000000005
 51
270.22474
  0
ARC
  5
71C
  8
0
  6
CONTINUOUS
 62
     7
 10
-721.05944999999986
 20
527.38158999999985
 30
0.0
 40
1.3350147999999991
 50
89.730435000000014
 51
270.26956999999999
  0
ARC
  5
71D
  8
0
  6
CONTINUOUS
 62
     7
 10
-721.12134000000003
 20
517.37659000000008
 30
0.0
 40
1.2700266
 50
89.629328000000001
 51
270.37065999999987
  0
ARC
  5
71E
  8
0
  6
CONTINUOUS
 62
     7
 10
-703.39038000000005
 20
547.36658
 30
0.0
 40
1.0000259
 50
89.587533999999977
 51
270.41246000000001
  0
ARC
  5
71F
  8
0
  6
CONTINUOUS
 62
     7
 10
-703.39038000000005
 20
537.36658
 30
0.0
 40
1.0000259
 50
89.587533999999977
 51
270.41246000000001
  0
ARC
  5
720
  8
0
  6
CONTINUOUS
 62
     7
 10
-703.39038000000005
 20
527.36657999999977
 30
0.0
 40
1.0000259
 50
89.587533999999977
 51
270.41246000000001
  0
ARC
  5
721
  8
0
  6
CONTINUOUS
 62
     7
 10
-578.73950000000002
 20
464.52285999999998
 30
0.0
 40
1.4937901
 50
89.756423999999981
 51
165.1129199999998
  0
ARC
  5
722
  8
0
  6
CONTINUOUS
 62
     7
 10
-705.88622999999995
 20
452.60342000000003
 30
0.0
 40
1.503128599999999
 50
0.11912965
 51
89.880870000000002
  0
ARC
  5
723
  8
0
  6
CONTINUOUS
 62
     7
 10
-705.88513
 20
457.88467000000003
 30
0.0
 40
1.501982699999999
 50
0.075587202
 51
89.924413000000015
  0
ARC
  5
724
  8
0
  6
CONTINUOUS
 62
     7
 10
-702.38220000000001
 20
450.47757000000001
 30
0.0
 40
2.0009109999999981
 50
180.00001
 51
269.97390999999988
  0
ARC
  5
725
  8
0
  6
CONTINUOUS
 62
     7
 10
-702.38306
 20
452.50662
 30
0.0
 40
2.0000371999999991
 50
180.00105999999991
 51
269.99892999999992
  0
ARC
  5
726
  8
0
  6
CONTINUOUS
 62
     7
 10
-723.55542000000003
 20
453.74831999999992
 30
0.0
 40
1.4982997
 50
14.22974
 51
89.910949999999985
  0
ARC
  5
727
  8
0
  6
CONTINUOUS
 62
     7
 10
-723.56994999999984
 20
455.76895000000002
 30
0.0
 40
1.497715799999999
 50
13.424379
 51
90.122644999999963
  0
ARC
  5
728
  8
0
  6
CONTINUOUS
 62
     7
 10
-719.24634000000003
 20
452.69717000000003
 30
0.0
 40
2.0005671999999981
 50
193.3095899999999
 51
269.80430999999999
  0
ARC
  5
729
  8
0
  6
CONTINUOUS
 62
     7
 10
-716.22020999999995
 20
470.77811000000003
 30
0.0
 40
4.999142199999997
 50
5.3780269000000001
 51
80.360065000000006
  0
ARC
  5
72A
  8
0
  6
CONTINUOUS
 62
     7
 10
-715.76342999999974
 20
474.71194000000003
 30
0.0
 40
6.0073843
 50
273.62973999999991
 51
314.76384999999999
  0
ARC
  5
72B
  8
0
  6
CONTINUOUS
 62
     7
 10
-712.24120999999968
 20
553.58727999999985
 30
0.0
 40
1.002184699999999
 50
354.80385999999987
 51
45.047306999999968
  0
ARC
  5
72C
  8
0
  6
CONTINUOUS
 62
     7
 10
-715.76220999999998
 20
550.03405999999995
 30
0.0
 40
6.0044340999999992
 50
45.225577999999999
 51
86.380821999999966
  0
ARC
  5
72D
  8
0
  6
CONTINUOUS
 62
     7
 10
-716.22754000000032
 20
553.9608199999999
 30
0.0
 40
5.0059714
 50
279.71098000000001
 51
354.67887999999999
  0
ARC
  5
72E
  8
0
  6
CONTINUOUS
 62
     7
 10
-578.67749000000003
 20
564.90686000000005
 30
0.0
 40
1.500286
 50
192.32630999999989
 51
270.16417000000001
  0
ARC
  5
72F
  8
0
  6
CONTINUOUS
 62
     7
 10
-577.3907499999998
 20
461.31900000000002
 30
0.0
 40
0.99237448
 50
179.55802
 51
270.44197000000003
  0
ARC
  5
730
  8
0
  6
CONTINUOUS
 62
     7
 10
-577.39013999999975
 20
449.85964999999987
 30
0.0
 40
0.99304521
 50
179.59730999999991
 51
270.40267999999992
  0
ARC
  5
731
  8
0
  6
CONTINUOUS
 62
     7
 10
-585.57372999999995
 20
572.22742000000005
 30
0.0
 40
1.9991226
 50
15.050791
 51
89.984388999999979
  0
ARC
  5
732
  8
0
  6
CONTINUOUS
 62
     7
 10
-578.73302999999976
 20
560.21887000000004
 30
0.0
 40
1.5022733999999991
 50
195.1365099999999
 51
269.99412000000001
  0
ARC
  5
733
  8
0
  6
CONTINUOUS
 62
     7
 10
-705.77819999999986
 20
577.17174999999997
 30
0.0
 40
1.505230099999999
 50
270.19421
 51
345.17177999999979
  0
ARC
  5
734
  8
0
  6
CONTINUOUS
 62
     7
 10
-705.89000999999985
 20
575.54345999999998
 30
0.0
 40
1.506942899999999
 50
270.26337000000001
 51
359.73662999999999
  0
ARC
  5
735
  8
0
  6
CONTINUOUS
 62
     7
 10
-705.88806
 20
572.14147999999977
 30
0.0
 40
1.5048912999999979
 50
270.18592999999998
 51
359.81407000000002
  0
ARC
  5
736
  8
0
  6
CONTINUOUS
 62
     7
 10
-705.88684000000001
 20
566.86035000000004
 30
0.0
 40
1.5037541000000001
 50
270.14287000000002
 51
359.85714000000002
  0
ARC
  5
737
  8
0
  6
CONTINUOUS
 62
     7
 10
-702.38940000000002
 20
576.2900400000002
 30
0.0
 40
1.9964978999999969
 50
89.821482000000003
 51
165.6006099999999
  0
ARC
  5
738
  8
0
  6
CONTINUOUS
 62
     7
 10
-702.38660000000004
 20
575.62012000000004
 30
0.0
 40
1.996488899999999
 50
89.899147999999997
 51
180.10085000000001
  0
ARC
  5
739
  8
0
  6
CONTINUOUS
 62
     7
 10
-702.38903999999968
 20
574.26244999999994
 30
0.0
 40
1.9941304999999969
 50
89.831106000000005
 51
180.16889
  0
ARC
  5
73A
  8
0
  6
CONTINUOUS
 62
     7
 10
-702.38977
 20
572.23328000000004
 30
0.0
 40
1.9933081999999991
 50
89.807322999999968
 51
180.19266999999991
  0
ARC
  5
73B
  8
0
  6
CONTINUOUS
 62
     7
 10
-719.27832000000001
 20
573.67200000000003
 30
0.0
 40
1.994612099999999
 50
89.851992000000024
 51
165.93885999999981
  0
ARC
  5
73C
  8
0
  6
CONTINUOUS
 62
     7
 10
-723.56359999999984
 20
570.99194
 30
0.0
 40
1.505448699999999
 50
270.39686999999992
 51
345.95247000000001
  0
ARC
  5
73D
  8
0
  6
CONTINUOUS
 62
     7
 10
-723.57787999999982
 20
568.97144000000003
 30
0.0
 40
1.5048382
 50
270.18263999999982
 51
346.7530799999999
  0
ARC
  5
73E
  8
0
  6
CONTINUOUS
 62
     7
 10
-719.25280999999995
 20
572.04430999999977
 30
0.0
 40
1.9922863
 50
90.007720999999947
 51
166.87839
  0
ARC
  5
73F
  8
0
  6
CONTINUOUS
 62
     7
 10
-715.86632999999995
 20
564.90894000000003
 30
0.0
 40
1.502416299999999
 50
269.9013799999999
 51
347.60813000000002
  0
ARC
  5
740
  8
0
  6
CONTINUOUS
 62
     7
 10
-711.48584000000005
 20
568.63953000000004
 30
0.0
 40
1.997119399999999
 50
89.801366999999999
 51
167.94476
  0
ARC
  5
741
  8
0
  6
CONTINUOUS
 62
     7
 10
-711.42370999999957
 20
563.36132999999995
 30
0.0
 40
1.9952742999999991
 50
90.148580000000024
 51
170.0352199999999
  0
ARC
  5
742
  8
0
  6
CONTINUOUS
 62
     7
 10
-703.39038000000005
 20
517.36658
 30
0.0
 40
1.0000259
 50
89.587533999999977
 51
270.41246000000001
  0
ARC
  5
743
  8
0
  6
CONTINUOUS
 62
     7
 10
-577.38403000000005
 20
563.40746999999999
 30
0.0
 40
0.9990923399999999
 50
89.947921999999977
 51
180.0520799999999
  0
ARC
  5
744
  8
0
  6
CONTINUOUS
 62
     7
 10
-585.58190999999965
 20
452.51285000000001
 30
0.0
 40
2.0062942999999991
 50
270.24932999999987
 51
345.08843999999999
  0
ARC
  5
745
  8
0
  6
CONTINUOUS
 62
     7
 10
-577.38329999999985
 20
574.86681999999996
 30
0.0
 40
0.99980682
 50
89.98893099999998
 51
180.0110699999999
  0
ARC
  5
746
  8
0
  6
CONTINUOUS
 62
     7
 10
-712.24230999999975
 20
471.15627999999998
 30
0.0
 40
1.0032491999999991
 50
314.98118999999991
 51
5.1676434000000002
  0
ARC
  5
747
  8
0
  6
CONTINUOUS
 62
     7
 10
-729.38989000000004
 20
560.38452000000007
 30
0.0
 40
0.99319202
 50
119.77338
 51
179.87958999999981
  0
ARC
  5
748
  8
0
  6
CONTINUOUS
 62
     7
 10
-729.38756999999998
 20
559.34631000000002
 30
0.0
 40
0.995579
 50
116.5870899999999
 51
179.98264
  0
ARC
  5
749
  8
0
  6
CONTINUOUS
 62
     7
 10
-728.12108999999964
 20
561.12072999999998
 30
0.0
 40
0.9959030199999999
 50
89.541267000000005
 51
119.60717
  0
ARC
  5
74A
  8
0
  6
CONTINUOUS
 62
     7
 10
-728.15832999999998
 20
559.97253000000001
 30
0.0
 40
0.99411702
 50
89.122643999999966
 51
115.93498
  0
ARC
  5
74B
  8
0
  6
CONTINUOUS
 62
     7
 10
-728.11425999999983
 20
559.01233000000002
 30
0.0
 40
0.99427301
 50
89.356065999999984
 51
120.78091000000001
  0
ARC
  5
74C
  8
0
  6
CONTINUOUS
 62
     7
 10
-728.14806999999985
 20
557.87121999999999
 30
0.0
 40
0.99545902
 50
89.141291000000024
 51
117.20381999999999
  0
ARC
  5
74D
  8
0
  6
CONTINUOUS
 62
     7
 10
-728.07653999999968
 20
554.50036999999986
 30
0.0
 40
0.99617702
 50
90.381317999999979
 51
123.9704899999999
  0
ARC
  5
74E
  8
0
  6
CONTINUOUS
 62
     7
 10
-728.10375999999985
 20
553.36010999999985
 30
0.0
 40
0.99648702
 50
90.540720999999976
 51
120.74377
  0
ARC
  5
74F
  8
0
  6
CONTINUOUS
 62
     7
 10
-729.38904000000002
 20
552.60973999999999
 30
0.0
 40
0.99404597
 50
120.4682
 51
180.18563999999989
  0
ARC
  5
750
  8
0
  6
CONTINUOUS
 62
     7
 10
-729.38830999999982
 20
553.64417000000003
 30
0.0
 40
0.9948369899999999
 50
123.20496
 51
180.4378599999998
  0
ARC
  5
751
  8
0
  6
CONTINUOUS
 62
     7
 10
-729.38989000000004
 20
557.20800999999994
 30
0.0
 40
0.9932109699999999
 50
117.7993199999999
 51
180.08187000000001
  0
ARC
  5
752
  8
0
  6
CONTINUOUS
 62
     7
 10
-729.38867000000005
 20
558.24561000000006
 30
0.0
 40
0.9944329899999999
 50
121.15213
 51
179.9405099999999
  0
ARC
  5
753
  8
0
  6
CONTINUOUS
 62
     7
 10
-728.18213000000003
 20
547.06115999999986
 30
0.0
 40
0.9954450099999999
 50
90.056905000000043
 51
113.1274499999999
  0
ARC
  5
754
  8
0
  6
CONTINUOUS
 62
     7
 10
-728.24401999999986
 20
545.11389000000008
 30
0.0
 40
0.9927430199999999
 50
89.374555000000001
 51
106.33207
  0
ARC
  5
755
  8
0
  6
CONTINUOUS
 62
     7
 10
-729.38684000000001
 20
544.76233000000002
 30
0.0
 40
0.9962710099999999
 50
106.69792
 51
180.3300499999998
  0
ARC
  5
756
  8
0
  6
CONTINUOUS
 62
     7
 10
-729.38671999999985
 20
546.54809999999986
 30
0.0
 40
0.9963999999999998
 50
112.81735999999979
 51
180.09041999999991
  0
ARC
  5
757
  8
0
  6
CONTINUOUS
 62
     7
 10
-729.38806
 20
537.37145999999996
 30
0.0
 40
0.99507803
 50
89.715886999999981
 51
180.28411
  0
ARC
  5
758
  8
0
  6
CONTINUOUS
 62
     7
 10
-729.38292999999965
 20
537.36681999999996
 30
0.0
 40
1.000203
 50
180.01165
 51
269.98835000000003
  0
ARC
  5
759
  8
0
  6
CONTINUOUS
 62
     7
 10
-729.38806
 20
527.37145999999996
 30
0.0
 40
0.99508202
 50
89.716099
 51
180.28390999999991
  0
ARC
  5
75A
  8
0
  6
CONTINUOUS
 62
     7
 10
-729.38292999999965
 20
527.36682000000008
 30
0.0
 40
1.0001999999999991
 50
180.0114299999999
 51
269.98856999999992
  0
ARC
  5
75B
  8
0
  6
CONTINUOUS
 62
     7
 10
-729.38806
 20
517.37145999999996
 30
0.0
 40
0.9950849999999999
 50
89.716311000000005
 51
180.28368999999981
  0
ARC
  5
75C
  8
0
  6
CONTINUOUS
 62
     7
 10
-729.38292999999965
 20
517.36681999999985
 30
0.0
 40
1.0001959999999981
 50
180.01122000000001
 51
269.98877999999991
  0
ARC
  5
75D
  8
0
  6
CONTINUOUS
 62
     7
 10
-726.38292999999999
 20
515.36670000000004
 30
0.0
 40
0.9998249999999999
 50
359.98995000000002
 51
90.010050000000007
  0
ARC
  5
75E
  8
0
  6
CONTINUOUS
 62
     7
 10
-726.38806
 20
519.37145999999996
 30
0.0
 40
1.0049469
 50
270.28134999999992
 51
359.71866
  0
ARC
  5
75F
  8
0
  6
CONTINUOUS
 62
     7
 10
-726.38292999999999
 20
525.36670000000004
 30
0.0
 40
0.9998210099999999
 50
359.98975000000002
 51
90.010255000000001
  0
ARC
  5
760
  8
0
  6
CONTINUOUS
 62
     7
 10
-726.38806
 20
529.37145999999996
 30
0.0
 40
1.004939
 50
270.28091000000001
 51
359.71910000000008
  0
ARC
  5
761
  8
0
  6
CONTINUOUS
 62
     7
 10
-726.38292999999999
 20
535.36670000000004
 30
0.0
 40
0.9998289899999999
 50
359.99018999999993
 51
90.009810999999985
  0
ARC
  5
762
  8
0
  6
CONTINUOUS
 62
     7
 10
-726.38806
 20
539.37145999999996
 30
0.0
 40
1.004942999999999
 50
270.28111000000001
 51
359.71888999999987
  0
ARC
  5
763
  8
0
  6
CONTINUOUS
 62
     7
 10
-726.38135
 20
545.10828000000004
 30
0.0
 40
0.9982839799999999
 50
359.90141999999992
 51
90.098575999999994
  0
ARC
  5
764
  8
0
  6
CONTINUOUS
 62
     7
 10
-726.38549999999964
 20
553.35424999999998
 30
0.0
 40
1.002353
 50
0.13432682
 51
89.865673000000001
  0
ARC
  5
765
  8
0
  6
CONTINUOUS
 62
     7
 10
-726.08765000000005
 20
548.76110999999992
 30
0.0
 40
0.704566
 50
270.37009999999992
 51
359.62990999999982
  0
ARC
  5
766
  8
0
  6
CONTINUOUS
 62
     7
 10
-726.38207999999975
 20
557.86755000000005
 30
0.0
 40
0.9990100299999999
 50
359.94319000000002
 51
90.056808999999959
  0
ARC
  5
767
  8
0
  6
CONTINUOUS
 62
     7
 10
-725.88147000000004
 20
560.46825999999999
 30
0.0
 40
0.4983060100000002
 50
359.80489
 51
90.195107000000007
  0
ARC
  5
768
  8
0
  6
CONTINUOUS
 62
     7
 10
-725.8877
 20
562.62121999999999
 30
0.0
 40
0.50463498
 50
270.52382999999992
 51
359.47617000000002
  0
ARC
  5
769
  8
0
  6
CONTINUOUS
 62
     7
 10
-726.38647000000003
 20
479.62990999999988
 30
0.0
 40
1.003352
 50
270.19110999999992
 51
359.80889999999982
  0
ARC
  5
76A
  8
0
  6
CONTINUOUS
 62
     7
 10
-726.38806
 20
489.37148999999988
 30
0.0
 40
1.0049469
 50
270.28136999999992
 51
359.71863000000002
  0
ARC
  5
76B
  8
0
  6
CONTINUOUS
 62
     7
 10
-726.38292999999999
 20
485.36672999999968
 30
0.0
 40
0.9998239899999999
 50
359.98991999999993
 51
90.010076999999981
  0
ARC
  5
76C
  8
0
  6
CONTINUOUS
 62
     7
 10
-726.08252000000005
 20
475.97719999999993
 30
0.0
 40
0.6994530000000001
 50
359.95517000000001
 51
90.044829000000021
  0
ARC
  5
76D
  8
0
  6
CONTINUOUS
 62
     7
 10
-728.18017999999984
 20
477.68178999999998
 30
0.0
 40
1.005233
 50
246.98638999999989
 51
269.82924999999989
  0
ARC
  5
76E
  8
0
  6
CONTINUOUS
 62
     7
 10
-728.24255000000005
 20
479.6293
 30
0.0
 40
1.002699
 50
253.7527199999999
 51
270.54064
  0
ARC
  5
76F
  8
0
  6
CONTINUOUS
 62
     7
 10
-729.38671999999985
 20
479.98099000000002
 30
0.0
 40
0.99638802
 50
180.24991
 51
253.29664
  0
ARC
  5
770
  8
0
  6
CONTINUOUS
 62
     7
 10
-729.38660000000004
 20
478.19510000000002
 30
0.0
 40
0.9965090199999998
 50
179.91374999999999
 51
247.17845
  0
ARC
  5
771
  8
0
  6
CONTINUOUS
 62
     7
 10
-729.38292999999965
 20
487.36684999999989
 30
0.0
 40
1.0001959999999981
 50
180.01124999999999
 51
269.98874999999992
  0
ARC
  5
772
  8
0
  6
CONTINUOUS
 62
     7
 10
-729.38806
 20
487.37148999999999
 30
0.0
 40
0.9950849999999999
 50
89.716282999999976
 51
180.2837199999999
  0
ARC
  5
773
  8
0
  6
CONTINUOUS
 62
     7
 10
-729.38292999999965
 20
497.36685
 30
0.0
 40
1.0001999999999991
 50
180.01146
 51
269.98853999999972
  0
ARC
  5
774
  8
0
  6
CONTINUOUS
 62
     7
 10
-729.38806
 20
497.37148999999999
 30
0.0
 40
0.9950810099999999
 50
89.716071999999997
 51
180.28391999999999
  0
ARC
  5
775
  8
0
  6
CONTINUOUS
 62
     7
 10
-729.38292999999965
 20
507.36685
 30
0.0
 40
1.0002040000000001
 50
180.01166000000001
 51
269.9883200000001
  0
ARC
  5
776
  8
0
  6
CONTINUOUS
 62
     7
 10
-729.38806
 20
507.37148999999988
 30
0.0
 40
0.9950770099999999
 50
89.715860000000006
 51
180.28413999999989
  0
ARC
  5
777
  8
0
  6
CONTINUOUS
 62
     7
 10
-726.38806
 20
509.37149000000011
 30
0.0
 40
1.004942999999999
 50
270.28113999999988
 51
359.71886999999992
  0
ARC
  5
778
  8
0
  6
CONTINUOUS
 62
     7
 10
-726.38292999999999
 20
505.36672999999979
 30
0.0
 40
0.9998279799999998
 50
359.99015999999978
 51
90.009838000000002
  0
ARC
  5
779
  8
0
  6
CONTINUOUS
 62
     7
 10
-726.38806
 20
499.37148999999988
 30
0.0
 40
1.004939
 50
270.28093999999999
 51
359.71906999999999
  0
ARC
  5
77A
  8
0
  6
CONTINUOUS
 62
     7
 10
-726.38292999999999
 20
495.36672999999979
 30
0.0
 40
0.9998210099999999
 50
359.98971999999998
 51
90.010281999999961
  0
ARC
  5
77B
  8
0
  6
CONTINUOUS
 62
     7
 10
-726.38634999999999
 20
471.39334000000002
 30
0.0
 40
1.0032760000000001
 50
334.19810000000001
 51
359.61810999999977
  0
ARC
  5
77C
  8
0
  6
CONTINUOUS
 62
     7
 10
-729.38463999999988
 20
472.12589000000003
 30
0.0
 40
0.9984580299999999
 50
179.9595799999999
 51
239.38657000000001
  0
ARC
  5
77D
  8
0
  6
CONTINUOUS
 62
     7
 10
-729.38549999999964
 20
464.35122999999999
 30
0.0
 40
0.9976310099999999
 50
180.26780999999991
 51
240.07924
  0
ARC
  5
77E
  8
0
  6
CONTINUOUS
 62
     7
 10
-729.38744999999983
 20
465.39699999999999
 30
0.0
 40
0.9956849800000001
 50
180.02112999999991
 51
243.40913999999981
  0
ARC
  5
77F
  8
0
  6
CONTINUOUS
 62
     7
 10
-728.10242000000005
 20
463.61770999999999
 30
0.0
 40
1.001123999999999
 50
239.32782000000009
 51
269.38767999999988
  0
ARC
  5
780
  8
0
  6
CONTINUOUS
 62
     7
 10
-728.13733000000002
 20
464.76589999999987
 30
0.0
 40
0.9993420200000001
 50
242.86199999999999
 51
269.66546
  0
ARC
  5
781
  8
0
  6
CONTINUOUS
 62
     7
 10
-728.11168999999984
 20
465.73025999999999
 30
0.0
 40
1.0037439999999991
 50
239.37112999999999
 51
270.49189999999987
  0
ARC
  5
782
  8
0
  6
CONTINUOUS
 62
     7
 10
-728.12792999999999
 20
466.86721999999992
 30
0.0
 40
1.0006820000000001
 50
241.65062
 51
269.7039299999999
  0
ARC
  5
783
  8
0
  6
CONTINUOUS
 62
     7
 10
-728.09032999999999
 20
470.24709999999999
 30
0.0
 40
1.000521999999999
 50
237.14617999999999
 51
270.41343999999998
  0
ARC
  5
784
  8
0
  6
CONTINUOUS
 62
     7
 10
-728.11974999999984
 20
471.38759999999991
 30
0.0
 40
1.0010449999999991
 50
240.47187
 51
270.37970999999999
  0
ARC
  5
785
  8
0
  6
CONTINUOUS
 62
     7
 10
-729.38463999999988
 20
472.12589000000003
 30
0.0
 40
0.9984580299999999
 50
179.9595799999999
 51
239.38657000000001
  0
ARC
  5
786
  8
0
  6
CONTINUOUS
 62
     7
 10
-729.38402999999983
 20
471.09134
 30
0.0
 40
0.9990889999999998
 50
179.69508999999991
 51
236.66209000000001
  0
ARC
  5
787
  8
0
  6
CONTINUOUS
 62
     7
 10
-729.38537999999983
 20
467.52785999999992
 30
0.0
 40
0.9977070099999998
 50
180.0740199999999
 51
242.04481000000001
  0
ARC
  5
788
  8
0
  6
CONTINUOUS
 62
     7
 10
-729.38439999999969
 20
466.49014
 30
0.0
 40
0.9987969999999998
 50
179.62728000000001
 51
238.70795000000001
  0
ARC
  5
789
  8
0
  6
CONTINUOUS
 62
     7
 10
-726.38562000000002
 20
471.38907
 30
0.0
 40
1.002470999999999
 50
270.14107000000001
 51
359.85892999999987
  0
ARC
  5
78A
  8
0
  6
CONTINUOUS
 62
     7
 10
-726.38720999999998
 20
466.87075999999968
 30
0.0
 40
1.004119999999999
 50
270.23460999999992
 51
359.76538999999991
  0
ARC
  5
78B
  8
0
  6
CONTINUOUS
 62
     7
 10
-725.88647000000003
 20
464.27005000000003
 30
0.0
 40
0.5033929900000002
 50
270.38490999999982
 51
359.61509999999993
  0
ARC
  5
78C
  8
0
  6
CONTINUOUS
 62
     7
 10
-725.88269000000003
 20
462.11709999999999
 30
0.0
 40
0.49952301
 50
359.94522999999992
 51
90.054773999999981
  0
ARC
  5
78D
  8
0
  6
CONTINUOUS
 62
     3
 10
-665.65600999999981
 20
428.36660999999992
 30
0.0
 40
4.0
 50
179.99997999999991
 51
0.000010017912
  0
ARC
  5
78E
  8
0
  6
CONTINUOUS
 62
     3
 10
-665.65600999999981
 20
428.36660999999992
 30
0.0
 40
7.5
 50
179.99997999999991
 51
0.000010017913
  0
ARC
  5
78F
  8
0
  6
CONTINUOUS
 62
     7
 10
-719.6825
 20
452.69655999999992
 30
0.0
 40
2.0
 50
194.1507499999999
 51
269.99998999999991
  0
ARC
  5
790
  8
0
  6
CONTINUOUS
 62
     7
 10
-705.64038000000005
 20
449.19655999999992
 30
0.0
 40
1.5
 50
21.461708999999988
 51
90.000003000000007
  0
ARC
  5
791
  8
0
  6
CONTINUOUS
 62
     7
 10
-545.88317999999992
 20
602.60924999999975
 30
0.0
 40
3.0
 50
315.0
 51
0.0
  0
ARC
  5
792
  8
0
  6
CONTINUOUS
 62
     7
 10
-562.88317999999992
 20
443.60165000000001
 30
0.0
 40
5.0
 50
0.0
 51
88.0
  0
ARC
  5
793
  8
0
  6
CONTINUOUS
 62
     7
 10
-540.88317999999992
 20
609.58600000000001
 30
0.0
 40
2.0
 50
91.999998000000005
 51
180.00001
  0
ARC
  5
794
  8
0
  6
CONTINUOUS
 62
     7
 10
-552.88317999999981
 20
584.29552999999976
 30
0.0
 40
5.0
 50
135.0
 51
180.00001
  0
ARC
  5
795
  8
0
  6
CONTINUOUS
 62
     7
 10
-562.88317999999992
 20
581.13159000000019
 30
0.0
 40
5.0
 50
272.0
 51
0.0
  0
ARC
  5
796
  8
0
  6
CONTINUOUS
 62
     7
 10
-552.88317999999981
 20
440.43768
 30
0.0
 40
5.0
 50
179.99998999999991
 51
225.0
  0
ARC
  5
797
  8
0
  6
CONTINUOUS
 62
     7
 10
-540.88317999999992
 20
415.14721999999989
 30
0.0
 40
2.0
 50
179.99998999999991
 51
268.00000999999992
  0
ARC
  5
798
  8
0
  6
CONTINUOUS
 62
     7
 10
-545.88317999999992
 20
422.12395999999973
 30
0.0
 40
3.0
 50
0.0
 51
44.999997999999998
  0
ARC
  5
799
  8
0
  6
CONTINUOUS
 62
     7
 10
-444.35985999999991
 20
404.77224999999987
 30
0.0
 40
5.0
 50
45.00000099999999
 51
88.0
  0
ARC
  5
79A
  8
0
  6
CONTINUOUS
 62
     7
 10
-430.88312000000002
 20
421.76687999999967
 30
0.0
 40
3.0
 50
268.0
 51
0.0
  0
ARC
  5
79B
  8
0
  6
CONTINUOUS
 62
     7
 10
-430.88312000000002
 20
602.96636999999998
 30
0.0
 40
3.0
 50
0.0
 51
91.999998000000005
  0
ARC
  5
79C
  8
0
  6
CONTINUOUS
 62
     7
 10
-431.88311999999991
 20
626.44574
 30
0.0
 40
3.0
 50
91.999998000000005
 51
180.00001
  0
ARC
  5
79D
  8
0
  6
CONTINUOUS
 62
     7
 10
-431.88311999999991
 20
453.45586999999989
 30
0.0
 40
3.0
 50
90.000003000000007
 51
180.00001
  0
ARC
  5
79E
  8
0
  6
CONTINUOUS
 62
     7
 10
-431.88311999999991
 20
571.27733999999975
 30
0.0
 40
3.0
 50
179.99998999999991
 51
270.0
  0
ARC
  5
79F
  8
0
  6
CONTINUOUS
 62
     7
 10
-431.88311999999991
 20
398.28747999999979
 30
0.0
 40
3.0
 50
179.99998999999991
 51
268.00000999999992
  0
ARC
  5
7A0
  8
0
  6
CONTINUOUS
 62
     7
 10
-444.35985999999991
 20
619.96094000000005
 30
0.0
 40
5.0
 50
272.0
 51
315.0
  0
ARC
  5
7A1
  8
0
  6
CONTINUOUS
 62
     7
 10
-402.88311999999991
 20
512.36658
 30
0.0
 40
5.0
 50
90.000003000000007
 51
270.0
  0
ARC
  5
7A2
  8
0
  6
CONTINUOUS
 62
     7
 10
-145.2809399999999
 20
153.5479599999999
 30
0.0
 40
93.499999999999986
 50
162.14678999999981
 51
183.00788
  0
ARC
  5
7A3
  8
0
  6
CONTINUOUS
 62
     7
 10
-145.2809399999999
 20
153.5479599999999
 30
0.0
 40
99.500000000000014
 50
93.355817999999985
 51
121.1615
  0
ARC
  5
7A4
  8
0
  6
CONTINUOUS
 62
     7
 10
-151.28095999999991
 20
262.06265000000002
 30
0.0
 40
3.0
 50
0.0
 51
90.000003000000007
  0
ARC
  5
7A5
  8
0
  6
CONTINUOUS
 62
     7
 10
-139.2809399999999
 20
262.06265000000002
 30
0.0
 40
3.0
 50
90.000003000000007
 51
180.00001
  0
ARC
  5
7A6
  8
0
  6
CONTINUOUS
 62
     7
 10
-114.7125399999999
 20
224.8442799999998
 30
0.0
 40
5.0
 50
234.77686
 51
315.0
  0
ARC
  5
7A7
  8
0
  6
CONTINUOUS
 62
     7
 10
-473.90816999999981
 20
259.59395999999992
 30
0.0
 40
5.0
 50
271.49999999999972
 51
315.0
  0
ARC
  5
7A8
  8
0
  6
CONTINUOUS
 62
     7
 10
-151.28095999999991
 20
255.87218999999999
 30
0.0
 40
3.0
 50
273.35581999999999
 51
0.0
  0
ARC
  5
7A9
  8
0
  6
CONTINUOUS
 62
     7
 10
-51.168391999999997
 20
87.435410000000005
 30
0.0
 40
20.0
 50
273.0
 51
357.0
  0
ARC
  5
7AA
  8
0
  6
CONTINUOUS
 62
     7
 10
-51.168391999999997
 20
275.66052000000002
 30
0.0
 40
20.0
 50
3.0000000999999981
 51
86.999998999999988
  0
ARC
  5
7AB
  8
0
  6
CONTINUOUS
 62
     7
 10
-101.98461999999979
 20
212.11635999999999
 30
0.0
 40
5.0
 50
135.0
 51
215.22315
  0
ARC
  5
7AC
  8
0
  6
CONTINUOUS
 62
     7
 10
-139.2809399999999
 20
255.87218999999999
 30
0.0
 40
3.0
 50
179.99998999999991
 51
266.64418999999992
  0
ARC
  5
7AD
  8
0
  6
CONTINUOUS
 62
     7
 10
-430.88315
 20
272.14767000000001
 30
0.0
 40
3.0
 50
0.0
 51
91.999998000000005
  0
ARC
  5
7AE
  8
0
  6
CONTINUOUS
 62
     7
 10
-431.88314999999989
 20
295.62707999999998
 30
0.0
 40
3.0
 50
91.999998000000005
 51
180.00001
  0
ARC
  5
7AF
  8
0
  6
CONTINUOUS
 62
     7
 10
-145.2809399999999
 20
153.5479599999999
 30
0.0
 40
99.500000000000014
 50
242.88566
 51
297.11435
  0
ARC
  5
7B0
  8
0
  6
CENTER
 62
     7
 10
-145.2809399999999
 20
181.5479399999999
 30
0.0
 40
135.0
 50
38.36839299999999
 51
52.256346000000022
  0
CIRCLE
  5
7B1
  8
0
  6
CONTINUOUS
 62
     7
 10
-49.821533000000002
 20
277.00734999999992
 30
0.0
 40
7.5
  0
ARC
  5
7B2
  8
0
  6
CONTINUOUS
 62
     7
 10
-72.754311000000001
 20
241.34666000000001
 30
0.0
 40
5.0
 50
39.505817999999998
 51
135.0
  0
ARC
  5
7B3
  8
0
  6
CONTINUOUS
 62
     7
 10
-85.482224000000002
 20
254.07459999999989
 30
0.0
 40
5.0
 50
315.0
 51
50.494182000000002
  0
CIRCLE
  5
7B4
  8
0
  6
CONTINUOUS
 62
     7
 10
-145.2809399999999
 20
181.5479399999999
 30
0.0
 40
105.0
  0
CIRCLE
  5
7B5
  8
0
  6
CONTINUOUS
 62
     7
 10
-240.74036000000001
 20
277.00734999999992
 30
0.0
 40
7.5
  0
CIRCLE
  5
7B6
  8
0
  6
CONTINUOUS
 62
     7
 10
-145.2809399999999
 20
181.5479399999999
 30
0.0
 40
99.0
  0
ARC
  5
7B7
  8
0
  6
CENTER
 62
     7
 10
-145.2809399999999
 20
181.5479399999999
 30
0.0
 40
135.0
 50
126.9878199999999
 51
142.25635
  0
ARC
  5
7B8
  8
0
  6
CENTER
 62
     7
 10
-145.2809399999999
 20
181.5479399999999
 30
0.0
 40
135.0
 50
218.36838999999981
 51
232.25635
  0
CIRCLE
  5
7B9
  8
0
  6
CONTINUOUS
 62
     7
 10
-240.74036000000001
 20
86.088554000000016
 30
0.0
 40
7.5
  0
ARC
  5
7BA
  8
0
  6
CONTINUOUS
 62
     7
 10
-239.39350999999991
 20
275.66052000000002
 30
0.0
 40
20.0
 50
92.999999000000017
 51
176.99999
  0
ARC
  5
7BB
  8
0
  6
CENTER
 62
     7
 10
-145.2809399999999
 20
181.5479399999999
 30
0.0
 40
135.0
 50
307.74279999999982
 51
322.25635
  0
CIRCLE
  5
7BC
  8
0
  6
CONTINUOUS
 62
     7
 10
-49.821533000000002
 20
86.088554000000016
 30
0.0
 40
7.5
  0
ARC
  5
7BD
  8
0
  6
CONTINUOUS
 62
     7
 10
-430.88315
 20
90.179985000000002
 30
0.0
 40
3.0
 50
272.0
 51
0.0
  0
ARC
  5
7BE
  8
0
  6
CONTINUOUS
 62
     7
 10
-431.88314999999989
 20
152.78371000000001
 30
0.0
 40
3.0
 50
179.99998999999991
 51
270.0
  0
ARC
  5
7BF
  8
0
  6
CONTINUOUS
 62
     7
 10
-431.88314999999989
 20
116.85868000000001
 30
0.0
 40
3.0
 50
90.000003000000007
 51
180.00001
  0
ARC
  5
7C0
  8
0
  6
CONTINUOUS
 62
     7
 10
-231.25768999999991
 20
143.5479599999999
 30
0.0
 40
5.0
 50
203.8444699999998
 51
270.0
  0
ARC
  5
7C1
  8
0
  6
CONTINUOUS
 62
     7
 10
-175.84936999999999
 20
224.8442799999998
 30
0.0
 40
5.0
 50
225.0
 51
305.22314999999992
  0
ARC
  5
7C2
  8
0
  6
CONTINUOUS
 62
     7
 10
-411.62961000000001
 20
183.85271
 30
0.0
 40
40.0
 50
174.07597999999999
 51
234.45533999999989
  0
ARC
  5
7C3
  8
0
  6
CONTINUOUS
 62
     7
 10
-467.88315
 20
232.7523799999999
 30
0.0
 40
21.0
 50
354.07597999999979
 51
80.875524999999996
  0
ARC
  5
7C4
  8
0
  6
CONTINUOUS
 62
     7
 10
-145.2809399999999
 20
153.5479599999999
 30
0.0
 40
99.500000000000014
 50
58.838493999999997
 51
86.644180000000006
  0
ARC
  5
7C5
  8
0
  6
CONTINUOUS
 62
     7
 10
-145.2809399999999
 20
153.5479599999999
 30
0.0
 40
99.500000000000014
 50
29.730242999999991
 51
54.136311999999997
  0
ARC
  5
7C6
  8
0
  6
CONTINUOUS
 62
     7
 10
-145.2809399999999
 20
153.5479599999999
 30
0.0
 40
93.499999999999986
 50
356.99212
 51
17.853213
  0
ARC
  5
7C7
  8
0
  6
CONTINUOUS
 62
     7
 10
-217.80759
 20
241.34666000000001
 30
0.0
 40
5.0
 50
45.00000099999999
 51
140.49418
  0
ARC
  5
7C8
  8
0
  6
CONTINUOUS
 62
     7
 10
-145.2809399999999
 20
181.5479399999999
 30
0.0
 40
48.0
 50
54.77685000000001
 51
125.22314
  0
ARC
  5
7C9
  8
0
  6
CONTINUOUS
 62
     7
 10
-145.2809399999999
 20
181.5479399999999
 30
0.0
 40
48.0
 50
0.0
 51
35.223151999999992
  0
ARC
  5
7CA
  8
0
  6
CONTINUOUS
 62
     7
 10
-145.2809399999999
 20
181.5479399999999
 30
0.0
 40
89.0
 50
0.42822786
 51
13.875764
  0
CIRCLE
  5
7CB
  8
0
  6
CONTINUOUS
 62
     7
 10
-145.2809399999999
 20
181.5479399999999
 30
0.0
 40
29.0
  0
ARC
  5
7CC
  8
0
  6
CONTINUOUS
 62
     7
 10
-145.2809399999999
 20
181.5479399999999
 30
0.0
 40
48.0
 50
144.77683999999991
 51
180.00001
  0
ARC
  5
7CD
  8
0
  6
CONTINUOUS
 62
     7
 10
-59.304211000000002
 20
143.5479599999999
 30
0.0
 40
5.0
 50
270.0
 51
336.15553
  0
ARC
  5
7CE
  8
0
  6
CONTINUOUS
 62
     7
 10
-205.07968
 20
254.07459999999989
 30
0.0
 40
5.0
 50
129.5058199999998
 51
225.0
  0
ARC
  5
7CF
  8
0
  6
CONTINUOUS
 62
     7
 10
-92.280945000000003
 20
143.5479599999999
 30
0.0
 40
5.0
 50
179.99998999999991
 51
270.0
  0
ARC
  5
7D0
  8
0
  6
CONTINUOUS
 62
     7
 10
-431.88314999999989
 20
66.63074499999999
 30
0.0
 40
3.0
 50
179.99998999999991
 51
271.99998999999991
  0
ARC
  5
7D1
  8
0
  6
CONTINUOUS
 62
     7
 10
-145.2809399999999
 20
153.5479599999999
 30
0.0
 40
99.500000000000014
 50
125.86368999999991
 51
150.26975999999991
  0
ARC
  5
7D2
  8
0
  6
CONTINUOUS
 62
     7
 10
-198.2809399999999
 20
143.5479599999999
 30
0.0
 40
5.0
 50
270.0
 51
0.0
  0
ARC
  5
7D3
  8
0
  6
CONTINUOUS
 62
     7
 10
-188.57727
 20
212.11635999999999
 30
0.0
 40
5.0
 50
324.77685000000002
 51
45.00000099999999
  0
ARC
  5
7D4
  8
0
  6
CONTINUOUS
 62
     7
 10
-431.88314999999989
 20
240.4586899999999
 30
0.0
 40
3.0
 50
179.99998999999991
 51
270.0
  0
ARC
  5
7D5
  8
0
  6
CONTINUOUS
 62
     7
 10
-239.39350999999991
 20
87.435410000000005
 30
0.0
 40
20.0
 50
183.00001
 51
267.0
  0
ARC
  5
7D6
  8
0
  6
CONTINUOUS
 62
     7
 10
-145.2809399999999
 20
181.5479399999999
 30
0.0
 40
89.0
 50
166.12423000000001
 51
179.57176999999999
  0
ARC
  5
7D7
  8
0
  6
CONTINUOUS
 62
     7
 10
-145.2809399999999
 20
181.5479399999999
 30
0.0
 40
16.0
 50
108.20996
 51
71.790052000000003
  0
CIRCLE
  5
7D8
  8
0
  6
CONTINUOUS
 62
     7
 10
-145.2809399999999
 20
181.5479399999999
 30
0.0
 40
4.0
  0
ARC
  5
7D9
  8
0
  6
CONTINUOUS
 62
     7
 10
-145.2809399999999
 20
181.5479399999999
 30
0.0
 40
16.0
 50
108.20996
 51
71.790052000000003
  0
CIRCLE
  5
7DA
  8
0
  6
CONTINUOUS
 62
     7
 10
-145.2809399999999
 20
181.5479399999999
 30
0.0
 40
4.0
  0
CIRCLE
  5
7DB
  8
0
  6
CONTINUOUS
 62
     7
 10
-145.2809399999999
 20
181.5479399999999
 30
0.0
 40
2.75
  0
CIRCLE
  5
7DC
  8
0
  6
CONTINUOUS
 62
     7
 10
-145.2809399999999
 20
181.5479399999999
 30
0.0
 40
4.0
  0
CIRCLE
  5
7DD
  8
0
  6
CONTINUOUS
 62
     7
 10
-145.2809399999999
 20
181.5479399999999
 30
0.0
 40
2.75
  0
CIRCLE
  5
7DE
  8
0
  6
CONTINUOUS
 62
     7
 10
-145.2809399999999
 20
181.5479399999999
 30
0.0
 40
2.75
  0
ARC
  5
7DF
  8
0
  6
CONTINUOUS
 62
     7
 10
-540.88311999999985
 20
56.328547999999998
 30
0.0
 40
2.0
 50
179.99998999999991
 51
268.00000999999992
  0
ARC
  5
7E0
  8
0
  6
CONTINUOUS
 62
     7
 10
-552.88311999999985
 20
81.619026000000005
 30
0.0
 40
5.0
 50
179.99998999999991
 51
225.0
  0
ARC
  5
7E1
  8
0
  6
CONTINUOUS
 62
     7
 10
-562.88311999999985
 20
222.31290000000001
 30
0.0
 40
5.0
 50
272.0
 51
0.0
  0
ARC
  5
7E2
  8
0
  6
CONTINUOUS
 62
     7
 10
-552.88311999999985
 20
225.47687999999991
 30
0.0
 40
5.0
 50
135.0
 51
180.00001
  0
ARC
  5
7E3
  8
0
  6
CONTINUOUS
 62
     7
 10
-540.88311999999985
 20
250.76735999999991
 30
0.0
 40
2.0
 50
91.999998000000005
 51
180.00001
  0
ARC
  5
7E4
  8
0
  6
CONTINUOUS
 62
     7
 10
-545.88311999999985
 20
63.305325000000003
 30
0.0
 40
3.0
 50
0.0
 51
45.00000099999999
  0
ARC
  5
7E5
  8
0
  6
CONTINUOUS
 62
     7
 10
-562.88311999999985
 20
84.783011999999999
 30
0.0
 40
5.0
 50
0.0
 51
88.0
  0
ARC
  5
7E6
  8
0
  6
CONTINUOUS
 62
     7
 10
-545.88311999999985
 20
243.79059000000001
 30
0.0
 40
3.0
 50
315.0
 51
0.0
  0
ARC
  5
7E7
  8
0
  6
CONTINUOUS
 62
     3
 10
-729.38995
 20
201.5658699999999
 30
0.0
 40
0.99319202
 50
119.7734
 51
179.87956
  0
ARC
  5
7E8
  8
0
  6
CONTINUOUS
 62
     3
 10
-729.38750999999979
 20
200.52764999999991
 30
0.0
 40
0.99558806
 50
116.58749
 51
179.98224999999991
  0
ARC
  5
7E9
  8
0
  6
CONTINUOUS
 62
     3
 10
-728.12114999999983
 20
202.3020799999999
 30
0.0
 40
0.9959119600000002
 50
89.541443999999998
 51
119.6069899999999
  0
ARC
  5
7EA
  8
0
  6
CONTINUOUS
 62
     3
 10
-728.15832999999998
 20
201.15392999999989
 30
0.0
 40
0.9941280500000002
 50
89.122808000000006
 51
115.93481
  0
ARC
  5
7EB
  8
0
  6
CONTINUOUS
 62
     3
 10
-728.11432000000002
 20
200.19376
 30
0.0
 40
0.9942600099999999
 50
89.355881999999966
 51
120.78109000000001
  0
ARC
  5
7EC
  8
0
  6
CONTINUOUS
 62
     3
 10
-728.14806999999985
 20
199.05260000000001
 30
0.0
 40
0.99546796
 50
89.141447999999983
 51
117.2036599999999
  0
ARC
  5
7ED
  8
0
  6
CONTINUOUS
 62
     3
 10
-728.07647999999983
 20
195.68175999999991
 30
0.0
 40
0.9962120099999999
 50
90.381906000000001
 51
123.9699
  0
ARC
  5
7EE
  8
0
  6
CONTINUOUS
 62
     3
 10
-728.10375999999985
 20
194.54147
 30
0.0
 40
0.9965200400000001
 50
90.541213000000027
 51
120.7432799999999
  0
ARC
  5
7EF
  8
0
  6
CONTINUOUS
 62
     3
 10
-729.38909999999998
 20
193.79114999999999
 30
0.0
 40
0.99407601
 50
120.4692
 51
180.18464
  0
ARC
  5
7F0
  8
0
  6
CONTINUOUS
 62
     3
 10
-729.38837000000001
 20
194.82555999999991
 30
0.0
 40
0.9948279899999999
 50
123.2046899999999
 51
180.43813
  0
ARC
  5
7F1
  8
0
  6
CONTINUOUS
 62
     3
 10
-729.38989000000004
 20
198.38938999999991
 30
0.0
 40
0.9932120399999999
 50
117.7993399999999
 51
180.08183
  0
ARC
  5
7F2
  8
0
  6
CONTINUOUS
 62
     7
 10
-606.88818000000003
 20
131.05302
 30
0.0
 40
5.4981922999999986
 50
84.729479999999981
 51
185.27052
  0
ARC
  5
7F3
  8
0
  6
CONTINUOUS
 62
     3
 10
-729.38873000000001
 20
199.42693
 30
0.0
 40
0.9944360299999999
 50
121.15217
 51
179.9404899999999
  0
ARC
  5
7F4
  8
0
  6
CONTINUOUS
 62
     3
 10
-728.18213000000003
 20
188.24248
 30
0.0
 40
0.99548006
 50
90.057320999999988
 51
113.12703
  0
ARC
  5
7F5
  8
0
  6
CONTINUOUS
 62
     3
 10
-712.24243000000001
 20
112.32885
 30
0.0
 40
1.004235999999999
 50
314.93782999999991
 51
5.6649238999999989
  0
ARC
  5
7F6
  8
0
  6
CONTINUOUS
 62
     3
 10
-600.88300000000004
 20
182.04811000000001
 30
0.0
 40
1.4998400000000001
 50
359.99394000000001
 51
90.006061000000003
  0
ARC
  5
7F7
  8
0
  6
CONTINUOUS
 62
     3
 10
-600.88806
 20
125.05286
 30
0.0
 40
1.5049160999999991
 50
270.18678
 51
359.81322
  0
ARC
  5
7F8
  8
0
  6
CONTINUOUS
 62
     7
 10
-651.88794000000019
 20
176.05275
 30
0.0
 40
5.5071000999999971
 50
264.84087999999991
 51
5.1591262000000002
  0
ARC
  5
7F9
  8
0
  6
CONTINUOUS
 62
     3
 10
-728.24401999999986
 20
186.29523999999989
 30
0.0
 40
0.99277198
 50
89.374808000000016
 51
106.33181999999979
  0
ARC
  5
7FA
  8
0
  6
CONTINUOUS
 62
     3
 10
-729.38689999999986
 20
185.94371000000001
 30
0.0
 40
0.9962600499999998
 50
106.6974899999999
 51
180.33049
  0
ARC
  5
7FB
  8
0
  6
CONTINUOUS
 62
     3
 10
-729.38677999999982
 20
187.7295399999999
 30
0.0
 40
0.99640006
 50
112.8173899999998
 51
180.0903999999999
  0
ARC
  5
7FC
  8
0
  6
CONTINUOUS
 62
     3
 10
-729.38806
 20
178.55288999999991
 30
0.0
 40
0.9950800499999999
 50
89.71592099999998
 51
180.2840699999999
  0
ARC
  5
7FD
  8
0
  6
CONTINUOUS
 62
     3
 10
-729.38292999999965
 20
178.54817
 30
0.0
 40
1.0002040000000001
 50
180.0116699999999
 51
269.9883200000001
  0
ARC
  5
7FE
  8
0
  6
CONTINUOUS
 62
     3
 10
-729.38806
 20
168.55288999999991
 30
0.0
 40
0.99508399
 50
89.716132999999985
 51
180.28387000000001
  0
ARC
  5
7FF
  8
0
  6
CONTINUOUS
 62
     3
 10
-729.38292999999965
 20
168.54816999999991
 30
0.0
 40
1.0001999999999991
 50
180.0114699999998
 51
269.98852999999991
  0
ARC
  5
800
  8
0
  6
CONTINUOUS
 62
     3
 10
-729.38806
 20
158.55289999999999
 30
0.0
 40
0.9950879799999999
 50
89.716344999999961
 51
180.28364999999991
  0
ARC
  5
801
  8
0
  6
CONTINUOUS
 62
     3
 10
-729.38292999999965
 20
158.54816
 30
0.0
 40
1.0001959999999981
 50
180.01124999999999
 51
269.98874000000001
  0
ARC
  5
802
  8
0
  6
CONTINUOUS
 62
     3
 10
-726.38300000000004
 20
156.5481299999999
 30
0.0
 40
0.99984801
 50
359.99121999999988
 51
90.008778999999976
  0
ARC
  5
803
  8
0
  6
CONTINUOUS
 62
     3
 10
-726.38806
 20
160.55286999999981
 30
0.0
 40
1.0049238999999981
 50
270.28001
 51
359.71999
  0
ARC
  5
804
  8
0
  6
CONTINUOUS
 62
     3
 10
-726.38300000000004
 20
166.54811000000001
 30
0.0
 40
0.9998440099999999
 50
359.99101000000002
 51
90.008991000000023
  0
ARC
  5
805
  8
0
  6
CONTINUOUS
 62
     3
 10
-726.38806
 20
170.5528699999999
 30
0.0
 40
1.004928
 50
270.28021999999987
 51
359.71977999999979
  0
ARC
  5
806
  8
0
  6
CONTINUOUS
 62
     3
 10
-726.38300000000004
 20
176.54811000000001
 30
0.0
 40
0.99985206
 50
359.99144999999999
 51
90.008546999999993
  0
ARC
  5
807
  8
0
  6
CONTINUOUS
 62
     3
 10
-726.38806
 20
180.55288999999991
 30
0.0
 40
1.0049318999999981
 50
270.28041999999999
 51
359.71958000000001
  0
ARC
  5
808
  8
0
  6
CONTINUOUS
 62
     3
 10
-726.38147000000004
 20
186.28966
 30
0.0
 40
0.99829602
 50
359.90204
 51
90.097960999999998
  0
ARC
  5
809
  8
0
  6
CONTINUOUS
 62
     3
 10
-726.38549999999964
 20
194.53558000000001
 30
0.0
 40
1.002375999999999
 50
0.13559199
 51
89.864409999999964
  0
ARC
  5
80A
  8
0
  6
CONTINUOUS
 62
     3
 10
-726.08771000000002
 20
189.94249999999991
 30
0.0
 40
0.7045519900000004
 50
270.36910999999992
 51
359.63088999999991
  0
ARC
  5
80B
  8
0
  6
CONTINUOUS
 62
     3
 10
-726.38214000000005
 20
199.04894999999991
 30
0.0
 40
0.9990080599999998
 50
359.94315
 51
90.056843000000015
  0
ARC
  5
80C
  8
0
  6
CONTINUOUS
 62
     3
 10
-725.88153
 20
201.64959999999999
 30
0.0
 40
0.4983640000000002
 50
359.81141000000002
 51
90.188598000000013
  0
ARC
  5
80D
  8
0
  6
CONTINUOUS
 62
     3
 10
-725.88775999999984
 20
203.80258000000001
 30
0.0
 40
0.5046359900000002
 50
270.52375999999992
 51
359.47624000000002
  0
ARC
  5
80E
  8
0
  6
CONTINUOUS
 62
     3
 10
-577.38292999999999
 20
91.048148999999995
 30
0.0
 40
1.0001799999999981
 50
180.01031
 51
269.98967999999968
  0
ARC
  5
80F
  8
0
  6
CONTINUOUS
 62
     3
 10
-585.57848999999965
 20
93.693359000000015
 30
0.0
 40
2.0053917999999991
 50
270.15275000000003
 51
344.81207000000001
  0
ARC
  5
810
  8
0
  6
CONTINUOUS
 62
     3
 10
-577.38367000000017
 20
102.50744
 30
0.0
 40
0.9994760199999999
 50
179.97008999999991
 51
270.02991999999989
  0
ARC
  5
811
  8
0
  6
CONTINUOUS
 62
     3
 10
-703.38793999999996
 20
158.54795999999999
 30
0.0
 40
1.0000119000000001
 50
89.726507999999981
 51
270.27347999999989
  0
ARC
  5
812
  8
0
  6
CONTINUOUS
 62
     3
 10
-719.16210999999964
 20
204.53551999999991
 30
0.0
 40
1.9924479999999991
 50
89.742107999999988
 51
169.8117899999998
  0
ARC
  5
813
  8
0
  6
CONTINUOUS
 62
     3
 10
-719.21831999999995
 20
209.81865999999999
 30
0.0
 40
1.999288
 50
89.851815000000016
 51
167.89433
  0
ARC
  5
814
  8
0
  6
CONTINUOUS
 62
     3
 10
-723.59882000000005
 20
206.0881999999998
 30
0.0
 40
1.500248
 50
270.21661999999992
 51
347.67500000000001
  0
ARC
  5
815
  8
0
  6
CONTINUOUS
 62
     3
 10
-719.25109999999995
 20
213.22345000000001
 30
0.0
 40
1.9945159999999991
 50
89.771334999999979
 51
166.8280399999999
  0
ARC
  5
816
  8
0
  6
CONTINUOUS
 62
     3
 10
-723.57470999999998
 20
210.1517299999999
 30
0.0
 40
1.503776
 50
270.05984000000001
 51
346.39312999999999
  0
ARC
  5
817
  8
0
  6
CONTINUOUS
 62
     3
 10
-723.56182999999965
 20
212.1711599999999
 30
0.0
 40
1.503231999999997
 50
270.33132000000001
 51
346.01802999999978
  0
ARC
  5
818
  8
0
  6
CONTINUOUS
 62
     3
 10
-719.27661000000001
 20
214.8511399999999
 30
0.0
 40
1.996815999999999
 50
89.901436000000004
 51
165.88940999999991
  0
ARC
  5
819
  8
0
  6
CONTINUOUS
 62
     3
 10
-702.38775999999984
 20
213.4126
 30
0.0
 40
1.9953640999999991
 50
89.866758999999988
 51
180.13323
  0
ARC
  5
81A
  8
0
  6
CONTINUOUS
 62
     3
 10
-702.38695999999982
 20
215.44176999999991
 30
0.0
 40
1.9961880000000001
 50
89.890486999999965
 51
180.10950999999989
  0
ARC
  5
81B
  8
0
  6
CONTINUOUS
 62
     3
 10
-702.38959
 20
216.79442
 30
0.0
 40
1.9935560999999991
 50
89.814515
 51
180.18548999999999
  0
ARC
  5
81C
  8
0
  6
CONTINUOUS
 62
     3
 10
-702.38762999999994
 20
217.46921999999989
 30
0.0
 40
1.9987239999999991
 50
89.871137000000004
 51
165.55096
  0
ARC
  5
81D
  8
0
  6
CONTINUOUS
 62
     3
 10
-705.88982999999996
 20
208.03465
 30
0.0
 40
1.506699899999999
 50
270.2541599999999
 51
359.74583999999987
  0
ARC
  5
81E
  8
0
  6
CONTINUOUS
 62
     3
 10
-705.88598999999965
 20
213.3207899999999
 30
0.0
 40
1.5028360000000001
 50
270.10793999999999
 51
359.89206000000001
  0
ARC
  5
81F
  8
0
  6
CONTINUOUS
 62
     3
 10
-705.88800000000003
 20
216.72282000000001
 30
0.0
 40
1.5048719999999991
 50
270.18518
 51
359.81482
  0
ARC
  5
820
  8
0
  6
CONTINUOUS
 62
     3
 10
-705.77655000000004
 20
218.35096999999999
 30
0.0
 40
1.503015999999997
 50
270.12945000000002
 51
345.23653999999999
  0
ARC
  5
821
  8
0
  6
CONTINUOUS
 62
     3
 10
-649.38409000000001
 20
215.43702999999999
 30
0.0
 40
2.0009238999999992
 50
0.026462999
 51
89.973535999999982
  0
ARC
  5
822
  8
0
  6
CONTINUOUS
 62
     3
 10
-649.38140999999985
 20
216.78966
 30
0.0
 40
1.9982919999999991
 50
359.95102999999978
 51
90.048975000000013
  0
ARC
  5
823
  8
0
  6
CONTINUOUS
 62
     3
 10
-649.38495
 20
217.46614
 30
0.0
 40
2.0018279999999971
 50
0.052301
 51
89.947696999999977
  0
ARC
  5
824
  8
0
  6
CONTINUOUS
 62
     3
 10
-578.73290999999995
 20
201.40033999999989
 30
0.0
 40
1.502391899999999
 50
195.1400099999999
 51
269.99063999999998
  0
ARC
  5
825
  8
0
  6
CONTINUOUS
 62
     3
 10
-585.57354999999995
 20
213.4089799999999
 30
0.0
 40
1.998987899999999
 50
15.047801
 51
89.987373000000005
  0
ARC
  5
826
  8
0
  6
CONTINUOUS
 62
     3
 10
-577.38811999999984
 20
216.05289999999991
 30
0.0
 40
0.9950640200000001
 50
89.714938000000004
 51
180.28505999999999
  0
ARC
  5
827
  8
0
  6
CONTINUOUS
 62
     3
 10
-577.38873000000001
 20
204.59357
 30
0.0
 40
0.9944000200000001
 50
89.676490999999999
 51
180.32351
  0
ARC
  5
828
  8
0
  6
CONTINUOUS
 62
     3
 10
-578.67724999999984
 20
206.0884199999999
 30
0.0
 40
1.500475999999999
 50
192.33223000000001
 51
270.15827999999999
  0
ARC
  5
829
  8
0
  6
CONTINUOUS
 62
     3
 10
-583.53570999999999
 20
212.05147999999991
 30
0.0
 40
1.996488
 50
12.040875
 51
89.926440999999969
  0
ARC
  5
82A
  8
0
  6
CONTINUOUS
 62
     3
 10
-728.24261000000001
 20
120.8106499999999
 30
0.0
 40
1.0027280000000001
 50
253.75297
 51
270.54039999999992
  0
ARC
  5
82B
  8
0
  6
CONTINUOUS
 62
     3
 10
-726.08258000000001
 20
117.1585199999999
 30
0.0
 40
0.69944
 50
359.95416
 51
90.045839999999984
  0
ARC
  5
82C
  8
0
  6
CONTINUOUS
 62
     3
 10
-726.38300000000004
 20
126.5481199999999
 30
0.0
 40
0.99984801
 50
359.99119000000002
 51
90.008807000000004
  0
ARC
  5
82D
  8
0
  6
CONTINUOUS
 62
     3
 10
-726.38806
 20
130.5528699999999
 30
0.0
 40
1.0049238999999981
 50
270.28003999999999
 51
359.71996999999988
  0
ARC
  5
82E
  8
0
  6
CONTINUOUS
 62
     3
 10
-726.38647000000003
 20
120.81131000000001
 30
0.0
 40
1.003363999999999
 50
270.19171
 51
359.80827999999991
  0
ARC
  5
82F
  8
0
  6
CONTINUOUS
 62
     3
 10
-728.18011000000001
 20
118.86318
 30
0.0
 40
1.005223999999999
 50
246.98628999999991
 51
269.82935999999989
  0
ARC
  5
830
  8
0
  6
CONTINUOUS
 62
     3
 10
-729.38677999999982
 20
121.1623
 30
0.0
 40
0.9963800299999999
 50
180.24948999999981
 51
253.29706999999991
  0
ARC
  5
831
  8
0
  6
CONTINUOUS
 62
     3
 10
-729.38666000000001
 20
119.3764299999999
 30
0.0
 40
0.9964760499999998
 50
179.91257999999991
 51
247.17966000000001
  0
ARC
  5
832
  8
0
  6
CONTINUOUS
 62
     3
 10
-729.38292999999965
 20
128.54815999999991
 30
0.0
 40
1.0001959999999981
 50
180.01127999999991
 51
269.98872
  0
ARC
  5
833
  8
0
  6
CONTINUOUS
 62
     3
 10
-729.38806
 20
128.55289999999991
 30
0.0
 40
0.99508399
 50
89.716324
 51
180.28368
  0
ARC
  5
834
  8
0
  6
CONTINUOUS
 62
     3
 10
-729.38292999999965
 20
138.54816999999991
 30
0.0
 40
1.0001999999999991
 50
180.01150000000001
 51
269.98851000000002
  0
ARC
  5
835
  8
0
  6
CONTINUOUS
 62
     3
 10
-729.38806
 20
138.55288999999991
 30
0.0
 40
0.99508399
 50
89.716106000000025
 51
180.2838899999999
  0
ARC
  5
836
  8
0
  6
CONTINUOUS
 62
     3
 10
-729.38292999999965
 20
148.54817
 30
0.0
 40
1.0002040000000001
 50
180.01169999999999
 51
269.98829999999992
  0
ARC
  5
837
  8
0
  6
CONTINUOUS
 62
     3
 10
-729.38806
 20
148.55288999999999
 30
0.0
 40
0.9950800499999999
 50
89.715893999999963
 51
180.2841
  0
ARC
  5
838
  8
0
  6
CONTINUOUS
 62
     3
 10
-726.38806
 20
150.55288999999991
 30
0.0
 40
1.0049318999999981
 50
270.28044999999992
 51
359.71955000000008
  0
ARC
  5
839
  8
0
  6
CONTINUOUS
 62
     3
 10
-726.38300000000004
 20
146.54811000000001
 30
0.0
 40
0.99985206
 50
359.99142999999998
 51
90.008574000000024
  0
ARC
  5
83A
  8
0
  6
CONTINUOUS
 62
     3
 10
-726.38806
 20
140.55286999999981
 30
0.0
 40
1.004928
 50
270.28023999999988
 51
359.71976000000001
  0
ARC
  5
83B
  8
0
  6
CONTINUOUS
 62
     3
 10
-726.38300000000004
 20
136.54811000000001
 30
0.0
 40
0.9998440099999999
 50
359.99097999999992
 51
90.00901800000004
  0
ARC
  5
83C
  8
0
  6
CONTINUOUS
 62
     3
 10
-716.22484999999995
 20
195.14078000000001
 30
0.0
 40
5.004112199999998
 50
279.68356999999992
 51
354.57833999999991
  0
ARC
  5
83D
  8
0
  6
CONTINUOUS
 62
     3
 10
-715.76238999999987
 20
191.2150399999999
 30
0.0
 40
6.0049156999999971
 50
45.22730700000001
 51
86.379093999999981
  0
ARC
  5
83E
  8
0
  6
CONTINUOUS
 62
     3
 10
-712.23919999999964
 20
194.76824999999991
 30
0.0
 40
1.0011080999999991
 50
354.25024999999982
 51
45.146993999999992
  0
ARC
  5
83F
  8
0
  6
CONTINUOUS
 62
     3
 10
-583.54070999999999
 20
95.050582999999989
 30
0.0
 40
2.0026237999999981
 50
270.21533999999991
 51
347.81734
  0
ARC
  5
840
  8
0
  6
CONTINUOUS
 62
     3
 10
-578.67609000000004
 20
101.01864999999979
 30
0.0
 40
1.499328
 50
89.888150999999979
 51
168.09384
  0
ARC
  5
841
  8
0
  6
CONTINUOUS
 62
     3
 10
-715.75316999999995
 20
115.89512999999999
 30
0.0
 40
6.0085920999999987
 50
273.53095000000002
 51
314.61478
  0
ARC
  5
842
  8
0
  6
CONTINUOUS
 62
     3
 10
-716.21978999999965
 20
111.9598899999999
 30
0.0
 40
4.9985837999999987
 50
5.3731198999999981
 51
80.364975999999999
  0
ARC
  5
843
  8
0
  6
CONTINUOUS
 62
     3
 10
-729.38549999999964
 20
105.5326399999999
 30
0.0
 40
0.9976240400000001
 50
180.2675099999999
 51
240.07953999999981
  0
ARC
  5
844
  8
0
  6
CONTINUOUS
 62
     3
 10
-729.38750999999979
 20
106.5783299999998
 30
0.0
 40
0.99566799
 50
180.02043
 51
243.40982999999991
  0
ARC
  5
845
  8
0
  6
CONTINUOUS
 62
     3
 10
-728.1024799999999
 20
104.79904999999999
 30
0.0
 40
1.0011358999999991
 50
239.328
 51
269.38751000000002
  0
ARC
  5
846
  8
0
  6
CONTINUOUS
 62
     3
 10
-728.13733000000002
 20
105.94723999999979
 30
0.0
 40
0.99928796
 50
242.86126999999991
 51
269.66618999999992
  0
ARC
  5
847
  8
0
  6
CONTINUOUS
 62
     3
 10
-728.11181999999985
 20
106.91163
 30
0.0
 40
1.003687999999999
 50
239.37027
 51
270.49275
  0
ARC
  5
848
  8
0
  6
CONTINUOUS
 62
     3
 10
-728.12798999999984
 20
108.04859999999999
 30
0.0
 40
1.0006280000000001
 50
241.64985999999999
 51
269.70470999999992
  0
ARC
  5
849
  8
0
  6
CONTINUOUS
 62
     3
 10
-728.09038999999984
 20
111.42847
 30
0.0
 40
1.0005360000000001
 50
237.1464
 51
270.41322000000002
  0
ARC
  5
84A
  8
0
  6
CONTINUOUS
 62
     3
 10
-728.11980999999969
 20
112.56896999999979
 30
0.0
 40
1.001012
 50
240.47136
 51
270.3802
  0
ARC
  5
84B
  8
0
  6
CONTINUOUS
 62
     3
 10
-729.38402999999983
 20
112.27266
 30
0.0
 40
0.9991000299999999
 50
179.69542000000001
 51
236.66176999999999
  0
ARC
  5
84C
  8
0
  6
CONTINUOUS
 62
     3
 10
-729.38544000000002
 20
108.7092699999999
 30
0.0
 40
0.99770796
 50
180.0740499999998
 51
242.04476
  0
ARC
  5
84D
  8
0
  6
CONTINUOUS
 62
     3
 10
-729.38439999999969
 20
107.6714699999999
 30
0.0
 40
0.9987800700000001
 50
179.6266699999999
 51
238.70855
  0
ARC
  5
84E
  8
0
  6
CONTINUOUS
 62
     3
 10
-726.38562000000002
 20
112.5704299999999
 30
0.0
 40
1.002459999999999
 50
270.14037999999999
 51
359.85962000000001
  0
ARC
  5
84F
  8
0
  6
CONTINUOUS
 62
     3
 10
-729.38469999999984
 20
113.3072699999999
 30
0.0
 40
0.9984599899999999
 50
179.95962
 51
239.38655
  0
ARC
  5
850
  8
0
  6
CONTINUOUS
 62
     3
 10
-726.38720999999998
 20
108.05206
 30
0.0
 40
1.0040839999999991
 50
270.23262999999992
 51
359.76737000000008
  0
ARC
  5
851
  8
0
  6
CONTINUOUS
 62
     3
 10
-725.88653999999985
 20
105.4513599999998
 30
0.0
 40
0.50340396
 50
270.38612999999992
 51
359.61387000000002
  0
ARC
  5
852
  8
0
  6
CONTINUOUS
 62
     3
 10
-725.88269000000003
 20
103.2984099999999
 30
0.0
 40
0.49955601
 50
359.94911000000002
 51
90.050894000000014
  0
ARC
  5
853
  8
0
  6
CONTINUOUS
 62
     3
 10
-719.15710000000001
 20
102.5664
 30
0.0
 40
1.998443999999999
 50
190.33239999999989
 51
270.11368999999979
  0
ARC
  5
854
  8
0
  6
CONTINUOUS
 62
     3
 10
-719.21820000000002
 20
97.287353999999993
 30
0.0
 40
1.9993919999999981
 50
192.1080399999999
 51
270.14582000000001
  0
ARC
  5
855
  8
0
  6
CONTINUOUS
 62
     3
 10
-723.60004000000004
 20
101.01888
 30
0.0
 40
1.4991000000000001
 50
11.89856
 51
89.736657999999963
  0
ARC
  5
856
  8
0
  6
CONTINUOUS
 62
     3
 10
-719.24614999999994
 20
93.878731000000002
 30
0.0
 40
2.0007559999999991
 50
193.3141599999999
 51
270.08645000000001
  0
ARC
  5
857
  8
0
  6
CONTINUOUS
 62
     3
 10
-723.56975999999986
 20
96.950462000000002
 30
0.0
 40
1.497512
 50
13.418233000000001
 51
90.128792999999988
  0
ARC
  5
858
  8
0
  6
CONTINUOUS
 62
     3
 10
-723.55535999999984
 20
94.929848000000007
 30
0.0
 40
1.4981281
 50
14.224575
 51
89.916113999999979
  0
ARC
  5
859
  8
0
  6
CONTINUOUS
 62
     3
 10
-719.27166999999997
 20
92.251105999999979
 30
0.0
 40
2.0031319000000001
 50
194.25158999999999
 51
269.95755000000003
  0
ARC
  5
85A
  8
0
  6
CONTINUOUS
 62
     3
 10
-702.38269000000003
 20
93.688416000000004
 30
0.0
 40
2.0004520000000001
 50
180.0129
 51
269.98709999999988
  0
ARC
  5
85B
  8
0
  6
CONTINUOUS
 62
     3
 10
-702.38184000000001
 20
91.659285999999994
 30
0.0
 40
2.0013119999999991
 50
180.03756000000001
 51
269.96244000000002
  0
ARC
  5
85C
  8
0
  6
CONTINUOUS
 62
     3
 10
-702.38452000000018
 20
90.306595000000002
 30
0.0
 40
1.9986198999999969
 50
179.9604699999999
 51
270.03952999999967
  0
ARC
  5
85D
  8
0
  6
CONTINUOUS
 62
     3
 10
-702.38915999999995
 20
89.638031000000012
 30
0.0
 40
2.000076099999998
 50
194.77497999999991
 51
270.17352999999991
  0
ARC
  5
85E
  8
0
  6
CONTINUOUS
 62
     3
 10
-705.88469999999995
 20
99.066406000000015
 30
0.0
 40
1.501567999999998
 50
0.059805003
 51
89.940196999999998
  0
ARC
  5
85F
  8
0
  6
CONTINUOUS
 62
     3
 10
-705.88585999999964
 20
93.785255000000006
 30
0.0
 40
1.502715899999999
 50
0.103436
 51
89.896566000000007
  0
ARC
  5
860
  8
0
  6
CONTINUOUS
 62
     3
 10
-705.88287000000003
 20
90.378212000000005
 30
0.0
 40
1.499755999999999
 50
359.99058999999983
 51
90.009407999999965
  0
ARC
  5
861
  8
0
  6
CONTINUOUS
 62
     3
 10
-705.77161000000001
 20
88.751319999999964
 30
0.0
 40
1.4966440000000001
 50
14.57574
 51
90.058278000000001
  0
ARC
  5
862
  8
0
  6
CONTINUOUS
 62
     3
 10
-649.38915999999995
 20
91.664000999999999
 30
0.0
 40
2.0060479999999981
 50
270.17248999999998
 51
359.82751000000002
  0
ARC
  5
863
  8
0
  6
CONTINUOUS
 62
     3
 10
-649.38653999999985
 20
90.311332999999962
 30
0.0
 40
2.0033560000000001
 50
270.09593999999998
 51
359.90406000000002
  0
ARC
  5
864
  8
0
  6
CONTINUOUS
 62
     3
 10
-649.38507000000004
 20
89.639861999999994
 30
0.0
 40
2.0019
 50
270.05437999999992
 51
359.94562000000002
  0
ARC
  5
865
  8
0
  6
CONTINUOUS
 62
     3
 10
-578.73779000000002
 20
105.70199
 30
0.0
 40
1.495995999999999
 50
89.821707000000004
 51
165.04766000000001
  0
ARC
  5
866
  8
0
  6
CONTINUOUS
 62
     3
 10
-703.38793999999996
 20
168.5479599999999
 30
0.0
 40
1.0000119000000001
 50
89.726507999999981
 51
270.27347999999989
  0
ARC
  5
867
  8
0
  6
CONTINUOUS
 62
     3
 10
-703.38793999999996
 20
178.54796999999991
 30
0.0
 40
1.0000119000000001
 50
89.726507999999981
 51
270.27347999999989
  0
ARC
  5
868
  8
0
  6
CONTINUOUS
 62
     3
 10
-703.38793999999996
 20
188.5479399999999
 30
0.0
 40
1.0000119000000001
 50
89.726507999999981
 51
270.27347999999989
  0
ARC
  5
869
  8
0
  6
CONTINUOUS
 62
     3
 10
-721.1189599999999
 20
158.55296000000001
 30
0.0
 40
1.265012
 50
89.737716000000006
 51
270.26227999999992
  0
ARC
  5
86A
  8
0
  6
CONTINUOUS
 62
     3
 10
-721.05309999999974
 20
168.5579699999999
 30
0.0
 40
1.3300080000000001
 50
90.000003000000007
 51
270.0
  0
ARC
  5
86B
  8
0
  6
CONTINUOUS
 62
     3
 10
-711.92316000000005
 20
178.57297
 30
0.0
 40
1.465004
 50
90.000003000000007
 51
270.0
  0
ARC
  5
86C
  8
0
  6
CONTINUOUS
 62
     3
 10
-711.70995999999957
 20
188.59294
 30
0.0
 40
1.6750160000000001
 50
89.766540000000006
 51
270.23345999999992
  0
ARC
  5
86D
  8
0
  6
CONTINUOUS
 62
     3
 10
-719.83312999999964
 20
158.54795999999999
 30
0.0
 40
1.0
 50
90.000003000000007
 51
270.0
  0
ARC
  5
86E
  8
0
  6
CONTINUOUS
 62
     3
 10
-719.83312999999964
 20
168.5479599999999
 30
0.0
 40
1.0
 50
90.000003000000007
 51
270.0
  0
ARC
  5
86F
  8
0
  6
CONTINUOUS
 62
     3
 10
-710.8378899999999
 20
188.5479399999999
 30
0.0
 40
1.0000119000000001
 50
89.728448
 51
270.27154000000002
  0
ARC
  5
870
  8
0
  6
CONTINUOUS
 62
     3
 10
-710.8378899999999
 20
178.54796999999991
 30
0.0
 40
1.0000119000000001
 50
89.728448
 51
270.27154000000002
  0
ARC
  5
871
  8
0
  6
CONTINUOUS
 62
     3
 10
-598.08660999999995
 20
185.92145999999991
 30
0.0
 40
0.996512
 50
89.798963000000015
 51
180.20103
  0
ARC
  5
872
  8
0
  6
CONTINUOUS
 62
     3
 10
-598.08190999999965
 20
184.81871000000001
 30
0.0
 40
1.001239999999999
 50
180.04312999999991
 51
268.21195999999992
  0
ARC
  5
873
  8
0
  6
CONTINUOUS
 62
     3
 10
-598.08697999999981
 20
122.28213
 30
0.0
 40
0.99615997
 50
91.504365000000007
 51
180.24055000000001
  0
ARC
  5
874
  8
0
  6
CONTINUOUS
 62
     3
 10
-598.08154000000002
 20
121.17956
 30
0.0
 40
1.001595999999999
 50
180.09126000000001
 51
269.90875
  0
ARC
  5
875
  8
0
  6
CONTINUOUS
 62
     3
 10
-581.5631699999999
 20
188.59294
 30
0.0
 40
1.6750041
 50
270.0
 51
90.000003000000007
  0
ARC
  5
876
  8
0
  6
CONTINUOUS
 62
     3
 10
-585.04314999999997
 20
188.5479399999999
 30
0.0
 40
1.0
 50
270.0
 51
90.000003000000007
  0
ARC
  5
877
  8
0
  6
CONTINUOUS
 62
     3
 10
-585.04314999999997
 20
118.54796999999991
 30
0.0
 40
1.0
 50
270.0
 51
90.000003000000007
  0
ARC
  5
878
  8
0
  6
CONTINUOUS
 62
     3
 10
-581.5631699999999
 20
118.50296999999991
 30
0.0
 40
1.6750041
 50
270.0
 51
90.000003000000007
  0
ARC
  5
879
  8
0
  6
CONTINUOUS
 62
     3
 10
-719.83312999999964
 20
148.54796999999991
 30
0.0
 40
1.0
 50
90.000003000000007
 51
270.0
  0
ARC
  5
87A
  8
0
  6
CONTINUOUS
 62
     3
 10
-703.38793999999996
 20
138.5479599999999
 30
0.0
 40
1.0000119000000001
 50
89.726507999999981
 51
270.27347999999989
  0
ARC
  5
87B
  8
0
  6
CONTINUOUS
 62
     3
 10
-703.38793999999996
 20
128.5479599999999
 30
0.0
 40
1.0000119000000001
 50
89.726507999999981
 51
270.27347999999989
  0
ARC
  5
87C
  8
0
  6
CONTINUOUS
 62
     3
 10
-721.05309999999974
 20
138.53796
 30
0.0
 40
1.3300080000000001
 50
90.000003000000007
 51
270.0
  0
ARC
  5
87D
  8
0
  6
CONTINUOUS
 62
     3
 10
-720.92315999999983
 20
128.52296000000001
 30
0.0
 40
1.465004
 50
90.000003000000007
 51
270.0
  0
ARC
  5
87E
  8
0
  6
CONTINUOUS
 62
     3
 10
-719.83789000000002
 20
118.54796999999991
 30
0.0
 40
1.0000119000000001
 50
89.728461999999965
 51
270.27154000000002
  0
ARC
  5
87F
  8
0
  6
CONTINUOUS
 62
     3
 10
-703.38793999999996
 20
148.54796999999991
 30
0.0
 40
1.0000119000000001
 50
89.726507999999981
 51
270.27347999999989
  0
ARC
  5
880
  8
0
  6
CONTINUOUS
 62
     3
 10
-703.38793999999996
 20
118.54796999999991
 30
0.0
 40
1.0000119000000001
 50
89.726507999999981
 51
270.27347999999989
  0
ARC
  5
881
  8
0
  6
CONTINUOUS
 62
     3
 10
-721.1189599999999
 20
148.54796999999991
 30
0.0
 40
1.270011999999999
 50
89.738748000000001
 51
270.26123999999999
  0
ARC
  5
882
  8
0
  6
CONTINUOUS
 62
     3
 10
-720.71001999999999
 20
118.50296999999991
 30
0.0
 40
1.6750160000000001
 50
89.764983000000015
 51
270.23500999999987
  0
ARC
  5
883
  8
0
  6
CONTINUOUS
 62
     3
 10
-719.83312999999964
 20
138.5479599999999
 30
0.0
 40
1.0
 50
90.000003000000007
 51
270.0
  0
ARC
  5
884
  8
0
  6
CONTINUOUS
 62
     3
 10
-719.83789000000002
 20
128.5479599999999
 30
0.0
 40
1.0000119000000001
 50
89.728461999999965
 51
270.27154000000002
  0
POLYLINE
  5
885
  8
0
  6
CONTINUOUS
 62
     7
 66
     1
 10
0.0
 20
0.0
 30
0.0
  0
VERTEX
  5
886
  8
0
  6
CONTINUOUS
 62
     7
 10
-442.21700999999968
 20
615.03270999999995
 30
0.0
 42
0.079826728
  0
VERTEX
  5
887
  8
0
  6
CONTINUOUS
 62
     7
 10
-468.05883999999992
 20
548.12626999999998
 30
0.0
 42
0.10414858
  0
VERTEX
  5
888
  8
0
  6
CONTINUOUS
 62
     7
 10
-468.05876999999998
 20
476.60654
 30
0.0
 42
0.079826255
  0
VERTEX
  5
889
  8
0
  6
CONTINUOUS
 62
     7
 10
-442.21700999999968
 20
409.70047
 30
0.0
  0
SEQEND
  5
88A
  8
0
 62
     7
  0
TEXT
  5
A52
  8
0
  6
CONTINUOUS
 62
     0
 10
-290.15208962725683
 20
489.20553611642953
 30
0.0
 40
15.0
  1
VX04-120MF~VX04-200MF
  0
ENDSEC
  0
EOF
