  0
SECTION
  2
HEADER
  9
$ACADVER
  1
AC1009
  9
$INSBASE
 10
0.0
 20
0.0
 30
0.0
  9
$EXTMIN
 10
-1025.0489887210799
 20
119.7041243108285
 30
-0.0000000349181948
  9
$EXTMAX
 10
-57.671435732617731
 20
829.41110816622313
 30
0.0000000814935747
  9
$LIMMIN
 10
0.0
 20
0.0
  9
$LIMMAX
 10
12.0
 20
9.0
  9
$ORTHOMODE
 70
     0
  9
$REGENMODE
 70
     1
  9
$FILLMODE
 70
     1
  9
$QTEXTMODE
 70
     0
  9
$MIRRTEXT
 70
     1
  9
$DRAGMODE
 70
     2
  9
$LTSCALE
 40
1.0
  9
$OSMODE
 70
   551
  9
$ATTMODE
 70
     1
  9
$TEXTSIZE
 40
0.2
  9
$TRACEWID
 40
0.05
  9
$TEXTSTYLE
  7
STANDARD
  9
$CLAYER
  8
0
  9
$CELTYPE
  6
CONTINUOUS
  9
$CECOLOR
 62
   256
  9
$DIMSCALE
 40
1.0
  9
$DIMASZ
 40
0.18
  9
$DIMEXO
 40
0.0625
  9
$DIMDLI
 40
0.38
  9
$DIMRND
 40
0.0
  9
$DIMDLE
 40
0.0
  9
$DIMEXE
 40
0.18
  9
$DIMTP
 40
0.0
  9
$DIMTM
 40
0.0
  9
$DIMTXT
 40
0.18
  9
$DIMCEN
 40
0.09
  9
$DIMTSZ
 40
0.0
  9
$DIMTOL
 70
     0
  9
$DIMLIM
 70
     0
  9
$DIMTIH
 70
     1
  9
$DIMTOH
 70
     1
  9
$DIMSE1
 70
     0
  9
$DIMSE2
 70
     0
  9
$DIMTAD
 70
     0
  9
$DIMZIN
 70
     0
  9
$DIMBLK
  1

  9
$DIMASO
 70
     1
  9
$DIMSHO
 70
     1
  9
$DIMPOST
  1

  9
$DIMAPOST
  1

  9
$DIMALT
 70
     0
  9
$DIMALTD
 70
     2
  9
$DIMALTF
 40
25.399999999999999
  9
$DIMLFAC
 40
1.0
  9
$DIMTOFL
 70
     0
  9
$DIMTVP
 40
0.0
  9
$DIMTIX
 70
     0
  9
$DIMSOXD
 70
     0
  9
$DIMSAH
 70
     0
  9
$DIMBLK1
  1

  9
$DIMBLK2
  1

  9
$DIMSTYLE
  2
STANDARD
  9
$DIMCLRD
 70
     0
  9
$DIMCLRE
 70
     0
  9
$DIMCLRT
 70
     0
  9
$DIMTFAC
 40
1.0
  9
$DIMGAP
 40
0.09
  9
$LUNITS
 70
     2
  9
$LUPREC
 70
     4
  9
$SKETCHINC
 40
0.1
  9
$FILLETRAD
 40
0.0
  9
$AUNITS
 70
     0
  9
$AUPREC
 70
     0
  9
$MENU
  1
.
  9
$ELEVATION
 40
0.0
  9
$PELEVATION
 40
0.0
  9
$THICKNESS
 40
0.0
  9
$LIMCHECK
 70
     0
  9
$BLIPMODE
 70
     0
  9
$CHAMFERA
 40
0.0
  9
$CHAMFERB
 40
0.0
  9
$SKPOLY
 70
     0
  9
$TDCREATE
 40
2452300.433102211
  9
$TDUPDATE
 40
2458540.6506651049
  9
$TDINDWG
 40
0.0347709838
  9
$TDUSRTIMER
 40
0.0347709606
  9
$USRTIMER
 70
     1
  9
$ANGBASE
 50
0.0
  9
$ANGDIR
 70
     0
  9
$PDMODE
 70
     0
  9
$PDSIZE
 40
0.0
  9
$PLINEWID
 40
0.0
  9
$COORDS
 70
     1
  9
$SPLFRAME
 70
     0
  9
$SPLINETYPE
 70
     6
  9
$SPLINESEGS
 70
     8
  9
$ATTDIA
 70
     1
  9
$ATTREQ
 70
     1
  9
$HANDLING
 70
     1
  9
$HANDSEED
  5
BC2
  9
$SURFTAB1
 70
     6
  9
$SURFTAB2
 70
     6
  9
$SURFTYPE
 70
     6
  9
$SURFU
 70
     6
  9
$SURFV
 70
     6
  9
$UCSNAME
  2

  9
$UCSORG
 10
0.0
 20
0.0
 30
0.0
  9
$UCSXDIR
 10
1.0
 20
0.0
 30
0.0
  9
$UCSYDIR
 10
0.0
 20
1.0
 30
0.0
  9
$PUCSNAME
  2

  9
$PUCSORG
 10
0.0
 20
0.0
 30
0.0
  9
$PUCSXDIR
 10
1.0
 20
0.0
 30
0.0
  9
$PUCSYDIR
 10
0.0
 20
1.0
 30
0.0
  9
$USERI1
 70
     0
  9
$USERI2
 70
     0
  9
$USERI3
 70
     0
  9
$USERI4
 70
     0
  9
$USERI5
 70
     0
  9
$USERR1
 40
0.0
  9
$USERR2
 40
0.0
  9
$USERR3
 40
0.0
  9
$USERR4
 40
0.0
  9
$USERR5
 40
0.0
  9
$WORLDVIEW
 70
     1
  9
$SHADEDGE
 70
     3
  9
$SHADEDIF
 70
    70
  9
$TILEMODE
 70
     1
  9
$MAXACTVP
 70
    64
  9
$PLIMCHECK
 70
     0
  9
$PEXTMIN
 10
1.0000000000000000E+020
 20
1.0000000000000000E+020
 30
1.0000000000000000E+020
  9
$PEXTMAX
 10
-1.0000000000000000E+020
 20
-1.0000000000000000E+020
 30
-1.0000000000000000E+020
  9
$PLIMMIN
 10
0.0
 20
0.0
  9
$PLIMMAX
 10
12.0
 20
9.0
  9
$UNITMODE
 70
     0
  9
$VISRETAIN
 70
     1
  9
$PLINEGEN
 70
     0
  9
$PSLTSCALE
 70
     1
  0
ENDSEC
  0
SECTION
  2
TABLES
  0
TABLE
  2
VPORT
 70
     1
  0
VPORT
  2
*ACTIVE
 70
     0
 10
0.0
 20
0.0
 11
1.0
 21
1.0
 12
-541.36021222684894
 22
474.55761623852578
 13
0.0
 23
0.0
 14
1.0
 24
1.0
 15
0.0
 25
0.0
 16
0.0
 26
0.0
 36
1.0
 17
0.0
 27
0.0
 37
0.0
 40
714.57911417934474
 41
1.7571592210767459
 42
50.0
 43
0.0
 44
0.0
 50
0.0
 51
0.0
 71
     0
 72
   100
 73
     1
 74
     1
 75
     0
 76
     0
 77
     0
 78
     0
  0
ENDTAB
  0
TABLE
  2
LTYPE
 70
    23
  0
LTYPE
  2
CONTINUOUS
 70
     0
  3
Solid line
 72
    65
 73
     0
 40
0.0
  0
LTYPE
  2
DASHED
 70
     0
  3
__ __ __ __ __ __ __ __ __ __ __ __ __ __ __
 72
    65
 73
     2
 40
3.5
 49
2.0
 49
-1.5
  0
LTYPE
  2
CENTER
 70
     0
  3
____ _ ____ _ ____ _ ____ _ ____ _ ____ _ ____
 72
    65
 73
     4
 40
17.5
 49
13.0
 49
-1.5
 49
1.5
 49
-1.5
  0
LTYPE
  2
PHANTOM
 70
     0
  3
_____ _ _ _____ _ _ _____ _ _ _____ _ _ ____  
 72
    65
 73
     6
 40
15.5
 49
8.0
 49
-1.5
 49
1.5
 49
-1.5
 49
1.5
 49
-1.5
  0
LTYPE
  2
DOT
 70
     0
  3
. . . . . . . . . . . . . . . . . . . . . . . .
 72
    65
 73
     2
 40
0.25
 49
0.0
 49
-0.25
  0
LTYPE
  2
AM_ISO02W050
 70
     0
  3
__ __ __ __ __ __ __ __ __ __ __ __ __ __ __
 72
    65
 73
     2
 40
7.5
 49
6.0
 49
-1.5
  0
LTYPE
  2
AM_ISO08W050
 70
     0
  3
____ . ____ . ____ . ____ . ____ . ____ . ____
 72
    65
 73
     4
 40
18.0
 49
12.0
 49
-1.5
 49
3.0
 49
-1.5
  0
LTYPE
  2
AM_ISO09W050
 70
     0
  3
_____ . . _____ . . _____ . . ____ .. ____
 72
    65
 73
     6
 40
22.5
 49
12.0
 49
-1.5
 49
3.0
 49
-1.5
 49
3.0
 49
-1.5
  0
LTYPE
  2
AMCONSTR
 70
     0
  3
_______________________
 72
    65
 73
     2
 40
9999.0
 49
9999.0
 49
0.0
  0
LTYPE
  2
AM_ISO08W050X2
 70
     0
  3
__ . __ . __ . __ . __ . __
 72
    65
 73
     4
 40
9.0
 49
6.0
 49
-0.75
 49
1.5
 49
-0.75
  0
LTYPE
  2
AM_ISO02W050X2
 70
     0
  3
 _ _ _ _ _ _ _ _ _ _ _ _
 72
    65
 73
     2
 40
3.75
 49
3.0
 49
-0.75
  0
LTYPE
  2
AMZIGZAG
 70
     0
  3
/\/-/\/-/\/-/\/-/\/-/\/
 72
    65
 73
     2
 40
11.000099999999991
 49
0.0001
 49
-11.0
  0
LTYPE
  2
HIDDEN
 70
     0
  3
Hidden __ __ __ __ __ __ __ __ __ __ __ __ __ _
 72
    65
 73
     2
 40
0.375
 49
0.25
 49
-0.125
  0
LTYPE
  2
PHANTOM2
 70
     0
  3
Phantom (.5x) ___ _ _ ___ _ _ ___ _ _ ___ _ _
 72
    65
 73
     6
 40
1.25
 49
0.625
 49
-0.125
 49
0.125
 49
-0.125
 49
0.125
 49
-0.125
  0
LTYPE
  2
CENTER2
 70
     0
  3
Center (.5x) ___ _ ___ _ ___ _ ___ _ ___ _ ___
 72
    65
 73
     4
 40
1.125
 49
0.75
 49
-0.125
 49
0.125
 49
-0.125
  0
LTYPE
  2
HIDDEN2
 70
     0
  3
Hidden (.5x) _ _ _ _ _ _ _ _ _ _ _ _ _ _ _ _ _
 72
    65
 73
     2
 40
0.1875
 49
0.125
 49
-0.0625
  0
LTYPE
  2
AMZIGZAG2
 70
     0
  3
/\/-/\/-/\/-/\/-/\/-/\/
 72
    65
 73
     2
 40
0.4401
 49
0.0001
 49
-0.4400000000000003
  0
LTYPE
  2
ACANSTGB
 70
     0
  3
__ . . __ . .
 72
    65
 73
     6
 40
0.35433070866
 49
0.15748031496
 49
-0.03937007874
 49
0.03937007874
 49
-0.03937007874
 49
0.03937007874
 49
-0.03937007874
  0
LTYPE
  2
ACANSTGL
 70
     0
  3
_ _ _ _ _
 72
    65
 73
     2
 40
0.11811023622
 49
0.07874015748
 49
-0.03937007874
  0
LTYPE
  2
ACISOWELD
 70
     0
  3
_ _ _ _ _
 72
    65
 73
     2
 40
2.0
 49
2.0
 49
-1.0
  0
LTYPE
  2
ACISOTGB
 70
     0
  3
__ . . __ . .
 72
    65
 73
     6
 40
9.0
 49
4.0
 49
-1.0
 49
1.0
 49
-1.0
 49
1.0
 49
-1.0
  0
LTYPE
  2
ACISOTGL
 70
     0
  3
_ _ _ _ _
 72
    65
 73
     2
 40
3.0
 49
2.0
 49
-1.0
  0
ENDTAB
  0
TABLE
  2
LAYER
 70
     1
  0
LAYER
  2
0
 70
     0
 62
     7
  6
CONTINUOUS
  0
ENDTAB
  0
TABLE
  2
STYLE
 70
     6
  0
STYLE
  2
STANDARD
 70
     0
 40
0.0
 41
1.0
 50
0.0
 71
     0
 42
0.2
  3
txt
  4

  0
STYLE
  2
ANNOTATIVE
 70
     0
 40
0.0
 41
1.0
 50
0.0
 71
     0
 42
0.2
  3
txt
  4

  0
STYLE
  2

 70
     1
 40
0.0
 41
1.0
 50
0.0
 71
     0
 42
0.2
  3
ltypeshp.shx
  4

  0
STYLE
  2
ACANSTS
 70
     0
 40
1.0
 41
1.0
 50
0.0
 71
     0
 42
0.2
  3
romans.shx
  4
extfont.shx
  0
STYLE
  2
ACANSGDT
 70
     0
 40
0.0
 41
1.0
 50
0.0
 71
     0
 42
0.2
  3
amgdt.shx
  4

  0
STYLE
  2
ACISOGDT
 70
     0
 40
0.0
 41
1.0
 50
0.0
 71
     0
 42
2.5
  3
amgdt.shx
  4

  0
ENDTAB
  0
TABLE
  2
VIEW
 70
     0
  0
ENDTAB
  0
TABLE
  2
UCS
 70
     0
  0
ENDTAB
  0
TABLE
  2
APPID
 70
    12
  0
APPID
  2
ACAD
 70
     0
  0
APPID
  2
ACADANNOTATIVE
 70
     0
  0
APPID
  2
MCAD_NO_VIS
 70
     0
  0
APPID
  2
ACAD_TEMP_GRAPHIC
 70
     0
  0
APPID
  2
ACATTRIBSERVICES
 70
     0
  0
APPID
  2
DESIGNERASSEMBLIES
 70
     0
  0
APPID
  2
ACAD_DSTYLE_DIMBREAK
 70
     0
  0
APPID
  2
ACAD_DSTYLE_DIMJAG
 70
     0
  0
APPID
  2
ACAD_NAV_VCDISPLAY
 70
     0
  0
APPID
  2
ACAD_PSEXT
 70
     0
  0
APPID
  2
ACAD_EXEMPT_FROM_CAD_STANDARDS
 70
     0
  0
APPID
  2
ACAD_MLEADERVER
 70
     0
  0
ENDTAB
  0
TABLE
  2
DIMSTYLE
 70
    16
  0
DIMSTYLE
  2
STANDARD
 70
     0
  3

  4

  5

  6

  7

 40
1.0
 41
0.18
 42
0.0625
 43
0.38
 44
0.18
 45
0.0
 46
0.0
 47
0.0
 48
0.0
140
0.18
141
0.09
142
0.0
143
25.399999999999999
144
1.0
145
0.0
146
1.0
147
0.09
 71
     0
 72
     0
 73
     1
 74
     1
 75
     0
 76
     0
 77
     0
 78
     0
170
     0
171
     2
172
     0
173
     0
174
     0
175
     0
176
     0
177
     0
178
     0
  0
DIMSTYLE
  2
ANNOTATIVE
 70
     0
  3

  4

  5

  6

  7

 40
1.0
 41
0.18
 42
0.0625
 43
0.38
 44
0.18
 45
0.0
 46
0.0
 47
0.0
 48
0.0
140
0.18
141
0.09
142
0.0
143
25.399999999999999
144
1.0
145
0.0
146
1.0
147
0.09
 71
     0
 72
     0
 73
     1
 74
     1
 75
     0
 76
     0
 77
     0
 78
     0
170
     0
171
     2
172
     0
173
     0
174
     0
175
     0
176
     0
177
     0
178
     0
  0
DIMSTYLE
  2
AM_ANSI
 70
     0
  3

  4
mm
  5

  6

  7

 40
1.0
 41
0.1
 42
0.05
 43
0.5
 44
0.1
 45
0.0
 46
0.0
 47
0.1
 48
0.1
140
0.12
141
0.0
142
0.0
143
25.399999999999999
144
1.0
145
0.0
146
0.71
147
0.06
 71
     0
 72
     0
 73
     1
 74
     1
 75
     0
 76
     0
 77
     0
 78
     7
170
     0
171
     2
172
     0
173
     0
174
     0
175
     0
176
   256
177
   256
178
     2
  0
DIMSTYLE
  2
AM_ANSI$3
 70
     0
  3

  4
mm
  5

  6

  7

 40
1.0
 41
0.1
 42
0.05
 43
0.5
 44
0.1
 45
0.0
 46
0.0
 47
0.1
 48
0.1
140
0.12
141
0.0
142
0.0
143
25.399999999999999
144
1.0
145
0.0
146
0.71
147
0.06
 71
     0
 72
     0
 73
     1
 74
     1
 75
     0
 76
     0
 77
     0
 78
     7
170
     0
171
     2
172
     0
173
     0
174
     0
175
     0
176
   256
177
   256
178
     2
  0
DIMSTYLE
  2
AM_ANSI$4
 70
     0
  3

  4
mm
  5

  6

  7

 40
1.0
 41
0.1
 42
0.05
 43
0.5
 44
0.1
 45
0.0
 46
0.0
 47
0.1
 48
0.1
140
0.12
141
0.0
142
0.0
143
25.399999999999999
144
1.0
145
0.0
146
0.71
147
0.06
 71
     0
 72
     0
 73
     1
 74
     1
 75
     0
 76
     0
 77
     0
 78
     7
170
     0
171
     2
172
     0
173
     0
174
     0
175
     0
176
   256
177
   256
178
     2
  0
DIMSTYLE
  2
AM_ANSI$7
 70
     0
  3

  4
mm
  5

  6

  7

 40
1.0
 41
0.1
 42
0.05
 43
0.5
 44
0.1
 45
0.0
 46
0.0
 47
0.1
 48
0.1
140
0.24
141
0.0
142
0.0
143
25.399999999999999
144
1.0
145
0.0
146
0.71
147
0.06
 71
     0
 72
     0
 73
     1
 74
     1
 75
     0
 76
     0
 77
     0
 78
     7
170
     0
171
     2
172
     0
173
     0
174
     0
175
     0
176
   256
177
   256
178
     2
  0
DIMSTYLE
  2
AM_ANSI$SF
 70
     0
  3

  4
mm
  5

  6

  7

 40
1.0
 41
0.1
 42
0.05
 43
0.5
 44
0.1
 45
0.0
 46
0.0
 47
0.1
 48
0.1
140
0.12
141
0.0
142
0.0
143
25.399999999999999
144
1.0
145
0.0
146
0.71
147
0.06
 71
     0
 72
     0
 73
     1
 74
     1
 75
     1
 76
     1
 77
     0
 78
     7
170
     0
171
     2
172
     0
173
     0
174
     0
175
     0
176
   256
177
   256
178
     2
  0
DIMSTYLE
  2
AM_ANSI$SH
 70
     0
  3

  4
mm
  5

  6

  7

 40
1.0
 41
0.1
 42
0.05
 43
0.5
 44
0.1
 45
0.0
 46
0.0
 47
0.1
 48
0.1
140
0.12
141
0.0
142
0.0
143
25.399999999999999
144
1.0
145
0.0
146
0.71
147
0.06
 71
     0
 72
     0
 73
     1
 74
     1
 75
     1
 76
     1
 77
     0
 78
     7
170
     0
171
     2
172
     0
173
     1
174
     0
175
     0
176
   256
177
   256
178
     2
  0
DIMSTYLE
  2
AM_ISO
 70
     0
  3

  4
"
  5

  6

  7

 40
1.0
 41
2.5
 42
1.0
 43
10.0
 44
1.0
 45
0.0
 46
0.0
 47
0.1
 48
0.1
140
3.5
141
0.0
142
0.0
143
0.0393701
144
1.0
145
0.0
146
0.71
147
1.5
 71
     0
 72
     0
 73
     0
 74
     0
 75
     0
 76
     0
 77
     1
 78
     8
170
     0
171
     2
172
     1
173
     0
174
     0
175
     0
176
   256
177
   256
178
     2
  0
DIMSTYLE
  2
AM_ISO$3
 70
     0
  3

  4
"
  5

  6

  7

 40
1.0
 41
2.5
 42
1.0
 43
10.0
 44
1.0
 45
0.0
 46
0.0
 47
0.1
 48
0.1
140
3.5
141
0.0
142
0.0
143
0.0393701
144
1.0
145
0.0
146
0.71
147
1.5
 71
     0
 72
     0
 73
     0
 74
     1
 75
     0
 76
     0
 77
     1
 78
     8
170
     0
171
     2
172
     0
173
     0
174
     0
175
     0
176
   256
177
   256
178
     2
  0
DIMSTYLE
  2
AM_ISO$4
 70
     0
  3

  4
"
  5

  6

  7

 40
1.0
 41
2.5
 42
1.0
 43
10.0
 44
1.0
 45
0.0
 46
0.0
 47
0.1
 48
0.1
140
3.5
141
0.0
142
0.0
143
0.0393701
144
1.0
145
0.0
146
0.71
147
1.5
 71
     0
 72
     0
 73
     0
 74
     1
 75
     0
 76
     0
 77
     1
 78
     8
170
     0
171
     2
172
     0
173
     0
174
     0
175
     0
176
   256
177
   256
178
     2
  0
DIMSTYLE
  2
AM_ISO$6
 70
     0
  3

  4
"
  5

  6

  7

 40
1.0
 41
2.5
 42
1.0
 43
10.0
 44
1.0
 45
0.0
 46
0.0
 47
0.1
 48
0.1
140
3.5
141
0.0
142
0.0
143
0.0393701
144
1.0
145
0.0
146
0.71
147
1.5
 71
     0
 72
     0
 73
     0
 74
     0
 75
     0
 76
     0
 77
     0
 78
     8
170
     0
171
     2
172
     1
173
     0
174
     0
175
     0
176
   256
177
   256
178
     2
  0
DIMSTYLE
  2
AM_ISO$7
 70
     0
  3

  4
"
  5

  6

  7

 40
1.0
 41
2.5
 42
1.0
 43
10.0
 44
1.0
 45
0.0
 46
0.0
 47
0.1
 48
0.1
140
5.0
141
0.0
142
0.0
143
0.0393701
144
1.0
145
0.0
146
0.71
147
1.5
 71
     0
 72
     0
 73
     0
 74
     0
 75
     0
 76
     0
 77
     1
 78
     8
170
     0
171
     2
172
     1
173
     0
174
     0
175
     0
176
   256
177
   256
178
     2
  0
DIMSTYLE
  2
AM_ISO$SF
 70
     0
  3

  4
"
  5

  6

  7

 40
1.0
 41
2.5
 42
1.0
 43
10.0
 44
1.0
 45
0.0
 46
0.0
 47
0.1
 48
0.1
140
3.5
141
0.0
142
0.0
143
0.0393701
144
1.0
145
0.0
146
0.71
147
1.5
 71
     0
 72
     0
 73
     0
 74
     0
 75
     1
 76
     1
 77
     1
 78
     8
170
     0
171
     2
172
     1
173
     0
174
     0
175
     0
176
   256
177
   256
178
     2
  0
DIMSTYLE
  2
AM_ISO$SH
 70
     0
  3

  4
"
  5

  6
GENAXEH
  7

 40
1.0
 41
2.5
 42
1.0
 43
10.0
 44
1.0
 45
0.0
 46
0.0
 47
0.1
 48
0.1
140
3.5
141
0.0
142
0.0
143
0.0393701
144
2.0
145
0.0
146
0.71
147
1.5
 71
     0
 72
     0
 73
     0
 74
     0
 75
     1
 76
     1
 77
     1
 78
     8
170
     0
171
     2
172
     1
173
     1
174
     0
175
     0
176
   256
177
   256
178
     2
  0
DIMSTYLE
  2
AM_JIS
 70
     0
  3

  4
"
  5

  6

  7

 40
1.0
 41
2.0
 42
1.0
 43
8.0
 44
1.0
 45
0.0
 46
0.0
 47
0.1
 48
0.1
140
2.5
141
0.0
142
0.0
143
0.0393701
144
1.0
145
0.0
146
0.71
147
1.5
 71
     0
 72
     0
 73
     0
 74
     0
 75
     0
 76
     0
 77
     3
 78
     8
170
     0
171
     2
172
     1
173
     0
174
     0
175
     0
176
     2
177
     2
178
     4
  0
ENDTAB
  0
ENDSEC
  0
SECTION
  2
BLOCKS
  0
BLOCK
  8
0
  2
$MODEL_SPACE
 70
     0
 10
0.0
 20
0.0
 30
0.0
  3
$MODEL_SPACE
  1

  0
ENDBLK
  5
A53
  8
0
  0
BLOCK
 67
     1
  8
0
  2
$PAPER_SPACE
 70
     0
 10
0.0
 20
0.0
 30
0.0
  3
$PAPER_SPACE
  1

  0
ENDBLK
  5
A4F
 67
     1
  8
0
  0
BLOCK
  8
0
  2
GENAXEH
 70
     0
 10
0.0
 20
0.0
 30
0.0
  3
GENAXEH
  1

  0
LINE
  5
544
  8
0
 10
-1.0
 20
0.0
 30
0.0
 11
1.0
 21
0.0
 31
0.0
  0
ENDBLK
  5
545
  8
0
  0
BLOCK
  8
0
  2
_ACMFILLEDHALF
 70
     0
 10
0.0
 20
0.0
 30
0.0
  3
_ACMFILLEDHALF
  1

  0
TRACE
  5
ACC
  8
0
  6
CONTINUOUS
 62
     0
 10
-0.8
 20
0.0
 30
0.0
 11
-1.0
 21
0.166666666
 31
0.0
 12
0.0
 22
0.0
 32
0.0
 13
0.0
 23
0.0
 33
0.0
  0
LINE
  5
ACD
  8
0
  6
CONTINUOUS
 62
     0
 10
-1.0
 20
0.0
 30
0.0
 11
-0.8
 21
0.0
 31
0.0
  0
ENDBLK
  5
ACB
  8
0
  0
BLOCK
  8
0
  2
*U7
 70
     1
 10
0.0
 20
0.0
 30
0.0
  3
*U7
  1

  0
TEXT
  5
BBE
  8
0
  6
CONTINUOUS
 62
     0
 10
5.0768189741019834
 20
5.9826223594979657
 30
0.0
 40
15.0
  1
ＶＸ０８－００３ＥＭ～ＶＸ０８
  0
TEXT
  5
BBF
  8
0
  6
CONTINUOUS
 62
     0
 10
2.17909170137471
 20
-19.18783218595658
 30
0.0
 40
15.0
  1
－０３０ＥＭ
  0
ENDBLK
  5
BC1
  8
0
  0
ENDSEC
  0
SECTION
  2
ENTITIES
  0
LINE
  5
546
  8
0
  6
CENTER
 62
     1
 10
-215.2809399999999
 20
119.723
 30
0.0
 11
-215.2809399999999
 21
453.72951999999992
 31
0.0
  0
LINE
  5
547
  8
0
  6
CENTER
 62
     7
 10
-367.91791000000001
 20
301.54793999999993
 30
0.0
 11
-57.723042
 21
301.54793999999993
 31
0.0
  0
LINE
  5
548
  8
0
  6
CENTER
 62
     7
 10
-1024.9680000000001
 20
686.86632999999995
 30
0.0
 11
-492.22982999999999
 21
686.86632999999995
 31
0.0
  0
LINE
  5
549
  8
0
  6
CONTINUOUS
 62
     3
 10
-757.24377000000004
 20
748.44494999999984
 30
0.0
 11
-722.74377000000004
 21
748.44494999999984
 31
0.0
  0
LINE
  5
54A
  8
0
  6
CONTINUOUS
 62
     7
 10
-757.24377000000004
 20
726.34094000000005
 30
0.0
 11
-722.74377000000004
 21
726.34094000000005
 31
0.0
  0
LINE
  5
54B
  8
0
  6
CONTINUOUS
 62
     7
 10
-706.81353999999999
 20
815.61010999999985
 30
0.0
 11
-695.74377000000004
 21
815.99669999999981
 31
0.0
  0
LINE
  5
54C
  8
0
  6
CONTINUOUS
 62
     7
 10
-722.74377000000004
 20
572.75829999999996
 30
0.0
 11
-722.74377000000004
 21
682.86626999999964
 31
0.0
  0
LINE
  5
54D
  8
0
  6
CONTINUOUS
 62
     7
 10
-708.74390000000005
 20
550.65648999999985
 30
0.0
 11
-708.74390000000005
 21
677.3268999999998
 31
0.0
  0
LINE
  5
54E
  8
0
  6
CONTINUOUS
 62
     7
 10
-720.26470999999981
 20
803.94530999999995
 30
0.0
 11
-711.22284000000002
 21
805.53966999999989
 31
0.0
  0
LINE
  5
54F
  8
0
  6
CONTINUOUS
 62
     7
 10
-757.24377000000004
 20
760.36632999999983
 30
0.0
 11
-727.56934000000001
 21
761.40259000000003
 31
0.0
  0
LINE
  5
550
  8
0
  6
CONTINUOUS
 62
     7
 10
-695.74377000000004
 20
547.12829999999985
 30
0.0
 11
-695.74377000000004
 21
682.86626999999964
 31
0.0
  0
LINE
  5
551
  8
0
  6
CONTINUOUS
 62
     7
 10
-708.74390000000005
 20
609.30053999999996
 30
0.0
 11
-695.74377000000004
 21
609.30053999999996
 31
0.0
  0
LINE
  5
552
  8
0
  6
CONTINUOUS
 62
     7
 10
-708.74390000000005
 20
635.30175999999994
 30
0.0
 11
-695.74377000000004
 21
635.30175999999994
 31
0.0
  0
LINE
  5
553
  8
0
  6
CONTINUOUS
 62
     7
 10
-708.74390000000005
 20
738.43084999999985
 30
0.0
 11
-695.74377000000004
 21
738.43084999999985
 31
0.0
  0
LINE
  5
554
  8
0
  6
CONTINUOUS
 62
     7
 10
-708.74390000000005
 20
764.43206999999984
 30
0.0
 11
-695.74377000000004
 21
764.43206999999984
 31
0.0
  0
LINE
  5
555
  8
0
  6
CONTINUOUS
 62
     3
 10
-757.24377000000004
 20
625.28765999999985
 30
0.0
 11
-722.74377000000004
 21
625.28765999999985
 31
0.0
  0
LINE
  5
556
  8
0
  6
CONTINUOUS
 62
     7
 10
-757.24377000000004
 20
647.39160000000004
 30
0.0
 11
-722.74377000000004
 21
647.39160000000004
 31
0.0
  0
LINE
  5
557
  8
0
  6
CONTINUOUS
 62
     7
 10
-706.81359999999995
 20
558.12255999999979
 30
0.0
 11
-695.74377000000004
 21
557.73595999999998
 31
0.0
  0
LINE
  5
558
  8
0
  6
CONTINUOUS
 62
     7
 10
-720.26476999999988
 20
569.78728999999998
 30
0.0
 11
-711.22284000000002
 21
568.19292999999982
 31
0.0
  0
LINE
  5
559
  8
0
  6
CONTINUOUS
 62
     7
 10
-757.2438400000002
 20
613.36626999999999
 30
0.0
 11
-727.56926999999985
 21
612.33001999999999
 31
0.0
  0
LINE
  5
55A
  8
0
  6
CONTINUOUS
 62
     7
 10
-757.24390000000005
 20
613.36626999999999
 30
0.0
 11
-757.24390000000005
 21
760.36632999999983
 31
0.0
  0
LINE
  5
55B
  8
0
  6
CENTER
 62
     7
 10
-711.74377000000004
 20
670.15796
 30
0.0
 11
-711.74377000000004
 21
701.47118999999986
 31
0.0
  0
LINE
  5
55C
  8
0
  6
CONTINUOUS
 62
     7
 10
-728.24377000000004
 20
682.86626999999964
 30
0.0
 11
-695.24377000000004
 21
682.86626999999964
 31
0.0
  0
LINE
  5
55D
  8
0
  6
CONTINUOUS
 62
     7
 10
-728.24377000000004
 20
690.86626999999964
 30
0.0
 11
-695.24377000000004
 21
690.86626999999964
 31
0.0
  0
LINE
  5
55E
  8
0
  6
CONTINUOUS
 62
     7
 10
-695.74377000000004
 20
690.86626999999964
 30
0.0
 11
-695.74377000000004
 21
826.60424999999987
 31
0.0
  0
LINE
  5
55F
  8
0
  6
CONTINUOUS
 62
     7
 10
-708.74390000000005
 20
696.40570000000002
 30
0.0
 11
-708.74390000000005
 21
823.07605000000001
 31
0.0
  0
LINE
  5
560
  8
0
  6
CONTINUOUS
 62
     7
 10
-722.74377000000004
 20
690.86626999999964
 30
0.0
 11
-722.74377000000004
 21
801.00744999999984
 31
0.0
  0
LINE
  5
561
  8
0
  6
CONTINUOUS
 62
     7
 10
-767.24377000000004
 20
616.61255000000006
 30
0.0
 11
-767.24377000000004
 21
757.12005999999985
 31
0.0
  0
LINE
  5
562
  8
0
  6
CONTINUOUS
 62
     7
 10
-757.2438400000002
 20
760.36632999999983
 30
0.0
 11
-764.34844999999984
 21
760.11822999999958
 31
0.0
  0
LINE
  5
563
  8
0
  6
CONTINUOUS
 62
     7
 10
-757.2438400000002
 20
613.36626999999999
 30
0.0
 11
-764.34844999999984
 21
613.61437999999998
 31
0.0
  0
LINE
  5
564
  8
0
  6
CONTINUOUS
 62
     7
 10
-757.24377000000004
 20
625.28765999999985
 30
0.0
 11
-767.24377000000004
 21
625.28765999999985
 31
0.0
  0
LINE
  5
565
  8
0
  6
CONTINUOUS
 62
     7
 10
-757.24377000000004
 20
647.39160000000004
 30
0.0
 11
-767.24377000000004
 21
647.39160000000004
 31
0.0
  0
LINE
  5
566
  8
0
  6
CONTINUOUS
 62
     7
 10
-757.24377000000004
 20
726.34094000000005
 30
0.0
 11
-767.24377000000004
 21
726.34094000000005
 31
0.0
  0
LINE
  5
567
  8
0
  6
CONTINUOUS
 62
     7
 10
-757.24377000000004
 20
748.44494999999984
 30
0.0
 11
-767.24377000000004
 21
748.44494999999984
 31
0.0
  0
LINE
  5
568
  8
0
  6
CONTINUOUS
 62
     7
 10
-857.24377000000004
 20
622.86632999999995
 30
0.0
 11
-857.24377000000004
 21
750.86632999999983
 31
0.0
  0
LINE
  5
569
  8
0
  6
CONTINUOUS
 62
     7
 10
-770.13909999999998
 20
619.82457999999986
 30
0.0
 11
-857.24377000000004
 21
622.86632999999995
 31
0.0
  0
LINE
  5
56A
  8
0
  6
CONTINUOUS
 62
     7
 10
-770.13904000000002
 20
753.90807999999981
 30
0.0
 11
-857.24370999999985
 21
750.86632999999983
 31
0.0
  0
LINE
  5
56B
  8
0
  6
CONTINUOUS
 62
     7
 10
-842.2437699999997
 20
644.54358000000002
 30
0.0
 11
-842.2437699999997
 21
729.72490999999957
 31
0.0
  0
LINE
  5
56C
  8
0
  6
CONTINUOUS
 62
     7
 10
-770.13909999999998
 20
704.38427999999999
 30
0.0
 11
-839.34850999999969
 21
701.96740999999975
 31
0.0
  0
LINE
  5
56D
  8
0
  6
CONTINUOUS
 62
     7
 10
-770.13909999999998
 20
669.34838999999999
 30
0.0
 11
-839.34844999999973
 21
671.76526000000001
 31
0.0
  0
LINE
  5
56E
  8
0
  6
CONTINUOUS
 62
     7
 10
-857.24377000000004
 20
738.36632999999983
 30
0.0
 11
-776.16943000000003
 21
738.36632999999983
 31
0.0
  0
LINE
  5
56F
  8
0
  6
CONTINUOUS
 62
     7
 10
-857.24377000000004
 20
635.36596999999995
 30
0.0
 11
-776.16918999999984
 21
635.36596999999995
 31
0.0
  0
LINE
  5
570
  8
0
  6
CONTINUOUS
 62
     7
 10
-857.24377000000004
 20
648.81140000000016
 30
0.0
 11
-842.2437699999997
 21
648.81140000000016
 31
0.0
  0
LINE
  5
571
  8
0
  6
CONTINUOUS
 62
     7
 10
-857.24377000000004
 20
725.72559000000001
 30
0.0
 11
-842.2437699999997
 21
725.72559000000001
 31
0.0
  0
LINE
  5
572
  8
0
  6
CONTINUOUS
 62
     7
 10
-842.2437699999997
 20
644.54358000000002
 30
0.0
 11
-780.05675999999983
 21
644.54358000000002
 31
0.0
  0
LINE
  5
573
  8
0
  6
CONTINUOUS
 62
     7
 10
-842.2437699999997
 20
729.72490999999957
 30
0.0
 11
-779.85022000000004
 21
729.72490999999957
 31
0.0
  0
LINE
  5
574
  8
0
  6
CONTINUOUS
 62
     7
 10
-886.24376999999993
 20
614.86632999999995
 30
0.0
 11
-946.24376999999981
 21
614.86632999999995
 31
0.0
  0
LINE
  5
575
  8
0
  6
CONTINUOUS
 62
     3
 10
-965.51671999999985
 20
613.86632999999995
 30
0.0
 11
-965.51671999999985
 21
610.36632999999995
 31
0.0
  0
LINE
  5
576
  8
0
  6
CONTINUOUS
 62
     3
 10
-967.51671999999996
 20
610.36632999999995
 30
0.0
 11
-885.51684999999986
 21
610.36632999999995
 31
0.0
  0
LINE
  5
577
  8
0
  6
CONTINUOUS
 62
     3
 10
-945.01684999999998
 20
606.86632999999995
 30
0.0
 11
-885.51684999999986
 21
606.86632999999995
 31
0.0
  0
LINE
  5
578
  8
0
  6
CONTINUOUS
 62
     3
 10
-956.51671999999985
 20
610.36632999999995
 30
0.0
 11
-956.51671999999985
 21
602.86632999999995
 31
0.0
  0
LINE
  5
579
  8
0
  6
CONTINUOUS
 62
     3
 10
-948.51684999999998
 20
610.36632999999995
 30
0.0
 11
-948.51684999999998
 21
602.86632999999995
 31
0.0
  0
LINE
  5
57A
  8
0
  6
CONTINUOUS
 62
     3
 10
-964.01671999999996
 20
595.36730999999975
 30
0.0
 11
-967.51671999999996
 21
595.36730999999975
 31
0.0
  0
LINE
  5
57B
  8
0
  6
CONTINUOUS
 62
     3
 10
-967.51671999999996
 20
610.36632999999995
 30
0.0
 11
-967.51671999999996
 21
595.36730999999975
 31
0.0
  0
LINE
  5
57C
  8
0
  6
CONTINUOUS
 62
     3
 10
-934.81682999999987
 20
587.36626999999964
 30
0.0
 11
-940.01684999999986
 21
590.36626999999987
 31
0.0
  0
LINE
  5
57D
  8
0
  6
CONTINUOUS
 62
     3
 10
-894.01678000000015
 20
590.36632999999995
 30
0.0
 11
-899.21680000000015
 21
587.36632999999995
 31
0.0
  0
LINE
  5
57E
  8
0
  6
CONTINUOUS
 62
     3
 10
-964.01671999999996
 20
606.86632999999995
 30
0.0
 11
-960.01671999999985
 21
606.86632999999995
 31
0.0
  0
LINE
  5
57F
  8
0
  6
CONTINUOUS
 62
     3
 10
-964.01671999999996
 20
590.36632999999995
 30
0.0
 11
-887.01684999999998
 21
590.36632999999995
 31
0.0
  0
LINE
  5
580
  8
0
  6
CONTINUOUS
 62
     3
 10
-934.81677000000013
 20
587.36632999999995
 30
0.0
 11
-899.21680000000015
 21
587.36632999999995
 31
0.0
  0
LINE
  5
581
  8
0
  6
CONTINUOUS
 62
     3
 10
-964.01671999999996
 20
610.36632999999995
 30
0.0
 11
-964.01671999999996
 21
590.36632999999995
 31
0.0
  0
LINE
  5
582
  8
0
  6
CONTINUOUS
 62
     3
 10
-960.01671999999985
 20
610.36632999999995
 30
0.0
 11
-960.01671999999985
 21
602.86632999999995
 31
0.0
  0
LINE
  5
583
  8
0
  6
CONTINUOUS
 62
     3
 10
-945.01684999999998
 20
602.86632999999995
 30
0.0
 11
-945.01684999999998
 21
610.36632999999995
 31
0.0
  0
LINE
  5
584
  8
0
  6
CONTINUOUS
 62
     3
 10
-887.01684999999998
 20
590.36632999999995
 30
0.0
 11
-887.01684999999998
 21
606.86632999999995
 31
0.0
  0
LINE
  5
585
  8
0
  6
CONTINUOUS
 62
     3
 10
-885.51684999999986
 20
613.86632999999995
 30
0.0
 11
-885.51684999999986
 21
606.86632999999995
 31
0.0
  0
LINE
  5
586
  8
0
  6
CONTINUOUS
 62
     3
 10
-965.51671999999985
 20
613.86632999999995
 30
0.0
 11
-885.51684999999986
 21
613.86632999999995
 31
0.0
  0
LINE
  5
587
  8
0
  6
CONTINUOUS
 62
     7
 10
-886.74376999999981
 20
614.86632999999995
 30
0.0
 11
-886.74376999999981
 21
613.86632999999995
 31
0.0
  0
LINE
  5
588
  8
0
  6
CONTINUOUS
 62
     7
 10
-945.74376999999993
 20
614.86632999999995
 30
0.0
 11
-945.74376999999993
 21
613.86632999999995
 31
0.0
  0
LINE
  5
589
  8
0
  6
CONTINUOUS
 62
     7
 10
-1015.2438
 20
637.36632999999995
 30
0.0
 11
-1015.2438
 21
637.89635999999985
 31
0.0
  0
LINE
  5
58A
  8
0
  6
CONTINUOUS
 62
     7
 10
-1015.2438
 20
639.46630999999979
 30
0.0
 11
-1015.2438
 21
640.01635999999985
 31
0.0
  0
LINE
  5
58B
  8
0
  6
CONTINUOUS
 62
     7
 10
-1015.2438
 20
644.03638000000001
 30
0.0
 11
-1015.2438
 21
644.50634999999977
 31
0.0
  0
LINE
  5
58C
  8
0
  6
CONTINUOUS
 62
     7
 10
-1015.4638
 20
640.48632999999995
 30
0.0
 11
-1016.7137
 21
641.1463
 31
0.0
  0
LINE
  5
58D
  8
0
  6
CONTINUOUS
 62
     7
 10
-1015.4539
 20
638.37634000000003
 30
0.0
 11
-1016.693899999999
 21
639.00629000000004
 31
0.0
  0
LINE
  5
58E
  8
0
  6
CONTINUOUS
 62
     7
 10
-1015.4738
 20
645.01629999999977
 30
0.0
 11
-1016.7538
 21
645.76624000000004
 31
0.0
  0
LINE
  5
58F
  8
0
  6
CONTINUOUS
 62
     7
 10
-1015.0038
 20
638.26635999999985
 30
0.0
 11
-1012.7437999999991
 21
638.26635999999985
 31
0.0
  0
LINE
  5
590
  8
0
  6
CONTINUOUS
 62
     7
 10
-1014.9938
 20
640.36632999999995
 30
0.0
 11
-1013.2438
 21
640.36632999999995
 31
0.0
  0
LINE
  5
591
  8
0
  6
CONTINUOUS
 62
     7
 10
-1014.973799999999
 20
644.88634999999977
 30
0.0
 11
-1013.2438
 21
644.88634999999977
 31
0.0
  0
LINE
  5
592
  8
0
  6
CONTINUOUS
 62
     7
 10
-1014.9437
 20
643.74634000000003
 30
0.0
 11
-1012.2438
 21
643.74634000000003
 31
0.0
  0
LINE
  5
593
  8
0
  6
CONTINUOUS
 62
     7
 10
-1014.9637
 20
639.22631999999999
 30
0.0
 11
-1012.2438
 21
639.22631999999999
 31
0.0
  0
LINE
  5
594
  8
0
  6
CONTINUOUS
 62
     7
 10
-1015.4937
 20
643.90630999999985
 30
0.0
 11
-1016.7936999999999
 21
644.75629000000004
 31
0.0
  0
LINE
  5
595
  8
0
  6
CONTINUOUS
 62
     7
 10
-1015.4837
 20
639.3662099999998
 30
0.0
 11
-1016.7637
 21
640.13622999999995
 31
0.0
  0
LINE
  5
596
  8
0
  6
CONTINUOUS
 62
     7
 10
-1015.4738
 20
637.25635
 30
0.0
 11
-1016.7438
 21
637.98632999999995
 31
0.0
  0
LINE
  5
597
  8
0
  6
CONTINUOUS
 62
     7
 10
-1014.973799999999
 20
637.11632999999995
 30
0.0
 11
-1012.7437999999991
 21
637.11632999999995
 31
0.0
  0
LINE
  5
598
  8
0
  6
CONTINUOUS
 62
     7
 10
-1017.2437999999991
 20
638.84631000000002
 30
0.0
 11
-1017.2437999999991
 21
681.86632999999995
 31
0.0
  0
LINE
  5
599
  8
0
  6
CONTINUOUS
 62
     7
 10
-1016.7538
 20
645.7663
 30
0.0
 11
-1016.773799999999
 21
645.77630999999997
 31
0.0
  0
LINE
  5
59A
  8
0
  6
CONTINUOUS
 62
     7
 10
-1018.7437999999991
 20
669.58630000000005
 30
0.0
 11
-1017.2437999999991
 21
669.58630000000005
 31
0.0
  0
LINE
  5
59B
  8
0
  6
CONTINUOUS
 62
     7
 10
-1018.7437999999991
 20
671.71630999999957
 30
0.0
 11
-1017.2437999999991
 21
671.71630999999957
 31
0.0
  0
LINE
  5
59C
  8
0
  6
CONTINUOUS
 62
     7
 10
-1018.7437
 20
666.86632999999995
 30
0.0
 11
-1017.2437
 21
666.73632999999995
 31
0.0
  0
LINE
  5
59D
  8
0
  6
CONTINUOUS
 62
     7
 10
-1018.7437999999991
 20
666.86632999999995
 30
0.0
 11
-1018.7437999999991
 21
686.86632999999995
 31
0.0
  0
LINE
  5
59E
  8
0
  6
CONTINUOUS
 62
     7
 10
-1015.2438
 20
651.47631999999987
 30
0.0
 11
-1015.2438
 21
652.53638000000001
 31
0.0
  0
LINE
  5
59F
  8
0
  6
CONTINUOUS
 62
     7
 10
-1015.2438
 20
661.23632999999995
 30
0.0
 11
-1015.2438
 21
662.60631999999987
 31
0.0
  0
LINE
  5
5A0
  8
0
  6
CONTINUOUS
 62
     7
 10
-1015.2438
 20
681.25635
 30
0.0
 11
-1015.2438
 21
682.41638
 31
0.0
  0
LINE
  5
5A1
  8
0
  6
CONTINUOUS
 62
     7
 10
-1015.2438
 20
671.25634999999988
 30
0.0
 11
-1015.2438
 21
672.47631999999987
 31
0.0
  0
LINE
  5
5A2
  8
0
  6
CONTINUOUS
 62
     7
 10
-1013.2438
 20
682.86632999999995
 30
0.0
 11
-1016.2438
 21
682.86632999999995
 31
0.0
  0
LINE
  5
5A3
  8
0
  6
CONTINUOUS
 62
     7
 10
-1013.2438
 20
680.86632999999995
 30
0.0
 11
-1016.2438
 21
680.86632999999995
 31
0.0
  0
LINE
  5
5A4
  8
0
  6
CONTINUOUS
 62
     7
 10
-1013.2438
 20
672.86632999999995
 30
0.0
 11
-1016.2438
 21
672.86632999999995
 31
0.0
  0
LINE
  5
5A5
  8
0
  6
CONTINUOUS
 62
     7
 10
-1013.2438
 20
670.86632999999995
 30
0.0
 11
-1016.2438
 21
670.86632999999995
 31
0.0
  0
LINE
  5
5A6
  8
0
  6
CONTINUOUS
 62
     7
 10
-1013.2438
 20
662.86632999999995
 30
0.0
 11
-1016.2438
 21
662.86632999999995
 31
0.0
  0
LINE
  5
5A7
  8
0
  6
CONTINUOUS
 62
     7
 10
-1013.2438
 20
660.86632999999995
 30
0.0
 11
-1016.2438
 21
660.86632999999995
 31
0.0
  0
LINE
  5
5A8
  8
0
  6
CONTINUOUS
 62
     7
 10
-1015.383699999999
 20
653.16632000000004
 30
0.0
 11
-1016.5338
 21
653.52630999999985
 31
0.0
  0
LINE
  5
5A9
  8
0
  6
CONTINUOUS
 62
     7
 10
-1015.0938
 20
653.12634000000003
 30
0.0
 11
-1013.2438
 21
653.12634000000003
 31
0.0
  0
LINE
  5
5AA
  8
0
  6
CONTINUOUS
 62
     7
 10
-1015.4338
 20
651.25629000000004
 30
0.0
 11
-1016.633799999999
 21
651.77624999999989
 31
0.0
  0
LINE
  5
5AB
  8
0
  6
CONTINUOUS
 62
     7
 10
-1015.0436999999999
 20
651.17638999999997
 30
0.0
 11
-1012.9437
 21
651.17638999999997
 31
0.0
  0
LINE
  5
5AC
  8
0
  6
CONTINUOUS
 62
     7
 10
-1018.7437999999991
 20
704.14635999999996
 30
0.0
 11
-1017.2437999999991
 21
704.14635999999996
 31
0.0
  0
LINE
  5
5AD
  8
0
  6
CONTINUOUS
 62
     7
 10
-1018.7437999999991
 20
702.01635999999996
 30
0.0
 11
-1017.2437999999991
 21
702.01635999999996
 31
0.0
  0
LINE
  5
5AE
  8
0
  6
CONTINUOUS
 62
     7
 10
-1018.7437999999991
 20
706.86632999999995
 30
0.0
 11
-1017.2437999999991
 21
706.99634000000003
 31
0.0
  0
LINE
  5
5AF
  8
0
  6
CONTINUOUS
 62
     7
 10
-1018.7437999999991
 20
706.86632999999995
 30
0.0
 11
-1018.7437999999991
 21
686.86632999999995
 31
0.0
  0
LINE
  5
5B0
  8
0
  6
CONTINUOUS
 62
     7
 10
-1015.2438
 20
736.36632999999983
 30
0.0
 11
-1015.2438
 21
735.83630000000005
 31
0.0
  0
LINE
  5
5B1
  8
0
  6
CONTINUOUS
 62
     7
 10
-1015.2438
 20
734.26635999999985
 30
0.0
 11
-1015.2438
 21
733.71630999999968
 31
0.0
  0
LINE
  5
5B2
  8
0
  6
CONTINUOUS
 62
     7
 10
-1015.2438
 20
729.69629000000032
 30
0.0
 11
-1015.2438
 21
729.22631999999965
 31
0.0
  0
LINE
  5
5B3
  8
0
  6
CONTINUOUS
 62
     7
 10
-1015.2438
 20
722.25634999999988
 30
0.0
 11
-1015.2438
 21
721.19629000000032
 31
0.0
  0
LINE
  5
5B4
  8
0
  6
CONTINUOUS
 62
     7
 10
-1015.2438
 20
712.49634000000003
 30
0.0
 11
-1015.2438
 21
711.12634000000003
 31
0.0
  0
LINE
  5
5B5
  8
0
  6
CONTINUOUS
 62
     7
 10
-1015.2438
 20
692.47631999999999
 30
0.0
 11
-1015.2438
 21
691.31628000000001
 31
0.0
  0
LINE
  5
5B6
  8
0
  6
CONTINUOUS
 62
     7
 10
-1015.2438
 20
702.47631999999965
 30
0.0
 11
-1015.2438
 21
701.26635999999985
 31
0.0
  0
LINE
  5
5B7
  8
0
  6
CONTINUOUS
 62
     7
 10
-1013.2438
 20
690.86632999999995
 30
0.0
 11
-1016.2438
 21
690.86632999999995
 31
0.0
  0
LINE
  5
5B8
  8
0
  6
CONTINUOUS
 62
     7
 10
-1013.2438
 20
692.86632999999995
 30
0.0
 11
-1016.2438
 21
692.86632999999995
 31
0.0
  0
LINE
  5
5B9
  8
0
  6
CONTINUOUS
 62
     7
 10
-1013.2438
 20
700.86632999999995
 30
0.0
 11
-1016.2438
 21
700.86632999999995
 31
0.0
  0
LINE
  5
5BA
  8
0
  6
CONTINUOUS
 62
     7
 10
-1013.2438
 20
702.86632999999995
 30
0.0
 11
-1016.2438
 21
702.86632999999995
 31
0.0
  0
LINE
  5
5BB
  8
0
  6
CONTINUOUS
 62
     7
 10
-1013.2438
 20
710.86632999999995
 30
0.0
 11
-1016.2438
 21
710.86632999999995
 31
0.0
  0
LINE
  5
5BC
  8
0
  6
CONTINUOUS
 62
     7
 10
-1013.2438
 20
712.86632999999995
 30
0.0
 11
-1016.2438
 21
712.86632999999995
 31
0.0
  0
LINE
  5
5BD
  8
0
  6
CONTINUOUS
 62
     7
 10
-1015.4638
 20
733.25635
 30
0.0
 11
-1016.7138
 21
732.5863599999999
 31
0.0
  0
LINE
  5
5BE
  8
0
  6
CONTINUOUS
 62
     7
 10
-1015.4538
 20
735.36626999999999
 30
0.0
 11
-1016.6938
 21
734.73626999999988
 31
0.0
  0
LINE
  5
5BF
  8
0
  6
CONTINUOUS
 62
     7
 10
-1015.3838
 20
720.56635000000006
 30
0.0
 11
-1016.5338
 21
720.21630999999968
 31
0.0
  0
LINE
  5
5C0
  8
0
  6
CONTINUOUS
 62
     7
 10
-1015.4738
 20
728.71630999999979
 30
0.0
 11
-1016.7538
 21
727.96636999999998
 31
0.0
  0
LINE
  5
5C1
  8
0
  6
CONTINUOUS
 62
     7
 10
-1015.0038
 20
735.46630999999979
 30
0.0
 11
-1012.7437999999991
 21
735.46630999999979
 31
0.0
  0
LINE
  5
5C2
  8
0
  6
CONTINUOUS
 62
     7
 10
-1014.9938
 20
733.36632999999983
 30
0.0
 11
-1013.2438
 21
733.36632999999983
 31
0.0
  0
LINE
  5
5C3
  8
0
  6
CONTINUOUS
 62
     7
 10
-1014.973799999999
 20
728.85631999999964
 30
0.0
 11
-1013.2438
 21
728.85631999999964
 31
0.0
  0
LINE
  5
5C4
  8
0
  6
CONTINUOUS
 62
     7
 10
-1015.0938
 20
720.60631999999998
 30
0.0
 11
-1013.2438
 21
720.60631999999998
 31
0.0
  0
LINE
  5
5C5
  8
0
  6
CONTINUOUS
 62
     7
 10
-1014.9437
 20
729.99634000000003
 30
0.0
 11
-1012.2438
 21
729.99634000000003
 31
0.0
  0
LINE
  5
5C6
  8
0
  6
CONTINUOUS
 62
     7
 10
-1014.9637
 20
734.50635
 30
0.0
 11
-1012.2438
 21
734.50635
 31
0.0
  0
LINE
  5
5C7
  8
0
  6
CONTINUOUS
 62
     7
 10
-1015.433699999998
 20
722.47625999999968
 30
0.0
 11
-1016.633799999999
 21
721.96618999999998
 31
0.0
  0
LINE
  5
5C8
  8
0
  6
CONTINUOUS
 62
     7
 10
-1015.4938
 20
729.82635000000005
 30
0.0
 11
-1016.7938
 21
728.97631999999999
 31
0.0
  0
LINE
  5
5C9
  8
0
  6
CONTINUOUS
 62
     7
 10
-1015.483799999999
 20
734.36626999999999
 30
0.0
 11
-1016.7637999999999
 21
733.59631000000002
 31
0.0
  0
LINE
  5
5CA
  8
0
  6
CONTINUOUS
 62
     7
 10
-1015.4738
 20
736.48626999999988
 30
0.0
 11
-1016.7438
 21
735.74627999999984
 31
0.0
  0
LINE
  5
5CB
  8
0
  6
CONTINUOUS
 62
     7
 10
-1015.0436999999999
 20
722.55627000000004
 30
0.0
 11
-1012.9437
 21
722.55627000000004
 31
0.0
  0
LINE
  5
5CC
  8
0
  6
CONTINUOUS
 62
     7
 10
-1014.973799999999
 20
736.61632999999983
 30
0.0
 11
-1012.7437999999991
 21
736.61632999999983
 31
0.0
  0
LINE
  5
5CD
  8
0
  6
CONTINUOUS
 62
     7
 10
-1017.2437999999991
 20
734.88634999999999
 30
0.0
 11
-1017.2437999999991
 21
691.86632999999995
 31
0.0
  0
LINE
  5
5CE
  8
0
  6
CONTINUOUS
 62
     7
 10
-865.24377000000004
 20
724.01635999999985
 30
0.0
 11
-857.24377000000004
 21
724.01635999999985
 31
0.0
  0
LINE
  5
5CF
  8
0
  6
CONTINUOUS
 62
     7
 10
-864.24377000000004
 20
634.82628999999986
 30
0.0
 11
-857.24377000000004
 21
634.82628999999986
 31
0.0
  0
LINE
  5
5D0
  8
0
  6
CONTINUOUS
 62
     7
 10
-865.24377000000004
 20
649.71630999999979
 30
0.0
 11
-857.24377000000004
 21
649.71630999999979
 31
0.0
  0
LINE
  5
5D1
  8
0
  6
CONTINUOUS
 62
     7
 10
-864.24377000000004
 20
623.36632999999995
 30
0.0
 11
-857.24377000000004
 21
623.36632999999995
 31
0.0
  0
LINE
  5
5D2
  8
0
  6
CONTINUOUS
 62
     7
 10
-864.24377000000004
 20
738.90637000000004
 30
0.0
 11
-857.24377000000004
 21
738.90637000000004
 31
0.0
  0
LINE
  5
5D3
  8
0
  6
CONTINUOUS
 62
     7
 10
-864.24377000000004
 20
750.36632999999983
 30
0.0
 11
-857.24377000000004
 21
750.36632999999983
 31
0.0
  0
LINE
  5
5D4
  8
0
  6
CONTINUOUS
 62
     7
 10
-1012.2438
 20
629.43633999999986
 30
0.0
 11
-1009.4238
 21
629.37627999999995
 31
0.0
  0
LINE
  5
5D5
  8
0
  6
CONTINUOUS
 62
     7
 10
-971.24376999999981
 20
640.51635999999985
 30
0.0
 11
-865.24377000000004
 21
640.51635999999985
 31
0.0
  0
LINE
  5
5D6
  8
0
  6
CONTINUOUS
 62
     7
 10
-870.53381000000002
 20
626.36632999999995
 30
0.0
 11
-865.24377000000004
 21
626.36632999999995
 31
0.0
  0
LINE
  5
5D7
  8
0
  6
CONTINUOUS
 62
     7
 10
-998.57372999999995
 20
653.50634999999966
 30
0.0
 11
-904.22375
 21
653.50634999999966
 31
0.0
  0
LINE
  5
5D8
  8
0
  6
CONTINUOUS
 62
     7
 10
-916.24376999999993
 20
650.86632999999995
 30
0.0
 11
-997.70812999999998
 21
650.86632999999995
 31
0.0
  0
LINE
  5
5D9
  8
0
  6
CONTINUOUS
 62
     7
 10
-916.24376999999993
 20
650.14635999999996
 30
0.0
 11
-868.42382999999984
 21
650.14635999999996
 31
0.0
  0
LINE
  5
5DA
  8
0
  6
CONTINUOUS
 62
     7
 10
-998.57372999999995
 20
650.14635999999996
 30
0.0
 11
-916.24376999999993
 21
650.14635999999996
 31
0.0
  0
LINE
  5
5DB
  8
0
  6
CONTINUOUS
 62
     7
 10
-998.54614000000004
 20
628.60631999999998
 30
0.0
 11
-992.74376999999981
 21
628.60631999999998
 31
0.0
  0
LINE
  5
5DC
  8
0
  6
CONTINUOUS
 62
     7
 10
-989.24377000000004
 20
625.00635
 30
0.0
 11
-872.43384000000003
 21
625.00635
 31
0.0
  0
LINE
  5
5DD
  8
0
  6
CONTINUOUS
 62
     7
 10
-998.48389000000009
 20
633.88634999999999
 30
0.0
 11
-992.74376999999981
 21
633.88634999999999
 31
0.0
  0
LINE
  5
5DE
  8
0
  6
CONTINUOUS
 62
     7
 10
-1002.2438
 20
638.51635999999985
 30
0.0
 11
-1002.2438
 21
652.56628000000001
 31
0.0
  0
LINE
  5
5DF
  8
0
  6
CONTINUOUS
 62
     7
 10
-1012.2438
 20
638.51635999999985
 30
0.0
 11
-1002.2438
 21
638.51635999999985
 31
0.0
  0
LINE
  5
5E0
  8
0
  6
CONTINUOUS
 62
     7
 10
-870.50378000000012
 20
626.49627999999996
 30
0.0
 11
-867.04375999999968
 21
639.40637000000004
 31
0.0
  0
LINE
  5
5E1
  8
0
  6
CONTINUOUS
 62
     7
 10
-1008.4825
 20
626.70734000000004
 30
0.0
 11
-1008.9638
 21
628.61632999999995
 31
0.0
  0
LINE
  5
5E2
  8
0
  6
CONTINUOUS
 62
     7
 10
-1008.0538
 20
626.73626999999965
 30
0.0
 11
-1008.9738
 21
630.61632999999995
 31
0.0
  0
LINE
  5
5E3
  8
0
  6
CONTINUOUS
 62
     7
 10
-991.24376999999993
 20
624.97729000000004
 30
0.0
 11
-991.24376999999993
 21
632.38634999999977
 31
0.0
  0
LINE
  5
5E4
  8
0
  6
CONTINUOUS
 62
     7
 10
-1010.413699999998
 20
629.74634000000003
 30
0.0
 11
-1008.7637999999999
 21
629.74634000000003
 31
0.0
  0
LINE
  5
5E5
  8
0
  6
CONTINUOUS
 62
     7
 10
-971.24376999999981
 20
733.21630999999979
 30
0.0
 11
-865.24377000000004
 21
733.21630999999979
 31
0.0
  0
LINE
  5
5E6
  8
0
  6
CONTINUOUS
 62
     7
 10
-865.24377000000004
 20
624.36632999999995
 30
0.0
 11
-865.24377000000004
 21
749.36632999999983
 31
0.0
  0
LINE
  5
5E7
  8
0
  6
CONTINUOUS
 62
     7
 10
-1012.2436999999979
 20
744.29633000000001
 30
0.0
 11
-1009.4238
 21
744.36632999999983
 31
0.0
  0
LINE
  5
5E8
  8
0
  6
CONTINUOUS
 62
     7
 10
-1012.2438
 20
629.43628000000001
 30
0.0
 11
-1012.2438
 21
686.86632999999995
 31
0.0
  0
LINE
  5
5E9
  8
0
  6
CONTINUOUS
 62
     7
 10
-871.90380999999979
 20
650.86632999999995
 30
0.0
 11
-916.24376999999993
 21
650.86632999999995
 31
0.0
  0
LINE
  5
5EA
  8
0
  6
CONTINUOUS
 62
     7
 10
-1002.2438
 20
735.21630999999979
 30
0.0
 11
-1002.2438
 21
721.17638999999986
 31
0.0
  0
LINE
  5
5EB
  8
0
  6
CONTINUOUS
 62
     7
 10
-1012.2438
 20
721.17638999999986
 30
0.0
 11
-1002.2438
 21
721.17638999999986
 31
0.0
  0
LINE
  5
5EC
  8
0
  6
CONTINUOUS
 62
     7
 10
-1012.2438
 20
729.55627000000004
 30
0.0
 11
-1002.2438
 21
729.55627000000004
 31
0.0
  0
LINE
  5
5ED
  8
0
  6
CONTINUOUS
 62
     7
 10
-1012.2438
 20
735.21630999999979
 30
0.0
 11
-1002.2438
 21
735.21630999999979
 31
0.0
  0
LINE
  5
5EE
  8
0
  6
CONTINUOUS
 62
     7
 10
-936.80175999999994
 20
672.86632999999995
 30
0.0
 11
-1006.6937
 21
672.86632999999995
 31
0.0
  0
LINE
  5
5EF
  8
0
  6
CONTINUOUS
 62
     7
 10
-989.24377000000004
 20
748.72631999999999
 30
0.0
 11
-872.43384000000003
 21
748.72631999999999
 31
0.0
  0
LINE
  5
5F0
  8
0
  6
CONTINUOUS
 62
     7
 10
-998.28954999999974
 20
739.85631999999987
 30
0.0
 11
-992.74376999999981
 21
739.85631999999987
 31
0.0
  0
LINE
  5
5F1
  8
0
  6
CONTINUOUS
 62
     7
 10
-1001.0345
 20
733.85961999999984
 30
0.0
 11
-1000.2495
 21
738.20630000000006
 31
0.0
  0
LINE
  5
5F2
  8
0
  6
CONTINUOUS
 62
     7
 10
-998.35338999999988
 20
745.13634999999999
 30
0.0
 11
-992.74376999999981
 21
745.13634999999999
 31
0.0
  0
LINE
  5
5F3
  8
0
  6
CONTINUOUS
 62
     7
 10
-1006.1138
 20
748.53638000000001
 30
0.0
 11
-992.74376999999981
 21
748.53638000000001
 31
0.0
  0
LINE
  5
5F4
  8
0
  6
CONTINUOUS
 62
     7
 10
-1006.133799999999
 20
750.16638
 30
0.0
 11
-992.63379000000009
 21
750.16638
 31
0.0
  0
LINE
  5
5F5
  8
0
  6
CONTINUOUS
 62
     7
 10
-989.24377000000004
 20
752.78638000000001
 30
0.0
 11
-871.16015999999979
 21
752.78638000000001
 31
0.0
  0
LINE
  5
5F6
  8
0
  6
CONTINUOUS
 62
     7
 10
-989.24377000000004
 20
752.11632999999983
 30
0.0
 11
-871.01610999999946
 21
752.11632999999983
 31
0.0
  0
LINE
  5
5F7
  8
0
  6
CONTINUOUS
 62
     7
 10
-989.24377000000004
 20
750.75634999999988
 30
0.0
 11
-870.72388000000001
 21
750.75634999999988
 31
0.0
  0
LINE
  5
5F8
  8
0
  6
CONTINUOUS
 62
     7
 10
-1002.7295
 20
737.90637000000004
 30
0.0
 11
-1000.3094
 21
737.90637000000004
 31
0.0
  0
LINE
  5
5F9
  8
0
  6
CONTINUOUS
 62
     7
 10
-1000.2996000000001
 20
743.55634000000032
 30
0.0
 11
-1001.2596
 21
739.08624000000032
 31
0.0
  0
LINE
  5
5FA
  8
0
  6
CONTINUOUS
 62
     7
 10
-1010.4337
 20
741.96630999999979
 30
0.0
 11
-1000.641
 21
741.96630999999979
 31
0.0
  0
LINE
  5
5FB
  8
0
  6
CONTINUOUS
 62
     7
 10
-871.90380999999979
 20
722.86632999999983
 30
0.0
 11
-997.69372999999985
 21
722.86632999999983
 31
0.0
  0
LINE
  5
5FC
  8
0
  6
CONTINUOUS
 62
     7
 10
-871.90380999999979
 20
720.86632999999983
 30
0.0
 11
-886.24376999999993
 21
720.86632999999983
 31
0.0
  0
LINE
  5
5FD
  8
0
  6
CONTINUOUS
 62
     7
 10
-871.89661000000012
 20
712.86632999999995
 30
0.0
 11
-886.24376999999993
 21
712.86632999999995
 31
0.0
  0
LINE
  5
5FE
  8
0
  6
CONTINUOUS
 62
     7
 10
-1008.0538
 20
746.99634000000003
 30
0.0
 11
-1008.9738
 21
743.12627999999984
 31
0.0
  0
LINE
  5
5FF
  8
0
  6
CONTINUOUS
 62
     7
 10
-871.91100999999981
 20
710.86632999999995
 30
0.0
 11
-997.69372999999985
 21
710.86632999999995
 31
0.0
  0
LINE
  5
600
  8
0
  6
CONTINUOUS
 62
     7
 10
-1010.413699999998
 20
743.98632999999984
 30
0.0
 11
-1008.7637999999999
 21
743.98632999999984
 31
0.0
  0
LINE
  5
601
  8
0
  6
CONTINUOUS
 62
     7
 10
-1008.0738
 20
748.65624999999989
 30
0.0
 11
-1008.9638
 21
745.12634000000003
 31
0.0
  0
LINE
  5
602
  8
0
  6
CONTINUOUS
 62
     7
 10
-936.80505000000005
 20
702.86632999999995
 30
0.0
 11
-1006.6937
 21
702.86632999999995
 31
0.0
  0
LINE
  5
603
  8
0
  6
CONTINUOUS
 62
     7
 10
-991.24376999999993
 20
748.75635
 30
0.0
 11
-991.24376999999993
 21
741.35631999999964
 31
0.0
  0
LINE
  5
604
  8
0
  6
CONTINUOUS
 62
     7
 10
-936.80505000000005
 20
700.86632999999995
 30
0.0
 11
-1006.6937
 21
700.86632999999995
 31
0.0
  0
LINE
  5
605
  8
0
  6
CONTINUOUS
 62
     7
 10
-936.80175999999994
 20
692.86632999999995
 30
0.0
 11
-1006.6937
 21
692.86632999999995
 31
0.0
  0
LINE
  5
606
  8
0
  6
CONTINUOUS
 62
     7
 10
-936.80175999999994
 20
690.86632999999995
 30
0.0
 11
-1006.6937
 21
690.86632999999995
 31
0.0
  0
LINE
  5
607
  8
0
  6
CONTINUOUS
 62
     7
 10
-870.50378000000012
 20
747.24634000000003
 30
0.0
 11
-867.04375999999968
 21
734.32623000000001
 31
0.0
  0
LINE
  5
608
  8
0
  6
CONTINUOUS
 62
     7
 10
-868.78333000000021
 20
747.36632999999983
 30
0.0
 11
-865.24377000000004
 21
747.36632999999983
 31
0.0
  0
LINE
  5
609
  8
0
  6
CONTINUOUS
 62
     7
 10
-865.5338099999999
 20
737.90637000000004
 30
0.0
 11
-867.95374000000004
 21
737.90637000000004
 31
0.0
  0
LINE
  5
60A
  8
0
  6
CONTINUOUS
 62
     7
 10
-869.69359999999995
 20
751.60149999999999
 30
0.0
 11
-867.0037199999997
 21
739.08624000000032
 31
0.0
  0
LINE
  5
60B
  8
0
  6
CONTINUOUS
 62
     7
 10
-1012.2438
 20
744.29639000000032
 30
0.0
 11
-1012.2438
 21
686.86632999999995
 31
0.0
  0
LINE
  5
60C
  8
0
  6
CONTINUOUS
 62
     7
 10
-1012.2438
 20
652.56628000000001
 30
0.0
 11
-1002.2438
 21
652.56628000000001
 31
0.0
  0
LINE
  5
60D
  8
0
  6
CONTINUOUS
 62
     7
 10
-1006.5431
 20
625.1962900000002
 30
0.0
 11
-992.50097999999991
 21
625.1962900000002
 31
0.0
  0
LINE
  5
60E
  8
0
  6
CONTINUOUS
 62
     7
 10
-1012.2438
 20
644.17638999999986
 30
0.0
 11
-1002.2438
 21
644.17638999999986
 31
0.0
  0
LINE
  5
60F
  8
0
  6
CONTINUOUS
 62
     7
 10
-1010.4337
 20
631.76635999999985
 30
0.0
 11
-1000.641
 21
631.76635999999985
 31
0.0
  0
LINE
  5
610
  8
0
  6
CONTINUOUS
 62
     7
 10
-989.24377000000004
 20
622.97631999999976
 30
0.0
 11
-947.91736000000014
 21
622.97631999999976
 31
0.0
  0
LINE
  5
611
  8
0
  6
CONTINUOUS
 62
     7
 10
-998.78369000000032
 20
660.38634999999999
 30
0.0
 11
-904.24376999999981
 21
660.38634999999999
 31
0.0
  0
LINE
  5
612
  8
0
  6
CONTINUOUS
 62
     7
 10
-904.24376999999981
 20
652.86632999999995
 30
0.0
 11
-997.70812999999998
 21
652.86632999999995
 31
0.0
  0
LINE
  5
613
  8
0
  6
CONTINUOUS
 62
     7
 10
-998.57372999999995
 20
723.59631000000002
 30
0.0
 11
-868.42382999999984
 21
723.59631000000002
 31
0.0
  0
LINE
  5
614
  8
0
  6
CONTINUOUS
 62
     7
 10
-998.57372999999995
 20
720.23632999999995
 30
0.0
 11
-904.22375
 21
720.23632999999995
 31
0.0
  0
LINE
  5
615
  8
0
  6
CONTINUOUS
 62
     7
 10
-998.78369000000032
 20
713.35631999999998
 30
0.0
 11
-904.24376999999981
 21
713.35631999999998
 31
0.0
  0
LINE
  5
616
  8
0
  6
CONTINUOUS
 62
     7
 10
-998.78369000000032
 20
710.43628000000001
 30
0.0
 11
-868.20959000000005
 21
710.43628000000001
 31
0.0
  0
LINE
  5
617
  8
0
  6
CONTINUOUS
 62
     7
 10
-1007.9136999999999
 20
703.21630999999968
 30
0.0
 11
-935.57250999999985
 21
703.21630999999968
 31
0.0
  0
LINE
  5
618
  8
0
  6
CONTINUOUS
 62
     7
 10
-1007.9136999999999
 20
700.54639000000032
 30
0.0
 11
-935.58507999999983
 21
700.54639000000032
 31
0.0
  0
LINE
  5
619
  8
0
  6
CONTINUOUS
 62
     7
 10
-1007.9738
 20
693.14635999999985
 30
0.0
 11
-935.50867000000005
 21
693.14635999999985
 31
0.0
  0
LINE
  5
61A
  8
0
  6
CONTINUOUS
 62
     7
 10
-1007.9738
 20
690.60631999999998
 30
0.0
 11
-935.50867000000005
 21
690.60631999999998
 31
0.0
  0
LINE
  5
61B
  8
0
  6
CONTINUOUS
 62
     7
 10
-1007.9738
 20
683.13634999999999
 30
0.0
 11
-935.50867000000005
 21
683.13634999999999
 31
0.0
  0
LINE
  5
61C
  8
0
  6
CONTINUOUS
 62
     7
 10
-936.80175999999994
 20
680.86632999999995
 30
0.0
 11
-1006.6937
 21
680.86632999999995
 31
0.0
  0
LINE
  5
61D
  8
0
  6
CONTINUOUS
 62
     7
 10
-936.80175999999994
 20
682.86632999999995
 30
0.0
 11
-1006.6937
 21
682.86632999999995
 31
0.0
  0
LINE
  5
61E
  8
0
  6
CONTINUOUS
 62
     7
 10
-1007.9136999999999
 20
673.18628000000001
 30
0.0
 11
-935.57250999999985
 21
673.18628000000001
 31
0.0
  0
LINE
  5
61F
  8
0
  6
CONTINUOUS
 62
     7
 10
-936.80175999999994
 20
670.86632999999995
 30
0.0
 11
-1006.6937
 21
670.86632999999995
 31
0.0
  0
LINE
  5
620
  8
0
  6
CONTINUOUS
 62
     7
 10
-1007.9136999999999
 20
670.52637000000004
 30
0.0
 11
-935.57250999999985
 21
670.52637000000004
 31
0.0
  0
LINE
  5
621
  8
0
  6
CONTINUOUS
 62
     7
 10
-871.91100999999981
 20
662.86632999999995
 30
0.0
 11
-997.70812999999998
 21
662.86632999999995
 31
0.0
  0
LINE
  5
622
  8
0
  6
CONTINUOUS
 62
     7
 10
-998.78369000000032
 20
663.30627000000004
 30
0.0
 11
-868.20959000000005
 21
663.30627000000004
 31
0.0
  0
LINE
  5
623
  8
0
  6
CONTINUOUS
 62
     7
 10
-871.91100999999981
 20
660.86632999999995
 30
0.0
 11
-886.24376999999993
 21
660.86632999999995
 31
0.0
  0
LINE
  5
624
  8
0
  6
CONTINUOUS
 62
     7
 10
-871.90380999999979
 20
652.86632999999995
 30
0.0
 11
-886.24376999999993
 21
652.86632999999995
 31
0.0
  0
LINE
  5
625
  8
0
  6
CONTINUOUS
 62
     7
 10
-1007.9738
 20
680.59631000000002
 30
0.0
 11
-935.50867000000005
 21
680.59631000000002
 31
0.0
  0
LINE
  5
626
  8
0
  6
CONTINUOUS
 62
     7
 10
-1001.0345
 20
639.87292000000002
 30
0.0
 11
-1000.2495
 21
635.52625
 31
0.0
  0
LINE
  5
627
  8
0
  6
CONTINUOUS
 62
     7
 10
-1002.7295
 20
635.82628999999974
 30
0.0
 11
-1000.3094
 21
635.82628999999974
 31
0.0
  0
LINE
  5
628
  8
0
  6
CONTINUOUS
 62
     7
 10
-1000.2996000000001
 20
630.17633000000001
 30
0.0
 11
-1001.2595
 21
634.64629999999988
 31
0.0
  0
LINE
  5
629
  8
0
  6
CONTINUOUS
 62
     3
 10
-946.24376999999981
 20
614.86626999999999
 30
0.0
 11
-946.50933999999984
 21
625.00622999999985
 31
0.0
  0
LINE
  5
62A
  8
0
  6
CONTINUOUS
 62
     3
 10
-886.24376999999993
 20
614.86626999999999
 30
0.0
 11
-885.97826999999984
 21
625.00622999999985
 31
0.0
  0
LINE
  5
62B
  8
0
  6
CONTINUOUS
 62
     7
 10
-884.73021999999969
 20
616.86632999999995
 30
0.0
 11
-873.22753999999998
 21
616.86632999999995
 31
0.0
  0
LINE
  5
62C
  8
0
  6
CONTINUOUS
 62
     3
 10
-866.24376999999981
 20
626.36632999999995
 30
0.0
 11
-871.96954000000005
 21
617.54937999999981
 31
0.0
  0
LINE
  5
62D
  8
0
  6
CONTINUOUS
 62
     7
 10
-902.74377000000004
 20
659.36632999999995
 30
0.0
 11
-902.74377000000004
 21
654.36632999999995
 31
0.0
  0
LINE
  5
62E
  8
0
  6
CONTINUOUS
 62
     7
 10
-887.7437699999997
 20
659.36632999999995
 30
0.0
 11
-887.7437699999997
 21
654.36632999999995
 31
0.0
  0
LINE
  5
62F
  8
0
  6
CONTINUOUS
 62
     7
 10
-904.24376999999981
 20
660.86632999999995
 30
0.0
 11
-997.70812999999998
 21
660.86632999999995
 31
0.0
  0
LINE
  5
630
  8
0
  6
CONTINUOUS
 62
     7
 10
-903.22375
 20
659.36632999999995
 30
0.0
 11
-903.22375
 21
654.50635
 31
0.0
  0
LINE
  5
631
  8
0
  6
CONTINUOUS
 62
     7
 10
-887.26378999999986
 20
659.36632999999995
 30
0.0
 11
-887.26378999999986
 21
654.50635
 31
0.0
  0
LINE
  5
632
  8
0
  6
CONTINUOUS
 62
     7
 10
-886.24376999999993
 20
660.38634999999999
 30
0.0
 11
-868.20959000000005
 21
660.38634999999999
 31
0.0
  0
LINE
  5
633
  8
0
  6
CONTINUOUS
 62
     7
 10
-886.2637900000002
 20
653.50634999999966
 30
0.0
 11
-868.42382999999984
 21
653.50634999999966
 31
0.0
  0
LINE
  5
634
  8
0
  6
CONTINUOUS
 62
     7
 10
-887.26378999999986
 20
714.36632999999995
 30
0.0
 11
-887.26378999999986
 21
719.22631999999999
 31
0.0
  0
LINE
  5
635
  8
0
  6
CONTINUOUS
 62
     7
 10
-903.22375
 20
714.36632999999995
 30
0.0
 11
-903.22375
 21
719.22631999999999
 31
0.0
  0
LINE
  5
636
  8
0
  6
CONTINUOUS
 62
     7
 10
-887.7437699999997
 20
714.36632999999995
 30
0.0
 11
-887.7437699999997
 21
719.36632999999995
 31
0.0
  0
LINE
  5
637
  8
0
  6
CONTINUOUS
 62
     7
 10
-902.74377000000004
 20
714.36632999999995
 30
0.0
 11
-902.74377000000004
 21
719.36632999999995
 31
0.0
  0
LINE
  5
638
  8
0
  6
CONTINUOUS
 62
     7
 10
-904.24376999999981
 20
720.86632999999983
 30
0.0
 11
-997.69372999999985
 21
720.86632999999983
 31
0.0
  0
LINE
  5
639
  8
0
  6
CONTINUOUS
 62
     7
 10
-886.2637900000002
 20
720.23632999999995
 30
0.0
 11
-868.42382999999984
 21
720.23632999999995
 31
0.0
  0
LINE
  5
63A
  8
0
  6
CONTINUOUS
 62
     7
 10
-886.24376999999993
 20
713.35631999999998
 30
0.0
 11
-868.1981199999999
 21
713.35631999999998
 31
0.0
  0
LINE
  5
63B
  8
0
  6
CONTINUOUS
 62
     7
 10
-904.24376999999981
 20
712.86632999999995
 30
0.0
 11
-997.69372999999985
 21
712.86632999999995
 31
0.0
  0
LINE
  5
63C
  8
0
  6
CONTINUOUS
 62
     3
 10
-931.24377000000004
 20
707.36632999999995
 30
0.0
 11
-931.24377000000004
 21
666.36632999999995
 31
0.0
  0
LINE
  5
63D
  8
0
  6
CONTINUOUS
 62
     3
 10
-868.2437699999997
 20
707.36632999999995
 30
0.0
 11
-868.2437699999997
 21
666.36632999999995
 31
0.0
  0
LINE
  5
63E
  8
0
  6
CONTINUOUS
 62
     7
 10
-931.24377000000004
 20
707.36632999999995
 30
0.0
 11
-868.2437699999997
 21
707.36632999999995
 31
0.0
  0
LINE
  5
63F
  8
0
  6
CONTINUOUS
 62
     7
 10
-931.24377000000004
 20
666.36632999999995
 30
0.0
 11
-868.2437699999997
 21
666.36632999999995
 31
0.0
  0
LINE
  5
640
  8
0
  6
CONTINUOUS
 62
     7
 10
-931.24377000000004
 20
699.86632999999995
 30
0.0
 11
-868.2437699999997
 21
699.86632999999995
 31
0.0
  0
LINE
  5
641
  8
0
  6
CONTINUOUS
 62
     3
 10
-971.24376999999981
 20
733.21624999999983
 30
0.0
 11
-1002.2438
 21
731.18622000000005
 31
0.0
  0
LINE
  5
642
  8
0
  6
CONTINUOUS
 62
     3
 10
-971.24376999999981
 20
640.51629999999989
 30
0.0
 11
-1002.2438
 21
642.54625999999985
 31
0.0
  0
LINE
  5
643
  8
0
  6
CONTINUOUS
 62
     7
 10
-695.74377000000004
 20
547.12829999999985
 30
0.0
 11
-705.90088000000003
 21
547.66063999999994
 31
0.0
  0
LINE
  5
644
  8
0
  6
CONTINUOUS
 62
     7
 10
-695.74383999999998
 20
826.60424999999987
 30
0.0
 11
-705.90088000000003
 21
826.07195999999988
 31
0.0
  0
LINE
  5
645
  8
0
  6
CONTINUOUS
 62
     7
 10
-640.05627000000004
 20
759.76837
 30
0.0
 11
-597.74377000000004
 21
759.76837
 31
0.0
  0
LINE
  5
646
  8
0
  6
CONTINUOUS
 62
     7
 10
-695.74377000000004
 20
764.43206999999984
 30
0.0
 11
-643.94806000000017
 21
764.43206999999984
 31
0.0
  0
LINE
  5
647
  8
0
  6
CONTINUOUS
 62
     7
 10
-695.74383999999998
 20
826.60424999999987
 30
0.0
 11
-594.81024000000002
 21
828.83996999999988
 31
0.0
  0
LINE
  5
648
  8
0
  6
CONTINUOUS
 62
     7
 10
-695.74377000000004
 20
815.99669999999981
 30
0.0
 11
-597.74377000000004
 21
819.41887999999994
 31
0.0
  0
LINE
  5
649
  8
0
  6
CONTINUOUS
 62
     7
 10
-695.74377000000004
 20
738.43084999999985
 30
0.0
 11
-597.74377000000004
 21
738.43084999999985
 31
0.0
  0
LINE
  5
64A
  8
0
  6
CONTINUOUS
 62
     7
 10
-640.05627000000004
 20
613.96422999999982
 30
0.0
 11
-597.74377000000004
 21
613.96422999999982
 31
0.0
  0
LINE
  5
64B
  8
0
  6
CONTINUOUS
 62
     7
 10
-573.74377000000004
 20
707.86632999999995
 30
0.0
 11
-503.74380000000002
 21
707.86632999999995
 31
0.0
  0
LINE
  5
64C
  8
0
  6
CONTINUOUS
 62
     7
 10
-573.74377000000004
 20
665.86632999999995
 30
0.0
 11
-503.74380000000002
 21
665.86632999999995
 31
0.0
  0
LINE
  5
64D
  8
0
  6
CONTINUOUS
 62
     7
 10
-575.74383999999975
 20
709.36632999999995
 30
0.0
 11
-573.74377000000004
 21
709.36632999999995
 31
0.0
  0
LINE
  5
64E
  8
0
  6
CONTINUOUS
 62
     7
 10
-575.74383999999975
 20
664.36632999999995
 30
0.0
 11
-573.74377000000004
 21
664.36632999999995
 31
0.0
  0
LINE
  5
64F
  8
0
  6
CONTINUOUS
 62
     7
 10
-573.74377000000004
 20
664.36632999999995
 30
0.0
 11
-573.74377000000004
 21
709.36632999999995
 31
0.0
  0
LINE
  5
650
  8
0
  6
CONTINUOUS
 62
     7
 10
-503.74380000000002
 20
665.86632999999995
 30
0.0
 11
-503.74380000000002
 21
707.86632999999995
 31
0.0
  0
LINE
  5
651
  8
0
  6
CONTINUOUS
 62
     7
 10
-559.74377000000004
 20
692.86626999999999
 30
0.0
 11
-559.74377000000004
 21
680.86626999999999
 31
0.0
  0
LINE
  5
652
  8
0
  6
CONTINUOUS
 62
     7
 10
-559.74377000000004
 20
692.86626999999999
 30
0.0
 11
-503.74380000000002
 21
692.86626999999999
 31
0.0
  0
LINE
  5
653
  8
0
  6
CONTINUOUS
 62
     7
 10
-695.74377000000004
 20
557.73595999999998
 30
0.0
 11
-597.74377000000004
 21
554.31371999999999
 31
0.0
  0
LINE
  5
654
  8
0
  6
CONTINUOUS
 62
     7
 10
-695.74383999999998
 20
547.12835999999993
 30
0.0
 11
-594.81024000000002
 21
544.89269999999999
 31
0.0
  0
LINE
  5
655
  8
0
  6
CONTINUOUS
 62
     7
 10
-695.74377000000004
 20
609.30053999999996
 30
0.0
 11
-643.94806000000017
 21
609.30053999999996
 31
0.0
  0
LINE
  5
656
  8
0
  6
CONTINUOUS
 62
     7
 10
-559.74377000000004
 20
680.86626999999999
 30
0.0
 11
-503.74380000000002
 21
680.86626999999999
 31
0.0
  0
LINE
  5
657
  8
0
  6
CONTINUOUS
 62
     7
 10
-607.87518
 20
613.96422999999982
 30
0.0
 11
-597.74377000000004
 21
606.40612999999985
 31
0.0
  0
LINE
  5
658
  8
0
  6
CONTINUOUS
 62
     7
 10
-599.89116999999976
 20
589.86266999999998
 30
0.0
 11
-632.39398000000006
 21
609.30053999999996
 31
0.0
  0
LINE
  5
659
  8
0
  6
CONTINUOUS
 62
     7
 10
-600.17754999999988
 20
583.61968999999999
 30
0.0
 11
-641.59607000000017
 21
608.38953000000004
 31
0.0
  0
LINE
  5
65A
  8
0
  6
CONTINUOUS
 62
     7
 10
-594.84850999999981
 20
544.89374000000009
 30
0.0
 11
-579.74383999999975
 21
544.36626999999987
 31
0.0
  0
LINE
  5
65B
  8
0
  6
CONTINUOUS
 62
     7
 10
-597.74377000000004
 20
547.87531000000001
 30
0.0
 11
-597.74377000000004
 21
825.84069999999986
 31
0.0
  0
LINE
  5
65C
  8
0
  6
CONTINUOUS
 62
     7
 10
-579.74383999999975
 20
544.36632999999995
 30
0.0
 11
-579.74383999999975
 21
829.36626999999999
 31
0.0
  0
LINE
  5
65D
  8
0
  6
CONTINUOUS
 62
     7
 10
-594.84856999999988
 20
828.83887000000004
 30
0.0
 11
-579.74383999999975
 21
829.36632999999983
 31
0.0
  0
LINE
  5
65E
  8
0
  6
CONTINUOUS
 62
     7
 10
-589.7438400000002
 20
575.90899999999965
 30
0.0
 11
-589.7438400000002
 21
797.82360999999969
 31
0.0
  0
LINE
  5
65F
  8
0
  6
CONTINUOUS
 62
     7
 10
-575.74383999999975
 20
566.86632999999995
 30
0.0
 11
-575.74383999999975
 21
806.86626999999999
 31
0.0
  0
LINE
  5
660
  8
0
  6
CONTINUOUS
 62
     7
 10
-579.74383999999975
 20
806.86626999999999
 30
0.0
 11
-575.74383999999975
 21
806.86626999999999
 31
0.0
  0
LINE
  5
661
  8
0
  6
CONTINUOUS
 62
     7
 10
-579.74383999999975
 20
566.86632999999995
 30
0.0
 11
-575.74383999999975
 21
566.86632999999995
 31
0.0
  0
LINE
  5
662
  8
0
  6
CONTINUOUS
 62
     7
 10
-600.17754999999988
 20
790.11292000000003
 30
0.0
 11
-641.59607000000017
 21
765.34307999999965
 31
0.0
  0
LINE
  5
663
  8
0
  6
CONTINUOUS
 62
     7
 10
-599.89116999999976
 20
783.86992999999984
 30
0.0
 11
-632.39398000000006
 21
764.43213000000003
 31
0.0
  0
LINE
  5
664
  8
0
  6
CONTINUOUS
 62
     7
 10
-607.87518
 20
759.76842999999985
 30
0.0
 11
-597.7438400000002
 21
767.32647999999983
 31
0.0
  0
LINE
  5
665
  8
0
  6
CONTINUOUS
 62
     7
 10
-695.74377000000004
 20
635.30175999999994
 30
0.0
 11
-597.74377000000004
 21
635.30175999999994
 31
0.0
  0
LINE
  5
666
  8
0
  6
CENTER
 62
     7
 10
-739.75609999999983
 20
301.54793999999993
 30
0.0
 11
-495.79944
 21
301.54793999999993
 31
0.0
  0
LINE
  5
667
  8
0
  6
CONTINUOUS
 62
     7
 10
-701.82097999999996
 20
393.33574999999979
 30
0.0
 11
-703.45612000000006
 21
399.43801999999999
 31
0.0
  0
LINE
  5
668
  8
0
  6
CONTINUOUS
 62
     7
 10
-719.56090999999981
 20
400.048
 30
0.0
 11
-703.92669999999964
 21
400.048
 31
0.0
  0
LINE
  5
669
  8
0
  6
CONTINUOUS
 62
     7
 10
-749.50536999999974
 20
180.80838
 30
0.0
 11
-725.48242000000005
 21
178.70664999999991
 31
0.0
  0
LINE
  5
66A
  8
0
  6
CONTINUOUS
 62
     7
 10
-752.24384000000032
 20
183.79693999999981
 30
0.0
 11
-752.24384000000032
 21
200.54795999999999
 31
0.0
  0
LINE
  5
66B
  8
0
  6
CONTINUOUS
 62
     7
 10
-763.50098000000003
 20
337.32940999999983
 30
0.0
 11
-757.2438400000002
 21
337.54791
 31
0.0
  0
LINE
  5
66C
  8
0
  6
CONTINUOUS
 62
     7
 10
-757.24390000000005
 20
337.04797000000002
 30
0.0
 11
-727.56934000000001
 21
338.08422999999982
 31
0.0
  0
LINE
  5
66D
  8
0
  6
CONTINUOUS
 62
     7
 10
-757.2438400000002
 20
190.0479399999999
 30
0.0
 11
-755.13909999999964
 21
189.9744399999999
 31
0.0
  0
LINE
  5
66E
  8
0
  6
CONTINUOUS
 62
     7
 10
-697.74377000000004
 20
393.47815000000003
 30
0.0
 11
-697.74377000000004
 21
393.54797000000002
 31
0.0
  0
LINE
  5
66F
  8
0
  6
CONTINUOUS
 62
     7
 10
-719.24719000000005
 20
400.16262999999981
 30
0.0
 11
-711.74377000000004
 21
401.548
 31
0.0
  0
LINE
  5
670
  8
0
  6
CONTINUOUS
 62
     7
 10
-839.34850999999969
 20
328.31729000000001
 30
0.0
 11
-771.10419000000002
 21
330.70044000000001
 31
0.0
  0
LINE
  5
671
  8
0
  6
CONTINUOUS
 62
     7
 10
-697.74377000000004
 20
393.54797000000002
 30
0.0
 11
-695.74377000000004
 21
393.54797000000002
 31
0.0
  0
LINE
  5
672
  8
0
  6
CONTINUOUS
 62
     7
 10
-720.26470999999981
 20
380.62689
 30
0.0
 11
-711.22284000000002
 21
382.22118999999992
 31
0.0
  0
LINE
  5
673
  8
0
  6
CONTINUOUS
 62
     7
 10
-711.74384000000009
 20
401.548
 30
0.0
 11
-704.24041999999997
 21
400.16262999999981
 31
0.0
  0
LINE
  5
674
  8
0
  6
CONTINUOUS
 62
     7
 10
-722.06664999999998
 20
393.048
 30
0.0
 11
-707.41112999999984
 21
393.048
 31
0.0
  0
LINE
  5
675
  8
0
  6
CONTINUOUS
 62
     7
 10
-708.74383999999986
 20
135.9333
 30
0.0
 11
-708.74383999999986
 21
391.16262999999998
 31
0.0
  0
LINE
  5
676
  8
0
  6
CONTINUOUS
 62
     7
 10
-722.74377000000004
 20
149.42343
 30
0.0
 11
-722.74377000000004
 21
391.54797000000002
 31
0.0
  0
LINE
  5
677
  8
0
  6
CONTINUOUS
 62
     7
 10
-706.81365999999969
 20
393.16138000000001
 30
0.0
 11
-695.74383999999998
 21
393.54793999999993
 31
0.0
  0
LINE
  5
678
  8
0
  6
CONTINUOUS
 62
     7
 10
-721.74377000000004
 20
393.04797000000002
 30
0.0
 11
-720.03156000000001
 21
399.43804999999992
 31
0.0
  0
LINE
  5
679
  8
0
  6
CONTINUOUS
 62
     7
 10
-767.24383999999975
 20
302.36806999999988
 30
0.0
 11
-722.74377000000004
 21
302.36806999999988
 31
0.0
  0
LINE
  5
67A
  8
0
  6
CONTINUOUS
 62
     7
 10
-842.24383999999998
 20
325.31914999999992
 30
0.0
 11
-842.24383999999998
 21
281.83797999999967
 31
0.0
  0
LINE
  5
67B
  8
0
  6
CENTER
 62
     7
 10
-722.74377000000004
 20
227.33797000000001
 30
0.0
 11
-1024.985699999999
 21
227.33797000000001
 31
0.0
  0
LINE
  5
67C
  8
0
  6
CONTINUOUS
 62
     7
 10
-832.2438400000002
 20
234.34105999999991
 30
0.0
 11
-767.24383999999975
 21
234.34105999999991
 31
0.0
  0
LINE
  5
67D
  8
0
  6
CONTINUOUS
 62
     7
 10
-832.0693399999999
 20
196.29758000000001
 30
0.0
 11
-770.23870999999986
 21
194.13839999999999
 31
0.0
  0
LINE
  5
67E
  8
0
  6
CONTINUOUS
 62
     7
 10
-857.2438400000002
 20
278.83794999999998
 30
0.0
 11
-777.50609999999983
 21
278.83794999999998
 31
0.0
  0
LINE
  5
67F
  8
0
  6
CONTINUOUS
 62
     7
 10
-766.56255999999985
 20
189.87336999999999
 30
0.0
 11
-757.2438400000002
 21
189.5479399999999
 31
0.0
  0
LINE
  5
680
  8
0
  6
CONTINUOUS
 62
     7
 10
-857.2438400000002
 20
265.33425999999992
 30
0.0
 11
-781.35302999999999
 21
265.33425999999992
 31
0.0
  0
LINE
  5
681
  8
0
  6
CONTINUOUS
 62
     7
 10
-857.2438400000002
 20
163.33795000000001
 30
0.0
 11
-857.2438400000002
 21
291.33794999999992
 31
0.0
  0
LINE
  5
682
  8
0
  6
CONTINUOUS
 62
     7
 10
-787.24805000000003
 20
311.54361
 30
0.0
 11
-768.41534000000001
 21
330.37630999999982
 31
0.0
  0
LINE
  5
683
  8
0
  6
CONTINUOUS
 62
     7
 10
-781.35297000000003
 20
265.33425999999992
 30
0.0
 11
-774.67772999999988
 21
272.00952000000001
 31
0.0
  0
LINE
  5
684
  8
0
  6
CONTINUOUS
 62
     7
 10
-788.36217999999985
 20
310.42952999999989
 30
0.0
 11
-788.36217999999985
 21
278.83794999999998
 31
0.0
  0
LINE
  5
685
  8
0
  6
CONTINUOUS
 62
     7
 10
-857.2438400000002
 20
175.83795000000001
 30
0.0
 11
-837.24384000000009
 21
175.83795000000001
 31
0.0
  0
LINE
  5
686
  8
0
  6
CONTINUOUS
 62
     7
 10
-857.2438400000002
 20
189.3416399999999
 30
0.0
 11
-837.24384000000009
 21
189.3416399999999
 31
0.0
  0
LINE
  5
687
  8
0
  6
CONTINUOUS
 62
     7
 10
-857.2438400000002
 20
163.33795000000001
 30
0.0
 11
-841.10424999999998
 21
163.90154999999999
 31
0.0
  0
LINE
  5
688
  8
0
  6
CONTINUOUS
 62
     7
 10
-857.2438400000002
 20
291.33794999999992
 30
0.0
 11
-847.06939999999975
 21
291.69323999999972
 31
0.0
  0
LINE
  5
689
  8
0
  6
CONTINUOUS
 62
     7
 10
-837.24384000000009
 20
229.34106
 30
0.0
 11
-837.24384000000009
 21
167.89911000000001
 31
0.0
  0
LINE
  5
68A
  8
0
  6
CONTINUOUS
 62
     7
 10
-781.35297000000003
 20
265.33425999999992
 30
0.0
 11
-767.24377000000004
 21
238.15210999999999
 31
0.0
  0
LINE
  5
68B
  8
0
  6
CONTINUOUS
 62
     7
 10
-767.24383999999975
 20
326.54793999999993
 30
0.0
 11
-722.74377000000004
 21
326.54793999999993
 31
0.0
  0
LINE
  5
68C
  8
0
  6
CONTINUOUS
 62
     7
 10
-837.41832999999986
 20
308.71645999999993
 30
0.0
 11
-789.93695000000002
 21
310.37453999999991
 31
0.0
  0
LINE
  5
68D
  8
0
  6
CONTINUOUS
 62
     7
 10
-757.2438400000002
 20
189.54796999999991
 30
0.0
 11
-757.2438400000002
 21
337.54797000000002
 31
0.0
  0
LINE
  5
68E
  8
0
  6
CONTINUOUS
 62
     7
 10
-767.24383999999975
 20
192.6256699999999
 30
0.0
 11
-767.24383999999975
 21
334.29427999999967
 31
0.0
  0
LINE
  5
68F
  8
0
  6
CONTINUOUS
 62
     7
 10
-967.24383999999998
 20
180.98795999999999
 30
0.0
 11
-1002.2438
 21
183.0179599999999
 31
0.0
  0
LINE
  5
690
  8
0
  6
CONTINUOUS
 62
     7
 10
-967.24377000000015
 20
273.68795999999992
 30
0.0
 11
-1002.2438
 21
271.65796
 31
0.0
  0
LINE
  5
691
  8
0
  6
CONTINUOUS
 62
     3
 10
-1014.9639
 20
179.69797
 30
0.0
 11
-1012.2438
 21
179.69797
 31
0.0
  0
LINE
  5
692
  8
0
  6
CONTINUOUS
 62
     3
 10
-1015.4738
 20
177.72797
 30
0.0
 11
-1016.7438
 21
178.45796000000001
 31
0.0
  0
LINE
  5
693
  8
0
  6
CONTINUOUS
 62
     3
 10
-1012.2438
 20
169.90794
 30
0.0
 11
-1009.4238
 21
169.83794
 31
0.0
  0
LINE
  5
694
  8
0
  6
CONTINUOUS
 62
     3
 10
-1015.4939000000001
 20
184.3779899999999
 30
0.0
 11
-1016.7939
 21
185.22800000000001
 31
0.0
  0
LINE
  5
695
  8
0
  6
CONTINUOUS
 62
     3
 10
-1015.483799999999
 20
179.8379699999999
 30
0.0
 11
-1016.7639
 21
180.60799
 31
0.0
  0
LINE
  5
696
  8
0
  6
CONTINUOUS
 62
     3
 10
-1014.973799999999
 20
177.58795000000001
 30
0.0
 11
-1012.7437999999991
 21
177.58795000000001
 31
0.0
  0
LINE
  5
697
  8
0
  6
CONTINUOUS
 62
     3
 10
-1015.0038
 20
178.7379599999999
 30
0.0
 11
-1012.7437999999991
 21
178.7379599999999
 31
0.0
  0
LINE
  5
698
  8
0
  6
CONTINUOUS
 62
     3
 10
-1015.4539
 20
178.84796
 30
0.0
 11
-1016.693899999999
 21
179.47799999999981
 31
0.0
  0
LINE
  5
699
  8
0
  6
CONTINUOUS
 62
     3
 10
-1014.973799999999
 20
185.3579899999998
 30
0.0
 11
-1013.2438
 21
185.3579899999998
 31
0.0
  0
LINE
  5
69A
  8
0
  6
CONTINUOUS
 62
     3
 10
-1014.943799999999
 20
184.21797000000001
 30
0.0
 11
-1012.2438
 21
184.21797000000001
 31
0.0
  0
LINE
  5
69B
  8
0
  6
CONTINUOUS
 62
     3
 10
-1014.9938
 20
180.83795000000001
 30
0.0
 11
-1013.2438
 21
180.83795000000001
 31
0.0
  0
LINE
  5
69C
  8
0
  6
CONTINUOUS
 62
     3
 10
-1015.4738
 20
185.48795000000001
 30
0.0
 11
-1016.7538
 21
186.2379599999999
 31
0.0
  0
LINE
  5
69D
  8
0
  6
CONTINUOUS
 62
     3
 10
-864.24377000000004
 20
163.8379799999999
 30
0.0
 11
-857.2438400000002
 21
163.8379799999999
 31
0.0
  0
LINE
  5
69E
  8
0
  6
CONTINUOUS
 62
     3
 10
-864.24377000000004
 20
175.29798999999991
 30
0.0
 11
-857.2438400000002
 21
175.29798999999991
 31
0.0
  0
LINE
  5
69F
  8
0
  6
CONTINUOUS
 62
     3
 10
-967.24383999999998
 20
180.98799
 30
0.0
 11
-865.2438400000002
 21
180.98799
 31
0.0
  0
LINE
  5
6A0
  8
0
  6
CONTINUOUS
 62
     3
 10
-865.5338099999999
 20
176.3079699999999
 30
0.0
 11
-867.94378999999981
 21
176.3079699999999
 31
0.0
  0
LINE
  5
6A1
  8
0
  6
CONTINUOUS
 62
     3
 10
-868.44379000000004
 20
168.41794999999991
 30
0.0
 11
-867.00378000000012
 21
175.1179699999999
 31
0.0
  0
LINE
  5
6A2
  8
0
  6
CONTINUOUS
 62
     3
 10
-870.53375000000005
 20
166.8379799999999
 30
0.0
 11
-865.2438400000002
 21
166.8379799999999
 31
0.0
  0
LINE
  5
6A3
  8
0
  6
CONTINUOUS
 62
     3
 10
-963.24376999999981
 20
197.3379699999999
 30
0.0
 11
-875.47382000000005
 21
197.3379699999999
 31
0.0
  0
LINE
  5
6A4
  8
0
  6
CONTINUOUS
 62
     3
 10
-1007.5638
 20
193.96796000000001
 30
0.0
 11
-959.24377000000015
 21
193.96796000000001
 31
0.0
  0
LINE
  5
6A5
  8
0
  6
CONTINUOUS
 62
     3
 10
-916.24383999999986
 20
191.3379799999999
 30
0.0
 11
-1006.6938
 21
191.3379799999999
 31
0.0
  0
LINE
  5
6A6
  8
0
  6
CONTINUOUS
 62
     3
 10
-916.24383999999986
 20
190.6179699999999
 30
0.0
 11
-868.42382999999984
 21
190.6179699999999
 31
0.0
  0
LINE
  5
6A7
  8
0
  6
CONTINUOUS
 62
     3
 10
-1007.5638
 20
190.6179699999999
 30
0.0
 11
-916.24383999999986
 21
190.6179699999999
 31
0.0
  0
LINE
  5
6A8
  8
0
  6
CONTINUOUS
 62
     3
 10
-1012.2438
 20
193.03796
 30
0.0
 11
-1009.0738
 21
193.03796
 31
0.0
  0
LINE
  5
6A9
  8
0
  6
CONTINUOUS
 62
     3
 10
-1006.0739
 20
169.07796999999999
 30
0.0
 11
-992.74384000000009
 21
169.07796999999999
 31
0.0
  0
LINE
  5
6AA
  8
0
  6
CONTINUOUS
 62
     3
 10
-989.24377000000004
 20
165.47796999999991
 30
0.0
 11
-872.43384000000003
 21
165.47796999999991
 31
0.0
  0
LINE
  5
6AB
  8
0
  6
CONTINUOUS
 62
     3
 10
-1006.133799999999
 20
164.03798999999981
 30
0.0
 11
-992.63384999999994
 21
164.03798999999981
 31
0.0
  0
LINE
  5
6AC
  8
0
  6
CONTINUOUS
 62
     3
 10
-1006.0137999999999
 20
174.35796999999991
 30
0.0
 11
-992.74384000000009
 21
174.35796999999991
 31
0.0
  0
LINE
  5
6AD
  8
0
  6
CONTINUOUS
 62
     3
 10
-1008.523899999999
 20
178.98797999999999
 30
0.0
 11
-1007.9838
 21
175.99796000000001
 31
0.0
  0
LINE
  5
6AE
  8
0
  6
CONTINUOUS
 62
     3
 10
-1015.2438
 20
184.50797
 30
0.0
 11
-1015.2438
 21
184.97797
 31
0.0
  0
LINE
  5
6AF
  8
0
  6
CONTINUOUS
 62
     3
 10
-1012.2438
 20
178.98797999999999
 30
0.0
 11
-1002.2438
 21
178.98797999999999
 31
0.0
  0
LINE
  5
6B0
  8
0
  6
CONTINUOUS
 62
     3
 10
-1015.2438
 20
179.9379599999998
 30
0.0
 11
-1015.2438
 21
180.4879599999999
 31
0.0
  0
LINE
  5
6B1
  8
0
  6
CONTINUOUS
 62
     3
 10
-1015.4638
 20
180.95797999999991
 30
0.0
 11
-1016.7137
 21
181.61794
 31
0.0
  0
LINE
  5
6B2
  8
0
  6
CONTINUOUS
 62
     3
 10
-1002.2438
 20
178.98797999999999
 30
0.0
 11
-1002.2438
 21
193.03796
 31
0.0
  0
LINE
  5
6B3
  8
0
  6
CONTINUOUS
 62
     3
 10
-1015.2438
 20
177.8379699999999
 30
0.0
 11
-1015.2438
 21
178.3679799999999
 31
0.0
  0
LINE
  5
6B4
  8
0
  6
CONTINUOUS
 62
     3
 10
-870.5037199999997
 20
166.95795000000001
 30
0.0
 11
-867.04375999999968
 21
179.87793999999991
 31
0.0
  0
LINE
  5
6B5
  8
0
  6
CONTINUOUS
 62
     3
 10
-1008.0738
 20
165.54796999999979
 30
0.0
 11
-1008.9638
 21
169.08794
 31
0.0
  0
LINE
  5
6B6
  8
0
  6
CONTINUOUS
 62
     3
 10
-1008.0538
 20
167.20798999999991
 30
0.0
 11
-1008.9738
 21
171.0879799999999
 31
0.0
  0
LINE
  5
6B7
  8
0
  6
CONTINUOUS
 62
     3
 10
-934.24383999999998
 20
163.42795000000001
 30
0.0
 11
-934.24383999999998
 21
165.47796999999991
 31
0.0
  0
LINE
  5
6B8
  8
0
  6
CONTINUOUS
 62
     3
 10
-991.24383999999986
 20
165.44798
 30
0.0
 11
-991.24383999999986
 21
172.85795999999991
 31
0.0
  0
LINE
  5
6B9
  8
0
  6
CONTINUOUS
 62
     3
 10
-1010.4138
 20
170.21796000000001
 30
0.0
 11
-1008.7637999999999
 21
170.21796000000001
 31
0.0
  0
LINE
  5
6BA
  8
0
  6
CENTER
 62
     7
 10
-916.24383999999986
 20
265.93799000000001
 30
0.0
 11
-916.24383999999986
 21
184.68797000000001
 31
0.0
  0
LINE
  5
6BB
  8
0
  6
CONTINUOUS
 62
     7
 10
-884.74384000000009
 20
195.83795000000001
 30
0.0
 11
-884.74384000000009
 21
258.83797999999979
 31
0.0
  0
LINE
  5
6BC
  8
0
  6
CONTINUOUS
 62
     3
 10
-967.24383999999998
 20
273.68795999999992
 30
0.0
 11
-865.2438400000002
 21
273.68795999999992
 31
0.0
  0
LINE
  5
6BD
  8
0
  6
CONTINUOUS
 62
     3
 10
-865.2438400000002
 20
289.83797999999967
 30
0.0
 11
-865.2438400000002
 21
164.8379699999999
 31
0.0
  0
LINE
  5
6BE
  8
0
  6
CONTINUOUS
 62
     3
 10
-884.97381999999993
 20
197.06792999999999
 30
0.0
 11
-875.47388000000012
 21
197.3379399999998
 31
0.0
  0
LINE
  5
6BF
  8
0
  6
CONTINUOUS
 62
     3
 10
-864.24377000000004
 20
290.83794999999992
 30
0.0
 11
-857.2438400000002
 21
290.83794999999992
 31
0.0
  0
LINE
  5
6C0
  8
0
  6
CONTINUOUS
 62
     7
 10
-933.26379000000009
 20
250.3379699999999
 30
0.0
 11
-893.2437699999997
 21
250.3379699999999
 31
0.0
  0
LINE
  5
6C1
  8
0
  6
CONTINUOUS
 62
     3
 10
-865.2438400000002
 20
264.48797999999999
 30
0.0
 11
-857.2438400000002
 21
264.48797999999999
 31
0.0
  0
LINE
  5
6C2
  8
0
  6
CONTINUOUS
 62
     3
 10
-864.24377000000004
 20
279.37795999999992
 30
0.0
 11
-857.2438400000002
 21
279.37795999999992
 31
0.0
  0
LINE
  5
6C3
  8
0
  6
CONTINUOUS
 62
     3
 10
-865.2438400000002
 20
190.18797000000001
 30
0.0
 11
-857.2438400000002
 21
190.18797000000001
 31
0.0
  0
LINE
  5
6C4
  8
0
  6
CONTINUOUS
 62
     3
 10
-875.47382000000005
 20
257.3379799999999
 30
0.0
 11
-875.47382000000005
 21
197.3379699999999
 31
0.0
  0
LINE
  5
6C5
  8
0
  6
CONTINUOUS
 62
     3
 10
-1012.2438
 20
284.76801
 30
0.0
 11
-1009.4238
 21
284.83800999999988
 31
0.0
  0
LINE
  5
6C6
  8
0
  6
CONTINUOUS
 62
     3
 10
-1012.2438
 20
284.76796999999999
 30
0.0
 11
-1012.2438
 21
227.33797000000001
 31
0.0
  0
LINE
  5
6C7
  8
0
  6
CONTINUOUS
 62
     3
 10
-1017.2437999999991
 20
275.35799999999989
 30
0.0
 11
-1017.2437999999991
 21
232.33797000000001
 31
0.0
  0
LINE
  5
6C8
  8
0
  6
CONTINUOUS
 62
     3
 10
-1014.973799999999
 20
277.0879799999999
 30
0.0
 11
-1012.7437999999991
 21
277.0879799999999
 31
0.0
  0
LINE
  5
6C9
  8
0
  6
CONTINUOUS
 62
     3
 10
-871.90386999999964
 20
191.3379799999999
 30
0.0
 11
-916.24383999999986
 21
191.3379799999999
 31
0.0
  0
LINE
  5
6CA
  8
0
  6
CONTINUOUS
 62
     3
 10
-1015.0438
 20
263.02797999999967
 30
0.0
 11
-1012.9438
 21
263.02797999999967
 31
0.0
  0
LINE
  5
6CB
  8
0
  6
CONTINUOUS
 62
     3
 10
-1015.4738
 20
276.95794999999998
 30
0.0
 11
-1016.7438
 21
276.21792999999991
 31
0.0
  0
LINE
  5
6CC
  8
0
  6
CONTINUOUS
 62
     3
 10
-1015.483799999999
 20
274.83794999999992
 30
0.0
 11
-1016.7637999999999
 21
274.0679899999999
 31
0.0
  0
LINE
  5
6CD
  8
0
  6
CONTINUOUS
 62
     3
 10
-1015.4938
 20
270.29797000000002
 30
0.0
 11
-1016.7938
 21
269.44799999999992
 31
0.0
  0
LINE
  5
6CE
  8
0
  6
CONTINUOUS
 62
     3
 10
-1015.4338
 20
262.94797
 30
0.0
 11
-1016.633799999999
 21
262.43799000000001
 31
0.0
  0
LINE
  5
6CF
  8
0
  6
CONTINUOUS
 62
     3
 10
-1014.9639
 20
274.97797000000003
 30
0.0
 11
-1012.2438
 21
274.97797000000003
 31
0.0
  0
LINE
  5
6D0
  8
0
  6
CONTINUOUS
 62
     3
 10
-1014.943799999999
 20
270.46795999999989
 30
0.0
 11
-1012.2438
 21
270.46795999999989
 31
0.0
  0
LINE
  5
6D1
  8
0
  6
CONTINUOUS
 62
     3
 10
-1015.0938999999991
 20
261.07796999999999
 30
0.0
 11
-1013.2438
 21
261.07796999999999
 31
0.0
  0
LINE
  5
6D2
  8
0
  6
CONTINUOUS
 62
     3
 10
-1014.973799999999
 20
269.32796999999999
 30
0.0
 11
-1013.2438
 21
269.32796999999999
 31
0.0
  0
LINE
  5
6D3
  8
0
  6
CONTINUOUS
 62
     3
 10
-1014.9938
 20
273.8379799999999
 30
0.0
 11
-1013.2438
 21
273.8379799999999
 31
0.0
  0
LINE
  5
6D4
  8
0
  6
CONTINUOUS
 62
     3
 10
-1015.0038
 20
275.93799000000001
 30
0.0
 11
-1012.7437999999991
 21
275.93799000000001
 31
0.0
  0
LINE
  5
6D5
  8
0
  6
CONTINUOUS
 62
     3
 10
-1015.473899999999
 20
269.18792999999999
 30
0.0
 11
-1016.7538
 21
268.43795999999992
 31
0.0
  0
LINE
  5
6D6
  8
0
  6
CONTINUOUS
 62
     3
 10
-1015.3839
 20
261.03789999999998
 30
0.0
 11
-1016.5338
 21
260.68790000000001
 31
0.0
  0
LINE
  5
6D7
  8
0
  6
CONTINUOUS
 62
     3
 10
-1015.4538
 20
275.83794999999992
 30
0.0
 11
-1016.6937
 21
275.20797999999991
 31
0.0
  0
LINE
  5
6D8
  8
0
  6
CONTINUOUS
 62
     3
 10
-1015.4638
 20
273.72793999999982
 30
0.0
 11
-1016.7138
 21
273.05795000000001
 31
0.0
  0
LINE
  5
6D9
  8
0
  6
CONTINUOUS
 62
     3
 10
-1013.2438
 20
253.33795000000001
 30
0.0
 11
-1016.2438
 21
253.33795000000001
 31
0.0
  0
LINE
  5
6DA
  8
0
  6
CONTINUOUS
 62
     3
 10
-1013.2438
 20
251.33797999999999
 30
0.0
 11
-1016.2438
 21
251.33797999999999
 31
0.0
  0
LINE
  5
6DB
  8
0
  6
CONTINUOUS
 62
     3
 10
-1013.2438
 20
243.33799999999999
 30
0.0
 11
-1016.2438
 21
243.33799999999999
 31
0.0
  0
LINE
  5
6DC
  8
0
  6
CONTINUOUS
 62
     3
 10
-1013.2438
 20
241.33795000000001
 30
0.0
 11
-1016.2438
 21
241.33795000000001
 31
0.0
  0
LINE
  5
6DD
  8
0
  6
CONTINUOUS
 62
     3
 10
-1013.2438
 20
233.33794999999989
 30
0.0
 11
-1016.2438
 21
233.33794999999989
 31
0.0
  0
LINE
  5
6DE
  8
0
  6
CONTINUOUS
 62
     3
 10
-1013.2438
 20
231.3379799999999
 30
0.0
 11
-1016.2438
 21
231.3379799999999
 31
0.0
  0
LINE
  5
6DF
  8
0
  6
CONTINUOUS
 62
     3
 10
-1015.2438
 20
242.9479799999998
 30
0.0
 11
-1015.2438
 21
241.73798999999991
 31
0.0
  0
LINE
  5
6E0
  8
0
  6
CONTINUOUS
 62
     3
 10
-1015.2438
 20
232.9479799999998
 30
0.0
 11
-1015.2438
 21
231.78795999999991
 31
0.0
  0
LINE
  5
6E1
  8
0
  6
CONTINUOUS
 62
     3
 10
-1015.2438
 20
252.96796999999989
 30
0.0
 11
-1015.2438
 21
251.59799000000001
 31
0.0
  0
LINE
  5
6E2
  8
0
  6
CONTINUOUS
 62
     3
 10
-1015.2438
 20
262.72800000000001
 30
0.0
 11
-1015.2438
 21
261.66800000000001
 31
0.0
  0
LINE
  5
6E3
  8
0
  6
CONTINUOUS
 62
     3
 10
-1015.2438
 20
270.16797000000003
 30
0.0
 11
-1015.2438
 21
269.69796999999988
 31
0.0
  0
LINE
  5
6E4
  8
0
  6
CONTINUOUS
 62
     3
 10
-1015.2438
 20
274.73797999999999
 30
0.0
 11
-1015.2438
 21
274.18799000000001
 31
0.0
  0
LINE
  5
6E5
  8
0
  6
CONTINUOUS
 62
     3
 10
-1015.2438
 20
276.8379799999999
 30
0.0
 11
-1015.2438
 21
276.30794999999989
 31
0.0
  0
LINE
  5
6E6
  8
0
  6
CONTINUOUS
 62
     3
 10
-1018.7437999999991
 20
247.33797000000001
 30
0.0
 11
-1018.7437999999991
 21
227.33797000000001
 31
0.0
  0
LINE
  5
6E7
  8
0
  6
CONTINUOUS
 62
     3
 10
-1018.7437999999991
 20
247.33797000000001
 30
0.0
 11
-1017.2439000000001
 21
247.46795999999989
 31
0.0
  0
LINE
  5
6E8
  8
0
  6
CONTINUOUS
 62
     3
 10
-1018.7437999999991
 20
244.6179799999999
 30
0.0
 11
-1017.2437999999991
 21
244.6179799999999
 31
0.0
  0
LINE
  5
6E9
  8
0
  6
CONTINUOUS
 62
     7
 10
-939.24377000000004
 20
204.3379799999999
 30
0.0
 11
-899.22381999999993
 21
204.3379799999999
 31
0.0
  0
LINE
  5
6EA
  8
0
  6
CONTINUOUS
 62
     7
 10
-964.74383999999998
 20
258.83797999999979
 30
0.0
 11
-959.24377000000015
 21
258.83797999999979
 31
0.0
  0
LINE
  5
6EB
  8
0
  6
CONTINUOUS
 62
     7
 10
-964.74383999999998
 20
195.83795000000001
 30
0.0
 11
-964.74383999999998
 21
219.83797000000001
 31
0.0
  0
LINE
  5
6EC
  8
0
  6
CONTINUOUS
 62
     7
 10
-938.74383999999998
 20
247.77795
 30
0.0
 11
-938.74383999999998
 21
251.7979599999999
 31
0.0
  0
LINE
  5
6ED
  8
0
  6
CONTINUOUS
 62
     7
 10
-964.74383999999998
 20
195.83795000000001
 30
0.0
 11
-959.24377000000015
 21
195.83795000000001
 31
0.0
  0
LINE
  5
6EE
  8
0
  6
CONTINUOUS
 62
     7
 10
-893.74384000000032
 20
202.77795
 30
0.0
 11
-893.74384000000032
 21
206.80799999999999
 31
0.0
  0
LINE
  5
6EF
  8
0
  6
CONTINUOUS
 62
     3
 10
-1002.2438
 20
275.68795999999992
 30
0.0
 11
-1002.2438
 21
261.6479799999999
 31
0.0
  0
LINE
  5
6F0
  8
0
  6
CONTINUOUS
 62
     3
 10
-1012.2438
 20
261.6479799999999
 30
0.0
 11
-1002.2438
 21
261.6479799999999
 31
0.0
  0
LINE
  5
6F1
  8
0
  6
CONTINUOUS
 62
     3
 10
-1012.2438
 20
270.0279799999999
 30
0.0
 11
-1002.2438
 21
270.0279799999999
 31
0.0
  0
LINE
  5
6F2
  8
0
  6
CONTINUOUS
 62
     3
 10
-1012.2438
 20
275.68795999999992
 30
0.0
 11
-1002.2438
 21
275.68795999999992
 31
0.0
  0
LINE
  5
6F3
  8
0
  6
CONTINUOUS
 62
     7
 10
-893.2437699999997
 20
210.31797999999989
 30
0.0
 11
-893.2437699999997
 21
250.3379699999999
 31
0.0
  0
LINE
  5
6F4
  8
0
  6
CONTINUOUS
 62
     7
 10
-944.24377000000015
 20
193.8379799999999
 30
0.0
 11
-944.24377000000015
 21
197.3379699999999
 31
0.0
  0
LINE
  5
6F5
  8
0
  6
CONTINUOUS
 62
     7
 10
-895.87378000000012
 20
204.8379699999999
 30
0.0
 11
-891.66381999999987
 21
204.8379699999999
 31
0.0
  0
LINE
  5
6F6
  8
0
  6
CONTINUOUS
 62
     7
 10
-934.04381999999987
 20
245.1379499999999
 30
0.0
 11
-898.44384999999988
 21
245.1379499999999
 31
0.0
  0
LINE
  5
6F7
  8
0
  6
CONTINUOUS
 62
     7
 10
-934.04381999999987
 20
209.53797999999989
 30
0.0
 11
-898.44384999999988
 21
209.53797999999989
 31
0.0
  0
LINE
  5
6F8
  8
0
  6
CONTINUOUS
 62
     7
 10
-898.44384999999988
 20
209.53797999999989
 30
0.0
 11
-898.44384999999988
 21
245.1379499999999
 31
0.0
  0
LINE
  5
6F9
  8
0
  6
CONTINUOUS
 62
     7
 10
-934.04381999999987
 20
209.53797999999989
 30
0.0
 11
-934.04381999999987
 21
245.1379499999999
 31
0.0
  0
LINE
  5
6FA
  8
0
  6
CONTINUOUS
 62
     7
 10
-963.24376999999981
 20
257.3379799999999
 30
0.0
 11
-875.47382000000005
 21
257.3379799999999
 31
0.0
  0
LINE
  5
6FB
  8
0
  6
CONTINUOUS
 62
     7
 10
-944.24377000000015
 20
258.83797999999979
 30
0.0
 11
-884.74384000000009
 21
258.83797999999979
 31
0.0
  0
LINE
  5
6FC
  8
0
  6
CONTINUOUS
 62
     7
 10
-944.24377000000015
 20
195.83795000000001
 30
0.0
 11
-884.74384000000009
 21
195.83795000000001
 31
0.0
  0
LINE
  5
6FD
  8
0
  6
CONTINUOUS
 62
     7
 10
-886.24383999999998
 20
197.3379699999999
 30
0.0
 11
-886.24383999999998
 21
257.3379799999999
 31
0.0
  0
LINE
  5
6FE
  8
0
  6
CONTINUOUS
 62
     7
 10
-963.24376999999981
 20
197.3379699999999
 30
0.0
 11
-963.24376999999981
 21
257.3379799999999
 31
0.0
  0
LINE
  5
6FF
  8
0
  6
CONTINUOUS
 62
     3
 10
-964.74383999999998
 20
213.33799999999991
 30
0.0
 11
-1006.6938
 21
213.33799999999991
 31
0.0
  0
LINE
  5
700
  8
0
  6
CONTINUOUS
 62
     7
 10
-959.24377000000015
 20
260.83794999999992
 30
0.0
 11
-959.24377000000015
 21
257.3379799999999
 31
0.0
  0
LINE
  5
701
  8
0
  6
CONTINUOUS
 62
     7
 10
-966.74376999999981
 20
234.83797000000001
 30
0.0
 11
-963.24376999999981
 21
234.83797000000001
 31
0.0
  0
LINE
  5
702
  8
0
  6
CONTINUOUS
 62
     7
 10
-966.74376999999981
 20
219.83797000000001
 30
0.0
 11
-966.74376999999981
 21
234.83797000000001
 31
0.0
  0
LINE
  5
703
  8
0
  6
CONTINUOUS
 62
     7
 10
-966.74376999999981
 20
219.83797000000001
 30
0.0
 11
-963.24376999999981
 21
219.83797000000001
 31
0.0
  0
LINE
  5
704
  8
0
  6
CONTINUOUS
 62
     7
 10
-959.24377000000015
 20
193.8379799999999
 30
0.0
 11
-959.24377000000015
 21
197.3379699999999
 31
0.0
  0
LINE
  5
705
  8
0
  6
CONTINUOUS
 62
     3
 10
-989.24377000000004
 20
289.19796999999983
 30
0.0
 11
-872.43384000000003
 21
289.19796999999983
 31
0.0
  0
LINE
  5
706
  8
0
  6
CONTINUOUS
 62
     3
 10
-1006.0137999999999
 20
280.31796000000003
 30
0.0
 11
-992.74384000000009
 21
280.31796000000003
 31
0.0
  0
LINE
  5
707
  8
0
  6
CONTINUOUS
 62
     3
 10
-1008.5238000000001
 20
275.68799000000001
 30
0.0
 11
-1007.9838
 21
278.67797999999999
 31
0.0
  0
LINE
  5
708
  8
0
  6
CONTINUOUS
 62
     3
 10
-1006.0739
 20
285.60797000000002
 30
0.0
 11
-992.74384000000009
 21
285.60797000000002
 31
0.0
  0
LINE
  5
709
  8
0
  6
CONTINUOUS
 62
     7
 10
-944.24377000000015
 20
193.8379799999999
 30
0.0
 11
-959.24377000000015
 21
193.8379799999999
 31
0.0
  0
LINE
  5
70A
  8
0
  6
CONTINUOUS
 62
     3
 10
-1006.103799999998
 20
289.00797
 30
0.0
 11
-992.74384000000009
 21
289.00797
 31
0.0
  0
LINE
  5
70B
  8
0
  6
CONTINUOUS
 62
     3
 10
-1006.133799999999
 20
290.63794000000001
 30
0.0
 11
-992.63384999999994
 21
290.63794000000001
 31
0.0
  0
LINE
  5
70C
  8
0
  6
CONTINUOUS
 62
     3
 10
-989.24377000000004
 20
293.25797
 30
0.0
 11
-936.24383999999998
 21
293.25797
 31
0.0
  0
LINE
  5
70D
  8
0
  6
CONTINUOUS
 62
     3
 10
-989.24377000000004
 20
292.57794000000001
 30
0.0
 11
-936.24383999999998
 21
292.57794000000001
 31
0.0
  0
LINE
  5
70E
  8
0
  6
CONTINUOUS
 62
     3
 10
-989.24377000000004
 20
291.22797000000008
 30
0.0
 11
-936.24383999999998
 21
291.22797000000008
 31
0.0
  0
LINE
  5
70F
  8
0
  6
CONTINUOUS
 62
     3
 10
-1010.4538
 20
278.37795999999992
 30
0.0
 11
-1008.0438
 21
278.37795999999992
 31
0.0
  0
LINE
  5
710
  8
0
  6
CONTINUOUS
 62
     3
 10
-1008.0339
 20
284.02797999999967
 30
0.0
 11
-1008.9938
 21
279.55797999999999
 31
0.0
  0
LINE
  5
711
  8
0
  6
CONTINUOUS
 62
     3
 10
-1010.4338
 20
282.43799000000001
 30
0.0
 11
-1008.3737999999991
 21
282.43799000000001
 31
0.0
  0
LINE
  5
712
  8
0
  6
CONTINUOUS
 62
     3
 10
-871.90386999999964
 20
263.33794999999992
 30
0.0
 11
-997.69379000000015
 21
263.33794999999992
 31
0.0
  0
LINE
  5
713
  8
0
  6
CONTINUOUS
 62
     3
 10
-871.90386999999964
 20
261.3379799999999
 30
0.0
 11
-997.69379000000015
 21
261.3379799999999
 31
0.0
  0
LINE
  5
714
  8
0
  6
CONTINUOUS
 62
     3
 10
-964.74383999999998
 20
253.33795000000001
 30
0.0
 11
-997.69379000000015
 21
253.33795000000001
 31
0.0
  0
LINE
  5
715
  8
0
  6
CONTINUOUS
 62
     3
 10
-1008.0538
 20
287.46798999999982
 30
0.0
 11
-1008.9738
 21
283.58797999999967
 31
0.0
  0
LINE
  5
716
  8
0
  6
CONTINUOUS
 62
     3
 10
-964.74383999999998
 20
251.33797999999999
 30
0.0
 11
-997.69379000000015
 21
251.33797999999999
 31
0.0
  0
LINE
  5
717
  8
0
  6
CONTINUOUS
 62
     3
 10
-1010.4138
 20
284.45797999999991
 30
0.0
 11
-1008.7637999999999
 21
284.45797999999991
 31
0.0
  0
LINE
  5
718
  8
0
  6
CONTINUOUS
 62
     3
 10
-1008.0738
 20
289.12795999999992
 30
0.0
 11
-1008.9638
 21
285.59795999999989
 31
0.0
  0
LINE
  5
719
  8
0
  6
CONTINUOUS
 62
     3
 10
-964.74383999999998
 20
243.33799999999999
 30
0.0
 11
-1006.6938
 21
243.33799999999999
 31
0.0
  0
LINE
  5
71A
  8
0
  6
CONTINUOUS
 62
     3
 10
-991.24383999999986
 20
289.22797000000008
 30
0.0
 11
-991.24383999999986
 21
281.81799000000001
 31
0.0
  0
LINE
  5
71B
  8
0
  6
CONTINUOUS
 62
     3
 10
-964.74383999999998
 20
241.33795000000001
 30
0.0
 11
-1006.6938
 21
241.33795000000001
 31
0.0
  0
LINE
  5
71C
  8
0
  6
CONTINUOUS
 62
     3
 10
-966.74376999999981
 20
233.33794999999989
 30
0.0
 11
-1006.6938
 21
233.33794999999989
 31
0.0
  0
LINE
  5
71D
  8
0
  6
CONTINUOUS
 62
     3
 10
-934.24383999999998
 20
291.25797
 30
0.0
 11
-934.24383999999998
 21
289.19796999999983
 31
0.0
  0
LINE
  5
71E
  8
0
  6
CONTINUOUS
 62
     3
 10
-966.74376999999981
 20
231.3379799999999
 30
0.0
 11
-1006.6938
 21
231.3379799999999
 31
0.0
  0
LINE
  5
71F
  8
0
  6
CONTINUOUS
 62
     3
 10
-870.50391000000002
 20
287.71798999999982
 30
0.0
 11
-867.04387999999972
 21
274.798
 31
0.0
  0
LINE
  5
720
  8
0
  6
CONTINUOUS
 62
     3
 10
-870.53375000000005
 20
287.83794999999992
 30
0.0
 11
-865.2438400000002
 21
287.83794999999992
 31
0.0
  0
LINE
  5
721
  8
0
  6
CONTINUOUS
 62
     3
 10
-865.5338099999999
 20
278.37795999999992
 30
0.0
 11
-867.94378999999981
 21
278.37795999999992
 31
0.0
  0
LINE
  5
722
  8
0
  6
CONTINUOUS
 62
     3
 10
-868.44379000000004
 20
286.25792999999982
 30
0.0
 11
-867.00378000000012
 21
279.55797999999999
 31
0.0
  0
LINE
  5
723
  8
0
  6
CONTINUOUS
 62
     3
 10
-1012.2438
 20
169.90797000000001
 30
0.0
 11
-1012.2438
 21
227.33797000000001
 31
0.0
  0
LINE
  5
724
  8
0
  6
CONTINUOUS
 62
     3
 10
-1017.2437999999991
 20
178.74796000000001
 30
0.0
 11
-1017.2437999999991
 21
222.33797000000001
 31
0.0
  0
LINE
  5
725
  8
0
  6
CONTINUOUS
 62
     3
 10
-1015.0438
 20
191.64796000000001
 30
0.0
 11
-1012.9438
 21
191.64796000000001
 31
0.0
  0
LINE
  5
726
  8
0
  6
CONTINUOUS
 62
     3
 10
-1015.4338
 20
191.72796999999991
 30
0.0
 11
-1016.633799999999
 21
192.24794
 31
0.0
  0
LINE
  5
727
  8
0
  6
CONTINUOUS
 62
     3
 10
-1015.0938999999991
 20
193.5979599999998
 30
0.0
 11
-1013.2438
 21
193.5979599999998
 31
0.0
  0
LINE
  5
728
  8
0
  6
CONTINUOUS
 62
     3
 10
-1015.3839
 20
193.63799999999981
 30
0.0
 11
-1016.5338
 21
193.9979899999999
 31
0.0
  0
LINE
  5
729
  8
0
  6
CONTINUOUS
 62
     3
 10
-1013.2438
 20
201.33797999999999
 30
0.0
 11
-1016.2438
 21
201.33797999999999
 31
0.0
  0
LINE
  5
72A
  8
0
  6
CONTINUOUS
 62
     3
 10
-1013.2438
 20
203.33795000000001
 30
0.0
 11
-1016.2438
 21
203.33795000000001
 31
0.0
  0
LINE
  5
72B
  8
0
  6
CONTINUOUS
 62
     3
 10
-1013.2438
 20
211.33795000000001
 30
0.0
 11
-1016.2438
 21
211.33795000000001
 31
0.0
  0
LINE
  5
72C
  8
0
  6
CONTINUOUS
 62
     3
 10
-1013.2438
 20
213.33799999999991
 30
0.0
 11
-1016.2438
 21
213.33799999999991
 31
0.0
  0
LINE
  5
72D
  8
0
  6
CONTINUOUS
 62
     3
 10
-1013.2438
 20
221.3379799999999
 30
0.0
 11
-1016.2438
 21
221.3379799999999
 31
0.0
  0
LINE
  5
72E
  8
0
  6
CONTINUOUS
 62
     3
 10
-1013.2438
 20
223.33795000000001
 30
0.0
 11
-1016.2438
 21
223.33795000000001
 31
0.0
  0
LINE
  5
72F
  8
0
  6
CONTINUOUS
 62
     7
 10
-835.01250999999957
 20
168.7355499999999
 30
0.0
 11
-767.89440999999988
 21
189.6939999999999
 31
0.0
  0
LINE
  5
730
  8
0
  6
CONTINUOUS
 62
     3
 10
-1015.2438
 20
211.72797
 30
0.0
 11
-1015.2438
 21
212.94797999999989
 31
0.0
  0
LINE
  5
731
  8
0
  6
CONTINUOUS
 62
     3
 10
-1015.2438
 20
221.72797
 30
0.0
 11
-1015.2438
 21
222.88797
 31
0.0
  0
LINE
  5
732
  8
0
  6
CONTINUOUS
 62
     3
 10
-1015.2438
 20
201.70797999999991
 30
0.0
 11
-1015.2438
 21
203.0779399999999
 31
0.0
  0
LINE
  5
733
  8
0
  6
CONTINUOUS
 62
     3
 10
-1015.2438
 20
191.94794999999991
 30
0.0
 11
-1015.2438
 21
193.00794999999991
 31
0.0
  0
LINE
  5
734
  8
0
  6
CONTINUOUS
 62
     3
 10
-1018.7437999999991
 20
207.3379699999999
 30
0.0
 11
-1018.7437999999991
 21
227.33797000000001
 31
0.0
  0
LINE
  5
735
  8
0
  6
CONTINUOUS
 62
     3
 10
-1018.7437999999991
 20
207.3379699999999
 30
0.0
 11
-1017.2437999999991
 21
207.20796000000001
 31
0.0
  0
LINE
  5
736
  8
0
  6
CONTINUOUS
 62
     3
 10
-1018.7437999999991
 20
210.0579699999999
 30
0.0
 11
-1017.2437999999991
 21
210.0579699999999
 31
0.0
  0
LINE
  5
737
  8
0
  6
CONTINUOUS
 62
     3
 10
-989.24377000000004
 20
161.41798
 30
0.0
 11
-936.24383999999998
 21
161.41798
 31
0.0
  0
LINE
  5
738
  8
0
  6
CONTINUOUS
 62
     3
 10
-1006.103799999998
 20
165.66796999999991
 30
0.0
 11
-992.74384000000009
 21
165.66796999999991
 31
0.0
  0
LINE
  5
739
  8
0
  6
CONTINUOUS
 62
     3
 10
-1012.2438
 20
184.64796000000001
 30
0.0
 11
-1002.2438
 21
184.64796000000001
 31
0.0
  0
LINE
  5
73A
  8
0
  6
CONTINUOUS
 62
     3
 10
-989.24377000000004
 20
162.09798999999981
 30
0.0
 11
-936.24383999999998
 21
162.09798999999981
 31
0.0
  0
LINE
  5
73B
  8
0
  6
CONTINUOUS
 62
     3
 10
-1010.4338
 20
172.23795000000001
 30
0.0
 11
-1008.3737999999991
 21
172.23795000000001
 31
0.0
  0
LINE
  5
73C
  8
0
  6
CONTINUOUS
 62
     3
 10
-1010.4538
 20
176.3079699999999
 30
0.0
 11
-1008.0438
 21
176.3079699999999
 31
0.0
  0
LINE
  5
73D
  8
0
  6
CONTINUOUS
 62
     3
 10
-1008.0339
 20
170.65796999999981
 30
0.0
 11
-1008.9939000000001
 21
175.1179699999999
 31
0.0
  0
LINE
  5
73E
  8
0
  6
CONTINUOUS
 62
     3
 10
-989.24377000000004
 20
163.44796999999991
 30
0.0
 11
-936.24383999999998
 21
163.44796999999991
 31
0.0
  0
LINE
  5
73F
  8
0
  6
CONTINUOUS
 62
     3
 10
-1007.7838
 20
200.84794999999991
 30
0.0
 11
-964.74383999999998
 21
200.84794999999991
 31
0.0
  0
LINE
  5
740
  8
0
  6
CONTINUOUS
 62
     3
 10
-916.24383999999986
 20
193.33795000000001
 30
0.0
 11
-1006.2538
 21
193.33795000000001
 31
0.0
  0
LINE
  5
741
  8
0
  6
CONTINUOUS
 62
     3
 10
-998.56384000000003
 20
264.05797999999987
 30
0.0
 11
-868.42382999999984
 21
264.05797999999987
 31
0.0
  0
LINE
  5
742
  8
0
  6
CONTINUOUS
 62
     3
 10
-998.56384000000003
 20
260.70797999999991
 30
0.0
 11
-959.24377000000015
 21
260.70797999999991
 31
0.0
  0
LINE
  5
743
  8
0
  6
CONTINUOUS
 62
     3
 10
-998.78381000000013
 20
253.82799
 30
0.0
 11
-964.74383999999998
 21
253.82799
 31
0.0
  0
LINE
  5
744
  8
0
  6
CONTINUOUS
 62
     3
 10
-998.78381000000013
 20
250.8979599999999
 30
0.0
 11
-964.74383999999998
 21
250.8979599999999
 31
0.0
  0
LINE
  5
745
  8
0
  6
CONTINUOUS
 62
     3
 10
-1007.9138
 20
243.67798999999991
 30
0.0
 11
-964.74383999999998
 21
243.67798999999991
 31
0.0
  0
LINE
  5
746
  8
0
  6
CONTINUOUS
 62
     3
 10
-1007.9138
 20
241.01796999999999
 30
0.0
 11
-964.74383999999998
 21
241.01796999999999
 31
0.0
  0
LINE
  5
747
  8
0
  6
CONTINUOUS
 62
     3
 10
-1007.9738
 20
233.60795999999999
 30
0.0
 11
-966.74376999999981
 21
233.60795999999999
 31
0.0
  0
LINE
  5
748
  8
0
  6
CONTINUOUS
 62
     3
 10
-1007.9738
 20
231.07796999999991
 30
0.0
 11
-966.74376999999981
 21
231.07796999999991
 31
0.0
  0
LINE
  5
749
  8
0
  6
CONTINUOUS
 62
     3
 10
-991.24383999999986
 20
264.57796999999982
 30
0.0
 11
-991.24383999999986
 21
264.50797
 31
0.0
  0
LINE
  5
74A
  8
0
  6
CONTINUOUS
 62
     3
 10
-868.42382999999984
 20
260.70797999999991
 30
0.0
 11
-884.94384999999988
 21
260.70797999999991
 31
0.0
  0
LINE
  5
74B
  8
0
  6
CONTINUOUS
 62
     3
 10
-885.94384999999988
 20
259.70797999999991
 30
0.0
 11
-885.94384999999988
 21
258.60797000000002
 31
0.0
  0
LINE
  5
74C
  8
0
  6
CONTINUOUS
 62
     3
 10
-884.97381999999993
 20
257.60793999999999
 30
0.0
 11
-875.47375
 21
257.33794999999992
 31
0.0
  0
LINE
  5
74D
  8
0
  6
CONTINUOUS
 62
     3
 10
-1007.9738
 20
223.60795999999999
 30
0.0
 11
-966.74376999999981
 21
223.60795999999999
 31
0.0
  0
LINE
  5
74E
  8
0
  6
CONTINUOUS
 62
     3
 10
-966.74376999999981
 20
221.3379799999999
 30
0.0
 11
-1006.6938
 21
221.3379799999999
 31
0.0
  0
LINE
  5
74F
  8
0
  6
CONTINUOUS
 62
     3
 10
-966.74376999999981
 20
223.33795000000001
 30
0.0
 11
-1006.6938
 21
223.33795000000001
 31
0.0
  0
LINE
  5
750
  8
0
  6
CONTINUOUS
 62
     7
 10
-959.24377000000015
 20
260.83794999999992
 30
0.0
 11
-944.24377000000015
 21
260.83794999999992
 31
0.0
  0
LINE
  5
751
  8
0
  6
CONTINUOUS
 62
     7
 10
-944.24377000000015
 20
260.83794999999992
 30
0.0
 11
-944.24377000000015
 21
257.3379799999999
 31
0.0
  0
LINE
  5
752
  8
0
  6
CONTINUOUS
 62
     3
 10
-1007.9138
 20
213.65796999999989
 30
0.0
 11
-964.74383999999998
 21
213.65796999999989
 31
0.0
  0
LINE
  5
753
  8
0
  6
CONTINUOUS
 62
     3
 10
-1018.7437999999991
 20
242.48795999999999
 30
0.0
 11
-1014.4638
 21
242.48795999999999
 31
0.0
  0
LINE
  5
754
  8
0
  6
CONTINUOUS
 62
     3
 10
-868.42382999999984
 20
193.96796000000001
 30
0.0
 11
-884.94384999999988
 21
193.96796000000001
 31
0.0
  0
LINE
  5
755
  8
0
  6
CONTINUOUS
 62
     3
 10
-885.94384999999988
 20
194.96797000000001
 30
0.0
 11
-885.94384999999988
 21
196.06798000000001
 31
0.0
  0
LINE
  5
756
  8
0
  6
CONTINUOUS
 62
     3
 10
-964.74383999999998
 20
211.33795000000001
 30
0.0
 11
-1006.6938
 21
211.33795000000001
 31
0.0
  0
LINE
  5
757
  8
0
  6
CONTINUOUS
 62
     3
 10
-1007.9138
 20
210.9979399999998
 30
0.0
 11
-964.74383999999998
 21
210.9979399999998
 31
0.0
  0
LINE
  5
758
  8
0
  6
CONTINUOUS
 62
     3
 10
-964.74383999999998
 20
203.33795000000001
 30
0.0
 11
-1006.6938
 21
203.33795000000001
 31
0.0
  0
LINE
  5
759
  8
0
  6
CONTINUOUS
 62
     3
 10
-1007.7838
 20
203.77798000000001
 30
0.0
 11
-964.74383999999998
 21
203.77798000000001
 31
0.0
  0
LINE
  5
75A
  8
0
  6
CONTINUOUS
 62
     3
 10
-964.74383999999998
 20
201.33797999999999
 30
0.0
 11
-1006.6938
 21
201.33797999999999
 31
0.0
  0
LINE
  5
75B
  8
0
  6
CONTINUOUS
 62
     3
 10
-871.90386999999964
 20
193.33795000000001
 30
0.0
 11
-916.24383999999986
 21
193.33795000000001
 31
0.0
  0
LINE
  5
75C
  8
0
  6
CONTINUOUS
 62
     3
 10
-1007.9738
 20
221.06797999999981
 30
0.0
 11
-966.74376999999981
 21
221.06797999999981
 31
0.0
  0
LINE
  5
75D
  8
0
  6
CONTINUOUS
 62
     3
 10
-1018.7437999999991
 20
212.18797000000001
 30
0.0
 11
-1014.1638
 21
212.18797000000001
 31
0.0
  0
LINE
  5
75E
  8
0
  6
CONTINUOUS
 62
     7
 10
-940.87378000000001
 20
249.83797000000001
 30
0.0
 11
-936.66381999999965
 21
249.83797000000001
 31
0.0
  0
LINE
  5
75F
  8
0
  6
CONTINUOUS
 62
     7
 10
-964.74383999999998
 20
234.83797000000001
 30
0.0
 11
-964.74383999999998
 21
258.83797999999979
 31
0.0
  0
LINE
  5
760
  8
0
  6
CONTINUOUS
 62
     7
 10
-939.24377000000004
 20
204.3379799999999
 30
0.0
 11
-939.24377000000004
 21
244.35796999999991
 31
0.0
  0
LINE
  5
761
  8
0
  6
CONTINUOUS
 62
     7
 10
-575.74383999999975
 20
324.04793999999993
 30
0.0
 11
-573.7438400000002
 21
324.04793999999993
 31
0.0
  0
LINE
  5
762
  8
0
  6
CONTINUOUS
 62
     7
 10
-575.74383999999975
 20
279.04793999999998
 30
0.0
 11
-573.7438400000002
 21
279.04793999999998
 31
0.0
  0
LINE
  5
763
  8
0
  6
CONTINUOUS
 62
     7
 10
-599.89116999999976
 20
398.55160999999993
 30
0.0
 11
-641.64922999999976
 21
373.57877000000002
 31
0.0
  0
LINE
  5
764
  8
0
  6
CONTINUOUS
 62
     7
 10
-600.17754999999988
 20
404.79462000000001
 30
0.0
 11
-637.23644999999965
 21
382.63201999999978
 31
0.0
  0
LINE
  5
765
  8
0
  6
CONTINUOUS
 62
     7
 10
-613.80109000000004
 20
370.02920999999992
 30
0.0
 11
-597.7438400000002
 21
382.00806
 31
0.0
  0
LINE
  5
766
  8
0
  6
CONTINUOUS
 62
     7
 10
-644.24377000000004
 20
369.03687000000002
 30
0.0
 11
-616.79076999999995
 21
369.03687000000002
 31
0.0
  0
LINE
  5
767
  8
0
  6
CONTINUOUS
 62
     7
 10
-667.74377000000004
 20
200.18598999999989
 30
0.0
 11
-597.74377000000004
 21
200.18598999999989
 31
0.0
  0
LINE
  5
768
  8
0
  6
CONTINUOUS
 62
     7
 10
-667.74377000000004
 20
182.59035
 30
0.0
 11
-667.74377000000004
 21
198.69035
 31
0.0
  0
LINE
  5
769
  8
0
  6
CONTINUOUS
 62
     7
 10
-667.74377000000004
 20
180.74369999999999
 30
0.0
 11
-597.74377000000004
 21
180.74369999999999
 31
0.0
  0
LINE
  5
76A
  8
0
  6
CONTINUOUS
 62
     7
 10
-622.45092999999997
 20
396.84072999999989
 30
0.0
 11
-599.20825000000002
 21
420.08344
 31
0.0
  0
LINE
  5
76B
  8
0
  6
CENTER
 62
     7
 10
-285.19434000000001
 20
263.54793999999998
 30
0.0
 11
-149.2939299999999
 21
263.54793999999998
 31
0.0
  0
LINE
  5
76C
  8
0
  6
CONTINUOUS
 62
     7
 10
-579.74383999999975
 20
421.54793999999993
 30
0.0
 11
-575.74383999999975
 21
421.54793999999993
 31
0.0
  0
LINE
  5
76D
  8
0
  6
CONTINUOUS
 62
     7
 10
-594.13129000000004
 20
316.47109999999998
 30
0.0
 11
-589.7438400000002
 21
316.47109999999998
 31
0.0
  0
LINE
  5
76E
  8
0
  6
CONTINUOUS
 62
     7
 10
-153.28095999999999
 20
301.54793999999993
 30
0.0
 11
-153.28095999999999
 21
281.54793999999998
 31
0.0
  0
LINE
  5
76F
  8
0
  6
CONTINUOUS
 62
     7
 10
-708.74383999999986
 20
273.52895999999998
 30
0.0
 11
-589.7438400000002
 21
273.52895999999998
 31
0.0
  0
LINE
  5
770
  8
0
  6
CONTINUOUS
 62
     7
 10
-589.7438400000002
 20
301.54793999999993
 30
0.0
 11
-589.7438400000002
 21
190.59065000000001
 31
0.0
  0
LINE
  5
771
  8
0
  6
CONTINUOUS
 62
     7
 10
-287.78487999999982
 20
381.12295999999992
 30
0.0
 11
-258.59091000000001
 21
351.92898999999983
 31
0.0
  0
LINE
  5
772
  8
0
  6
CONTINUOUS
 62
     7
 10
-135.70595
 20
374.05187999999993
 30
0.0
 11
-164.89992000000001
 21
344.85790999999978
 31
0.0
  0
LINE
  5
773
  8
0
  6
CONTINUOUS
 62
     7
 10
-294.85595999999993
 20
374.05187999999993
 30
0.0
 11
-265.66198999999989
 21
344.85790999999978
 31
0.0
  0
LINE
  5
774
  8
0
  6
CENTER
 62
     7
 10
-346.79128999999978
 20
433.05831999999992
 30
0.0
 11
-322.37894
 21
408.64593999999988
 31
0.0
  0
LINE
  5
775
  8
0
  6
CENTER
 62
     7
 10
-346.78116
 20
170.04774
 30
0.0
 11
-323.86385999999982
 21
192.96503000000001
 31
0.0
  0
LINE
  5
776
  8
0
  6
CONTINUOUS
 62
     7
 10
-357.78093999999999
 20
351.54793999999993
 30
0.0
 11
-357.78093999999999
 21
301.54793999999993
 31
0.0
  0
LINE
  5
777
  8
0
  6
CONTINUOUS
 62
     7
 10
-265.28093999999987
 20
159.0479399999999
 30
0.0
 11
-215.2809399999999
 21
159.0479399999999
 31
0.0
  0
LINE
  5
778
  8
0
  6
CONTINUOUS
 62
     7
 10
-336.95281999999992
 20
161.55080000000001
 30
0.0
 11
-265.28093999999987
 21
159.0479599999999
 31
0.0
  0
LINE
  5
779
  8
0
  6
CONTINUOUS
 62
     7
 10
-355.27811000000008
 20
179.8761299999999
 30
0.0
 11
-357.78093999999999
 21
251.54792999999989
 31
0.0
  0
LINE
  5
77A
  8
0
  6
CONTINUOUS
 62
     7
 10
-93.606468000000007
 20
161.55088999999981
 30
0.0
 11
-165.28095999999991
 21
159.0479599999999
 31
0.0
  0
LINE
  5
77B
  8
0
  6
CONTINUOUS
 62
     7
 10
-75.283790999999979
 20
179.8761299999999
 30
0.0
 11
-72.780959999999965
 21
251.54792999999989
 31
0.0
  0
LINE
  5
77C
  8
0
  6
CONTINUOUS
 62
     7
 10
-72.780945000000003
 20
251.5479399999999
 30
0.0
 11
-72.780945000000003
 21
301.54793999999993
 31
0.0
  0
LINE
  5
77D
  8
0
  6
CENTER
 62
     7
 10
-83.196785000000006
 20
169.46378999999999
 30
0.0
 11
-108.4552799999999
 21
194.7222899999999
 31
0.0
  0
LINE
  5
77E
  8
0
  6
CONTINUOUS
 62
     7
 10
-357.78093999999999
 20
251.5479399999999
 30
0.0
 11
-357.78093999999999
 21
301.54793999999993
 31
0.0
  0
LINE
  5
77F
  8
0
  6
CONTINUOUS
 62
     7
 10
-355.27814000000001
 20
423.21975999999989
 30
0.0
 11
-357.78098
 21
351.54791
 31
0.0
  0
LINE
  5
780
  8
0
  6
CONTINUOUS
 62
     7
 10
-336.95276000000001
 20
441.54509999999999
 30
0.0
 11
-265.28091000000001
 21
444.04793999999998
 31
0.0
  0
LINE
  5
781
  8
0
  6
CONTINUOUS
 62
     7
 10
-165.2809399999999
 20
159.0479399999999
 30
0.0
 11
-215.2809399999999
 21
159.0479399999999
 31
0.0
  0
LINE
  5
782
  8
0
  6
CONTINUOUS
 62
     7
 10
-579.74383999999975
 20
181.5479399999999
 30
0.0
 11
-575.74383999999975
 21
181.5479399999999
 31
0.0
  0
LINE
  5
783
  8
0
  6
CONTINUOUS
 62
     7
 10
-695.74390000000005
 20
133.5479599999999
 30
0.0
 11
-636.01526000000001
 21
131.98389999999969
 31
0.0
  0
LINE
  5
784
  8
0
  6
CONTINUOUS
 62
     7
 10
-277.28093999999987
 20
301.54793999999993
 30
0.0
 11
-277.28093999999987
 21
281.54793999999998
 31
0.0
  0
LINE
  5
785
  8
0
  6
CONTINUOUS
 62
     7
 10
-575.74383999999975
 20
301.54793999999993
 30
0.0
 11
-575.74383999999975
 21
421.54793999999993
 31
0.0
  0
LINE
  5
786
  8
0
  6
CONTINUOUS
 62
     7
 10
-589.7438400000002
 20
301.54793999999993
 30
0.0
 11
-589.7438400000002
 21
412.50524999999988
 31
0.0
  0
LINE
  5
787
  8
0
  6
CONTINUOUS
 62
     7
 10
-142.7770099999999
 20
381.12295999999992
 30
0.0
 11
-171.9709899999998
 21
351.92898999999983
 31
0.0
  0
LINE
  5
788
  8
0
  6
CONTINUOUS
 62
     7
 10
-708.74383999999986
 20
385.26526000000001
 30
0.0
 11
-632.83325000000002
 21
385.26526000000001
 31
0.0
  0
LINE
  5
789
  8
0
  6
CONTINUOUS
 62
     7
 10
-708.74383999999986
 20
370.80847
 30
0.0
 11
-646.6823099999998
 21
370.80847
 31
0.0
  0
LINE
  5
78A
  8
0
  6
CONTINUOUS
 62
     7
 10
-598.8783599999997
 20
319.90087999999992
 30
0.0
 11
-615.13129000000004
 21
369.03692999999993
 31
0.0
  0
LINE
  5
78B
  8
0
  6
CONTINUOUS
 62
     7
 10
-622.53612999999984
 20
391.42325
 30
0.0
 11
-623.86157000000003
 21
395.43026999999989
 31
0.0
  0
LINE
  5
78C
  8
0
  6
CONTINUOUS
 62
     7
 10
-594.84850999999981
 20
443.52044999999998
 30
0.0
 11
-579.74383999999975
 21
444.04793999999998
 31
0.0
  0
LINE
  5
78D
  8
0
  6
CONTINUOUS
 62
     7
 10
-579.74383999999975
 20
159.0479399999999
 30
0.0
 11
-579.74383999999975
 21
444.04793999999998
 31
0.0
  0
LINE
  5
78E
  8
0
  6
CONTINUOUS
 62
     7
 10
-597.74377000000004
 20
323.03478999999982
 30
0.0
 11
-597.74377000000004
 21
440.52230999999989
 31
0.0
  0
LINE
  5
78F
  8
0
  6
CONTINUOUS
 62
     7
 10
-211.78095999999999
 20
409.21292
 30
0.0
 11
-211.78095999999999
 21
390.26317999999992
 31
0.0
  0
LINE
  5
790
  8
0
  6
CONTINUOUS
 62
     7
 10
-708.74383999999986
 20
253.56695999999991
 30
0.0
 11
-589.7438400000002
 21
253.56695999999991
 31
0.0
  0
LINE
  5
791
  8
0
  6
CONTINUOUS
 62
     7
 10
-575.74383999999975
 20
301.54793999999993
 30
0.0
 11
-575.74383999999975
 21
181.5479399999999
 31
0.0
  0
LINE
  5
792
  8
0
  6
CONTINUOUS
 62
     7
 10
-594.63915999999995
 20
158.5277899999999
 30
0.0
 11
-579.74383999999975
 21
159.0479399999999
 31
0.0
  0
LINE
  5
793
  8
0
  6
CONTINUOUS
 62
     7
 10
-708.74383999999986
 20
156.2874799999999
 30
0.0
 11
-593.92029000000002
 21
156.2874799999999
 31
0.0
  0
LINE
  5
794
  8
0
  6
CONTINUOUS
 62
     7
 10
-708.74383999999986
 20
141.83067
 30
0.0
 11
-618.96014000000002
 21
141.83067
 31
0.0
  0
LINE
  5
795
  8
0
  6
CONTINUOUS
 62
     7
 10
-597.74377000000004
 20
161.52597
 30
0.0
 11
-597.74377000000004
 21
210.04111
 31
0.0
  0
LINE
  5
796
  8
0
  6
CONTINUOUS
 62
     7
 10
-695.74377000000004
 20
133.5479599999999
 30
0.0
 11
-695.74377000000004
 21
393.54793999999993
 31
0.0
  0
LINE
  5
797
  8
0
  6
CONTINUOUS
 62
     7
 10
-218.78095999999999
 20
409.21292
 30
0.0
 11
-218.78095999999999
 21
390.26317999999992
 31
0.0
  0
LINE
  5
798
  8
0
  6
CONTINUOUS
 62
     7
 10
-695.74377000000004
 20
393.54797000000002
 30
0.0
 11
-625.85559000000001
 21
395.37804999999992
 31
0.0
  0
LINE
  5
799
  8
0
  6
CONTINUOUS
 62
     7
 10
-636.01526000000001
 20
131.98389
 30
0.0
 11
-589.74377000000004
 21
158.69873000000001
 31
0.0
  0
LINE
  5
79A
  8
0
  6
CONTINUOUS
 62
     7
 10
-320.8034399999998
 20
273.54793999999998
 30
0.0
 11
-285.28093999999982
 21
273.54793999999998
 31
0.0
  0
LINE
  5
79B
  8
0
  6
CONTINUOUS
 62
     7
 10
-265.28093999999987
 20
444.04793999999998
 30
0.0
 11
-215.2809399999999
 21
444.04793999999998
 31
0.0
  0
LINE
  5
79C
  8
0
  6
CONTINUOUS
 62
     7
 10
-72.780945000000003
 20
351.54793999999993
 30
0.0
 11
-72.780945000000003
 21
301.54793999999993
 31
0.0
  0
LINE
  5
79D
  8
0
  6
CONTINUOUS
 62
     7
 10
-165.2809399999999
 20
444.04793999999998
 30
0.0
 11
-215.2809399999999
 21
444.04793999999998
 31
0.0
  0
LINE
  5
79E
  8
0
  6
CONTINUOUS
 62
     7
 10
-93.609131000000005
 20
441.54509999999999
 30
0.0
 11
-165.2809799999998
 21
444.04793999999998
 31
0.0
  0
LINE
  5
79F
  8
0
  6
CONTINUOUS
 62
     7
 10
-75.283790999999979
 20
423.21978999999999
 30
0.0
 11
-72.780951999999999
 21
351.54791
 31
0.0
  0
LINE
  5
7A0
  8
0
  6
CENTER
 62
     7
 10
-83.640807999999979
 20
433.18807999999967
 30
0.0
 11
-108.57258
 21
408.25632000000002
 31
0.0
  0
LINE
  5
7A1
  8
0
  6
CONTINUOUS
 62
     7
 10
-215.2809399999999
 20
357.12288999999993
 30
0.0
 11
-215.2809399999999
 21
345.87642999999991
 31
0.0
  0
LINE
  5
7A2
  8
0
  6
CONTINUOUS
 62
     7
 10
-109.7584499999999
 20
273.54793999999998
 30
0.0
 11
-145.2809399999999
 21
273.54793999999998
 31
0.0
  0
LINE
  5
7A3
  8
0
  6
CONTINUOUS
 62
     7
 10
-140.6217
 20
148.37645000000001
 30
0.0
 11
-137.50236999999979
 21
160.01799
 31
0.0
  0
LINE
  5
7A4
  8
0
  6
CONTINUOUS
 62
     7
 10
-277.69274999999982
 20
141.30539999999991
 30
0.0
 11
-266.84554999999972
 21
144.21190999999999
 31
0.0
  0
LINE
  5
7A5
  8
0
  6
CONTINUOUS
 62
     7
 10
-152.86915999999991
 20
141.3053899999999
 30
0.0
 11
-163.71639999999999
 21
144.21190000000001
 31
0.0
  0
LINE
  5
7A6
  8
0
  6
CONTINUOUS
 62
     7
 10
-289.94018999999992
 20
148.3764799999999
 30
0.0
 11
-293.05953999999991
 21
160.01801
 31
0.0
  0
LINE
  5
7A7
  8
0
  6
CONTINUOUS
 62
     7
 10
-720.26476999999988
 20
146.46898999999991
 30
0.0
 11
-711.22284000000002
 21
144.87465
 31
0.0
  0
LINE
  5
7A8
  8
0
  6
CONTINUOUS
 62
     7
 10
-706.81359999999995
 20
133.9344899999999
 30
0.0
 11
-695.74383999999998
 21
133.54793000000001
 31
0.0
  0
LINE
  5
7A9
  8
0
  6
CONTINUOUS
 62
     7
 10
-573.7438400000002
 20
280.54797000000002
 30
0.0
 11
-503.74383999999998
 21
280.54797000000002
 31
0.0
  0
LINE
  5
7AA
  8
0
  6
CONTINUOUS
 62
     7
 10
-573.7438400000002
 20
322.54797000000002
 30
0.0
 11
-503.74383999999998
 21
322.54797000000002
 31
0.0
  0
LINE
  5
7AB
  8
0
  6
CONTINUOUS
 62
     7
 10
-573.7438400000002
 20
279.04793999999998
 30
0.0
 11
-573.7438400000002
 21
324.04793999999993
 31
0.0
  0
LINE
  5
7AC
  8
0
  6
CONTINUOUS
 62
     7
 10
-503.74383999999998
 20
280.54797000000002
 30
0.0
 11
-503.74383999999998
 21
325.54793999999998
 31
0.0
  0
LINE
  5
7AD
  8
0
  6
CONTINUOUS
 62
     7
 10
-221.28095999999991
 20
325.54793999999998
 30
0.0
 11
-209.28095999999991
 21
325.54793999999998
 31
0.0
  0
LINE
  5
7AE
  8
0
  6
CONTINUOUS
 62
     7
 10
-559.74383999999986
 20
325.54793999999998
 30
0.0
 11
-503.74383999999998
 21
325.54793999999998
 31
0.0
  0
LINE
  5
7AF
  8
0
  6
CONTINUOUS
 62
     7
 10
-221.28095999999991
 20
325.54793999999998
 30
0.0
 11
-221.28095999999991
 21
317.54797000000002
 31
0.0
  0
LINE
  5
7B0
  8
0
  6
CONTINUOUS
 62
     7
 10
-209.28095999999991
 20
325.54793999999998
 30
0.0
 11
-209.28095999999991
 21
317.54797000000002
 31
0.0
  0
LINE
  5
7B1
  8
0
  6
CONTINUOUS
 62
     7
 10
-221.28095999999991
 20
317.54797000000002
 30
0.0
 11
-209.28095999999991
 21
317.54797000000002
 31
0.0
  0
LINE
  5
7B2
  8
0
  6
CONTINUOUS
 62
     7
 10
-559.74383999999986
 20
325.54793999999998
 30
0.0
 11
-559.74383999999986
 21
322.54797000000002
 31
0.0
  0
LINE
  5
7B3
  8
0
  6
CONTINUOUS
 62
     7
 10
-767.24383999999975
 20
200.54795999999999
 30
0.0
 11
-722.74377000000004
 21
200.54795999999999
 31
0.0
  0
LINE
  5
7B4
  8
0
  6
CONTINUOUS
 62
     7
 10
-767.24383999999975
 20
224.72787
 30
0.0
 11
-722.74377000000004
 21
224.72787
 31
0.0
  0
ARC
  5
7B5
  8
0
  6
CONTINUOUS
 62
     7
 10
-706.74377000000004
 20
813.61126999999988
 30
0.0
 40
2.0
 50
91.999998000000005
 51
180.00001
  0
ARC
  5
7B6
  8
0
  6
CONTINUOUS
 62
     7
 10
-719.74377000000004
 20
800.99084000000005
 30
0.0
 40
3.0
 50
100.0
 51
180.00001
  0
ARC
  5
7B7
  8
0
  6
CONTINUOUS
 62
     7
 10
-711.74377000000004
 20
808.49401999999998
 30
0.0
 40
3.0
 50
280.00000999999992
 51
0.0
  0
ARC
  5
7B8
  8
0
  6
CONTINUOUS
 62
     7
 10
-727.74377000000004
 20
766.39954
 30
0.0
 40
5.0
 50
272.0
 51
0.0
  0
ARC
  5
7B9
  8
0
  6
CONTINUOUS
 62
     7
 10
-705.74390000000017
 20
823.07605000000001
 30
0.0
 40
3.0
 50
92.999999000000017
 51
180.00001
  0
ARC
  5
7BA
  8
0
  6
CONTINUOUS
 62
     7
 10
-706.74377000000004
 20
560.12134000000003
 30
0.0
 40
2.0
 50
179.99998999999991
 51
268.00000999999992
  0
ARC
  5
7BB
  8
0
  6
CONTINUOUS
 62
     7
 10
-719.74377000000004
 20
572.74170000000004
 30
0.0
 40
3.0
 50
179.99998999999991
 51
260.0
  0
ARC
  5
7BC
  8
0
  6
CONTINUOUS
 62
     7
 10
-711.74377000000004
 20
565.23859000000004
 30
0.0
 40
3.0
 50
0.0
 51
79.999998000000005
  0
ARC
  5
7BD
  8
0
  6
CONTINUOUS
 62
     7
 10
-727.74377000000004
 20
607.33307000000002
 30
0.0
 40
5.0
 50
0.0
 51
88.0
  0
ARC
  5
7BE
  8
0
  6
CONTINUOUS
 62
     7
 10
-705.74390000000017
 20
550.65648999999985
 30
0.0
 40
3.0
 50
180.00001
 51
266.99998999999991
  0
ARC
  5
7BF
  8
0
  6
CONTINUOUS
 62
     7
 10
-711.74377000000004
 20
686.86632999999995
 30
0.0
 40
10.0
 50
23.578036999999991
 51
156.42196000000001
  0
ARC
  5
7C0
  8
0
  6
CONTINUOUS
 62
     7
 10
-728.24377000000004
 20
686.86626999999976
 30
0.0
 40
3.9999962
 50
90.000003000000007
 51
270.0
  0
ARC
  5
7C1
  8
0
  6
CONTINUOUS
 62
     7
 10
-695.24377000000004
 20
686.86626999999976
 30
0.0
 40
3.9999962
 50
270.0
 51
90.000003000000007
  0
ARC
  5
7C2
  8
0
  6
CONTINUOUS
 62
     7
 10
-711.74377000000004
 20
686.86632999999995
 30
0.0
 40
10.0
 50
203.57826999999989
 51
336.42171999999999
  0
ARC
  5
7C3
  8
0
  6
CONTINUOUS
 62
     7
 10
-764.24377000000004
 20
616.61255000000006
 30
0.0
 40
3.0
 50
180.00001
 51
268.0
  0
ARC
  5
7C4
  8
0
  6
CONTINUOUS
 62
     7
 10
-764.24377000000004
 20
757.12005999999985
 30
0.0
 40
3.0
 50
91.999998000000005
 51
180.00001
  0
ARC
  5
7C5
  8
0
  6
CONTINUOUS
 62
     7
 10
-770.24377000000004
 20
616.82635000000005
 30
0.0
 40
3.0
 50
0.0
 51
88.0
  0
ARC
  5
7C6
  8
0
  6
CONTINUOUS
 62
     7
 10
-770.24377000000004
 20
756.90625
 30
0.0
 40
3.0
 50
272.0
 51
0.0
  0
ARC
  5
7C7
  8
0
  6
CONTINUOUS
 62
     7
 10
-839.24376999999981
 20
674.76337000000001
 30
0.0
 40
3.0
 50
180.00001
 51
268.0
  0
ARC
  5
7C8
  8
0
  6
CONTINUOUS
 62
     7
 10
-839.24376999999981
 20
698.96924000000001
 30
0.0
 40
3.0
 50
91.999998000000005
 51
180.00001
  0
ARC
  5
7C9
  8
0
  6
CONTINUOUS
 62
     7
 10
-770.24377000000004
 20
666.35015999999996
 30
0.0
 40
3.0
 50
0.0
 51
88.0
  0
ARC
  5
7CA
  8
0
  6
CONTINUOUS
 62
     7
 10
-770.24377000000004
 20
707.38244999999995
 30
0.0
 40
3.0
 50
272.0
 51
0.0
  0
ARC
  5
7CB
  8
0
  6
CONTINUOUS
 62
     3
 10
-952.51671999999996
 20
602.86632999999995
 30
0.0
 40
4.0
 50
179.99997999999991
 51
0.000010017912
  0
ARC
  5
7CC
  8
0
  6
CONTINUOUS
 62
     3
 10
-952.51671999999996
 20
602.86632999999995
 30
0.0
 40
7.5
 50
179.99997999999991
 51
0.000010017913
  0
ARC
  5
7CD
  8
0
  6
CONTINUOUS
 62
     7
 10
-1012.7433
 20
636.61681999999985
 30
0.0
 40
0.49952301
 50
359.94522999999992
 51
90.054773999999981
  0
ARC
  5
7CE
  8
0
  6
CONTINUOUS
 62
     7
 10
-1012.7472
 20
638.76977999999986
 30
0.0
 40
0.5033929900000002
 50
270.38490999999982
 51
359.61509999999993
  0
ARC
  5
7CF
  8
0
  6
CONTINUOUS
 62
     7
 10
-1013.2478
 20
641.3704799999997
 30
0.0
 40
1.004119999999999
 50
270.23460999999992
 51
359.76538999999991
  0
ARC
  5
7D0
  8
0
  6
CONTINUOUS
 62
     7
 10
-1013.246199999999
 20
645.88878999999974
 30
0.0
 40
1.002470999999999
 50
270.14107000000001
 51
359.85892999999987
  0
ARC
  5
7D1
  8
0
  6
CONTINUOUS
 62
     7
 10
-1016.245
 20
640.98987
 30
0.0
 40
0.9987969999999998
 50
179.62728000000001
 51
238.70795000000001
  0
ARC
  5
7D2
  8
0
  6
CONTINUOUS
 62
     7
 10
-1016.2461
 20
642.02759000000003
 30
0.0
 40
0.9977070099999998
 50
180.0740199999999
 51
242.04481000000001
  0
ARC
  5
7D3
  8
0
  6
CONTINUOUS
 62
     7
 10
-1016.2446
 20
645.59105999999997
 30
0.0
 40
0.9990889999999998
 50
179.69508999999991
 51
236.66209000000001
  0
ARC
  5
7D4
  8
0
  6
CONTINUOUS
 62
     7
 10
-1016.245199999999
 20
646.62561000000005
 30
0.0
 40
0.9984580299999999
 50
179.9595799999999
 51
239.38657000000001
  0
ARC
  5
7D5
  8
0
  6
CONTINUOUS
 62
     7
 10
-1014.9803000000001
 20
645.88733000000002
 30
0.0
 40
1.0010449999999991
 50
240.47187
 51
270.37970999999999
  0
ARC
  5
7D6
  8
0
  6
CONTINUOUS
 62
     7
 10
-1014.9509
 20
644.7468299999997
 30
0.0
 40
1.000521999999999
 50
237.14617999999999
 51
270.41343999999998
  0
ARC
  5
7D7
  8
0
  6
CONTINUOUS
 62
     7
 10
-1014.9885
 20
641.36693999999977
 30
0.0
 40
1.0006820000000001
 50
241.65062
 51
269.7039299999999
  0
ARC
  5
7D8
  8
0
  6
CONTINUOUS
 62
     7
 10
-1014.9724
 20
640.22997999999995
 30
0.0
 40
1.0037439999999991
 50
239.37112999999999
 51
270.49189999999987
  0
ARC
  5
7D9
  8
0
  6
CONTINUOUS
 62
     7
 10
-1014.9979
 20
639.26562999999965
 30
0.0
 40
0.9993420200000001
 50
242.86199999999999
 51
269.66546
  0
ARC
  5
7DA
  8
0
  6
CONTINUOUS
 62
     7
 10
-1014.963
 20
638.11743000000001
 30
0.0
 40
1.001123999999999
 50
239.32782000000009
 51
269.38767999999988
  0
ARC
  5
7DB
  8
0
  6
CONTINUOUS
 62
     7
 10
-1016.248
 20
639.89672999999982
 30
0.0
 40
0.9956849800000001
 50
180.02112999999991
 51
243.40913999999981
  0
ARC
  5
7DC
  8
0
  6
CONTINUOUS
 62
     7
 10
-1016.2461
 20
638.85095000000001
 30
0.0
 40
0.9976310099999999
 50
180.26780999999991
 51
240.07924
  0
ARC
  5
7DD
  8
0
  6
CONTINUOUS
 62
     7
 10
-1016.245199999999
 20
646.62561000000005
 30
0.0
 40
0.9984580299999999
 50
179.9595799999999
 51
239.38657000000001
  0
ARC
  5
7DE
  8
0
  6
CONTINUOUS
 62
     7
 10
-1013.2469
 20
645.89306999999985
 30
0.0
 40
1.0032760000000001
 50
334.19810000000001
 51
359.61810999999977
  0
ARC
  5
7DF
  8
0
  6
CONTINUOUS
 62
     7
 10
-1013.2435
 20
669.86645999999985
 30
0.0
 40
0.9998210099999999
 50
359.98971999999998
 51
90.010281999999961
  0
ARC
  5
7E0
  8
0
  6
CONTINUOUS
 62
     7
 10
-1013.248699999999
 20
673.87121999999999
 30
0.0
 40
1.004939
 50
270.28093999999999
 51
359.71906999999999
  0
ARC
  5
7E1
  8
0
  6
CONTINUOUS
 62
     7
 10
-1013.2435
 20
679.86645999999985
 30
0.0
 40
0.9998279799999998
 50
359.99015999999978
 51
90.009838000000002
  0
ARC
  5
7E2
  8
0
  6
CONTINUOUS
 62
     7
 10
-1013.248699999999
 20
683.87121999999977
 30
0.0
 40
1.004942999999999
 50
270.28113999999988
 51
359.71886999999992
  0
ARC
  5
7E3
  8
0
  6
CONTINUOUS
 62
     7
 10
-1016.2487
 20
681.87121999999999
 30
0.0
 40
0.9950770099999999
 50
89.715860000000006
 51
180.28413999999989
  0
ARC
  5
7E4
  8
0
  6
CONTINUOUS
 62
     7
 10
-1016.2435
 20
681.86657999999977
 30
0.0
 40
1.0002040000000001
 50
180.01166000000001
 51
269.9883200000001
  0
ARC
  5
7E5
  8
0
  6
CONTINUOUS
 62
     7
 10
-1016.2487
 20
671.87121999999965
 30
0.0
 40
0.9950810099999999
 50
89.716071999999997
 51
180.28391999999999
  0
ARC
  5
7E6
  8
0
  6
CONTINUOUS
 62
     7
 10
-1016.2435
 20
671.86658
 30
0.0
 40
1.0001999999999991
 50
180.01146
 51
269.98853999999972
  0
ARC
  5
7E7
  8
0
  6
CONTINUOUS
 62
     7
 10
-1016.2487
 20
661.87121999999999
 30
0.0
 40
0.9950849999999999
 50
89.716282999999976
 51
180.2837199999999
  0
ARC
  5
7E8
  8
0
  6
CONTINUOUS
 62
     7
 10
-1016.2435
 20
661.86658
 30
0.0
 40
1.0001959999999981
 50
180.01124999999999
 51
269.98874999999992
  0
ARC
  5
7E9
  8
0
  6
CONTINUOUS
 62
     7
 10
-1016.2472
 20
652.69482000000005
 30
0.0
 40
0.9965090199999998
 50
179.91374999999999
 51
247.17845
  0
ARC
  5
7EA
  8
0
  6
CONTINUOUS
 62
     7
 10
-1016.2473
 20
654.48070999999982
 30
0.0
 40
0.99638802
 50
180.24991
 51
253.29664
  0
ARC
  5
7EB
  8
0
  6
CONTINUOUS
 62
     7
 10
-1015.1033
 20
654.12902999999994
 30
0.0
 40
1.002699
 50
253.7527199999999
 51
270.54064
  0
ARC
  5
7EC
  8
0
  6
CONTINUOUS
 62
     7
 10
-1015.0408
 20
652.18151999999975
 30
0.0
 40
1.005233
 50
246.98638999999989
 51
269.82924999999989
  0
ARC
  5
7ED
  8
0
  6
CONTINUOUS
 62
     7
 10
-1012.9432
 20
650.47692999999981
 30
0.0
 40
0.6994530000000001
 50
359.95517000000001
 51
90.044829000000021
  0
ARC
  5
7EE
  8
0
  6
CONTINUOUS
 62
     7
 10
-1013.2435
 20
659.86645999999985
 30
0.0
 40
0.9998239899999999
 50
359.98991999999993
 51
90.010076999999981
  0
ARC
  5
7EF
  8
0
  6
CONTINUOUS
 62
     7
 10
-1013.248699999999
 20
663.87121999999999
 30
0.0
 40
1.0049469
 50
270.28136999999992
 51
359.71863000000002
  0
ARC
  5
7F0
  8
0
  6
CONTINUOUS
 62
     7
 10
-1013.2471
 20
654.12963999999999
 30
0.0
 40
1.003352
 50
270.19110999999992
 51
359.80889999999982
  0
ARC
  5
7F1
  8
0
  6
CONTINUOUS
 62
     7
 10
-1012.748399999999
 20
737.12097000000006
 30
0.0
 40
0.50463498
 50
270.52382999999992
 51
359.47617000000002
  0
ARC
  5
7F2
  8
0
  6
CONTINUOUS
 62
     7
 10
-1012.7421000000001
 20
734.96802000000002
 30
0.0
 40
0.4983060100000002
 50
359.80489
 51
90.195107000000007
  0
ARC
  5
7F3
  8
0
  6
CONTINUOUS
 62
     7
 10
-1013.2428
 20
732.36730999999975
 30
0.0
 40
0.9990100299999999
 50
359.94319000000002
 51
90.056808999999959
  0
ARC
  5
7F4
  8
0
  6
CONTINUOUS
 62
     7
 10
-1012.9482
 20
723.26085999999964
 30
0.0
 40
0.704566
 50
270.37009999999992
 51
359.62990999999982
  0
ARC
  5
7F5
  8
0
  6
CONTINUOUS
 62
     7
 10
-1013.246099999999
 20
727.85399999999981
 30
0.0
 40
1.002353
 50
0.13432682
 51
89.865673000000001
  0
ARC
  5
7F6
  8
0
  6
CONTINUOUS
 62
     7
 10
-1013.2421000000001
 20
719.60802999999999
 30
0.0
 40
0.9982839799999999
 50
359.90141999999992
 51
90.098575999999994
  0
ARC
  5
7F7
  8
0
  6
CONTINUOUS
 62
     7
 10
-1013.248699999999
 20
713.87121999999999
 30
0.0
 40
1.004942999999999
 50
270.28111000000001
 51
359.71888999999987
  0
ARC
  5
7F8
  8
0
  6
CONTINUOUS
 62
     7
 10
-1013.2435
 20
709.86645999999985
 30
0.0
 40
0.9998289899999999
 50
359.99018999999993
 51
90.009810999999985
  0
ARC
  5
7F9
  8
0
  6
CONTINUOUS
 62
     7
 10
-1013.248699999999
 20
703.87121999999988
 30
0.0
 40
1.004939
 50
270.28091000000001
 51
359.71910000000008
  0
ARC
  5
7FA
  8
0
  6
CONTINUOUS
 62
     7
 10
-1013.2435
 20
699.86645999999985
 30
0.0
 40
0.9998210099999999
 50
359.98975000000002
 51
90.010255000000001
  0
ARC
  5
7FB
  8
0
  6
CONTINUOUS
 62
     7
 10
-1013.248699999999
 20
693.87121999999999
 30
0.0
 40
1.0049469
 50
270.28134999999992
 51
359.71866
  0
ARC
  5
7FC
  8
0
  6
CONTINUOUS
 62
     7
 10
-1013.2435
 20
689.86645999999996
 30
0.0
 40
0.9998249999999999
 50
359.98995000000002
 51
90.010050000000007
  0
ARC
  5
7FD
  8
0
  6
CONTINUOUS
 62
     7
 10
-1016.2435
 20
691.86658
 30
0.0
 40
1.0001959999999981
 50
180.01122000000001
 51
269.98877999999991
  0
ARC
  5
7FE
  8
0
  6
CONTINUOUS
 62
     7
 10
-1016.2487
 20
691.87121999999965
 30
0.0
 40
0.9950849999999999
 50
89.716311000000005
 51
180.28368999999981
  0
ARC
  5
7FF
  8
0
  6
CONTINUOUS
 62
     7
 10
-1016.2435
 20
701.86657999999989
 30
0.0
 40
1.0001999999999991
 50
180.0114299999999
 51
269.98856999999992
  0
ARC
  5
800
  8
0
  6
CONTINUOUS
 62
     7
 10
-1016.2487
 20
701.87121999999999
 30
0.0
 40
0.99508202
 50
89.716099
 51
180.28390999999991
  0
ARC
  5
801
  8
0
  6
CONTINUOUS
 62
     7
 10
-1016.2435
 20
711.86658
 30
0.0
 40
1.000203
 50
180.01165
 51
269.98835000000003
  0
ARC
  5
802
  8
0
  6
CONTINUOUS
 62
     7
 10
-1016.2487
 20
711.87121999999999
 30
0.0
 40
0.99507803
 50
89.715886999999981
 51
180.28411
  0
ARC
  5
803
  8
0
  6
CONTINUOUS
 62
     7
 10
-1016.2473
 20
721.04785000000004
 30
0.0
 40
0.9963999999999998
 50
112.81735999999979
 51
180.09041999999991
  0
ARC
  5
804
  8
0
  6
CONTINUOUS
 62
     7
 10
-1016.2473999999989
 20
719.26207999999997
 30
0.0
 40
0.9962710099999999
 50
106.69792
 51
180.3300499999998
  0
ARC
  5
805
  8
0
  6
CONTINUOUS
 62
     7
 10
-1015.1046
 20
719.61365000000001
 30
0.0
 40
0.9927430199999999
 50
89.374555000000001
 51
106.33207
  0
ARC
  5
806
  8
0
  6
CONTINUOUS
 62
     7
 10
-1015.0427
 20
721.56090999999981
 30
0.0
 40
0.9954450099999999
 50
90.056905000000043
 51
113.1274499999999
  0
ARC
  5
807
  8
0
  6
CONTINUOUS
 62
     7
 10
-1016.249299999999
 20
732.74536000000001
 30
0.0
 40
0.9944329899999999
 50
121.15213
 51
179.9405099999999
  0
ARC
  5
808
  8
0
  6
CONTINUOUS
 62
     7
 10
-1016.250499999999
 20
731.70776000000001
 30
0.0
 40
0.9932109699999999
 50
117.7993199999999
 51
180.08187000000001
  0
ARC
  5
809
  8
0
  6
CONTINUOUS
 62
     7
 10
-1016.2489
 20
728.14391999999998
 30
0.0
 40
0.9948369899999999
 50
123.20496
 51
180.4378599999998
  0
ARC
  5
80A
  8
0
  6
CONTINUOUS
 62
     7
 10
-1016.2498000000001
 20
727.10950000000003
 30
0.0
 40
0.99404597
 50
120.4682
 51
180.18563999999989
  0
ARC
  5
80B
  8
0
  6
CONTINUOUS
 62
     7
 10
-1014.964399999999
 20
727.85985999999957
 30
0.0
 40
0.99648702
 50
90.540720999999976
 51
120.74377
  0
ARC
  5
80C
  8
0
  6
CONTINUOUS
 62
     7
 10
-1014.9371
 20
729.00012000000004
 30
0.0
 40
0.99617702
 50
90.381317999999979
 51
123.9704899999999
  0
ARC
  5
80D
  8
0
  6
CONTINUOUS
 62
     7
 10
-1015.008699999998
 20
732.37097000000006
 30
0.0
 40
0.99545902
 50
89.141291000000024
 51
117.20381999999999
  0
ARC
  5
80E
  8
0
  6
CONTINUOUS
 62
     7
 10
-1014.975
 20
733.51207999999986
 30
0.0
 40
0.99427301
 50
89.356065999999984
 51
120.78091000000001
  0
ARC
  5
80F
  8
0
  6
CONTINUOUS
 62
     7
 10
-1015.0189
 20
734.47229000000004
 30
0.0
 40
0.99411702
 50
89.122643999999966
 51
115.93498
  0
ARC
  5
810
  8
0
  6
CONTINUOUS
 62
     7
 10
-1014.9817
 20
735.62047999999982
 30
0.0
 40
0.9959030199999999
 50
89.541267000000005
 51
119.60717
  0
ARC
  5
811
  8
0
  6
CONTINUOUS
 62
     7
 10
-1016.2482
 20
733.84607000000005
 30
0.0
 40
0.995579
 50
116.5870899999999
 51
179.98264
  0
ARC
  5
812
  8
0
  6
CONTINUOUS
 62
     7
 10
-1016.2506
 20
734.88427999999988
 30
0.0
 40
0.99319202
 50
119.77338
 51
179.87958999999981
  0
ARC
  5
813
  8
0
  6
CONTINUOUS
 62
     7
 10
-999.10290999999995
 20
645.65600999999981
 30
0.0
 40
1.0032491999999991
 50
314.98118999999991
 51
5.1676434000000002
  0
ARC
  5
814
  8
0
  6
CONTINUOUS
 62
     7
 10
-864.24401999999986
 20
749.36658
 30
0.0
 40
0.99980682
 50
89.98893099999998
 51
180.0110699999999
  0
ARC
  5
815
  8
0
  6
CONTINUOUS
 62
     7
 10
-872.4425
 20
627.01256999999998
 30
0.0
 40
2.0062942999999991
 50
270.24932999999987
 51
345.08843999999999
  0
ARC
  5
816
  8
0
  6
CONTINUOUS
 62
     7
 10
-864.24474999999995
 20
737.90723000000003
 30
0.0
 40
0.9990923399999999
 50
89.947921999999977
 51
180.0520799999999
  0
ARC
  5
817
  8
0
  6
CONTINUOUS
 62
     7
 10
-990.25098000000003
 20
691.86632999999995
 30
0.0
 40
1.0000259
 50
89.587533999999977
 51
270.41246000000001
  0
ARC
  5
818
  8
0
  6
CONTINUOUS
 62
     7
 10
-998.28430000000003
 20
737.86108000000002
 30
0.0
 40
1.9952742999999991
 50
90.148580000000024
 51
170.0352199999999
  0
ARC
  5
819
  8
0
  6
CONTINUOUS
 62
     7
 10
-998.34644000000003
 20
743.13927999999999
 30
0.0
 40
1.997119399999999
 50
89.801366999999999
 51
167.94476
  0
ARC
  5
81A
  8
0
  6
CONTINUOUS
 62
     7
 10
-1002.7269
 20
739.40869000000021
 30
0.0
 40
1.502416299999999
 50
269.9013799999999
 51
347.60813000000002
  0
ARC
  5
81B
  8
0
  6
CONTINUOUS
 62
     7
 10
-1006.1135
 20
746.54407000000003
 30
0.0
 40
1.9922863
 50
90.007720999999947
 51
166.87839
  0
ARC
  5
81C
  8
0
  6
CONTINUOUS
 62
     7
 10
-1010.4386
 20
743.47118999999986
 30
0.0
 40
1.5048382
 50
270.18263999999982
 51
346.7530799999999
  0
ARC
  5
81D
  8
0
  6
CONTINUOUS
 62
     7
 10
-1010.4242
 20
745.49170000000004
 30
0.0
 40
1.505448699999999
 50
270.39686999999992
 51
345.95247000000001
  0
ARC
  5
81E
  8
0
  6
CONTINUOUS
 62
     7
 10
-1006.1389
 20
748.17174999999975
 30
0.0
 40
1.994612099999999
 50
89.851992000000024
 51
165.93885999999981
  0
ARC
  5
81F
  8
0
  6
CONTINUOUS
 62
     7
 10
-989.25049000000001
 20
746.73302999999999
 30
0.0
 40
1.9933081999999991
 50
89.807322999999968
 51
180.19266999999991
  0
ARC
  5
820
  8
0
  6
CONTINUOUS
 62
     7
 10
-989.24963000000014
 20
748.76220999999998
 30
0.0
 40
1.9941304999999969
 50
89.831106000000005
 51
180.16889
  0
ARC
  5
821
  8
0
  6
CONTINUOUS
 62
     7
 10
-989.24730999999997
 20
750.11986999999988
 30
0.0
 40
1.996488899999999
 50
89.899147999999997
 51
180.10085000000001
  0
ARC
  5
822
  8
0
  6
CONTINUOUS
 62
     7
 10
-989.25
 20
750.78979000000004
 30
0.0
 40
1.9964978999999969
 50
89.821482000000003
 51
165.6006099999999
  0
ARC
  5
823
  8
0
  6
CONTINUOUS
 62
     7
 10
-992.74756000000014
 20
741.36010999999985
 30
0.0
 40
1.5037541000000001
 50
270.14287000000002
 51
359.85714000000002
  0
ARC
  5
824
  8
0
  6
CONTINUOUS
 62
     7
 10
-992.74865999999975
 20
746.64124000000004
 30
0.0
 40
1.5048912999999979
 50
270.18592999999998
 51
359.81407000000002
  0
ARC
  5
825
  8
0
  6
CONTINUOUS
 62
     7
 10
-992.75072999999998
 20
750.04320999999982
 30
0.0
 40
1.506942899999999
 50
270.26337000000001
 51
359.73662999999999
  0
ARC
  5
826
  8
0
  6
CONTINUOUS
 62
     7
 10
-992.63879000000009
 20
751.67150999999967
 30
0.0
 40
1.505230099999999
 50
270.19421
 51
345.17177999999979
  0
ARC
  5
827
  8
0
  6
CONTINUOUS
 62
     7
 10
-865.59362999999985
 20
734.71862999999985
 30
0.0
 40
1.5022733999999991
 50
195.1365099999999
 51
269.99412000000001
  0
ARC
  5
828
  8
0
  6
CONTINUOUS
 62
     7
 10
-872.43433000000005
 20
746.72717
 30
0.0
 40
1.9991226
 50
15.050791
 51
89.984388999999979
  0
ARC
  5
829
  8
0
  6
CONTINUOUS
 62
     7
 10
-864.25073000000009
 20
624.35937999999999
 30
0.0
 40
0.99304521
 50
179.59730999999991
 51
270.40267999999992
  0
ARC
  5
82A
  8
0
  6
CONTINUOUS
 62
     7
 10
-864.25145999999984
 20
635.81872999999985
 30
0.0
 40
0.99237448
 50
179.55802
 51
270.44197000000003
  0
ARC
  5
82B
  8
0
  6
CONTINUOUS
 62
     7
 10
-865.53809000000001
 20
739.40661999999998
 30
0.0
 40
1.500286
 50
192.32630999999989
 51
270.16417000000001
  0
ARC
  5
82C
  8
0
  6
CONTINUOUS
 62
     7
 10
-1003.0881000000001
 20
728.46056999999985
 30
0.0
 40
5.0059714
 50
279.71098000000001
 51
354.67887999999999
  0
ARC
  5
82D
  8
0
  6
CONTINUOUS
 62
     7
 10
-1002.622799999999
 20
724.53381000000002
 30
0.0
 40
6.0044340999999992
 50
45.225577999999999
 51
86.380821999999966
  0
ARC
  5
82E
  8
0
  6
CONTINUOUS
 62
     7
 10
-999.10180999999989
 20
728.08704
 30
0.0
 40
1.002184699999999
 50
354.80385999999987
 51
45.047306999999968
  0
ARC
  5
82F
  8
0
  6
CONTINUOUS
 62
     7
 10
-1002.623999999998
 20
649.21167000000003
 30
0.0
 40
6.0073843
 50
273.62973999999991
 51
314.76384999999999
  0
ARC
  5
830
  8
0
  6
CONTINUOUS
 62
     7
 10
-1003.0809
 20
645.27782999999999
 30
0.0
 40
4.999142199999997
 50
5.3780269000000001
 51
80.360065000000006
  0
ARC
  5
831
  8
0
  6
CONTINUOUS
 62
     7
 10
-1006.1069
 20
627.19690000000003
 30
0.0
 40
2.0005671999999981
 50
193.3095899999999
 51
269.80430999999999
  0
ARC
  5
832
  8
0
  6
CONTINUOUS
 62
     7
 10
-1010.4305000000001
 20
630.26868000000002
 30
0.0
 40
1.497715799999999
 50
13.424379
 51
90.122644999999963
  0
ARC
  5
833
  8
0
  6
CONTINUOUS
 62
     7
 10
-1010.4161
 20
628.24805000000003
 30
0.0
 40
1.4982997
 50
14.22974
 51
89.910949999999985
  0
ARC
  5
834
  8
0
  6
CONTINUOUS
 62
     7
 10
-989.24377000000004
 20
627.00635
 30
0.0
 40
2.0000371999999991
 50
180.00105999999991
 51
269.99892999999992
  0
ARC
  5
835
  8
0
  6
CONTINUOUS
 62
     7
 10
-989.24279999999999
 20
624.97729000000004
 30
0.0
 40
2.0009109999999981
 50
180.00001
 51
269.97390999999988
  0
ARC
  5
836
  8
0
  6
CONTINUOUS
 62
     7
 10
-992.74572999999998
 20
632.38440000000003
 30
0.0
 40
1.501982699999999
 50
0.075587202
 51
89.924413000000015
  0
ARC
  5
837
  8
0
  6
CONTINUOUS
 62
     7
 10
-992.74683000000005
 20
627.10315000000003
 30
0.0
 40
1.503128599999999
 50
0.11912965
 51
89.880870000000002
  0
ARC
  5
838
  8
0
  6
CONTINUOUS
 62
     7
 10
-865.60009999999988
 20
639.02257999999995
 30
0.0
 40
1.4937901
 50
89.756423999999981
 51
165.1129199999998
  0
ARC
  5
839
  8
0
  6
CONTINUOUS
 62
     7
 10
-990.25098000000003
 20
701.86632999999995
 30
0.0
 40
1.0000259
 50
89.587533999999977
 51
270.41246000000001
  0
ARC
  5
83A
  8
0
  6
CONTINUOUS
 62
     7
 10
-990.25098000000003
 20
711.86632999999995
 30
0.0
 40
1.0000259
 50
89.587533999999977
 51
270.41246000000001
  0
ARC
  5
83B
  8
0
  6
CONTINUOUS
 62
     7
 10
-990.25098000000003
 20
721.86632999999983
 30
0.0
 40
1.0000259
 50
89.587533999999977
 51
270.41246000000001
  0
ARC
  5
83C
  8
0
  6
CONTINUOUS
 62
     7
 10
-1007.9819
 20
691.87634000000003
 30
0.0
 40
1.2700266
 50
89.629328000000001
 51
270.37065999999987
  0
ARC
  5
83D
  8
0
  6
CONTINUOUS
 62
     7
 10
-1007.92
 20
701.88135
 30
0.0
 40
1.3350147999999991
 50
89.730435000000014
 51
270.26956999999999
  0
ARC
  5
83E
  8
0
  6
CONTINUOUS
 62
     7
 10
-998.78943000000004
 20
711.89635999999985
 30
0.0
 40
1.460011199999999
 50
89.775248000000005
 51
270.22474
  0
ARC
  5
83F
  8
0
  6
CONTINUOUS
 62
     7
 10
-998.57372999999995
 20
721.91638
 30
0.0
 40
1.6800002000000001
 50
90.000003000000007
 51
270.0
  0
ARC
  5
840
  8
0
  6
CONTINUOUS
 62
     7
 10
-1006.6937
 20
691.86632999999995
 30
0.0
 40
1.0000056999999991
 50
90.000003000000007
 51
270.0
  0
ARC
  5
841
  8
0
  6
CONTINUOUS
 62
     7
 10
-1006.6937
 20
701.86632999999995
 30
0.0
 40
1.0000056999999991
 50
90.000003000000007
 51
270.0
  0
ARC
  5
842
  8
0
  6
CONTINUOUS
 62
     7
 10
-997.70092999999997
 20
721.86632999999983
 30
0.0
 40
1.0000255999999981
 50
89.589473999999967
 51
270.41052000000002
  0
ARC
  5
843
  8
0
  6
CONTINUOUS
 62
     7
 10
-997.70092999999997
 20
711.86632999999995
 30
0.0
 40
1.0000255999999981
 50
89.589473999999967
 51
270.41052000000002
  0
ARC
  5
844
  8
0
  6
CONTINUOUS
 62
     7
 10
-868.42382999999984
 20
721.91638
 30
0.0
 40
1.6800077
 50
269.99998999999991
 51
90.000003000000007
  0
ARC
  5
845
  8
0
  6
CONTINUOUS
 62
     7
 10
-871.90380999999979
 20
721.86632999999983
 30
0.0
 40
1.0000040999999991
 50
269.99998999999991
 51
90.000003000000007
  0
ARC
  5
846
  8
0
  6
CONTINUOUS
 62
     7
 10
-871.90380999999979
 20
651.86632999999995
 30
0.0
 40
1.0000040999999991
 50
269.99998999999991
 51
90.000003000000007
  0
ARC
  5
847
  8
0
  6
CONTINUOUS
 62
     7
 10
-868.42382999999984
 20
651.82628999999974
 30
0.0
 40
1.6800077
 50
269.99998999999991
 51
90.000003000000007
  0
ARC
  5
848
  8
0
  6
CONTINUOUS
 62
     7
 10
-1006.6937
 20
681.86632999999995
 30
0.0
 40
1.0000056999999991
 50
90.000003000000007
 51
270.0
  0
ARC
  5
849
  8
0
  6
CONTINUOUS
 62
     7
 10
-990.25098000000003
 20
671.86632999999995
 30
0.0
 40
1.0000259
 50
89.587533999999977
 51
270.41246000000001
  0
ARC
  5
84A
  8
0
  6
CONTINUOUS
 62
     7
 10
-990.25098000000003
 20
661.86632999999995
 30
0.0
 40
1.0000259
 50
89.587533999999977
 51
270.41246000000001
  0
ARC
  5
84B
  8
0
  6
CONTINUOUS
 62
     7
 10
-1007.92
 20
671.85631999999998
 30
0.0
 40
1.3300148000000001
 50
89.729417999999995
 51
270.27058999999991
  0
ARC
  5
84C
  8
0
  6
CONTINUOUS
 62
     7
 10
-990.25098000000003
 20
681.86632999999995
 30
0.0
 40
1.0000259
 50
89.587533999999977
 51
270.41246000000001
  0
ARC
  5
84D
  8
0
  6
CONTINUOUS
 62
     7
 10
-990.25098000000003
 20
651.86632999999995
 30
0.0
 40
1.0000259
 50
89.587533999999977
 51
270.41246000000001
  0
ARC
  5
84E
  8
0
  6
CONTINUOUS
 62
     7
 10
-1007.9819
 20
681.86632999999995
 30
0.0
 40
1.2700266
 50
89.629320999999962
 51
270.37068999999991
  0
ARC
  5
84F
  8
0
  6
CONTINUOUS
 62
     7
 10
-1006.6937
 20
671.86632999999995
 30
0.0
 40
1.0000056999999991
 50
90.000003000000007
 51
270.0
  0
ARC
  5
850
  8
0
  6
CONTINUOUS
 62
     7
 10
-1002.510599999999
 20
734.12634000000003
 30
0.0
 40
1.5
 50
280.24788999999998
 51
349.76262000000008
  0
ARC
  5
851
  8
0
  6
CONTINUOUS
 62
     7
 10
-1002.510599999999
 20
639.60631999999998
 30
0.0
 40
1.5
 50
10.23737899999999
 51
79.752110000000002
  0
ARC
  5
852
  8
0
  6
CONTINUOUS
 62
     7
 10
-998.28430000000003
 20
635.87157999999965
 30
0.0
 40
1.9952742999999991
 50
189.96477999999971
 51
269.85142000000002
  0
ARC
  5
853
  8
0
  6
CONTINUOUS
 62
     7
 10
-1002.7269
 20
634.32397000000003
 30
0.0
 40
1.502416299999999
 50
12.39188699999999
 51
90.098617000000004
  0
ARC
  5
854
  8
0
  6
CONTINUOUS
 62
     7
 10
-998.34644000000003
 20
630.59338000000002
 30
0.0
 40
1.997119399999999
 50
192.05524
 51
270.19862999999992
  0
ARC
  5
855
  8
0
  6
CONTINUOUS
 62
     7
 10
-998.57372999999995
 20
651.81627999999978
 30
0.0
 40
1.6800002000000001
 50
90.000003000000007
 51
270.0
  0
ARC
  5
856
  8
0
  6
CONTINUOUS
 62
     7
 10
-997.70092999999997
 20
651.86632999999995
 30
0.0
 40
1.0000255999999981
 50
89.589473999999967
 51
270.41052000000002
  0
ARC
  5
857
  8
0
  6
CONTINUOUS
 62
     7
 10
-997.70092999999997
 20
661.86632999999995
 30
0.0
 40
1.0000255999999981
 50
89.589473999999967
 51
270.41052000000002
  0
ARC
  5
858
  8
0
  6
CONTINUOUS
 62
     7
 10
-998.78943000000004
 20
661.83630000000016
 30
0.0
 40
1.460011199999999
 50
89.775248000000005
 51
270.22474
  0
ARC
  5
859
  8
0
  6
CONTINUOUS
 62
     7
 10
-947.91736000000014
 20
621.47631999999999
 30
0.0
 40
1.5
 50
1.5000026999999989
 51
90.000003000000007
  0
ARC
  5
85A
  8
0
  6
CONTINUOUS
 62
     3
 10
-873.22753999999998
 20
618.36632999999995
 30
0.0
 40
1.5
 50
269.99998999999991
 51
327.0
  0
ARC
  5
85B
  8
0
  6
CONTINUOUS
 62
     7
 10
-884.73021999999969
 20
615.36632999999995
 30
0.0
 40
1.5
 50
90.000003000000007
 51
178.5
  0
ARC
  5
85C
  8
0
  6
CONTINUOUS
 62
     7
 10
-870.72388000000001
 20
749.25635
 30
0.0
 40
1.5
 50
12.129792
 51
90.000003000000007
  0
ARC
  5
85D
  8
0
  6
CONTINUOUS
 62
     7
 10
-871.01610999999946
 20
750.61632999999983
 30
0.0
 40
1.5
 50
12.129792
 51
90.000003000000007
  0
ARC
  5
85E
  8
0
  6
CONTINUOUS
 62
     7
 10
-871.16015999999979
 20
751.28637999999989
 30
0.0
 40
1.5
 50
12.129792
 51
90.000003000000007
  0
ARC
  5
85F
  8
0
  6
CONTINUOUS
 62
     7
 10
-868.20385999999985
 20
661.83630000000016
 30
0.0
 40
1.460011199999999
 50
269.77525000000003
 51
90.224749999999986
  0
ARC
  5
860
  8
0
  6
CONTINUOUS
 62
     7
 10
-871.90380999999979
 20
661.86632999999995
 30
0.0
 40
1.0000255999999981
 50
269.58947000000001
 51
90.410531000000006
  0
ARC
  5
861
  8
0
  6
CONTINUOUS
 62
     7
 10
-868.20385999999985
 20
711.89635999999985
 30
0.0
 40
1.460011199999999
 50
269.77525000000003
 51
90.224749999999986
  0
ARC
  5
862
  8
0
  6
CONTINUOUS
 62
     7
 10
-871.90380999999979
 20
711.86632999999995
 30
0.0
 40
1.0000255999999981
 50
269.58947000000001
 51
90.410531000000006
  0
ARC
  5
863
  8
0
  6
CONTINUOUS
 62
     7
 10
-935.57885999999996
 20
701.88135
 30
0.0
 40
1.3350147999999991
 50
269.73043000000001
 51
90.269555999999994
  0
ARC
  5
864
  8
0
  6
CONTINUOUS
 62
     7
 10
-936.80505000000005
 20
701.86632999999995
 30
0.0
 40
1.0000056999999991
 50
269.99998999999991
 51
90.000003000000007
  0
ARC
  5
865
  8
0
  6
CONTINUOUS
 62
     7
 10
-936.80505000000005
 20
691.86632999999995
 30
0.0
 40
1.0000056999999991
 50
269.99998999999991
 51
90.000003000000007
  0
ARC
  5
866
  8
0
  6
CONTINUOUS
 62
     7
 10
-935.51684999999986
 20
691.87634000000003
 30
0.0
 40
1.2700266
 50
269.62931999999989
 51
90.370669999999961
  0
ARC
  5
867
  8
0
  6
CONTINUOUS
 62
     7
 10
-936.80505000000005
 20
681.86632999999995
 30
0.0
 40
1.0000056999999991
 50
269.99998999999991
 51
90.000003000000007
  0
ARC
  5
868
  8
0
  6
CONTINUOUS
 62
     7
 10
-935.51684999999986
 20
681.86632999999995
 30
0.0
 40
1.2700266
 50
269.62931999999989
 51
90.370669999999961
  0
ARC
  5
869
  8
0
  6
CONTINUOUS
 62
     7
 10
-936.80505000000005
 20
671.86632999999995
 30
0.0
 40
1.0000056999999991
 50
269.99998999999991
 51
90.000003000000007
  0
ARC
  5
86A
  8
0
  6
CONTINUOUS
 62
     7
 10
-935.57885999999996
 20
671.85631999999998
 30
0.0
 40
1.3300148000000001
 50
269.72941999999989
 51
90.270567000000014
  0
ARC
  5
86B
  8
0
  6
CONTINUOUS
 62
     7
 10
-886.24376999999993
 20
659.36632999999995
 30
0.0
 40
1.5
 50
90.000003000000007
 51
180.00001
  0
ARC
  5
86C
  8
0
  6
CONTINUOUS
 62
     7
 10
-886.24376999999993
 20
654.36632999999995
 30
0.0
 40
1.5
 50
179.99998999999991
 51
270.0
  0
ARC
  5
86D
  8
0
  6
CONTINUOUS
 62
     7
 10
-904.24376999999981
 20
659.36632999999995
 30
0.0
 40
1.5
 50
0.0
 51
90.000003000000007
  0
ARC
  5
86E
  8
0
  6
CONTINUOUS
 62
     7
 10
-904.24376999999981
 20
654.36632999999995
 30
0.0
 40
1.5
 50
269.99998999999991
 51
0.00000068324733
  0
ARC
  5
86F
  8
0
  6
CONTINUOUS
 62
     7
 10
-886.24376999999993
 20
659.36632999999995
 30
0.0
 40
1.02
 50
90.000003000000007
 51
180.00001
  0
ARC
  5
870
  8
0
  6
CONTINUOUS
 62
     7
 10
-904.24376999999981
 20
659.36632999999995
 30
0.0
 40
1.02
 50
0.0
 51
90.000003000000007
  0
ARC
  5
871
  8
0
  6
CONTINUOUS
 62
     7
 10
-904.22375
 20
654.50635
 30
0.0
 40
1.0
 50
269.99998999999991
 51
0.00000068324299
  0
ARC
  5
872
  8
0
  6
CONTINUOUS
 62
     7
 10
-886.2637900000002
 20
654.50635
 30
0.0
 40
1.0
 50
179.99998999999991
 51
270.0
  0
CIRCLE
  5
873
  8
0
  6
CONTINUOUS
 62
     3
 10
-897.7437699999997
 20
658.36632999999995
 30
0.0
 40
1.1000000000000001
  0
CIRCLE
  5
874
  8
0
  6
CONTINUOUS
 62
     3
 10
-897.7437699999997
 20
658.36632999999995
 30
0.0
 40
1.149999999999999
  0
CIRCLE
  5
875
  8
0
  6
CONTINUOUS
 62
     3
 10
-892.74376999999981
 20
658.36632999999995
 30
0.0
 40
1.0
  0
ARC
  5
876
  8
0
  6
CONTINUOUS
 62
     7
 10
-886.24376999999993
 20
714.36632999999995
 30
0.0
 40
1.5
 50
179.99998999999991
 51
270.0
  0
ARC
  5
877
  8
0
  6
CONTINUOUS
 62
     7
 10
-886.24376999999993
 20
719.36632999999995
 30
0.0
 40
1.5
 50
90.000003000000007
 51
180.00001
  0
ARC
  5
878
  8
0
  6
CONTINUOUS
 62
     7
 10
-904.24376999999981
 20
714.36632999999995
 30
0.0
 40
1.5
 50
269.99998999999991
 51
0.00000068324733
  0
ARC
  5
879
  8
0
  6
CONTINUOUS
 62
     7
 10
-904.24376999999981
 20
719.36632999999995
 30
0.0
 40
1.5
 50
0.0
 51
90.000003000000007
  0
ARC
  5
87A
  8
0
  6
CONTINUOUS
 62
     7
 10
-886.24376999999993
 20
714.36632999999995
 30
0.0
 40
1.02
 50
179.99998999999991
 51
270.0
  0
ARC
  5
87B
  8
0
  6
CONTINUOUS
 62
     7
 10
-904.24376999999981
 20
714.36632999999995
 30
0.0
 40
1.02
 50
269.99998999999991
 51
0.00000068324403
  0
ARC
  5
87C
  8
0
  6
CONTINUOUS
 62
     7
 10
-904.22375
 20
719.22631999999999
 30
0.0
 40
1.0
 50
0.0
 51
90.000003000000007
  0
ARC
  5
87D
  8
0
  6
CONTINUOUS
 62
     7
 10
-886.2637900000002
 20
719.22631999999999
 30
0.0
 40
1.0
 50
90.000003000000007
 51
180.00001
  0
CIRCLE
  5
87E
  8
0
  6
CONTINUOUS
 62
     3
 10
-892.74376999999981
 20
715.36632999999995
 30
0.0
 40
1.0
  0
CIRCLE
  5
87F
  8
0
  6
CONTINUOUS
 62
     3
 10
-897.7437699999997
 20
715.36632999999995
 30
0.0
 40
1.149999999999999
  0
CIRCLE
  5
880
  8
0
  6
CONTINUOUS
 62
     3
 10
-897.7437699999997
 20
715.36632999999995
 30
0.0
 40
1.1000000000000001
  0
ARC
  5
881
  8
0
  6
CONTINUOUS
 62
     7
 10
-1006.5431
 20
627.19629000000009
 30
0.0
 40
2.0
 50
194.1507499999999
 51
269.99998999999991
  0
ARC
  5
882
  8
0
  6
CONTINUOUS
 62
     7
 10
-992.50097999999991
 20
623.69628999999986
 30
0.0
 40
1.5
 50
21.461708999999988
 51
90.000003000000007
  0
ARC
  5
883
  8
0
  6
CONTINUOUS
 62
     7
 10
-559.74377000000004
 20
686.86626999999976
 30
0.0
 40
6.0000037999999991
 50
90.000003000000007
 51
270.0
  0
ARC
  5
884
  8
0
  6
CONTINUOUS
 62
     7
 10
-640.05627000000004
 20
762.76837
 30
0.0
 40
3.0
 50
120.88096999999991
 51
270.0
  0
ARC
  5
885
  8
0
  6
CONTINUOUS
 62
     7
 10
-643.94806000000017
 20
767.43206999999984
 30
0.0
 40
3.0
 50
270.0
 51
300.88097999999979
  0
ARC
  5
886
  8
0
  6
CONTINUOUS
 62
     7
 10
-640.05627000000004
 20
610.96422999999982
 30
0.0
 40
3.0
 50
90.000003000000007
 51
239.11902000000001
  0
ARC
  5
887
  8
0
  6
CONTINUOUS
 62
     7
 10
-643.94806000000017
 20
606.30053999999996
 30
0.0
 40
3.0
 50
59.11902300000002
 51
90.000003000000007
  0
ARC
  5
888
  8
0
  6
CONTINUOUS
 62
     7
 10
-594.7438400000002
 20
547.89191000000005
 30
0.0
 40
3.0
 50
179.99998999999991
 51
268.00000999999992
  0
ARC
  5
889
  8
0
  6
CONTINUOUS
 62
     7
 10
-592.74377000000004
 20
620.73186999999996
 30
0.0
 40
5.0
 50
90.000003000000007
 51
180.00001
  0
ARC
  5
88A
  8
0
  6
CONTINUOUS
 62
     7
 10
-602.74377000000004
 20
579.32848999999965
 30
0.0
 40
5.0
 50
0.0
 51
59.119017000000007
  0
ARC
  5
88B
  8
0
  6
CONTINUOUS
 62
     7
 10
-594.7438400000002
 20
825.84069999999986
 30
0.0
 40
3.0
 50
91.999998000000005
 51
180.00001
  0
ARC
  5
88C
  8
0
  6
CONTINUOUS
 62
     7
 10
-592.74377000000004
 20
753.00072999999998
 30
0.0
 40
5.0
 50
179.99998999999991
 51
270.0
  0
ARC
  5
88D
  8
0
  6
CONTINUOUS
 62
     7
 10
-594.7438400000002
 20
797.82360999999969
 30
0.0
 40
5.0
 50
0.0
 51
91.999998000000005
  0
ARC
  5
88E
  8
0
  6
CONTINUOUS
 62
     7
 10
-602.74377000000004
 20
794.40410999999983
 30
0.0
 40
5.0
 50
300.88097999999979
 51
0.0
  0
ARC
  5
88F
  8
0
  6
CONTINUOUS
 62
     7
 10
-594.7438400000002
 20
575.90899999999965
 30
0.0
 40
5.0
 50
268.0
 51
0.0
  0
CIRCLE
  5
890
  8
0
  6
CONTINUOUS
 62
     7
 10
-711.74377000000004
 20
414.04797000000002
 30
0.0
 40
12.5
  0
ARC
  5
891
  8
0
  6
CONTINUOUS
 62
     7
 10
-711.74377000000004
 20
414.04797000000002
 30
0.0
 40
20.5
 50
304.61363999999992
 51
235.38634999999999
  0
ARC
  5
892
  8
0
  6
CONTINUOUS
 62
     7
 10
-697.82684000000006
 20
393.88442999999978
 30
0.0
 40
4.0
 50
124.61365000000001
 51
187.86824999999999
  0
ARC
  5
893
  8
0
  6
CONTINUOUS
 62
     7
 10
-725.66076999999984
 20
393.88442999999978
 30
0.0
 40
4.0
 50
347.92932999999999
 51
55.386358999999999
  0
ARC
  5
894
  8
0
  6
CONTINUOUS
 62
     7
 10
-704.42194000000018
 20
399.17922999999979
 30
0.0
 40
1.0
 50
15.0
 51
79.539281000000003
  0
ARC
  5
895
  8
0
  6
CONTINUOUS
 62
     7
 10
-719.06560999999988
 20
399.17922999999979
 30
0.0
 40
1.0
 50
100.4607199999999
 51
164.99999
  0
ARC
  5
896
  8
0
  6
CONTINUOUS
 62
     7
 10
-727.74377000000004
 20
343.08117999999968
 30
0.0
 40
5.0
 50
272.0
 51
0.0
  0
ARC
  5
897
  8
0
  6
CONTINUOUS
 62
     7
 10
-725.74377000000004
 20
175.71806000000001
 30
0.0
 40
3.0
 50
0.0
 51
84.999996999999979
  0
ARC
  5
898
  8
0
  6
CONTINUOUS
 62
     7
 10
-749.24377000000004
 20
183.79693999999981
 30
0.0
 40
3.0
 50
179.99998999999991
 51
265.0
  0
ARC
  5
899
  8
0
  6
CONTINUOUS
 62
     7
 10
-755.24377000000004
 20
186.97630000000001
 30
0.0
 40
3.0
 50
0.0
 51
88.0
  0
ARC
  5
89A
  8
0
  6
CONTINUOUS
 62
     7
 10
-720.74377000000004
 20
391.54797000000002
 30
0.0
 40
2.0
 50
131.4096199999999
 51
180.00001
  0
ARC
  5
89B
  8
0
  6
CONTINUOUS
 62
     7
 10
-711.74377000000004
 20
385.17568999999992
 30
0.0
 40
3.0
 50
280.0
 51
0.0
  0
ARC
  5
89C
  8
0
  6
CONTINUOUS
 62
     7
 10
-719.7438400000002
 20
377.67252000000002
 30
0.0
 40
3.0
 50
100.0
 51
180.00001
  0
ARC
  5
89D
  8
0
  6
CONTINUOUS
 62
     7
 10
-706.74377000000004
 20
391.16262999999998
 30
0.0
 40
2.0
 50
91.999998000000005
 51
180.00001
  0
ARC
  5
89E
  8
0
  6
CONTINUOUS
 62
     7
 10
-841.24383999999986
 20
167.89911000000001
 30
0.0
 40
4.0
 50
272.0
 51
0.0
  0
ARC
  5
89F
  8
0
  6
CONTINUOUS
 62
     7
 10
-845.24376999999993
 20
281.83797999999967
 30
0.0
 40
3.0
 50
270.0
 51
0.0
  0
ARC
  5
8A0
  8
0
  6
CONTINUOUS
 62
     7
 10
-771.24383999999986
 20
334.69799999999992
 30
0.0
 40
4.0
 50
272.0
 51
350.16761000000002
  0
ARC
  5
8A1
  8
0
  6
CONTINUOUS
 62
     7
 10
-763.36126999999999
 20
333.33187999999973
 30
0.0
 40
4.0
 50
91.999998000000005
 51
170.16762
  0
ARC
  5
8A2
  8
0
  6
CONTINUOUS
 62
     7
 10
-847.24384000000009
 20
296.69018999999992
 30
0.0
 40
5.0
 50
272.0
 51
0.0
  0
ARC
  5
8A3
  8
0
  6
CONTINUOUS
 62
     7
 10
-777.50609999999983
 20
274.8379799999999
 30
0.0
 40
4.0
 50
315.0
 51
90.000003000000007
  0
ARC
  5
8A4
  8
0
  6
CONTINUOUS
 62
     7
 10
-839.24376999999981
 20
325.31914999999992
 30
0.0
 40
3.0
 50
91.999998000000005
 51
180.00001
  0
ARC
  5
8A5
  8
0
  6
CONTINUOUS
 62
     7
 10
-771.24383999999986
 20
333.20479999999992
 30
0.0
 40
4.0
 50
315.0
 51
0.0
  0
ARC
  5
8A6
  8
0
  6
CONTINUOUS
 62
     7
 10
-832.2438400000002
 20
191.3006
 30
0.0
 40
5.0
 50
88.0
 51
180.00001
  0
ARC
  5
8A7
  8
0
  6
CONTINUOUS
 62
     7
 10
-837.24384000000009
 20
303.71947999999992
 30
0.0
 40
5.0
 50
91.999998000000005
 51
180.00001
  0
ARC
  5
8A8
  8
0
  6
CONTINUOUS
 62
     7
 10
-790.07654000000002
 20
314.37209999999982
 30
0.0
 40
4.0
 50
272.0
 51
315.0
  0
ARC
  5
8A9
  8
0
  6
CONTINUOUS
 62
     7
 10
-832.2438400000002
 20
229.34106
 30
0.0
 40
5.0
 50
90.000003000000007
 51
180.00001
  0
ARC
  5
8AA
  8
0
  6
CONTINUOUS
 62
     3
 10
-1016.2506
 20
275.35590000000002
 30
0.0
 40
0.99319202
 50
119.7734
 51
179.87956
  0
ARC
  5
8AB
  8
0
  6
CONTINUOUS
 62
     3
 10
-1016.2482
 20
274.31765999999988
 30
0.0
 40
0.99558806
 50
116.58749
 51
179.98224999999991
  0
ARC
  5
8AC
  8
0
  6
CONTINUOUS
 62
     3
 10
-1014.981799999999
 20
276.09210000000002
 30
0.0
 40
0.9959119600000002
 50
89.541443999999998
 51
119.6069899999999
  0
ARC
  5
8AD
  8
0
  6
CONTINUOUS
 62
     3
 10
-1015.018999999999
 20
274.94393999999988
 30
0.0
 40
0.9941280500000002
 50
89.122808000000006
 51
115.93481
  0
ARC
  5
8AE
  8
0
  6
CONTINUOUS
 62
     3
 10
-1014.975
 20
273.98379999999992
 30
0.0
 40
0.9942600099999999
 50
89.355881999999966
 51
120.78109000000001
  0
ARC
  5
8AF
  8
0
  6
CONTINUOUS
 62
     3
 10
-1015.008699999998
 20
272.84262000000001
 30
0.0
 40
0.99546796
 50
89.141447999999983
 51
117.2036599999999
  0
ARC
  5
8B0
  8
0
  6
CONTINUOUS
 62
     3
 10
-1014.9371
 20
269.47176999999982
 30
0.0
 40
0.9962120099999999
 50
90.381906000000001
 51
123.9699
  0
ARC
  5
8B1
  8
0
  6
CONTINUOUS
 62
     3
 10
-1014.964399999999
 20
268.33148
 30
0.0
 40
0.99651998
 50
90.541213000000027
 51
120.7432799999999
  0
ARC
  5
8B2
  8
0
  6
CONTINUOUS
 62
     3
 10
-1016.2498000000001
 20
267.58114999999998
 30
0.0
 40
0.99407595
 50
120.4692
 51
180.18464
  0
ARC
  5
8B3
  8
0
  6
CONTINUOUS
 62
     3
 10
-1016.248999999999
 20
268.61559999999992
 30
0.0
 40
0.9948279899999999
 50
123.2046899999999
 51
180.43813
  0
ARC
  5
8B4
  8
0
  6
CONTINUOUS
 62
     3
 10
-1016.2506
 20
272.17937999999992
 30
0.0
 40
0.9932120999999998
 50
117.7993399999999
 51
180.08183
  0
ARC
  5
8B5
  8
0
  6
CONTINUOUS
 62
     7
 10
-893.7488400000002
 20
204.84305000000001
 30
0.0
 40
5.4981922999999986
 50
84.729479999999981
 51
185.27052
  0
ARC
  5
8B6
  8
0
  6
CONTINUOUS
 62
     3
 10
-1016.2494
 20
273.21694999999988
 30
0.0
 40
0.9944360899999999
 50
121.15217
 51
179.9404899999999
  0
ARC
  5
8B7
  8
0
  6
CONTINUOUS
 62
     3
 10
-1015.0428000000001
 20
262.03250000000003
 30
0.0
 40
0.99548006
 50
90.057320999999988
 51
113.12703
  0
ARC
  5
8B8
  8
0
  6
CONTINUOUS
 62
     3
 10
-999.10308999999995
 20
186.11883999999981
 30
0.0
 40
1.004235999999999
 50
314.93782999999991
 51
5.6649238999999989
  0
ARC
  5
8B9
  8
0
  6
CONTINUOUS
 62
     3
 10
-887.74359000000004
 20
255.83815000000001
 30
0.0
 40
1.4998400000000001
 50
359.99394000000001
 51
90.006061000000003
  0
ARC
  5
8BA
  8
0
  6
CONTINUOUS
 62
     3
 10
-887.74871999999993
 20
198.8428599999998
 30
0.0
 40
1.5049160999999991
 50
270.18678
 51
359.81322
  0
ARC
  5
8BB
  8
0
  6
CONTINUOUS
 62
     7
 10
-938.74854000000005
 20
249.84273999999999
 30
0.0
 40
5.5071000999999971
 50
264.84087999999991
 51
5.1591262000000002
  0
ARC
  5
8BC
  8
0
  6
CONTINUOUS
 62
     3
 10
-1015.104699999999
 20
260.08526999999992
 30
0.0
 40
0.99277198
 50
89.374808000000016
 51
106.33181999999979
  0
ARC
  5
8BD
  8
0
  6
CONTINUOUS
 62
     3
 10
-1016.2476
 20
259.7337
 30
0.0
 40
0.9962600499999998
 50
106.6974899999999
 51
180.33049
  0
ARC
  5
8BE
  8
0
  6
CONTINUOUS
 62
     3
 10
-1016.2473999999989
 20
261.51956000000001
 30
0.0
 40
0.99640006
 50
112.8173899999998
 51
180.0903999999999
  0
ARC
  5
8BF
  8
0
  6
CONTINUOUS
 62
     3
 10
-1016.2488
 20
252.3428999999999
 30
0.0
 40
0.9950799899999999
 50
89.71592099999998
 51
180.2840699999999
  0
ARC
  5
8C0
  8
0
  6
CONTINUOUS
 62
     3
 10
-1016.243599999999
 20
252.3382
 30
0.0
 40
1.0002040000000001
 50
180.0116699999999
 51
269.9883200000001
  0
ARC
  5
8C1
  8
0
  6
CONTINUOUS
 62
     3
 10
-1016.2488
 20
242.34289999999999
 30
0.0
 40
0.99508399
 50
89.716132999999985
 51
180.28387000000001
  0
ARC
  5
8C2
  8
0
  6
CONTINUOUS
 62
     3
 10
-1016.243599999999
 20
242.33816999999991
 30
0.0
 40
1.000199899999999
 50
180.0114699999998
 51
269.98852999999991
  0
ARC
  5
8C3
  8
0
  6
CONTINUOUS
 62
     3
 10
-1016.2488
 20
232.3428999999999
 30
0.0
 40
0.9950879799999999
 50
89.716344999999961
 51
180.28364999999991
  0
ARC
  5
8C4
  8
0
  6
CONTINUOUS
 62
     3
 10
-1016.243599999999
 20
232.33816999999999
 30
0.0
 40
1.0001959999999981
 50
180.01124999999999
 51
269.98874000000001
  0
ARC
  5
8C5
  8
0
  6
CONTINUOUS
 62
     3
 10
-1013.248699999999
 20
254.3428999999999
 30
0.0
 40
1.0049318999999981
 50
270.28041999999999
 51
359.71958000000001
  0
ARC
  5
8C6
  8
0
  6
CONTINUOUS
 62
     3
 10
-1013.2437
 20
230.33812
 30
0.0
 40
0.99984801
 50
359.99121999999988
 51
90.008778999999976
  0
ARC
  5
8C7
  8
0
  6
CONTINUOUS
 62
     3
 10
-1013.2437
 20
250.33812
 30
0.0
 40
0.99985206
 50
359.99144999999999
 51
90.008546999999993
  0
ARC
  5
8C8
  8
0
  6
CONTINUOUS
 62
     3
 10
-1013.248699999999
 20
234.34286
 30
0.0
 40
1.0049240999999991
 50
270.28001
 51
359.71999
  0
ARC
  5
8C9
  8
0
  6
CONTINUOUS
 62
     3
 10
-1013.2437
 20
240.33812
 30
0.0
 40
0.9998440099999999
 50
359.99101000000002
 51
90.008991000000023
  0
ARC
  5
8CA
  8
0
  6
CONTINUOUS
 62
     3
 10
-1013.248699999999
 20
244.34289999999999
 30
0.0
 40
1.004928
 50
270.28021999999987
 51
359.71977999999979
  0
ARC
  5
8CB
  8
0
  6
CONTINUOUS
 62
     3
 10
-1013.2421000000001
 20
260.07967999999988
 30
0.0
 40
0.9982959599999999
 50
359.90204
 51
90.097960999999998
  0
ARC
  5
8CC
  8
0
  6
CONTINUOUS
 62
     3
 10
-1013.246199999999
 20
268.32558999999992
 30
0.0
 40
1.002375999999999
 50
0.13559199
 51
89.864409999999964
  0
ARC
  5
8CD
  8
0
  6
CONTINUOUS
 62
     3
 10
-1012.9483999999979
 20
263.73250999999982
 30
0.0
 40
0.7045519900000004
 50
270.36910999999992
 51
359.63088999999991
  0
ARC
  5
8CE
  8
0
  6
CONTINUOUS
 62
     3
 10
-1013.2428
 20
272.83895999999987
 30
0.0
 40
0.9990080599999998
 50
359.94315
 51
90.056843000000015
  0
ARC
  5
8CF
  8
0
  6
CONTINUOUS
 62
     3
 10
-1012.7422
 20
275.43964
 30
0.0
 40
0.4983640000000002
 50
359.81141000000002
 51
90.188598000000013
  0
ARC
  5
8D0
  8
0
  6
CONTINUOUS
 62
     3
 10
-1012.748399999999
 20
277.59258999999992
 30
0.0
 40
0.5046359900000002
 50
270.52375999999992
 51
359.47624000000002
  0
ARC
  5
8D1
  8
0
  6
CONTINUOUS
 62
     3
 10
-864.24365
 20
164.83816999999991
 30
0.0
 40
1.0001799999999981
 50
180.01031
 51
269.98967999999968
  0
ARC
  5
8D2
  8
0
  6
CONTINUOUS
 62
     3
 10
-872.43915000000015
 20
167.48335
 30
0.0
 40
2.005392099999999
 50
270.15275000000003
 51
344.81207000000001
  0
ARC
  5
8D3
  8
0
  6
CONTINUOUS
 62
     3
 10
-864.24431999999979
 20
176.29743999999999
 30
0.0
 40
0.9994760199999999
 50
179.97008999999991
 51
270.02991999999989
  0
ARC
  5
8D4
  8
0
  6
CONTINUOUS
 62
     3
 10
-990.2485999999999
 20
232.33797000000001
 30
0.0
 40
1.000011999999999
 50
89.726507999999981
 51
270.27347999999989
  0
ARC
  5
8D5
  8
0
  6
CONTINUOUS
 62
     3
 10
-1006.0227999999991
 20
278.32555999999988
 30
0.0
 40
1.9924479999999991
 50
89.742107999999988
 51
169.8117899999998
  0
ARC
  5
8D6
  8
0
  6
CONTINUOUS
 62
     3
 10
-1006.078999999999
 20
283.60867000000002
 30
0.0
 40
1.9992881
 50
89.851815000000016
 51
167.89433
  0
ARC
  5
8D7
  8
0
  6
CONTINUOUS
 62
     3
 10
-1010.4595
 20
279.87819999999999
 30
0.0
 40
1.500248
 50
270.21661999999992
 51
347.67500000000001
  0
ARC
  5
8D8
  8
0
  6
CONTINUOUS
 62
     3
 10
-1006.1118
 20
287.01346000000001
 30
0.0
 40
1.994515899999997
 50
89.771334999999979
 51
166.8280399999999
  0
ARC
  5
8D9
  8
0
  6
CONTINUOUS
 62
     3
 10
-1010.435399999999
 20
283.94173999999992
 30
0.0
 40
1.503776
 50
270.05984000000001
 51
346.39312999999999
  0
ARC
  5
8DA
  8
0
  6
CONTINUOUS
 62
     3
 10
-1010.4225
 20
285.9611799999999
 30
0.0
 40
1.503231999999997
 50
270.33132000000001
 51
346.01802999999978
  0
ARC
  5
8DB
  8
0
  6
CONTINUOUS
 62
     3
 10
-1006.1373
 20
288.64114000000001
 30
0.0
 40
1.996815999999999
 50
89.901436000000004
 51
165.88940999999991
  0
ARC
  5
8DC
  8
0
  6
CONTINUOUS
 62
     3
 10
-989.24841000000004
 20
287.20263999999992
 30
0.0
 40
1.9953640999999991
 50
89.866758999999988
 51
180.13323
  0
ARC
  5
8DD
  8
0
  6
CONTINUOUS
 62
     3
 10
-989.24761999999987
 20
289.23177999999967
 30
0.0
 40
1.9961880000000001
 50
89.890486999999965
 51
180.10950999999989
  0
ARC
  5
8DE
  8
0
  6
CONTINUOUS
 62
     3
 10
-989.25023999999974
 20
290.58443999999992
 30
0.0
 40
1.9935560999999991
 50
89.814515
 51
180.18548999999999
  0
ARC
  5
8DF
  8
0
  6
CONTINUOUS
 62
     3
 10
-989.24829
 20
291.25925000000001
 30
0.0
 40
1.9987239999999991
 50
89.871137000000004
 51
165.55096
  0
ARC
  5
8E0
  8
0
  6
CONTINUOUS
 62
     3
 10
-992.75049000000001
 20
281.82468
 30
0.0
 40
1.506699899999999
 50
270.2541599999999
 51
359.74583999999987
  0
ARC
  5
8E1
  8
0
  6
CONTINUOUS
 62
     3
 10
-992.74663999999996
 20
287.11081000000001
 30
0.0
 40
1.502835899999998
 50
270.10793999999999
 51
359.89206000000001
  0
ARC
  5
8E2
  8
0
  6
CONTINUOUS
 62
     3
 10
-992.74865999999975
 20
290.51281999999992
 30
0.0
 40
1.5048719999999991
 50
270.18518
 51
359.81482
  0
ARC
  5
8E3
  8
0
  6
CONTINUOUS
 62
     3
 10
-992.63720999999998
 20
292.14098999999999
 30
0.0
 40
1.503015999999997
 50
270.12945000000002
 51
345.23653999999999
  0
ARC
  5
8E4
  8
0
  6
CONTINUOUS
 62
     3
 10
-936.24474999999995
 20
289.22705000000002
 30
0.0
 40
2.0009238999999992
 50
0.026462999
 51
89.973535999999982
  0
ARC
  5
8E5
  8
0
  6
CONTINUOUS
 62
     3
 10
-936.2420699999999
 20
290.57965000000002
 30
0.0
 40
1.9982921
 50
359.95102999999978
 51
90.048975000000013
  0
ARC
  5
8E6
  8
0
  6
CONTINUOUS
 62
     3
 10
-936.24567000000002
 20
291.25616000000002
 30
0.0
 40
2.0018279999999971
 50
0.052301
 51
89.947696999999977
  0
ARC
  5
8E7
  8
0
  6
CONTINUOUS
 62
     3
 10
-865.59356999999966
 20
275.19036999999992
 30
0.0
 40
1.502391899999999
 50
195.1400099999999
 51
269.99063999999998
  0
ARC
  5
8E8
  8
0
  6
CONTINUOUS
 62
     3
 10
-872.43426999999986
 20
287.19900999999999
 30
0.0
 40
1.998987899999999
 50
15.047801
 51
89.987373000000005
  0
ARC
  5
8E9
  8
0
  6
CONTINUOUS
 62
     3
 10
-864.24884000000031
 20
289.84292999999991
 30
0.0
 40
0.9950640200000001
 50
89.714938000000004
 51
180.28505999999999
  0
ARC
  5
8EA
  8
0
  6
CONTINUOUS
 62
     3
 10
-864.24944999999957
 20
278.38357999999982
 30
0.0
 40
0.9944000200000001
 50
89.676490999999999
 51
180.32351
  0
ARC
  5
8EB
  8
0
  6
CONTINUOUS
 62
     3
 10
-865.53795999999988
 20
279.87844999999999
 30
0.0
 40
1.500475999999999
 50
192.33223000000001
 51
270.15827999999999
  0
ARC
  5
8EC
  8
0
  6
CONTINUOUS
 62
     3
 10
-870.39635999999985
 20
285.84148999999991
 30
0.0
 40
1.996488
 50
12.040875
 51
89.926440999999969
  0
ARC
  5
8ED
  8
0
  6
CONTINUOUS
 62
     3
 10
-1013.2471
 20
194.60130000000001
 30
0.0
 40
1.003363999999999
 50
270.19171
 51
359.80827999999991
  0
ARC
  5
8EE
  8
0
  6
CONTINUOUS
 62
     3
 10
-1013.248699999999
 20
204.34285999999989
 30
0.0
 40
1.0049240999999991
 50
270.28003999999999
 51
359.71996999999988
  0
ARC
  5
8EF
  8
0
  6
CONTINUOUS
 62
     3
 10
-1013.2437
 20
200.33812
 30
0.0
 40
0.99984801
 50
359.99119000000002
 51
90.008807000000004
  0
ARC
  5
8F0
  8
0
  6
CONTINUOUS
 62
     3
 10
-1012.9433
 20
190.94855000000001
 30
0.0
 40
0.69944
 50
359.95416
 51
90.045839999999984
  0
ARC
  5
8F1
  8
0
  6
CONTINUOUS
 62
     3
 10
-1015.0408
 20
192.65317999999999
 30
0.0
 40
1.005223999999999
 50
246.98628999999991
 51
269.82935999999989
  0
ARC
  5
8F2
  8
0
  6
CONTINUOUS
 62
     3
 10
-1015.1033
 20
194.60066
 30
0.0
 40
1.0027280000000001
 50
253.75297
 51
270.54039999999992
  0
ARC
  5
8F3
  8
0
  6
CONTINUOUS
 62
     3
 10
-1016.2473999999989
 20
194.95230000000001
 30
0.0
 40
0.9963799699999999
 50
180.24948999999981
 51
253.29706999999991
  0
ARC
  5
8F4
  8
0
  6
CONTINUOUS
 62
     3
 10
-1016.2473
 20
193.16643999999999
 30
0.0
 40
0.9964760499999998
 50
179.91257999999991
 51
247.17966000000001
  0
ARC
  5
8F5
  8
0
  6
CONTINUOUS
 62
     3
 10
-1016.243599999999
 20
202.33816999999991
 30
0.0
 40
1.0001959999999981
 50
180.01127999999991
 51
269.98872
  0
ARC
  5
8F6
  8
0
  6
CONTINUOUS
 62
     3
 10
-1016.2488
 20
202.3428999999999
 30
0.0
 40
0.99508399
 50
89.716324
 51
180.28368
  0
ARC
  5
8F7
  8
0
  6
CONTINUOUS
 62
     3
 10
-1016.243599999999
 20
212.33816999999991
 30
0.0
 40
1.000199899999999
 50
180.01150000000001
 51
269.98851000000002
  0
ARC
  5
8F8
  8
0
  6
CONTINUOUS
 62
     3
 10
-1016.2488
 20
212.3428999999999
 30
0.0
 40
0.99508399
 50
89.716106000000025
 51
180.2838899999999
  0
ARC
  5
8F9
  8
0
  6
CONTINUOUS
 62
     3
 10
-1016.243599999999
 20
222.33819999999989
 30
0.0
 40
1.0002040000000001
 50
180.01169999999999
 51
269.98829999999992
  0
ARC
  5
8FA
  8
0
  6
CONTINUOUS
 62
     3
 10
-1016.2488
 20
222.3428999999999
 30
0.0
 40
0.9950799899999999
 50
89.715893999999963
 51
180.2841
  0
ARC
  5
8FB
  8
0
  6
CONTINUOUS
 62
     3
 10
-1013.2488
 20
224.3428999999999
 30
0.0
 40
1.0049318999999981
 50
270.28044999999992
 51
359.71955000000008
  0
ARC
  5
8FC
  8
0
  6
CONTINUOUS
 62
     3
 10
-1013.2437
 20
220.33812
 30
0.0
 40
0.99985206
 50
359.99142999999998
 51
90.008574000000024
  0
ARC
  5
8FD
  8
0
  6
CONTINUOUS
 62
     3
 10
-1013.248699999999
 20
214.3428999999999
 30
0.0
 40
1.004928
 50
270.28023999999988
 51
359.71976000000001
  0
ARC
  5
8FE
  8
0
  6
CONTINUOUS
 62
     3
 10
-1013.2437
 20
210.33812
 30
0.0
 40
0.9998440099999999
 50
359.99097999999992
 51
90.00901800000004
  0
ARC
  5
8FF
  8
0
  6
CONTINUOUS
 62
     3
 10
-1003.0856
 20
268.93079
 30
0.0
 40
5.004112199999998
 50
279.68356999999992
 51
354.57833999999991
  0
ARC
  5
900
  8
0
  6
CONTINUOUS
 62
     3
 10
-1002.623
 20
265.00506999999988
 30
0.0
 40
6.0049156999999971
 50
45.22730700000001
 51
86.379093999999981
  0
ARC
  5
901
  8
0
  6
CONTINUOUS
 62
     3
 10
-999.09990999999991
 20
268.55826000000002
 30
0.0
 40
1.0011080999999991
 50
354.25024999999982
 51
45.146993999999992
  0
ARC
  5
902
  8
0
  6
CONTINUOUS
 62
     3
 10
-870.40136999999993
 20
168.8405799999999
 30
0.0
 40
2.0026239999999991
 50
270.21533999999991
 51
347.81734
  0
ARC
  5
903
  8
0
  6
CONTINUOUS
 62
     3
 10
-865.53674000000012
 20
174.80864
 30
0.0
 40
1.499328
 50
89.888150999999979
 51
168.09384
  0
ARC
  5
904
  8
0
  6
CONTINUOUS
 62
     3
 10
-1002.613799999998
 20
189.68514999999999
 30
0.0
 40
6.0085920999999987
 50
273.53095000000002
 51
314.61478
  0
ARC
  5
905
  8
0
  6
CONTINUOUS
 62
     3
 10
-1003.0804000000001
 20
185.74987999999991
 30
0.0
 40
4.9985837999999987
 50
5.3731198999999981
 51
80.364975999999999
  0
ARC
  5
906
  8
0
  6
CONTINUOUS
 62
     3
 10
-1016.2462
 20
179.32265000000001
 30
0.0
 40
0.9976240400000001
 50
180.2675099999999
 51
240.07953999999981
  0
ARC
  5
907
  8
0
  6
CONTINUOUS
 62
     3
 10
-1016.2482
 20
180.3683299999999
 30
0.0
 40
0.9956679299999999
 50
180.02043
 51
243.40982999999991
  0
ARC
  5
908
  8
0
  6
CONTINUOUS
 62
     3
 10
-1014.9631000000001
 20
178.5890399999999
 30
0.0
 40
1.0011358999999991
 50
239.328
 51
269.38751000000002
  0
ARC
  5
909
  8
0
  6
CONTINUOUS
 62
     3
 10
-1014.998
 20
179.73723000000001
 30
0.0
 40
0.99928796
 50
242.86126999999991
 51
269.66618999999992
  0
ARC
  5
90A
  8
0
  6
CONTINUOUS
 62
     3
 10
-1014.9725
 20
180.70160999999999
 30
0.0
 40
1.003687999999999
 50
239.37027
 51
270.49275
  0
ARC
  5
90B
  8
0
  6
CONTINUOUS
 62
     3
 10
-1014.9886
 20
181.8385899999999
 30
0.0
 40
1.0006280000000001
 50
241.64985999999999
 51
269.70470999999992
  0
ARC
  5
90C
  8
0
  6
CONTINUOUS
 62
     3
 10
-1014.951
 20
185.21849
 30
0.0
 40
1.0005360000000001
 50
237.1464
 51
270.41322000000002
  0
ARC
  5
90D
  8
0
  6
CONTINUOUS
 62
     3
 10
-1014.9805
 20
186.35896
 30
0.0
 40
1.001012
 50
240.47136
 51
270.3802
  0
ARC
  5
90E
  8
0
  6
CONTINUOUS
 62
     3
 10
-1016.2448000000001
 20
186.0626399999999
 30
0.0
 40
0.9991000299999999
 50
179.69542000000001
 51
236.66176999999999
  0
ARC
  5
90F
  8
0
  6
CONTINUOUS
 62
     3
 10
-1016.2461
 20
182.49924999999999
 30
0.0
 40
0.99770796
 50
180.0740499999998
 51
242.04476
  0
ARC
  5
910
  8
0
  6
CONTINUOUS
 62
     3
 10
-1016.2451
 20
181.46146999999991
 30
0.0
 40
0.9987800700000001
 50
179.6266699999999
 51
238.70855
  0
ARC
  5
911
  8
0
  6
CONTINUOUS
 62
     3
 10
-1013.2463
 20
186.36041
 30
0.0
 40
1.002459999999999
 50
270.14037999999999
 51
359.85962000000001
  0
ARC
  5
912
  8
0
  6
CONTINUOUS
 62
     3
 10
-1016.2454
 20
187.09725999999981
 30
0.0
 40
0.9984599899999999
 50
179.95962
 51
239.38655
  0
ARC
  5
913
  8
0
  6
CONTINUOUS
 62
     3
 10
-1013.2479
 20
181.8420599999998
 30
0.0
 40
1.0040839999999991
 50
270.23262999999992
 51
359.76737000000008
  0
ARC
  5
914
  8
0
  6
CONTINUOUS
 62
     3
 10
-1012.7472
 20
179.24135000000001
 30
0.0
 40
0.50340396
 50
270.38612999999992
 51
359.61387000000002
  0
ARC
  5
915
  8
0
  6
CONTINUOUS
 62
     3
 10
-1012.743399999999
 20
177.08841000000001
 30
0.0
 40
0.4995560300000001
 50
359.94911000000002
 51
90.050894000000014
  0
ARC
  5
916
  8
0
  6
CONTINUOUS
 62
     3
 10
-1006.0178
 20
176.35641000000001
 30
0.0
 40
1.9984440999999999
 50
190.33239999999989
 51
270.11368999999979
  0
ARC
  5
917
  8
0
  6
CONTINUOUS
 62
     3
 10
-1006.0789
 20
171.07736
 30
0.0
 40
1.9993919999999981
 50
192.1080399999999
 51
270.14582000000001
  0
ARC
  5
918
  8
0
  6
CONTINUOUS
 62
     3
 10
-1010.4607
 20
174.8088699999999
 30
0.0
 40
1.4991000000000001
 50
11.89856
 51
89.736657999999963
  0
ARC
  5
919
  8
0
  6
CONTINUOUS
 62
     3
 10
-1006.1068
 20
167.66874999999979
 30
0.0
 40
2.0007559999999991
 50
193.3141599999999
 51
270.08645000000001
  0
ARC
  5
91A
  8
0
  6
CONTINUOUS
 62
     3
 10
-1010.4305000000001
 20
170.74045000000001
 30
0.0
 40
1.497512
 50
13.418233000000001
 51
90.128792999999988
  0
ARC
  5
91B
  8
0
  6
CONTINUOUS
 62
     3
 10
-1010.415999999999
 20
168.71985000000001
 30
0.0
 40
1.4981281
 50
14.224575
 51
89.916113999999979
  0
ARC
  5
91C
  8
0
  6
CONTINUOUS
 62
     3
 10
-1006.1322999999981
 20
166.04109
 30
0.0
 40
2.0031319000000001
 50
194.25158999999999
 51
269.95755000000003
  0
ARC
  5
91D
  8
0
  6
CONTINUOUS
 62
     3
 10
-989.24334999999985
 20
167.4784199999998
 30
0.0
 40
2.0004520000000001
 50
180.0129
 51
269.98709999999988
  0
ARC
  5
91E
  8
0
  6
CONTINUOUS
 62
     3
 10
-989.24249000000009
 20
165.4492799999999
 30
0.0
 40
2.0013117999999981
 50
180.03756000000001
 51
269.96244000000002
  0
ARC
  5
91F
  8
0
  6
CONTINUOUS
 62
     3
 10
-989.24517999999989
 20
164.09658999999991
 30
0.0
 40
1.9986198999999969
 50
179.9604699999999
 51
270.03952999999967
  0
ARC
  5
920
  8
0
  6
CONTINUOUS
 62
     3
 10
-989.24987999999996
 20
163.42802
 30
0.0
 40
2.000076099999998
 50
194.77497999999991
 51
270.17352999999991
  0
ARC
  5
921
  8
0
  6
CONTINUOUS
 62
     3
 10
-992.74535999999989
 20
172.85638
 30
0.0
 40
1.501567999999998
 50
0.059805003
 51
89.940196999999998
  0
ARC
  5
922
  8
0
  6
CONTINUOUS
 62
     3
 10
-992.74651999999958
 20
167.57523999999981
 30
0.0
 40
1.502715899999999
 50
0.103436
 51
89.896566000000007
  0
ARC
  5
923
  8
0
  6
CONTINUOUS
 62
     3
 10
-992.74352999999985
 20
164.16822999999999
 30
0.0
 40
1.499755999999999
 50
359.99058999999983
 51
90.009407999999965
  0
ARC
  5
924
  8
0
  6
CONTINUOUS
 62
     3
 10
-992.63231999999982
 20
162.54133999999999
 30
0.0
 40
1.4966440000000001
 50
14.57574
 51
90.058278000000001
  0
ARC
  5
925
  8
0
  6
CONTINUOUS
 62
     3
 10
-936.24987999999985
 20
165.45401000000001
 30
0.0
 40
2.0060479999999981
 50
270.17248999999998
 51
359.82751000000002
  0
ARC
  5
926
  8
0
  6
CONTINUOUS
 62
     3
 10
-936.24719000000005
 20
164.1013199999999
 30
0.0
 40
2.0033560000000001
 50
270.09593999999998
 51
359.90406000000002
  0
ARC
  5
927
  8
0
  6
CONTINUOUS
 62
     3
 10
-936.24572999999998
 20
163.42985999999991
 30
0.0
 40
2.0019
 50
270.05437999999992
 51
359.94562000000002
  0
ARC
  5
928
  8
0
  6
CONTINUOUS
 62
     3
 10
-865.59844999999984
 20
179.49197000000001
 30
0.0
 40
1.4959960999999991
 50
89.821707000000004
 51
165.04766000000001
  0
ARC
  5
929
  8
0
  6
CONTINUOUS
 62
     3
 10
-990.2485999999999
 20
242.33797000000001
 30
0.0
 40
1.000011999999999
 50
89.726507999999981
 51
270.27347999999989
  0
ARC
  5
92A
  8
0
  6
CONTINUOUS
 62
     3
 10
-990.2485999999999
 20
252.33797000000001
 30
0.0
 40
1.000011999999999
 50
89.726507999999981
 51
270.27347999999989
  0
ARC
  5
92B
  8
0
  6
CONTINUOUS
 62
     7
 10
-766.70220999999958
 20
185.87578999999999
 30
0.0
 40
4.0
 50
88.0
 51
107.3416099999999
  0
ARC
  5
92C
  8
0
  6
CONTINUOUS
 62
     3
 10
-990.2485999999999
 20
262.3379799999999
 30
0.0
 40
1.000011999999999
 50
89.726507999999981
 51
270.27347999999989
  0
ARC
  5
92D
  8
0
  6
CONTINUOUS
 62
     3
 10
-1007.9796
 20
232.34297000000001
 30
0.0
 40
1.265012
 50
89.737716000000006
 51
270.26227999999992
  0
ARC
  5
92E
  8
0
  6
CONTINUOUS
 62
     3
 10
-1007.9138
 20
242.3479599999998
 30
0.0
 40
1.3300080000000001
 50
90.000003000000007
 51
270.0
  0
ARC
  5
92F
  8
0
  6
CONTINUOUS
 62
     3
 10
-998.78381000000013
 20
252.36295999999999
 30
0.0
 40
1.4650040999999969
 50
90.000003000000007
 51
270.0
  0
ARC
  5
930
  8
0
  6
CONTINUOUS
 62
     3
 10
-998.57061999999985
 20
262.38292999999999
 30
0.0
 40
1.6750161999999991
 50
89.766540000000006
 51
270.23345999999992
  0
ARC
  5
931
  8
0
  6
CONTINUOUS
 62
     3
 10
-1006.6938
 20
232.33797000000001
 30
0.0
 40
1.0
 50
90.000003000000007
 51
270.0
  0
ARC
  5
932
  8
0
  6
CONTINUOUS
 62
     3
 10
-1006.6938
 20
242.33797000000001
 30
0.0
 40
1.0
 50
90.000003000000007
 51
270.0
  0
ARC
  5
933
  8
0
  6
CONTINUOUS
 62
     3
 10
-997.69861000000014
 20
262.3379799999999
 30
0.0
 40
1.000011999999999
 50
89.728448
 51
270.27154000000002
  0
ARC
  5
934
  8
0
  6
CONTINUOUS
 62
     3
 10
-997.69861000000014
 20
252.33797000000001
 30
0.0
 40
1.000011999999999
 50
89.728448
 51
270.27154000000002
  0
ARC
  5
935
  8
0
  6
CONTINUOUS
 62
     3
 10
-884.94726999999989
 20
259.71148999999991
 30
0.0
 40
0.9965119399999997
 50
89.798963000000015
 51
180.20103
  0
ARC
  5
936
  8
0
  6
CONTINUOUS
 62
     3
 10
-884.94256999999971
 20
258.60872999999992
 30
0.0
 40
1.001239999999999
 50
180.04312999999991
 51
268.21195999999992
  0
ARC
  5
937
  8
0
  6
CONTINUOUS
 62
     3
 10
-884.94768999999985
 20
196.07213999999991
 30
0.0
 40
0.99615997
 50
91.504365000000007
 51
180.24055000000001
  0
ARC
  5
938
  8
0
  6
CONTINUOUS
 62
     3
 10
-884.94225999999981
 20
194.96957
 30
0.0
 40
1.001595999999999
 50
180.09126000000001
 51
269.90875
  0
ARC
  5
939
  8
0
  6
CONTINUOUS
 62
     3
 10
-868.42382999999984
 20
262.38292999999999
 30
0.0
 40
1.675003999999999
 50
270.0
 51
90.000003000000007
  0
ARC
  5
93A
  8
0
  6
CONTINUOUS
 62
     3
 10
-871.90386999999964
 20
262.3379799999999
 30
0.0
 40
1.0
 50
270.0
 51
90.000003000000007
  0
ARC
  5
93B
  8
0
  6
CONTINUOUS
 62
     3
 10
-871.90386999999964
 20
192.3379699999999
 30
0.0
 40
1.0
 50
270.0
 51
90.000003000000007
  0
ARC
  5
93C
  8
0
  6
CONTINUOUS
 62
     3
 10
-868.42382999999984
 20
192.29300000000001
 30
0.0
 40
1.675003999999999
 50
270.0
 51
90.000003000000007
  0
ARC
  5
93D
  8
0
  6
CONTINUOUS
 62
     3
 10
-1006.6938
 20
222.33797000000001
 30
0.0
 40
1.0
 50
90.000003000000007
 51
270.0
  0
ARC
  5
93E
  8
0
  6
CONTINUOUS
 62
     3
 10
-990.2485999999999
 20
212.33797000000001
 30
0.0
 40
1.000011999999999
 50
89.726507999999981
 51
270.27347999999989
  0
ARC
  5
93F
  8
0
  6
CONTINUOUS
 62
     3
 10
-990.2485999999999
 20
202.33797000000001
 30
0.0
 40
1.000011999999999
 50
89.726507999999981
 51
270.27347999999989
  0
ARC
  5
940
  8
0
  6
CONTINUOUS
 62
     3
 10
-1007.9138
 20
212.32796999999991
 30
0.0
 40
1.3300080000000001
 50
90.000003000000007
 51
270.0
  0
ARC
  5
941
  8
0
  6
CONTINUOUS
 62
     3
 10
-1007.7838
 20
202.3129899999999
 30
0.0
 40
1.4650040999999969
 50
90.000003000000007
 51
270.0
  0
ARC
  5
942
  8
0
  6
CONTINUOUS
 62
     3
 10
-1006.6985
 20
192.3379699999999
 30
0.0
 40
1.000011999999999
 50
89.728461999999965
 51
270.27154000000002
  0
ARC
  5
943
  8
0
  6
CONTINUOUS
 62
     3
 10
-990.2485999999999
 20
222.33797000000001
 30
0.0
 40
1.000011999999999
 50
89.726507999999981
 51
270.27347999999989
  0
ARC
  5
944
  8
0
  6
CONTINUOUS
 62
     3
 10
-990.2485999999999
 20
192.3379699999999
 30
0.0
 40
1.000011999999999
 50
89.726507999999981
 51
270.27347999999989
  0
ARC
  5
945
  8
0
  6
CONTINUOUS
 62
     3
 10
-1007.9796
 20
222.33797000000001
 30
0.0
 40
1.2700118999999981
 50
89.738748000000001
 51
270.26123999999999
  0
ARC
  5
946
  8
0
  6
CONTINUOUS
 62
     3
 10
-1007.5707
 20
192.29300000000001
 30
0.0
 40
1.6750161999999991
 50
89.764983000000015
 51
270.23500999999987
  0
ARC
  5
947
  8
0
  6
CONTINUOUS
 62
     3
 10
-1006.6938
 20
212.33797000000001
 30
0.0
 40
1.0
 50
90.000003000000007
 51
270.0
  0
ARC
  5
948
  8
0
  6
CONTINUOUS
 62
     3
 10
-1006.6985
 20
202.33797000000001
 30
0.0
 40
1.000011999999999
 50
89.728461999999965
 51
270.27154000000002
  0
ARC
  5
949
  8
0
  6
CONTINUOUS
 62
     7
 10
-763.24377000000004
 20
193.75993
 30
0.0
 40
4.0
 50
206.8969399999998
 51
268.0
  0
ARC
  5
94A
  8
0
  6
CONTINUOUS
 62
     7
 10
-833.82024999999987
 20
164.9173899999999
 30
0.0
 40
4.0
 50
107.3416099999999
 51
158.11661000000001
  0
ARC
  5
94B
  8
0
  6
CONTINUOUS
 62
     7
 10
-770.37835999999982
 20
190.14081999999991
 30
0.0
 40
4.0
 50
26.896937000000001
 51
88.0
  0
ARC
  5
94C
  8
0
  6
CONTINUOUS
 62
     7
 10
-602.74377000000004
 20
409.08575000000002
 30
0.0
 40
5.0
 50
300.88097999999979
 51
0.0
  0
ARC
  5
94D
  8
0
  6
CONTINUOUS
 62
     7
 10
-665.54400999999984
 20
395.34307999999987
 30
0.0
 40
30.946884000000001
 50
307.55230999999992
 51
335.5961299999999
  0
ARC
  5
94E
  8
0
  6
CONTINUOUS
 62
     7
 10
-644.24377000000004
 20
374.03687000000002
 30
0.0
 40
5.0
 50
229.76332999999991
 51
270.0
  0
ARC
  5
94F
  8
0
  6
CONTINUOUS
 62
     7
 10
-616.79076999999995
 20
374.03687000000002
 30
0.0
 40
5.0
 50
270.0
 51
306.72320999999999
  0
ARC
  5
950
  8
0
  6
CONTINUOUS
 62
     7
 10
-667.74377000000004
 20
190.4648399999999
 30
0.0
 40
9.7211408999999982
 50
90.000003000000007
 51
270.0
  0
ARC
  5
951
  8
0
  6
CONTINUOUS
 62
     7
 10
-285.28093999999982
 20
281.54793999999998
 30
0.0
 40
8.0
 50
270.0
 51
0.0
  0
ARC
  5
952
  8
0
  6
CENTER
 62
     7
 10
-215.2809399999999
 20
301.54793999999993
 30
0.0
 40
170.0
 50
308.96438000000001
 51
321.01461
  0
ARC
  5
953
  8
0
  6
CONTINUOUS
 62
     7
 10
-161.36439999999979
 20
341.32238999999993
 30
0.0
 40
5.0
 50
135.0
 51
216.41632000000001
  0
ARC
  5
954
  8
0
  6
CONTINUOUS
 62
     7
 10
-284.24932999999999
 20
384.65848
 30
0.0
 40
5.0
 50
129.68721999999991
 51
225.0
  0
ARC
  5
955
  8
0
  6
CONTINUOUS
 62
     7
 10
-269.19747999999998
 20
341.32238999999993
 30
0.0
 40
5.0
 50
323.5836799999999
 51
45.00000099999999
  0
ARC
  5
956
  8
0
  6
CONTINUOUS
 62
     7
 10
-298.39147999999989
 20
370.51632999999993
 30
0.0
 40
5.0
 50
45.00000099999999
 51
140.31278
  0
ARC
  5
957
  8
0
  6
CONTINUOUS
 62
     7
 10
-255.05537000000001
 20
355.46454
 30
0.0
 40
5.0
 50
225.0
 51
306.41631999999993
  0
ARC
  5
958
  8
0
  6
CONTINUOUS
 62
     7
 10
-215.2809399999999
 20
301.54793999999993
 30
0.0
 40
61.999995999999989
 50
0.0
 51
36.416317999999983
  0
CIRCLE
  5
959
  8
0
  6
CONTINUOUS
 62
     7
 10
-335.48910999999993
 20
421.75609999999989
 30
0.0
 40
9.5
  0
ARC
  5
95A
  8
0
  6
CENTER
 62
     7
 10
-215.2809399999999
 20
301.54793999999993
 30
0.0
 40
170.0
 50
128.52508999999981
 51
141.01461
  0
ARC
  5
95B
  8
0
  6
CONTINUOUS
 62
     7
 10
-336.28969999999993
 20
422.55669999999981
 30
0.0
 40
19.0
 50
91.999998000000005
 51
178.0
  0
CIRCLE
  5
95C
  8
0
  6
CONTINUOUS
 62
     7
 10
-335.48910999999993
 20
181.33981
 30
0.0
 40
9.5
  0
ARC
  5
95D
  8
0
  6
CONTINUOUS
 62
     7
 10
-145.2809399999999
 20
281.54793999999998
 30
0.0
 40
8.0
 50
179.99998999999991
 51
270.0
  0
ARC
  5
95E
  8
0
  6
CONTINUOUS
 62
     7
 10
-336.28969999999993
 20
180.53923
 30
0.0
 40
19.0
 50
182.0
 51
268.0
  0
CIRCLE
  5
95F
  8
0
  6
CONTINUOUS
 62
     7
 10
-215.2809399999999
 20
301.54793999999993
 30
0.0
 40
120.0
  0
ARC
  5
960
  8
0
  6
CONTINUOUS
 62
     7
 10
-94.272209000000004
 20
180.53923
 30
0.0
 40
19.0
 50
272.0
 51
358.0
  0
CIRCLE
  5
961
  8
0
  6
CONTINUOUS
 62
     7
 10
-95.072799999999987
 20
181.33981
 30
0.0
 40
9.5
  0
ARC
  5
962
  8
0
  6
CONTINUOUS
 62
     7
 10
-215.2809399999999
 20
301.54793999999993
 30
0.0
 40
61.999995999999989
 50
53.583680999999999
 51
126.41632
  0
ARC
  5
963
  8
0
  6
CONTINUOUS
 62
     7
 10
-215.2809399999999
 20
301.54793999999993
 30
0.0
 40
61.999995999999989
 50
142.11498999999981
 51
180.00001
  0
ARC
  5
964
  8
0
  6
CONTINUOUS
 62
     7
 10
-594.7438400000002
 20
190.59065000000001
 30
0.0
 40
5.0
 50
268.0
 51
0.0
  0
ARC
  5
965
  8
0
  6
CONTINUOUS
 62
     7
 10
-592.74377000000004
 20
210.04111
 30
0.0
 40
5.0
 50
90.000003000000007
 51
180.00001
  0
ARC
  5
966
  8
0
  6
CONTINUOUS
 62
     7
 10
-706.74377000000004
 20
135.9333
 30
0.0
 40
2.0
 50
179.99998999999991
 51
268.00000999999992
  0
ARC
  5
967
  8
0
  6
CONTINUOUS
 62
     7
 10
-132.17043000000001
 20
370.51632999999993
 30
0.0
 40
5.0
 50
39.687224000000001
 51
135.0
  0
ARC
  5
968
  8
0
  6
CONTINUOUS
 62
     7
 10
-175.50655
 20
355.46454
 30
0.0
 40
5.0
 50
233.5836799999999
 51
315.0
  0
ARC
  5
969
  8
0
  6
CONTINUOUS
 62
     7
 10
-594.7438400000002
 20
412.50524999999988
 30
0.0
 40
5.0
 50
0.0
 51
91.999998000000005
  0
ARC
  5
96A
  8
0
  6
CONTINUOUS
 62
     7
 10
-215.2809399999999
 20
263.54793999999998
 30
0.0
 40
122.0
 50
22.571981999999991
 51
55.326820000000012
  0
ARC
  5
96B
  8
0
  6
CONTINUOUS
 62
     7
 10
-206.78095999999991
 20
409.21292
 30
0.0
 40
5.0
 50
85.485943999999975
 51
180.00001
  0
ARC
  5
96C
  8
0
  6
CONTINUOUS
 62
     7
 10
-223.78095999999991
 20
409.21292
 30
0.0
 40
5.0
 50
0.0
 51
94.514060999999984
  0
ARC
  5
96D
  8
0
  6
CONTINUOUS
 62
     7
 10
-602.74377000000004
 20
423.61901999999998
 30
0.0
 40
5.0
 50
315.0
 51
0.0
  0
ARC
  5
96E
  8
0
  6
CONTINUOUS
 62
     7
 10
-223.78095999999991
 20
390.26317999999992
 30
0.0
 40
5.0
 50
273.83762999999999
 51
0.0
  0
ARC
  5
96F
  8
0
  6
CONTINUOUS
 62
     7
 10
-146.31255999999991
 20
384.65848
 30
0.0
 40
5.0
 50
315.0
 51
50.312775000000002
  0
ARC
  5
970
  8
0
  6
CONTINUOUS
 62
     7
 10
-215.2809399999999
 20
263.54793999999998
 30
0.0
 40
122.0
 50
124.67318
 51
157.42802
  0
ARC
  5
971
  8
0
  6
CONTINUOUS
 62
     7
 10
-594.7438400000002
 20
161.52597
 30
0.0
 40
3.0
 50
179.99998999999991
 51
271.99998999999991
  0
ARC
  5
972
  8
0
  6
CONTINUOUS
 62
     7
 10
-215.2809399999999
 20
263.54793999999998
 30
0.0
 40
122.0
 50
60.143059999999998
 51
86.162371999999962
  0
ARC
  5
973
  8
0
  6
CONTINUOUS
 62
     7
 10
-594.7438400000002
 20
440.52230999999989
 30
0.0
 40
3.0
 50
91.999998000000005
 51
180.00001
  0
ARC
  5
974
  8
0
  6
CENTER
 62
     7
 10
-215.2809399999999
 20
301.54793999999993
 30
0.0
 40
170.0
 50
219.14354999999981
 51
231.01461
  0
CIRCLE
  5
975
  8
0
  6
CONTINUOUS
 62
     7
 10
-95.072799999999987
 20
421.75609999999989
 30
0.0
 40
9.5
  0
ARC
  5
976
  8
0
  6
CONTINUOUS
 62
     7
 10
-94.272209000000004
 20
422.55669999999981
 30
0.0
 40
19.0
 50
2.0
 51
88.0
  0
CIRCLE
  5
977
  8
0
  6
CONTINUOUS
 62
     7
 10
-215.2809399999999
 20
301.54793999999993
 30
0.0
 40
113.0
  0
ARC
  5
978
  8
0
  6
CENTER
 62
     7
 10
-215.2809399999999
 20
301.54793999999993
 30
0.0
 40
170.0
 50
37.843229999999998
 51
51.014603999999991
  0
ARC
  5
979
  8
0
  6
CONTINUOUS
 62
     7
 10
-320.8034399999998
 20
278.54793999999998
 30
0.0
 40
5.0
 50
192.29603999999981
 51
270.0
  0
ARC
  5
97A
  8
0
  6
CONTINUOUS
 62
     7
 10
-109.7584499999999
 20
278.54793999999998
 30
0.0
 40
5.0
 50
270.0
 51
347.70395000000002
  0
ARC
  5
97B
  8
0
  6
CONTINUOUS
 62
     7
 10
-280.28093999999999
 20
150.96465000000001
 30
0.0
 40
10.0
 50
195.00001
 51
285.0
  0
ARC
  5
97C
  8
0
  6
CONTINUOUS
 62
     7
 10
-206.78095999999991
 20
390.26317999999992
 30
0.0
 40
5.0
 50
179.99998999999991
 51
266.16235999999992
  0
ARC
  5
97D
  8
0
  6
CONTINUOUS
 62
     7
 10
-594.13129000000004
 20
321.47109999999992
 30
0.0
 40
5.0
 50
198.30292
 51
270.0
  0
ARC
  5
97E
  8
0
  6
CONTINUOUS
 62
     7
 10
-625.98650999999995
 20
400.37633999999991
 30
0.0
 40
5.0
 50
271.49999999999972
 51
315.0
  0
ARC
  5
97F
  8
0
  6
CONTINUOUS
 62
     7
 10
-215.2809399999999
 20
263.54793999999998
 30
0.0
 40
122.0
 50
93.837626000000014
 51
119.8569399999999
  0
ARC
  5
980
  8
0
  6
CONTINUOUS
 62
     7
 10
-215.2809399999999
 20
263.54793999999998
 30
0.0
 40
130.0
 50
246.6310399999999
 51
293.36896000000002
  0
CIRCLE
  5
981
  8
0
  6
CONTINUOUS
 62
     7
 10
-215.2809399999999
 20
301.54793999999993
 30
0.0
 40
41.0
  0
ARC
  5
982
  8
0
  6
CONTINUOUS
 62
     7
 10
-150.28093999999979
 20
150.96465000000001
 30
0.0
 40
10.0
 50
255.0
 51
345.0
  0
ARC
  5
983
  8
0
  6
CONTINUOUS
 62
     7
 10
-719.7438400000002
 20
149.42343
 30
0.0
 40
3.0
 50
179.99998999999991
 51
260.0
  0
ARC
  5
984
  8
0
  6
CONTINUOUS
 62
     7
 10
-711.74377000000004
 20
141.92023999999981
 30
0.0
 40
3.0
 50
0.0
 51
79.999998000000005
  0
CIRCLE
  5
985
  8
0
  6
CONTINUOUS
 62
     7
 10
-215.2809399999999
 20
301.54793999999993
 30
0.0
 40
5.0
  0
CIRCLE
  5
986
  8
0
  6
CONTINUOUS
 62
     7
 10
-215.2809399999999
 20
301.54793999999993
 30
0.0
 40
3.5
  0
ARC
  5
987
  8
0
  6
CONTINUOUS
 62
     7
 10
-215.2809399999999
 20
301.54793999999993
 30
0.0
 40
20.999998000000001
 50
106.60155
 51
73.398452000000006
  0
POLYLINE
  5
988
  8
0
  6
CONTINUOUS
 62
     7
 66
     1
 10
0.0
 20
0.0
 30
0.0
  0
VERTEX
  5
989
  8
0
  6
CONTINUOUS
 62
     7
 10
-767.24377000000004
 20
618.86632999999995
 30
0.0
  0
VERTEX
  5
98A
  8
0
  6
CONTINUOUS
 62
     7
 10
-786.98019999999985
 20
669.93632000000002
 30
0.0
 42
-1.0
  0
SEQEND
  5
98B
  8
0
 62
     7
  0
POLYLINE
  5
98C
  8
0
  6
CONTINUOUS
 62
     7
 66
     1
 10
0.0
 20
0.0
 30
0.0
  0
VERTEX
  5
98D
  8
0
  6
CONTINUOUS
 62
     7
 10
-786.98023999999998
 20
703.7960599999999
 30
0.0
 42
-0.037107926
  0
VERTEX
  5
98E
  8
0
  6
CONTINUOUS
 62
     7
 10
-782.70204000000001
 20
721.64227000000005
 30
0.0
 42
-0.032389855
  0
VERTEX
  5
98F
  8
0
  6
CONTINUOUS
 62
     7
 10
-775.99955999999975
 20
738.73078999999984
 30
0.0
 42
-0.029578605
  0
VERTEX
  5
990
  8
0
  6
CONTINUOUS
 62
     7
 10
-767.24377000000004
 20
754.86632999999983
 30
0.0
  0
SEQEND
  5
991
  8
0
 62
     7
  0
POLYLINE
  5
992
  8
0
  6
CONTINUOUS
 62
     7
 66
     1
 10
0.0
 20
0.0
 30
0.0
  0
VERTEX
  5
993
  8
0
  6
CONTINUOUS
 62
     7
 10
-618.87956999999994
 20
738.43082000000004
 30
0.0
 42
0.030646501
  0
VERTEX
  5
994
  8
0
  6
CONTINUOUS
 62
     7
 10
-623.28912000000003
 20
704.14742000000001
 30
0.0
 42
0.064801596
  0
VERTEX
  5
995
  8
0
  6
CONTINUOUS
 62
     7
 10
-618.87956999999994
 20
635.30180999999982
 30
0.0
  0
SEQEND
  5
996
  8
0
 62
     7
  0
POLYLINE
  5
997
  8
0
  6
CONTINUOUS
 62
     7
 66
     1
 10
0.0
 20
0.0
 30
0.0
  0
VERTEX
  5
998
  8
0
  6
CONTINUOUS
 62
     7
 10
-605.40266999999994
 20
586.74435000000017
 30
0.0
 42
0.0052467293
  0
VERTEX
  5
999
  8
0
  6
CONTINUOUS
 62
     7
 10
-602.98244999999997
 20
580.33451999999977
 30
0.0
 42
0.0052066122
  0
VERTEX
  5
99A
  8
0
  6
CONTINUOUS
 62
     7
 10
-600.42877999999996
 20
573.97669000000019
 30
0.0
 42
0.0051740405
  0
VERTEX
  5
99B
  8
0
  6
CONTINUOUS
 62
     7
 10
-597.74377000000004
 20
567.67345999999975
 30
0.0
  0
SEQEND
  5
99C
  8
0
 62
     7
  0
POLYLINE
  5
99D
  8
0
  6
CONTINUOUS
 62
     7
 66
     1
 10
0.0
 20
0.0
 30
0.0
  0
VERTEX
  5
99E
  8
0
  6
CONTINUOUS
 62
     7
 10
-597.74377000000004
 20
806.05913999999984
 30
0.0
  0
VERTEX
  5
99F
  8
0
  6
CONTINUOUS
 62
     7
 10
-605.40260000000001
 20
786.98844999999983
 30
0.0
 42
-1.0
  0
SEQEND
  5
9A0
  8
0
 62
     7
  0
TEXT
  5
B50
  8
0
  6
CONTINUOUS
 62
     0
 10
-381.03230375066551
 20
678.54787777172805
 30
0.0
 40
15.0
  1
VX04-240MF~VX04-600MF
  0
ENDSEC
  0
EOF
