  0
SECTION
  2
HEADER
  9
$ACADVER
  1
AC1009
  9
$INSBASE
 10
0.0
 20
0.0
 30
0.0
  9
$EXTMIN
 10
-1090.8932070426979
 20
121.0721279738588
 30
-0.0000000349181948
  9
$EXTMAX
 10
-51.661461267132829
 20
937.16091522500369
 30
0.0000000814935747
  9
$LIMMIN
 10
0.0
 20
0.0
  9
$LIMMAX
 10
12.0
 20
9.0
  9
$ORTHOMODE
 70
     0
  9
$REGENMODE
 70
     1
  9
$FILLMODE
 70
     1
  9
$QTEXTMODE
 70
     0
  9
$MIRRTEXT
 70
     1
  9
$DRAGMODE
 70
     2
  9
$LTSCALE
 40
1.0
  9
$OSMODE
 70
   551
  9
$ATTMODE
 70
     1
  9
$TEXTSIZE
 40
0.2
  9
$TRACEWID
 40
0.05
  9
$TEXTSTYLE
  7
STANDARD
  9
$CLAYER
  8
0
  9
$CELTYPE
  6
CONTINUOUS
  9
$CECOLOR
 62
   256
  9
$DIMSCALE
 40
1.0
  9
$DIMASZ
 40
0.18
  9
$DIMEXO
 40
0.0625
  9
$DIMDLI
 40
0.38
  9
$DIMRND
 40
0.0
  9
$DIMDLE
 40
0.0
  9
$DIMEXE
 40
0.18
  9
$DIMTP
 40
0.0
  9
$DIMTM
 40
0.0
  9
$DIMTXT
 40
0.18
  9
$DIMCEN
 40
0.09
  9
$DIMTSZ
 40
0.0
  9
$DIMTOL
 70
     0
  9
$DIMLIM
 70
     0
  9
$DIMTIH
 70
     1
  9
$DIMTOH
 70
     1
  9
$DIMSE1
 70
     0
  9
$DIMSE2
 70
     0
  9
$DIMTAD
 70
     0
  9
$DIMZIN
 70
     0
  9
$DIMBLK
  1

  9
$DIMASO
 70
     1
  9
$DIMSHO
 70
     1
  9
$DIMPOST
  1

  9
$DIMAPOST
  1

  9
$DIMALT
 70
     0
  9
$DIMALTD
 70
     2
  9
$DIMALTF
 40
25.399999999999999
  9
$DIMLFAC
 40
1.0
  9
$DIMTOFL
 70
     0
  9
$DIMTVP
 40
0.0
  9
$DIMTIX
 70
     0
  9
$DIMSOXD
 70
     0
  9
$DIMSAH
 70
     0
  9
$DIMBLK1
  1

  9
$DIMBLK2
  1

  9
$DIMSTYLE
  2
STANDARD
  9
$DIMCLRD
 70
     0
  9
$DIMCLRE
 70
     0
  9
$DIMCLRT
 70
     0
  9
$DIMTFAC
 40
1.0
  9
$DIMGAP
 40
0.09
  9
$LUNITS
 70
     2
  9
$LUPREC
 70
     4
  9
$SKETCHINC
 40
0.1
  9
$FILLETRAD
 40
0.0
  9
$AUNITS
 70
     0
  9
$AUPREC
 70
     0
  9
$MENU
  1
.
  9
$ELEVATION
 40
0.0
  9
$PELEVATION
 40
0.0
  9
$THICKNESS
 40
0.0
  9
$LIMCHECK
 70
     0
  9
$BLIPMODE
 70
     0
  9
$CHAMFERA
 40
0.0
  9
$CHAMFERB
 40
0.0
  9
$SKPOLY
 70
     0
  9
$TDCREATE
 40
2452300.4335109149
  9
$TDUPDATE
 40
2458540.651185764
  9
$TDINDWG
 40
0.0314987384
  9
$TDUSRTIMER
 40
0.0314987269
  9
$USRTIMER
 70
     1
  9
$ANGBASE
 50
0.0
  9
$ANGDIR
 70
     0
  9
$PDMODE
 70
     0
  9
$PDSIZE
 40
0.0
  9
$PLINEWID
 40
0.0
  9
$COORDS
 70
     1
  9
$SPLFRAME
 70
     0
  9
$SPLINETYPE
 70
     6
  9
$SPLINESEGS
 70
     8
  9
$ATTDIA
 70
     1
  9
$ATTREQ
 70
     1
  9
$HANDLING
 70
     1
  9
$HANDSEED
  5
B9A
  9
$SURFTAB1
 70
     6
  9
$SURFTAB2
 70
     6
  9
$SURFTYPE
 70
     6
  9
$SURFU
 70
     6
  9
$SURFV
 70
     6
  9
$UCSNAME
  2

  9
$UCSORG
 10
0.0
 20
0.0
 30
0.0
  9
$UCSXDIR
 10
1.0
 20
0.0
 30
0.0
  9
$UCSYDIR
 10
0.0
 20
1.0
 30
0.0
  9
$PUCSNAME
  2

  9
$PUCSORG
 10
0.0
 20
0.0
 30
0.0
  9
$PUCSXDIR
 10
1.0
 20
0.0
 30
0.0
  9
$PUCSYDIR
 10
0.0
 20
1.0
 30
0.0
  9
$USERI1
 70
     0
  9
$USERI2
 70
     0
  9
$USERI3
 70
     0
  9
$USERI4
 70
     0
  9
$USERI5
 70
     0
  9
$USERR1
 40
0.0
  9
$USERR2
 40
0.0
  9
$USERR3
 40
0.0
  9
$USERR4
 40
0.0
  9
$USERR5
 40
0.0
  9
$WORLDVIEW
 70
     1
  9
$SHADEDGE
 70
     3
  9
$SHADEDIF
 70
    70
  9
$TILEMODE
 70
     1
  9
$MAXACTVP
 70
    64
  9
$PLIMCHECK
 70
     0
  9
$PEXTMIN
 10
1.0000000000000000E+020
 20
1.0000000000000000E+020
 30
1.0000000000000000E+020
  9
$PEXTMAX
 10
-1.0000000000000000E+020
 20
-1.0000000000000000E+020
 30
-1.0000000000000000E+020
  9
$PLIMMIN
 10
0.0
 20
0.0
  9
$PLIMMAX
 10
12.0
 20
9.0
  9
$UNITMODE
 70
     0
  9
$VISRETAIN
 70
     1
  9
$PLINEGEN
 70
     0
  9
$PSLTSCALE
 70
     1
  0
ENDSEC
  0
SECTION
  2
TABLES
  0
TABLE
  2
VPORT
 70
     1
  0
VPORT
  2
*ACTIVE
 70
     0
 10
0.0
 20
0.0
 11
1.0
 21
1.0
 12
-571.27733415491537
 22
529.11652159943117
 13
0.0
 23
0.0
 14
1.0
 24
1.0
 15
0.0
 25
0.0
 16
0.0
 26
0.0
 36
1.0
 17
0.0
 27
0.0
 37
0.0
 40
821.69122743822356
 41
1.7571592210767459
 42
50.0
 43
0.0
 44
0.0
 50
0.0
 51
0.0
 71
     0
 72
   100
 73
     1
 74
     1
 75
     0
 76
     0
 77
     0
 78
     0
  0
ENDTAB
  0
TABLE
  2
LTYPE
 70
    23
  0
LTYPE
  2
CONTINUOUS
 70
     0
  3
Solid line
 72
    65
 73
     0
 40
0.0
  0
LTYPE
  2
DASHED
 70
     0
  3
__ __ __ __ __ __ __ __ __ __ __ __ __ __ __
 72
    65
 73
     2
 40
3.5
 49
2.0
 49
-1.5
  0
LTYPE
  2
CENTER
 70
     0
  3
____ _ ____ _ ____ _ ____ _ ____ _ ____ _ ____
 72
    65
 73
     4
 40
17.5
 49
13.0
 49
-1.5
 49
1.5
 49
-1.5
  0
LTYPE
  2
PHANTOM
 70
     0
  3
_____ _ _ _____ _ _ _____ _ _ _____ _ _ ____  
 72
    65
 73
     6
 40
15.5
 49
8.0
 49
-1.5
 49
1.5
 49
-1.5
 49
1.5
 49
-1.5
  0
LTYPE
  2
DOT
 70
     0
  3
. . . . . . . . . . . . . . . . . . . . . . . .
 72
    65
 73
     2
 40
0.25
 49
0.0
 49
-0.25
  0
LTYPE
  2
AM_ISO02W050
 70
     0
  3
__ __ __ __ __ __ __ __ __ __ __ __ __ __ __
 72
    65
 73
     2
 40
7.5
 49
6.0
 49
-1.5
  0
LTYPE
  2
AM_ISO08W050
 70
     0
  3
____ . ____ . ____ . ____ . ____ . ____ . ____
 72
    65
 73
     4
 40
18.0
 49
12.0
 49
-1.5
 49
3.0
 49
-1.5
  0
LTYPE
  2
AM_ISO09W050
 70
     0
  3
_____ . . _____ . . _____ . . ____ .. ____
 72
    65
 73
     6
 40
22.5
 49
12.0
 49
-1.5
 49
3.0
 49
-1.5
 49
3.0
 49
-1.5
  0
LTYPE
  2
AMCONSTR
 70
     0
  3
_______________________
 72
    65
 73
     2
 40
9999.0
 49
9999.0
 49
0.0
  0
LTYPE
  2
AM_ISO08W050X2
 70
     0
  3
__ . __ . __ . __ . __ . __
 72
    65
 73
     4
 40
9.0
 49
6.0
 49
-0.75
 49
1.5
 49
-0.75
  0
LTYPE
  2
AM_ISO02W050X2
 70
     0
  3
 _ _ _ _ _ _ _ _ _ _ _ _
 72
    65
 73
     2
 40
3.75
 49
3.0
 49
-0.75
  0
LTYPE
  2
AMZIGZAG
 70
     0
  3
/\/-/\/-/\/-/\/-/\/-/\/
 72
    65
 73
     2
 40
11.000099999999991
 49
0.0001
 49
-11.0
  0
LTYPE
  2
HIDDEN
 70
     0
  3
Hidden __ __ __ __ __ __ __ __ __ __ __ __ __ _
 72
    65
 73
     2
 40
0.375
 49
0.25
 49
-0.125
  0
LTYPE
  2
PHANTOM2
 70
     0
  3
Phantom (.5x) ___ _ _ ___ _ _ ___ _ _ ___ _ _
 72
    65
 73
     6
 40
1.25
 49
0.625
 49
-0.125
 49
0.125
 49
-0.125
 49
0.125
 49
-0.125
  0
LTYPE
  2
CENTER2
 70
     0
  3
Center (.5x) ___ _ ___ _ ___ _ ___ _ ___ _ ___
 72
    65
 73
     4
 40
1.125
 49
0.75
 49
-0.125
 49
0.125
 49
-0.125
  0
LTYPE
  2
HIDDEN2
 70
     0
  3
Hidden (.5x) _ _ _ _ _ _ _ _ _ _ _ _ _ _ _ _ _
 72
    65
 73
     2
 40
0.1875
 49
0.125
 49
-0.0625
  0
LTYPE
  2
AMZIGZAG2
 70
     0
  3
/\/-/\/-/\/-/\/-/\/-/\/
 72
    65
 73
     2
 40
0.4401
 49
0.0001
 49
-0.4400000000000003
  0
LTYPE
  2
ACANSTGB
 70
     0
  3
__ . . __ . .
 72
    65
 73
     6
 40
0.35433070866
 49
0.15748031496
 49
-0.03937007874
 49
0.03937007874
 49
-0.03937007874
 49
0.03937007874
 49
-0.03937007874
  0
LTYPE
  2
ACANSTGL
 70
     0
  3
_ _ _ _ _
 72
    65
 73
     2
 40
0.11811023622
 49
0.07874015748
 49
-0.03937007874
  0
LTYPE
  2
ACISOWELD
 70
     0
  3
_ _ _ _ _
 72
    65
 73
     2
 40
2.0
 49
2.0
 49
-1.0
  0
LTYPE
  2
ACISOTGB
 70
     0
  3
__ . . __ . .
 72
    65
 73
     6
 40
9.0
 49
4.0
 49
-1.0
 49
1.0
 49
-1.0
 49
1.0
 49
-1.0
  0
LTYPE
  2
ACISOTGL
 70
     0
  3
_ _ _ _ _
 72
    65
 73
     2
 40
3.0
 49
2.0
 49
-1.0
  0
ENDTAB
  0
TABLE
  2
LAYER
 70
     1
  0
LAYER
  2
0
 70
     0
 62
     7
  6
CONTINUOUS
  0
ENDTAB
  0
TABLE
  2
STYLE
 70
     6
  0
STYLE
  2
STANDARD
 70
     0
 40
0.0
 41
1.0
 50
0.0
 71
     0
 42
0.2
  3
txt
  4

  0
STYLE
  2
ANNOTATIVE
 70
     0
 40
0.0
 41
1.0
 50
0.0
 71
     0
 42
0.2
  3
txt
  4

  0
STYLE
  2

 70
     1
 40
0.0
 41
1.0
 50
0.0
 71
     0
 42
0.2
  3
ltypeshp.shx
  4

  0
STYLE
  2
ACANSTS
 70
     0
 40
1.0
 41
1.0
 50
0.0
 71
     0
 42
0.2
  3
romans.shx
  4
extfont.shx
  0
STYLE
  2
ACANSGDT
 70
     0
 40
0.0
 41
1.0
 50
0.0
 71
     0
 42
0.2
  3
amgdt.shx
  4

  0
STYLE
  2
ACISOGDT
 70
     0
 40
0.0
 41
1.0
 50
0.0
 71
     0
 42
2.5
  3
amgdt.shx
  4

  0
ENDTAB
  0
TABLE
  2
VIEW
 70
     0
  0
ENDTAB
  0
TABLE
  2
UCS
 70
     0
  0
ENDTAB
  0
TABLE
  2
APPID
 70
    12
  0
APPID
  2
ACAD
 70
     0
  0
APPID
  2
ACADANNOTATIVE
 70
     0
  0
APPID
  2
MCAD_NO_VIS
 70
     0
  0
APPID
  2
ACAD_TEMP_GRAPHIC
 70
     0
  0
APPID
  2
ACATTRIBSERVICES
 70
     0
  0
APPID
  2
DESIGNERASSEMBLIES
 70
     0
  0
APPID
  2
ACAD_DSTYLE_DIMBREAK
 70
     0
  0
APPID
  2
ACAD_DSTYLE_DIMJAG
 70
     0
  0
APPID
  2
ACAD_NAV_VCDISPLAY
 70
     0
  0
APPID
  2
ACAD_PSEXT
 70
     0
  0
APPID
  2
ACAD_EXEMPT_FROM_CAD_STANDARDS
 70
     0
  0
APPID
  2
ACAD_MLEADERVER
 70
     0
  0
ENDTAB
  0
TABLE
  2
DIMSTYLE
 70
    16
  0
DIMSTYLE
  2
STANDARD
 70
     0
  3

  4

  5

  6

  7

 40
1.0
 41
0.18
 42
0.0625
 43
0.38
 44
0.18
 45
0.0
 46
0.0
 47
0.0
 48
0.0
140
0.18
141
0.09
142
0.0
143
25.399999999999999
144
1.0
145
0.0
146
1.0
147
0.09
 71
     0
 72
     0
 73
     1
 74
     1
 75
     0
 76
     0
 77
     0
 78
     0
170
     0
171
     2
172
     0
173
     0
174
     0
175
     0
176
     0
177
     0
178
     0
  0
DIMSTYLE
  2
ANNOTATIVE
 70
     0
  3

  4

  5

  6

  7

 40
1.0
 41
0.18
 42
0.0625
 43
0.38
 44
0.18
 45
0.0
 46
0.0
 47
0.0
 48
0.0
140
0.18
141
0.09
142
0.0
143
25.399999999999999
144
1.0
145
0.0
146
1.0
147
0.09
 71
     0
 72
     0
 73
     1
 74
     1
 75
     0
 76
     0
 77
     0
 78
     0
170
     0
171
     2
172
     0
173
     0
174
     0
175
     0
176
     0
177
     0
178
     0
  0
DIMSTYLE
  2
AM_ANSI
 70
     0
  3

  4
mm
  5

  6

  7

 40
1.0
 41
0.1
 42
0.05
 43
0.5
 44
0.1
 45
0.0
 46
0.0
 47
0.1
 48
0.1
140
0.12
141
0.0
142
0.0
143
25.399999999999999
144
1.0
145
0.0
146
0.71
147
0.06
 71
     0
 72
     0
 73
     1
 74
     1
 75
     0
 76
     0
 77
     0
 78
     7
170
     0
171
     2
172
     0
173
     0
174
     0
175
     0
176
   256
177
   256
178
     2
  0
DIMSTYLE
  2
AM_ANSI$3
 70
     0
  3

  4
mm
  5

  6

  7

 40
1.0
 41
0.1
 42
0.05
 43
0.5
 44
0.1
 45
0.0
 46
0.0
 47
0.1
 48
0.1
140
0.12
141
0.0
142
0.0
143
25.399999999999999
144
1.0
145
0.0
146
0.71
147
0.06
 71
     0
 72
     0
 73
     1
 74
     1
 75
     0
 76
     0
 77
     0
 78
     7
170
     0
171
     2
172
     0
173
     0
174
     0
175
     0
176
   256
177
   256
178
     2
  0
DIMSTYLE
  2
AM_ANSI$4
 70
     0
  3

  4
mm
  5

  6

  7

 40
1.0
 41
0.1
 42
0.05
 43
0.5
 44
0.1
 45
0.0
 46
0.0
 47
0.1
 48
0.1
140
0.12
141
0.0
142
0.0
143
25.399999999999999
144
1.0
145
0.0
146
0.71
147
0.06
 71
     0
 72
     0
 73
     1
 74
     1
 75
     0
 76
     0
 77
     0
 78
     7
170
     0
171
     2
172
     0
173
     0
174
     0
175
     0
176
   256
177
   256
178
     2
  0
DIMSTYLE
  2
AM_ANSI$7
 70
     0
  3

  4
mm
  5

  6

  7

 40
1.0
 41
0.1
 42
0.05
 43
0.5
 44
0.1
 45
0.0
 46
0.0
 47
0.1
 48
0.1
140
0.24
141
0.0
142
0.0
143
25.399999999999999
144
1.0
145
0.0
146
0.71
147
0.06
 71
     0
 72
     0
 73
     1
 74
     1
 75
     0
 76
     0
 77
     0
 78
     7
170
     0
171
     2
172
     0
173
     0
174
     0
175
     0
176
   256
177
   256
178
     2
  0
DIMSTYLE
  2
AM_ANSI$SF
 70
     0
  3

  4
mm
  5

  6

  7

 40
1.0
 41
0.1
 42
0.05
 43
0.5
 44
0.1
 45
0.0
 46
0.0
 47
0.1
 48
0.1
140
0.12
141
0.0
142
0.0
143
25.399999999999999
144
1.0
145
0.0
146
0.71
147
0.06
 71
     0
 72
     0
 73
     1
 74
     1
 75
     1
 76
     1
 77
     0
 78
     7
170
     0
171
     2
172
     0
173
     0
174
     0
175
     0
176
   256
177
   256
178
     2
  0
DIMSTYLE
  2
AM_ANSI$SH
 70
     0
  3

  4
mm
  5

  6

  7

 40
1.0
 41
0.1
 42
0.05
 43
0.5
 44
0.1
 45
0.0
 46
0.0
 47
0.1
 48
0.1
140
0.12
141
0.0
142
0.0
143
25.399999999999999
144
1.0
145
0.0
146
0.71
147
0.06
 71
     0
 72
     0
 73
     1
 74
     1
 75
     1
 76
     1
 77
     0
 78
     7
170
     0
171
     2
172
     0
173
     1
174
     0
175
     0
176
   256
177
   256
178
     2
  0
DIMSTYLE
  2
AM_ISO
 70
     0
  3

  4
"
  5

  6

  7

 40
1.0
 41
2.5
 42
1.0
 43
10.0
 44
1.0
 45
0.0
 46
0.0
 47
0.1
 48
0.1
140
3.5
141
0.0
142
0.0
143
0.0393701
144
1.0
145
0.0
146
0.71
147
1.5
 71
     0
 72
     0
 73
     0
 74
     0
 75
     0
 76
     0
 77
     1
 78
     8
170
     0
171
     2
172
     1
173
     0
174
     0
175
     0
176
   256
177
   256
178
     2
  0
DIMSTYLE
  2
AM_ISO$3
 70
     0
  3

  4
"
  5

  6

  7

 40
1.0
 41
2.5
 42
1.0
 43
10.0
 44
1.0
 45
0.0
 46
0.0
 47
0.1
 48
0.1
140
3.5
141
0.0
142
0.0
143
0.0393701
144
1.0
145
0.0
146
0.71
147
1.5
 71
     0
 72
     0
 73
     0
 74
     1
 75
     0
 76
     0
 77
     1
 78
     8
170
     0
171
     2
172
     0
173
     0
174
     0
175
     0
176
   256
177
   256
178
     2
  0
DIMSTYLE
  2
AM_ISO$4
 70
     0
  3

  4
"
  5

  6

  7

 40
1.0
 41
2.5
 42
1.0
 43
10.0
 44
1.0
 45
0.0
 46
0.0
 47
0.1
 48
0.1
140
3.5
141
0.0
142
0.0
143
0.0393701
144
1.0
145
0.0
146
0.71
147
1.5
 71
     0
 72
     0
 73
     0
 74
     1
 75
     0
 76
     0
 77
     1
 78
     8
170
     0
171
     2
172
     0
173
     0
174
     0
175
     0
176
   256
177
   256
178
     2
  0
DIMSTYLE
  2
AM_ISO$6
 70
     0
  3

  4
"
  5

  6

  7

 40
1.0
 41
2.5
 42
1.0
 43
10.0
 44
1.0
 45
0.0
 46
0.0
 47
0.1
 48
0.1
140
3.5
141
0.0
142
0.0
143
0.0393701
144
1.0
145
0.0
146
0.71
147
1.5
 71
     0
 72
     0
 73
     0
 74
     0
 75
     0
 76
     0
 77
     0
 78
     8
170
     0
171
     2
172
     1
173
     0
174
     0
175
     0
176
   256
177
   256
178
     2
  0
DIMSTYLE
  2
AM_ISO$7
 70
     0
  3

  4
"
  5

  6

  7

 40
1.0
 41
2.5
 42
1.0
 43
10.0
 44
1.0
 45
0.0
 46
0.0
 47
0.1
 48
0.1
140
5.0
141
0.0
142
0.0
143
0.0393701
144
1.0
145
0.0
146
0.71
147
1.5
 71
     0
 72
     0
 73
     0
 74
     0
 75
     0
 76
     0
 77
     1
 78
     8
170
     0
171
     2
172
     1
173
     0
174
     0
175
     0
176
   256
177
   256
178
     2
  0
DIMSTYLE
  2
AM_ISO$SF
 70
     0
  3

  4
"
  5

  6

  7

 40
1.0
 41
2.5
 42
1.0
 43
10.0
 44
1.0
 45
0.0
 46
0.0
 47
0.1
 48
0.1
140
3.5
141
0.0
142
0.0
143
0.0393701
144
1.0
145
0.0
146
0.71
147
1.5
 71
     0
 72
     0
 73
     0
 74
     0
 75
     1
 76
     1
 77
     1
 78
     8
170
     0
171
     2
172
     1
173
     0
174
     0
175
     0
176
   256
177
   256
178
     2
  0
DIMSTYLE
  2
AM_ISO$SH
 70
     0
  3

  4
"
  5

  6
GENAXEH
  7

 40
1.0
 41
2.5
 42
1.0
 43
10.0
 44
1.0
 45
0.0
 46
0.0
 47
0.1
 48
0.1
140
3.5
141
0.0
142
0.0
143
0.0393701
144
2.0
145
0.0
146
0.71
147
1.5
 71
     0
 72
     0
 73
     0
 74
     0
 75
     1
 76
     1
 77
     1
 78
     8
170
     0
171
     2
172
     1
173
     1
174
     0
175
     0
176
   256
177
   256
178
     2
  0
DIMSTYLE
  2
AM_JIS
 70
     0
  3

  4
"
  5

  6

  7

 40
1.0
 41
2.0
 42
1.0
 43
8.0
 44
1.0
 45
0.0
 46
0.0
 47
0.1
 48
0.1
140
2.5
141
0.0
142
0.0
143
0.0393701
144
1.0
145
0.0
146
0.71
147
1.5
 71
     0
 72
     0
 73
     0
 74
     0
 75
     0
 76
     0
 77
     3
 78
     8
170
     0
171
     2
172
     1
173
     0
174
     0
175
     0
176
     2
177
     2
178
     4
  0
ENDTAB
  0
ENDSEC
  0
SECTION
  2
BLOCKS
  0
BLOCK
  8
0
  2
$MODEL_SPACE
 70
     0
 10
0.0
 20
0.0
 30
0.0
  3
$MODEL_SPACE
  1

  0
ENDBLK
  5
A2B
  8
0
  0
BLOCK
 67
     1
  8
0
  2
$PAPER_SPACE
 70
     0
 10
0.0
 20
0.0
 30
0.0
  3
$PAPER_SPACE
  1

  0
ENDBLK
  5
A27
 67
     1
  8
0
  0
BLOCK
  8
0
  2
GENAXEH
 70
     0
 10
0.0
 20
0.0
 30
0.0
  3
GENAXEH
  1

  0
LINE
  5
530
  8
0
 10
-1.0
 20
0.0
 30
0.0
 11
1.0
 21
0.0
 31
0.0
  0
ENDBLK
  5
531
  8
0
  0
BLOCK
  8
0
  2
_ACMFILLEDHALF
 70
     0
 10
0.0
 20
0.0
 30
0.0
  3
_ACMFILLEDHALF
  1

  0
TRACE
  5
AA4
  8
0
  6
CONTINUOUS
 62
     0
 10
-0.8
 20
0.0
 30
0.0
 11
-1.0
 21
0.166666666
 31
0.0
 12
0.0
 22
0.0
 32
0.0
 13
0.0
 23
0.0
 33
0.0
  0
LINE
  5
AA5
  8
0
  6
CONTINUOUS
 62
     0
 10
-1.0
 20
0.0
 30
0.0
 11
-0.8
 21
0.0
 31
0.0
  0
ENDBLK
  5
AA3
  8
0
  0
BLOCK
  8
0
  2
*U7
 70
     1
 10
0.0
 20
0.0
 30
0.0
  3
*U7
  1

  0
TEXT
  5
B96
  8
0
  6
CONTINUOUS
 62
     0
 10
5.0768189741019834
 20
5.9826223594979657
 30
0.0
 40
15.0
  1
ＶＸ０８－００３ＥＭ～ＶＸ０８
  0
TEXT
  5
B97
  8
0
  6
CONTINUOUS
 62
     0
 10
2.17909170137471
 20
-19.18783218595658
 30
0.0
 40
15.0
  1
－０３０ＥＭ
  0
ENDBLK
  5
B99
  8
0
  0
ENDSEC
  0
SECTION
  2
ENTITIES
  0
LINE
  5
532
  8
0
  6
CENTER
 62
     7
 10
-1090.8259
 20
772.15783999999985
 30
0.0
 11
-498.71813999999989
 21
772.15783999999985
 31
0.0
  0
LINE
  5
533
  8
0
  6
CONTINUOUS
 62
     7
 10
-820.4364599999999
 20
833.73784999999964
 30
0.0
 11
-804.93651999999963
 21
833.73784999999964
 31
0.0
  0
LINE
  5
534
  8
0
  6
CONTINUOUS
 62
     7
 10
-820.4364599999999
 20
710.57788000000016
 30
0.0
 11
-804.93651999999963
 21
710.57788000000016
 31
0.0
  0
LINE
  5
535
  8
0
  6
CONTINUOUS
 62
     7
 10
-820.4364599999999
 20
732.68310999999983
 30
0.0
 11
-804.93651999999963
 21
732.68310999999983
 31
0.0
  0
LINE
  5
536
  8
0
  6
CONTINUOUS
 62
     7
 10
-820.43651999999975
 20
845.65778000000012
 30
0.0
 11
-809.76201999999989
 21
846.03051999999946
 31
0.0
  0
LINE
  5
537
  8
0
  6
CONTINUOUS
 62
     7
 10
-820.4364599999999
 20
811.63250999999968
 30
0.0
 11
-804.93651999999963
 21
811.63250999999968
 31
0.0
  0
LINE
  5
538
  8
0
  6
CONTINUOUS
 62
     7
 10
-820.43651999999975
 20
698.65778
 30
0.0
 11
-809.76195999999982
 21
698.28502999999989
 31
0.0
  0
LINE
  5
539
  8
0
  6
CONTINUOUS
 62
     7
 10
-820.4364599999999
 20
698.65783999999985
 30
0.0
 11
-820.4364599999999
 21
845.65783999999974
 31
0.0
  0
LINE
  5
53A
  8
0
  6
CONTINUOUS
 62
     7
 10
-756.43646000000001
 20
905.15783999999996
 30
0.0
 11
-756.43646000000001
 21
777.15783999999985
 31
0.0
  0
LINE
  5
53B
  8
0
  6
CONTINUOUS
 62
     7
 10
-784.43646000000001
 20
644.96405000000004
 30
0.0
 11
-784.43646000000001
 21
758.92908
 31
0.0
  0
LINE
  5
53C
  8
0
  6
CONTINUOUS
 62
     7
 10
-756.43646000000001
 20
639.15784000000008
 30
0.0
 11
-779.61095999999998
 21
639.96709999999985
 31
0.0
  0
LINE
  5
53D
  8
0
  6
CONTINUOUS
 62
     7
 10
-756.43651999999975
 20
905.15783999999996
 30
0.0
 11
-779.61102000000005
 21
904.34856999999988
 31
0.0
  0
LINE
  5
53E
  8
0
  6
CONTINUOUS
 62
     7
 10
-789.26202000000001
 20
883.98931999999979
 30
0.0
 11
-800.11102000000005
 21
883.61046999999985
 31
0.0
  0
LINE
  5
53F
  8
0
  6
CONTINUOUS
 62
     7
 10
-789.2619599999997
 20
660.32628999999974
 30
0.0
 11
-800.11102000000005
 21
660.70514000000003
 31
0.0
  0
LINE
  5
540
  8
0
  6
CONTINUOUS
 62
     7
 10
-804.93651999999963
 20
665.70214999999985
 30
0.0
 11
-804.93651999999963
 21
878.61352999999974
 31
0.0
  0
LINE
  5
541
  8
0
  6
CENTER
 62
     7
 10
-774.4364599999999
 20
756.97754000000009
 30
0.0
 11
-774.4364599999999
 21
786.7124
 31
0.0
  0
LINE
  5
542
  8
0
  6
CONTINUOUS
 62
     7
 10
-784.43646000000001
 20
785.38660000000004
 30
0.0
 11
-784.43646000000001
 21
899.35155999999984
 31
0.0
  0
LINE
  5
543
  8
0
  6
CONTINUOUS
 62
     7
 10
-794.43646000000001
 20
767.15783999999985
 30
0.0
 11
-754.43646000000001
 21
767.15783999999985
 31
0.0
  0
LINE
  5
544
  8
0
  6
CONTINUOUS
 62
     7
 10
-794.43646000000001
 20
777.15783999999985
 30
0.0
 11
-754.43646000000001
 21
777.15783999999985
 31
0.0
  0
LINE
  5
545
  8
0
  6
CONTINUOUS
 62
     7
 10
-756.43646000000001
 20
767.15783999999985
 30
0.0
 11
-756.43646000000001
 21
639.15784000000008
 31
0.0
  0
LINE
  5
546
  8
0
  6
CONTINUOUS
 62
     7
 10
-820.43639999999982
 20
732.68317000000002
 30
0.0
 11
-830.43640000000005
 21
732.68317000000002
 31
0.0
  0
LINE
  5
547
  8
0
  6
CONTINUOUS
 62
     7
 10
-833.33167000000014
 20
754.63982999999985
 30
0.0
 11
-902.54107999999985
 21
757.05669999999975
 31
0.0
  0
LINE
  5
548
  8
0
  6
CONTINUOUS
 62
     7
 10
-833.33172999999999
 20
789.67578000000003
 30
0.0
 11
-902.54107999999985
 21
787.2589099999999
 31
0.0
  0
LINE
  5
549
  8
0
  6
CONTINUOUS
 62
     7
 10
-833.33167000000014
 20
839.19957999999986
 30
0.0
 11
-920.43634000000009
 21
836.15783999999985
 31
0.0
  0
LINE
  5
54A
  8
0
  6
CONTINUOUS
 62
     7
 10
-833.33172999999999
 20
705.11603000000002
 30
0.0
 11
-920.43639999999994
 21
708.15777999999966
 31
0.0
  0
LINE
  5
54B
  8
0
  6
CONTINUOUS
 62
     7
 10
-920.43639999999994
 20
708.15783999999985
 30
0.0
 11
-920.43639999999994
 21
836.15783999999985
 31
0.0
  0
LINE
  5
54C
  8
0
  6
CONTINUOUS
 62
     7
 10
-905.43640000000005
 20
729.83507999999983
 30
0.0
 11
-905.43640000000005
 21
815.01642000000004
 31
0.0
  0
LINE
  5
54D
  8
0
  6
CONTINUOUS
 62
     7
 10
-820.43639999999982
 20
833.73644999999988
 30
0.0
 11
-830.43640000000005
 21
833.73644999999988
 31
0.0
  0
LINE
  5
54E
  8
0
  6
CONTINUOUS
 62
     7
 10
-820.43639999999982
 20
811.63250999999968
 30
0.0
 11
-830.43640000000005
 21
811.63250999999968
 31
0.0
  0
LINE
  5
54F
  8
0
  6
CONTINUOUS
 62
     7
 10
-920.43639999999994
 20
823.65783999999985
 30
0.0
 11
-839.36199999999985
 21
823.65783999999985
 31
0.0
  0
LINE
  5
550
  8
0
  6
CONTINUOUS
 62
     7
 10
-920.43639999999994
 20
720.65752999999984
 30
0.0
 11
-839.36181999999985
 21
720.65752999999984
 31
0.0
  0
LINE
  5
551
  8
0
  6
CONTINUOUS
 62
     7
 10
-905.43640000000005
 20
729.83507999999983
 30
0.0
 11
-843.24938999999983
 21
729.83507999999983
 31
0.0
  0
LINE
  5
552
  8
0
  6
CONTINUOUS
 62
     7
 10
-920.43639999999994
 20
734.10296999999969
 30
0.0
 11
-905.43640000000005
 21
734.10296999999969
 31
0.0
  0
LINE
  5
553
  8
0
  6
CONTINUOUS
 62
     7
 10
-905.43640000000005
 20
815.01642000000004
 30
0.0
 11
-843.04278999999974
 21
815.01642000000004
 31
0.0
  0
LINE
  5
554
  8
0
  6
CONTINUOUS
 62
     7
 10
-920.43639999999994
 20
811.01708999999983
 30
0.0
 11
-905.43640000000005
 21
811.01708999999983
 31
0.0
  0
LINE
  5
555
  8
0
  6
CONTINUOUS
 62
     7
 10
-820.4364599999999
 20
698.65778
 30
0.0
 11
-827.54107999999985
 21
698.90588000000002
 31
0.0
  0
LINE
  5
556
  8
0
  6
CONTINUOUS
 62
     7
 10
-820.43639999999982
 20
710.57915999999955
 30
0.0
 11
-830.43640000000005
 21
710.57915999999955
 31
0.0
  0
LINE
  5
557
  8
0
  6
CONTINUOUS
 62
     7
 10
-820.4364599999999
 20
845.65783999999974
 30
0.0
 11
-827.54107999999985
 21
845.40972999999985
 31
0.0
  0
LINE
  5
558
  8
0
  6
CONTINUOUS
 62
     7
 10
-830.43640000000005
 20
701.90404999999998
 30
0.0
 11
-830.43640000000005
 21
842.41156000000001
 31
0.0
  0
LINE
  5
559
  8
0
  6
CONTINUOUS
 62
     7
 10
-949.4363400000002
 20
700.15783999999985
 30
0.0
 11
-1009.4362999999991
 21
700.15783999999985
 31
0.0
  0
LINE
  5
55A
  8
0
  6
CONTINUOUS
 62
     3
 10
-1028.7091999999991
 20
699.15783999999985
 30
0.0
 11
-1028.7091999999991
 21
695.65783999999985
 31
0.0
  0
LINE
  5
55B
  8
0
  6
CONTINUOUS
 62
     3
 10
-1030.7092
 20
695.65783999999985
 30
0.0
 11
-948.70941000000005
 21
695.65783999999985
 31
0.0
  0
LINE
  5
55C
  8
0
  6
CONTINUOUS
 62
     3
 10
-1008.2093999999991
 20
692.15784000000019
 30
0.0
 11
-948.70941000000005
 21
692.15784000000019
 31
0.0
  0
LINE
  5
55D
  8
0
  6
CONTINUOUS
 62
     3
 10
-1019.7093
 20
695.65783999999985
 30
0.0
 11
-1019.7093
 21
688.15784000000019
 31
0.0
  0
LINE
  5
55E
  8
0
  6
CONTINUOUS
 62
     3
 10
-1011.7093999999991
 20
695.65783999999985
 30
0.0
 11
-1011.7093999999991
 21
688.15784000000019
 31
0.0
  0
LINE
  5
55F
  8
0
  6
CONTINUOUS
 62
     3
 10
-1027.2092
 20
680.6588099999999
 30
0.0
 11
-1030.7092
 21
680.6588099999999
 31
0.0
  0
LINE
  5
560
  8
0
  6
CONTINUOUS
 62
     3
 10
-1030.7092
 20
695.65783999999985
 30
0.0
 11
-1030.7092
 21
680.6588099999999
 31
0.0
  0
LINE
  5
561
  8
0
  6
CONTINUOUS
 62
     3
 10
-998.00933999999995
 20
672.65778
 30
0.0
 11
-1003.2094
 21
675.65778
 31
0.0
  0
LINE
  5
562
  8
0
  6
CONTINUOUS
 62
     3
 10
-957.20934999999986
 20
675.65784000000019
 30
0.0
 11
-962.40941999999995
 21
672.65784000000008
 31
0.0
  0
LINE
  5
563
  8
0
  6
CONTINUOUS
 62
     3
 10
-1027.2092
 20
692.15784000000019
 30
0.0
 11
-1023.2093
 21
692.15784000000019
 31
0.0
  0
LINE
  5
564
  8
0
  6
CONTINUOUS
 62
     3
 10
-1027.2092
 20
675.65784000000019
 30
0.0
 11
-950.20940999999982
 21
675.65784000000019
 31
0.0
  0
LINE
  5
565
  8
0
  6
CONTINUOUS
 62
     3
 10
-998.00933999999995
 20
672.65784000000008
 30
0.0
 11
-962.40935999999999
 21
672.65784000000008
 31
0.0
  0
LINE
  5
566
  8
0
  6
CONTINUOUS
 62
     3
 10
-1027.2092
 20
695.65783999999985
 30
0.0
 11
-1027.2092
 21
675.65784000000019
 31
0.0
  0
LINE
  5
567
  8
0
  6
CONTINUOUS
 62
     3
 10
-1023.2093
 20
695.65783999999985
 30
0.0
 11
-1023.2093
 21
688.15784000000019
 31
0.0
  0
LINE
  5
568
  8
0
  6
CONTINUOUS
 62
     3
 10
-1008.2093999999991
 20
688.15784000000019
 30
0.0
 11
-1008.2093999999991
 21
695.65783999999985
 31
0.0
  0
LINE
  5
569
  8
0
  6
CONTINUOUS
 62
     3
 10
-950.20940999999982
 20
675.65784000000019
 30
0.0
 11
-950.20940999999982
 21
692.15784000000019
 31
0.0
  0
LINE
  5
56A
  8
0
  6
CONTINUOUS
 62
     3
 10
-948.70941000000005
 20
699.15783999999985
 30
0.0
 11
-948.70941000000005
 21
692.15784000000019
 31
0.0
  0
LINE
  5
56B
  8
0
  6
CONTINUOUS
 62
     3
 10
-1028.7091999999991
 20
699.15783999999985
 30
0.0
 11
-948.70941000000005
 21
699.15783999999985
 31
0.0
  0
LINE
  5
56C
  8
0
  6
CONTINUOUS
 62
     7
 10
-949.93634000000009
 20
700.15783999999985
 30
0.0
 11
-949.93634000000009
 21
699.15783999999985
 31
0.0
  0
LINE
  5
56D
  8
0
  6
CONTINUOUS
 62
     7
 10
-1008.9363
 20
700.15783999999985
 30
0.0
 11
-1008.9363
 21
699.15783999999985
 31
0.0
  0
LINE
  5
56E
  8
0
  6
CONTINUOUS
 62
     7
 10
-1078.4363000000001
 20
722.65783999999985
 30
0.0
 11
-1078.4363000000001
 21
723.18786999999998
 31
0.0
  0
LINE
  5
56F
  8
0
  6
CONTINUOUS
 62
     7
 10
-1078.4363000000001
 20
724.75780999999984
 30
0.0
 11
-1078.4363000000001
 21
725.30786000000001
 31
0.0
  0
LINE
  5
570
  8
0
  6
CONTINUOUS
 62
     7
 10
-1078.4363000000001
 20
729.32787999999982
 30
0.0
 11
-1078.4363000000001
 21
729.79785000000004
 31
0.0
  0
LINE
  5
571
  8
0
  6
CONTINUOUS
 62
     7
 10
-1078.6564000000001
 20
725.77782999999999
 30
0.0
 11
-1079.9064000000001
 21
726.43773999999985
 31
0.0
  0
LINE
  5
572
  8
0
  6
CONTINUOUS
 62
     7
 10
-1078.6465000000001
 20
723.66785000000004
 30
0.0
 11
-1079.8865000000001
 21
724.29785000000004
 31
0.0
  0
LINE
  5
573
  8
0
  6
CONTINUOUS
 62
     7
 10
-1078.6665
 20
730.30786000000001
 30
0.0
 11
-1079.9464
 21
731.05786000000001
 31
0.0
  0
LINE
  5
574
  8
0
  6
CONTINUOUS
 62
     7
 10
-1078.1963000000001
 20
723.55786000000001
 30
0.0
 11
-1075.9363000000001
 21
723.55786000000001
 31
0.0
  0
LINE
  5
575
  8
0
  6
CONTINUOUS
 62
     7
 10
-1078.1863000000001
 20
725.65783999999985
 30
0.0
 11
-1076.4363000000001
 21
725.65783999999985
 31
0.0
  0
LINE
  5
576
  8
0
  6
CONTINUOUS
 62
     7
 10
-1078.1665
 20
730.17786000000001
 30
0.0
 11
-1076.4363000000001
 21
730.17786000000001
 31
0.0
  0
LINE
  5
577
  8
0
  6
CONTINUOUS
 62
     7
 10
-1078.1365000000001
 20
729.03783999999985
 30
0.0
 11
-1075.4363000000001
 21
729.03783999999985
 31
0.0
  0
LINE
  5
578
  8
0
  6
CONTINUOUS
 62
     7
 10
-1078.1565000000001
 20
724.51782000000003
 30
0.0
 11
-1075.4363000000001
 21
724.51782000000003
 31
0.0
  0
LINE
  5
579
  8
0
  6
CONTINUOUS
 62
     7
 10
-1078.6864
 20
729.19775000000004
 30
0.0
 11
-1079.9863
 21
730.04778999999985
 31
0.0
  0
LINE
  5
57A
  8
0
  6
CONTINUOUS
 62
     7
 10
-1078.6764000000001
 20
724.65777999999989
 30
0.0
 11
-1079.9564
 21
725.42780000000005
 31
0.0
  0
LINE
  5
57B
  8
0
  6
CONTINUOUS
 62
     7
 10
-1078.6664000000001
 20
722.54778999999985
 30
0.0
 11
-1079.9364
 21
723.27782999999988
 31
0.0
  0
LINE
  5
57C
  8
0
  6
CONTINUOUS
 62
     7
 10
-1078.1665
 20
722.40783999999985
 30
0.0
 11
-1075.9363000000001
 21
722.40783999999985
 31
0.0
  0
LINE
  5
57D
  8
0
  6
CONTINUOUS
 62
     7
 10
-1080.4363000000001
 20
724.13782000000003
 30
0.0
 11
-1080.4363000000001
 21
767.15783999999985
 31
0.0
  0
LINE
  5
57E
  8
0
  6
CONTINUOUS
 62
     7
 10
-1079.9464
 20
731.05780000000004
 30
0.0
 11
-1079.9663999999991
 21
731.06781000000001
 31
0.0
  0
LINE
  5
57F
  8
0
  6
CONTINUOUS
 62
     7
 10
-1081.9363000000001
 20
754.87780999999984
 30
0.0
 11
-1080.4363000000001
 21
754.87780999999984
 31
0.0
  0
LINE
  5
580
  8
0
  6
CONTINUOUS
 62
     7
 10
-1081.9363000000001
 20
757.00780999999984
 30
0.0
 11
-1080.4363000000001
 21
757.00780999999984
 31
0.0
  0
LINE
  5
581
  8
0
  6
CONTINUOUS
 62
     7
 10
-1081.9364
 20
752.15790000000004
 30
0.0
 11
-1080.4364
 21
752.02788999999984
 31
0.0
  0
LINE
  5
582
  8
0
  6
CONTINUOUS
 62
     7
 10
-1081.9363000000001
 20
752.15783999999985
 30
0.0
 11
-1081.9363000000001
 21
772.15783999999985
 31
0.0
  0
LINE
  5
583
  8
0
  6
CONTINUOUS
 62
     7
 10
-1078.4363000000001
 20
736.76782000000003
 30
0.0
 11
-1078.4363000000001
 21
737.82787999999982
 31
0.0
  0
LINE
  5
584
  8
0
  6
CONTINUOUS
 62
     7
 10
-1078.4363000000001
 20
746.52782999999999
 30
0.0
 11
-1078.4363000000001
 21
747.89783
 31
0.0
  0
LINE
  5
585
  8
0
  6
CONTINUOUS
 62
     7
 10
-1078.4363000000001
 20
766.54785000000004
 30
0.0
 11
-1078.4363000000001
 21
767.70789000000002
 31
0.0
  0
LINE
  5
586
  8
0
  6
CONTINUOUS
 62
     7
 10
-1078.4363000000001
 20
756.54785000000004
 30
0.0
 11
-1078.4363000000001
 21
757.76782000000003
 31
0.0
  0
LINE
  5
587
  8
0
  6
CONTINUOUS
 62
     7
 10
-1076.4363000000001
 20
768.15783999999985
 30
0.0
 11
-1079.4363000000001
 21
768.15783999999985
 31
0.0
  0
LINE
  5
588
  8
0
  6
CONTINUOUS
 62
     7
 10
-1076.4363000000001
 20
766.15783999999985
 30
0.0
 11
-1079.4363000000001
 21
766.15783999999985
 31
0.0
  0
LINE
  5
589
  8
0
  6
CONTINUOUS
 62
     7
 10
-1076.4363000000001
 20
758.15783999999985
 30
0.0
 11
-1079.4363000000001
 21
758.15783999999985
 31
0.0
  0
LINE
  5
58A
  8
0
  6
CONTINUOUS
 62
     7
 10
-1076.4363000000001
 20
756.15783999999985
 30
0.0
 11
-1079.4363000000001
 21
756.15783999999985
 31
0.0
  0
LINE
  5
58B
  8
0
  6
CONTINUOUS
 62
     7
 10
-1076.4363000000001
 20
748.15783999999985
 30
0.0
 11
-1079.4363000000001
 21
748.15783999999985
 31
0.0
  0
LINE
  5
58C
  8
0
  6
CONTINUOUS
 62
     7
 10
-1076.4363000000001
 20
746.15783999999985
 30
0.0
 11
-1079.4363000000001
 21
746.15783999999985
 31
0.0
  0
LINE
  5
58D
  8
0
  6
CONTINUOUS
 62
     7
 10
-1078.576399999999
 20
738.45781999999986
 30
0.0
 11
-1079.7263
 21
738.81781000000001
 31
0.0
  0
LINE
  5
58E
  8
0
  6
CONTINUOUS
 62
     7
 10
-1078.2864
 20
738.41785000000004
 30
0.0
 11
-1076.4363000000001
 21
738.41785000000004
 31
0.0
  0
LINE
  5
58F
  8
0
  6
CONTINUOUS
 62
     7
 10
-1078.6265000000001
 20
736.54778999999985
 30
0.0
 11
-1079.826399999999
 21
737.06781000000001
 31
0.0
  0
LINE
  5
590
  8
0
  6
CONTINUOUS
 62
     7
 10
-1078.2363
 20
736.46789999999964
 30
0.0
 11
-1076.1365000000001
 21
736.46789999999964
 31
0.0
  0
LINE
  5
591
  8
0
  6
CONTINUOUS
 62
     7
 10
-1081.9363000000001
 20
789.43786999999975
 30
0.0
 11
-1080.4363000000001
 21
789.43786999999975
 31
0.0
  0
LINE
  5
592
  8
0
  6
CONTINUOUS
 62
     7
 10
-1081.9363000000001
 20
787.30786000000001
 30
0.0
 11
-1080.4363000000001
 21
787.30786000000001
 31
0.0
  0
LINE
  5
593
  8
0
  6
CONTINUOUS
 62
     7
 10
-1081.9364
 20
792.15790000000004
 30
0.0
 11
-1080.4364
 21
792.28790000000004
 31
0.0
  0
LINE
  5
594
  8
0
  6
CONTINUOUS
 62
     7
 10
-1081.9363000000001
 20
792.15783999999985
 30
0.0
 11
-1081.9363000000001
 21
772.15783999999985
 31
0.0
  0
LINE
  5
595
  8
0
  6
CONTINUOUS
 62
     7
 10
-1078.4363000000001
 20
821.65783999999985
 30
0.0
 11
-1078.4363000000001
 21
821.12780999999973
 31
0.0
  0
LINE
  5
596
  8
0
  6
CONTINUOUS
 62
     7
 10
-1078.4363000000001
 20
819.55786000000012
 30
0.0
 11
-1078.4363000000001
 21
819.00780999999995
 31
0.0
  0
LINE
  5
597
  8
0
  6
CONTINUOUS
 62
     7
 10
-1078.4363000000001
 20
814.98778999999979
 30
0.0
 11
-1078.4363000000001
 21
814.51782000000003
 31
0.0
  0
LINE
  5
598
  8
0
  6
CONTINUOUS
 62
     7
 10
-1078.4363000000001
 20
807.54785000000004
 30
0.0
 11
-1078.4363000000001
 21
806.48779000000002
 31
0.0
  0
LINE
  5
599
  8
0
  6
CONTINUOUS
 62
     7
 10
-1078.4363000000001
 20
797.78783999999985
 30
0.0
 11
-1078.4363000000001
 21
796.41785000000004
 31
0.0
  0
LINE
  5
59A
  8
0
  6
CONTINUOUS
 62
     7
 10
-1078.4363000000001
 20
777.76782000000003
 30
0.0
 11
-1078.4363000000001
 21
776.60778999999968
 31
0.0
  0
LINE
  5
59B
  8
0
  6
CONTINUOUS
 62
     7
 10
-1078.4363000000001
 20
787.76782000000003
 30
0.0
 11
-1078.4363000000001
 21
786.55786000000001
 31
0.0
  0
LINE
  5
59C
  8
0
  6
CONTINUOUS
 62
     7
 10
-1076.4363000000001
 20
776.15783999999985
 30
0.0
 11
-1079.4363000000001
 21
776.15783999999985
 31
0.0
  0
LINE
  5
59D
  8
0
  6
CONTINUOUS
 62
     7
 10
-1076.4363000000001
 20
778.15783999999985
 30
0.0
 11
-1079.4363000000001
 21
778.15783999999985
 31
0.0
  0
LINE
  5
59E
  8
0
  6
CONTINUOUS
 62
     7
 10
-1076.4363000000001
 20
786.15783999999985
 30
0.0
 11
-1079.4363000000001
 21
786.15783999999985
 31
0.0
  0
LINE
  5
59F
  8
0
  6
CONTINUOUS
 62
     7
 10
-1076.4363000000001
 20
788.15783999999985
 30
0.0
 11
-1079.4363000000001
 21
788.15783999999985
 31
0.0
  0
LINE
  5
5A0
  8
0
  6
CONTINUOUS
 62
     7
 10
-1076.4363000000001
 20
796.15783999999985
 30
0.0
 11
-1079.4363000000001
 21
796.15783999999985
 31
0.0
  0
LINE
  5
5A1
  8
0
  6
CONTINUOUS
 62
     7
 10
-1076.4363000000001
 20
798.15783999999985
 30
0.0
 11
-1079.4363000000001
 21
798.15783999999985
 31
0.0
  0
LINE
  5
5A2
  8
0
  6
CONTINUOUS
 62
     7
 10
-1078.6564000000001
 20
818.54791
 30
0.0
 11
-1079.9064000000001
 21
817.87787000000003
 31
0.0
  0
LINE
  5
5A3
  8
0
  6
CONTINUOUS
 62
     7
 10
-1078.6465000000001
 20
820.65783999999974
 30
0.0
 11
-1079.8865000000001
 21
820.02782999999999
 31
0.0
  0
LINE
  5
5A4
  8
0
  6
CONTINUOUS
 62
     7
 10
-1078.5764999999999
 20
805.85790999999995
 30
0.0
 11
-1079.7263999999991
 21
805.50787000000014
 31
0.0
  0
LINE
  5
5A5
  8
0
  6
CONTINUOUS
 62
     7
 10
-1078.6664000000001
 20
814.00780999999984
 30
0.0
 11
-1079.9464
 21
813.25786999999957
 31
0.0
  0
LINE
  5
5A6
  8
0
  6
CONTINUOUS
 62
     7
 10
-1078.1963000000001
 20
820.75780999999995
 30
0.0
 11
-1075.9363000000001
 21
820.75780999999995
 31
0.0
  0
LINE
  5
5A7
  8
0
  6
CONTINUOUS
 62
     7
 10
-1078.1863000000001
 20
818.65783999999985
 30
0.0
 11
-1076.4363000000001
 21
818.65783999999985
 31
0.0
  0
LINE
  5
5A8
  8
0
  6
CONTINUOUS
 62
     7
 10
-1078.1665
 20
814.14782999999989
 30
0.0
 11
-1076.4363000000001
 21
814.14782999999989
 31
0.0
  0
LINE
  5
5A9
  8
0
  6
CONTINUOUS
 62
     7
 10
-1078.2864
 20
805.89782999999989
 30
0.0
 11
-1076.4363000000001
 21
805.89782999999989
 31
0.0
  0
LINE
  5
5AA
  8
0
  6
CONTINUOUS
 62
     7
 10
-1078.1365000000001
 20
815.28783999999985
 30
0.0
 11
-1075.4363000000001
 21
815.28783999999985
 31
0.0
  0
LINE
  5
5AB
  8
0
  6
CONTINUOUS
 62
     7
 10
-1078.1565000000001
 20
819.79785000000015
 30
0.0
 11
-1075.4363000000001
 21
819.79785000000015
 31
0.0
  0
LINE
  5
5AC
  8
0
  6
CONTINUOUS
 62
     7
 10
-1078.6262999999999
 20
807.76787999999988
 30
0.0
 11
-1079.826399999999
 21
807.25780999999972
 31
0.0
  0
LINE
  5
5AD
  8
0
  6
CONTINUOUS
 62
     7
 10
-1078.6864
 20
815.11779999999965
 30
0.0
 11
-1079.9865
 21
814.26782000000003
 31
0.0
  0
LINE
  5
5AE
  8
0
  6
CONTINUOUS
 62
     7
 10
-1078.6764000000001
 20
819.65778
 30
0.0
 11
-1079.9564
 21
818.88775999999973
 31
0.0
  0
LINE
  5
5AF
  8
0
  6
CONTINUOUS
 62
     7
 10
-1078.6664000000001
 20
821.77788999999984
 30
0.0
 11
-1079.9364
 21
821.03789999999969
 31
0.0
  0
LINE
  5
5B0
  8
0
  6
CONTINUOUS
 62
     7
 10
-1078.2363
 20
807.84777999999983
 30
0.0
 11
-1076.1365000000001
 21
807.84777999999983
 31
0.0
  0
LINE
  5
5B1
  8
0
  6
CONTINUOUS
 62
     7
 10
-1078.1665
 20
821.90783999999985
 30
0.0
 11
-1075.9363000000001
 21
821.90783999999985
 31
0.0
  0
LINE
  5
5B2
  8
0
  6
CONTINUOUS
 62
     7
 10
-1080.4363000000001
 20
820.17786000000001
 30
0.0
 11
-1080.4363000000001
 21
777.15783999999985
 31
0.0
  0
LINE
  5
5B3
  8
0
  6
CONTINUOUS
 62
     7
 10
-928.43640000000005
 20
809.30786000000001
 30
0.0
 11
-920.43639999999994
 21
809.30786000000001
 31
0.0
  0
LINE
  5
5B4
  8
0
  6
CONTINUOUS
 62
     7
 10
-927.43640000000005
 20
720.11779999999965
 30
0.0
 11
-920.43639999999994
 21
720.11779999999965
 31
0.0
  0
LINE
  5
5B5
  8
0
  6
CONTINUOUS
 62
     7
 10
-928.43640000000005
 20
735.00780999999984
 30
0.0
 11
-920.43639999999994
 21
735.00780999999984
 31
0.0
  0
LINE
  5
5B6
  8
0
  6
CONTINUOUS
 62
     7
 10
-927.43640000000005
 20
708.65783999999985
 30
0.0
 11
-920.43639999999994
 21
708.65783999999985
 31
0.0
  0
LINE
  5
5B7
  8
0
  6
CONTINUOUS
 62
     7
 10
-927.43640000000005
 20
824.19788000000005
 30
0.0
 11
-920.43639999999994
 21
824.19788000000005
 31
0.0
  0
LINE
  5
5B8
  8
0
  6
CONTINUOUS
 62
     7
 10
-927.43640000000005
 20
835.65783999999985
 30
0.0
 11
-920.43639999999994
 21
835.65783999999985
 31
0.0
  0
LINE
  5
5B9
  8
0
  6
CONTINUOUS
 62
     7
 10
-1075.4364
 20
714.72778000000017
 30
0.0
 11
-1072.616299999999
 21
714.6677900000002
 31
0.0
  0
LINE
  5
5BA
  8
0
  6
CONTINUOUS
 62
     7
 10
-1034.4363000000001
 20
725.80786000000001
 30
0.0
 11
-928.43640000000005
 21
725.80786000000001
 31
0.0
  0
LINE
  5
5BB
  8
0
  6
CONTINUOUS
 62
     7
 10
-933.72637999999995
 20
711.65783999999985
 30
0.0
 11
-928.43640000000005
 21
711.65783999999985
 31
0.0
  0
LINE
  5
5BC
  8
0
  6
CONTINUOUS
 62
     7
 10
-1061.7663999999991
 20
738.79785000000004
 30
0.0
 11
-967.41643999999997
 21
738.79785000000004
 31
0.0
  0
LINE
  5
5BD
  8
0
  6
CONTINUOUS
 62
     7
 10
-979.43634000000009
 20
736.15783999999985
 30
0.0
 11
-1060.9005999999979
 21
736.15783999999985
 31
0.0
  0
LINE
  5
5BE
  8
0
  6
CONTINUOUS
 62
     7
 10
-979.43634000000009
 20
735.43786999999975
 30
0.0
 11
-931.61639000000014
 21
735.43786999999975
 31
0.0
  0
LINE
  5
5BF
  8
0
  6
CONTINUOUS
 62
     7
 10
-1061.7663999999991
 20
735.43786999999975
 30
0.0
 11
-979.43634000000009
 21
735.43786999999975
 31
0.0
  0
LINE
  5
5C0
  8
0
  6
CONTINUOUS
 62
     7
 10
-1061.7388000000001
 20
713.89782999999966
 30
0.0
 11
-1055.9363000000001
 21
713.89782999999966
 31
0.0
  0
LINE
  5
5C1
  8
0
  6
CONTINUOUS
 62
     7
 10
-1052.4363000000001
 20
710.29785000000004
 30
0.0
 11
-935.62639999999988
 21
710.29785000000004
 31
0.0
  0
LINE
  5
5C2
  8
0
  6
CONTINUOUS
 62
     7
 10
-1061.6765
 20
719.17786000000001
 30
0.0
 11
-1055.9363000000001
 21
719.17786000000001
 31
0.0
  0
LINE
  5
5C3
  8
0
  6
CONTINUOUS
 62
     7
 10
-1065.4363000000001
 20
723.80786000000001
 30
0.0
 11
-1065.4363000000001
 21
737.85779000000002
 31
0.0
  0
LINE
  5
5C4
  8
0
  6
CONTINUOUS
 62
     7
 10
-1075.4363000000001
 20
723.80786000000001
 30
0.0
 11
-1065.4363000000001
 21
723.80786000000001
 31
0.0
  0
LINE
  5
5C5
  8
0
  6
CONTINUOUS
 62
     7
 10
-933.69646999999986
 20
711.78772000000004
 30
0.0
 11
-930.23639000000014
 21
724.69780999999989
 31
0.0
  0
LINE
  5
5C6
  8
0
  6
CONTINUOUS
 62
     7
 10
-1071.6751999999999
 20
711.99878000000001
 30
0.0
 11
-1072.156499999998
 21
713.90783999999985
 31
0.0
  0
LINE
  5
5C7
  8
0
  6
CONTINUOUS
 62
     7
 10
-1071.2463
 20
712.02777000000003
 30
0.0
 11
-1072.1664000000001
 21
715.90784000000019
 31
0.0
  0
LINE
  5
5C8
  8
0
  6
CONTINUOUS
 62
     7
 10
-1054.4363000000001
 20
710.26880000000006
 30
0.0
 11
-1054.4363000000001
 21
717.67786000000001
 31
0.0
  0
LINE
  5
5C9
  8
0
  6
CONTINUOUS
 62
     7
 10
-1073.6063999999981
 20
715.03784000000007
 30
0.0
 11
-1071.9563000000001
 21
715.03784000000007
 31
0.0
  0
LINE
  5
5CA
  8
0
  6
CONTINUOUS
 62
     7
 10
-1034.4363000000001
 20
818.50780999999984
 30
0.0
 11
-928.43640000000005
 21
818.50780999999984
 31
0.0
  0
LINE
  5
5CB
  8
0
  6
CONTINUOUS
 62
     7
 10
-928.43640000000005
 20
709.65784000000019
 30
0.0
 11
-928.43640000000005
 21
834.65783999999985
 31
0.0
  0
LINE
  5
5CC
  8
0
  6
CONTINUOUS
 62
     7
 10
-1075.4364
 20
829.5878899999999
 30
0.0
 11
-1072.616299999999
 21
829.65783999999974
 31
0.0
  0
LINE
  5
5CD
  8
0
  6
CONTINUOUS
 62
     7
 10
-1075.4363000000001
 20
714.72778000000017
 30
0.0
 11
-1075.4363000000001
 21
772.15783999999985
 31
0.0
  0
LINE
  5
5CE
  8
0
  6
CONTINUOUS
 62
     7
 10
-935.09636999999987
 20
736.15783999999985
 30
0.0
 11
-979.43634000000009
 21
736.15783999999985
 31
0.0
  0
LINE
  5
5CF
  8
0
  6
CONTINUOUS
 62
     7
 10
-1065.4363000000001
 20
820.50780999999972
 30
0.0
 11
-1065.4363000000001
 21
806.46789999999964
 31
0.0
  0
LINE
  5
5D0
  8
0
  6
CONTINUOUS
 62
     7
 10
-1075.4363000000001
 20
806.46789999999964
 30
0.0
 11
-1065.4363000000001
 21
806.46789999999964
 31
0.0
  0
LINE
  5
5D1
  8
0
  6
CONTINUOUS
 62
     7
 10
-1075.4363000000001
 20
814.84777999999983
 30
0.0
 11
-1065.4363000000001
 21
814.84777999999983
 31
0.0
  0
LINE
  5
5D2
  8
0
  6
CONTINUOUS
 62
     7
 10
-1075.4363000000001
 20
820.50780999999972
 30
0.0
 11
-1065.4363000000001
 21
820.50780999999972
 31
0.0
  0
LINE
  5
5D3
  8
0
  6
CONTINUOUS
 62
     7
 10
-999.99431999999979
 20
758.15783999999985
 30
0.0
 11
-1069.8865000000001
 21
758.15783999999985
 31
0.0
  0
LINE
  5
5D4
  8
0
  6
CONTINUOUS
 62
     7
 10
-1052.4363000000001
 20
834.01782000000003
 30
0.0
 11
-935.62639999999988
 21
834.01782000000003
 31
0.0
  0
LINE
  5
5D5
  8
0
  6
CONTINUOUS
 62
     7
 10
-1061.4821999999999
 20
825.14783
 30
0.0
 11
-1055.9363000000001
 21
825.14783
 31
0.0
  0
LINE
  5
5D6
  8
0
  6
CONTINUOUS
 62
     7
 10
-1064.2272
 20
819.15117999999984
 30
0.0
 11
-1063.4421
 21
823.49785999999983
 31
0.0
  0
LINE
  5
5D7
  8
0
  6
CONTINUOUS
 62
     7
 10
-1061.5459000000001
 20
830.4278599999999
 30
0.0
 11
-1055.9363000000001
 21
830.4278599999999
 31
0.0
  0
LINE
  5
5D8
  8
0
  6
CONTINUOUS
 62
     7
 10
-1069.3063999999999
 20
833.82787999999971
 30
0.0
 11
-1055.9363000000001
 21
833.82787999999971
 31
0.0
  0
LINE
  5
5D9
  8
0
  6
CONTINUOUS
 62
     7
 10
-1069.3263999999999
 20
835.45788999999979
 30
0.0
 11
-1055.826399999999
 21
835.45788999999979
 31
0.0
  0
LINE
  5
5DA
  8
0
  6
CONTINUOUS
 62
     7
 10
-1052.4363000000001
 20
838.07787999999982
 30
0.0
 11
-934.35271999999998
 21
838.07787999999982
 31
0.0
  0
LINE
  5
5DB
  8
0
  6
CONTINUOUS
 62
     7
 10
-1052.4363000000001
 20
837.40783999999985
 30
0.0
 11
-934.20874000000003
 21
837.40783999999985
 31
0.0
  0
LINE
  5
5DC
  8
0
  6
CONTINUOUS
 62
     7
 10
-1052.4363000000001
 20
836.04785000000015
 30
0.0
 11
-933.91643999999985
 21
836.04785000000015
 31
0.0
  0
LINE
  5
5DD
  8
0
  6
CONTINUOUS
 62
     7
 10
-1065.9221
 20
823.19788000000005
 30
0.0
 11
-1063.5021999999999
 21
823.19788000000005
 31
0.0
  0
LINE
  5
5DE
  8
0
  6
CONTINUOUS
 62
     7
 10
-1063.4920999999999
 20
828.84784000000002
 30
0.0
 11
-1064.4521
 21
824.37774999999999
 31
0.0
  0
LINE
  5
5DF
  8
0
  6
CONTINUOUS
 62
     7
 10
-1073.6265000000001
 20
827.25780999999984
 30
0.0
 11
-1063.8335
 21
827.25780999999984
 31
0.0
  0
LINE
  5
5E0
  8
0
  6
CONTINUOUS
 62
     7
 10
-935.09636999999987
 20
808.15783999999974
 30
0.0
 11
-1060.8865000000001
 21
808.15783999999974
 31
0.0
  0
LINE
  5
5E1
  8
0
  6
CONTINUOUS
 62
     7
 10
-935.09636999999987
 20
806.15783999999985
 30
0.0
 11
-949.4363400000002
 21
806.15783999999985
 31
0.0
  0
LINE
  5
5E2
  8
0
  6
CONTINUOUS
 62
     7
 10
-935.08922999999993
 20
798.15783999999985
 30
0.0
 11
-949.4363400000002
 21
798.15783999999985
 31
0.0
  0
LINE
  5
5E3
  8
0
  6
CONTINUOUS
 62
     7
 10
-1071.2464999999991
 20
832.28783999999985
 30
0.0
 11
-1072.1664000000001
 21
828.41778999999985
 31
0.0
  0
LINE
  5
5E4
  8
0
  6
CONTINUOUS
 62
     7
 10
-935.10357999999997
 20
796.15783999999985
 30
0.0
 11
-1060.8865000000001
 21
796.15783999999985
 31
0.0
  0
LINE
  5
5E5
  8
0
  6
CONTINUOUS
 62
     7
 10
-1073.6063999999981
 20
829.27782999999999
 30
0.0
 11
-1071.9563000000001
 21
829.27782999999999
 31
0.0
  0
LINE
  5
5E6
  8
0
  6
CONTINUOUS
 62
     7
 10
-1071.2664
 20
833.94775000000004
 30
0.0
 11
-1072.1564000000001
 21
830.41785000000004
 31
0.0
  0
LINE
  5
5E7
  8
0
  6
CONTINUOUS
 62
     7
 10
-999.99774000000002
 20
788.15783999999985
 30
0.0
 11
-1069.8865000000001
 21
788.15783999999985
 31
0.0
  0
LINE
  5
5E8
  8
0
  6
CONTINUOUS
 62
     7
 10
-1054.4363000000001
 20
834.0478499999997
 30
0.0
 11
-1054.4363000000001
 21
826.64782999999989
 31
0.0
  0
LINE
  5
5E9
  8
0
  6
CONTINUOUS
 62
     7
 10
-999.99774000000002
 20
786.15783999999985
 30
0.0
 11
-1069.8865000000001
 21
786.15783999999985
 31
0.0
  0
LINE
  5
5EA
  8
0
  6
CONTINUOUS
 62
     7
 10
-999.99431999999979
 20
778.15783999999985
 30
0.0
 11
-1069.8865000000001
 21
778.15783999999985
 31
0.0
  0
LINE
  5
5EB
  8
0
  6
CONTINUOUS
 62
     7
 10
-999.99431999999979
 20
776.15783999999985
 30
0.0
 11
-1069.8865000000001
 21
776.15783999999985
 31
0.0
  0
LINE
  5
5EC
  8
0
  6
CONTINUOUS
 62
     7
 10
-933.69646999999986
 20
832.53789999999981
 30
0.0
 11
-930.23644999999988
 21
819.61779999999987
 31
0.0
  0
LINE
  5
5ED
  8
0
  6
CONTINUOUS
 62
     7
 10
-931.97600999999975
 20
832.65783999999985
 30
0.0
 11
-928.43640000000005
 21
832.65783999999985
 31
0.0
  0
LINE
  5
5EE
  8
0
  6
CONTINUOUS
 62
     7
 10
-928.72637999999995
 20
823.19788000000005
 30
0.0
 11
-931.14642000000015
 21
823.19788000000005
 31
0.0
  0
LINE
  5
5EF
  8
0
  6
CONTINUOUS
 62
     7
 10
-932.88629000000003
 20
836.89306999999985
 30
0.0
 11
-930.19641000000013
 21
824.37780999999984
 31
0.0
  0
LINE
  5
5F0
  8
0
  6
CONTINUOUS
 62
     7
 10
-1075.4363000000001
 20
829.5878899999999
 30
0.0
 11
-1075.4363000000001
 21
772.15783999999985
 31
0.0
  0
LINE
  5
5F1
  8
0
  6
CONTINUOUS
 62
     7
 10
-1075.4363000000001
 20
737.85779000000002
 30
0.0
 11
-1065.4363000000001
 21
737.85779000000002
 31
0.0
  0
LINE
  5
5F2
  8
0
  6
CONTINUOUS
 62
     7
 10
-1069.735799999999
 20
710.48778999999968
 30
0.0
 11
-1055.6936000000001
 21
710.48778999999968
 31
0.0
  0
LINE
  5
5F3
  8
0
  6
CONTINUOUS
 62
     7
 10
-1075.4363000000001
 20
729.46789999999999
 30
0.0
 11
-1065.4363000000001
 21
729.46789999999999
 31
0.0
  0
LINE
  5
5F4
  8
0
  6
CONTINUOUS
 62
     7
 10
-1073.6265000000001
 20
717.05785999999966
 30
0.0
 11
-1063.8335
 21
717.05785999999966
 31
0.0
  0
LINE
  5
5F5
  8
0
  6
CONTINUOUS
 62
     7
 10
-1052.4363000000001
 20
708.26782000000003
 30
0.0
 11
-1011.11
 21
708.26782000000003
 31
0.0
  0
LINE
  5
5F6
  8
0
  6
CONTINUOUS
 62
     7
 10
-1061.9763
 20
745.67785999999967
 30
0.0
 11
-967.43633999999997
 21
745.67785999999967
 31
0.0
  0
LINE
  5
5F7
  8
0
  6
CONTINUOUS
 62
     7
 10
-967.43633999999997
 20
738.15783999999985
 30
0.0
 11
-1060.9005999999979
 21
738.15783999999985
 31
0.0
  0
LINE
  5
5F8
  8
0
  6
CONTINUOUS
 62
     7
 10
-1061.7663999999991
 20
808.88781999999981
 30
0.0
 11
-931.61639000000014
 21
808.88781999999981
 31
0.0
  0
LINE
  5
5F9
  8
0
  6
CONTINUOUS
 62
     7
 10
-1061.7663999999991
 20
805.52782999999988
 30
0.0
 11
-967.41643999999997
 21
805.52782999999988
 31
0.0
  0
LINE
  5
5FA
  8
0
  6
CONTINUOUS
 62
     7
 10
-1061.9763
 20
798.64782999999989
 30
0.0
 11
-967.43633999999997
 21
798.64782999999989
 31
0.0
  0
LINE
  5
5FB
  8
0
  6
CONTINUOUS
 62
     7
 10
-1061.9763
 20
795.72777999999983
 30
0.0
 11
-931.40215999999998
 21
795.72777999999983
 31
0.0
  0
LINE
  5
5FC
  8
0
  6
CONTINUOUS
 62
     7
 10
-1071.106399999999
 20
788.50780999999984
 30
0.0
 11
-998.76520000000005
 21
788.50780999999984
 31
0.0
  0
LINE
  5
5FD
  8
0
  6
CONTINUOUS
 62
     7
 10
-1071.106399999999
 20
785.8378899999999
 30
0.0
 11
-998.77764999999999
 21
785.8378899999999
 31
0.0
  0
LINE
  5
5FE
  8
0
  6
CONTINUOUS
 62
     7
 10
-1071.1665
 20
778.43786999999975
 30
0.0
 11
-998.7012299999999
 21
778.43786999999975
 31
0.0
  0
LINE
  5
5FF
  8
0
  6
CONTINUOUS
 62
     7
 10
-1071.1665
 20
775.89782999999989
 30
0.0
 11
-998.7012299999999
 21
775.89782999999989
 31
0.0
  0
LINE
  5
600
  8
0
  6
CONTINUOUS
 62
     7
 10
-1071.1665
 20
768.42785999999967
 30
0.0
 11
-998.7012299999999
 21
768.42785999999967
 31
0.0
  0
LINE
  5
601
  8
0
  6
CONTINUOUS
 62
     7
 10
-999.99431999999979
 20
766.15783999999985
 30
0.0
 11
-1069.8865000000001
 21
766.15783999999985
 31
0.0
  0
LINE
  5
602
  8
0
  6
CONTINUOUS
 62
     7
 10
-999.99431999999979
 20
768.15783999999985
 30
0.0
 11
-1069.8865000000001
 21
768.15783999999985
 31
0.0
  0
LINE
  5
603
  8
0
  6
CONTINUOUS
 62
     7
 10
-1071.106399999999
 20
758.47777999999983
 30
0.0
 11
-998.76520000000005
 21
758.47777999999983
 31
0.0
  0
LINE
  5
604
  8
0
  6
CONTINUOUS
 62
     7
 10
-999.99431999999979
 20
756.15783999999985
 30
0.0
 11
-1069.8865000000001
 21
756.15783999999985
 31
0.0
  0
LINE
  5
605
  8
0
  6
CONTINUOUS
 62
     7
 10
-1071.106399999999
 20
755.81786999999986
 30
0.0
 11
-998.76520000000005
 21
755.81786999999986
 31
0.0
  0
LINE
  5
606
  8
0
  6
CONTINUOUS
 62
     7
 10
-935.10357999999997
 20
748.15783999999985
 30
0.0
 11
-1060.9005999999979
 21
748.15783999999985
 31
0.0
  0
LINE
  5
607
  8
0
  6
CONTINUOUS
 62
     7
 10
-1061.9763
 20
748.59777999999983
 30
0.0
 11
-931.40215999999998
 21
748.59777999999983
 31
0.0
  0
LINE
  5
608
  8
0
  6
CONTINUOUS
 62
     7
 10
-935.10357999999997
 20
746.15783999999985
 30
0.0
 11
-949.4363400000002
 21
746.15783999999985
 31
0.0
  0
LINE
  5
609
  8
0
  6
CONTINUOUS
 62
     7
 10
-935.09636999999987
 20
738.15783999999985
 30
0.0
 11
-949.4363400000002
 21
738.15783999999985
 31
0.0
  0
LINE
  5
60A
  8
0
  6
CONTINUOUS
 62
     7
 10
-1071.1665
 20
765.88782000000003
 30
0.0
 11
-998.7012299999999
 21
765.88782000000003
 31
0.0
  0
LINE
  5
60B
  8
0
  6
CONTINUOUS
 62
     7
 10
-1064.2272
 20
725.1644299999997
 30
0.0
 11
-1063.4421
 21
720.81775000000005
 31
0.0
  0
LINE
  5
60C
  8
0
  6
CONTINUOUS
 62
     7
 10
-1065.9221
 20
721.11779999999999
 30
0.0
 11
-1063.5021999999999
 21
721.11779999999999
 31
0.0
  0
LINE
  5
60D
  8
0
  6
CONTINUOUS
 62
     7
 10
-1063.492199999999
 20
715.46783000000005
 30
0.0
 11
-1064.4521
 21
719.93781000000001
 31
0.0
  0
LINE
  5
60E
  8
0
  6
CONTINUOUS
 62
     3
 10
-1009.4365
 20
700.15783999999985
 30
0.0
 11
-1009.702
 21
710.29778999999985
 31
0.0
  0
LINE
  5
60F
  8
0
  6
CONTINUOUS
 62
     3
 10
-949.43640000000005
 20
700.15777999999966
 30
0.0
 11
-949.17084
 21
710.29773
 31
0.0
  0
LINE
  5
610
  8
0
  6
CONTINUOUS
 62
     7
 10
-947.92278999999974
 20
702.15783999999996
 30
0.0
 11
-936.42022999999995
 21
702.15783999999996
 31
0.0
  0
LINE
  5
611
  8
0
  6
CONTINUOUS
 62
     3
 10
-929.43634000000009
 20
711.65783999999985
 30
0.0
 11
-935.16210999999998
 21
702.84087999999997
 31
0.0
  0
LINE
  5
612
  8
0
  6
CONTINUOUS
 62
     7
 10
-965.93634000000009
 20
744.65783999999985
 30
0.0
 11
-965.93634000000009
 21
739.65783999999985
 31
0.0
  0
LINE
  5
613
  8
0
  6
CONTINUOUS
 62
     7
 10
-950.93634000000009
 20
744.65783999999985
 30
0.0
 11
-950.93634000000009
 21
739.65783999999985
 31
0.0
  0
LINE
  5
614
  8
0
  6
CONTINUOUS
 62
     7
 10
-967.43633999999997
 20
746.15783999999985
 30
0.0
 11
-1060.9005999999979
 21
746.15783999999985
 31
0.0
  0
LINE
  5
615
  8
0
  6
CONTINUOUS
 62
     7
 10
-966.41643999999997
 20
744.65783999999985
 30
0.0
 11
-966.41643999999997
 21
739.79785000000004
 31
0.0
  0
LINE
  5
616
  8
0
  6
CONTINUOUS
 62
     7
 10
-950.45636000000002
 20
744.65783999999985
 30
0.0
 11
-950.45636000000002
 21
739.79785000000004
 31
0.0
  0
LINE
  5
617
  8
0
  6
CONTINUOUS
 62
     7
 10
-949.4363400000002
 20
745.67785999999967
 30
0.0
 11
-931.40215999999998
 21
745.67785999999967
 31
0.0
  0
LINE
  5
618
  8
0
  6
CONTINUOUS
 62
     7
 10
-949.45636000000013
 20
738.79785000000004
 30
0.0
 11
-931.61639000000014
 21
738.79785000000004
 31
0.0
  0
LINE
  5
619
  8
0
  6
CONTINUOUS
 62
     7
 10
-950.45636000000002
 20
799.65783999999985
 30
0.0
 11
-950.45636000000002
 21
804.51782000000003
 31
0.0
  0
LINE
  5
61A
  8
0
  6
CONTINUOUS
 62
     7
 10
-966.41643999999997
 20
799.65783999999985
 30
0.0
 11
-966.41643999999997
 21
804.51782000000003
 31
0.0
  0
LINE
  5
61B
  8
0
  6
CONTINUOUS
 62
     7
 10
-950.93634000000009
 20
799.65783999999985
 30
0.0
 11
-950.93634000000009
 21
804.65783999999974
 31
0.0
  0
LINE
  5
61C
  8
0
  6
CONTINUOUS
 62
     7
 10
-965.93634000000009
 20
799.65783999999985
 30
0.0
 11
-965.93634000000009
 21
804.65783999999974
 31
0.0
  0
LINE
  5
61D
  8
0
  6
CONTINUOUS
 62
     7
 10
-967.43633999999997
 20
806.15783999999985
 30
0.0
 11
-1060.8865000000001
 21
806.15783999999985
 31
0.0
  0
LINE
  5
61E
  8
0
  6
CONTINUOUS
 62
     7
 10
-949.45636000000013
 20
805.52782999999988
 30
0.0
 11
-931.61639000000014
 21
805.52782999999988
 31
0.0
  0
LINE
  5
61F
  8
0
  6
CONTINUOUS
 62
     7
 10
-949.4363400000002
 20
798.64782999999989
 30
0.0
 11
-931.39068999999995
 21
798.64782999999989
 31
0.0
  0
LINE
  5
620
  8
0
  6
CONTINUOUS
 62
     7
 10
-967.43633999999997
 20
798.15783999999985
 30
0.0
 11
-1060.8865000000001
 21
798.15783999999985
 31
0.0
  0
LINE
  5
621
  8
0
  6
CONTINUOUS
 62
     3
 10
-994.43633999999997
 20
792.65783999999985
 30
0.0
 11
-994.43633999999997
 21
751.65783999999985
 31
0.0
  0
LINE
  5
622
  8
0
  6
CONTINUOUS
 62
     3
 10
-931.43640000000005
 20
792.65783999999985
 30
0.0
 11
-931.43640000000005
 21
751.65783999999985
 31
0.0
  0
LINE
  5
623
  8
0
  6
CONTINUOUS
 62
     7
 10
-994.43633999999997
 20
792.65783999999985
 30
0.0
 11
-931.43640000000005
 21
792.65783999999985
 31
0.0
  0
LINE
  5
624
  8
0
  6
CONTINUOUS
 62
     7
 10
-994.43633999999997
 20
751.65783999999985
 30
0.0
 11
-931.43640000000005
 21
751.65783999999985
 31
0.0
  0
LINE
  5
625
  8
0
  6
CONTINUOUS
 62
     7
 10
-994.43633999999997
 20
785.15783999999985
 30
0.0
 11
-931.43640000000005
 21
785.15783999999985
 31
0.0
  0
LINE
  5
626
  8
0
  6
CONTINUOUS
 62
     3
 10
-1034.4364
 20
818.50780999999984
 30
0.0
 11
-1065.4364
 21
816.47777999999971
 31
0.0
  0
LINE
  5
627
  8
0
  6
CONTINUOUS
 62
     3
 10
-1034.4364
 20
725.80780000000004
 30
0.0
 11
-1065.4364
 21
727.83776999999998
 31
0.0
  0
LINE
  5
628
  8
0
  6
CENTER
 62
     1
 10
-225.33674999999991
 20
121.1123
 30
0.0
 11
-225.33674999999991
 21
503.11162999999988
 31
0.0
  0
LINE
  5
629
  8
0
  6
CENTER
 62
     1
 10
-51.732596999999998
 20
327.11234000000002
 30
0.0
 11
-401.29160000000002
 21
327.11234000000002
 31
0.0
  0
LINE
  5
62A
  8
0
  6
CONTINUOUS
 62
     7
 10
-230.33674999999991
 20
495.11234000000002
 30
0.0
 11
-230.33674999999991
 21
492.11233999999979
 31
0.0
  0
LINE
  5
62B
  8
0
  6
CONTINUOUS
 62
     3
 10
-1075.4364
 20
188.47230999999999
 30
0.0
 11
-1072.616299999999
 21
188.40231
 31
0.0
  0
LINE
  5
62C
  8
0
  6
CONTINUOUS
 62
     3
 10
-1078.6665
 20
196.29236
 30
0.0
 11
-1079.9364
 21
197.0223499999999
 31
0.0
  0
LINE
  5
62D
  8
0
  6
CONTINUOUS
 62
     3
 10
-1078.1564000000001
 20
198.2623099999999
 30
0.0
 11
-1075.4364
 21
198.2623099999999
 31
0.0
  0
LINE
  5
62E
  8
0
  6
CONTINUOUS
 62
     3
 10
-1078.6764000000001
 20
198.4023399999999
 30
0.0
 11
-1079.9564
 21
199.17234999999991
 31
0.0
  0
LINE
  5
62F
  8
0
  6
CONTINUOUS
 62
     3
 10
-1078.1664000000001
 20
203.9223299999999
 30
0.0
 11
-1076.4364
 21
203.9223299999999
 31
0.0
  0
LINE
  5
630
  8
0
  6
CONTINUOUS
 62
     3
 10
-1078.6464000000001
 20
197.4122899999999
 30
0.0
 11
-1079.8864000000001
 21
198.04230000000001
 31
0.0
  0
LINE
  5
631
  8
0
  6
CONTINUOUS
 62
     3
 10
-1078.1964
 20
197.30230999999981
 30
0.0
 11
-1075.9364
 21
197.30230999999981
 31
0.0
  0
LINE
  5
632
  8
0
  6
CONTINUOUS
 62
     3
 10
-1078.1664000000001
 20
196.15229999999991
 30
0.0
 11
-1075.9364
 21
196.15229999999991
 31
0.0
  0
LINE
  5
633
  8
0
  6
CONTINUOUS
 62
     3
 10
-1078.6865
 20
202.9423799999999
 30
0.0
 11
-1079.9865
 21
203.79233999999991
 31
0.0
  0
LINE
  5
634
  8
0
  6
CONTINUOUS
 62
     3
 10
-931.63634999999988
 20
186.98230000000001
 30
0.0
 11
-930.19635000000005
 21
193.6823099999998
 31
0.0
  0
LINE
  5
635
  8
0
  6
CONTINUOUS
 62
     3
 10
-979.43639999999994
 20
209.90232999999981
 30
0.0
 11
-1069.8864000000001
 21
209.90232999999981
 31
0.0
  0
LINE
  5
636
  8
0
  6
CONTINUOUS
 62
     3
 10
-1070.7565
 20
212.53229999999991
 30
0.0
 11
-1022.4363
 21
212.53229999999991
 31
0.0
  0
LINE
  5
637
  8
0
  6
CONTINUOUS
 62
     3
 10
-1026.4364
 20
215.90231
 30
0.0
 11
-938.66638
 21
215.90231
 31
0.0
  0
LINE
  5
638
  8
0
  6
CONTINUOUS
 62
     3
 10
-933.72631999999965
 20
185.40233000000001
 30
0.0
 11
-928.43640000000005
 21
185.40233000000001
 31
0.0
  0
LINE
  5
639
  8
0
  6
CONTINUOUS
 62
     3
 10
-928.72643999999991
 20
194.87231
 30
0.0
 11
-931.13640999999996
 21
194.87231
 31
0.0
  0
LINE
  5
63A
  8
0
  6
CONTINUOUS
 62
     3
 10
-1070.7565
 20
209.18231
 30
0.0
 11
-979.43639999999994
 21
209.18231
 31
0.0
  0
LINE
  5
63B
  8
0
  6
CONTINUOUS
 62
     3
 10
-1069.3263999999999
 20
182.60234
 30
0.0
 11
-1055.826399999999
 21
182.60234
 31
0.0
  0
LINE
  5
63C
  8
0
  6
CONTINUOUS
 62
     3
 10
-1052.4364
 20
184.0423099999999
 30
0.0
 11
-935.62645999999995
 21
184.0423099999999
 31
0.0
  0
LINE
  5
63D
  8
0
  6
CONTINUOUS
 62
     3
 10
-1069.2665
 20
187.6423199999999
 30
0.0
 11
-1055.936399999998
 21
187.6423199999999
 31
0.0
  0
LINE
  5
63E
  8
0
  6
CONTINUOUS
 62
     3
 10
-1075.4364
 20
211.60230999999999
 30
0.0
 11
-1072.2663999999991
 21
211.60230999999999
 31
0.0
  0
LINE
  5
63F
  8
0
  6
CONTINUOUS
 62
     3
 10
-979.43639999999994
 20
209.18231
 30
0.0
 11
-931.61645999999996
 21
209.18231
 31
0.0
  0
LINE
  5
640
  8
0
  6
CONTINUOUS
 62
     3
 10
-1078.1864
 20
199.4023
 30
0.0
 11
-1076.4364
 21
199.4023
 31
0.0
  0
LINE
  5
641
  8
0
  6
CONTINUOUS
 62
     3
 10
-1030.4364
 20
199.5523399999999
 30
0.0
 11
-928.43640000000005
 21
199.5523399999999
 31
0.0
  0
LINE
  5
642
  8
0
  6
CONTINUOUS
 62
     3
 10
-927.43633999999997
 20
193.8623399999999
 30
0.0
 11
-920.43639999999994
 21
193.8623399999999
 31
0.0
  0
LINE
  5
643
  8
0
  6
CONTINUOUS
 62
     3
 10
-927.43633999999997
 20
182.40233000000001
 30
0.0
 11
-920.43639999999994
 21
182.40233000000001
 31
0.0
  0
LINE
  5
644
  8
0
  6
CONTINUOUS
 62
     3
 10
-1078.6664000000001
 20
204.05229
 30
0.0
 11
-1079.9463000000001
 21
204.8022899999998
 31
0.0
  0
LINE
  5
645
  8
0
  6
CONTINUOUS
 62
     3
 10
-1078.1364000000001
 20
202.78231999999991
 30
0.0
 11
-1075.4364
 21
202.78231999999991
 31
0.0
  0
LINE
  5
646
  8
0
  6
CONTINUOUS
 62
     3
 10
-1071.7164
 20
197.55228999999991
 30
0.0
 11
-1071.1764000000001
 21
194.56229999999991
 31
0.0
  0
LINE
  5
647
  8
0
  6
CONTINUOUS
 62
     3
 10
-1078.6564000000001
 20
199.52229
 30
0.0
 11
-1079.9064000000001
 21
200.18231
 31
0.0
  0
LINE
  5
648
  8
0
  6
CONTINUOUS
 62
     3
 10
-1078.436399999998
 20
198.50229999999991
 30
0.0
 11
-1078.436399999998
 21
199.05231000000001
 31
0.0
  0
LINE
  5
649
  8
0
  6
CONTINUOUS
 62
     3
 10
-1075.4364
 20
197.5523199999999
 30
0.0
 11
-1065.4364
 21
197.5523199999999
 31
0.0
  0
LINE
  5
64A
  8
0
  6
CONTINUOUS
 62
     3
 10
-1078.436399999998
 20
203.0723099999999
 30
0.0
 11
-1078.436399999998
 21
203.54230999999999
 31
0.0
  0
LINE
  5
64B
  8
0
  6
CONTINUOUS
 62
     3
 10
-1069.2064
 20
192.9223199999999
 30
0.0
 11
-1055.936399999998
 21
192.9223199999999
 31
0.0
  0
LINE
  5
64C
  8
0
  6
CONTINUOUS
 62
     3
 10
-1054.436399999998
 20
184.01232999999991
 30
0.0
 11
-1054.436399999998
 21
191.42229999999981
 31
0.0
  0
LINE
  5
64D
  8
0
  6
CONTINUOUS
 62
     3
 10
-1030.4364
 20
292.25229000000002
 30
0.0
 11
-928.43640000000005
 21
292.25229000000002
 31
0.0
  0
LINE
  5
64E
  8
0
  6
CONTINUOUS
 62
     7
 10
-947.93640000000005
 20
214.4023
 30
0.0
 11
-947.93640000000005
 21
277.40233999999992
 31
0.0
  0
LINE
  5
64F
  8
0
  6
CENTER
 62
     7
 10
-979.43639999999994
 20
284.50231999999988
 30
0.0
 11
-979.43639999999994
 21
203.25231999999991
 31
0.0
  0
LINE
  5
650
  8
0
  6
CONTINUOUS
 62
     3
 10
-1073.6063999999981
 20
188.78229999999999
 30
0.0
 11
-1071.9564
 21
188.78229999999999
 31
0.0
  0
LINE
  5
651
  8
0
  6
CONTINUOUS
 62
     3
 10
-997.4364599999999
 20
181.99228999999991
 30
0.0
 11
-997.4364599999999
 21
184.0423099999999
 31
0.0
  0
LINE
  5
652
  8
0
  6
CONTINUOUS
 62
     3
 10
-948.16643999999974
 20
215.63227999999981
 30
0.0
 11
-938.66638
 21
215.90227999999991
 31
0.0
  0
LINE
  5
653
  8
0
  6
CONTINUOUS
 62
     3
 10
-927.43633999999997
 20
297.94229000000001
 30
0.0
 11
-920.43639999999994
 21
297.94229000000001
 31
0.0
  0
LINE
  5
654
  8
0
  6
CONTINUOUS
 62
     3
 10
-928.43640000000005
 20
283.05230999999992
 30
0.0
 11
-920.43639999999994
 21
283.05230999999992
 31
0.0
  0
LINE
  5
655
  8
0
  6
CONTINUOUS
 62
     7
 10
-996.4563599999999
 20
268.90230999999989
 30
0.0
 11
-956.43640000000005
 21
268.90230999999989
 31
0.0
  0
LINE
  5
656
  8
0
  6
CONTINUOUS
 62
     3
 10
-927.43633999999997
 20
309.40231
 30
0.0
 11
-920.43639999999994
 21
309.40231
 31
0.0
  0
LINE
  5
657
  8
0
  6
CONTINUOUS
 62
     3
 10
-928.43640000000005
 20
308.40231
 30
0.0
 11
-928.43640000000005
 21
183.4023099999998
 31
0.0
  0
LINE
  5
658
  8
0
  6
CONTINUOUS
 62
     7
 10
-784.43640000000005
 20
446.21361999999988
 30
0.0
 11
-784.43640000000005
 21
137.02148
 31
0.0
  0
LINE
  5
659
  8
0
  6
CONTINUOUS
 62
     7
 10
-900.61095999999998
 20
327.28084999999999
 30
0.0
 11
-853.12951999999984
 21
328.93896000000001
 31
0.0
  0
LINE
  5
65A
  8
0
  6
CONTINUOUS
 62
     7
 10
-830.43640000000005
 20
211.19002
 30
0.0
 11
-830.43640000000005
 21
352.85867000000002
 31
0.0
  0
LINE
  5
65B
  8
0
  6
CONTINUOUS
 62
     7
 10
-895.26196000000004
 20
214.86192
 30
0.0
 11
-833.43140000000005
 21
212.70276000000001
 31
0.0
  0
LINE
  5
65C
  8
0
  6
CONTINUOUS
 62
     7
 10
-826.69347999999968
 20
355.89382999999992
 30
0.0
 11
-820.43639999999982
 21
356.1123
 31
0.0
  0
LINE
  5
65D
  8
0
  6
CONTINUOUS
 62
     7
 10
-898.20519999999988
 20
187.29991000000001
 30
0.0
 11
-831.08709999999985
 21
208.2583599999999
 31
0.0
  0
LINE
  5
65E
  8
0
  6
CONTINUOUS
 62
     7
 10
-820.43639999999982
 20
208.1123199999999
 30
0.0
 11
-820.43639999999982
 21
356.1123
 31
0.0
  0
LINE
  5
65F
  8
0
  6
CONTINUOUS
 62
     7
 10
-844.54558999999983
 20
283.89859000000001
 30
0.0
 11
-837.87029999999982
 21
290.57387999999992
 31
0.0
  0
LINE
  5
660
  8
0
  6
CONTINUOUS
 62
     7
 10
-803.53936999999985
 20
391.87616000000003
 30
0.0
 11
-790.13495
 21
414.49602999999991
 31
0.0
  0
LINE
  5
661
  8
0
  6
CONTINUOUS
 62
     7
 10
-820.43639999999982
 20
355.61229999999978
 30
0.0
 11
-809.76189999999986
 21
355.98507999999993
 31
0.0
  0
LINE
  5
662
  8
0
  6
CONTINUOUS
 62
     7
 10
-785.48450000000003
 20
149.69864999999999
 30
0.0
 11
-802.84045000000003
 21
172.09218999999999
 31
0.0
  0
LINE
  5
663
  8
0
  6
CONTINUOUS
 62
     7
 10
-761.9364599999999
 20
449.11234000000002
 30
0.0
 11
-764.18695000000002
 21
457.51125999999988
 31
0.0
  0
LINE
  5
664
  8
0
  6
CONTINUOUS
 62
     7
 10
-786.9364599999999
 20
449.11234000000002
 30
0.0
 11
-784.68597
 21
457.51125999999988
 31
0.0
  0
LINE
  5
665
  8
0
  6
CONTINUOUS
 62
     7
 10
-784.23046999999985
 20
458.11229999999989
 30
0.0
 11
-764.64239999999984
 21
458.11229999999989
 31
0.0
  0
LINE
  5
666
  8
0
  6
CONTINUOUS
 62
     7
 10
-774.43640000000005
 20
460.1123
 30
0.0
 11
-764.95836999999983
 21
458.23334
 31
0.0
  0
LINE
  5
667
  8
0
  6
CONTINUOUS
 62
     7
 10
-783.91448999999989
 20
458.23327999999992
 30
0.0
 11
-774.4364599999999
 21
460.11227000000002
 31
0.0
  0
LINE
  5
668
  8
0
  6
CONTINUOUS
 62
     7
 10
-603.4364599999999
 20
357.11234000000002
 30
0.0
 11
-603.4364599999999
 21
297.11234000000002
 31
0.0
  0
LINE
  5
669
  8
0
  6
CONTINUOUS
 62
     7
 10
-583.43645999999978
 20
358.6123
 30
0.0
 11
-583.43645999999978
 21
354.61234000000002
 31
0.0
  0
LINE
  5
66A
  8
0
  6
CONTINUOUS
 62
     7
 10
-583.43645999999978
 20
358.6123
 30
0.0
 11
-521.43646000000001
 21
358.6123
 31
0.0
  0
LINE
  5
66B
  8
0
  6
CONTINUOUS
 62
     7
 10
-603.4364599999999
 20
299.61234000000002
 30
0.0
 11
-521.43646000000001
 21
299.61234000000002
 31
0.0
  0
LINE
  5
66C
  8
0
  6
CONTINUOUS
 62
     7
 10
-521.43646000000001
 20
358.6123
 30
0.0
 11
-521.43646000000001
 21
299.61234000000002
 31
0.0
  0
LINE
  5
66D
  8
0
  6
CONTINUOUS
 62
     7
 10
-603.4364599999999
 20
354.61234000000002
 30
0.0
 11
-521.43646000000001
 21
354.61234000000002
 31
0.0
  0
LINE
  5
66E
  8
0
  6
CONTINUOUS
 62
     1
 10
-233.33677999999989
 20
348.6123
 30
0.0
 11
-233.33677999999989
 21
358.6123
 31
0.0
  0
LINE
  5
66F
  8
0
  6
CONTINUOUS
 62
     7
 10
-233.33677999999989
 20
348.6123
 30
0.0
 11
-217.33676
 21
348.6123
 31
0.0
  0
LINE
  5
670
  8
0
  6
CONTINUOUS
 62
     7
 10
-233.33677999999989
 20
358.6123
 30
0.0
 11
-217.33676
 21
358.6123
 31
0.0
  0
LINE
  5
671
  8
0
  6
CONTINUOUS
 62
     1
 10
-217.33676
 20
348.6123
 30
0.0
 11
-217.33676
 21
358.6123
 31
0.0
  0
LINE
  5
672
  8
0
  6
CONTINUOUS
 62
     7
 10
-606.43646000000001
 20
357.11234000000002
 30
0.0
 11
-603.4364599999999
 21
357.11234000000002
 31
0.0
  0
LINE
  5
673
  8
0
  6
CONTINUOUS
 62
     7
 10
-606.43646000000001
 20
297.11234000000002
 30
0.0
 11
-603.4364599999999
 21
297.11234000000002
 31
0.0
  0
LINE
  5
674
  8
0
  6
CENTER
 62
     1
 10
-784.43640000000005
 20
327.11234000000002
 30
0.0
 11
-516.00762999999995
 21
327.11234000000002
 31
0.0
  0
LINE
  5
675
  8
0
  6
CONTINUOUS
 62
     7
 10
-220.33674999999999
 20
495.11234000000002
 30
0.0
 11
-220.33674999999999
 21
492.11233999999979
 31
0.0
  0
LINE
  5
676
  8
0
  6
CONTINUOUS
 62
     7
 10
-789.43640000000005
 20
447.11234000000002
 30
0.0
 11
-789.43640000000005
 21
417.04503999999997
 31
0.0
  0
LINE
  5
677
  8
0
  6
CONTINUOUS
 62
     7
 10
-782.50622999999985
 20
448.21239999999989
 30
0.0
 11
-756.73639000000003
 21
449.11229999999989
 31
0.0
  0
LINE
  5
678
  8
0
  6
CONTINUOUS
 62
     7
 10
-790.13495
 20
414.49602999999991
 30
0.0
 11
-785.13495
 21
422.93352999999979
 31
0.0
  0
LINE
  5
679
  8
0
  6
CONTINUOUS
 62
     7
 10
-920.43639999999994
 20
181.9023399999999
 30
0.0
 11
-920.43639999999994
 21
309.90233999999998
 31
0.0
  0
LINE
  5
67A
  8
0
  6
CONTINUOUS
 62
     7
 10
-920.43639999999994
 20
297.40233999999992
 30
0.0
 11
-840.69879000000003
 21
297.40233999999992
 31
0.0
  0
LINE
  5
67B
  8
0
  6
CONTINUOUS
 62
     7
 10
-920.4364599999999
 20
309.90233999999998
 30
0.0
 11
-910.26184000000001
 21
310.25765999999987
 31
0.0
  0
LINE
  5
67C
  8
0
  6
CONTINUOUS
 62
     7
 10
-920.43634000000009
 20
181.9023599999999
 30
0.0
 11
-904.29681000000005
 21
182.46596
 31
0.0
  0
LINE
  5
67D
  8
0
  6
CONTINUOUS
 62
     7
 10
-905.43640000000005
 20
343.88347999999991
 30
0.0
 11
-905.43640000000005
 21
300.40230999999989
 31
0.0
  0
LINE
  5
67E
  8
0
  6
CONTINUOUS
 62
     7
 10
-895.43639999999982
 20
252.9054099999999
 30
0.0
 11
-830.43640000000005
 21
252.9054099999999
 31
0.0
  0
LINE
  5
67F
  8
0
  6
CONTINUOUS
 62
     7
 10
-830.43640000000005
 20
345.11234000000002
 30
0.0
 11
-804.93646000000001
 21
345.11234000000002
 31
0.0
  0
LINE
  5
680
  8
0
  6
CONTINUOUS
 62
     7
 10
-829.75525000000005
 20
208.4377299999999
 30
0.0
 11
-820.43639999999982
 21
208.1123199999999
 31
0.0
  0
LINE
  5
681
  8
0
  6
CONTINUOUS
 62
     7
 10
-851.55487000000005
 20
328.99389999999988
 30
0.0
 11
-851.55487000000005
 21
297.40233999999992
 31
0.0
  0
LINE
  5
682
  8
0
  6
CONTINUOUS
 62
     7
 10
-920.43639999999994
 20
283.89864999999992
 30
0.0
 11
-844.54558999999983
 21
283.89864999999992
 31
0.0
  0
LINE
  5
683
  8
0
  6
CONTINUOUS
 62
     7
 10
-920.43639999999994
 20
194.4023399999999
 30
0.0
 11
-900.43640000000005
 21
194.4023399999999
 31
0.0
  0
LINE
  5
684
  8
0
  6
CONTINUOUS
 62
     7
 10
-920.43639999999994
 20
207.9060199999999
 30
0.0
 11
-900.43640000000005
 21
207.9060199999999
 31
0.0
  0
LINE
  5
685
  8
0
  6
CONTINUOUS
 62
     7
 10
-830.43640000000005
 20
320.93239999999992
 30
0.0
 11
-804.93646000000001
 21
320.93239999999992
 31
0.0
  0
LINE
  5
686
  8
0
  6
CONTINUOUS
 62
     7
 10
-1030.4364
 20
292.25232
 30
0.0
 11
-1065.4364
 21
290.22232000000002
 31
0.0
  0
LINE
  5
687
  8
0
  6
CONTINUOUS
 62
     7
 10
-1030.4364
 20
199.5523399999999
 30
0.0
 11
-1065.4363000000001
 21
201.5823199999999
 31
0.0
  0
LINE
  5
688
  8
0
  6
CONTINUOUS
 62
     7
 10
-850.44066999999984
 20
330.10809
 30
0.0
 11
-831.60802999999987
 21
348.94076999999999
 31
0.0
  0
LINE
  5
689
  8
0
  6
CENTER
 62
     7
 10
-761.92999000000032
 20
245.90231
 30
0.0
 11
-1088.1783
 21
245.90231
 31
0.0
  0
LINE
  5
68A
  8
0
  6
CONTINUOUS
 62
     7
 10
-844.54565000000002
 20
283.89864999999992
 30
0.0
 11
-830.4364599999999
 21
256.71648999999979
 31
0.0
  0
LINE
  5
68B
  8
0
  6
CONTINUOUS
 62
     7
 10
-900.43640000000005
 20
247.9054099999999
 30
0.0
 11
-900.43640000000005
 21
186.4634999999999
 31
0.0
  0
LINE
  5
68C
  8
0
  6
CONTINUOUS
 62
     7
 10
-902.54114000000015
 20
346.88167999999979
 30
0.0
 11
-834.29681000000005
 21
349.26482999999979
 31
0.0
  0
LINE
  5
68D
  8
0
  6
CONTINUOUS
 62
     7
 10
-787.43646000000001
 20
449.11229999999989
 30
0.0
 11
-756.43646000000001
 21
449.11229999999989
 31
0.0
  0
LINE
  5
68E
  8
0
  6
CONTINUOUS
 62
     7
 10
-820.43639999999982
 20
208.6123
 30
0.0
 11
-809.76195999999982
 21
208.23952999999989
 31
0.0
  0
LINE
  5
68F
  8
0
  6
CONTINUOUS
 62
     7
 10
-804.93646000000001
 20
386.77814000000001
 30
0.0
 11
-804.93646000000001
 21
178.21811
 31
0.0
  0
LINE
  5
690
  8
0
  6
CONTINUOUS
 62
     3
 10
-1071.2464999999991
 20
185.77232000000001
 30
0.0
 11
-1072.1664000000001
 21
189.6523099999998
 31
0.0
  0
LINE
  5
691
  8
0
  6
CONTINUOUS
 62
     3
 10
-1071.2664
 20
184.11229999999981
 30
0.0
 11
-1072.1564000000001
 21
187.65229999999991
 31
0.0
  0
LINE
  5
692
  8
0
  6
CONTINUOUS
 62
     3
 10
-933.69641000000013
 20
185.52231
 30
0.0
 11
-930.23639000000014
 21
198.44230999999991
 31
0.0
  0
LINE
  5
693
  8
0
  6
CONTINUOUS
 62
     3
 10
-1078.436399999998
 20
196.40231
 30
0.0
 11
-1078.436399999998
 21
196.93233000000001
 31
0.0
  0
LINE
  5
694
  8
0
  6
CONTINUOUS
 62
     3
 10
-1065.4364
 20
197.5523199999999
 30
0.0
 11
-1065.4364
 21
211.60230999999999
 31
0.0
  0
LINE
  5
695
  8
0
  6
CONTINUOUS
 62
     3
 10
-928.43640000000005
 20
208.75232
 30
0.0
 11
-920.43639999999994
 21
208.75232
 31
0.0
  0
LINE
  5
696
  8
0
  6
CONTINUOUS
 62
     3
 10
-938.66638
 20
275.90230999999972
 30
0.0
 11
-938.66638
 21
215.90231
 31
0.0
  0
LINE
  5
697
  8
0
  6
CONTINUOUS
 62
     3
 10
-1075.4364
 20
303.33233999999999
 30
0.0
 11
-1072.6165000000001
 21
303.40233999999992
 31
0.0
  0
LINE
  5
698
  8
0
  6
CONTINUOUS
 62
     3
 10
-1075.4364
 20
303.33231000000001
 30
0.0
 11
-1075.4364
 21
245.90231
 31
0.0
  0
LINE
  5
699
  8
0
  6
CONTINUOUS
 62
     3
 10
-1080.4364
 20
293.92232999999999
 30
0.0
 11
-1080.4364
 21
250.9023099999998
 31
0.0
  0
LINE
  5
69A
  8
0
  6
CONTINUOUS
 62
     3
 10
-1078.1664000000001
 20
295.65233999999998
 30
0.0
 11
-1075.9364
 21
295.65233999999998
 31
0.0
  0
LINE
  5
69B
  8
0
  6
CONTINUOUS
 62
     3
 10
-935.09644000000003
 20
209.90232999999981
 30
0.0
 11
-979.43639999999994
 21
209.90232999999981
 31
0.0
  0
LINE
  5
69C
  8
0
  6
CONTINUOUS
 62
     3
 10
-1078.2363
 20
281.59231999999992
 30
0.0
 11
-1076.136399999999
 21
281.59231999999992
 31
0.0
  0
LINE
  5
69D
  8
0
  6
CONTINUOUS
 62
     3
 10
-1078.6664000000001
 20
295.52227999999991
 30
0.0
 11
-1079.9364
 21
294.78226000000001
 31
0.0
  0
LINE
  5
69E
  8
0
  6
CONTINUOUS
 62
     3
 10
-1078.6764000000001
 20
293.40233999999998
 30
0.0
 11
-1079.9564
 21
292.63234999999992
 31
0.0
  0
LINE
  5
69F
  8
0
  6
CONTINUOUS
 62
     3
 10
-1078.6864
 20
288.86227000000002
 30
0.0
 11
-1079.9863
 21
288.01229999999993
 31
0.0
  0
LINE
  5
6A0
  8
0
  6
CONTINUOUS
 62
     3
 10
-1078.6262999999999
 20
281.51236
 30
0.0
 11
-1079.826399999999
 21
281.00234999999992
 31
0.0
  0
LINE
  5
6A1
  8
0
  6
CONTINUOUS
 62
     3
 10
-1078.1564000000001
 20
293.54232999999999
 30
0.0
 11
-1075.4364
 21
293.54232999999999
 31
0.0
  0
LINE
  5
6A2
  8
0
  6
CONTINUOUS
 62
     3
 10
-1078.1364000000001
 20
289.03232000000008
 30
0.0
 11
-1075.4364
 21
289.03232000000008
 31
0.0
  0
LINE
  5
6A3
  8
0
  6
CONTINUOUS
 62
     3
 10
-1078.2864
 20
279.64232999999967
 30
0.0
 11
-1076.4364
 21
279.64232999999967
 31
0.0
  0
LINE
  5
6A4
  8
0
  6
CONTINUOUS
 62
     3
 10
-1078.1664000000001
 20
287.89232999999967
 30
0.0
 11
-1076.4364
 21
287.89232999999967
 31
0.0
  0
LINE
  5
6A5
  8
0
  6
CONTINUOUS
 62
     3
 10
-1078.1864
 20
292.40233999999992
 30
0.0
 11
-1076.4364
 21
292.40233999999992
 31
0.0
  0
LINE
  5
6A6
  8
0
  6
CONTINUOUS
 62
     3
 10
-1078.1964
 20
294.50231999999983
 30
0.0
 11
-1075.9364
 21
294.50231999999983
 31
0.0
  0
LINE
  5
6A7
  8
0
  6
CONTINUOUS
 62
     3
 10
-1078.6664000000001
 20
287.75225999999992
 30
0.0
 11
-1079.9464
 21
287.00229000000002
 31
0.0
  0
LINE
  5
6A8
  8
0
  6
CONTINUOUS
 62
     3
 10
-1078.576399999999
 20
279.60222999999991
 30
0.0
 11
-1079.7263999999991
 21
279.25222999999988
 31
0.0
  0
LINE
  5
6A9
  8
0
  6
CONTINUOUS
 62
     3
 10
-1078.6464000000001
 20
294.40230999999989
 30
0.0
 11
-1079.8864000000001
 21
293.77230999999989
 31
0.0
  0
LINE
  5
6AA
  8
0
  6
CONTINUOUS
 62
     3
 10
-1078.6564000000001
 20
292.29232999999988
 30
0.0
 11
-1079.9065000000001
 21
291.62231000000008
 31
0.0
  0
LINE
  5
6AB
  8
0
  6
CONTINUOUS
 62
     3
 10
-1076.4364
 20
271.90231
 30
0.0
 11
-1079.4364
 21
271.90231
 31
0.0
  0
LINE
  5
6AC
  8
0
  6
CONTINUOUS
 62
     3
 10
-1076.4364
 20
269.90233999999992
 30
0.0
 11
-1079.4364
 21
269.90233999999992
 31
0.0
  0
LINE
  5
6AD
  8
0
  6
CONTINUOUS
 62
     3
 10
-1076.4364
 20
261.90233999999992
 30
0.0
 11
-1079.4364
 21
261.90233999999992
 31
0.0
  0
LINE
  5
6AE
  8
0
  6
CONTINUOUS
 62
     3
 10
-1076.4364
 20
259.90227999999991
 30
0.0
 11
-1079.4364
 21
259.90227999999991
 31
0.0
  0
LINE
  5
6AF
  8
0
  6
CONTINUOUS
 62
     3
 10
-1076.4364
 20
251.9023
 30
0.0
 11
-1079.4364
 21
251.9023
 31
0.0
  0
LINE
  5
6B0
  8
0
  6
CONTINUOUS
 62
     3
 10
-1076.4364
 20
249.90232999999981
 30
0.0
 11
-1079.4364
 21
249.90232999999981
 31
0.0
  0
LINE
  5
6B1
  8
0
  6
CONTINUOUS
 62
     3
 10
-1078.436399999998
 20
261.51232999999991
 30
0.0
 11
-1078.436399999998
 21
260.30234000000002
 31
0.0
  0
LINE
  5
6B2
  8
0
  6
CONTINUOUS
 62
     3
 10
-1078.436399999998
 20
251.51232999999991
 30
0.0
 11
-1078.436399999998
 21
250.3523099999999
 31
0.0
  0
LINE
  5
6B3
  8
0
  6
CONTINUOUS
 62
     3
 10
-1078.436399999998
 20
271.53232000000003
 30
0.0
 11
-1078.436399999998
 21
270.16235
 31
0.0
  0
LINE
  5
6B4
  8
0
  6
CONTINUOUS
 62
     3
 10
-1078.436399999998
 20
281.29232999999982
 30
0.0
 11
-1078.436399999998
 21
280.23232999999988
 31
0.0
  0
LINE
  5
6B5
  8
0
  6
CONTINUOUS
 62
     3
 10
-1078.436399999998
 20
288.73232999999982
 30
0.0
 11
-1078.436399999998
 21
288.26232999999991
 31
0.0
  0
LINE
  5
6B6
  8
0
  6
CONTINUOUS
 62
     3
 10
-1078.436399999998
 20
293.30234000000002
 30
0.0
 11
-1078.436399999998
 21
292.75231999999988
 31
0.0
  0
LINE
  5
6B7
  8
0
  6
CONTINUOUS
 62
     3
 10
-1078.436399999998
 20
295.40231
 30
0.0
 11
-1078.436399999998
 21
294.87231000000008
 31
0.0
  0
LINE
  5
6B8
  8
0
  6
CONTINUOUS
 62
     3
 10
-1081.9364
 20
265.90231
 30
0.0
 11
-1081.9364
 21
245.90231
 31
0.0
  0
LINE
  5
6B9
  8
0
  6
CONTINUOUS
 62
     3
 10
-1081.9365
 20
265.90231
 30
0.0
 11
-1080.4365
 21
266.03232000000003
 31
0.0
  0
LINE
  5
6BA
  8
0
  6
CONTINUOUS
 62
     3
 10
-1081.9364
 20
263.18230999999992
 30
0.0
 11
-1080.4364
 21
263.18230999999992
 31
0.0
  0
LINE
  5
6BB
  8
0
  6
CONTINUOUS
 62
     7
 10
-1002.4363
 20
222.90232999999981
 30
0.0
 11
-962.41637999999989
 21
222.90232999999981
 31
0.0
  0
LINE
  5
6BC
  8
0
  6
CONTINUOUS
 62
     7
 10
-1027.9364
 20
277.40233999999992
 30
0.0
 11
-1022.4363
 21
277.40233999999992
 31
0.0
  0
LINE
  5
6BD
  8
0
  6
CONTINUOUS
 62
     7
 10
-1027.9364
 20
214.4023
 30
0.0
 11
-1027.9364
 21
238.4023099999998
 31
0.0
  0
LINE
  5
6BE
  8
0
  6
CONTINUOUS
 62
     7
 10
-1001.9364
 20
266.34231999999992
 30
0.0
 11
-1001.9364
 21
270.36229999999972
 31
0.0
  0
LINE
  5
6BF
  8
0
  6
CONTINUOUS
 62
     7
 10
-1027.9364
 20
214.4023
 30
0.0
 11
-1022.4363
 21
214.4023
 31
0.0
  0
LINE
  5
6C0
  8
0
  6
CONTINUOUS
 62
     7
 10
-956.93640000000005
 20
221.34229999999999
 30
0.0
 11
-956.93640000000005
 21
225.37233999999981
 31
0.0
  0
LINE
  5
6C1
  8
0
  6
CONTINUOUS
 62
     3
 10
-1065.4364
 20
294.25232
 30
0.0
 11
-1065.4364
 21
280.21231
 31
0.0
  0
LINE
  5
6C2
  8
0
  6
CONTINUOUS
 62
     3
 10
-1075.4364
 20
280.21231
 30
0.0
 11
-1065.4364
 21
280.21231
 31
0.0
  0
LINE
  5
6C3
  8
0
  6
CONTINUOUS
 62
     3
 10
-1075.4364
 20
288.59231999999992
 30
0.0
 11
-1065.4364
 21
288.59231999999992
 31
0.0
  0
LINE
  5
6C4
  8
0
  6
CONTINUOUS
 62
     3
 10
-1075.4364
 20
294.25232
 30
0.0
 11
-1065.4364
 21
294.25232
 31
0.0
  0
LINE
  5
6C5
  8
0
  6
CONTINUOUS
 62
     7
 10
-956.43640000000005
 20
228.88231999999991
 30
0.0
 11
-956.43640000000005
 21
268.90230999999989
 31
0.0
  0
LINE
  5
6C6
  8
0
  6
CONTINUOUS
 62
     7
 10
-1007.4362999999991
 20
212.40232999999981
 30
0.0
 11
-1007.4362999999991
 21
215.90231
 31
0.0
  0
LINE
  5
6C7
  8
0
  6
CONTINUOUS
 62
     7
 10
-959.06640999999991
 20
223.40230999999989
 30
0.0
 11
-954.85637999999994
 21
223.40230999999989
 31
0.0
  0
LINE
  5
6C8
  8
0
  6
CONTINUOUS
 62
     7
 10
-997.23639000000014
 20
263.70229999999992
 30
0.0
 11
-961.63640999999996
 21
263.70229999999992
 31
0.0
  0
LINE
  5
6C9
  8
0
  6
CONTINUOUS
 62
     7
 10
-997.23639000000014
 20
228.10232999999999
 30
0.0
 11
-961.63640999999996
 21
228.10232999999999
 31
0.0
  0
LINE
  5
6CA
  8
0
  6
CONTINUOUS
 62
     7
 10
-961.63640999999996
 20
228.10232999999999
 30
0.0
 11
-961.63640999999996
 21
263.70229999999992
 31
0.0
  0
LINE
  5
6CB
  8
0
  6
CONTINUOUS
 62
     7
 10
-997.23639000000014
 20
228.10232999999999
 30
0.0
 11
-997.23639000000014
 21
263.70229999999992
 31
0.0
  0
LINE
  5
6CC
  8
0
  6
CONTINUOUS
 62
     7
 10
-1026.4364
 20
275.90230999999972
 30
0.0
 11
-938.66638
 21
275.90230999999972
 31
0.0
  0
LINE
  5
6CD
  8
0
  6
CONTINUOUS
 62
     7
 10
-1007.4362999999991
 20
277.40233999999992
 30
0.0
 11
-947.93640000000005
 21
277.40233999999992
 31
0.0
  0
LINE
  5
6CE
  8
0
  6
CONTINUOUS
 62
     7
 10
-1007.4362999999991
 20
214.4023
 30
0.0
 11
-947.93640000000005
 21
214.4023
 31
0.0
  0
LINE
  5
6CF
  8
0
  6
CONTINUOUS
 62
     7
 10
-949.43640000000005
 20
215.90231
 30
0.0
 11
-949.43640000000005
 21
275.90230999999972
 31
0.0
  0
LINE
  5
6D0
  8
0
  6
CONTINUOUS
 62
     7
 10
-1026.4364
 20
215.90231
 30
0.0
 11
-1026.4364
 21
275.90230999999972
 31
0.0
  0
LINE
  5
6D1
  8
0
  6
CONTINUOUS
 62
     3
 10
-1027.9364
 20
231.9023399999999
 30
0.0
 11
-1069.8864000000001
 21
231.9023399999999
 31
0.0
  0
LINE
  5
6D2
  8
0
  6
CONTINUOUS
 62
     7
 10
-1022.4363
 20
279.40230999999989
 30
0.0
 11
-1022.4363
 21
275.90230999999972
 31
0.0
  0
LINE
  5
6D3
  8
0
  6
CONTINUOUS
 62
     7
 10
-1029.9364
 20
253.40231
 30
0.0
 11
-1026.4364
 21
253.40231
 31
0.0
  0
LINE
  5
6D4
  8
0
  6
CONTINUOUS
 62
     7
 10
-1029.9364
 20
238.4023099999998
 30
0.0
 11
-1029.9364
 21
253.40231
 31
0.0
  0
LINE
  5
6D5
  8
0
  6
CONTINUOUS
 62
     7
 10
-1029.9364
 20
238.4023099999998
 30
0.0
 11
-1026.4364
 21
238.4023099999998
 31
0.0
  0
LINE
  5
6D6
  8
0
  6
CONTINUOUS
 62
     7
 10
-1022.4363
 20
212.40232999999981
 30
0.0
 11
-1022.4363
 21
215.90231
 31
0.0
  0
LINE
  5
6D7
  8
0
  6
CONTINUOUS
 62
     3
 10
-1052.4364
 20
307.76232999999991
 30
0.0
 11
-935.62645999999995
 21
307.76232999999991
 31
0.0
  0
LINE
  5
6D8
  8
0
  6
CONTINUOUS
 62
     3
 10
-1069.2064
 20
298.88231999999999
 30
0.0
 11
-1055.936399999998
 21
298.88231999999999
 31
0.0
  0
LINE
  5
6D9
  8
0
  6
CONTINUOUS
 62
     3
 10
-1071.7164
 20
294.25232
 30
0.0
 11
-1071.1764000000001
 21
297.24234000000001
 31
0.0
  0
LINE
  5
6DA
  8
0
  6
CONTINUOUS
 62
     3
 10
-1069.2665
 20
304.17230000000001
 30
0.0
 11
-1055.936399999998
 21
304.17230000000001
 31
0.0
  0
LINE
  5
6DB
  8
0
  6
CONTINUOUS
 62
     7
 10
-1007.4362999999991
 20
212.40232999999981
 30
0.0
 11
-1022.4363
 21
212.40232999999981
 31
0.0
  0
LINE
  5
6DC
  8
0
  6
CONTINUOUS
 62
     3
 10
-1069.2963999999999
 20
307.57232999999991
 30
0.0
 11
-1055.936399999998
 21
307.57232999999991
 31
0.0
  0
LINE
  5
6DD
  8
0
  6
CONTINUOUS
 62
     3
 10
-1069.3263999999999
 20
309.20229999999992
 30
0.0
 11
-1055.826399999999
 21
309.20229999999992
 31
0.0
  0
LINE
  5
6DE
  8
0
  6
CONTINUOUS
 62
     3
 10
-1052.4364
 20
311.82229999999993
 30
0.0
 11
-999.43640000000005
 21
311.82229999999993
 31
0.0
  0
LINE
  5
6DF
  8
0
  6
CONTINUOUS
 62
     3
 10
-1052.4364
 20
311.14229999999992
 30
0.0
 11
-999.43640000000005
 21
311.14229999999992
 31
0.0
  0
LINE
  5
6E0
  8
0
  6
CONTINUOUS
 62
     3
 10
-1052.4364
 20
309.79232999999999
 30
0.0
 11
-999.43640000000005
 21
309.79232999999999
 31
0.0
  0
LINE
  5
6E1
  8
0
  6
CONTINUOUS
 62
     3
 10
-1073.6464000000001
 20
296.94231999999982
 30
0.0
 11
-1071.2365
 21
296.94231999999982
 31
0.0
  0
LINE
  5
6E2
  8
0
  6
CONTINUOUS
 62
     3
 10
-1071.226299999998
 20
302.59231999999992
 30
0.0
 11
-1072.1863000000001
 21
298.12231000000008
 31
0.0
  0
LINE
  5
6E3
  8
0
  6
CONTINUOUS
 62
     3
 10
-1073.626299999999
 20
301.00234999999992
 30
0.0
 11
-1071.5663999999999
 21
301.00234999999992
 31
0.0
  0
LINE
  5
6E4
  8
0
  6
CONTINUOUS
 62
     3
 10
-935.09644000000003
 20
281.90230999999989
 30
0.0
 11
-1060.8864000000001
 21
281.90230999999989
 31
0.0
  0
LINE
  5
6E5
  8
0
  6
CONTINUOUS
 62
     3
 10
-935.09644000000003
 20
279.90233999999992
 30
0.0
 11
-1060.8864000000001
 21
279.90233999999992
 31
0.0
  0
LINE
  5
6E6
  8
0
  6
CONTINUOUS
 62
     3
 10
-1027.9364
 20
271.90231
 30
0.0
 11
-1060.8864000000001
 21
271.90231
 31
0.0
  0
LINE
  5
6E7
  8
0
  6
CONTINUOUS
 62
     3
 10
-1071.2463
 20
306.03232000000008
 30
0.0
 11
-1072.1664000000001
 21
302.15231
 31
0.0
  0
LINE
  5
6E8
  8
0
  6
CONTINUOUS
 62
     3
 10
-1027.9364
 20
269.90233999999992
 30
0.0
 11
-1060.8864000000001
 21
269.90233999999992
 31
0.0
  0
LINE
  5
6E9
  8
0
  6
CONTINUOUS
 62
     3
 10
-1073.6063999999981
 20
303.02233999999999
 30
0.0
 11
-1071.9564
 21
303.02233999999999
 31
0.0
  0
LINE
  5
6EA
  8
0
  6
CONTINUOUS
 62
     3
 10
-1071.266499999999
 20
307.69231999999988
 30
0.0
 11
-1072.156499999998
 21
304.16232000000002
 31
0.0
  0
LINE
  5
6EB
  8
0
  6
CONTINUOUS
 62
     3
 10
-1027.9364
 20
261.90233999999992
 30
0.0
 11
-1069.8864000000001
 21
261.90233999999992
 31
0.0
  0
LINE
  5
6EC
  8
0
  6
CONTINUOUS
 62
     3
 10
-1054.436399999998
 20
307.79230000000001
 30
0.0
 11
-1054.436399999998
 21
300.38231999999982
 31
0.0
  0
LINE
  5
6ED
  8
0
  6
CONTINUOUS
 62
     3
 10
-1027.9364
 20
259.90227999999991
 30
0.0
 11
-1069.8864000000001
 21
259.90227999999991
 31
0.0
  0
LINE
  5
6EE
  8
0
  6
CONTINUOUS
 62
     3
 10
-1029.9364
 20
251.9023
 30
0.0
 11
-1069.8864000000001
 21
251.9023
 31
0.0
  0
LINE
  5
6EF
  8
0
  6
CONTINUOUS
 62
     3
 10
-997.4364599999999
 20
309.82229999999993
 30
0.0
 11
-997.4364599999999
 21
307.76232999999991
 31
0.0
  0
LINE
  5
6F0
  8
0
  6
CONTINUOUS
 62
     3
 10
-1029.9364
 20
249.90232999999981
 30
0.0
 11
-1069.8864000000001
 21
249.90232999999981
 31
0.0
  0
LINE
  5
6F1
  8
0
  6
CONTINUOUS
 62
     3
 10
-933.69635000000005
 20
306.28232000000008
 30
0.0
 11
-930.23632999999995
 21
293.36234000000002
 31
0.0
  0
LINE
  5
6F2
  8
0
  6
CONTINUOUS
 62
     3
 10
-933.72631999999965
 20
306.40230999999989
 30
0.0
 11
-928.43640000000005
 21
306.40230999999989
 31
0.0
  0
LINE
  5
6F3
  8
0
  6
CONTINUOUS
 62
     3
 10
-928.72643999999991
 20
296.94231999999982
 30
0.0
 11
-931.13640999999996
 21
296.94231999999982
 31
0.0
  0
LINE
  5
6F4
  8
0
  6
CONTINUOUS
 62
     3
 10
-931.63634999999988
 20
304.82229999999998
 30
0.0
 11
-930.19635000000005
 21
298.12225000000001
 31
0.0
  0
LINE
  5
6F5
  8
0
  6
CONTINUOUS
 62
     3
 10
-1075.4364
 20
188.47231999999991
 30
0.0
 11
-1075.4364
 21
245.90231
 31
0.0
  0
LINE
  5
6F6
  8
0
  6
CONTINUOUS
 62
     3
 10
-1080.4364
 20
197.31229999999999
 30
0.0
 11
-1080.4364
 21
240.90231
 31
0.0
  0
LINE
  5
6F7
  8
0
  6
CONTINUOUS
 62
     3
 10
-1078.2363
 20
210.21231
 30
0.0
 11
-1076.136399999999
 21
210.21231
 31
0.0
  0
LINE
  5
6F8
  8
0
  6
CONTINUOUS
 62
     3
 10
-1078.6265000000001
 20
210.2923399999998
 30
0.0
 11
-1079.826399999999
 21
210.81232
 31
0.0
  0
LINE
  5
6F9
  8
0
  6
CONTINUOUS
 62
     3
 10
-1078.2864
 20
212.16230999999991
 30
0.0
 11
-1076.4364
 21
212.16230999999991
 31
0.0
  0
LINE
  5
6FA
  8
0
  6
CONTINUOUS
 62
     3
 10
-1078.576399999999
 20
212.20231999999999
 30
0.0
 11
-1079.7263
 21
212.56229999999999
 31
0.0
  0
LINE
  5
6FB
  8
0
  6
CONTINUOUS
 62
     3
 10
-1076.4364
 20
219.90232999999989
 30
0.0
 11
-1079.4364
 21
219.90232999999989
 31
0.0
  0
LINE
  5
6FC
  8
0
  6
CONTINUOUS
 62
     3
 10
-1076.4364
 20
221.90229999999991
 30
0.0
 11
-1079.4364
 21
221.90229999999991
 31
0.0
  0
LINE
  5
6FD
  8
0
  6
CONTINUOUS
 62
     3
 10
-1076.4364
 20
229.9023
 30
0.0
 11
-1079.4364
 21
229.9023
 31
0.0
  0
LINE
  5
6FE
  8
0
  6
CONTINUOUS
 62
     3
 10
-1076.4364
 20
231.9023399999999
 30
0.0
 11
-1079.4364
 21
231.9023399999999
 31
0.0
  0
LINE
  5
6FF
  8
0
  6
CONTINUOUS
 62
     3
 10
-1076.4364
 20
239.90232999999989
 30
0.0
 11
-1079.4364
 21
239.90232999999989
 31
0.0
  0
LINE
  5
700
  8
0
  6
CONTINUOUS
 62
     3
 10
-1076.4364
 20
241.9023
 30
0.0
 11
-1079.4364
 21
241.9023
 31
0.0
  0
LINE
  5
701
  8
0
  6
CONTINUOUS
 62
     3
 10
-1078.436399999998
 20
230.29230999999999
 30
0.0
 11
-1078.436399999998
 21
231.51232999999991
 31
0.0
  0
LINE
  5
702
  8
0
  6
CONTINUOUS
 62
     3
 10
-1078.436399999998
 20
240.2923099999999
 30
0.0
 11
-1078.436399999998
 21
241.45231999999999
 31
0.0
  0
LINE
  5
703
  8
0
  6
CONTINUOUS
 62
     3
 10
-1078.436399999998
 20
220.27232000000001
 30
0.0
 11
-1078.436399999998
 21
221.64228999999989
 31
0.0
  0
LINE
  5
704
  8
0
  6
CONTINUOUS
 62
     3
 10
-1078.436399999998
 20
210.51230000000001
 30
0.0
 11
-1078.436399999998
 21
211.57230000000001
 31
0.0
  0
LINE
  5
705
  8
0
  6
CONTINUOUS
 62
     3
 10
-1081.9364
 20
225.9023099999998
 30
0.0
 11
-1081.9364
 21
245.90231
 31
0.0
  0
LINE
  5
706
  8
0
  6
CONTINUOUS
 62
     3
 10
-1081.9363000000001
 20
225.9023
 30
0.0
 11
-1080.4363000000001
 21
225.77229
 31
0.0
  0
LINE
  5
707
  8
0
  6
CONTINUOUS
 62
     3
 10
-1081.9364
 20
228.62230999999991
 30
0.0
 11
-1080.4364
 21
228.62230999999991
 31
0.0
  0
LINE
  5
708
  8
0
  6
CONTINUOUS
 62
     3
 10
-1052.4364
 20
179.98232999999991
 30
0.0
 11
-999.43640000000005
 21
179.98232999999991
 31
0.0
  0
LINE
  5
709
  8
0
  6
CONTINUOUS
 62
     3
 10
-1069.2963999999999
 20
184.2323199999999
 30
0.0
 11
-1055.936399999998
 21
184.2323199999999
 31
0.0
  0
LINE
  5
70A
  8
0
  6
CONTINUOUS
 62
     3
 10
-1075.4364
 20
203.21231
 30
0.0
 11
-1065.4364
 21
203.21231
 31
0.0
  0
LINE
  5
70B
  8
0
  6
CONTINUOUS
 62
     3
 10
-1052.4364
 20
180.66234
 30
0.0
 11
-999.43640000000005
 21
180.66234
 31
0.0
  0
LINE
  5
70C
  8
0
  6
CONTINUOUS
 62
     3
 10
-1073.626299999999
 20
190.80228999999991
 30
0.0
 11
-1071.5663999999999
 21
190.80228999999991
 31
0.0
  0
LINE
  5
70D
  8
0
  6
CONTINUOUS
 62
     3
 10
-1073.6464000000001
 20
194.87231
 30
0.0
 11
-1071.2365
 21
194.87231
 31
0.0
  0
LINE
  5
70E
  8
0
  6
CONTINUOUS
 62
     3
 10
-1071.2264
 20
189.22230999999999
 30
0.0
 11
-1072.1864
 21
193.68227999999999
 31
0.0
  0
LINE
  5
70F
  8
0
  6
CONTINUOUS
 62
     3
 10
-1052.4364
 20
182.01231000000001
 30
0.0
 11
-999.43640000000005
 21
182.01231000000001
 31
0.0
  0
LINE
  5
710
  8
0
  6
CONTINUOUS
 62
     3
 10
-1070.9763999999991
 20
219.4122899999999
 30
0.0
 11
-1027.9364
 21
219.4122899999999
 31
0.0
  0
LINE
  5
711
  8
0
  6
CONTINUOUS
 62
     3
 10
-979.43639999999994
 20
211.9022999999998
 30
0.0
 11
-1069.4464
 21
211.9022999999998
 31
0.0
  0
LINE
  5
712
  8
0
  6
CONTINUOUS
 62
     3
 10
-1061.7564999999991
 20
282.62231000000008
 30
0.0
 11
-931.61645999999996
 21
282.62231000000008
 31
0.0
  0
LINE
  5
713
  8
0
  6
CONTINUOUS
 62
     3
 10
-1071.1664000000001
 20
252.17230000000001
 30
0.0
 11
-1029.9364
 21
252.17230000000001
 31
0.0
  0
LINE
  5
714
  8
0
  6
CONTINUOUS
 62
     3
 10
-1071.106399999999
 20
262.24234000000001
 30
0.0
 11
-1027.9364
 21
262.24234000000001
 31
0.0
  0
LINE
  5
715
  8
0
  6
CONTINUOUS
 62
     3
 10
-1061.9764
 20
269.46231
 30
0.0
 11
-1027.9364
 21
269.46231
 31
0.0
  0
LINE
  5
716
  8
0
  6
CONTINUOUS
 62
     3
 10
-1061.9764
 20
272.3923299999999
 30
0.0
 11
-1027.9364
 21
272.3923299999999
 31
0.0
  0
LINE
  5
717
  8
0
  6
CONTINUOUS
 62
     3
 10
-1061.7564999999991
 20
279.27233999999987
 30
0.0
 11
-1022.4363
 21
279.27233999999987
 31
0.0
  0
LINE
  5
718
  8
0
  6
CONTINUOUS
 62
     3
 10
-1071.106399999999
 20
259.58231000000001
 30
0.0
 11
-1027.9364
 21
259.58231000000001
 31
0.0
  0
LINE
  5
719
  8
0
  6
CONTINUOUS
 62
     3
 10
-1071.1664000000001
 20
249.64232000000001
 30
0.0
 11
-1029.9364
 21
249.64232000000001
 31
0.0
  0
LINE
  5
71A
  8
0
  6
CONTINUOUS
 62
     3
 10
-1054.436399999998
 20
283.14229999999998
 30
0.0
 11
-1054.436399999998
 21
283.07229999999993
 31
0.0
  0
LINE
  5
71B
  8
0
  6
CONTINUOUS
 62
     3
 10
-931.61645999999996
 20
279.27233999999987
 30
0.0
 11
-948.13640999999996
 21
279.27233999999987
 31
0.0
  0
LINE
  5
71C
  8
0
  6
CONTINUOUS
 62
     7
 10
-782.50629000000004
 20
135.02267000000001
 30
0.0
 11
-756.43640000000005
 21
134.1123
 31
0.0
  0
LINE
  5
71D
  8
0
  6
CONTINUOUS
 62
     3
 10
-949.13640999999996
 20
278.27231
 30
0.0
 11
-949.13640999999996
 21
277.17230000000001
 31
0.0
  0
LINE
  5
71E
  8
0
  6
CONTINUOUS
 62
     3
 10
-948.16631999999993
 20
276.17232999999987
 30
0.0
 11
-938.66638
 21
275.90230999999972
 31
0.0
  0
LINE
  5
71F
  8
0
  6
CONTINUOUS
 62
     3
 10
-1071.1664000000001
 20
242.17230000000001
 30
0.0
 11
-1029.9364
 21
242.17230000000001
 31
0.0
  0
LINE
  5
720
  8
0
  6
CONTINUOUS
 62
     3
 10
-1029.9364
 20
239.90232999999989
 30
0.0
 11
-1069.8864000000001
 21
239.90232999999989
 31
0.0
  0
LINE
  5
721
  8
0
  6
CONTINUOUS
 62
     3
 10
-1029.9364
 20
241.9023
 30
0.0
 11
-1069.8864000000001
 21
241.9023
 31
0.0
  0
LINE
  5
722
  8
0
  6
CONTINUOUS
 62
     7
 10
-1022.4363
 20
279.40230999999989
 30
0.0
 11
-1007.4362999999991
 21
279.40230999999989
 31
0.0
  0
LINE
  5
723
  8
0
  6
CONTINUOUS
 62
     7
 10
-1007.4362999999991
 20
279.40230999999989
 30
0.0
 11
-1007.4362999999991
 21
275.90230999999972
 31
0.0
  0
LINE
  5
724
  8
0
  6
CONTINUOUS
 62
     3
 10
-1071.106399999999
 20
232.22232
 30
0.0
 11
-1027.9364
 21
232.22232
 31
0.0
  0
LINE
  5
725
  8
0
  6
CONTINUOUS
 62
     3
 10
-1081.9364
 20
261.05230999999992
 30
0.0
 11
-1077.6564000000001
 21
261.05230999999992
 31
0.0
  0
LINE
  5
726
  8
0
  6
CONTINUOUS
 62
     3
 10
-931.61645999999996
 20
212.53229999999991
 30
0.0
 11
-948.13640999999996
 21
212.53229999999991
 31
0.0
  0
LINE
  5
727
  8
0
  6
CONTINUOUS
 62
     3
 10
-949.13640999999996
 20
213.53232
 30
0.0
 11
-949.13640999999996
 21
214.63231999999991
 31
0.0
  0
LINE
  5
728
  8
0
  6
CONTINUOUS
 62
     3
 10
-1027.9364
 20
229.9023
 30
0.0
 11
-1069.8864000000001
 21
229.9023
 31
0.0
  0
LINE
  5
729
  8
0
  6
CONTINUOUS
 62
     3
 10
-1071.106399999999
 20
229.56228999999999
 30
0.0
 11
-1027.9364
 21
229.56228999999999
 31
0.0
  0
LINE
  5
72A
  8
0
  6
CONTINUOUS
 62
     3
 10
-1027.9364
 20
221.90229999999991
 30
0.0
 11
-1069.8864000000001
 21
221.90229999999991
 31
0.0
  0
LINE
  5
72B
  8
0
  6
CONTINUOUS
 62
     3
 10
-1070.9763999999991
 20
222.34232999999981
 30
0.0
 11
-1027.9364
 21
222.34232999999981
 31
0.0
  0
LINE
  5
72C
  8
0
  6
CONTINUOUS
 62
     3
 10
-1027.9364
 20
219.90232999999989
 30
0.0
 11
-1069.8864000000001
 21
219.90232999999989
 31
0.0
  0
LINE
  5
72D
  8
0
  6
CONTINUOUS
 62
     3
 10
-935.09644000000003
 20
211.9022999999998
 30
0.0
 11
-979.43639999999994
 21
211.9022999999998
 31
0.0
  0
LINE
  5
72E
  8
0
  6
CONTINUOUS
 62
     3
 10
-1071.1664000000001
 20
239.63231999999991
 30
0.0
 11
-1029.9364
 21
239.63231999999991
 31
0.0
  0
LINE
  5
72F
  8
0
  6
CONTINUOUS
 62
     3
 10
-1081.9364
 20
230.75232
 30
0.0
 11
-1077.356399999999
 21
230.75232
 31
0.0
  0
LINE
  5
730
  8
0
  6
CONTINUOUS
 62
     7
 10
-1004.0664
 20
268.40231
 30
0.0
 11
-999.85637999999994
 21
268.40231
 31
0.0
  0
LINE
  5
731
  8
0
  6
CONTINUOUS
 62
     7
 10
-1027.9364
 20
253.40231
 30
0.0
 11
-1027.9364
 21
277.40233999999992
 31
0.0
  0
LINE
  5
732
  8
0
  6
CONTINUOUS
 62
     7
 10
-1002.4363
 20
222.90232999999981
 30
0.0
 11
-1002.4363
 21
262.92230000000001
 31
0.0
  0
LINE
  5
733
  8
0
  6
CONTINUOUS
 62
     7
 10
-648.6385499999999
 20
441.29168999999979
 30
0.0
 11
-649.7094699999999
 21
452.83929000000001
 31
0.0
  0
LINE
  5
734
  8
0
  6
CONTINUOUS
 62
     7
 10
-644.78632000000005
 20
413.95397999999989
 30
0.0
 11
-633.43646000000001
 21
422.27776999999992
 31
0.0
  0
LINE
  5
735
  8
0
  6
CONTINUOUS
 62
     7
 10
-674.08690999999999
 20
424.47635000000002
 30
0.0
 11
-635.84766000000002
 21
447.61880000000002
 31
0.0
  0
LINE
  5
736
  8
0
  6
CONTINUOUS
 62
     7
 10
-671.49805000000003
 20
412.98586999999981
 30
0.0
 11
-647.74322999999981
 21
412.98586999999981
 31
0.0
  0
LINE
  5
737
  8
0
  6
CONTINUOUS
 62
     7
 10
-671.50732000000005
 20
414.76272999999992
 30
0.0
 11
-635.93822999999998
 21
436.28914999999989
 31
0.0
  0
LINE
  5
738
  8
0
  6
CONTINUOUS
 62
     7
 10
-676.49805000000003
 20
420.19872999999978
 30
0.0
 11
-676.49805000000003
 21
417.98586999999992
 31
0.0
  0
LINE
  5
739
  8
0
  6
CONTINUOUS
 62
     7
 10
-634.10979999999995
 20
284.62423999999982
 30
0.0
 11
-646.01360999999963
 21
412.98586999999981
 31
0.0
  0
LINE
  5
73A
  8
0
  6
CONTINUOUS
 62
     7
 10
-633.43646000000001
 20
234.83843999999999
 30
0.0
 11
-633.43646000000001
 21
167.11231999999981
 31
0.0
  0
LINE
  5
73B
  8
0
  6
CONTINUOUS
 62
     7
 10
-624.43640000000005
 20
451.46145999999987
 30
0.0
 11
-624.43640000000005
 21
202.76320000000001
 31
0.0
  0
LINE
  5
73C
  8
0
  6
CONTINUOUS
 62
     7
 10
-784.43640000000005
 20
233.78314
 30
0.0
 11
-633.43646000000001
 21
233.78314
 31
0.0
  0
LINE
  5
73D
  8
0
  6
CONTINUOUS
 62
     7
 10
-280.33676000000008
 20
492.1123
 30
0.0
 11
-366.87554999999992
 21
487.57702999999998
 31
0.0
  0
LINE
  5
73E
  8
0
  6
CONTINUOUS
 62
     7
 10
-390.33676000000003
 20
272.11229999999989
 30
0.0
 11
-385.80144999999987
 21
185.5735199999998
 31
0.0
  0
LINE
  5
73F
  8
0
  6
CONTINUOUS
 62
     7
 10
-60.336761000000003
 20
272.11234000000002
 30
0.0
 11
-64.872069999999994
 21
185.57348999999991
 31
0.0
  0
LINE
  5
740
  8
0
  6
CONTINUOUS
 62
     7
 10
-60.336753999999992
 20
382.1123
 30
0.0
 11
-64.872062999999997
 21
468.65111999999988
 31
0.0
  0
LINE
  5
741
  8
0
  6
CONTINUOUS
 62
     7
 10
-170.3367499999998
 20
162.1123399999999
 30
0.0
 11
-83.797927999999999
 21
166.64764
 31
0.0
  0
LINE
  5
742
  8
0
  6
CONTINUOUS
 62
     7
 10
-170.33678
 20
492.11233999999979
 30
0.0
 11
-83.797943000000004
 21
487.57702999999998
 31
0.0
  0
LINE
  5
743
  8
0
  6
CONTINUOUS
 62
     7
 10
-390.33679000000001
 20
382.11234000000002
 30
0.0
 11
-385.80147999999991
 21
468.65111999999988
 31
0.0
  0
LINE
  5
744
  8
0
  6
CENTER
 62
     7
 10
-348.70675999999992
 20
203.74232000000001
 30
0.0
 11
-376.16037
 21
176.28871000000001
 31
0.0
  0
LINE
  5
745
  8
0
  6
CONTINUOUS
 62
     7
 10
-285.6106299999999
 20
378.90091000000001
 30
0.0
 11
-319.04446000000002
 21
412.33474999999987
 31
0.0
  0
LINE
  5
746
  8
0
  6
CONTINUOUS
 62
     7
 10
-277.12533999999982
 20
387.38619999999992
 30
0.0
 11
-310.55916999999999
 21
420.82003999999989
 31
0.0
  0
LINE
  5
747
  8
0
  6
CENTER
 62
     7
 10
-102.75825999999979
 20
449.69083000000001
 30
0.0
 11
-74.580687999999981
 21
477.86840999999993
 31
0.0
  0
LINE
  5
748
  8
0
  6
CONTINUOUS
 62
     7
 10
-165.06287999999981
 20
378.90093999999988
 30
0.0
 11
-131.62903999999969
 21
412.33477999999991
 31
0.0
  0
LINE
  5
749
  8
0
  6
CONTINUOUS
 62
     7
 10
-150.33675999999991
 20
327.11234000000002
 30
0.0
 11
-150.33675999999991
 21
317.11234000000002
 31
0.0
  0
LINE
  5
74A
  8
0
  6
CENTER
 62
     7
 10
-100.13064
 20
201.90620000000001
 30
0.0
 11
-74.779297
 21
176.55485999999991
 31
0.0
  0
LINE
  5
74B
  8
0
  6
CONTINUOUS
 62
     7
 10
-300.33672999999982
 20
327.11234000000002
 30
0.0
 11
-300.33672999999982
 21
317.11234000000002
 31
0.0
  0
LINE
  5
74C
  8
0
  6
CONTINUOUS
 62
     7
 10
-173.5481399999999
 20
387.38619999999992
 30
0.0
 11
-140.1142999999999
 21
420.82003999999989
 31
0.0
  0
LINE
  5
74D
  8
0
  6
CONTINUOUS
 62
     7
 10
-669.33136000000002
 20
133.30550999999991
 30
0.0
 11
-619.43646000000001
 21
162.11234999999991
 31
0.0
  0
LINE
  5
74E
  8
0
  6
CONTINUOUS
 62
     7
 10
-606.43646000000001
 20
467.11233999999979
 30
0.0
 11
-606.43646000000001
 21
187.1123399999999
 31
0.0
  0
LINE
  5
74F
  8
0
  6
CONTINUOUS
 62
     7
 10
-611.43646000000001
 20
467.11233999999979
 30
0.0
 11
-606.43646000000001
 21
467.11233999999979
 31
0.0
  0
LINE
  5
750
  8
0
  6
CONTINUOUS
 62
     7
 10
-611.43646000000001
 20
187.1123399999999
 30
0.0
 11
-606.43646000000001
 21
187.1123399999999
 31
0.0
  0
LINE
  5
751
  8
0
  6
CONTINUOUS
 62
     7
 10
-611.43646000000001
 20
492.11233999999979
 30
0.0
 11
-611.43646000000001
 21
162.1123199999999
 31
0.0
  0
LINE
  5
752
  8
0
  6
CONTINUOUS
 62
     1
 10
-60.33676899999999
 20
272.11234000000002
 30
0.0
 11
-60.33676899999999
 21
382.11234000000002
 31
0.0
  0
LINE
  5
753
  8
0
  6
CONTINUOUS
 62
     7
 10
-633.43646000000001
 20
486.51558999999992
 30
0.0
 11
-633.43646000000001
 21
292.84897000000001
 31
0.0
  0
LINE
  5
754
  8
0
  6
CONTINUOUS
 62
     7
 10
-280.33676000000008
 20
162.1123199999999
 30
0.0
 11
-366.87557999999979
 21
166.64762999999999
 31
0.0
  0
LINE
  5
755
  8
0
  6
CONTINUOUS
 62
     1
 10
-390.33672999999987
 20
272.11234000000002
 30
0.0
 11
-390.33672999999987
 21
382.11234000000002
 31
0.0
  0
LINE
  5
756
  8
0
  6
CONTINUOUS
 62
     1
 10
-280.33672999999999
 20
492.11233999999979
 30
0.0
 11
-170.33675999999991
 21
492.11233999999979
 31
0.0
  0
LINE
  5
757
  8
0
  6
CONTINUOUS
 62
     1
 10
-280.33672999999999
 20
162.1123199999999
 30
0.0
 11
-170.33675999999991
 21
162.1123199999999
 31
0.0
  0
LINE
  5
758
  8
0
  6
CONTINUOUS
 62
     7
 10
-711.43646000000001
 20
182.71338
 30
0.0
 11
-633.43646000000001
 21
182.71338
 31
0.0
  0
LINE
  5
759
  8
0
  6
CONTINUOUS
 62
     7
 10
-711.43646000000001
 20
207.35822999999991
 30
0.0
 11
-633.43646000000001
 21
207.35822999999991
 31
0.0
  0
LINE
  5
75A
  8
0
  6
CONTINUOUS
 62
     7
 10
-756.43646000000001
 20
449.11229999999989
 30
0.0
 11
-654.65497000000005
 21
451.77755999999988
 31
0.0
  0
LINE
  5
75B
  8
0
  6
CONTINUOUS
 62
     1
 10
-98.731064000000003
 20
312.11234000000002
 30
0.0
 11
-145.33675999999991
 21
312.11234000000002
 31
0.0
  0
LINE
  5
75C
  8
0
  6
CONTINUOUS
 62
     7
 10
-628.4364599999999
 20
162.1123199999999
 30
0.0
 11
-611.43646000000001
 21
162.1123199999999
 31
0.0
  0
LINE
  5
75D
  8
0
  6
CONTINUOUS
 62
     7
 10
-628.61095999999975
 20
491.51262999999989
 30
0.0
 11
-611.43640000000005
 21
492.11239999999981
 31
0.0
  0
LINE
  5
75E
  8
0
  6
CONTINUOUS
 62
     7
 10
-756.43646000000001
 20
449.11229999999989
 30
0.0
 11
-756.43646000000001
 21
134.1123199999999
 31
0.0
  0
LINE
  5
75F
  8
0
  6
CONTINUOUS
 62
     7
 10
-647.84569999999985
 20
454.70305999999988
 30
0.0
 11
-633.43640000000005
 21
469.1123
 31
0.0
  0
LINE
  5
760
  8
0
  6
CONTINUOUS
 62
     1
 10
-351.94241
 20
312.11234000000002
 30
0.0
 11
-305.33672999999999
 21
312.11234000000002
 31
0.0
  0
LINE
  5
761
  8
0
  6
CENTER
 62
     1
 10
-277.50110000000001
 20
282.11234000000002
 30
0.0
 11
-181.3352099999999
 21
282.11234000000002
 31
0.0
  0
LINE
  5
762
  8
0
  6
CONTINUOUS
 62
     7
 10
-756.43646000000001
 20
134.1123199999999
 30
0.0
 11
-674.59313999999995
 21
131.96917999999991
 31
0.0
  0
LINE
  5
763
  8
0
  6
CONTINUOUS
 62
     7
 10
-156.13651999999999
 20
133.6108199999999
 30
0.0
 11
-133.36164999999991
 21
149.55795000000001
 31
0.0
  0
LINE
  5
764
  8
0
  6
CONTINUOUS
 62
     7
 10
-287.18377999999967
 20
131.29232999999999
 30
0.0
 11
-163.4897499999999
 21
131.29232999999999
 31
0.0
  0
LINE
  5
765
  8
0
  6
CENTER
 62
     7
 10
-349.28164999999979
 20
451.05721999999992
 30
0.0
 11
-377.45328000000001
 21
479.22885000000002
 31
0.0
  0
LINE
  5
766
  8
0
  6
CONTINUOUS
 62
     7
 10
-294.53701999999993
 20
133.6108099999999
 30
0.0
 11
-317.31191999999987
 21
149.55795000000001
 31
0.0
  0
LINE
  5
767
  8
0
  6
CONTINUOUS
 62
     7
 10
-716.43645999999967
 20
202.35822999999999
 30
0.0
 11
-716.43645999999967
 21
187.71338
 31
0.0
  0
LINE
  5
768
  8
0
  6
CONTINUOUS
 62
     7
 10
-784.43640000000005
 20
335.57870000000008
 30
0.0
 11
-638.83514000000002
 21
335.57870000000008
 31
0.0
  0
LINE
  5
769
  8
0
  6
CONTINUOUS
 62
     7
 10
-830.43640000000005
 20
243.2922199999999
 30
0.0
 11
-804.93646000000001
 21
243.2922199999999
 31
0.0
  0
LINE
  5
76A
  8
0
  6
CONTINUOUS
 62
     7
 10
-830.43640000000005
 20
219.1123
 30
0.0
 11
-804.93646000000001
 21
219.1123
 31
0.0
  0
LINE
  5
76B
  8
0
  6
CONTINUOUS
 62
     7
 10
-611.43646000000001
 20
632.15783999999985
 30
0.0
 11
-606.43646000000001
 21
632.15783999999985
 31
0.0
  0
LINE
  5
76C
  8
0
  6
CONTINUOUS
 62
     7
 10
-606.43646000000001
 20
742.15783999999985
 30
0.0
 11
-603.43651999999975
 21
742.15783999999985
 31
0.0
  0
LINE
  5
76D
  8
0
  6
CONTINUOUS
 62
     7
 10
-628.61090000000002
 20
607.7575099999998
 30
0.0
 11
-611.43640000000005
 21
607.15778
 31
0.0
  0
LINE
  5
76E
  8
0
  6
CONTINUOUS
 62
     7
 10
-583.43645999999978
 20
780.15783999999985
 30
0.0
 11
-521.43651999999986
 21
780.15783999999985
 31
0.0
  0
LINE
  5
76F
  8
0
  6
CONTINUOUS
 62
     7
 10
-756.43646000000001
 20
639.15784000000008
 30
0.0
 11
-640.27972
 21
635.10149999999999
 31
0.0
  0
LINE
  5
770
  8
0
  6
CONTINUOUS
 62
     7
 10
-636.91863999999998
 20
633.64007999999978
 30
0.0
 11
-633.43640000000005
 21
630.15790000000004
 31
0.0
  0
LINE
  5
771
  8
0
  6
CONTINUOUS
 62
     7
 10
-583.43645999999978
 20
764.15778
 30
0.0
 11
-521.43651999999986
 21
764.15778
 31
0.0
  0
LINE
  5
772
  8
0
  6
CONTINUOUS
 62
     7
 10
-603.43651999999975
 20
802.15783999999985
 30
0.0
 11
-603.43651999999975
 21
742.15783999999985
 31
0.0
  0
LINE
  5
773
  8
0
  6
CONTINUOUS
 62
     7
 10
-606.43646000000001
 20
802.15783999999985
 30
0.0
 11
-603.43651999999975
 21
802.15783999999985
 31
0.0
  0
LINE
  5
774
  8
0
  6
CONTINUOUS
 62
     7
 10
-583.43651999999975
 20
780.15783999999985
 30
0.0
 11
-583.43651999999975
 21
764.15778
 31
0.0
  0
LINE
  5
775
  8
0
  6
CONTINUOUS
 62
     7
 10
-521.43651999999986
 20
799.65783999999985
 30
0.0
 11
-521.43651999999986
 21
744.65783999999985
 31
0.0
  0
LINE
  5
776
  8
0
  6
CONTINUOUS
 62
     7
 10
-603.43651999999975
 20
744.65783999999985
 30
0.0
 11
-521.43651999999986
 21
744.65783999999985
 31
0.0
  0
LINE
  5
777
  8
0
  6
CONTINUOUS
 62
     7
 10
-603.43651999999975
 20
799.65783999999985
 30
0.0
 11
-521.43651999999986
 21
799.65783999999985
 31
0.0
  0
LINE
  5
778
  8
0
  6
CONTINUOUS
 62
     7
 10
-644.78632000000005
 20
685.31615999999985
 30
0.0
 11
-633.43646000000001
 21
676.99243000000001
 31
0.0
  0
LINE
  5
779
  8
0
  6
CONTINUOUS
 62
     7
 10
-674.08690999999999
 20
674.79375999999979
 30
0.0
 11
-635.84766000000002
 21
651.65130999999997
 31
0.0
  0
LINE
  5
77A
  8
0
  6
CONTINUOUS
 62
     7
 10
-671.49805000000003
 20
686.28430000000003
 30
0.0
 11
-647.74322999999981
 21
686.28430000000003
 31
0.0
  0
LINE
  5
77B
  8
0
  6
CONTINUOUS
 62
     7
 10
-671.50732000000005
 20
684.50738999999999
 30
0.0
 11
-635.93822999999998
 21
662.98095999999975
 31
0.0
  0
LINE
  5
77C
  8
0
  6
CONTINUOUS
 62
     7
 10
-676.49805000000003
 20
679.07141000000001
 30
0.0
 11
-676.49805000000003
 21
681.28430000000003
 31
0.0
  0
LINE
  5
77D
  8
0
  6
CONTINUOUS
 62
     7
 10
-756.43646000000001
 20
905.15783999999996
 30
0.0
 11
-640.27972
 21
909.21411000000001
 31
0.0
  0
LINE
  5
77E
  8
0
  6
CONTINUOUS
 62
     7
 10
-636.91863999999998
 20
910.67553999999996
 30
0.0
 11
-633.43640000000005
 21
914.15778000000023
 31
0.0
  0
LINE
  5
77F
  8
0
  6
CONTINUOUS
 62
     7
 10
-628.61090000000002
 20
936.55810999999994
 30
0.0
 11
-611.43640000000005
 21
937.15783999999996
 31
0.0
  0
LINE
  5
780
  8
0
  6
CONTINUOUS
 62
     7
 10
-633.43646000000001
 20
931.56110000000001
 30
0.0
 11
-633.43646000000001
 21
612.75458000000003
 31
0.0
  0
LINE
  5
781
  8
0
  6
CONTINUOUS
 62
     7
 10
-611.43646000000001
 20
937.15783999999996
 30
0.0
 11
-611.43646000000001
 21
607.15778
 31
0.0
  0
LINE
  5
782
  8
0
  6
CONTINUOUS
 62
     7
 10
-611.43646000000001
 20
912.15783999999996
 30
0.0
 11
-606.43646000000001
 21
912.15783999999996
 31
0.0
  0
LINE
  5
783
  8
0
  6
CONTINUOUS
 62
     7
 10
-606.43646000000001
 20
912.15783999999996
 30
0.0
 11
-606.43646000000001
 21
632.15783999999985
 31
0.0
  0
LINE
  5
784
  8
0
  6
CONTINUOUS
 62
     7
 10
-624.43640000000005
 20
896.50695999999971
 30
0.0
 11
-624.43640000000005
 21
647.80871999999999
 31
0.0
  0
LINE
  5
785
  8
0
  6
CONTINUOUS
 62
     7
 10
-676.49805000000003
 20
865.24419999999998
 30
0.0
 11
-676.49805000000003
 21
863.03137000000004
 31
0.0
  0
LINE
  5
786
  8
0
  6
CONTINUOUS
 62
     7
 10
-671.50732000000005
 20
859.80823000000009
 30
0.0
 11
-635.93822999999998
 21
881.33471999999995
 31
0.0
  0
LINE
  5
787
  8
0
  6
CONTINUOUS
 62
     7
 10
-671.49805000000003
 20
858.0313699999997
 30
0.0
 11
-647.74322999999981
 21
858.0313699999997
 31
0.0
  0
LINE
  5
788
  8
0
  6
CONTINUOUS
 62
     7
 10
-674.08690999999999
 20
869.52190999999993
 30
0.0
 11
-635.84766000000002
 21
892.66430999999989
 31
0.0
  0
LINE
  5
789
  8
0
  6
CONTINUOUS
 62
     7
 10
-644.78632000000005
 20
858.99945000000014
 30
0.0
 11
-633.43646000000001
 21
867.32324000000006
 31
0.0
  0
ARC
  5
78A
  8
0
  6
CONTINUOUS
 62
     7
 10
-809.93651999999986
 20
851.02752999999984
 30
0.0
 40
5.0
 50
272.0
 51
0.0
  0
ARC
  5
78B
  8
0
  6
CONTINUOUS
 62
     7
 10
-809.93651999999986
 20
693.28809000000001
 30
0.0
 40
5.0
 50
0.0
 51
88.0
  0
ARC
  5
78C
  8
0
  6
CONTINUOUS
 62
     7
 10
-779.43646000000001
 20
644.96405000000004
 30
0.0
 40
5.0
 50
180.00001
 51
268.0
  0
ARC
  5
78D
  8
0
  6
CONTINUOUS
 62
     7
 10
-779.43646000000001
 20
899.35155999999984
 30
0.0
 40
5.0
 50
91.999998000000005
 51
180.00001
  0
ARC
  5
78E
  8
0
  6
CONTINUOUS
 62
     7
 10
-799.93651999999975
 20
665.70214999999985
 30
0.0
 40
5.0
 50
180.00001
 51
268.0
  0
ARC
  5
78F
  8
0
  6
CONTINUOUS
 62
     7
 10
-799.93651999999975
 20
878.61352999999974
 30
0.0
 40
5.0
 50
91.999998000000005
 51
180.00001
  0
ARC
  5
790
  8
0
  6
CONTINUOUS
 62
     7
 10
-789.43646000000001
 20
655.32934999999975
 30
0.0
 40
5.0
 50
0.0
 51
88.0
  0
ARC
  5
791
  8
0
  6
CONTINUOUS
 62
     7
 10
-789.43646000000001
 20
888.98626999999965
 30
0.0
 40
5.0
 50
272.0
 51
0.0
  0
ARC
  5
792
  8
0
  6
CONTINUOUS
 62
     7
 10
-774.4364599999999
 20
772.15783999999985
 30
0.0
 40
15.0
 50
138.59037000000001
 51
160.52877000000001
  0
ARC
  5
793
  8
0
  6
CONTINUOUS
 62
     7
 10
-789.43646000000001
 20
758.92908
 30
0.0
 40
5.0
 50
0.0
 51
41.409624000000001
  0
ARC
  5
794
  8
0
  6
CONTINUOUS
 62
     7
 10
-789.43646000000001
 20
785.38660000000004
 30
0.0
 40
5.0
 50
318.59037000000001
 51
0.0
  0
ARC
  5
795
  8
0
  6
CONTINUOUS
 62
     7
 10
-774.4364599999999
 20
772.15783999999985
 30
0.0
 40
12.5
 50
23.57818
 51
156.42182
  0
ARC
  5
796
  8
0
  6
CONTINUOUS
 62
     7
 10
-794.43646000000001
 20
772.15783999999985
 30
0.0
 40
5.0
 50
90.000003000000007
 51
270.0
  0
ARC
  5
797
  8
0
  6
CONTINUOUS
 62
     7
 10
-754.43646000000001
 20
772.15783999999985
 30
0.0
 40
5.0
 50
270.0
 51
90.000003000000007
  0
ARC
  5
798
  8
0
  6
CONTINUOUS
 62
     7
 10
-774.4364599999999
 20
772.15783999999985
 30
0.0
 40
12.5
 50
203.57818
 51
336.42183
  0
ARC
  5
799
  8
0
  6
CONTINUOUS
 62
     7
 10
-774.4364599999999
 20
772.15783999999985
 30
0.0
 40
15.0
 50
199.47122999999991
 51
221.40962999999999
  0
ARC
  5
79A
  8
0
  6
CONTINUOUS
 62
     7
 10
-902.43640000000005
 20
784.26074000000006
 30
0.0
 40
3.0
 50
91.999998000000005
 51
180.00001
  0
ARC
  5
79B
  8
0
  6
CONTINUOUS
 62
     7
 10
-833.43640000000005
 20
702.11785999999995
 30
0.0
 40
3.0
 50
0.0
 51
88.0
  0
ARC
  5
79C
  8
0
  6
CONTINUOUS
 62
     7
 10
-833.43640000000005
 20
792.67394999999999
 30
0.0
 40
3.0
 50
272.0
 51
0.0
  0
ARC
  5
79D
  8
0
  6
CONTINUOUS
 62
     7
 10
-833.43640000000005
 20
751.64171999999985
 30
0.0
 40
3.0
 50
0.0
 51
88.0
  0
ARC
  5
79E
  8
0
  6
CONTINUOUS
 62
     7
 10
-833.43640000000005
 20
842.19775000000004
 30
0.0
 40
3.0
 50
272.0
 51
0.0
  0
ARC
  5
79F
  8
0
  6
CONTINUOUS
 62
     7
 10
-902.43640000000005
 20
760.05487000000005
 30
0.0
 40
3.0
 50
180.00001
 51
268.0
  0
ARC
  5
7A0
  8
0
  6
CONTINUOUS
 62
     7
 10
-827.43640000000005
 20
842.41156000000001
 30
0.0
 40
3.0
 50
91.999998000000005
 51
180.00001
  0
ARC
  5
7A1
  8
0
  6
CONTINUOUS
 62
     7
 10
-827.43640000000005
 20
701.90404999999998
 30
0.0
 40
3.0
 50
180.00001
 51
268.0
  0
ARC
  5
7A2
  8
0
  6
CONTINUOUS
 62
     3
 10
-1015.709299999999
 20
688.15784000000019
 30
0.0
 40
4.0
 50
179.99997999999991
 51
0.000010017912
  0
ARC
  5
7A3
  8
0
  6
CONTINUOUS
 62
     3
 10
-1015.709299999999
 20
688.15784000000019
 30
0.0
 40
7.5
 50
179.99997999999991
 51
0.000010017913
  0
ARC
  5
7A4
  8
0
  6
CONTINUOUS
 62
     7
 10
-1075.9359999999999
 20
721.90832999999998
 30
0.0
 40
0.49952301
 50
359.94522999999992
 51
90.054773999999981
  0
ARC
  5
7A5
  8
0
  6
CONTINUOUS
 62
     7
 10
-1075.939699999999
 20
724.06128000000001
 30
0.0
 40
0.5033929900000002
 50
270.38490999999982
 51
359.61509999999993
  0
ARC
  5
7A6
  8
0
  6
CONTINUOUS
 62
     7
 10
-1076.4403999999979
 20
726.66198999999983
 30
0.0
 40
1.004119999999999
 50
270.23460999999992
 51
359.76538999999991
  0
ARC
  5
7A7
  8
0
  6
CONTINUOUS
 62
     7
 10
-1076.438999999998
 20
731.18029999999999
 30
0.0
 40
1.002470999999999
 50
270.14107000000001
 51
359.85892999999987
  0
ARC
  5
7A8
  8
0
  6
CONTINUOUS
 62
     7
 10
-1079.4375
 20
726.28137000000004
 30
0.0
 40
0.9987969999999998
 50
179.62728000000001
 51
238.70795000000001
  0
ARC
  5
7A9
  8
0
  6
CONTINUOUS
 62
     7
 10
-1079.4386999999981
 20
727.31908999999985
 30
0.0
 40
0.9977070099999998
 50
180.0740199999999
 51
242.04481000000001
  0
ARC
  5
7AA
  8
0
  6
CONTINUOUS
 62
     7
 10
-1079.4373000000001
 20
730.88256999999965
 30
0.0
 40
0.9990889999999998
 50
179.69508999999991
 51
236.66209000000001
  0
ARC
  5
7AB
  8
0
  6
CONTINUOUS
 62
     7
 10
-1079.4380000000001
 20
731.91710999999998
 30
0.0
 40
0.9984580299999999
 50
179.9595799999999
 51
239.38657000000001
  0
ARC
  5
7AC
  8
0
  6
CONTINUOUS
 62
     7
 10
-1078.1731
 20
731.17882999999983
 30
0.0
 40
1.0010449999999991
 50
240.47187
 51
270.37970999999999
  0
ARC
  5
7AD
  8
0
  6
CONTINUOUS
 62
     7
 10
-1078.1436000000001
 20
730.03832999999986
 30
0.0
 40
1.000521999999999
 50
237.14617999999999
 51
270.41343999999998
  0
ARC
  5
7AE
  8
0
  6
CONTINUOUS
 62
     7
 10
-1078.1812
 20
726.65845000000002
 30
0.0
 40
1.0006820000000001
 50
241.65062
 51
269.7039299999999
  0
ARC
  5
7AF
  8
0
  6
CONTINUOUS
 62
     7
 10
-1078.165
 20
725.52148
 30
0.0
 40
1.0037439999999991
 50
239.37112999999999
 51
270.49189999999987
  0
ARC
  5
7B0
  8
0
  6
CONTINUOUS
 62
     7
 10
-1078.1907000000001
 20
724.55713000000003
 30
0.0
 40
0.9993420200000001
 50
242.86199999999999
 51
269.66546
  0
ARC
  5
7B1
  8
0
  6
CONTINUOUS
 62
     7
 10
-1078.1557999999991
 20
723.40894000000003
 30
0.0
 40
1.001123999999999
 50
239.32782000000009
 51
269.38767999999988
  0
ARC
  5
7B2
  8
0
  6
CONTINUOUS
 62
     7
 10
-1079.4407000000001
 20
725.18822999999998
 30
0.0
 40
0.9956849800000001
 50
180.02112999999991
 51
243.40913999999981
  0
ARC
  5
7B3
  8
0
  6
CONTINUOUS
 62
     7
 10
-1079.4386999999981
 20
724.14245999999957
 30
0.0
 40
0.9976310099999999
 50
180.26780999999991
 51
240.07924
  0
ARC
  5
7B4
  8
0
  6
CONTINUOUS
 62
     7
 10
-1079.4380000000001
 20
731.91710999999998
 30
0.0
 40
0.9984580299999999
 50
179.9595799999999
 51
239.38657000000001
  0
ARC
  5
7B5
  8
0
  6
CONTINUOUS
 62
     7
 10
-1076.439699999999
 20
731.18457000000001
 30
0.0
 40
1.0032760000000001
 50
334.19810000000001
 51
359.61810999999977
  0
ARC
  5
7B6
  8
0
  6
CONTINUOUS
 62
     7
 10
-1076.4363000000001
 20
755.15796
 30
0.0
 40
0.9998210099999999
 50
359.98971999999998
 51
90.010281999999961
  0
ARC
  5
7B7
  8
0
  6
CONTINUOUS
 62
     7
 10
-1076.441399999999
 20
759.16272000000004
 30
0.0
 40
1.004939
 50
270.28093999999999
 51
359.71906999999999
  0
ARC
  5
7B8
  8
0
  6
CONTINUOUS
 62
     7
 10
-1076.4363000000001
 20
765.15795999999989
 30
0.0
 40
0.9998279799999998
 50
359.99015999999978
 51
90.009838000000002
  0
ARC
  5
7B9
  8
0
  6
CONTINUOUS
 62
     7
 10
-1076.441399999999
 20
769.16272000000004
 30
0.0
 40
1.004942999999999
 50
270.28113999999988
 51
359.71886999999992
  0
ARC
  5
7BA
  8
0
  6
CONTINUOUS
 62
     7
 10
-1079.4413999999999
 20
767.16272000000004
 30
0.0
 40
0.9950770099999999
 50
89.715860000000006
 51
180.28413999999989
  0
ARC
  5
7BB
  8
0
  6
CONTINUOUS
 62
     7
 10
-1079.4363000000001
 20
767.15807999999981
 30
0.0
 40
1.0002040000000001
 50
180.01166000000001
 51
269.9883200000001
  0
ARC
  5
7BC
  8
0
  6
CONTINUOUS
 62
     7
 10
-1079.4413999999999
 20
757.16272000000004
 30
0.0
 40
0.9950810099999999
 50
89.716071999999997
 51
180.28391999999999
  0
ARC
  5
7BD
  8
0
  6
CONTINUOUS
 62
     7
 10
-1079.4363000000001
 20
757.15807999999981
 30
0.0
 40
1.0001999999999991
 50
180.01146
 51
269.98853999999972
  0
ARC
  5
7BE
  8
0
  6
CONTINUOUS
 62
     7
 10
-1079.4413999999999
 20
747.16272000000004
 30
0.0
 40
0.9950849999999999
 50
89.716282999999976
 51
180.2837199999999
  0
ARC
  5
7BF
  8
0
  6
CONTINUOUS
 62
     7
 10
-1079.4363000000001
 20
747.15807999999981
 30
0.0
 40
1.0001959999999981
 50
180.01124999999999
 51
269.98874999999992
  0
ARC
  5
7C0
  8
0
  6
CONTINUOUS
 62
     7
 10
-1079.4399000000001
 20
737.98632999999984
 30
0.0
 40
0.9965090199999998
 50
179.91374999999999
 51
247.17845
  0
ARC
  5
7C1
  8
0
  6
CONTINUOUS
 62
     7
 10
-1079.4399000000001
 20
739.77221999999983
 30
0.0
 40
0.99638802
 50
180.24991
 51
253.29664
  0
ARC
  5
7C2
  8
0
  6
CONTINUOUS
 62
     7
 10
-1078.2959000000001
 20
739.42052999999999
 30
0.0
 40
1.002699
 50
253.7527199999999
 51
270.54064
  0
ARC
  5
7C3
  8
0
  6
CONTINUOUS
 62
     7
 10
-1078.2334000000001
 20
737.47302000000002
 30
0.0
 40
1.005233
 50
246.98638999999989
 51
269.82924999999989
  0
ARC
  5
7C4
  8
0
  6
CONTINUOUS
 62
     7
 10
-1076.1357
 20
735.76842999999985
 30
0.0
 40
0.6994530000000001
 50
359.95517000000001
 51
90.044829000000021
  0
ARC
  5
7C5
  8
0
  6
CONTINUOUS
 62
     7
 10
-1076.4363000000001
 20
745.15796
 30
0.0
 40
0.9998239899999999
 50
359.98991999999993
 51
90.010076999999981
  0
ARC
  5
7C6
  8
0
  6
CONTINUOUS
 62
     7
 10
-1076.441399999999
 20
749.16272000000004
 30
0.0
 40
1.0049469
 50
270.28136999999992
 51
359.71863000000002
  0
ARC
  5
7C7
  8
0
  6
CONTINUOUS
 62
     7
 10
-1076.439699999999
 20
739.42114000000004
 30
0.0
 40
1.003352
 50
270.19110999999992
 51
359.80889999999982
  0
ARC
  5
7C8
  8
0
  6
CONTINUOUS
 62
     7
 10
-1075.9409000000001
 20
822.41247999999985
 30
0.0
 40
0.50463498
 50
270.52382999999992
 51
359.47617000000002
  0
ARC
  5
7C9
  8
0
  6
CONTINUOUS
 62
     7
 10
-1075.9348
 20
820.25951999999995
 30
0.0
 40
0.4983060100000002
 50
359.80489
 51
90.195107000000007
  0
ARC
  5
7CA
  8
0
  6
CONTINUOUS
 62
     7
 10
-1076.4353000000001
 20
817.65881000000002
 30
0.0
 40
0.9990100299999999
 50
359.94319000000002
 51
90.056808999999959
  0
ARC
  5
7CB
  8
0
  6
CONTINUOUS
 62
     7
 10
-1076.1409000000001
 20
808.55236999999988
 30
0.0
 40
0.704566
 50
270.37009999999992
 51
359.62990999999982
  0
ARC
  5
7CC
  8
0
  6
CONTINUOUS
 62
     7
 10
-1076.438699999999
 20
813.14550999999983
 30
0.0
 40
1.002353
 50
0.13432682
 51
89.865673000000001
  0
ARC
  5
7CD
  8
0
  6
CONTINUOUS
 62
     7
 10
-1076.4346
 20
804.89954
 30
0.0
 40
0.9982839799999999
 50
359.90141999999992
 51
90.098575999999994
  0
ARC
  5
7CE
  8
0
  6
CONTINUOUS
 62
     7
 10
-1076.441399999999
 20
799.16272000000004
 30
0.0
 40
1.004942999999999
 50
270.28111000000001
 51
359.71888999999987
  0
ARC
  5
7CF
  8
0
  6
CONTINUOUS
 62
     7
 10
-1076.4363000000001
 20
795.15796
 30
0.0
 40
0.9998289899999999
 50
359.99018999999993
 51
90.009810999999985
  0
ARC
  5
7D0
  8
0
  6
CONTINUOUS
 62
     7
 10
-1076.441399999999
 20
789.16272000000004
 30
0.0
 40
1.004939
 50
270.28091000000001
 51
359.71910000000008
  0
ARC
  5
7D1
  8
0
  6
CONTINUOUS
 62
     7
 10
-1076.4363000000001
 20
785.15795999999989
 30
0.0
 40
0.9998210099999999
 50
359.98975000000002
 51
90.010255000000001
  0
ARC
  5
7D2
  8
0
  6
CONTINUOUS
 62
     7
 10
-1076.441399999999
 20
779.16272000000004
 30
0.0
 40
1.0049469
 50
270.28134999999992
 51
359.71866
  0
ARC
  5
7D3
  8
0
  6
CONTINUOUS
 62
     7
 10
-1076.4363000000001
 20
775.15796
 30
0.0
 40
0.9998249999999999
 50
359.98995000000002
 51
90.010050000000007
  0
ARC
  5
7D4
  8
0
  6
CONTINUOUS
 62
     7
 10
-1079.4363000000001
 20
777.1580799999997
 30
0.0
 40
1.0001959999999981
 50
180.01122000000001
 51
269.98877999999991
  0
ARC
  5
7D5
  8
0
  6
CONTINUOUS
 62
     7
 10
-1079.4413999999999
 20
777.16272000000004
 30
0.0
 40
0.9950849999999999
 50
89.716311000000005
 51
180.28368999999981
  0
ARC
  5
7D6
  8
0
  6
CONTINUOUS
 62
     7
 10
-1079.4363000000001
 20
787.15807999999981
 30
0.0
 40
1.0001999999999991
 50
180.0114299999999
 51
269.98856999999992
  0
ARC
  5
7D7
  8
0
  6
CONTINUOUS
 62
     7
 10
-1079.4413999999999
 20
787.16272000000004
 30
0.0
 40
0.99508202
 50
89.716099
 51
180.28390999999991
  0
ARC
  5
7D8
  8
0
  6
CONTINUOUS
 62
     7
 10
-1079.4363000000001
 20
797.15807999999981
 30
0.0
 40
1.000203
 50
180.01165
 51
269.98835000000003
  0
ARC
  5
7D9
  8
0
  6
CONTINUOUS
 62
     7
 10
-1079.4413999999999
 20
797.16272000000004
 30
0.0
 40
0.99507803
 50
89.715886999999981
 51
180.28411
  0
ARC
  5
7DA
  8
0
  6
CONTINUOUS
 62
     7
 10
-1079.4399000000001
 20
806.33935999999972
 30
0.0
 40
0.9963999999999998
 50
112.81735999999979
 51
180.09041999999991
  0
ARC
  5
7DB
  8
0
  6
CONTINUOUS
 62
     7
 10
-1079.4402
 20
804.55358999999999
 30
0.0
 40
0.9962710099999999
 50
106.69792
 51
180.3300499999998
  0
ARC
  5
7DC
  8
0
  6
CONTINUOUS
 62
     7
 10
-1078.2971
 20
804.90515000000005
 30
0.0
 40
0.9927430199999999
 50
89.374555000000001
 51
106.33207
  0
ARC
  5
7DD
  8
0
  6
CONTINUOUS
 62
     7
 10
-1078.2354
 20
806.85242000000005
 30
0.0
 40
0.9954450099999999
 50
90.056905000000043
 51
113.1274499999999
  0
ARC
  5
7DE
  8
0
  6
CONTINUOUS
 62
     7
 10
-1079.4419
 20
818.03687000000002
 30
0.0
 40
0.9944329899999999
 50
121.15213
 51
179.9405099999999
  0
ARC
  5
7DF
  8
0
  6
CONTINUOUS
 62
     7
 10
-1079.4430999999979
 20
816.99926999999957
 30
0.0
 40
0.9932109699999999
 50
117.7993199999999
 51
180.08187000000001
  0
ARC
  5
7E0
  8
0
  6
CONTINUOUS
 62
     7
 10
-1079.4417000000001
 20
813.43542000000002
 30
0.0
 40
0.9948369899999999
 50
123.20496
 51
180.4378599999998
  0
ARC
  5
7E1
  8
0
  6
CONTINUOUS
 62
     7
 10
-1079.4423999999999
 20
812.40099999999984
 30
0.0
 40
0.99404597
 50
120.4682
 51
180.18563999999989
  0
ARC
  5
7E2
  8
0
  6
CONTINUOUS
 62
     7
 10
-1078.1569999999999
 20
813.15137000000016
 30
0.0
 40
0.99648702
 50
90.540720999999976
 51
120.74377
  0
ARC
  5
7E3
  8
0
  6
CONTINUOUS
 62
     7
 10
-1078.129899999999
 20
814.29162999999971
 30
0.0
 40
0.99617702
 50
90.381317999999979
 51
123.9704899999999
  0
ARC
  5
7E4
  8
0
  6
CONTINUOUS
 62
     7
 10
-1078.201399999999
 20
817.66247999999985
 30
0.0
 40
0.99545902
 50
89.141291000000024
 51
117.20381999999999
  0
ARC
  5
7E5
  8
0
  6
CONTINUOUS
 62
     7
 10
-1078.1674999999991
 20
818.80358999999987
 30
0.0
 40
0.99427301
 50
89.356065999999984
 51
120.78091000000001
  0
ARC
  5
7E6
  8
0
  6
CONTINUOUS
 62
     7
 10
-1078.2117000000001
 20
819.76378999999974
 30
0.0
 40
0.99411702
 50
89.122643999999966
 51
115.93498
  0
ARC
  5
7E7
  8
0
  6
CONTINUOUS
 62
     7
 10
-1078.174299999999
 20
820.91198999999995
 30
0.0
 40
0.9959030199999999
 50
89.541267000000005
 51
119.60717
  0
ARC
  5
7E8
  8
0
  6
CONTINUOUS
 62
     7
 10
-1079.4409000000001
 20
819.13756999999998
 30
0.0
 40
0.995579
 50
116.5870899999999
 51
179.98264
  0
ARC
  5
7E9
  8
0
  6
CONTINUOUS
 62
     7
 10
-1079.4430999999979
 20
820.17578000000015
 30
0.0
 40
0.99319202
 50
119.77338
 51
179.87958999999981
  0
ARC
  5
7EA
  8
0
  6
CONTINUOUS
 62
     7
 10
-1062.295699999999
 20
730.94750999999985
 30
0.0
 40
1.0032491999999991
 50
314.98118999999991
 51
5.1676434000000002
  0
ARC
  5
7EB
  8
0
  6
CONTINUOUS
 62
     7
 10
-927.43657999999994
 20
834.65807999999981
 30
0.0
 40
0.99980682
 50
89.98893099999998
 51
180.0110699999999
  0
ARC
  5
7EC
  8
0
  6
CONTINUOUS
 62
     7
 10
-935.63513000000012
 20
712.30408
 30
0.0
 40
2.0062942999999991
 50
270.24932999999987
 51
345.08843999999999
  0
ARC
  5
7ED
  8
0
  6
CONTINUOUS
 62
     7
 10
-927.43731999999989
 20
823.19872999999984
 30
0.0
 40
0.9990923399999999
 50
89.947921999999977
 51
180.0520799999999
  0
ARC
  5
7EE
  8
0
  6
CONTINUOUS
 62
     7
 10
-1053.4436000000001
 20
777.15783999999985
 30
0.0
 40
1.0000259
 50
89.587533999999977
 51
270.41246000000001
  0
ARC
  5
7EF
  8
0
  6
CONTINUOUS
 62
     7
 10
-1061.4771000000001
 20
823.15259000000015
 30
0.0
 40
1.9952742999999991
 50
90.148580000000024
 51
170.0352199999999
  0
ARC
  5
7F0
  8
0
  6
CONTINUOUS
 62
     7
 10
-1061.5391
 20
828.43078999999989
 30
0.0
 40
1.997119399999999
 50
89.801366999999999
 51
167.94476
  0
ARC
  5
7F1
  8
0
  6
CONTINUOUS
 62
     7
 10
-1065.9194
 20
824.7002
 30
0.0
 40
1.502416299999999
 50
269.9013799999999
 51
347.60813000000002
  0
ARC
  5
7F2
  8
0
  6
CONTINUOUS
 62
     7
 10
-1069.3061999999991
 20
831.83556999999973
 30
0.0
 40
1.9922863
 50
90.007720999999947
 51
166.87839
  0
ARC
  5
7F3
  8
0
  6
CONTINUOUS
 62
     7
 10
-1073.6311000000001
 20
828.7627
 30
0.0
 40
1.5048382
 50
270.18263999999982
 51
346.7530799999999
  0
ARC
  5
7F4
  8
0
  6
CONTINUOUS
 62
     7
 10
-1073.6168999999991
 20
830.78319999999985
 30
0.0
 40
1.505448699999999
 50
270.39686999999992
 51
345.95247000000001
  0
ARC
  5
7F5
  8
0
  6
CONTINUOUS
 62
     7
 10
-1069.3315
 20
833.46325999999999
 30
0.0
 40
1.994612099999999
 50
89.851992000000024
 51
165.93885999999981
  0
ARC
  5
7F6
  8
0
  6
CONTINUOUS
 62
     7
 10
-1052.4431
 20
832.02454000000012
 30
0.0
 40
1.9933081999999991
 50
89.807322999999968
 51
180.19266999999991
  0
ARC
  5
7F7
  8
0
  6
CONTINUOUS
 62
     7
 10
-1052.4423999999999
 20
834.05370999999968
 30
0.0
 40
1.9941304999999969
 50
89.831106000000005
 51
180.16889
  0
ARC
  5
7F8
  8
0
  6
CONTINUOUS
 62
     7
 10
-1052.4399000000001
 20
835.41138000000001
 30
0.0
 40
1.996488899999999
 50
89.899147999999997
 51
180.10085000000001
  0
ARC
  5
7F9
  8
0
  6
CONTINUOUS
 62
     7
 10
-1052.4426000000001
 20
836.08130000000006
 30
0.0
 40
1.9964978999999969
 50
89.821482000000003
 51
165.6006099999999
  0
ARC
  5
7FA
  8
0
  6
CONTINUOUS
 62
     7
 10
-1055.9401999999991
 20
826.65161000000001
 30
0.0
 40
1.5037541000000001
 50
270.14287000000002
 51
359.85714000000002
  0
ARC
  5
7FB
  8
0
  6
CONTINUOUS
 62
     7
 10
-1055.9412
 20
831.93273999999985
 30
0.0
 40
1.5048912999999979
 50
270.18592999999998
 51
359.81407000000002
  0
ARC
  5
7FC
  8
0
  6
CONTINUOUS
 62
     7
 10
-1055.9434000000001
 20
835.33471999999983
 30
0.0
 40
1.506942899999999
 50
270.26337000000001
 51
359.73662999999999
  0
ARC
  5
7FD
  8
0
  6
CONTINUOUS
 62
     7
 10
-1055.8315
 20
836.96301000000005
 30
0.0
 40
1.505230099999999
 50
270.19421
 51
345.17177999999979
  0
ARC
  5
7FE
  8
0
  6
CONTINUOUS
 62
     7
 10
-928.78625000000011
 20
820.01013
 30
0.0
 40
1.5022733999999991
 50
195.1365099999999
 51
269.99412000000001
  0
ARC
  5
7FF
  8
0
  6
CONTINUOUS
 62
     7
 10
-935.62694999999985
 20
832.01868000000002
 30
0.0
 40
1.9991226
 50
15.050791
 51
89.984388999999979
  0
ARC
  5
800
  8
0
  6
CONTINUOUS
 62
     7
 10
-927.44335999999998
 20
709.65088000000003
 30
0.0
 40
0.99304521
 50
179.59730999999991
 51
270.40267999999992
  0
ARC
  5
801
  8
0
  6
CONTINUOUS
 62
     7
 10
-927.44403000000011
 20
721.11023
 30
0.0
 40
0.99237448
 50
179.55802
 51
270.44197000000003
  0
ARC
  5
802
  8
0
  6
CONTINUOUS
 62
     7
 10
-928.73071000000004
 20
824.69812000000002
 30
0.0
 40
1.500286
 50
192.32630999999989
 51
270.16417000000001
  0
ARC
  5
803
  8
0
  6
CONTINUOUS
 62
     7
 10
-1066.2808
 20
813.75207999999998
 30
0.0
 40
5.0059714
 50
279.71098000000001
 51
354.67887999999999
  0
ARC
  5
804
  8
0
  6
CONTINUOUS
 62
     7
 10
-1065.815399999999
 20
809.82532000000003
 30
0.0
 40
6.0044340999999992
 50
45.225577999999999
 51
86.380821999999966
  0
ARC
  5
805
  8
0
  6
CONTINUOUS
 62
     7
 10
-1062.2944
 20
813.37854000000004
 30
0.0
 40
1.002184699999999
 50
354.80385999999987
 51
45.047306999999968
  0
ARC
  5
806
  8
0
  6
CONTINUOUS
 62
     7
 10
-1065.8167000000001
 20
734.50316999999984
 30
0.0
 40
6.0073843
 50
273.62973999999991
 51
314.76384999999999
  0
ARC
  5
807
  8
0
  6
CONTINUOUS
 62
     7
 10
-1066.2734
 20
730.56934000000001
 30
0.0
 40
4.999142199999997
 50
5.3780269000000001
 51
80.360065000000006
  0
ARC
  5
808
  8
0
  6
CONTINUOUS
 62
     7
 10
-1069.2996000000001
 20
712.48839999999996
 30
0.0
 40
2.0005671999999981
 50
193.3095899999999
 51
269.80430999999999
  0
ARC
  5
809
  8
0
  6
CONTINUOUS
 62
     7
 10
-1073.6233
 20
715.56017999999995
 30
0.0
 40
1.497715799999999
 50
13.424379
 51
90.122644999999963
  0
ARC
  5
80A
  8
0
  6
CONTINUOUS
 62
     7
 10
-1073.6086
 20
713.53954999999985
 30
0.0
 40
1.4982997
 50
14.22974
 51
89.910949999999985
  0
ARC
  5
80B
  8
0
  6
CONTINUOUS
 62
     7
 10
-1052.4363000000001
 20
712.29785000000004
 30
0.0
 40
2.0000371999999991
 50
180.00105999999991
 51
269.99892999999992
  0
ARC
  5
80C
  8
0
  6
CONTINUOUS
 62
     7
 10
-1052.4355
 20
710.26880000000006
 30
0.0
 40
2.0009109999999981
 50
180.00001
 51
269.97390999999988
  0
ARC
  5
80D
  8
0
  6
CONTINUOUS
 62
     7
 10
-1055.9385
 20
717.67589999999996
 30
0.0
 40
1.501982699999999
 50
0.075587202
 51
89.924413000000015
  0
ARC
  5
80E
  8
0
  6
CONTINUOUS
 62
     7
 10
-1055.9395
 20
712.39464999999996
 30
0.0
 40
1.503128599999999
 50
0.11912965
 51
89.880870000000002
  0
ARC
  5
80F
  8
0
  6
CONTINUOUS
 62
     7
 10
-928.79271999999958
 20
724.31408999999985
 30
0.0
 40
1.4937901
 50
89.756423999999981
 51
165.1129199999998
  0
ARC
  5
810
  8
0
  6
CONTINUOUS
 62
     7
 10
-1053.4436000000001
 20
787.15783999999985
 30
0.0
 40
1.0000259
 50
89.587533999999977
 51
270.41246000000001
  0
ARC
  5
811
  8
0
  6
CONTINUOUS
 62
     7
 10
-1053.4436000000001
 20
797.15783999999985
 30
0.0
 40
1.0000259
 50
89.587533999999977
 51
270.41246000000001
  0
ARC
  5
812
  8
0
  6
CONTINUOUS
 62
     7
 10
-1053.4436000000001
 20
807.15783999999985
 30
0.0
 40
1.0000259
 50
89.587533999999977
 51
270.41246000000001
  0
ARC
  5
813
  8
0
  6
CONTINUOUS
 62
     7
 10
-1071.1746000000001
 20
777.16785000000004
 30
0.0
 40
1.2700266
 50
89.629328000000001
 51
270.37065999999987
  0
ARC
  5
814
  8
0
  6
CONTINUOUS
 62
     7
 10
-1071.1128000000001
 20
787.17285000000004
 30
0.0
 40
1.3350147999999991
 50
89.730435000000014
 51
270.26956999999999
  0
ARC
  5
815
  8
0
  6
CONTINUOUS
 62
     7
 10
-1061.9821999999981
 20
797.18786999999975
 30
0.0
 40
1.460011199999999
 50
89.775248000000005
 51
270.22474
  0
ARC
  5
816
  8
0
  6
CONTINUOUS
 62
     7
 10
-1061.7663999999991
 20
807.20789000000013
 30
0.0
 40
1.6800002000000001
 50
90.000003000000007
 51
270.0
  0
ARC
  5
817
  8
0
  6
CONTINUOUS
 62
     7
 10
-1069.8865000000001
 20
777.15783999999985
 30
0.0
 40
1.0000056999999991
 50
90.000003000000007
 51
270.0
  0
ARC
  5
818
  8
0
  6
CONTINUOUS
 62
     7
 10
-1069.8865000000001
 20
787.15783999999985
 30
0.0
 40
1.0000056999999991
 50
90.000003000000007
 51
270.0
  0
ARC
  5
819
  8
0
  6
CONTINUOUS
 62
     7
 10
-1060.8936000000001
 20
807.15783999999985
 30
0.0
 40
1.0000255999999981
 50
89.589473999999967
 51
270.41052000000002
  0
ARC
  5
81A
  8
0
  6
CONTINUOUS
 62
     7
 10
-1060.8936000000001
 20
797.15783999999985
 30
0.0
 40
1.0000255999999981
 50
89.589473999999967
 51
270.41052000000002
  0
ARC
  5
81B
  8
0
  6
CONTINUOUS
 62
     7
 10
-931.61639000000014
 20
807.20789000000013
 30
0.0
 40
1.6800077
 50
269.99998999999991
 51
90.000003000000007
  0
ARC
  5
81C
  8
0
  6
CONTINUOUS
 62
     7
 10
-935.09636999999987
 20
807.15783999999985
 30
0.0
 40
1.0000040999999991
 50
269.99998999999991
 51
90.000003000000007
  0
ARC
  5
81D
  8
0
  6
CONTINUOUS
 62
     7
 10
-935.09636999999987
 20
737.15783999999985
 30
0.0
 40
1.0000040999999991
 50
269.99998999999991
 51
90.000003000000007
  0
ARC
  5
81E
  8
0
  6
CONTINUOUS
 62
     7
 10
-931.61639000000014
 20
737.11779999999999
 30
0.0
 40
1.6800077
 50
269.99998999999991
 51
90.000003000000007
  0
ARC
  5
81F
  8
0
  6
CONTINUOUS
 62
     7
 10
-1069.8865000000001
 20
767.15783999999985
 30
0.0
 40
1.0000056999999991
 50
90.000003000000007
 51
270.0
  0
ARC
  5
820
  8
0
  6
CONTINUOUS
 62
     7
 10
-1053.4436000000001
 20
757.15783999999985
 30
0.0
 40
1.0000259
 50
89.587533999999977
 51
270.41246000000001
  0
ARC
  5
821
  8
0
  6
CONTINUOUS
 62
     7
 10
-1053.4436000000001
 20
747.15783999999985
 30
0.0
 40
1.0000259
 50
89.587533999999977
 51
270.41246000000001
  0
ARC
  5
822
  8
0
  6
CONTINUOUS
 62
     7
 10
-1071.1128000000001
 20
757.14782999999989
 30
0.0
 40
1.3300148000000001
 50
89.729417999999995
 51
270.27058999999991
  0
ARC
  5
823
  8
0
  6
CONTINUOUS
 62
     7
 10
-1053.4436000000001
 20
767.15783999999985
 30
0.0
 40
1.0000259
 50
89.587533999999977
 51
270.41246000000001
  0
ARC
  5
824
  8
0
  6
CONTINUOUS
 62
     7
 10
-1053.4436000000001
 20
737.15783999999985
 30
0.0
 40
1.0000259
 50
89.587533999999977
 51
270.41246000000001
  0
ARC
  5
825
  8
0
  6
CONTINUOUS
 62
     7
 10
-1071.1746000000001
 20
767.15783999999985
 30
0.0
 40
1.2700266
 50
89.629320999999962
 51
270.37068999999991
  0
ARC
  5
826
  8
0
  6
CONTINUOUS
 62
     7
 10
-1069.8865000000001
 20
757.15783999999985
 30
0.0
 40
1.0000056999999991
 50
90.000003000000007
 51
270.0
  0
ARC
  5
827
  8
0
  6
CONTINUOUS
 62
     7
 10
-1065.7034000000001
 20
819.41785000000004
 30
0.0
 40
1.5
 50
280.24788999999998
 51
349.76262000000008
  0
ARC
  5
828
  8
0
  6
CONTINUOUS
 62
     7
 10
-1065.7034000000001
 20
724.89783
 30
0.0
 40
1.5
 50
10.23737899999999
 51
79.752110000000002
  0
ARC
  5
829
  8
0
  6
CONTINUOUS
 62
     7
 10
-1061.4771000000001
 20
721.16309000000001
 30
0.0
 40
1.9952742999999991
 50
189.96477999999971
 51
269.85142000000002
  0
ARC
  5
82A
  8
0
  6
CONTINUOUS
 62
     7
 10
-1065.9194
 20
719.61547999999982
 30
0.0
 40
1.502416299999999
 50
12.39188699999999
 51
90.098617000000004
  0
ARC
  5
82B
  8
0
  6
CONTINUOUS
 62
     7
 10
-1061.5391
 20
715.88489000000004
 30
0.0
 40
1.997119399999999
 50
192.05524
 51
270.19862999999992
  0
ARC
  5
82C
  8
0
  6
CONTINUOUS
 62
     7
 10
-1061.7663999999991
 20
737.10779000000002
 30
0.0
 40
1.6800002000000001
 50
90.000003000000007
 51
270.0
  0
ARC
  5
82D
  8
0
  6
CONTINUOUS
 62
     7
 10
-1060.8936000000001
 20
737.15783999999985
 30
0.0
 40
1.0000255999999981
 50
89.589473999999967
 51
270.41052000000002
  0
ARC
  5
82E
  8
0
  6
CONTINUOUS
 62
     7
 10
-1060.8936000000001
 20
747.15783999999985
 30
0.0
 40
1.0000255999999981
 50
89.589473999999967
 51
270.41052000000002
  0
ARC
  5
82F
  8
0
  6
CONTINUOUS
 62
     7
 10
-1061.9821999999981
 20
747.12780999999984
 30
0.0
 40
1.460011199999999
 50
89.775248000000005
 51
270.22474
  0
ARC
  5
830
  8
0
  6
CONTINUOUS
 62
     7
 10
-1011.11
 20
706.76782000000003
 30
0.0
 40
1.5
 50
1.5000026999999989
 51
90.000003000000007
  0
ARC
  5
831
  8
0
  6
CONTINUOUS
 62
     3
 10
-936.42022999999995
 20
703.65783999999985
 30
0.0
 40
1.5
 50
269.99998999999991
 51
327.0
  0
ARC
  5
832
  8
0
  6
CONTINUOUS
 62
     7
 10
-947.92278999999974
 20
700.65784000000019
 30
0.0
 40
1.5
 50
90.000003000000007
 51
178.5
  0
ARC
  5
833
  8
0
  6
CONTINUOUS
 62
     7
 10
-933.91643999999985
 20
834.54785000000004
 30
0.0
 40
1.5
 50
12.129792
 51
90.000003000000007
  0
ARC
  5
834
  8
0
  6
CONTINUOUS
 62
     7
 10
-934.20874000000003
 20
835.90783999999974
 30
0.0
 40
1.5
 50
12.129792
 51
90.000003000000007
  0
ARC
  5
835
  8
0
  6
CONTINUOUS
 62
     7
 10
-934.35271999999998
 20
836.57787999999971
 30
0.0
 40
1.5
 50
12.129792
 51
90.000003000000007
  0
ARC
  5
836
  8
0
  6
CONTINUOUS
 62
     7
 10
-931.39642000000003
 20
747.12780999999984
 30
0.0
 40
1.460011199999999
 50
269.77525000000003
 51
90.224749999999986
  0
ARC
  5
837
  8
0
  6
CONTINUOUS
 62
     7
 10
-935.09644000000003
 20
747.15783999999985
 30
0.0
 40
1.0000255999999981
 50
269.58947000000001
 51
90.410531000000006
  0
ARC
  5
838
  8
0
  6
CONTINUOUS
 62
     7
 10
-931.39642000000003
 20
797.18786999999975
 30
0.0
 40
1.460011199999999
 50
269.77525000000003
 51
90.224749999999986
  0
ARC
  5
839
  8
0
  6
CONTINUOUS
 62
     7
 10
-935.09644000000003
 20
797.15783999999985
 30
0.0
 40
1.0000255999999981
 50
269.58947000000001
 51
90.410531000000006
  0
ARC
  5
83A
  8
0
  6
CONTINUOUS
 62
     7
 10
-998.77142000000003
 20
787.17285000000004
 30
0.0
 40
1.3350147999999991
 50
269.73043000000001
 51
90.269555999999994
  0
ARC
  5
83B
  8
0
  6
CONTINUOUS
 62
     7
 10
-999.99774000000002
 20
787.15783999999985
 30
0.0
 40
1.0000056999999991
 50
269.99998999999991
 51
90.000003000000007
  0
ARC
  5
83C
  8
0
  6
CONTINUOUS
 62
     7
 10
-999.99774000000002
 20
777.15783999999985
 30
0.0
 40
1.0000056999999991
 50
269.99998999999991
 51
90.000003000000007
  0
ARC
  5
83D
  8
0
  6
CONTINUOUS
 62
     7
 10
-998.70953000000009
 20
777.16785000000004
 30
0.0
 40
1.2700266
 50
269.62931999999989
 51
90.370669999999961
  0
ARC
  5
83E
  8
0
  6
CONTINUOUS
 62
     7
 10
-999.99774000000002
 20
767.15783999999985
 30
0.0
 40
1.0000056999999991
 50
269.99998999999991
 51
90.000003000000007
  0
ARC
  5
83F
  8
0
  6
CONTINUOUS
 62
     7
 10
-998.70953000000009
 20
767.15783999999985
 30
0.0
 40
1.2700266
 50
269.62931999999989
 51
90.370669999999961
  0
ARC
  5
840
  8
0
  6
CONTINUOUS
 62
     7
 10
-999.99774000000002
 20
757.15783999999985
 30
0.0
 40
1.0000056999999991
 50
269.99998999999991
 51
90.000003000000007
  0
ARC
  5
841
  8
0
  6
CONTINUOUS
 62
     7
 10
-998.77142000000003
 20
757.14782999999989
 30
0.0
 40
1.3300148000000001
 50
269.72941999999989
 51
90.270567000000014
  0
ARC
  5
842
  8
0
  6
CONTINUOUS
 62
     7
 10
-949.4363400000002
 20
744.65783999999985
 30
0.0
 40
1.5
 50
90.000003000000007
 51
180.00001
  0
ARC
  5
843
  8
0
  6
CONTINUOUS
 62
     7
 10
-949.4363400000002
 20
739.65783999999985
 30
0.0
 40
1.5
 50
179.99998999999991
 51
270.0
  0
ARC
  5
844
  8
0
  6
CONTINUOUS
 62
     7
 10
-967.43633999999997
 20
744.65783999999985
 30
0.0
 40
1.5
 50
0.0
 51
90.000003000000007
  0
ARC
  5
845
  8
0
  6
CONTINUOUS
 62
     7
 10
-967.43633999999997
 20
739.65783999999985
 30
0.0
 40
1.5
 50
269.99998999999991
 51
0.00000068324733
  0
ARC
  5
846
  8
0
  6
CONTINUOUS
 62
     7
 10
-949.4363400000002
 20
744.65783999999985
 30
0.0
 40
1.02
 50
90.000003000000007
 51
180.00001
  0
ARC
  5
847
  8
0
  6
CONTINUOUS
 62
     7
 10
-967.43633999999997
 20
744.65783999999985
 30
0.0
 40
1.02
 50
0.0
 51
90.000003000000007
  0
ARC
  5
848
  8
0
  6
CONTINUOUS
 62
     7
 10
-967.41643999999997
 20
739.79785000000004
 30
0.0
 40
1.0
 50
269.99998999999991
 51
0.00000068324299
  0
ARC
  5
849
  8
0
  6
CONTINUOUS
 62
     7
 10
-949.45636000000013
 20
739.79785000000004
 30
0.0
 40
1.0
 50
179.99998999999991
 51
270.0
  0
CIRCLE
  5
84A
  8
0
  6
CONTINUOUS
 62
     3
 10
-960.9363400000002
 20
743.65783999999985
 30
0.0
 40
1.1000000000000001
  0
CIRCLE
  5
84B
  8
0
  6
CONTINUOUS
 62
     3
 10
-960.9363400000002
 20
743.65783999999985
 30
0.0
 40
1.149999999999999
  0
CIRCLE
  5
84C
  8
0
  6
CONTINUOUS
 62
     3
 10
-955.93633999999997
 20
743.65783999999985
 30
0.0
 40
1.0
  0
ARC
  5
84D
  8
0
  6
CONTINUOUS
 62
     7
 10
-949.4363400000002
 20
799.65783999999985
 30
0.0
 40
1.5
 50
179.99998999999991
 51
270.0
  0
ARC
  5
84E
  8
0
  6
CONTINUOUS
 62
     7
 10
-949.4363400000002
 20
804.65783999999974
 30
0.0
 40
1.5
 50
90.000003000000007
 51
180.00001
  0
ARC
  5
84F
  8
0
  6
CONTINUOUS
 62
     7
 10
-967.43633999999997
 20
799.65783999999985
 30
0.0
 40
1.5
 50
269.99998999999991
 51
0.00000068324733
  0
ARC
  5
850
  8
0
  6
CONTINUOUS
 62
     7
 10
-967.43633999999997
 20
804.65783999999974
 30
0.0
 40
1.5
 50
0.0
 51
90.000003000000007
  0
ARC
  5
851
  8
0
  6
CONTINUOUS
 62
     7
 10
-949.4363400000002
 20
799.65783999999985
 30
0.0
 40
1.02
 50
179.99998999999991
 51
270.0
  0
ARC
  5
852
  8
0
  6
CONTINUOUS
 62
     7
 10
-967.43633999999997
 20
799.65783999999985
 30
0.0
 40
1.02
 50
269.99998999999991
 51
0.00000068324403
  0
ARC
  5
853
  8
0
  6
CONTINUOUS
 62
     7
 10
-967.41643999999997
 20
804.51782000000003
 30
0.0
 40
1.0
 50
0.0
 51
90.000003000000007
  0
ARC
  5
854
  8
0
  6
CONTINUOUS
 62
     7
 10
-949.45636000000013
 20
804.51782000000003
 30
0.0
 40
1.0
 50
90.000003000000007
 51
180.00001
  0
CIRCLE
  5
855
  8
0
  6
CONTINUOUS
 62
     3
 10
-955.93633999999997
 20
800.65783999999985
 30
0.0
 40
1.0
  0
CIRCLE
  5
856
  8
0
  6
CONTINUOUS
 62
     3
 10
-960.9363400000002
 20
800.65783999999985
 30
0.0
 40
1.149999999999999
  0
CIRCLE
  5
857
  8
0
  6
CONTINUOUS
 62
     3
 10
-960.9363400000002
 20
800.65783999999985
 30
0.0
 40
1.1000000000000001
  0
ARC
  5
858
  8
0
  6
CONTINUOUS
 62
     7
 10
-1069.735799999999
 20
712.48779000000002
 30
0.0
 40
2.0
 50
194.1507499999999
 51
269.99998999999991
  0
ARC
  5
859
  8
0
  6
CONTINUOUS
 62
     7
 10
-1055.6936000000001
 20
708.98779000000002
 30
0.0
 40
1.5
 50
21.461708999999988
 51
90.000003000000007
  0
ARC
  5
85A
  8
0
  6
CONTINUOUS
 62
     3
 10
-928.79101999999966
 20
198.0563199999998
 30
0.0
 40
1.4959960999999991
 50
89.821707000000004
 51
165.04766000000001
  0
ARC
  5
85B
  8
0
  6
CONTINUOUS
 62
     3
 10
-1053.4411999999991
 20
270.90231
 30
0.0
 40
1.000011999999999
 50
89.726507999999981
 51
270.27347999999989
  0
ARC
  5
85C
  8
0
  6
CONTINUOUS
 62
     3
 10
-1053.4411999999991
 20
260.90230999999989
 30
0.0
 40
1.000011999999999
 50
89.726507999999981
 51
270.27347999999989
  0
ARC
  5
85D
  8
0
  6
CONTINUOUS
 62
     3
 10
-999.43829000000005
 20
181.99420000000001
 30
0.0
 40
2.0019
 50
270.05437999999992
 51
359.94562000000002
  0
CIRCLE
  5
85E
  8
0
  6
CONTINUOUS
 62
     7
 10
-225.33674999999991
 20
327.11234000000002
 30
0.0
 40
4.5
  0
ARC
  5
85F
  8
0
  6
CONTINUOUS
 62
     3
 10
-1052.4409000000001
 20
309.82360999999992
 30
0.0
 40
1.9987239999999991
 50
89.871137000000004
 51
165.55096
  0
ARC
  5
860
  8
0
  6
CONTINUOUS
 62
     7
 10
-904.43639999999994
 20
186.4634999999999
 30
0.0
 40
4.0
 50
272.0
 51
0.0
  0
ARC
  5
861
  8
0
  6
CONTINUOUS
 62
     3
 10
-1055.9431
 20
300.38900999999998
 30
0.0
 40
1.506699899999999
 50
270.2541599999999
 51
359.74583999999987
  0
ARC
  5
862
  8
0
  6
CONTINUOUS
 62
     3
 10
-1052.4428999999991
 20
309.14877000000001
 30
0.0
 40
1.9935560999999991
 50
89.814515
 51
180.18548999999999
  0
ARC
  5
863
  8
0
  6
CONTINUOUS
 62
     3
 10
-1069.3297999999991
 20
307.20551
 30
0.0
 40
1.996815999999999
 50
89.901436000000004
 51
165.88940999999991
  0
ARC
  5
864
  8
0
  6
CONTINUOUS
 62
     3
 10
-1052.4402
 20
307.79611
 30
0.0
 40
1.9961880000000001
 50
89.890486999999965
 51
180.10950999999989
  0
ARC
  5
865
  8
0
  6
CONTINUOUS
 62
     3
 10
-1052.441
 20
305.76697000000001
 30
0.0
 40
1.9953640999999991
 50
89.866758999999988
 51
180.13323
  0
ARC
  5
866
  8
0
  6
CONTINUOUS
 62
     3
 10
-1073.6151
 20
304.52550999999983
 30
0.0
 40
1.503231999999997
 50
270.33132000000001
 51
346.01802999999978
  0
ARC
  5
867
  8
0
  6
CONTINUOUS
 62
     7
 10
-782.43646000000001
 20
137.02148
 30
0.0
 40
2.0
 50
179.99998999999991
 51
268.00000999999992
  0
ARC
  5
868
  8
0
  6
CONTINUOUS
 62
     3
 10
-1070.9763999999991
 20
220.8773299999998
 30
0.0
 40
1.4650040999999969
 50
90.000003000000007
 51
270.0
  0
ARC
  5
869
  8
0
  6
CONTINUOUS
 62
     3
 10
-1071.1721
 20
240.90231
 30
0.0
 40
1.2700118999999981
 50
89.738748000000001
 51
270.26123999999999
  0
ARC
  5
86A
  8
0
  6
CONTINUOUS
 62
     3
 10
-1053.4411999999991
 20
210.90230999999989
 30
0.0
 40
1.000011999999999
 50
89.726507999999981
 51
270.27347999999989
  0
ARC
  5
86B
  8
0
  6
CONTINUOUS
 62
     3
 10
-1053.4411999999991
 20
240.90231
 30
0.0
 40
1.000011999999999
 50
89.726507999999981
 51
270.27347999999989
  0
ARC
  5
86C
  8
0
  6
CONTINUOUS
 62
     3
 10
-1069.8911000000001
 20
210.90230999999989
 30
0.0
 40
1.000011999999999
 50
89.728461999999965
 51
270.27154000000002
  0
ARC
  5
86D
  8
0
  6
CONTINUOUS
 62
     3
 10
-1071.106399999999
 20
230.89232000000001
 30
0.0
 40
1.3300080000000001
 50
90.000003000000007
 51
270.0
  0
ARC
  5
86E
  8
0
  6
CONTINUOUS
 62
     3
 10
-1069.8864000000001
 20
230.90231
 30
0.0
 40
1.0
 50
90.000003000000007
 51
270.0
  0
ARC
  5
86F
  8
0
  6
CONTINUOUS
 62
     3
 10
-1069.8911000000001
 20
220.90231
 30
0.0
 40
1.000011999999999
 50
89.728461999999965
 51
270.27154000000002
  0
ARC
  5
870
  8
0
  6
CONTINUOUS
 62
     3
 10
-1070.7633000000001
 20
210.8573499999998
 30
0.0
 40
1.6750161999999991
 50
89.764983000000015
 51
270.23500999999987
  0
ARC
  5
871
  8
0
  6
CONTINUOUS
 62
     3
 10
-1079.4423999999999
 20
286.14551
 30
0.0
 40
0.99407595
 50
120.4692
 51
180.18464
  0
ARC
  5
872
  8
0
  6
CONTINUOUS
 62
     3
 10
-1079.442
 20
291.78131000000002
 30
0.0
 40
0.9944360899999999
 50
121.15217
 51
179.9404899999999
  0
ARC
  5
873
  8
0
  6
CONTINUOUS
 62
     7
 10
-956.94146999999987
 20
223.40738999999991
 30
0.0
 40
5.4981922999999986
 50
84.729479999999981
 51
185.27052
  0
ARC
  5
874
  8
0
  6
CONTINUOUS
 62
     3
 10
-1079.4431999999979
 20
290.74374
 30
0.0
 40
0.9932120999999998
 50
117.7993399999999
 51
180.08183
  0
ARC
  5
875
  8
0
  6
CONTINUOUS
 62
     3
 10
-1079.4417000000001
 20
287.17992999999967
 30
0.0
 40
0.9948279899999999
 50
123.2046899999999
 51
180.43813
  0
ARC
  5
876
  8
0
  6
CONTINUOUS
 62
     3
 10
-1078.1569999999999
 20
286.89580999999998
 30
0.0
 40
0.99651998
 50
90.541213000000027
 51
120.7432799999999
  0
ARC
  5
877
  8
0
  6
CONTINUOUS
 62
     3
 10
-1075.9398000000001
 20
197.80569
 30
0.0
 40
0.50340396
 50
270.38612999999992
 51
359.61387000000002
  0
ARC
  5
878
  8
0
  6
CONTINUOUS
 62
     3
 10
-1073.6532
 20
193.37321
 30
0.0
 40
1.4991000000000001
 50
11.89856
 51
89.736657999999963
  0
ARC
  5
879
  8
0
  6
CONTINUOUS
 62
     3
 10
-1069.2715000000001
 20
189.6417099999999
 30
0.0
 40
1.9993919999999981
 50
192.1080399999999
 51
270.14582000000001
  0
ARC
  5
87A
  8
0
  6
CONTINUOUS
 62
     3
 10
-1069.2102999999991
 20
194.92076
 30
0.0
 40
1.9984440999999999
 50
190.33239999999989
 51
270.11368999999979
  0
ARC
  5
87B
  8
0
  6
CONTINUOUS
 62
     3
 10
-1075.935899999999
 20
195.65276
 30
0.0
 40
0.4995560300000001
 50
359.94911000000002
 51
90.050894000000014
  0
ARC
  5
87C
  8
0
  6
CONTINUOUS
 62
     3
 10
-1076.440599999999
 20
200.40639999999999
 30
0.0
 40
1.0040839999999991
 50
270.23262999999992
 51
359.76737000000008
  0
ARC
  5
87D
  8
0
  6
CONTINUOUS
 62
     3
 10
-1078.1813
 20
200.4029399999998
 30
0.0
 40
1.0006280000000001
 50
241.64985999999999
 51
269.70470999999992
  0
ARC
  5
87E
  8
0
  6
CONTINUOUS
 62
     3
 10
-1079.4374
 20
204.62698
 30
0.0
 40
0.9991000299999999
 50
179.69542000000001
 51
236.66176999999999
  0
ARC
  5
87F
  8
0
  6
CONTINUOUS
 62
     3
 10
-1078.1731
 20
204.9233099999999
 30
0.0
 40
1.001012
 50
240.47136
 51
270.3802
  0
ARC
  5
880
  8
0
  6
CONTINUOUS
 62
     3
 10
-1078.1436000000001
 20
203.78283999999991
 30
0.0
 40
1.0005360000000001
 50
237.1464
 51
270.41322000000002
  0
ARC
  5
881
  8
0
  6
CONTINUOUS
 62
     3
 10
-1078.165
 20
199.26595999999981
 30
0.0
 40
1.003687999999999
 50
239.37027
 51
270.49275
  0
ARC
  5
882
  8
0
  6
CONTINUOUS
 62
     3
 10
-1079.4376
 20
200.0258199999999
 30
0.0
 40
0.9987800700000001
 50
179.6266699999999
 51
238.70855
  0
ARC
  5
883
  8
0
  6
CONTINUOUS
 62
     3
 10
-1079.4380000000001
 20
205.6616099999998
 30
0.0
 40
0.9984599899999999
 50
179.95962
 51
239.38655
  0
ARC
  5
884
  8
0
  6
CONTINUOUS
 62
     3
 10
-1076.4387999999981
 20
204.92475999999999
 30
0.0
 40
1.002459999999999
 50
270.14037999999999
 51
359.85962000000001
  0
ARC
  5
885
  8
0
  6
CONTINUOUS
 62
     3
 10
-1079.4386999999981
 20
201.06360000000001
 30
0.0
 40
0.99770796
 50
180.0740499999998
 51
242.04476
  0
ARC
  5
886
  8
0
  6
CONTINUOUS
 62
     3
 10
-1076.4412999999979
 20
272.90726000000001
 30
0.0
 40
1.0049318999999981
 50
270.28041999999999
 51
359.71958000000001
  0
ARC
  5
887
  8
0
  6
CONTINUOUS
 62
     3
 10
-1076.4354000000001
 20
291.40328999999991
 30
0.0
 40
0.9990080599999998
 50
359.94315
 51
90.056843000000015
  0
ARC
  5
888
  8
0
  6
CONTINUOUS
 62
     3
 10
-1076.1410000000001
 20
282.29683999999992
 30
0.0
 40
0.7045519900000004
 50
270.36910999999992
 51
359.63088999999991
  0
ARC
  5
889
  8
0
  6
CONTINUOUS
 62
     3
 10
-1076.438699999999
 20
286.88994999999989
 30
0.0
 40
1.002375999999999
 50
0.13559199
 51
89.864409999999964
  0
ARC
  5
88A
  8
0
  6
CONTINUOUS
 62
     3
 10
-1076.4347
 20
278.64400999999992
 30
0.0
 40
0.9982959599999999
 50
359.90204
 51
90.097960999999998
  0
ARC
  5
88B
  8
0
  6
CONTINUOUS
 62
     3
 10
-1076.4363000000001
 20
268.90246999999999
 30
0.0
 40
0.99985206
 50
359.99144999999999
 51
90.008546999999993
  0
ARC
  5
88C
  8
0
  6
CONTINUOUS
 62
     3
 10
-1075.941
 20
296.15694999999988
 30
0.0
 40
0.5046359900000002
 50
270.52375999999992
 51
359.47624000000002
  0
ARC
  5
88D
  8
0
  6
CONTINUOUS
 62
     3
 10
-1053.4411999999991
 20
250.9023099999998
 30
0.0
 40
1.000011999999999
 50
89.726507999999981
 51
270.27347999999989
  0
ARC
  5
88E
  8
0
  6
CONTINUOUS
 62
     3
 10
-927.43688999999983
 20
194.8617899999999
 30
0.0
 40
0.9994760199999999
 50
179.97008999999991
 51
270.02991999999989
  0
ARC
  5
88F
  8
0
  6
CONTINUOUS
 62
     3
 10
-935.63171
 20
186.04769999999991
 30
0.0
 40
2.005392099999999
 50
270.15275000000003
 51
344.81207000000001
  0
ARC
  5
890
  8
0
  6
CONTINUOUS
 62
     3
 10
-927.43621999999982
 20
183.40251000000001
 30
0.0
 40
1.0001799999999981
 50
180.01031
 51
269.98967999999968
  0
ARC
  5
891
  8
0
  6
CONTINUOUS
 62
     3
 10
-1075.9347
 20
294.00396999999992
 30
0.0
 40
0.4983640000000002
 50
359.81141000000002
 51
90.188598000000013
  0
ARC
  5
892
  8
0
  6
CONTINUOUS
 62
     3
 10
-1079.4362000000001
 20
250.90251000000001
 30
0.0
 40
1.0001959999999981
 50
180.01124999999999
 51
269.98874000000001
  0
ARC
  5
893
  8
0
  6
CONTINUOUS
 62
     3
 10
-1076.4412999999979
 20
262.90726000000001
 30
0.0
 40
1.004928
 50
270.28021999999987
 51
359.71977999999979
  0
ARC
  5
894
  8
0
  6
CONTINUOUS
 62
     3
 10
-1076.4363000000001
 20
258.90246999999988
 30
0.0
 40
0.9998440099999999
 50
359.99101000000002
 51
90.008991000000023
  0
ARC
  5
895
  8
0
  6
CONTINUOUS
 62
     3
 10
-1076.4412999999979
 20
252.90720999999999
 30
0.0
 40
1.0049240999999991
 50
270.28001
 51
359.71999
  0
ARC
  5
896
  8
0
  6
CONTINUOUS
 62
     3
 10
-1076.4363000000001
 20
248.90246999999991
 30
0.0
 40
0.99984801
 50
359.99121999999988
 51
90.008778999999976
  0
ARC
  5
897
  8
0
  6
CONTINUOUS
 62
     3
 10
-1079.4413999999999
 20
250.90723999999989
 30
0.0
 40
0.9950879799999999
 50
89.716344999999961
 51
180.28364999999991
  0
ARC
  5
898
  8
0
  6
CONTINUOUS
 62
     3
 10
-1076.439699999999
 20
213.16565
 30
0.0
 40
1.003363999999999
 50
270.19171
 51
359.80827999999991
  0
ARC
  5
899
  8
0
  6
CONTINUOUS
 62
     3
 10
-1078.2334000000001
 20
211.2175299999999
 30
0.0
 40
1.005223999999999
 50
246.98628999999991
 51
269.82935999999989
  0
ARC
  5
89A
  8
0
  6
CONTINUOUS
 62
     3
 10
-1076.1359
 20
209.51289
 30
0.0
 40
0.69944
 50
359.95416
 51
90.045839999999984
  0
ARC
  5
89B
  8
0
  6
CONTINUOUS
 62
     3
 10
-1076.4363000000001
 20
218.90246999999999
 30
0.0
 40
0.99984801
 50
359.99119000000002
 51
90.008807000000004
  0
ARC
  5
89C
  8
0
  6
CONTINUOUS
 62
     3
 10
-1076.4412999999979
 20
222.90720999999991
 30
0.0
 40
1.0049240999999991
 50
270.28003999999999
 51
359.71996999999988
  0
ARC
  5
89D
  8
0
  6
CONTINUOUS
 62
     3
 10
-933.58892999999989
 20
304.40584999999982
 30
0.0
 40
1.996488
 50
12.040875
 51
89.926440999999969
  0
ARC
  5
89E
  8
0
  6
CONTINUOUS
 62
     3
 10
-1079.4362000000001
 20
240.9025399999999
 30
0.0
 40
1.0002040000000001
 50
180.01169999999999
 51
269.98829999999992
  0
ARC
  5
89F
  8
0
  6
CONTINUOUS
 62
     3
 10
-1076.4412999999979
 20
232.90724
 30
0.0
 40
1.004928
 50
270.28023999999988
 51
359.71976000000001
  0
ARC
  5
8A0
  8
0
  6
CONTINUOUS
 62
     3
 10
-1076.4363000000001
 20
238.90246999999991
 30
0.0
 40
0.99985206
 50
359.99142999999998
 51
90.008574000000024
  0
ARC
  5
8A1
  8
0
  6
CONTINUOUS
 62
     3
 10
-1076.4412999999979
 20
242.90723999999989
 30
0.0
 40
1.0049318999999981
 50
270.28044999999992
 51
359.71955000000008
  0
ARC
  5
8A2
  8
0
  6
CONTINUOUS
 62
     3
 10
-1079.4413999999999
 20
240.90723999999989
 30
0.0
 40
0.9950799899999999
 50
89.715893999999963
 51
180.2841
  0
ARC
  5
8A3
  8
0
  6
CONTINUOUS
 62
     3
 10
-1079.4413999999999
 20
230.90724
 30
0.0
 40
0.99508399
 50
89.716106000000025
 51
180.2838899999999
  0
ARC
  5
8A4
  8
0
  6
CONTINUOUS
 62
     3
 10
-928.78612999999984
 20
293.75472999999982
 30
0.0
 40
1.502391899999999
 50
195.1400099999999
 51
269.99063999999998
  0
ARC
  5
8A5
  8
0
  6
CONTINUOUS
 62
     3
 10
-928.73052999999993
 20
298.44277999999991
 30
0.0
 40
1.500475999999999
 50
192.33223000000001
 51
270.15827999999999
  0
ARC
  5
8A6
  8
0
  6
CONTINUOUS
 62
     3
 10
-927.44201999999996
 20
296.94794000000002
 30
0.0
 40
0.9944000200000001
 50
89.676490999999999
 51
180.32351
  0
ARC
  5
8A7
  8
0
  6
CONTINUOUS
 62
     3
 10
-927.44140999999991
 20
308.40728999999982
 30
0.0
 40
0.9950640200000001
 50
89.714938000000004
 51
180.28505999999999
  0
ARC
  5
8A8
  8
0
  6
CONTINUOUS
 62
     3
 10
-935.62682999999993
 20
305.76333999999991
 30
0.0
 40
1.998987899999999
 50
15.047801
 51
89.987373000000005
  0
ARC
  5
8A9
  8
0
  6
CONTINUOUS
 62
     3
 10
-999.43823000000009
 20
309.82049999999998
 30
0.0
 40
2.0018279999999971
 50
0.052301
 51
89.947696999999977
  0
ARC
  5
8AA
  8
0
  6
CONTINUOUS
 62
     3
 10
-1066.2781999999991
 20
287.49515000000002
 30
0.0
 40
5.004112199999998
 50
279.68356999999992
 51
354.57833999999991
  0
ARC
  5
8AB
  8
0
  6
CONTINUOUS
 62
     3
 10
-928.72931000000005
 20
193.3729899999999
 30
0.0
 40
1.499328
 50
89.888150999999979
 51
168.09384
  0
ARC
  5
8AC
  8
0
  6
CONTINUOUS
 62
     3
 10
-933.59398999999974
 20
187.40491999999981
 30
0.0
 40
2.0026239999999991
 50
270.21533999999991
 51
347.81734
  0
ARC
  5
8AD
  8
0
  6
CONTINUOUS
 62
     3
 10
-1062.2925
 20
287.12259
 30
0.0
 40
1.0011080999999991
 50
354.25024999999982
 51
45.146993999999992
  0
ARC
  5
8AE
  8
0
  6
CONTINUOUS
 62
     3
 10
-1065.8157000000001
 20
283.56939999999992
 30
0.0
 40
6.0049156999999971
 50
45.22730700000001
 51
86.379093999999981
  0
ARC
  5
8AF
  8
0
  6
CONTINUOUS
 62
     3
 10
-1076.4363000000001
 20
228.90246999999999
 30
0.0
 40
0.9998440099999999
 50
359.99097999999992
 51
90.00901800000004
  0
ARC
  5
8B0
  8
0
  6
CONTINUOUS
 62
     7
 10
-895.43639999999982
 20
247.9054099999999
 30
0.0
 40
5.0
 50
90.000003000000007
 51
180.00001
  0
ARC
  5
8B1
  8
0
  6
CONTINUOUS
 62
     7
 10
-794.43640000000005
 20
417.04503999999997
 30
0.0
 40
5.0
 50
329.34933000000001
 51
0.0
  0
ARC
  5
8B2
  8
0
  6
CONTINUOUS
 62
     7
 10
-826.43646000000001
 20
212.3242799999999
 30
0.0
 40
4.0
 50
206.8969399999998
 51
268.0
  0
ARC
  5
8B3
  8
0
  6
CONTINUOUS
 62
     7
 10
-897.01288000000011
 20
183.48174
 30
0.0
 40
4.0
 50
107.3416099999999
 51
158.11661000000001
  0
ARC
  5
8B4
  8
0
  6
CONTINUOUS
 62
     7
 10
-834.43640000000005
 20
351.76916999999992
 30
0.0
 40
4.0
 50
315.0
 51
0.0
  0
ARC
  5
8B5
  8
0
  6
CONTINUOUS
 62
     7
 10
-833.57097999999985
 20
208.70519999999991
 30
0.0
 40
4.0
 50
26.896937000000001
 51
88.0
  0
ARC
  5
8B6
  8
0
  6
CONTINUOUS
 62
     7
 10
-900.43640000000005
 20
322.28386999999998
 30
0.0
 40
5.0
 50
91.999998000000005
 51
180.00001
  0
ARC
  5
8B7
  8
0
  6
CONTINUOUS
 62
     7
 10
-809.9364599999999
 20
360.98202999999978
 30
0.0
 40
5.0
 50
272.0
 51
0.0
  0
ARC
  5
8B8
  8
0
  6
CONTINUOUS
 62
     3
 10
-1079.4399000000001
 20
280.08391999999998
 30
0.0
 40
0.99640006
 50
112.8173899999998
 51
180.0903999999999
  0
ARC
  5
8B9
  8
0
  6
CONTINUOUS
 62
     3
 10
-1079.4362000000001
 20
260.90249999999992
 30
0.0
 40
1.000199899999999
 50
180.0114699999998
 51
269.98852999999991
  0
ARC
  5
8BA
  8
0
  6
CONTINUOUS
 62
     3
 10
-1079.4413999999999
 20
260.90722999999991
 30
0.0
 40
0.99508399
 50
89.716132999999985
 51
180.28387000000001
  0
ARC
  5
8BB
  8
0
  6
CONTINUOUS
 62
     3
 10
-1079.4362000000001
 20
270.90255999999988
 30
0.0
 40
1.0002040000000001
 50
180.0116699999999
 51
269.9883200000001
  0
ARC
  5
8BC
  8
0
  6
CONTINUOUS
 62
     3
 10
-1079.4413999999999
 20
270.9072299999998
 30
0.0
 40
0.9950799899999999
 50
89.71592099999998
 51
180.2840699999999
  0
ARC
  5
8BD
  8
0
  6
CONTINUOUS
 62
     3
 10
-1079.4402
 20
278.29806999999988
 30
0.0
 40
0.9962600499999998
 50
106.6974899999999
 51
180.33049
  0
ARC
  5
8BE
  8
0
  6
CONTINUOUS
 62
     7
 10
-794.93646000000001
 20
178.21811
 30
0.0
 40
10.0
 50
179.99998999999991
 51
217.77722999999989
  0
ARC
  5
8BF
  8
0
  6
CONTINUOUS
 62
     7
 10
-826.55395999999985
 20
351.89627000000002
 30
0.0
 40
4.0
 50
91.999998000000005
 51
170.16762
  0
ARC
  5
8C0
  8
0
  6
CONTINUOUS
 62
     7
 10
-765.15282999999988
 20
457.25240999999988
 30
0.0
 40
1.0
 50
15.0
 51
78.786709999999999
  0
ARC
  5
8C1
  8
0
  6
CONTINUOUS
 62
     7
 10
-783.72002999999984
 20
457.25240999999988
 30
0.0
 40
1.0
 50
101.21329
 51
164.99999
  0
ARC
  5
8C2
  8
0
  6
CONTINUOUS
 62
     7
 10
-774.43640000000005
 20
475.11233999999979
 30
0.0
 40
25.0
 50
306.46672000000001
 51
233.53328999999999
  0
CIRCLE
  5
8C3
  8
0
  6
CONTINUOUS
 62
     7
 10
-774.43640000000005
 20
475.11233999999979
 30
0.0
 40
15.0
  0
ARC
  5
8C4
  8
0
  6
CONTINUOUS
 62
     7
 10
-756.01140999999984
 20
450.18207000000001
 30
0.0
 40
6.0
 50
126.4666999999999
 51
190.27006
  0
ARC
  5
8C5
  8
0
  6
CONTINUOUS
 62
     7
 10
-792.86144999999999
 20
450.18207000000001
 30
0.0
 40
6.0
 50
349.72994999999997
 51
53.533291000000013
  0
ARC
  5
8C6
  8
0
  6
CONTINUOUS
 62
     3
 10
-1079.4399000000001
 20
213.51664999999991
 30
0.0
 40
0.9963799699999999
 50
180.24948999999981
 51
253.29706999999991
  0
ARC
  5
8C7
  8
0
  6
CONTINUOUS
 62
     3
 10
-1079.4362000000001
 20
230.90250999999989
 30
0.0
 40
1.000199899999999
 50
180.01150000000001
 51
269.98851000000002
  0
ARC
  5
8C8
  8
0
  6
CONTINUOUS
 62
     3
 10
-1079.4413999999999
 20
220.90724
 30
0.0
 40
0.99508399
 50
89.716324
 51
180.28368
  0
ARC
  5
8C9
  8
0
  6
CONTINUOUS
 62
     3
 10
-1079.4362000000001
 20
220.90251000000001
 30
0.0
 40
1.0001959999999981
 50
180.01127999999991
 51
269.98872
  0
ARC
  5
8CA
  8
0
  6
CONTINUOUS
 62
     3
 10
-1079.4399000000001
 20
211.7307899999999
 30
0.0
 40
0.9964760499999998
 50
179.91257999999991
 51
247.17966000000001
  0
ARC
  5
8CB
  8
0
  6
CONTINUOUS
 62
     3
 10
-1078.2959000000001
 20
213.1650099999998
 30
0.0
 40
1.0027280000000001
 50
253.75297
 51
270.54039999999992
  0
ARC
  5
8CC
  8
0
  6
CONTINUOUS
 62
     3
 10
-1062.295699999999
 20
204.68317999999999
 30
0.0
 40
1.004235999999999
 50
314.93782999999991
 51
5.6649238999999989
  0
ARC
  5
8CD
  8
0
  6
CONTINUOUS
 62
     3
 10
-1078.2971999999991
 20
278.64963
 30
0.0
 40
0.99277198
 50
89.374808000000016
 51
106.33181999999979
  0
ARC
  5
8CE
  8
0
  6
CONTINUOUS
 62
     7
 10
-1001.9412
 20
268.40706999999992
 30
0.0
 40
5.5071000999999971
 50
264.84087999999991
 51
5.1591262000000002
  0
ARC
  5
8CF
  8
0
  6
CONTINUOUS
 62
     3
 10
-950.94127999999989
 20
217.40720999999999
 30
0.0
 40
1.5049160999999991
 50
270.18678
 51
359.81322
  0
ARC
  5
8D0
  8
0
  6
CONTINUOUS
 62
     3
 10
-950.93621999999993
 20
274.40249999999992
 30
0.0
 40
1.4998400000000001
 50
359.99394000000001
 51
90.006061000000003
  0
ARC
  5
8D1
  8
0
  6
CONTINUOUS
 62
     3
 10
-1078.2354
 20
280.5968299999999
 30
0.0
 40
0.99548006
 50
90.057320999999988
 51
113.12703
  0
ARC
  5
8D2
  8
0
  6
CONTINUOUS
 62
     3
 10
-1073.623
 20
189.30479
 30
0.0
 40
1.497512
 50
13.418233000000001
 51
90.128792999999988
  0
ARC
  5
8D3
  8
0
  6
CONTINUOUS
 62
     3
 10
-1052.4350999999999
 20
184.01363000000001
 30
0.0
 40
2.0013117999999981
 50
180.03756000000001
 51
269.96244000000002
  0
ARC
  5
8D4
  8
0
  6
CONTINUOUS
 62
     3
 10
-1052.4358999999999
 20
186.0427699999999
 30
0.0
 40
2.0004520000000001
 50
180.0129
 51
269.98709999999988
  0
ARC
  5
8D5
  8
0
  6
CONTINUOUS
 62
     3
 10
-1069.3248000000001
 20
184.6054399999999
 30
0.0
 40
2.0031319000000001
 50
194.25158999999999
 51
269.95755000000003
  0
ARC
  5
8D6
  8
0
  6
CONTINUOUS
 62
     3
 10
-1073.6086
 20
187.28419
 30
0.0
 40
1.4981281
 50
14.224575
 51
89.916113999999979
  0
ARC
  5
8D7
  8
0
  6
CONTINUOUS
 62
     3
 10
-1069.2994000000001
 20
186.23309
 30
0.0
 40
2.0007559999999991
 50
193.3141599999999
 51
270.08645000000001
  0
ARC
  5
8D8
  8
0
  6
CONTINUOUS
 62
     3
 10
-1069.2715000000001
 20
302.17302999999993
 30
0.0
 40
1.9992881
 50
89.851815000000016
 51
167.89433
  0
ARC
  5
8D9
  8
0
  6
CONTINUOUS
 62
     3
 10
-1073.6280999999999
 20
302.50609999999989
 30
0.0
 40
1.503776
 50
270.05984000000001
 51
346.39312999999999
  0
ARC
  5
8DA
  8
0
  6
CONTINUOUS
 62
     3
 10
-1069.3043
 20
305.57778999999982
 30
0.0
 40
1.994515899999997
 50
89.771334999999979
 51
166.8280399999999
  0
ARC
  5
8DB
  8
0
  6
CONTINUOUS
 62
     3
 10
-1073.6521
 20
298.44256999999999
 30
0.0
 40
1.500248
 50
270.21661999999992
 51
347.67500000000001
  0
ARC
  5
8DC
  8
0
  6
CONTINUOUS
 62
     3
 10
-1069.2153000000001
 20
296.88988999999992
 30
0.0
 40
1.9924479999999991
 50
89.742107999999988
 51
169.8117899999998
  0
ARC
  5
8DD
  8
0
  6
CONTINUOUS
 62
     7
 10
-782.43646000000001
 20
446.21361999999988
 30
0.0
 40
2.0
 50
91.999998000000005
 51
180.00001
  0
ARC
  5
8DE
  8
0
  6
CONTINUOUS
 62
     7
 10
-225.33674999999991
 20
327.11234000000002
 30
0.0
 40
27.5
 50
106.91239
 51
73.087597000000002
  0
ARC
  5
8DF
  8
0
  6
CONTINUOUS
 62
     7
 10
-225.33674999999991
 20
495.11234000000002
 30
0.0
 40
5.0
 50
359.99998999999991
 51
179.99998999999991
  0
ARC
  5
8E0
  8
0
  6
CONTINUOUS
 62
     3
 10
-1060.8912
 20
270.90231
 30
0.0
 40
1.000011999999999
 50
89.728448
 51
270.27154000000002
  0
ARC
  5
8E1
  8
0
  6
CONTINUOUS
 62
     3
 10
-931.61645999999996
 20
280.94729999999998
 30
0.0
 40
1.675003999999999
 50
270.0
 51
90.000003000000007
  0
ARC
  5
8E2
  8
0
  6
CONTINUOUS
 62
     3
 10
-948.13482999999997
 20
213.53391999999999
 30
0.0
 40
1.001595999999999
 50
180.09126000000001
 51
269.90875
  0
ARC
  5
8E3
  8
0
  6
CONTINUOUS
 62
     3
 10
-948.14026000000001
 20
214.63649000000001
 30
0.0
 40
0.99615997
 50
91.504365000000007
 51
180.24055000000001
  0
ARC
  5
8E4
  8
0
  6
CONTINUOUS
 62
     3
 10
-948.13513000000012
 20
277.17306999999983
 30
0.0
 40
1.001239999999999
 50
180.04312999999991
 51
268.21195999999992
  0
ARC
  5
8E5
  8
0
  6
CONTINUOUS
 62
     3
 10
-948.13989000000004
 20
278.2758199999999
 30
0.0
 40
0.9965119399999997
 50
89.798963000000015
 51
180.20103
  0
ARC
  5
8E6
  8
0
  6
CONTINUOUS
 62
     3
 10
-1060.8912
 20
280.90231
 30
0.0
 40
1.000011999999999
 50
89.728448
 51
270.27154000000002
  0
ARC
  5
8E7
  8
0
  6
CONTINUOUS
 62
     3
 10
-1071.1721
 20
250.90732
 30
0.0
 40
1.265012
 50
89.737716000000006
 51
270.26227999999992
  0
ARC
  5
8E8
  8
0
  6
CONTINUOUS
 62
     3
 10
-1069.8864000000001
 20
260.90230999999989
 30
0.0
 40
1.0
 50
90.000003000000007
 51
270.0
  0
ARC
  5
8E9
  8
0
  6
CONTINUOUS
 62
     3
 10
-1069.8864000000001
 20
250.9023099999998
 30
0.0
 40
1.0
 50
90.000003000000007
 51
270.0
  0
ARC
  5
8EA
  8
0
  6
CONTINUOUS
 62
     3
 10
-1061.7632000000001
 20
280.94729999999998
 30
0.0
 40
1.6750161999999991
 50
89.766540000000006
 51
270.23345999999992
  0
ARC
  5
8EB
  8
0
  6
CONTINUOUS
 62
     3
 10
-1061.9764
 20
270.92730999999992
 30
0.0
 40
1.4650040999999969
 50
90.000003000000007
 51
270.0
  0
ARC
  5
8EC
  8
0
  6
CONTINUOUS
 62
     3
 10
-1071.106399999999
 20
260.91232000000002
 30
0.0
 40
1.3300080000000001
 50
90.000003000000007
 51
270.0
  0
ARC
  5
8ED
  8
0
  6
CONTINUOUS
 62
     3
 10
-1053.4411999999991
 20
280.90231
 30
0.0
 40
1.000011999999999
 50
89.726507999999981
 51
270.27347999999989
  0
ARC
  5
8EE
  8
0
  6
CONTINUOUS
 62
     3
 10
-935.09644000000003
 20
210.90230999999989
 30
0.0
 40
1.0
 50
270.0
 51
90.000003000000007
  0
ARC
  5
8EF
  8
0
  6
CONTINUOUS
 62
     3
 10
-1053.4411999999991
 20
220.90231
 30
0.0
 40
1.000011999999999
 50
89.726507999999981
 51
270.27347999999989
  0
ARC
  5
8F0
  8
0
  6
CONTINUOUS
 62
     3
 10
-1053.4411999999991
 20
230.90231
 30
0.0
 40
1.000011999999999
 50
89.726507999999981
 51
270.27347999999989
  0
ARC
  5
8F1
  8
0
  6
CONTINUOUS
 62
     3
 10
-1069.8864000000001
 20
240.90231
 30
0.0
 40
1.0
 50
90.000003000000007
 51
270.0
  0
ARC
  5
8F2
  8
0
  6
CONTINUOUS
 62
     3
 10
-931.61645999999996
 20
210.8573499999998
 30
0.0
 40
1.675003999999999
 50
270.0
 51
90.000003000000007
  0
ARC
  5
8F3
  8
0
  6
CONTINUOUS
 62
     3
 10
-935.09644000000003
 20
280.90231
 30
0.0
 40
1.0
 50
270.0
 51
90.000003000000007
  0
ARC
  5
8F4
  8
0
  6
CONTINUOUS
 62
     7
 10
-787.43646000000001
 20
447.11234000000002
 30
0.0
 40
2.0
 50
90.000003000000007
 51
180.00001
  0
ARC
  5
8F5
  8
0
  6
CONTINUOUS
 62
     7
 10
-789.43640000000005
 20
425.48253999999991
 30
0.0
 40
5.0
 50
329.34933000000001
 51
0.0
  0
ARC
  5
8F6
  8
0
  6
CONTINUOUS
 62
     3
 10
-1066.2731000000001
 20
204.31422000000001
 30
0.0
 40
4.9985837999999987
 50
5.3731198999999981
 51
80.364975999999999
  0
ARC
  5
8F7
  8
0
  6
CONTINUOUS
 62
     3
 10
-1078.1905999999981
 20
198.30156999999991
 30
0.0
 40
0.99928796
 50
242.86126999999991
 51
269.66618999999992
  0
ARC
  5
8F8
  8
0
  6
CONTINUOUS
 62
     3
 10
-1078.1557999999991
 20
197.15337999999991
 30
0.0
 40
1.0011358999999991
 50
239.328
 51
269.38751000000002
  0
ARC
  5
8F9
  8
0
  6
CONTINUOUS
 62
     3
 10
-1079.4408000000001
 20
198.93268
 30
0.0
 40
0.9956679299999999
 50
180.02043
 51
243.40982999999991
  0
ARC
  5
8FA
  8
0
  6
CONTINUOUS
 62
     3
 10
-1079.4386999999981
 20
197.88699
 30
0.0
 40
0.9976240400000001
 50
180.2675099999999
 51
240.07953999999981
  0
ARC
  5
8FB
  8
0
  6
CONTINUOUS
 62
     3
 10
-1065.8063999999999
 20
208.24950000000001
 30
0.0
 40
6.0085920999999987
 50
273.53095000000002
 51
314.61478
  0
ARC
  5
8FC
  8
0
  6
CONTINUOUS
 62
     7
 10
-908.43640000000005
 20
300.40230999999989
 30
0.0
 40
3.0
 50
270.0
 51
0.0
  0
ARC
  5
8FD
  8
0
  6
CONTINUOUS
 62
     7
 10
-834.43640000000005
 20
353.26238999999993
 30
0.0
 40
4.0
 50
272.0
 51
350.16761000000002
  0
ARC
  5
8FE
  8
0
  6
CONTINUOUS
 62
     7
 10
-910.43640000000005
 20
315.25457999999992
 30
0.0
 40
5.0
 50
272.0
 51
0.0
  0
ARC
  5
8FF
  8
0
  6
CONTINUOUS
 62
     7
 10
-902.43646000000001
 20
343.88347999999991
 30
0.0
 40
3.0
 50
91.999998000000005
 51
180.00001
  0
ARC
  5
900
  8
0
  6
CONTINUOUS
 62
     7
 10
-829.89477999999986
 20
204.44018999999989
 30
0.0
 40
4.0
 50
88.0
 51
107.3416099999999
  0
ARC
  5
901
  8
0
  6
CONTINUOUS
 62
     3
 10
-1055.8248000000001
 20
181.10568000000001
 30
0.0
 40
1.4966440000000001
 50
14.57574
 51
90.058278000000001
  0
ARC
  5
902
  8
0
  6
CONTINUOUS
 62
     3
 10
-999.43975999999986
 20
182.6656599999998
 30
0.0
 40
2.0033560000000001
 50
270.09593999999998
 51
359.90406000000002
  0
ARC
  5
903
  8
0
  6
CONTINUOUS
 62
     3
 10
-999.44243999999992
 20
184.0183599999998
 30
0.0
 40
2.0060479999999981
 50
270.17248999999998
 51
359.82751000000002
  0
ARC
  5
904
  8
0
  6
CONTINUOUS
 62
     3
 10
-1055.9362000000001
 20
182.7325699999999
 30
0.0
 40
1.499755999999999
 50
359.99058999999983
 51
90.009407999999965
  0
ARC
  5
905
  8
0
  6
CONTINUOUS
 62
     3
 10
-1078.2114999999981
 20
293.50830000000002
 30
0.0
 40
0.9941280500000002
 50
89.122808000000006
 51
115.93481
  0
ARC
  5
906
  8
0
  6
CONTINUOUS
 62
     3
 10
-1078.129799999999
 20
288.03609999999992
 30
0.0
 40
0.9962120099999999
 50
90.381906000000001
 51
123.9699
  0
ARC
  5
907
  8
0
  6
CONTINUOUS
 62
     3
 10
-1078.201299999999
 20
291.40694999999999
 30
0.0
 40
0.99546796
 50
89.141447999999983
 51
117.2036599999999
  0
ARC
  5
908
  8
0
  6
CONTINUOUS
 62
     3
 10
-1078.1676
 20
292.5481299999999
 30
0.0
 40
0.9942600099999999
 50
89.355881999999966
 51
120.78109000000001
  0
ARC
  5
909
  8
0
  6
CONTINUOUS
 62
     3
 10
-1078.174299999999
 20
294.65643
 30
0.0
 40
0.9959119600000002
 50
89.541443999999998
 51
119.6069899999999
  0
ARC
  5
90A
  8
0
  6
CONTINUOUS
 62
     7
 10
-840.69879000000003
 20
293.40231
 30
0.0
 40
4.0
 50
315.0
 51
90.000003000000007
  0
ARC
  5
90B
  8
0
  6
CONTINUOUS
 62
     3
 10
-1079.4408000000001
 20
292.88198999999992
 30
0.0
 40
0.99558806
 50
116.58749
 51
179.98224999999991
  0
ARC
  5
90C
  8
0
  6
CONTINUOUS
 62
     3
 10
-1079.4431999999979
 20
293.92023
 30
0.0
 40
0.99319202
 50
119.7734
 51
179.87956
  0
ARC
  5
90D
  8
0
  6
CONTINUOUS
 62
     3
 10
-1055.9392
 20
305.67514
 30
0.0
 40
1.502835899999998
 50
270.10793999999999
 51
359.89206000000001
  0
ARC
  5
90E
  8
0
  6
CONTINUOUS
 62
     3
 10
-999.43462999999997
 20
309.14400999999992
 30
0.0
 40
1.9982921
 50
359.95102999999978
 51
90.048975000000013
  0
ARC
  5
90F
  8
0
  6
CONTINUOUS
 62
     3
 10
-999.43731999999954
 20
307.79138
 30
0.0
 40
2.0009238999999992
 50
0.026462999
 51
89.973535999999982
  0
ARC
  5
910
  8
0
  6
CONTINUOUS
 62
     3
 10
-1055.8297
 20
310.70531999999992
 30
0.0
 40
1.503015999999997
 50
270.12945000000002
 51
345.23653999999999
  0
ARC
  5
911
  8
0
  6
CONTINUOUS
 62
     3
 10
-1055.9412999999979
 20
309.07718
 30
0.0
 40
1.5048719999999991
 50
270.18518
 51
359.81482
  0
ARC
  5
912
  8
0
  6
CONTINUOUS
 62
     7
 10
-794.93646000000001
 20
386.77814000000001
 30
0.0
 40
10.0
 50
149.34933000000001
 51
180.00001
  0
CIRCLE
  5
913
  8
0
  6
CONTINUOUS
 62
     7
 10
-225.33674999999991
 20
327.11234000000002
 30
0.0
 40
6.0
  0
ARC
  5
914
  8
0
  6
CONTINUOUS
 62
     7
 10
-809.9364599999999
 20
203.24260000000001
 30
0.0
 40
5.0
 50
0.0
 51
88.0
  0
ARC
  5
915
  8
0
  6
CONTINUOUS
 62
     3
 10
-1052.4425000000001
 20
181.99236999999999
 30
0.0
 40
2.000076099999998
 50
194.77497999999991
 51
270.17352999999991
  0
ARC
  5
916
  8
0
  6
CONTINUOUS
 62
     3
 10
-1055.9391000000001
 20
186.13958999999991
 30
0.0
 40
1.502715899999999
 50
0.103436
 51
89.896566000000007
  0
ARC
  5
917
  8
0
  6
CONTINUOUS
 62
     3
 10
-1055.9380000000001
 20
191.42072999999991
 30
0.0
 40
1.501567999999998
 50
0.059805003
 51
89.940196999999998
  0
ARC
  5
918
  8
0
  6
CONTINUOUS
 62
     3
 10
-1052.4376999999999
 20
182.66093000000001
 30
0.0
 40
1.9986198999999969
 50
179.9604699999999
 51
270.03952999999967
  0
ARC
  5
919
  8
0
  6
CONTINUOUS
 62
     7
 10
-853.26909999999964
 20
332.93648999999982
 30
0.0
 40
4.0
 50
272.0
 51
315.0
  0
ARC
  5
91A
  8
0
  6
CONTINUOUS
 62
     7
 10
-895.43639999999982
 20
209.86498999999981
 30
0.0
 40
5.0
 50
88.0
 51
180.00001
  0
ARC
  5
91B
  8
0
  6
CONTINUOUS
 62
     7
 10
-789.43640000000005
 20
146.63565
 30
0.0
 40
5.0
 50
0.0
 51
37.777244000000003
  0
ARC
  5
91C
  8
0
  6
CONTINUOUS
 62
     7
 10
-638.43646000000001
 20
451.89641999999998
 30
0.0
 40
5.0
 50
301.18236000000002
 51
0.0
  0
ARC
  5
91D
  8
0
  6
CONTINUOUS
 62
     7
 10
-671.49805000000003
 20
420.19872999999978
 30
0.0
 40
5.0
 50
121.18236
 51
180.00001
  0
ARC
  5
91E
  8
0
  6
CONTINUOUS
 62
     7
 10
-671.49805000000003
 20
417.98586999999992
 30
0.0
 40
5.0
 50
179.99998999999991
 51
270.0
  0
ARC
  5
91F
  8
0
  6
CONTINUOUS
 62
     7
 10
-647.74322999999981
 20
417.98586999999992
 30
0.0
 40
5.0
 50
270.0
 51
306.25555000000008
  0
ARC
  5
920
  8
0
  6
CONTINUOUS
 62
     7
 10
-674.33130000000006
 20
141.9657599999999
 30
0.0
 40
10.0
 50
268.5
 51
300.0
  0
ARC
  5
921
  8
0
  6
CONTINUOUS
 62
     7
 10
-654.91674999999998
 20
461.77410999999989
 30
0.0
 40
10.0
 50
271.49999999999972
 51
315.0
  0
ARC
  5
922
  8
0
  6
CONTINUOUS
 62
     7
 10
-626.14404000000002
 20
285.36295000000001
 30
0.0
 40
8.0
 50
185.29823999999991
 51
270.0
  0
ARC
  5
923
  8
0
  6
CONTINUOUS
 62
     7
 10
-632.43646000000001
 20
451.46145999999987
 30
0.0
 40
8.0
 50
0.0
 51
90.000003000000007
  0
ARC
  5
924
  8
0
  6
CONTINUOUS
 62
     7
 10
-632.43646000000001
 20
393.44896999999992
 30
0.0
 40
8.0
 50
0.0
 51
90.000003000000007
  0
ARC
  5
925
  8
0
  6
CONTINUOUS
 62
     7
 10
-632.43646000000001
 20
202.76320000000001
 30
0.0
 40
8.0
 50
270.0
 51
0.0
  0
ARC
  5
926
  8
0
  6
CONTINUOUS
 62
     7
 10
-632.43646000000001
 20
242.77567999999999
 30
0.0
 40
8.0
 50
270.0
 51
0.0
  0
ARC
  5
927
  8
0
  6
CONTINUOUS
 62
     7
 10
-98.731064000000003
 20
317.11234000000002
 30
0.0
 40
5.0
 50
270.0
 51
355.48385000000002
  0
ARC
  5
928
  8
0
  6
CONTINUOUS
 62
     7
 10
-365.82882999999993
 20
186.6202099999999
 30
0.0
 40
20.0
 50
183.00001
 51
267.0
  0
ARC
  5
929
  8
0
  6
CONTINUOUS
 62
     7
 10
-225.33674999999991
 20
327.11234000000002
 30
0.0
 40
75.0
 50
0.0
 51
37.096792999999991
  0
ARC
  5
92A
  8
0
  6
CONTINUOUS
 62
     7
 10
-84.844650000000001
 20
186.6202099999999
 30
0.0
 40
20.0
 50
273.0
 51
357.0
  0
ARC
  5
92B
  8
0
  6
CONTINUOUS
 62
     7
 10
-365.82882999999993
 20
467.60442999999998
 30
0.0
 40
20.0
 50
92.999999000000017
 51
176.99999
  0
ARC
  5
92C
  8
0
  6
CONTINUOUS
 62
     7
 10
-84.844650000000001
 20
467.60442999999998
 30
0.0
 40
20.0
 50
3.0000000999999981
 51
86.999998999999988
  0
ARC
  5
92D
  8
0
  6
CENTER
 62
     7
 10
-225.33674999999991
 20
327.11234000000002
 30
0.0
 40
195.0
 50
218.16531999999989
 51
231.33641
  0
ARC
  5
92E
  8
0
  6
CENTER
 62
     7
 10
-225.33674999999991
 20
327.11234000000002
 30
0.0
 40
195.0
 50
128.58763999999999
 51
140.91562999999999
  0
CIRCLE
  5
92F
  8
0
  6
CONTINUOUS
 62
     7
 10
-87.450928000000005
 20
189.22651999999991
 30
0.0
 40
9.5
  0
ARC
  5
930
  8
0
  6
CENTER
 62
     7
 10
-225.33674999999991
 20
327.11234000000002
 30
0.0
 40
195.0
 50
39.367218999999999
 51
50.896189000000007
  0
CIRCLE
  5
931
  8
0
  6
CONTINUOUS
 62
     7
 10
-363.22255999999987
 20
189.22651999999991
 30
0.0
 40
9.5
  0
ARC
  5
932
  8
0
  6
CENTER
 62
     7
 10
-225.33674999999991
 20
327.11234000000002
 30
0.0
 40
195.0
 50
308.1209199999999
 51
320.71086000000008
  0
CIRCLE
  5
933
  8
0
  6
CONTINUOUS
 62
     7
 10
-363.22255999999987
 20
464.99813999999992
 30
0.0
 40
9.5
  0
CIRCLE
  5
934
  8
0
  6
CONTINUOUS
 62
     7
 10
-87.450928000000005
 20
464.99813999999992
 30
0.0
 40
9.5
  0
ARC
  5
935
  8
0
  6
CONTINUOUS
 62
     7
 10
-145.33675999999991
 20
317.11234000000002
 30
0.0
 40
5.0
 50
179.99998999999991
 51
270.0
  0
ARC
  5
936
  8
0
  6
CONTINUOUS
 62
     7
 10
-305.33672999999999
 20
317.11234000000002
 30
0.0
 40
5.0
 50
270.0
 51
0.0
  0
ARC
  5
937
  8
0
  6
CONTINUOUS
 62
     7
 10
-128.09351999999981
 20
408.79921999999999
 30
0.0
 40
5.0
 50
40.031147999999973
 51
135.0
  0
ARC
  5
938
  8
0
  6
CONTINUOUS
 62
     7
 10
-322.58001999999999
 20
408.79921999999999
 30
0.0
 40
5.0
 50
45.00000099999999
 51
139.96885
  0
CIRCLE
  5
939
  8
0
  6
CONTINUOUS
 62
     7
 10
-225.33674999999991
 20
327.11234000000002
 30
0.0
 40
140.0
  0
ARC
  5
93A
  8
0
  6
CONTINUOUS
 62
     7
 10
-711.43646000000001
 20
202.35822999999999
 30
0.0
 40
5.0
 50
90.000003000000007
 51
180.00001
  0
ARC
  5
93B
  8
0
  6
CONTINUOUS
 62
     7
 10
-225.33674999999991
 20
327.11234000000002
 30
0.0
 40
60.0
 50
270.0
 51
90.000003000000007
  0
ARC
  5
93C
  8
0
  6
CONTINUOUS
 62
     7
 10
-289.1461799999999
 20
375.36538999999988
 30
0.0
 40
5.0
 50
322.90320999999989
 51
45.00000099999999
  0
ARC
  5
93D
  8
0
  6
CONTINUOUS
 62
     7
 10
-225.33674999999991
 20
327.11234000000002
 30
0.0
 40
60.0
 50
90.000003000000007
 51
270.0
  0
ARC
  5
93E
  8
0
  6
CONTINUOUS
 62
     7
 10
-628.4364599999999
 20
167.11231999999981
 30
0.0
 40
5.0
 50
179.99998999999991
 51
270.0
  0
ARC
  5
93F
  8
0
  6
CONTINUOUS
 62
     7
 10
-307.02364999999998
 20
424.3555599999998
 30
0.0
 40
5.0
 50
130.03115
 51
225.0
  0
ARC
  5
940
  8
0
  6
CONTINUOUS
 62
     7
 10
-351.94241
 20
317.11234000000002
 30
0.0
 40
5.0
 50
184.51616000000001
 51
270.0
  0
CIRCLE
  5
941
  8
0
  6
CONTINUOUS
 62
     7
 10
-225.33674999999991
 20
327.11234000000002
 30
0.0
 40
132.0
  0
ARC
  5
942
  8
0
  6
CONTINUOUS
 62
     7
 10
-161.5273599999999
 20
375.36538999999988
 30
0.0
 40
5.0
 50
135.0
 51
217.0967999999998
  0
ARC
  5
943
  8
0
  6
CONTINUOUS
 62
     7
 10
-192.33675999999991
 20
233.78314
 30
0.0
 40
102.81999
 50
305.0
 51
317.98482000000001
  0
ARC
  5
944
  8
0
  6
CONTINUOUS
 62
     7
 10
-163.4897499999999
 20
144.11231999999981
 30
0.0
 40
12.82
 50
270.0
 51
305.0
  0
ARC
  5
945
  8
0
  6
CONTINUOUS
 62
     7
 10
-287.18377999999967
 20
144.11231999999981
 30
0.0
 40
12.82
 50
235.0
 51
270.0
  0
ARC
  5
946
  8
0
  6
CONTINUOUS
 62
     7
 10
-258.33676000000003
 20
233.78314
 30
0.0
 40
102.81999
 50
222.01517999999999
 51
235.0
  0
ARC
  5
947
  8
0
  6
CONTINUOUS
 62
     7
 10
-273.58983999999992
 20
390.92171999999999
 30
0.0
 40
5.0
 50
225.0
 51
307.09678999999983
  0
ARC
  5
948
  8
0
  6
CONTINUOUS
 62
     7
 10
-177.0836899999999
 20
390.92171999999999
 30
0.0
 40
5.0
 50
232.9032099999998
 51
315.0
  0
ARC
  5
949
  8
0
  6
CONTINUOUS
 62
     7
 10
-143.64985999999999
 20
424.3555599999998
 30
0.0
 40
5.0
 50
315.0
 51
49.968851000000001
  0
ARC
  5
94A
  8
0
  6
CONTINUOUS
 62
     7
 10
-628.4364599999999
 20
486.51558999999992
 30
0.0
 40
5.0
 50
91.999998000000005
 51
180.00001
  0
ARC
  5
94B
  8
0
  6
CONTINUOUS
 62
     7
 10
-225.33674999999991
 20
327.11234000000002
 30
0.0
 40
75.0
 50
142.90321
 51
180.00001
  0
ARC
  5
94C
  8
0
  6
CONTINUOUS
 62
     7
 10
-225.33674999999991
 20
327.11234000000002
 30
0.0
 40
75.0
 50
52.903206000000019
 51
127.0967899999999
  0
ARC
  5
94D
  8
0
  6
CONTINUOUS
 62
     7
 10
-711.43646000000001
 20
187.71338
 30
0.0
 40
5.0
 50
179.99998999999991
 51
270.0
  0
ARC
  5
94E
  8
0
  6
CONTINUOUS
 62
     7
 10
-632.43646000000001
 20
705.82117000000005
 30
0.0
 40
8.0
 50
270.0
 51
0.0
  0
ARC
  5
94F
  8
0
  6
CONTINUOUS
 62
     7
 10
-640.45421999999985
 20
630.10460999999975
 30
0.0
 40
5.0
 50
45.00000099999999
 51
88.0
  0
ARC
  5
950
  8
0
  6
CONTINUOUS
 62
     7
 10
-640.45421999999985
 20
914.21105999999997
 30
0.0
 40
5.0
 50
272.0
 51
315.0
  0
ARC
  5
951
  8
0
  6
CONTINUOUS
 62
     7
 10
-628.4364599999999
 20
612.75458000000003
 30
0.0
 40
5.0
 50
179.99998999999991
 51
268.00000999999992
  0
ARC
  5
952
  8
0
  6
CONTINUOUS
 62
     7
 10
-583.43645999999978
 20
772.15778
 30
0.0
 40
8.0000113999999982
 50
90.000003000000007
 51
270.0
  0
ARC
  5
953
  8
0
  6
CONTINUOUS
 62
     7
 10
-671.49805000000003
 20
681.28430000000003
 30
0.0
 40
5.0
 50
90.000003000000007
 51
180.00001
  0
ARC
  5
954
  8
0
  6
CONTINUOUS
 62
     7
 10
-638.43646000000001
 20
647.37372000000016
 30
0.0
 40
5.0
 50
0.0
 51
58.817641000000002
  0
ARC
  5
955
  8
0
  6
CONTINUOUS
 62
     7
 10
-671.49805000000003
 20
679.07141000000001
 30
0.0
 40
5.0
 50
179.99998999999991
 51
238.8176499999999
  0
ARC
  5
956
  8
0
  6
CONTINUOUS
 62
     7
 10
-647.74322999999981
 20
681.28430000000003
 30
0.0
 40
5.0
 50
53.744453
 51
90.000003000000007
  0
ARC
  5
957
  8
0
  6
CONTINUOUS
 62
     7
 10
-632.43646000000001
 20
647.80871999999999
 30
0.0
 40
8.0
 50
270.0
 51
0.0
  0
ARC
  5
958
  8
0
  6
CONTINUOUS
 62
     7
 10
-628.4364599999999
 20
931.56110000000001
 30
0.0
 40
5.0
 50
91.999998000000005
 51
180.00001
  0
ARC
  5
959
  8
0
  6
CONTINUOUS
 62
     7
 10
-632.43646000000001
 20
838.49444999999969
 30
0.0
 40
8.0
 50
0.0
 51
90.000003000000007
  0
ARC
  5
95A
  8
0
  6
CONTINUOUS
 62
     7
 10
-632.43646000000001
 20
896.50695999999971
 30
0.0
 40
8.0
 50
0.0
 51
90.000003000000007
  0
ARC
  5
95B
  8
0
  6
CONTINUOUS
 62
     7
 10
-647.74322999999981
 20
863.03137000000004
 30
0.0
 40
5.0
 50
270.0
 51
306.25555000000008
  0
ARC
  5
95C
  8
0
  6
CONTINUOUS
 62
     7
 10
-671.49805000000003
 20
865.24419999999998
 30
0.0
 40
5.0
 50
121.18236
 51
180.00001
  0
ARC
  5
95D
  8
0
  6
CONTINUOUS
 62
     7
 10
-638.43646000000001
 20
896.94188999999994
 30
0.0
 40
5.0
 50
301.18236000000002
 51
0.0
  0
ARC
  5
95E
  8
0
  6
CONTINUOUS
 62
     7
 10
-671.49805000000003
 20
863.03137000000004
 30
0.0
 40
5.0
 50
179.99998999999991
 51
270.0
  0
POLYLINE
  5
95F
  8
0
  6
CONTINUOUS
 62
     7
 66
     1
 10
0.0
 20
0.0
 30
0.0
  0
VERTEX
  5
960
  8
0
  6
CONTINUOUS
 62
     7
 10
-830.43640000000005
 20
704.15783999999985
 30
0.0
  0
VERTEX
  5
961
  8
0
  6
CONTINUOUS
 62
     7
 10
-850.1727699999999
 20
755.22782999999981
 30
0.0
 42
-1.0
  0
SEQEND
  5
962
  8
0
 62
     7
  0
POLYLINE
  5
963
  8
0
  6
CONTINUOUS
 62
     7
 66
     1
 10
0.0
 20
0.0
 30
0.0
  0
VERTEX
  5
964
  8
0
  6
CONTINUOUS
 62
     7
 10
-850.17281999999955
 20
789.08755999999983
 30
0.0
 42
-0.03710785
  0
VERTEX
  5
965
  8
0
  6
CONTINUOUS
 62
     7
 10
-845.89463999999998
 20
806.93377999999973
 30
0.0
 42
-0.032389942
  0
VERTEX
  5
966
  8
0
  6
CONTINUOUS
 62
     7
 10
-839.19218000000023
 20
824.02229999999963
 30
0.0
 42
-0.029578822
  0
VERTEX
  5
967
  8
0
  6
CONTINUOUS
 62
     7
 10
-830.43640000000005
 20
840.15783999999985
 30
0.0
  0
SEQEND
  5
968
  8
0
 62
     7
  0
POLYLINE
  5
969
  8
0
  6
CONTINUOUS
 62
     7
 66
     1
 10
0.0
 20
0.0
 30
0.0
  0
VERTEX
  5
96A
  8
0
  6
CONTINUOUS
 62
     7
 10
-638.31133999999997
 20
909.28283999999996
 30
0.0
  0
VERTEX
  5
96B
  8
0
  6
CONTINUOUS
 62
     7
 10
-641.54160000000002
 20
889.21833000000015
 30
0.0
 42
-1.0
  0
SEQEND
  5
96C
  8
0
 62
     7
  0
POLYLINE
  5
96D
  8
0
  6
CONTINUOUS
 62
     7
 66
     1
 10
0.0
 20
0.0
 30
0.0
  0
VERTEX
  5
96E
  8
0
  6
CONTINUOUS
 62
     7
 10
-643.35292000000004
 20
656.19353999999998
 30
0.0
 42
0.0020909347
  0
VERTEX
  5
96F
  8
0
  6
CONTINUOUS
 62
     7
 10
-642.38706999999999
 20
649.15302999999994
 30
0.0
 42
0.0020881749
  0
VERTEX
  5
970
  8
0
  6
CONTINUOUS
 62
     7
 10
-641.36249000000021
 20
642.12140999999997
 30
0.0
 42
0.0020849591
  0
VERTEX
  5
971
  8
0
  6
CONTINUOUS
 62
     7
 10
-640.27972
 20
635.10155999999995
 30
0.0
  0
SEQEND
  5
972
  8
0
 62
     7
  0
POLYLINE
  5
973
  8
0
  6
CONTINUOUS
 62
     7
 66
     1
 10
0.0
 20
0.0
 30
0.0
  0
VERTEX
  5
974
  8
0
  6
CONTINUOUS
 62
     7
 10
-645.5336299999999
 20
858.54609000000005
 30
0.0
 42
0.01720808
  0
VERTEX
  5
975
  8
0
  6
CONTINUOUS
 62
     7
 10
-649.94989999999996
 20
801.17089999999973
 30
0.0
 42
0.0088311605
  0
VERTEX
  5
976
  8
0
  6
CONTINUOUS
 62
     7
 10
-650.66674999999975
 20
772.15783999999985
 30
0.0
 42
0.025919753
  0
VERTEX
  5
977
  8
0
  6
CONTINUOUS
 62
     7
 10
-646.79791999999998
 20
686.19415000000004
 30
0.0
  0
SEQEND
  5
978
  8
0
 62
     7
  0
TEXT
  5
B28
  8
0
  6
CONTINUOUS
 62
     0
 10
-384.71020497575591
 20
741.24067280742611
 30
0.0
 40
15.0
  1
VX04-800MF~VX04-K20MF
  0
ENDSEC
  0
EOF
