  0
SECTION
  2
HEADER
  9
$ACADVER
  1
AC1009
  9
$INSBASE
 10
0.0
 20
0.0
 30
0.0
  9
$EXTMIN
 10
46.337176103061438
 20
219.48896431513549
 30
-0.000000000000013
  9
$EXTMAX
 10
745.49714143852248
 20
674.72418794559303
 30
0.0000000000000023
  9
$LIMMIN
 10
0.0000005999945643
 20
-0.0000005963913736
  9
$LIMMAX
 10
853.50000059999445
 20
554.99999940360874
  9
$ORTHOMODE
 70
     0
  9
$REGENMODE
 70
     1
  9
$FILLMODE
 70
     1
  9
$QTEXTMODE
 70
     0
  9
$MIRRTEXT
 70
     0
  9
$DRAGMODE
 70
     2
  9
$LTSCALE
 40
1.0
  9
$OSMODE
 70
   551
  9
$ATTMODE
 70
     1
  9
$TEXTSIZE
 40
2.5
  9
$TRACEWID
 40
1.0
  9
$TEXTSTYLE
  7
STANDARD
  9
$CLAYER
  8
0
  9
$CELTYPE
  6
BYLAYER
  9
$CECOLOR
 62
   256
  9
$DIMSCALE
 40
1.0
  9
$DIMASZ
 40
2.0
  9
$DIMEXO
 40
1.0
  9
$DIMDLI
 40
8.0
  9
$DIMRND
 40
0.0
  9
$DIMDLE
 40
0.0
  9
$DIMEXE
 40
1.0
  9
$DIMTP
 40
-0.025
  9
$DIMTM
 40
0.043
  9
$DIMTXT
 40
2.5
  9
$DIMCEN
 40
0.0
  9
$DIMTSZ
 40
0.0
  9
$DIMTOL
 70
     0
  9
$DIMLIM
 70
     0
  9
$DIMTIH
 70
     0
  9
$DIMTOH
 70
     0
  9
$DIMSE1
 70
     0
  9
$DIMSE2
 70
     0
  9
$DIMTAD
 70
     3
  9
$DIMZIN
 70
     8
  9
$DIMBLK
  1

  9
$DIMASO
 70
     1
  9
$DIMSHO
 70
     1
  9
$DIMPOST
  1

  9
$DIMAPOST
  1
"
  9
$DIMALT
 70
     0
  9
$DIMALTD
 70
     2
  9
$DIMALTF
 40
0.0393701
  9
$DIMLFAC
 40
1.0
  9
$DIMTOFL
 70
     1
  9
$DIMTVP
 40
0.0
  9
$DIMTIX
 70
     0
  9
$DIMSOXD
 70
     0
  9
$DIMSAH
 70
     0
  9
$DIMBLK1
  1

  9
$DIMBLK2
  1

  9
$DIMSTYLE
  2
AM_JIS
  9
$DIMCLRD
 70
     2
  9
$DIMCLRE
 70
     2
  9
$DIMCLRT
 70
     4
  9
$DIMTFAC
 40
0.71
  9
$DIMGAP
 40
1.5
  9
$LUNITS
 70
     2
  9
$LUPREC
 70
     2
  9
$SKETCHINC
 40
1.0
  9
$FILLETRAD
 40
0.0
  9
$AUNITS
 70
     0
  9
$AUPREC
 70
     0
  9
$MENU
  1
.
  9
$ELEVATION
 40
0.0
  9
$PELEVATION
 40
0.0
  9
$THICKNESS
 40
0.0
  9
$LIMCHECK
 70
     0
  9
$BLIPMODE
 70
     0
  9
$CHAMFERA
 40
1.5
  9
$CHAMFERB
 40
1.5
  9
$SKPOLY
 70
     0
  9
$TDCREATE
 40
2456829.3841110538
  9
$TDUPDATE
 40
2458540.6517373379
  9
$TDINDWG
 40
0.5543904861
  9
$TDUSRTIMER
 40
0.5543897454
  9
$USRTIMER
 70
     1
  9
$ANGBASE
 50
0.0
  9
$ANGDIR
 70
     0
  9
$PDMODE
 70
     0
  9
$PDSIZE
 40
0.0
  9
$PLINEWID
 40
0.0
  9
$COORDS
 70
     1
  9
$SPLFRAME
 70
     0
  9
$SPLINETYPE
 70
     6
  9
$SPLINESEGS
 70
     8
  9
$ATTDIA
 70
     1
  9
$ATTREQ
 70
     1
  9
$HANDLING
 70
     1
  9
$HANDSEED
  5
694B
  9
$SURFTAB1
 70
     6
  9
$SURFTAB2
 70
     6
  9
$SURFTYPE
 70
     6
  9
$SURFU
 70
     6
  9
$SURFV
 70
     6
  9
$UCSNAME
  2

  9
$UCSORG
 10
0.0
 20
0.0
 30
0.0
  9
$UCSXDIR
 10
1.0
 20
0.0
 30
0.0
  9
$UCSYDIR
 10
0.0
 20
1.0
 30
0.0
  9
$PUCSNAME
  2

  9
$PUCSORG
 10
0.0
 20
0.0
 30
0.0
  9
$PUCSXDIR
 10
1.0
 20
0.0
 30
0.0
  9
$PUCSYDIR
 10
0.0
 20
1.0
 30
0.0
  9
$USERI1
 70
     0
  9
$USERI2
 70
     0
  9
$USERI3
 70
     0
  9
$USERI4
 70
     0
  9
$USERI5
 70
     0
  9
$USERR1
 40
0.0
  9
$USERR2
 40
0.0
  9
$USERR3
 40
0.0
  9
$USERR4
 40
0.0
  9
$USERR5
 40
0.0
  9
$WORLDVIEW
 70
     1
  9
$SHADEDGE
 70
     3
  9
$SHADEDIF
 70
    70
  9
$TILEMODE
 70
     1
  9
$MAXACTVP
 70
    64
  9
$PLIMCHECK
 70
     0
  9
$PEXTMIN
 10
1.0000000000000000E+020
 20
1.0000000000000000E+020
 30
1.0000000000000000E+020
  9
$PEXTMAX
 10
-1.0000000000000000E+020
 20
-1.0000000000000000E+020
 30
-1.0000000000000000E+020
  9
$PLIMMIN
 10
0.0
 20
0.0
  9
$PLIMMAX
 10
420.0
 20
297.0
  9
$UNITMODE
 70
     0
  9
$VISRETAIN
 70
     1
  9
$PLINEGEN
 70
     0
  9
$PSLTSCALE
 70
     1
  0
ENDSEC
  0
SECTION
  2
TABLES
  0
TABLE
  2
VPORT
 70
     1
  0
VPORT
  2
*ACTIVE
 70
     0
 10
0.0
 20
0.0
 11
1.0
 21
1.0
 12
395.91715877079201
 22
447.1065761303642
 13
0.0
 23
0.0
 14
7.5
 24
7.5
 15
30.0
 25
30.0
 16
0.0
 26
0.0
 36
1.0
 17
0.0
 27
0.0
 37
0.0
 40
458.36040823203962
 41
1.7571592210767459
 42
50.0
 43
0.0
 44
0.0
 50
0.0
 51
0.0
 71
    16
 72
  1000
 73
     1
 74
     3
 75
     0
 76
     0
 77
     0
 78
     0
  0
ENDTAB
  0
TABLE
  2
LTYPE
 70
    25
  0
LTYPE
  2
CONTINUOUS
 70
     0
  3
Solid line
 72
    65
 73
     0
 40
0.0
  0
LTYPE
  2
CENTER
 70
     0
  3
Center ____ _ ____ _ ____ _ ____ _ ____ _ ____
 72
    65
 73
     4
 40
50.799999999999997
 49
31.75
 49
-6.3499999999999979
 49
6.3499999999999979
 49
-6.3499999999999979
  0
LTYPE
  2
AM_ISO02W050
 70
     0
  3
__ __ __ __ __ __ __ __ __ __ __ __ __ __ __
 72
    65
 73
     2
 40
7.5
 49
6.0
 49
-1.5
  0
LTYPE
  2
AM_ISO08W050
 70
     0
  3
____ . ____ . ____ . ____ . ____ . ____ . ____
 72
    65
 73
     4
 40
18.0
 49
12.0
 49
-1.5
 49
3.0
 49
-1.5
  0
LTYPE
  2
AM_ISO09W050
 70
     0
  3
_____ . . _____ . . _____ . . ____ .. ____
 72
    65
 73
     6
 40
22.5
 49
12.0
 49
-1.5
 49
3.0
 49
-1.5
 49
3.0
 49
-1.5
  0
LTYPE
  2
AMCONSTR
 70
     0
  3
_______________________
 72
    65
 73
     2
 40
9999.0
 49
9999.0
 49
0.0
  0
LTYPE
  2
AM_ISO08W050X2
 70
     0
  3
__ . __ . __ . __ . __ . __
 72
    65
 73
     4
 40
9.0
 49
6.0
 49
-0.75
 49
1.5
 49
-0.75
  0
LTYPE
  2
AM_ISO02W050X2
 70
     0
  3
 _ _ _ _ _ _ _ _ _ _ _ _
 72
    65
 73
     2
 40
3.75
 49
3.0
 49
-0.75
  0
LTYPE
  2
AMZIGZAG
 70
     0
  3
/\/-/\/-/\/-/\/-/\/-/\/
 72
    65
 73
     2
 40
11.0001
 49
0.0001
 49
-11.0
  0
LTYPE
  2
ACANSTGBM
 70
     0
  3
__ . . __ . .
 72
    65
 73
     6
 40
9.0
 49
4.0
 49
-1.0
 49
1.0
 49
-1.0
 49
1.0
 49
-1.0
  0
LTYPE
  2
ACANSTGLM
 70
     0
  3
_ _ _ _ _
 72
    65
 73
     2
 40
3.0
 49
2.0
 49
-1.0
  0
LTYPE
  2
ACISOWELD
 70
     0
  3
_ _ _ _ _
 72
    65
 73
     2
 40
2.0
 49
2.0
 49
-1.0
  0
LTYPE
  2
ACISOTGB
 70
     0
  3
__ . . __ . .
 72
    65
 73
     6
 40
9.0
 49
4.0
 49
-1.0
 49
1.0
 49
-1.0
 49
1.0
 49
-1.0
  0
LTYPE
  2
ACISOTGL
 70
     0
  3
_ _ _ _ _
 72
    65
 73
     2
 40
3.0
 49
2.0
 49
-1.0
  0
LTYPE
  2
ACJISTGB
 70
     0
  3
__ . . __ . .
 72
    65
 73
     6
 40
9.0
 49
4.0
 49
-1.0
 49
1.0
 49
-1.0
 49
1.0
 49
-1.0
  0
LTYPE
  2
ACJISTGL
 70
     0
  3
_ _ _ _ _
 72
    65
 73
     2
 40
3.0
 49
2.0
 49
-1.0
  0
LTYPE
  2
HIDDEN
 70
     0
  3
Hidden __ __ __ __ __ __ __ __ __ __ __ __ __ _
 72
    65
 73
     2
 40
9.5249999999999968
 49
6.349999999999997
 49
-3.174999999999998
  0
LTYPE
  2
PHANTOM2
 70
     0
  3
Phantom (.5x) ___ _ _ ___ _ _ ___ _ _ ___ _ _
 72
    65
 73
     6
 40
31.75
 49
15.875
 49
-3.174999999999998
 49
3.174999999999998
 49
-3.174999999999998
 49
3.174999999999998
 49
-3.174999999999998
  0
LTYPE
  2
ACJISWELD
 70
     0
  3
_ _ _ _ _
 72
    65
 73
     2
 40
2.0
 49
2.0
 49
-1.0
  0
LTYPE
  2
CENTER2
 70
     0
  3
Center (.5x) ___ _ ___ _ ___ _ ___ _ ___ _ ___
 72
    65
 73
     4
 40
1.125
 49
0.75
 49
-0.125
 49
0.125
 49
-0.125
  0
LTYPE
  2
HIDDEN2
 70
     0
  3
Hidden (.5x) _ _ _ _ _ _ _ _ _ _ _ _ _ _ _ _ _
 72
    65
 73
     2
 40
0.1875
 49
0.125
 49
-0.0625
  0
LTYPE
  2
AMZIGZAG2
 70
     0
  3
/\/-/\/-/\/-/\/-/\/-/\/
 72
    65
 73
     2
 40
0.4401
 49
0.0001
 49
-0.4400000000000003
  0
LTYPE
  2
ACANSTGB
 70
     0
  3
__ . . __ . .
 72
    65
 73
     6
 40
0.35433070866
 49
0.15748031496
 49
-0.03937007874
 49
0.03937007874
 49
-0.03937007874
 49
0.03937007874
 49
-0.03937007874
  0
LTYPE
  2
ACANSTGL
 70
     0
  3
_ _ _ _ _
 72
    65
 73
     2
 40
0.11811023622
 49
0.07874015748
 49
-0.03937007874
  0
ENDTAB
  0
TABLE
  2
LAYER
 70
     4
  0
LAYER
  2
0
 70
     0
 62
     7
  6
CONTINUOUS
  0
LAYER
  2
DEFPOINTS
 70
     0
 62
     7
  6
CONTINUOUS
  0
LAYER
  2
AM_5
 70
     0
 62
     2
  6
CONTINUOUS
  0
LAYER
  2
AM_CL
 70
     0
 62
     1
  6
AMCONSTR
  0
ENDTAB
  0
TABLE
  2
STYLE
 70
     8
  0
STYLE
  2
STANDARD
 70
     0
 40
0.0
 41
0.7400000000000003
 50
0.0
 71
     0
 42
2.5
  3
txt.shx
  4
bigfont.shx
  0
STYLE
  2

 70
     1
 40
0.0
 41
1.0
 50
0.0
 71
     0
 42
2.5
  3
ltypeshp.shx
  4

  0
STYLE
  2
ACANSTS
 70
     0
 40
1.0
 41
1.0
 50
0.0
 71
     0
 42
2.5
  3
romans.shx
  4
bigfont.shx
  0
STYLE
  2
ACANSGDT
 70
     0
 40
0.0
 41
1.0
 50
0.0
 71
     0
 42
2.5
  3
amgdtans.shx
  4

  0
STYLE
  2
ACISOTS
 70
     0
 40
1.0
 41
1.0
 50
0.0
 71
     0
 42
2.5
  3
isocp.shx
  4
extfont.shx
  0
STYLE
  2
ACISOGDT
 70
     0
 40
0.0
 41
1.0
 50
0.0
 71
     0
 42
2.5
  3
amgdt.shx
  4

  0
STYLE
  2
ACJISGDT
 70
     0
 40
0.0
 41
1.0
 50
0.0
 71
     0
 42
2.5
  3
amgdt.shx
  4

  0
STYLE
  2
ACJISTS
 70
     0
 40
1.0
 41
1.0
 50
0.0
 71
     0
 42
2.5
  3
isocp.shx
  4
extfont.shx
  0
ENDTAB
  0
TABLE
  2
VIEW
 70
     6
  0
VIEW
  2
AM_VIEW1
 70
     0
 40
277.50000000000011
 10
293.3007123437668
 20
416.24999940360863
 41
586.60142348754459
 11
0.0
 21
0.0
 31
1.0
 12
0.0
 22
0.0
 32
0.0
 42
50.0
 43
0.0
 44
0.0
 50
0.0
 71
    16
  0
VIEW
  2
AM_VIEW2
 70
     0
 40
277.50000000000011
 10
560.1992888562221
 20
416.24999940360863
 41
586.60142348754459
 11
0.0
 21
0.0
 31
1.0
 12
0.0
 22
0.0
 32
0.0
 42
50.0
 43
0.0
 44
0.0
 50
0.0
 71
    16
  0
VIEW
  2
AM_VIEW3
 70
     0
 40
277.50000000000011
 10
293.3007123437668
 20
138.7499994036086
 41
586.60142348754459
 11
0.0
 21
0.0
 31
1.0
 12
0.0
 22
0.0
 32
0.0
 42
50.0
 43
0.0
 44
0.0
 50
0.0
 71
    16
  0
VIEW
  2
AM_VIEW4
 70
     0
 40
277.50000000000011
 10
560.1992888562221
 20
138.7499994036086
 41
586.60142348754459
 11
0.0
 21
0.0
 31
1.0
 12
0.0
 22
0.0
 32
0.0
 42
50.0
 43
0.0
 44
0.0
 50
0.0
 71
    16
  0
VIEW
  2
AM_VIEW5
 70
     0
 40
277.50000000000011
 10
426.75000059999451
 20
277.49999940360868
 41
586.60142348754459
 11
0.0
 21
0.0
 31
1.0
 12
0.0
 22
0.0
 32
0.0
 42
50.0
 43
0.0
 44
0.0
 50
0.0
 71
    16
  0
VIEW
  2
AM_VIEW6
 70
     0
 40
554.99445000000014
 10
426.75000059999451
 20
277.49999940360863
 41
1173.1911149466191
 11
0.0
 21
0.0
 31
1.0
 12
0.0
 22
0.0
 32
0.0
 42
50.0
 43
0.0
 44
0.0
 50
0.0
 71
    16
  0
ENDTAB
  0
TABLE
  2
UCS
 70
     0
  0
ENDTAB
  0
TABLE
  2
APPID
 70
   162
  0
APPID
  2
ACAD
 70
     0
  0
APPID
  2
ACADANNOTATIVE
 70
     0
  0
APPID
  2
ACAD_MLEADERVER
 70
     0
  0
APPID
  2
MCAD_NO_VIS
 70
     0
  0
APPID
  2
ACAD_TEMP_GRAPHIC
 70
     0
  0
APPID
  2
AD_DRAW
 70
     0
  0
APPID
  2
ACATTRIBSERVICES
 70
     0
  0
APPID
  2
DESIGNERASSEMBLIES
 70
     0
  0
APPID
  2
ACADM_DIM_EDIT
 70
     0
  0
APPID
  2
AMDT_DM_ADJ
 70
     0
  0
APPID
  2
GENIUS_GENDIMSH_14
 70
     0
  0
APPID
  2
GEVID1057795304
 70
     0
  0
APPID
  2
GEVDC
 70
     0
  0
APPID
  2
GEVCON
 70
     0
  0
APPID
  2
GENIUS_GENBH_13
 70
     0
  0
APPID
  2
GENIUS_GENOENT_13
 70
     0
  0
APPID
  2
GENIUS_GENOBJ-NBEHI-BHF_13
 70
     0
  0
APPID
  2
GENIUS_GENOLIS_13
 70
     0
  0
APPID
  2
GENIUS_GENODEF_13
 70
     0
  0
APPID
  2
GENIUS_GENOREF_13
 70
     0
  0
APPID
  2
GENIUS_GENOBJ-NBEHI-BHB_13
 70
     0
  0
APPID
  2
GENIUS_GENOBJ-F-SCPASSM_13
 70
     0
  0
APPID
  2
GENIUS_GENDTOL_13
 70
     0
  0
APPID
  2
GENIUS_GENTRA_14
 70
     0
  0
APPID
  2
ASURF_PCURVE_APPNAME
 70
     0
  0
APPID
  2
GENIUS_GENCFG_13
 70
     0
  0
APPID
  2
GENIUS_GE3CFG0_13
 70
     0
  0
APPID
  2
GENIUS_GENCFG0_13
 70
     0
  0
APPID
  2
GENIUS_GENCFG1_13
 70
     0
  0
APPID
  2
GENIUS_GENCFG2_13
 70
     0
  0
APPID
  2
GENIUS_GENCFG3_13
 70
     0
  0
APPID
  2
GENIUS_GENCFG4_13
 70
     0
  0
APPID
  2
GENIUS_GEVCFG0_13
 70
     0
  0
APPID
  2
GENIUS_GENOBJ-N-TIT_13
 70
     0
  0
APPID
  2
GENIUS_GENTITLE_13
 70
     0
  0
APPID
  2
GENIUS_GENSCREG_15
 70
     0
  0
APPID
  2
GENIUS_GENOBJ-N-SDF_13
 70
     0
  0
APPID
  2
GENIUS_GENFIL_13
 70
     0
  0
APPID
  2
GENIUS_GENOBJ-N-CHA_13
 70
     0
  0
APPID
  2
GENIUS_GEFSH_13
 70
     0
  0
APPID
  2
GENIUS_GENOBJ-F-SHS_13
 70
     0
  0
APPID
  2
GENIUS_GENOBJ-N-CEN_13
 70
     0
  0
APPID
  2
GENIUS_GENREC_14
 70
     0
  0
APPID
  2
GENIUS_GENOBJ-N-REC_13
 70
     0
  0
APPID
  2
GENIUS_GENOBJ-N-HTC_13
 70
     0
  0
APPID
  2
GENIUS_GENHATCH_13
 70
     0
  0
APPID
  2
ACAD_PSEXT
 70
     0
  0
APPID
  2
ACAD_EXEMPT_FROM_CAD_STANDARDS
 70
     0
  0
APPID
  2
ACAECLAYERSTANDARD
 70
     0
  0
APPID
  2
GENIUS_GENCEN_19
 70
     0
  0
APPID
  2
ACAD_DSTYLE_DIMINSPECT
 70
     0
  0
APPID
  2
ACAD_DSTYLE_DIMANGULAR_EXT
 70
     0
  0
APPID
  2
ACADANNOPO
 70
     0
  0
APPID
  2
ACAD_NAV_VCDISPLAY
 70
     0
  0
APPID
  2
GENIUS_GENOBJ-N-FIL_13
 70
     0
  0
APPID
  2
ACAUTHENVIRON
 70
     0
  0
APPID
  2
ACDBDYNAMICBLOCKTRUENAME
 70
     0
  0
APPID
  2
ACDBDYNAMICBLOCKGUID
 70
     0
  0
APPID
  2
ACDBBLOCKREPETAG
 70
     0
  0
APPID
  2
ACAD_DSTYLE_DIMBREAK
 70
     0
  0
APPID
  2
ACAD_DSTYLE_DIMJAG
 70
     0
  0
APPID
  2
GENIUS_DUMCFG0_13
 70
     0
  0
APPID
  2
ACAD_DSTYLE_DIMTEXT_FILL
 70
     0
  0
APPID
  2
AMG_2DHIDE
 70
     0
  0
APPID
  2
GENIUS_GEFSHEP_13
 70
     0
  0
APPID
  2
GENIUS_GENOBJ-F-SHE_13
 70
     0
  0
APPID
  2
GENIUS_GEFSHE_13
 70
     0
  0
APPID
  2
ACAD_DIMASSOC_DIMLFAC
 70
     0
  0
APPID
  2
ACAD_DIMASSOC_CALC_DIMLFAC
 70
     0
  0
APPID
  2
ACAD_DIMASSOC_OVERRIDDEN_D
 70
     0
  0
APPID
  2
GENIUS_GENOBJ-F-SHSV_13
 70
     0
  0
APPID
  2
GENIUS_GEFWELD_13
 70
     0
  0
APPID
  2
GENIUS_GENOBJ-N-CRS_13
 70
     0
  0
APPID
  2
GENIUS_GENOBJ-N-RSBK_13
 70
     0
  0
APPID
  2
GENIUS_GENOBJ-N-LIB_13
 70
     0
  0
APPID
  2
GENIUS_GENSCALE_13
 70
     0
  0
APPID
  2
GENIUS_GENHINW_13
 70
     0
  0
APPID
  2
GENIUS_FIRSTVISTXT_14
 70
     0
  0
APPID
  2
GENIUS_GENOBJ-N-LEADER_13
 70
     0
  0
APPID
  2
GENIUS_GENDREL_13
 70
     0
  0
APPID
  2
GEVPT
 70
     0
  0
APPID
  2
GEVIT
 70
     0
  0
APPID
  2
VCC
 70
     0
  0
APPID
  2
GENBH
 70
     0
  0
APPID
  2
GEVMK
 70
     0
  0
APPID
  2
GENIUS_GENOBJ-F-DESC_13
 70
     0
  0
APPID
  2
GENIUS_GEFDESC_14
 70
     0
  0
APPID
  2
GENIUS_GENOBJ-F-FEAT_13
 70
     0
  0
APPID
  2
GENIUS_GEFFEAT_14
 70
     0
  0
APPID
  2
GENIUS_GEFPARTINS_13
 70
     0
  0
APPID
  2
GENIUS_GENSCREG_13
 70
     0
  0
APPID
  2
GENIUS_GEFSHP_13
 70
     0
  0
APPID
  2
GEVID1025574798
 70
     0
  0
APPID
  2
GEVID1025574769
 70
     0
  0
APPID
  2
GEVID1025757451
 70
     0
  0
APPID
  2
GEVID1240528327
 70
     0
  0
APPID
  2
AMG_2DSTRUCT_BTR
 70
     0
  0
APPID
  2
ACADM_2DVIEW_IGN_NOTIFY
 70
     0
  0
APPID
  2
GEVID1240528328
 70
     0
  0
APPID
  2
GEVID1240528329
 70
     0
  0
APPID
  2
GEVRADREF
 70
     0
  0
APPID
  2
GEVID1240528330
 70
     0
  0
APPID
  2
GEVID1240528331
 70
     0
  0
APPID
  2
GEVID1240528332
 70
     0
  0
APPID
  2
GEVID1240791080
 70
     0
  0
APPID
  2
GEVID1240791081
 70
     0
  0
APPID
  2
GEVID1240791082
 70
     0
  0
APPID
  2
GEVID1240791083
 70
     0
  0
APPID
  2
GEVID1240791084
 70
     0
  0
APPID
  2
GEVID1240791085
 70
     0
  0
APPID
  2
GEVID1240791086
 70
     0
  0
APPID
  2
GEVID1240791087
 70
     0
  0
APPID
  2
GEVID1240791088
 70
     0
  0
APPID
  2
GEVID1240791089
 70
     0
  0
APPID
  2
GEVID1240791090
 70
     0
  0
APPID
  2
GEVID1240791091
 70
     0
  0
APPID
  2
GEVID1240791092
 70
     0
  0
APPID
  2
GEVID1240791093
 70
     0
  0
APPID
  2
GEVID1240791094
 70
     0
  0
APPID
  2
GEVID1240791095
 70
     0
  0
APPID
  2
GEVID1240791096
 70
     0
  0
APPID
  2
GEVID1240791097
 70
     0
  0
APPID
  2
GEVID1240791098
 70
     0
  0
APPID
  2
GEVID1240791099
 70
     0
  0
APPID
  2
GEVID1240791100
 70
     0
  0
APPID
  2
GEVID1240791101
 70
     0
  0
APPID
  2
GEVID1240791102
 70
     0
  0
APPID
  2
GEVID1240791103
 70
     0
  0
APPID
  2
GEVID1240791104
 70
     0
  0
APPID
  2
GEVID1240791105
 70
     0
  0
APPID
  2
GEVID1240875381
 70
     0
  0
APPID
  2
GEVID1240875382
 70
     0
  0
APPID
  2
GEVID1240875383
 70
     0
  0
APPID
  2
GEVID1240875384
 70
     0
  0
APPID
  2
GEVID1240875385
 70
     0
  0
APPID
  2
GEVID1240875386
 70
     0
  0
APPID
  2
GEVID1240875387
 70
     0
  0
APPID
  2
GEVID1240875388
 70
     0
  0
APPID
  2
GEVID1240875389
 70
     0
  0
APPID
  2
GEVID1240875390
 70
     0
  0
APPID
  2
GEVID1240875391
 70
     0
  0
APPID
  2
GEVID1240875392
 70
     0
  0
APPID
  2
GEVID1240875393
 70
     0
  0
APPID
  2
GEVID1240875394
 70
     0
  0
APPID
  2
GEVID1240875395
 70
     0
  0
APPID
  2
GEVID1240875396
 70
     0
  0
APPID
  2
GEVID1240875397
 70
     0
  0
APPID
  2
GEVID1240875398
 70
     0
  0
APPID
  2
GEVID1240875399
 70
     0
  0
APPID
  2
GEVID1240908996
 70
     0
  0
APPID
  2
GEVID1240908997
 70
     0
  0
APPID
  2
GEVID1240908998
 70
     0
  0
APPID
  2
GEVID1240908999
 70
     0
  0
APPID
  2
GEVID1240909000
 70
     0
  0
APPID
  2
GENIUS_GENOBJ-N-ZOO_13
 70
     0
  0
APPID
  2
GENIUS_GENZOO_17
 70
     0
  0
APPID
  2
ACAD_DSTYLE_DIMRADIAL_EXTENSION
 70
     0
  0
APPID
  2
GENIUS_GE3SECT_13
 70
     0
  0
APPID
  2
GEV_VCCNULL_SWITCH_OFF
 70
     0
  0
APPID
  2
ACAD_DSTYLE_DIMTALN
 70
     0
  0
APPID
  2
CONTENTBLOCKDESCRIPTION
 70
     0
  0
APPID
  2
DCO15
 70
     0
  0
ENDTAB
  0
TABLE
  2
DIMSTYLE
 70
    22
  0
DIMSTYLE
  2
AM_ANSI
 70
     0
  3

  4
"
  5

  6

  7

 40
1.0
 41
2.5
 42
1.0
 43
10.0
 44
1.0
 45
0.0
 46
0.0
 47
0.1
 48
0.1
140
3.5
141
0.0
142
0.0
143
0.0393701
144
1.0
145
0.0
146
0.71
147
1.5
 71
     0
 72
     0
 73
     1
 74
     1
 75
     0
 76
     0
 77
     0
 78
     8
170
     0
171
     2
172
     0
173
     0
174
     0
175
     0
176
     2
177
     2
178
     4
  0
DIMSTYLE
  2
AM_ANSI$3
 70
     0
  3

  4
"
  5

  6

  7

 40
1.0
 41
2.5
 42
1.0
 43
10.0
 44
1.0
 45
0.0
 46
0.0
 47
0.1
 48
0.1
140
3.5
141
0.0
142
0.0
143
0.0393701
144
1.0
145
0.0
146
0.71
147
1.5
 71
     0
 72
     0
 73
     1
 74
     1
 75
     0
 76
     0
 77
     0
 78
     8
170
     0
171
     2
172
     0
173
     0
174
     0
175
     0
176
     2
177
     2
178
     4
  0
DIMSTYLE
  2
AM_ANSI$4
 70
     0
  3

  4
"
  5

  6

  7

 40
1.0
 41
2.5
 42
1.0
 43
10.0
 44
1.0
 45
0.0
 46
0.0
 47
0.1
 48
0.1
140
3.5
141
0.0
142
0.0
143
0.0393701
144
1.0
145
0.0
146
0.71
147
1.5
 71
     0
 72
     0
 73
     1
 74
     1
 75
     0
 76
     0
 77
     0
 78
     8
170
     0
171
     2
172
     0
173
     0
174
     0
175
     0
176
     2
177
     2
178
     4
  0
DIMSTYLE
  2
AM_ANSI$7
 70
     0
  3

  4
"
  5

  6

  7

 40
1.0
 41
2.5
 42
1.0
 43
10.0
 44
1.0
 45
0.0
 46
0.0
 47
0.1
 48
0.1
140
5.0
141
0.0
142
0.0
143
0.0393701
144
1.0
145
0.0
146
0.71
147
1.5
 71
     0
 72
     0
 73
     1
 74
     1
 75
     0
 76
     0
 77
     0
 78
     8
170
     0
171
     2
172
     0
173
     0
174
     0
175
     0
176
     2
177
     2
178
     4
  0
DIMSTYLE
  2
AM_ANSI$SF
 70
     0
  3

  4
"
  5

  6

  7

 40
1.0
 41
2.5
 42
1.0
 43
10.0
 44
1.0
 45
0.0
 46
0.0
 47
0.1
 48
0.1
140
3.5
141
0.0
142
0.0
143
0.0393701
144
1.0
145
0.0
146
0.71
147
1.5
 71
     0
 72
     0
 73
     1
 74
     1
 75
     1
 76
     1
 77
     0
 78
     8
170
     0
171
     2
172
     0
173
     0
174
     0
175
     0
176
     2
177
     2
178
     4
  0
DIMSTYLE
  2
AM_ANSI$SH
 70
     0
  3

  4
"
  5

  6
GENAXEH
  7

 40
1.0
 41
2.5
 42
1.0
 43
10.0
 44
1.0
 45
0.0
 46
0.0
 47
0.1
 48
0.1
140
3.5
141
0.0
142
0.0
143
0.0393701
144
1.0
145
0.0
146
0.71
147
1.5
 71
     0
 72
     0
 73
     1
 74
     1
 75
     1
 76
     1
 77
     0
 78
     8
170
     0
171
     2
172
     0
173
     1
174
     0
175
     0
176
     2
177
     2
178
     4
  0
DIMSTYLE
  2
AM_ISO
 70
     0
  3

  4
"
  5

  6

  7

 40
1.0
 41
2.5
 42
1.0
 43
10.0
 44
1.0
 45
0.0
 46
0.0
 47
0.1
 48
0.1
140
3.5
141
0.0
142
0.0
143
0.0393701
144
1.0
145
0.0
146
0.71
147
1.5
 71
     0
 72
     0
 73
     0
 74
     0
 75
     0
 76
     0
 77
     1
 78
     8
170
     0
171
     2
172
     1
173
     0
174
     0
175
     0
176
   256
177
   256
178
     2
  0
DIMSTYLE
  2
AM_ISO$3
 70
     0
  3

  4
"
  5

  6

  7

 40
1.0
 41
2.5
 42
1.0
 43
10.0
 44
1.0
 45
0.0
 46
0.0
 47
0.1
 48
0.1
140
3.5
141
0.0
142
0.0
143
0.0393701
144
1.0
145
0.0
146
0.71
147
1.5
 71
     0
 72
     0
 73
     0
 74
     1
 75
     0
 76
     0
 77
     1
 78
     8
170
     0
171
     2
172
     0
173
     0
174
     0
175
     0
176
   256
177
   256
178
     2
  0
DIMSTYLE
  2
AM_ISO$4
 70
     0
  3

  4
"
  5

  6

  7

 40
1.0
 41
2.5
 42
1.0
 43
10.0
 44
1.0
 45
0.0
 46
0.0
 47
0.1
 48
0.1
140
3.5
141
0.0
142
0.0
143
0.0393701
144
1.0
145
0.0
146
0.71
147
1.5
 71
     0
 72
     0
 73
     0
 74
     1
 75
     0
 76
     0
 77
     1
 78
     8
170
     0
171
     2
172
     0
173
     0
174
     0
175
     0
176
   256
177
   256
178
     2
  0
DIMSTYLE
  2
AM_ISO$6
 70
     0
  3

  4
"
  5

  6

  7

 40
1.0
 41
2.5
 42
1.0
 43
10.0
 44
1.0
 45
0.0
 46
0.0
 47
0.1
 48
0.1
140
3.5
141
0.0
142
0.0
143
0.0393701
144
1.0
145
0.0
146
0.71
147
1.5
 71
     0
 72
     0
 73
     0
 74
     0
 75
     0
 76
     0
 77
     0
 78
     8
170
     0
171
     2
172
     1
173
     0
174
     0
175
     0
176
   256
177
   256
178
     2
  0
DIMSTYLE
  2
AM_ISO$7
 70
     0
  3

  4
"
  5

  6

  7

 40
1.0
 41
2.5
 42
1.0
 43
10.0
 44
1.0
 45
0.0
 46
0.0
 47
0.1
 48
0.1
140
5.0
141
0.0
142
0.0
143
0.0393701
144
1.0
145
0.0
146
0.71
147
1.5
 71
     0
 72
     0
 73
     0
 74
     0
 75
     0
 76
     0
 77
     1
 78
     8
170
     0
171
     2
172
     1
173
     0
174
     0
175
     0
176
   256
177
   256
178
     2
  0
DIMSTYLE
  2
AM_ISO$SF
 70
     0
  3

  4
"
  5

  6

  7

 40
1.0
 41
2.5
 42
1.0
 43
10.0
 44
1.0
 45
0.0
 46
0.0
 47
0.1
 48
0.1
140
3.5
141
0.0
142
0.0
143
0.0393701
144
1.0
145
0.0
146
0.71
147
1.5
 71
     0
 72
     0
 73
     0
 74
     0
 75
     1
 76
     1
 77
     1
 78
     8
170
     0
171
     2
172
     1
173
     0
174
     0
175
     0
176
   256
177
   256
178
     2
  0
DIMSTYLE
  2
AM_ISO$SH
 70
     0
  3

  4
"
  5

  6
GENAXEH
  7

 40
1.0
 41
2.5
 42
1.0
 43
10.0
 44
1.0
 45
0.0
 46
0.0
 47
0.1
 48
0.1
140
3.5
141
0.0
142
0.0
143
0.0393701
144
2.0
145
0.0
146
0.71
147
1.5
 71
     0
 72
     0
 73
     0
 74
     0
 75
     1
 76
     1
 77
     1
 78
     8
170
     0
171
     2
172
     1
173
     1
174
     0
175
     0
176
   256
177
   256
178
     2
  0
DIMSTYLE
  2
AM_JIS
 70
     0
  3

  4
"
  5

  6

  7

 40
1.0
 41
2.0
 42
1.0
 43
8.0
 44
1.0
 45
0.0
 46
0.0
 47
0.1
 48
0.1
140
2.5
141
0.0
142
0.0
143
0.0393701
144
1.0
145
0.0
146
0.71
147
1.5
 71
     0
 72
     0
 73
     0
 74
     0
 75
     0
 76
     0
 77
     3
 78
     8
170
     0
171
     2
172
     1
173
     0
174
     0
175
     0
176
     2
177
     2
178
     4
  0
DIMSTYLE
  2
AM_JIS$3
 70
     0
  3

  4
"
  5

  6

  7

 40
1.0
 41
2.0
 42
1.0
 43
10.0
 44
1.0
 45
0.0
 46
0.0
 47
0.1
 48
0.1
140
2.5
141
0.0
142
0.0
143
0.0393701
144
1.0
145
0.0
146
0.71
147
1.5
 71
     0
 72
     0
 73
     0
 74
     1
 75
     0
 76
     0
 77
     3
 78
     8
170
     0
171
     2
172
     0
173
     0
174
     0
175
     0
176
     2
177
     2
178
     4
  0
DIMSTYLE
  2
AM_JIS$4
 70
     0
  3

  4
"
  5

  6

  7

 40
1.0
 41
2.0
 42
1.0
 43
10.0
 44
1.0
 45
0.0
 46
0.0
 47
0.1
 48
0.1
140
2.5
141
0.0
142
0.0
143
0.0393701
144
1.0
145
0.0
146
0.71
147
1.5
 71
     0
 72
     0
 73
     0
 74
     0
 75
     0
 76
     0
 77
     3
 78
     8
170
     0
171
     2
172
     0
173
     0
174
     0
175
     0
176
     2
177
     2
178
     4
  0
DIMSTYLE
  2
AM_JIS$6
 70
     0
  3

  4
"
  5

  6

  7

 40
1.0
 41
2.0
 42
1.0
 43
10.0
 44
1.0
 45
0.0
 46
0.0
 47
0.1
 48
0.1
140
2.5
141
0.0
142
0.0
143
0.0393701
144
1.0
145
0.0
146
0.71
147
1.5
 71
     0
 72
     0
 73
     0
 74
     0
 75
     0
 76
     0
 77
     0
 78
     8
170
     0
171
     2
172
     1
173
     0
174
     0
175
     0
176
     2
177
     2
178
     4
  0
DIMSTYLE
  2
AM_JIS$7
 70
     0
  3

  4
"
  5

  6
OPEN30
  7
OPEN30
 40
1.0
 41
2.0
 42
1.0
 43
10.0
 44
1.0
 45
0.0
 46
0.0
 47
0.1
 48
0.1
140
2.5
141
0.0
142
0.0
143
0.0393701
144
1.0
145
0.0
146
0.71
147
1.5
 71
     0
 72
     0
 73
     0
 74
     0
 75
     0
 76
     0
 77
     3
 78
     8
170
     0
171
     2
172
     1
173
     0
174
     0
175
     0
176
     2
177
     2
178
     4
  0
DIMSTYLE
  2
AM_JIS$SF
 70
     0
  3

  4
"
  5

  6

  7

 40
1.0
 41
2.0
 42
1.0
 43
10.0
 44
1.0
 45
0.0
 46
0.0
 47
0.1
 48
0.1
140
2.5
141
0.0
142
0.0
143
0.0393701
144
1.0
145
0.0
146
0.71
147
1.5
 71
     0
 72
     0
 73
     0
 74
     0
 75
     1
 76
     1
 77
     3
 78
     8
170
     0
171
     2
172
     1
173
     0
174
     0
175
     0
176
     2
177
     2
178
     4
  0
DIMSTYLE
  2
AM_JIS$SH
 70
     0
  3

  4
"
  5

  6
GENAXEH
  7

 40
1.0
 41
2.0
 42
1.0
 43
10.0
 44
1.0
 45
0.0
 46
0.0
 47
0.1
 48
0.1
140
2.5
141
0.0
142
0.0
143
0.0393701
144
2.0
145
0.0
146
0.71
147
1.5
 71
     0
 72
     0
 73
     0
 74
     0
 75
     1
 76
     1
 77
     3
 78
     8
170
     0
171
     2
172
     1
173
     1
174
     0
175
     0
176
     2
177
     2
178
     4
  0
DIMSTYLE
  2
AM_JIS$0
 70
     0
  3

  4
"
  5

  6

  7

 40
1.0
 41
2.0
 42
1.0
 43
8.0
 44
1.0
 45
0.0
 46
0.0
 47
0.1
 48
0.1
140
2.5
141
0.0
142
0.0
143
0.0393701
144
1.0
145
0.0
146
0.71
147
1.5
 71
     0
 72
     0
 73
     0
 74
     0
 75
     0
 76
     0
 77
     3
 78
     8
170
     0
171
     2
172
     1
173
     0
174
     0
175
     0
176
     2
177
     2
178
     4
  0
DIMSTYLE
  2
STANDARD
 70
     0
  3

  4

  5

  6

  7

 40
1.0
 41
0.18
 42
0.0625
 43
0.38
 44
0.18
 45
0.0
 46
0.0
 47
0.0
 48
0.0
140
0.18
141
0.09
142
0.0
143
25.399999999999999
144
1.0
145
0.0
146
1.0
147
0.09
 71
     0
 72
     0
 73
     1
 74
     1
 75
     0
 76
     0
 77
     0
 78
     0
170
     0
171
     2
172
     0
173
     0
174
     0
175
     0
176
     0
177
     0
178
     0
  0
ENDTAB
  0
ENDSEC
  0
SECTION
  2
BLOCKS
  0
BLOCK
  8
0
  2
$MODEL_SPACE
 70
     0
 10
0.0
 20
0.0
 30
0.0
  3
$MODEL_SPACE
  1

  0
ENDBLK
  5
77
  8
0
  0
BLOCK
 67
     1
  8
0
  2
$PAPER_SPACE
 70
     0
 10
0.0
 20
0.0
 30
0.0
  3
$PAPER_SPACE
  1

  0
ENDBLK
  5
73
 67
     1
  8
0
  0
BLOCK
  8
0
  2
GENAXEH
 70
     0
 10
0.0
 20
0.0
 30
0.0
  3
GENAXEH
  1

  0
LINE
  5
678C
  8
0
 10
-1.0
 20
0.0
 30
0.0
 11
1.0
 21
0.0
 31
0.0
  0
ENDBLK
  5
678D
  8
0
  0
BLOCK
  8
0
  6
BYBLOCK
 62
     0
  2
$6-44
 70
     0
 10
0.0
 20
0.0
 30
0.0
  3
$6-44
  1

  0
ARC
  5
5DE3
  8
0
  6
CONTINUOUS
 62
     0
 10
-2.300002999999943
 20
2.3999909999999991
 30
0.0
 40
2.2000009999999981
 50
90.00000299999769
 51
179.99997799999841
  0
ARC
  5
5DE4
  8
0
  6
CONTINUOUS
 62
     0
 10
2.300002999999943
 20
2.3999909999999991
 30
0.0
 40
2.1999970000000002
 50
0.0
 51
89.999982000000799
  0
LINE
  5
5DE5
  8
0
  6
CONTINUOUS
 62
     0
 10
-0.0494449999999915
 20
0.0
 30
0.0
 11
-0.7999999999999548
 21
1.30000000000001
 31
0.0
  0
LINE
  5
5DE6
  8
0
  6
CONTINUOUS
 62
     0
 10
0.9505550000000083
 20
0.0
 30
0.0
 11
0.2000000000000455
 21
1.30000000000001
 31
0.0
  0
LINE
  5
5DE7
  8
0
  6
CONTINUOUS
 62
     0
 10
4.600000000000021
 20
1.30000000000001
 30
0.0
 11
4.600000000000021
 21
0.0
 31
0.0
  0
LINE
  5
5DE8
  8
0
  6
CONTINUOUS
 62
     0
 10
-4.600000000000021
 20
1.30000000000001
 30
0.0
 11
-4.600000000000021
 21
0.0
 31
0.0
  0
LINE
  5
5DE9
  8
0
  6
CONTINUOUS
 62
     0
 10
4.600000000000021
 20
0.0
 30
0.0
 11
-4.600000000000021
 21
0.0
 31
0.0
  0
LINE
  5
5DEA
  8
0
  6
CONTINUOUS
 62
     0
 10
2.300002999999943
 20
4.6000030000000152
 30
0.0
 11
-2.300002999999943
 21
4.6000030000000152
 31
0.0
  0
LINE
  5
5DEB
  8
0
  6
CONTINUOUS
 62
     0
 10
4.600000000000021
 20
1.30000000000001
 30
0.0
 11
-4.600000000000021
 21
1.30000000000001
 31
0.0
  0
LINE
  5
5DEC
  8
0
  6
CONTINUOUS
 62
     0
 10
-4.5
 20
1.30000000000001
 30
0.0
 11
-4.5
 21
2.3999909999999991
 31
0.0
  0
LINE
  5
5DED
  8
0
  6
CONTINUOUS
 62
     0
 10
4.5
 20
1.30000000000001
 30
0.0
 11
4.5
 21
2.3999909999999991
 31
0.0
  0
ENDBLK
  5
5DEE
  8
0
  6
BYBLOCK
 62
     0
  0
BLOCK
  8
0
  2
_OPEN30
 70
     0
 10
0.0
 20
0.0
 30
0.0
  3
_OPEN30
  1

  0
LINE
  5
67D3
  8
0
  6
BYBLOCK
 62
     0
 10
-1.0
 20
0.26794919
 30
0.0
 11
0.0
 21
0.0
 31
0.0
  0
LINE
  5
67D4
  8
0
  6
BYBLOCK
 62
     0
 10
0.0
 20
0.0
 30
0.0
 11
-1.0
 21
-0.26794919
 31
0.0
  0
LINE
  5
67D5
  8
0
  6
BYBLOCK
 62
     0
 10
0.0
 20
0.0
 30
0.0
 11
-1.0
 21
0.0
 31
0.0
  0
ENDBLK
  5
67D6
  8
0
  0
BLOCK
  8
0
  2
_ACMFILLEDHALF
 70
     0
 10
0.0
 20
0.0
 30
0.0
  3
_ACMFILLEDHALF
  1

  0
TRACE
  5
68AC
  8
0
  6
CONTINUOUS
 62
     0
 10
-0.8
 20
0.0
 30
0.0
 11
-1.0
 21
0.166666666
 31
0.0
 12
0.0
 22
0.0
 32
0.0
 13
0.0
 23
0.0
 33
0.0
  0
LINE
  5
68AD
  8
0
  6
CONTINUOUS
 62
     0
 10
-1.0
 20
0.0
 30
0.0
 11
-0.8
 21
0.0
 31
0.0
  0
ENDBLK
  5
68AE
  8
0
  0
BLOCK
  8
0
  2
*U8
 70
     1
 10
0.0
 20
0.0
 30
0.0
  3
*U8
  1

  0
TEXT
  5
6948
  8
0
 62
     0
 10
5.1211371559201648
 20
5.9826223594979657
 30
0.0
 40
15.0
  1
ＶＸ０８－００３ＥＭ～ＶＸ０８－０３０ＥＭ
 41
0.7400000000000003
  0
ENDBLK
  5
694A
  8
0
  0
ENDSEC
  0
SECTION
  2
ENTITIES
  0
LINE
  5
2F6A
  8
0
  6
AM_ISO08W050
 62
     0
 10
296.40635397965752
 20
328.94731855278337
 30
0.0
 11
444.02723970342498
 21
328.94731855278337
 31
0.0
  0
LINE
  5
2F6B
  8
0
  6
AM_ISO08W050
 62
     0
 10
46.394521714136772
 20
305.74733755278339
 30
0.0
 11
304.68789176706969
 21
305.74733755278339
 31
0.0
  0
POINT
  5
3001
  8
0
  6
CONTINUOUS
 62
     7
 10
281.57939970342483
 20
305.74733755278339
 30
0.0
  0
POINT
  5
3088
  8
0
  6
CONTINUOUS
 62
     7
 10
281.57939970342483
 20
305.74727944296319
 30
0.0
  0
LINE
  5
30D4
  8
0
  6
CONTINUOUS
 62
     7
 10
281.57939970342483
 20
379.24727944296319
 30
0.0
 11
281.57939970342483
 21
232.24733755278351
 31
0.0
  0
LINE
  5
5929
  8
0
 62
     0
 10
272.57939970342483
 20
232.2473374978733
 30
0.0
 11
281.57939970342483
 21
232.2473374978733
 31
0.0
  0
LINE
  5
592A
  8
0
 62
     0
 10
271.57939970342483
 20
367.74733749787327
 30
0.0
 11
271.57939970342483
 21
351.91733749787329
 31
0.0
  0
ARC
  5
592B
  8
0
 62
     0
 10
268.75578070342482
 20
230.85117249787331
 30
0.0
 40
2.0
 50
270.0
 51
345.0000029999984
  0
LINE
  5
592C
  8
0
 62
     0
 10
271.57939970342483
 20
233.2473374978733
 30
0.0
 11
271.57939970342483
 21
233.66165449787329
 31
0.0
  0
LINE
  5
592D
  8
0
 62
     0
 10
271.57939970342483
 20
233.24234349787321
 30
0.0
 11
271.57939970342483
 21
233.2473374978733
 31
0.0
  0
LINE
  5
592E
  8
0
 62
     0
 10
271.49184370342482
 20
233.33489349787331
 30
0.0
 11
271.57939970342483
 21
233.2473374978733
 31
0.0
  0
LINE
  5
592F
  8
0
 62
     0
 10
273.57939970342483
 20
242.7473374978733
 30
0.0
 11
272.5028767034247
 21
238.7296994978733
 31
0.0
  0
ARC
  5
5930
  8
0
 62
     0
 10
272.57690270342482
 20
233.2448404978733
 30
0.0
 40
0.9975059999999999
 50
179.85657799999959
 51
270.14342200000033
  0
LINE
  5
5931
  8
0
 62
     0
 10
272.57939970342483
 20
242.7473374978733
 30
0.0
 11
281.57939970342483
 21
242.7473374978733
 31
0.0
  0
LINE
  5
5932
  8
0
 62
     0
 10
273.57939970342483
 20
241.12575649787331
 30
0.0
 11
270.6876327034247
 21
230.3335344978733
 31
0.0
  0
ARC
  5
5933
  8
0
 62
     0
 10
270.57102470342483
 20
239.2473374978733
 30
0.0
 40
2.0
 50
270.0
 51
345.00000000000239
  0
ARC
  5
5934
  8
0
 62
     0
 10
272.57939970342483
 20
243.7473374978733
 30
0.0
 40
1.0
 50
180.0
 51
270.0
  0
ARC
  5
5935
  8
0
 62
     0
 10
202.5793997034248
 20
227.8851394978733
 30
0.0
 40
2.0
 50
270.0
 51
0.0
  0
ARC
  5
5936
  8
0
 62
     0
 10
202.5793997034248
 20
228.3124174978733
 30
0.0
 40
2.0
 50
270.0
 51
0.0
  0
ARC
  5
5937
  8
0
 62
     0
 10
202.5793997034248
 20
229.31776849787329
 30
0.0
 40
2.0
 50
270.0
 51
346.5086890000016
  0
LINE
  5
5938
  8
0
 62
     0
 10
204.5793997034248
 20
227.8851394978733
 30
0.0
 11
204.5793997034248
 21
228.85117249787331
 31
0.0
  0
ARC
  5
5939
  8
0
 62
     0
 10
121.5793997034247
 20
227.8851394978733
 30
0.0
 40
2.0
 50
180.0
 51
270.0
  0
LINE
  5
593A
  8
0
 62
     0
 10
119.5793997034247
 20
229.86298149787319
 30
0.0
 11
119.5793997034247
 21
229.31776849787329
 31
0.0
  0
ARC
  5
593B
  8
0
 62
     0
 10
121.4288497034248
 20
228.3124174978733
 30
0.0
 40
2.0
 50
195.7695469999999
 51
270.0
  0
ARC
  5
593C
  8
0
 62
     0
 10
121.5793997034247
 20
229.31776849787329
 30
0.0
 40
2.0
 50
180.0
 51
270.0
  0
ARC
  5
593D
  8
0
 62
     0
 10
121.5793997034247
 20
230.85117249787331
 30
0.0
 40
2.0
 50
180.0
 51
270.0
  0
LINE
  5
593E
  8
0
 62
     0
 10
119.5793997034247
 20
234.2189704978733
 30
0.0
 11
119.5793997034247
 21
230.85117249787331
 31
0.0
  0
ARC
  5
593F
  8
0
 62
     0
 10
117.5793997034247
 20
234.2189704978733
 30
0.0
 40
2.0
 50
0.0
 51
90.0
  0
ARC
  5
5940
  8
0
 62
     0
 10
117.5793997034247
 20
229.86298149787319
 30
0.0
 40
2.0
 50
0.0
 51
90.0
  0
ARC
  5
5941
  8
0
 62
     0
 10
117.5793997034247
 20
227.2253424978733
 30
0.0
 40
2.0
 50
15.7695469999999
 51
90.0
  0
ARC
  5
5942
  8
0
 62
     0
 10
117.5793997034247
 20
252.84628749787331
 30
0.0
 40
2.0
 50
0.0
 51
90.0
  0
LINE
  5
5943
  8
0
 62
     0
 10
119.5793997034247
 20
240.3914184978733
 30
0.0
 11
119.5793997034247
 21
252.84628749787331
 31
0.0
  0
ARC
  5
5944
  8
0
 62
     0
 10
121.5793997034247
 20
239.2473374978733
 30
0.0
 40
2.0
 50
180.0
 51
270.0
  0
ARC
  5
5945
  8
0
 62
     0
 10
117.5793997034247
 20
240.3914184978733
 30
0.0
 40
2.0
 50
0.0
 51
90.0
  0
LINE
  5
5946
  8
0
 62
     0
 10
119.5793997034247
 20
240.3914184978733
 30
0.0
 11
119.5793997034247
 21
239.2473374978733
 31
0.0
  0
LINE
  5
5947
  8
0
 62
     0
 10
117.5793997034247
 20
242.3914184978733
 30
0.0
 11
112.0733887034247
 21
242.3914184978733
 31
0.0
  0
LINE
  5
5948
  8
0
 62
     0
 10
121.5793997034247
 20
237.2473374978733
 30
0.0
 11
270.57102470342483
 21
237.2473374978733
 31
0.0
  0
LINE
  5
5949
  8
0
 62
     0
 10
112.0733887034247
 20
254.84628749787331
 30
0.0
 11
270.07939970342483
 21
254.84628749787331
 31
0.0
  0
LINE
  5
594A
  8
0
 62
     0
 10
121.5793997034247
 20
225.8851394978733
 30
0.0
 11
202.5793997034248
 21
225.8851394978733
 31
0.0
  0
LINE
  5
594B
  8
0
 62
     0
 10
121.4288497034248
 20
226.3124174978733
 30
0.0
 11
202.5793997034248
 21
226.3124174978733
 31
0.0
  0
LINE
  5
594C
  8
0
 62
     0
 10
121.5793997034247
 20
227.31776849787329
 30
0.0
 11
202.5793997034248
 21
227.31776849787329
 31
0.0
  0
LINE
  5
594D
  8
0
 62
     0
 10
121.5793997034247
 20
228.85117249787331
 30
0.0
 11
268.75578070342482
 21
228.85117249787331
 31
0.0
  0
LINE
  5
594E
  8
0
 62
     0
 10
117.5793997034247
 20
229.2253424978733
 30
0.0
 11
112.0733887034247
 21
229.2253424978733
 31
0.0
  0
LINE
  5
594F
  8
0
 62
     0
 10
117.5793997034247
 20
231.86298149787319
 30
0.0
 11
112.0733887034247
 21
231.86298149787319
 31
0.0
  0
LINE
  5
5950
  8
0
 62
     0
 10
117.5793997034247
 20
236.2189704978733
 30
0.0
 11
112.0733887034247
 21
236.2189704978733
 31
0.0
  0
LINE
  5
5951
  8
0
 62
     0
 10
272.57939970342483
 20
368.74733749787327
 30
0.0
 11
281.57939970342483
 21
368.74733749787327
 31
0.0
  0
LINE
  5
5952
  8
0
 62
     0
 10
273.57939970342483
 20
368.74733749787327
 30
0.0
 11
272.5028767034247
 21
372.76497549787308
 31
0.0
  0
ARC
  5
5953
  8
0
 62
     0
 10
272.57939970342483
 20
367.74733749787327
 30
0.0
 40
1.0
 50
90.0
 51
180.0
  0
LINE
  5
5954
  8
0
 62
     0
 10
271.49184370342482
 20
378.15978149787333
 30
0.0
 11
271.57939970342483
 21
378.24733749787327
 31
0.0
  0
LINE
  5
5955
  8
0
 62
     0
 10
271.57939970342483
 20
378.25233149787317
 30
0.0
 11
271.57939970342483
 21
378.24733749787327
 31
0.0
  0
ARC
  5
5956
  8
0
 62
     0
 10
272.57690270342482
 20
378.24983449787328
 30
0.0
 40
0.9975059999999999
 50
89.856577999999615
 51
180.1434220000003
  0
LINE
  5
5957
  8
0
 62
     0
 10
271.57939970342483
 20
378.24733749787327
 30
0.0
 11
271.57939970342483
 21
377.83302049787329
 31
0.0
  0
LINE
  5
5958
  8
0
 62
     0
 10
272.57939970342483
 20
379.24733749787339
 30
0.0
 11
281.57939970342483
 21
379.24733749787339
 31
0.0
  0
LINE
  5
5959
  8
0
 62
     0
 10
273.57939970342483
 20
370.36891849787332
 30
0.0
 11
270.6876327034247
 21
381.16114049787319
 31
0.0
  0
ARC
  5
595A
  8
0
 62
     0
 10
270.57102470342483
 20
372.24733749787327
 30
0.0
 40
2.0
 50
14.9999999999976
 51
90.0
  0
ARC
  5
595B
  8
0
 62
     0
 10
268.75578070342482
 20
380.64350249787333
 30
0.0
 40
2.0
 50
14.999997000001709
 51
90.0
  0
LINE
  5
595C
  8
0
 62
     0
 10
204.5793997034248
 20
383.60953549787308
 30
0.0
 11
204.5793997034248
 21
382.64350249787333
 31
0.0
  0
ARC
  5
595D
  8
0
 62
     0
 10
202.5793997034248
 20
382.17690649787318
 30
0.0
 40
2.0
 50
13.491310999998401
 51
90.0
  0
ARC
  5
595E
  8
0
 62
     0
 10
202.5793997034248
 20
383.1822574978732
 30
0.0
 40
2.0
 50
0.0
 51
90.0
  0
ARC
  5
595F
  8
0
 62
     0
 10
202.5793997034248
 20
383.60953549787308
 30
0.0
 40
2.0
 50
0.0
 51
90.0
  0
LINE
  5
5960
  8
0
 62
     0
 10
119.5793997034247
 20
371.1032564978733
 30
0.0
 11
119.5793997034247
 21
372.24733749787327
 31
0.0
  0
ARC
  5
5961
  8
0
 62
     0
 10
117.5793997034247
 20
371.1032564978733
 30
0.0
 40
2.0
 50
270.0
 51
0.0
  0
ARC
  5
5962
  8
0
 62
     0
 10
121.5793997034247
 20
372.24733749787327
 30
0.0
 40
2.0
 50
90.0
 51
180.0
  0
LINE
  5
5963
  8
0
 62
     0
 10
119.5793997034247
 20
371.1032564978733
 30
0.0
 11
119.5793997034247
 21
358.64838749787327
 31
0.0
  0
ARC
  5
5964
  8
0
 62
     0
 10
117.5793997034247
 20
358.64838749787327
 30
0.0
 40
2.0
 50
270.0
 51
0.0
  0
LINE
  5
5965
  8
0
 62
     0
 10
119.5793997034247
 20
377.27570449787328
 30
0.0
 11
119.5793997034247
 21
380.64350249787333
 31
0.0
  0
ARC
  5
5966
  8
0
 62
     0
 10
117.5793997034247
 20
377.27570449787328
 30
0.0
 40
2.0
 50
270.0
 51
0.0
  0
ARC
  5
5967
  8
0
 62
     0
 10
121.5793997034247
 20
380.64350249787333
 30
0.0
 40
2.0
 50
90.0
 51
180.0
  0
ARC
  5
5968
  8
0
 62
     0
 10
117.5793997034247
 20
381.6316934978733
 30
0.0
 40
2.0
 50
270.0
 51
0.0
  0
ARC
  5
5969
  8
0
 62
     0
 10
121.5793997034247
 20
382.17690649787318
 30
0.0
 40
2.0
 50
90.0
 51
180.0
  0
ARC
  5
596A
  8
0
 62
     0
 10
117.5793997034247
 20
384.26933249787328
 30
0.0
 40
2.0
 50
270.0
 51
344.23045300000013
  0
ARC
  5
596B
  8
0
 62
     0
 10
121.4288497034248
 20
383.1822574978732
 30
0.0
 40
2.0
 50
90.0
 51
164.2304530000001
  0
LINE
  5
596C
  8
0
 62
     0
 10
119.5793997034247
 20
381.6316934978733
 30
0.0
 11
119.5793997034247
 21
382.17690649787318
 31
0.0
  0
ARC
  5
596D
  8
0
 62
     0
 10
121.5793997034247
 20
383.60953549787308
 30
0.0
 40
2.0
 50
90.0
 51
180.0
  0
LINE
  5
596E
  8
0
 62
     0
 10
117.5793997034247
 20
382.26933249787328
 30
0.0
 11
112.0733887034247
 21
382.26933249787328
 31
0.0
  0
LINE
  5
596F
  8
0
 62
     0
 10
117.5793997034247
 20
379.6316934978733
 30
0.0
 11
112.0733887034247
 21
379.6316934978733
 31
0.0
  0
LINE
  5
5970
  8
0
 62
     0
 10
117.5793997034247
 20
375.27570449787328
 30
0.0
 11
112.0733887034247
 21
375.27570449787328
 31
0.0
  0
LINE
  5
5971
  8
0
 62
     0
 10
117.5793997034247
 20
369.1032564978733
 30
0.0
 11
112.0733887034247
 21
369.1032564978733
 31
0.0
  0
LINE
  5
5972
  8
0
 62
     0
 10
121.5793997034247
 20
385.6095354978732
 30
0.0
 11
202.5793997034248
 21
385.6095354978732
 31
0.0
  0
LINE
  5
5973
  8
0
 62
     0
 10
121.4288497034248
 20
385.18225749787331
 30
0.0
 11
202.5793997034248
 21
385.18225749787331
 31
0.0
  0
LINE
  5
5974
  8
0
 62
     0
 10
121.5793997034247
 20
384.17690649787318
 30
0.0
 11
202.5793997034248
 21
384.17690649787318
 31
0.0
  0
LINE
  5
5975
  8
0
 62
     0
 10
121.5793997034247
 20
382.64350249787333
 30
0.0
 11
268.75578070342482
 21
382.64350249787333
 31
0.0
  0
LINE
  5
5976
  8
0
 62
     0
 10
121.5793997034247
 20
374.24733749787327
 30
0.0
 11
270.57102470342483
 21
374.24733749787327
 31
0.0
  0
LINE
  5
5977
  8
0
 62
     0
 10
112.0733887034247
 20
356.64838749787327
 30
0.0
 11
270.07939970342483
 21
356.64838749787327
 31
0.0
  0
LINE
  5
5978
  8
0
 62
     0
 10
271.57939970342483
 20
261.91733749787329
 30
0.0
 11
271.57939970342483
 21
269.55733749787328
 31
0.0
  0
LINE
  5
5979
  8
0
 62
     0
 10
271.57939970342483
 20
349.57727949787329
 30
0.0
 11
271.57939970342483
 21
341.93733749787327
 31
0.0
  0
ARC
  5
597A
  8
0
 62
     0
 10
272.57876070342479
 20
258.7058064978732
 30
0.0
 40
1.0026319999999971
 50
0.0540849999984558
 51
81.243759000000509
  0
LINE
  5
597B
  8
0
 62
     0
 10
272.73139270342472
 20
259.69675349787332
 30
0.0
 11
270.97259370342482
 21
259.9673374978733
 31
0.0
  0
LINE
  5
597C
  8
0
 62
     0
 10
272.72139270342473
 20
261.78675349787329
 30
0.0
 11
271.11870470342473
 21
261.56733749787332
 31
0.0
  0
ARC
  5
597D
  8
0
 62
     0
 10
272.57442470342482
 20
262.78295749787333
 30
0.0
 40
1.0069859999999999
 50
278.39216299999862
 51
359.64700199999788
  0
LINE
  5
597E
  8
0
 62
     0
 10
273.58139270342468
 20
262.7767534978733
 30
0.0
 11
273.58139270342468
 21
258.70675349787331
 31
0.0
  0
ARC
  5
597F
  8
0
 62
     0
 10
271.03803670342478
 20
260.75339749787321
 30
0.0
 40
0.8033630000000001
 50
0.2393300000011745
 51
89.760669999998839
  0
ARC
  5
5980
  8
0
 62
     0
 10
271.03633070342471
 20
260.76181549787327
 30
0.0
 40
0.8050779999999997
 50
270.3602510000016
 51
359.6397490000017
  0
ARC
  5
5981
  8
0
 62
     0
 10
272.57442470342482
 20
348.71171749787328
 30
0.0
 40
1.0069859999999999
 50
0.3529979999987895
 51
81.607837000001453
  0
LINE
  5
5982
  8
0
 62
     0
 10
272.72139270342473
 20
349.70792149787331
 30
0.0
 11
271.11870470342473
 21
349.92733749787328
 31
0.0
  0
ARC
  5
5983
  8
0
 62
     0
 10
272.57876070342479
 20
352.7888684978733
 30
0.0
 40
1.0026319999999971
 50
278.75624099999948
 51
359.94591499999831
  0
LINE
  5
5984
  8
0
 62
     0
 10
273.58139270342468
 20
348.71792149787308
 30
0.0
 11
273.58139270342468
 21
352.7879214978733
 31
0.0
  0
LINE
  5
5985
  8
0
 62
     0
 10
272.73139270342472
 20
351.79792149787329
 30
0.0
 11
270.97259370342482
 21
351.5273374978733
 31
0.0
  0
ARC
  5
5986
  8
0
 62
     0
 10
271.03803670342478
 20
350.74127749787328
 30
0.0
 40
0.8033630000000001
 50
270.23933000000108
 51
359.76067000000211
  0
ARC
  5
5987
  8
0
 62
     0
 10
271.03633070342471
 20
350.73285949787328
 30
0.0
 40
0.8050779999999997
 50
0.3602510000016315
 51
89.639748999998375
  0
LINE
  5
5988
  8
0
 62
     0
 10
271.57939970342483
 20
343.61128249787328
 30
0.0
 11
281.57939970342483
 21
343.61128249787328
 31
0.0
  0
LINE
  5
5989
  8
0
 62
     0
 10
271.57939970342483
 20
267.89339249787321
 30
0.0
 11
281.57939970342483
 21
267.89339249787321
 31
0.0
  0
LINE
  5
598A
  8
0
 62
     0
 10
272.71939970342481
 20
301.7773374978733
 30
0.0
 11
271.03939970342469
 21
301.54733749787329
 31
0.0
  0
LINE
  5
598B
  8
0
 62
     0
 10
272.7293997034248
 20
299.68733749787327
 30
0.0
 11
271.03939970342469
 21
299.94733749787321
 31
0.0
  0
LINE
  5
598C
  8
0
 62
     0
 10
273.57939970342483
 20
302.76733749787331
 30
0.0
 11
273.57939970342483
 21
298.69733749787332
 31
0.0
  0
LINE
  5
598D
  8
0
 62
     0
 10
272.71939970342481
 20
291.7773374978733
 30
0.0
 11
271.03939970342469
 21
291.54733749787329
 31
0.0
  0
LINE
  5
598E
  8
0
 62
     0
 10
272.7293997034248
 20
289.68733749787327
 30
0.0
 11
271.03939970342469
 21
289.94733749787321
 31
0.0
  0
LINE
  5
598F
  8
0
 62
     0
 10
273.57939970342483
 20
292.76733749787331
 30
0.0
 11
273.57939970342483
 21
288.69733749787332
 31
0.0
  0
LINE
  5
5990
  8
0
 62
     0
 10
272.7293997034248
 20
279.68733749787339
 30
0.0
 11
271.03939970342469
 21
279.94733749787332
 31
0.0
  0
LINE
  5
5991
  8
0
 62
     0
 10
272.71939970342481
 20
281.7773374978733
 30
0.0
 11
271.03939970342469
 21
281.54733749787329
 31
0.0
  0
LINE
  5
5992
  8
0
 62
     0
 10
273.57939970342483
 20
282.76733749787331
 30
0.0
 11
273.57939970342483
 21
278.69733749787332
 31
0.0
  0
LINE
  5
5993
  8
0
 62
     0
 10
273.57939970342483
 20
272.76733749787331
 30
0.0
 11
273.57939970342483
 21
268.76733749787331
 31
0.0
  0
LINE
  5
5994
  8
0
 62
     0
 10
272.71939970342481
 20
271.7773374978733
 30
0.0
 11
271.03939970342469
 21
271.54733749787329
 31
0.0
  0
LINE
  5
5995
  8
0
 62
     0
 10
272.7293997034248
 20
269.68733749787327
 30
0.0
 11
271.03939970342469
 21
269.94733749787332
 31
0.0
  0
ARC
  5
5996
  8
0
 62
     0
 10
271.03100470342468
 20
300.74733749787327
 30
0.0
 40
0.8000439999999999
 50
270.6012089999997
 51
89.398791000000301
  0
ARC
  5
5997
  8
0
 62
     0
 10
272.57676770342482
 20
298.69639149787332
 30
0.0
 40
1.0026319999999971
 50
0.0540849999984558
 51
81.243759000000509
  0
ARC
  5
5998
  8
0
 62
     0
 10
272.57243270342479
 20
302.77354149787328
 30
0.0
 40
1.0069859999999999
 50
278.39216299999862
 51
359.64700199999788
  0
ARC
  5
5999
  8
0
 62
     0
 10
271.03433770342468
 20
290.75239949787328
 30
0.0
 40
0.8050779999999997
 50
270.3602510000016
 51
359.6397490000017
  0
ARC
  5
599A
  8
0
 62
     0
 10
272.57676770342482
 20
288.69639149787321
 30
0.0
 40
1.0026319999999971
 50
0.0540849999984558
 51
81.243759000000509
  0
ARC
  5
599B
  8
0
 62
     0
 10
272.57243270342479
 20
292.77354149787328
 30
0.0
 40
1.0069859999999999
 50
278.39216299999862
 51
359.64700199999788
  0
ARC
  5
599C
  8
0
 62
     0
 10
271.03604370342481
 20
280.74398149787328
 30
0.0
 40
0.8033630000000001
 50
0.2393300000011745
 51
89.760669999998839
  0
ARC
  5
599D
  8
0
 62
     0
 10
271.03433770342468
 20
280.75239949787328
 30
0.0
 40
0.8050779999999997
 50
270.3602510000016
 51
359.6397490000017
  0
ARC
  5
599E
  8
0
 62
     0
 10
272.57243270342479
 20
282.77354149787328
 30
0.0
 40
1.0069859999999999
 50
278.39216299999862
 51
359.64700199999788
  0
ARC
  5
599F
  8
0
 62
     0
 10
272.57676770342482
 20
278.69639149787332
 30
0.0
 40
1.0026319999999971
 50
0.0540849999984558
 51
81.243759000000509
  0
ARC
  5
59A0
  8
0
 62
     0
 10
272.57243270342479
 20
272.77354149787328
 30
0.0
 40
1.0069859999999999
 50
278.39216299999862
 51
359.64700199999788
  0
ARC
  5
59A1
  8
0
 62
     0
 10
272.57676770342482
 20
268.69639149787332
 30
0.0
 40
1.0026319999999971
 50
0.0540849999984558
 51
81.243759000000509
  0
ARC
  5
59A2
  8
0
 62
     0
 10
271.03433770342468
 20
270.75239949787328
 30
0.0
 40
0.8050779999999997
 50
270.3602510000016
 51
359.6397490000017
  0
ARC
  5
59A3
  8
0
 62
     0
 10
271.03604370342481
 20
270.74398149787328
 30
0.0
 40
0.8033630000000001
 50
0.2393300000011745
 51
89.760669999998839
  0
ARC
  5
59A4
  8
0
 62
     0
 10
271.03604370342481
 20
290.74398149787328
 30
0.0
 40
0.8033630000000001
 50
0.2393300000011745
 51
89.760669999998839
  0
LINE
  5
59A5
  8
0
 62
     0
 10
269.97349570342482
 20
301.75733749787332
 30
0.0
 11
272.57331270342468
 21
301.75733749787332
 31
0.0
  0
LINE
  5
59A6
  8
0
 62
     0
 10
269.97349570342482
 20
299.72733749787318
 30
0.0
 11
272.4693997034247
 21
299.72733749787318
 31
0.0
  0
LINE
  5
59A7
  8
0
 62
     0
 10
269.97349570342482
 20
291.7773374978733
 30
0.0
 11
272.71939970342481
 21
291.7773374978733
 31
0.0
  0
LINE
  5
59A8
  8
0
 62
     0
 10
269.97349570342482
 20
289.69733749787332
 30
0.0
 11
272.62939970342478
 21
289.69733749787332
 31
0.0
  0
LINE
  5
59A9
  8
0
 62
     0
 10
269.97349570342482
 20
281.8273374978732
 30
0.0
 11
273.08461670342479
 21
281.8273374978732
 31
0.0
  0
LINE
  5
59AA
  8
0
 62
     0
 10
269.97349570342482
 20
279.64733749787331
 30
0.0
 11
272.98939970342479
 21
279.64733749787331
 31
0.0
  0
LINE
  5
59AB
  8
0
 62
     0
 10
269.97349570342482
 20
271.89733749787331
 30
0.0
 11
273.06870670342482
 21
271.89733749787331
 31
0.0
  0
LINE
  5
59AC
  8
0
 62
     0
 10
269.97349570342482
 20
269.55733749787328
 30
0.0
 11
273.09061870342481
 21
269.55733749787328
 31
0.0
  0
LINE
  5
59AD
  8
0
 62
     0
 10
269.97349570342482
 20
271.54733749787329
 30
0.0
 11
271.03939970342469
 21
271.54733749787329
 31
0.0
  0
LINE
  5
59AE
  8
0
 62
     0
 10
269.97349570342482
 20
301.54733749787329
 30
0.0
 11
271.03939970342469
 21
301.54733749787329
 31
0.0
  0
LINE
  5
59AF
  8
0
 62
     0
 10
269.97349570342482
 20
299.94733749787321
 30
0.0
 11
271.03939970342469
 21
299.94733749787321
 31
0.0
  0
LINE
  5
59B0
  8
0
 62
     0
 10
269.97349570342482
 20
291.54733749787329
 30
0.0
 11
271.03939970342469
 21
291.54733749787329
 31
0.0
  0
LINE
  5
59B1
  8
0
 62
     0
 10
269.97349570342482
 20
289.94733749787321
 30
0.0
 11
271.03939970342469
 21
289.94733749787321
 31
0.0
  0
LINE
  5
59B2
  8
0
 62
     0
 10
269.97349570342482
 20
281.54733749787329
 30
0.0
 11
271.03939970342469
 21
281.54733749787329
 31
0.0
  0
LINE
  5
59B3
  8
0
 62
     0
 10
269.97349570342482
 20
279.94733749787332
 30
0.0
 11
271.03939970342469
 21
279.94733749787332
 31
0.0
  0
LINE
  5
59B4
  8
0
 62
     0
 10
269.97349570342482
 20
269.94733749787332
 30
0.0
 11
271.03939970342469
 21
269.94733749787332
 31
0.0
  0
LINE
  5
59B5
  8
0
 62
     0
 10
272.71939970342481
 20
331.7773374978733
 30
0.0
 11
271.03939970342469
 21
331.54733749787329
 31
0.0
  0
LINE
  5
59B6
  8
0
 62
     0
 10
272.7293997034248
 20
329.68733749787339
 30
0.0
 11
271.03939970342469
 21
329.94733749787332
 31
0.0
  0
LINE
  5
59B7
  8
0
 62
     0
 10
273.57939970342483
 20
332.76733749787331
 30
0.0
 11
273.57939970342483
 21
328.69733749787332
 31
0.0
  0
LINE
  5
59B8
  8
0
 62
     0
 10
272.71939970342481
 20
321.7773374978733
 30
0.0
 11
271.03939970342469
 21
321.54733749787329
 31
0.0
  0
LINE
  5
59B9
  8
0
 62
     0
 10
272.7293997034248
 20
319.68733749787327
 30
0.0
 11
271.03939970342469
 21
319.94733749787332
 31
0.0
  0
LINE
  5
59BA
  8
0
 62
     0
 10
273.57939970342483
 20
322.76733749787331
 30
0.0
 11
273.57939970342483
 21
318.69733749787332
 31
0.0
  0
LINE
  5
59BB
  8
0
 62
     0
 10
272.71939970342481
 20
311.7773374978733
 30
0.0
 11
271.03939970342469
 21
311.54733749787329
 31
0.0
  0
LINE
  5
59BC
  8
0
 62
     0
 10
272.7293997034248
 20
309.68733749787327
 30
0.0
 11
271.03939970342469
 21
309.94733749787332
 31
0.0
  0
LINE
  5
59BD
  8
0
 62
     0
 10
273.57939970342483
 20
312.76733749787331
 30
0.0
 11
273.57939970342483
 21
308.69733749787332
 31
0.0
  0
LINE
  5
59BE
  8
0
 62
     0
 10
273.57939970342483
 20
342.76733749787331
 30
0.0
 11
273.57939970342483
 21
338.69733749787332
 31
0.0
  0
LINE
  5
59BF
  8
0
 62
     0
 10
272.71939970342481
 20
341.7773374978733
 30
0.0
 11
271.03939970342469
 21
341.54733749787329
 31
0.0
  0
LINE
  5
59C0
  8
0
 62
     0
 10
272.7293997034248
 20
339.68733749787327
 30
0.0
 11
271.03939970342469
 21
339.94733749787332
 31
0.0
  0
ARC
  5
59C1
  8
0
 62
     0
 10
271.03094370342478
 20
330.74834349787329
 30
0.0
 40
0.80105
 50
270.6048560000001
 51
80.04681700000134
  0
ARC
  5
59C2
  8
0
 62
     0
 10
272.57676770342482
 20
328.69639149787332
 30
0.0
 40
1.0026319999999971
 50
0.0540849999984558
 51
81.243759000000509
  0
ARC
  5
59C3
  8
0
 62
     0
 10
272.57243270342479
 20
332.77354149787328
 30
0.0
 40
1.0069859999999999
 50
278.39216299999862
 51
359.64700199999788
  0
ARC
  5
59C4
  8
0
 62
     0
 10
271.03100470342468
 20
320.74733749787327
 30
0.0
 40
0.8000439999999999
 50
270.6012089999997
 51
89.398791000000301
  0
ARC
  5
59C5
  8
0
 62
     0
 10
272.57676770342482
 20
318.69639149787332
 30
0.0
 40
1.0026319999999971
 50
0.0540849999984558
 51
81.243759000000509
  0
ARC
  5
59C6
  8
0
 62
     0
 10
272.57243270342479
 20
322.77354149787328
 30
0.0
 40
1.0069859999999999
 50
278.39216299999862
 51
359.64700199999788
  0
ARC
  5
59C7
  8
0
 62
     0
 10
271.03100470342468
 20
310.74733749787327
 30
0.0
 40
0.8000439999999999
 50
270.6012089999997
 51
89.398791000000301
  0
ARC
  5
59C8
  8
0
 62
     0
 10
272.57676770342482
 20
308.69639149787332
 30
0.0
 40
1.0026319999999971
 50
0.0540849999984558
 51
81.243759000000509
  0
ARC
  5
59C9
  8
0
 62
     0
 10
272.57243270342479
 20
312.77354149787328
 30
0.0
 40
1.0069859999999999
 50
278.39216299999862
 51
359.64700199999788
  0
ARC
  5
59CA
  8
0
 62
     0
 10
272.57676770342482
 20
338.69639149787321
 30
0.0
 40
1.0026319999999971
 50
0.0540849999984558
 51
81.243759000000509
  0
ARC
  5
59CB
  8
0
 62
     0
 10
272.57243270342479
 20
342.77354149787328
 30
0.0
 40
1.0069859999999999
 50
278.39216299999862
 51
359.64700199999788
  0
ARC
  5
59CC
  8
0
 62
     0
 10
271.03094470342478
 20
340.74855349787327
 30
0.0
 40
0.801261
 50
270.60461099999839
 51
94.506741999999505
  0
LINE
  5
59CD
  8
0
 62
     0
 10
269.97349570342482
 20
331.84733749787318
 30
0.0
 11
272.96761370342472
 21
331.84733749787318
 31
0.0
  0
LINE
  5
59CE
  8
0
 62
     0
 10
269.97349570342482
 20
329.66733749787329
 30
0.0
 11
272.82683670342482
 21
329.66733749787329
 31
0.0
  0
LINE
  5
59CF
  8
0
 62
     0
 10
269.97349570342482
 20
321.7873374978733
 30
0.0
 11
272.7759597034248
 21
321.7873374978733
 31
0.0
  0
LINE
  5
59D0
  8
0
 62
     0
 10
269.97349570342482
 20
319.70733749787331
 30
0.0
 11
272.59939970342469
 21
319.70733749787331
 31
0.0
  0
LINE
  5
59D1
  8
0
 62
     0
 10
269.97349570342482
 20
311.76733749787331
 30
0.0
 11
272.64635670342477
 21
311.76733749787331
 31
0.0
  0
LINE
  5
59D2
  8
0
 62
     0
 10
269.97349570342482
 20
309.72733749787318
 30
0.0
 11
272.4693997034247
 21
309.72733749787318
 31
0.0
  0
LINE
  5
59D3
  8
0
 62
     0
 10
269.97349570342482
 20
341.93733749787327
 30
0.0
 11
273.13348870342469
 21
341.93733749787327
 31
0.0
  0
LINE
  5
59D4
  8
0
 62
     0
 10
269.97349570342482
 20
339.58733749787319
 30
0.0
 11
273.03664370342477
 21
339.58733749787319
 31
0.0
  0
LINE
  5
59D5
  8
0
 62
     0
 10
269.97349570342482
 20
341.54733749787329
 30
0.0
 11
271.09390470342481
 21
341.54733749787329
 31
0.0
  0
LINE
  5
59D6
  8
0
 62
     0
 10
269.97349570342482
 20
339.94733749787332
 30
0.0
 11
271.03939970342469
 21
339.94733749787332
 31
0.0
  0
LINE
  5
59D7
  8
0
 62
     0
 10
269.97349570342482
 20
331.54733749787329
 30
0.0
 11
271.08830470342468
 21
331.54733749787329
 31
0.0
  0
LINE
  5
59D8
  8
0
 62
     0
 10
269.97349570342482
 20
329.94733749787332
 30
0.0
 11
271.03939970342469
 21
329.94733749787332
 31
0.0
  0
LINE
  5
59D9
  8
0
 62
     0
 10
269.97349570342482
 20
321.54733749787329
 30
0.0
 11
271.03939970342469
 21
321.54733749787329
 31
0.0
  0
LINE
  5
59DA
  8
0
 62
     0
 10
269.97349570342482
 20
319.94733749787332
 30
0.0
 11
271.03939970342469
 21
319.94733749787332
 31
0.0
  0
LINE
  5
59DB
  8
0
 62
     0
 10
269.97349570342482
 20
311.54733749787329
 30
0.0
 11
271.03939970342469
 21
311.54733749787329
 31
0.0
  0
LINE
  5
59DC
  8
0
 62
     0
 10
269.97349570342482
 20
309.94733749787332
 30
0.0
 11
271.03939970342469
 21
309.94733749787332
 31
0.0
  0
ARC
  5
59DD
  8
0
 62
     0
 10
193.27560270342479
 20
294.44741749787329
 30
0.0
 40
2.6000000000000001
 50
137.1002180000024
 51
180.0
  0
ARC
  5
59DE
  8
0
 62
     0
 10
193.27560270342479
 20
317.04725749787332
 30
0.0
 40
2.6000000000000001
 50
180.0
 51
222.8997819999976
  0
ARC
  5
59DF
  8
0
 62
     0
 10
181.11534770342479
 20
305.74733749787327
 30
0.0
 40
14.0
 50
317.10021800000243
 51
42.899781999997558
  0
LINE
  5
59E0
  8
0
 62
     0
 10
269.97349570342482
 20
269.01665649787333
 30
0.0
 11
269.97349570342482
 21
342.47519949787329
 31
0.0
  0
LINE
  5
59E1
  8
0
 62
     0
 10
264.8735057034246
 20
272.6396404978733
 30
0.0
 11
264.8735057034246
 21
338.8593544978732
 31
0.0
  0
LINE
  5
59E2
  8
0
 62
     0
 10
261.55650370342482
 20
272.44284049787319
 30
0.0
 11
261.55650370342482
 21
339.05184249787328
 31
0.0
  0
LINE
  5
59E3
  8
0
 62
     0
 10
187.2169047034248
 20
273.08459849787329
 30
0.0
 11
187.2169047034248
 21
292.83784149787328
 31
0.0
  0
LINE
  5
59E4
  8
0
 62
     0
 10
187.2169047034248
 20
338.40593749787331
 30
0.0
 11
187.2169047034248
 21
318.65683749787331
 31
0.0
  0
LINE
  5
59E5
  8
0
 62
     0
 10
181.7278027034248
 20
340.69854149787329
 30
0.0
 11
181.7278027034248
 21
270.79613349787331
 31
0.0
  0
LINE
  5
59E6
  8
0
 62
     0
 10
179.66400170342459
 20
340.56373749787321
 30
0.0
 11
179.66400170342459
 21
270.9309334978733
 31
0.0
  0
LINE
  5
59E7
  8
0
 62
     0
 10
190.6756027034248
 20
273.21514149787339
 30
0.0
 11
190.6756027034248
 21
294.44741749787329
 31
0.0
  0
LINE
  5
59E8
  8
0
 62
     0
 10
190.6756027034248
 20
317.04725749787332
 30
0.0
 11
190.6756027034248
 21
335.3296354978732
 31
0.0
  0
ARC
  5
59E9
  8
0
 62
     0
 10
261.87350570342471
 20
272.6396404978733
 30
0.0
 40
3.0
 50
273.55702099999951
 51
0.0000179999992061
  0
ARC
  5
59EA
  8
0
 62
     0
 10
266.37350570342471
 20
269.0271374978733
 30
0.0
 40
3.6000059999999978
 50
273.96599900000109
 51
0.0000179999992061
  0
ARC
  5
59EB
  8
0
 62
     0
 10
190.8169027034248
 20
273.08874149787329
 30
0.0
 40
3.6000009999999998
 50
180.00007799999869
 51
266.68501399999951
  0
ARC
  5
59EC
  8
0
 62
     0
 10
225.0793997034248
 20
864.59731349787296
 30
0.0
 40
596.09997599999986
 50
266.68505800000048
 51
273.5570069999996
  0
ARC
  5
59ED
  8
0
 62
     0
 10
187.32780470342459
 20
270.79613849787319
 30
0.0
 40
5.5999989999999968
 50
180.00005699999849
 51
266.36204099999878
  0
ARC
  5
59EE
  8
0
 62
     0
 10
185.2640047034248
 20
270.93093849787329
 30
0.0
 40
5.600000999999998
 50
180.00005699999849
 51
266.16303700000049
  0
ARC
  5
59EF
  8
0
 62
     0
 10
225.0793997034248
 20
864.59731349787296
 30
0.0
 40
600.59997599999986
 50
266.16305400000141
 51
273.96601300000123
  0
ARC
  5
59F0
  8
0
 62
     0
 10
258.55650370342482
 20
272.44284049787319
 30
0.0
 40
3.0
 50
273.23604300000119
 51
0.0000179999992061
  0
ARC
  5
59F1
  8
0
 62
     0
 10
261.87350570342471
 20
338.85504149787329
 30
0.0
 40
3.0000029999999982
 50
0.0000179999992061
 51
86.443252999999885
  0
ARC
  5
59F2
  8
0
 62
     0
 10
266.37350570342471
 20
342.46733849787319
 30
0.0
 40
3.5999989999999982
 50
0.0000179999992061
 51
86.033744000000837
  0
ARC
  5
59F3
  8
0
 62
     0
 10
190.8169027034248
 20
338.40593749787331
 30
0.0
 40
3.5999979999999998
 50
93.315004999999587
 51
179.99998200000081
  0
ARC
  5
59F4
  8
0
 62
     0
 10
225.0793997034248
 20
-253.10263850212669
 30
0.0
 40
596.09997599999986
 50
86.443289999999465
 51
93.315088999999574
  0
ARC
  5
59F5
  8
0
 62
     0
 10
187.32780470342459
 20
340.6985394978733
 30
0.0
 40
5.5999980000000003
 50
93.638056000000873
 51
179.99998200000081
  0
ARC
  5
59F6
  8
0
 62
     0
 10
185.2640047034248
 20
340.56373649787332
 30
0.0
 40
5.5999980000000003
 50
93.837062000000643
 51
179.99998200000081
  0
ARC
  5
59F7
  8
0
 62
     0
 10
225.0793997034248
 20
-253.10263850212669
 30
0.0
 40
600.59997599999986
 50
86.033760000000385
 51
93.836910000000643
  0
ARC
  5
59F8
  8
0
 62
     0
 10
258.55650370342482
 20
339.05184149787328
 30
0.0
 40
2.9999989999999999
 50
0.0000179999992061
 51
86.764376000000055
  0
ARC
  5
59F9
  8
0
 62
     0
 10
189.2169047034248
 20
318.65683749787331
 30
0.0
 40
1.999997
 50
179.99998200000081
 51
229.4100490000007
  0
ARC
  5
59FA
  8
0
 62
     0
 10
189.2169047034248
 20
292.83784149787328
 30
0.0
 40
2.0
 50
130.59005899999829
 51
179.99998200000081
  0
ARC
  5
59FB
  8
0
 62
     0
 10
178.15600270342469
 20
305.74733749787327
 30
0.0
 40
15.000002
 50
310.58999199999971
 51
49.40970199999888
  0
ARC
  5
59FC
  8
0
 62
     0
 10
269.17940870342483
 20
360.05631149787331
 30
0.0
 40
2.2000009999999981
 50
180.0000030000009
 51
269.99997799999852
  0
ARC
  5
59FD
  8
0
 62
     0
 10
269.17940870342483
 20
364.65631749787332
 30
0.0
 40
2.1999970000000002
 50
90.0
 51
179.99998200000081
  0
LINE
  5
59FE
  8
0
 62
     0
 10
271.57939970342483
 20
362.30686949787332
 30
0.0
 11
270.27939970342482
 21
361.5563144978733
 31
0.0
  0
LINE
  5
59FF
  8
0
 62
     0
 10
271.57939970342483
 20
363.30686949787332
 30
0.0
 11
270.27939970342482
 21
362.5563144978733
 31
0.0
  0
LINE
  5
5A00
  8
0
 62
     0
 10
270.27939970342482
 20
366.95631449787339
 30
0.0
 11
271.57939970342483
 21
366.95631449787339
 31
0.0
  0
LINE
  5
5A01
  8
0
 62
     0
 10
270.27939970342482
 20
357.75631449787329
 30
0.0
 11
271.57939970342483
 21
357.75631449787329
 31
0.0
  0
LINE
  5
5A02
  8
0
 62
     0
 10
271.57939970342483
 20
366.95631449787339
 30
0.0
 11
271.57939970342483
 21
357.75631449787329
 31
0.0
  0
LINE
  5
5A03
  8
0
 62
     0
 10
266.97939670342481
 20
364.65631749787332
 30
0.0
 11
266.97939670342481
 21
360.05631149787331
 31
0.0
  0
LINE
  5
5A04
  8
0
 62
     0
 10
270.27939970342482
 20
366.95631449787339
 30
0.0
 11
270.27939970342482
 21
357.75631449787329
 31
0.0
  0
LINE
  5
5A05
  8
0
 62
     0
 10
270.27939970342482
 20
357.85631449787331
 30
0.0
 11
269.17940870342483
 21
357.85631449787331
 31
0.0
  0
LINE
  5
5A06
  8
0
 62
     0
 10
270.27939970342482
 20
366.85631449787331
 30
0.0
 11
269.17940870342483
 21
366.85631449787331
 31
0.0
  0
LINE
  5
5A07
  8
0
  6
CONTINUOUS
 62
     7
 10
281.57939970342483
 20
232.2473374978733
 30
0.0
 11
281.57939970342483
 21
379.24727949787331
 31
0.0
  0
LINE
  5
5A08
  8
0
 62
     0
 10
119.5793997034247
 20
341.54727949787332
 30
0.0
 11
179.7510537034247
 21
341.54727949787332
 31
0.0
  0
LINE
  5
5A09
  8
0
 62
     0
 10
119.5793997034247
 20
339.9472794978733
 30
0.0
 11
179.66400170342459
 21
339.9472794978733
 31
0.0
  0
LINE
  5
5A0A
  8
0
 62
     0
 10
112.0733887034247
 20
331.54727949787332
 30
0.0
 11
179.66400170342459
 21
331.54727949787332
 31
0.0
  0
LINE
  5
5A0B
  8
0
 62
     0
 10
112.0733887034247
 20
329.9472794978733
 30
0.0
 11
179.66400170342459
 21
329.9472794978733
 31
0.0
  0
LINE
  5
5A0C
  8
0
 62
     0
 10
112.0733887034247
 20
319.9472794978733
 30
0.0
 11
179.66400170342459
 21
319.9472794978733
 31
0.0
  0
LINE
  5
5A0D
  8
0
 62
     0
 10
112.0733887034247
 20
321.54727949787332
 30
0.0
 11
179.66400170342459
 21
321.54727949787332
 31
0.0
  0
LINE
  5
5A0E
  8
0
 62
     0
 10
112.0733887034247
 20
321.79727949787332
 30
0.0
 11
179.66400170342459
 21
321.79727949787332
 31
0.0
  0
LINE
  5
5A0F
  8
0
 62
     0
 10
119.5793997034247
 20
339.59727949787327
 30
0.0
 11
179.66400170342459
 21
339.59727949787327
 31
0.0
  0
LINE
  5
5A10
  8
0
 62
     0
 10
119.5793997034247
 20
341.93727949787331
 30
0.0
 11
179.83506670342479
 21
341.93727949787331
 31
0.0
  0
LINE
  5
5A11
  8
0
 62
     0
 10
179.66400170342459
 20
331.84727949787327
 30
0.0
 11
112.0733887034247
 21
331.84727949787327
 31
0.0
  0
LINE
  5
5A12
  8
0
 62
     0
 10
179.66400170342459
 20
329.66727949787332
 30
0.0
 11
112.0733887034247
 21
329.66727949787332
 31
0.0
  0
LINE
  5
5A13
  8
0
 62
     0
 10
179.66400170342459
 20
319.71727949787328
 30
0.0
 11
112.0733887034247
 21
319.71727949787328
 31
0.0
  0
LINE
  5
5A14
  8
0
 62
     0
 10
179.66400170342459
 20
311.76727949787318
 30
0.0
 11
112.0733887034247
 21
311.76727949787318
 31
0.0
  0
LINE
  5
5A15
  8
0
 62
     0
 10
179.66400170342459
 20
309.73727949787332
 30
0.0
 11
112.0733887034247
 21
309.73727949787332
 31
0.0
  0
LINE
  5
5A16
  8
0
 62
     0
 10
179.66400170342459
 20
311.54727949787332
 30
0.0
 11
112.0733887034247
 21
311.54727949787332
 31
0.0
  0
LINE
  5
5A17
  8
0
 62
     0
 10
179.66400170342459
 20
309.9472794978733
 30
0.0
 11
112.0733887034247
 21
309.9472794978733
 31
0.0
  0
LINE
  5
5A18
  8
0
 62
     0
 10
119.5793997034247
 20
351.52727949787328
 30
0.0
 11
270.97221570342481
 21
351.52727949787328
 31
0.0
  0
LINE
  5
5A19
  8
0
 62
     0
 10
119.5793997034247
 20
349.92727949787331
 30
0.0
 11
271.11912870342479
 21
349.92727949787331
 31
0.0
  0
LINE
  5
5A1A
  8
0
 62
     0
 10
112.0733887034247
 20
351.91727949787332
 30
0.0
 11
273.0743447034248
 21
351.91727949787332
 31
0.0
  0
LINE
  5
5A1B
  8
0
 62
     0
 10
119.5793997034247
 20
349.57727949787329
 30
0.0
 11
273.08903670342482
 21
349.57727949787329
 31
0.0
  0
LINE
  5
5A1C
  8
0
 62
     0
 10
270.07939970342483
 20
356.64832949787331
 30
0.0
 11
270.19555970342481
 21
357.85631449787331
 31
0.0
  0
LINE
  5
5A1D
  8
0
 62
     0
 10
112.0733887034247
 20
335.02883649787327
 30
0.0
 11
119.5793997034247
 21
335.02883649787327
 31
0.0
  0
LINE
  5
5A1E
  8
0
 62
     0
 10
112.0733887034247
 20
340.74727949787319
 30
0.0
 11
119.5793997034247
 21
340.74727949787319
 31
0.0
  0
LINE
  5
5A1F
  8
0
 62
     0
 10
112.0733887034247
 20
351.26727949787318
 30
0.0
 11
119.5793997034247
 21
351.26727949787318
 31
0.0
  0
LINE
  5
5A20
  8
0
 62
     0
 10
112.0733887034247
 20
351.67861149787319
 30
0.0
 11
119.5793997034247
 21
351.67861149787319
 31
0.0
  0
LINE
  5
5A21
  8
0
 62
     0
 10
119.5793997034247
 20
351.67861149787319
 30
0.0
 11
119.5793997034247
 21
335.02883649787327
 31
0.0
  0
ARC
  5
5A22
  8
0
 62
     0
 10
54.078178703424769
 20
368.91617649787332
 30
0.0
 40
2.0
 50
96.369371000000768
 51
180.0
  0
ARC
  5
5A23
  8
0
 62
     0
 10
53.523490703424841
 20
373.88531049787332
 30
0.0
 40
2.999997
 50
276.3693710000008
 51
350.0001740000024
  0
LINE
  5
5A24
  8
0
 62
     0
 10
56.477922703424852
 20
373.36429049787313
 30
0.0
 11
57.538784703424781
 21
379.38176649787329
 31
0.0
  0
LINE
  5
5A25
  8
0
 62
     0
 10
52.078178703424769
 20
242.5784404978732
 30
0.0
 11
52.078178703424769
 21
368.91617649787332
 31
0.0
  0
LINE
  5
5A26
  8
0
 62
     0
 10
59.132377703424808
 20
379.70931549787332
 30
0.0
 11
59.132377703424808
 21
231.78530149787329
 31
0.0
  0
LINE
  5
5A27
  8
0
 62
     0
 10
89.080016703424803
 20
225.9975204978733
 30
0.0
 11
89.080016703424803
 21
385.49709649787332
 31
0.0
  0
LINE
  5
5A28
  8
0
 62
     0
 10
88.767395703424754
 20
385.48071349787313
 30
0.0
 11
62.900725703424769
 21
384.1252104978733
 31
0.0
  0
LINE
  5
5A29
  8
0
 62
     0
 10
90.330436703424752
 20
386.49727949787331
 30
0.0
 11
112.0793997034247
 21
386.49727949787331
 31
0.0
  0
ARC
  5
5A2A
  8
0
 62
     0
 10
90.330436703424752
 20
385.24727949787331
 30
0.0
 40
1.25
 50
89.999982000000799
 51
154.62363900000179
  0
ARC
  5
5A2B
  8
0
 62
     0
 10
63.20159170342481
 20
378.3832654978732
 30
0.0
 40
5.7500059999999991
 50
92.999882999999429
 51
170.00004800000099
  0
ARC
  5
5A2C
  8
0
 62
     0
 10
88.741229703424779
 20
385.98002849787321
 30
0.0
 40
0.5
 50
272.99975299999932
 51
335.24659000000122
  0
LINE
  5
5A2D
  8
0
 62
     0
 10
119.5793997034247
 20
269.94733749787332
 30
0.0
 11
179.7510617034246
 21
269.94733749787332
 31
0.0
  0
LINE
  5
5A2E
  8
0
 62
     0
 10
119.5793997034247
 20
271.54733749787329
 30
0.0
 11
179.66400170342459
 21
271.54733749787329
 31
0.0
  0
LINE
  5
5A2F
  8
0
 62
     0
 10
112.0733887034247
 20
279.94733749787332
 30
0.0
 11
179.66400170342459
 21
279.94733749787332
 31
0.0
  0
LINE
  5
5A30
  8
0
 62
     0
 10
112.0733887034247
 20
281.54733749787329
 30
0.0
 11
179.66400170342459
 21
281.54733749787329
 31
0.0
  0
LINE
  5
5A31
  8
0
 62
     0
 10
112.0733887034247
 20
291.54733749787329
 30
0.0
 11
179.66400170342459
 21
291.54733749787329
 31
0.0
  0
LINE
  5
5A32
  8
0
 62
     0
 10
112.0733887034247
 20
289.94733749787321
 30
0.0
 11
179.66400170342459
 21
289.94733749787321
 31
0.0
  0
LINE
  5
5A33
  8
0
 62
     0
 10
112.0733887034247
 20
289.69733749787332
 30
0.0
 11
179.66400170342459
 21
289.69733749787332
 31
0.0
  0
LINE
  5
5A34
  8
0
 62
     0
 10
119.5793997034247
 20
271.89733749787331
 30
0.0
 11
179.66400170342459
 21
271.89733749787331
 31
0.0
  0
LINE
  5
5A35
  8
0
 62
     0
 10
119.5793997034247
 20
269.55733749787328
 30
0.0
 11
179.83507870342461
 21
269.55733749787328
 31
0.0
  0
LINE
  5
5A36
  8
0
 62
     0
 10
179.66400170342459
 20
279.64733749787331
 30
0.0
 11
112.0733887034247
 21
279.64733749787331
 31
0.0
  0
LINE
  5
5A37
  8
0
 62
     0
 10
179.66400170342459
 20
281.8273374978732
 30
0.0
 11
112.0733887034247
 21
281.8273374978732
 31
0.0
  0
LINE
  5
5A38
  8
0
 62
     0
 10
179.66400170342459
 20
291.7773374978733
 30
0.0
 11
112.0733887034247
 21
291.7773374978733
 31
0.0
  0
LINE
  5
5A39
  8
0
 62
     0
 10
179.66400170342459
 20
299.72733749787318
 30
0.0
 11
112.0733887034247
 21
299.72733749787318
 31
0.0
  0
LINE
  5
5A3A
  8
0
 62
     0
 10
179.66400170342459
 20
301.75733749787332
 30
0.0
 11
112.0733887034247
 21
301.75733749787332
 31
0.0
  0
LINE
  5
5A3B
  8
0
 62
     0
 10
179.66400170342459
 20
299.94733749787321
 30
0.0
 11
112.0733887034247
 21
299.94733749787321
 31
0.0
  0
LINE
  5
5A3C
  8
0
 62
     0
 10
179.66400170342459
 20
301.54733749787329
 30
0.0
 11
112.0733887034247
 21
301.54733749787329
 31
0.0
  0
LINE
  5
5A3D
  8
0
 62
     0
 10
119.5793997034247
 20
259.9673374978733
 30
0.0
 11
270.97259370342482
 21
259.9673374978733
 31
0.0
  0
LINE
  5
5A3E
  8
0
 62
     0
 10
119.5793997034247
 20
261.56733749787332
 30
0.0
 11
271.11870470342473
 21
261.56733749787332
 31
0.0
  0
LINE
  5
5A3F
  8
0
 62
     0
 10
112.0733887034247
 20
259.57733749787332
 30
0.0
 11
273.07444770342482
 21
259.57733749787332
 31
0.0
  0
LINE
  5
5A40
  8
0
 62
     0
 10
119.5793997034247
 20
261.91733749787329
 30
0.0
 11
273.08893870342467
 21
261.91733749787329
 31
0.0
  0
LINE
  5
5A41
  8
0
 62
     0
 10
270.07939970342483
 20
261.91733749787329
 30
0.0
 11
270.07939970342483
 21
269.55733749787328
 31
0.0
  0
LINE
  5
5A42
  8
0
 62
     0
 10
270.07939970342483
 20
254.84628749787331
 30
0.0
 11
270.07939970342483
 21
259.57733749787332
 31
0.0
  0
LINE
  5
5A43
  8
0
 62
     0
 10
271.57939970342483
 20
243.7473374978733
 30
0.0
 11
271.57939970342483
 21
259.57733749787332
 31
0.0
  0
LINE
  5
5A44
  8
0
 62
     0
 10
270.07939970342483
 20
254.84628749787331
 30
0.0
 11
270.19555470342482
 21
253.63836149787329
 31
0.0
  0
LINE
  5
5A45
  8
0
 62
     0
 10
112.0733887034247
 20
276.46578049787331
 30
0.0
 11
119.5793997034247
 21
276.46578049787331
 31
0.0
  0
LINE
  5
5A46
  8
0
 62
     0
 10
112.0733887034247
 20
270.74733749787327
 30
0.0
 11
119.5793997034247
 21
270.74733749787327
 31
0.0
  0
LINE
  5
5A47
  8
0
 62
     0
 10
112.0733887034247
 20
260.22733749787329
 30
0.0
 11
119.5793997034247
 21
260.22733749787329
 31
0.0
  0
LINE
  5
5A48
  8
0
 62
     0
 10
112.0733887034247
 20
259.81600549787339
 30
0.0
 11
119.5793997034247
 21
259.81600549787339
 31
0.0
  0
LINE
  5
5A49
  8
0
 62
     0
 10
119.5793997034247
 20
259.81600549787339
 30
0.0
 11
119.5793997034247
 21
276.46578049787331
 31
0.0
  0
ARC
  5
5A4A
  8
0
 62
     0
 10
54.078178703424769
 20
242.5784404978732
 30
0.0
 40
2.0
 50
180.0
 51
263.63062899999932
  0
ARC
  5
5A4B
  8
0
 62
     0
 10
53.523490703424841
 20
237.60930649787329
 30
0.0
 40
2.999997
 50
9.9998259999975794
 51
83.63062899999926
  0
LINE
  5
5A4C
  8
0
 62
     0
 10
56.477922703424852
 20
238.13032649787331
 30
0.0
 11
57.538784703424781
 21
232.1128504978733
 31
0.0
  0
LINE
  5
5A4D
  8
0
 62
     0
 10
56.078178703424769
 20
371.49129849787317
 30
0.0
 11
56.078178703424769
 21
240.00331849787329
 31
0.0
  0
LINE
  5
5A4E
  8
0
 62
     0
 10
271.27939970342482
 20
271.89733749787331
 30
0.0
 11
271.57939970342483
 21
271.89733749787331
 31
0.0
  0
LINE
  5
5A4F
  8
0
 62
     0
 10
271.22870870342467
 20
269.55733749787328
 30
0.0
 11
271.57939970342483
 21
269.55733749787328
 31
0.0
  0
LINE
  5
5A50
  8
0
 62
     0
 10
88.767395703424754
 20
226.01390349787329
 30
0.0
 11
62.900725703424769
 21
227.36940649787331
 31
0.0
  0
LINE
  5
5A51
  8
0
 62
     0
 10
90.330436703424752
 20
224.9973374978733
 30
0.0
 11
112.0793997034247
 21
224.9973374978733
 31
0.0
  0
ARC
  5
5A52
  8
0
 62
     0
 10
90.330436703424752
 20
226.2473374978733
 30
0.0
 40
1.25
 50
205.3763609999981
 51
270.00001799999922
  0
ARC
  5
5A53
  8
0
 62
     0
 10
63.20159170342481
 20
233.1113514978733
 30
0.0
 40
5.7500059999999991
 50
189.9999519999989
 51
267.00011700000061
  0
ARC
  5
5A54
  8
0
 62
     0
 10
88.741229703424779
 20
225.51458849787329
 30
0.0
 40
0.5
 50
24.75340999999878
 51
87.000247000000712
  0
LINE
  5
5A55
  8
0
 62
     0
 10
270.07939970342483
 20
356.64832949787331
 30
0.0
 11
270.07939970342483
 21
351.91733749787329
 31
0.0
  0
LINE
  5
5A56
  8
0
 62
     0
 10
270.07939970342483
 20
349.57733749787332
 30
0.0
 11
270.07939970342483
 21
341.93733749787327
 31
0.0
  0
LINE
  5
5A57
  8
0
 62
     0
 10
112.0733887034247
 20
224.9973374978733
 30
0.0
 11
112.0733887034247
 21
386.49727949787331
 31
0.0
  0
ARC
  5
5A58
  8
0
 62
     0
 10
269.17940670342477
 20
251.43836449787329
 30
0.0
 40
2.2000009999999981
 50
90.000022000001564
 51
179.99999699999901
  0
ARC
  5
5A59
  8
0
 62
     0
 10
269.17940670342477
 20
246.83835849787329
 30
0.0
 40
2.1999970000000002
 50
180.00001799999919
 51
270.0
  0
LINE
  5
5A5A
  8
0
 62
     0
 10
271.57939770342477
 20
249.18780649787331
 30
0.0
 11
270.27939770342482
 21
249.9383614978733
 31
0.0
  0
LINE
  5
5A5B
  8
0
 62
     0
 10
271.57939770342477
 20
248.18780649787331
 30
0.0
 11
270.27939770342482
 21
248.9383614978733
 31
0.0
  0
LINE
  5
5A5C
  8
0
 62
     0
 10
270.27939770342482
 20
244.5383614978733
 30
0.0
 11
271.57939770342477
 21
244.5383614978733
 31
0.0
  0
LINE
  5
5A5D
  8
0
 62
     0
 10
270.27939770342482
 20
253.73836149787331
 30
0.0
 11
271.57939770342477
 21
253.73836149787331
 31
0.0
  0
LINE
  5
5A5E
  8
0
 62
     0
 10
271.57939770342477
 20
244.5383614978733
 30
0.0
 11
271.57939770342477
 21
253.73836149787331
 31
0.0
  0
LINE
  5
5A5F
  8
0
 62
     0
 10
266.97939470342482
 20
246.83835849787329
 30
0.0
 11
266.97939470342482
 21
251.43836449787329
 31
0.0
  0
LINE
  5
5A60
  8
0
 62
     0
 10
270.27939770342482
 20
244.5383614978733
 30
0.0
 11
270.27939770342482
 21
253.73836149787331
 31
0.0
  0
LINE
  5
5A61
  8
0
 62
     0
 10
270.27939770342482
 20
253.63836149787329
 30
0.0
 11
269.17940670342477
 21
253.63836149787329
 31
0.0
  0
LINE
  5
5A62
  8
0
 62
     0
 10
270.27939770342482
 20
244.63836149787329
 30
0.0
 11
269.17940670342477
 21
244.63836149787329
 31
0.0
  0
LINE
  5
5C7F
  8
0
  6
CONTINUOUS
 62
     0
 10
439.07945970342507
 20
596.21110130591694
 30
0.0
 11
439.07945970342507
 21
568.21110130591694
 31
0.0
  0
LINE
  5
5CAF
  8
0
  6
CONTINUOUS
 62
     7
 10
281.57942970342532
 20
508.71110130591688
 30
0.0
 11
281.57942970342532
 21
655.71107130591713
 31
0.0
  0
ARC
  5
5EB4
  8
0
  6
CONTINUOUS
 62
     7
 10
272.57831403737492
 20
520.17226330591666
 30
0.0
 40
1.0
 50
180.0
 51
270.0
  0
ARC
  5
5EB5
  8
0
  6
CONTINUOUS
 62
     7
 10
272.57831403737492
 20
644.24987930591692
 30
0.0
 40
1.0
 50
90.0
 51
180.0
  0
LINE
  5
5EB6
  8
0
 62
     0
 10
191.1783160373748
 20
500.2110713059169
 30
0.0
 11
260.92141603737491
 21
500.2110713059169
 31
0.0
  0
LINE
  5
5EB7
  8
0
  6
CONTINUOUS
 62
     7
 10
269.97643403737487
 20
498.30609230591682
 30
0.0
 11
268.32843903737489
 21
501.84005630591679
 31
0.0
  0
LINE
  5
5EB8
  8
0
 62
     0
 10
268.32843903737489
 20
501.84005630591679
 30
0.0
 11
179.5103200373749
 21
460.42404730591699
 31
0.0
  0
LINE
  5
5EB9
  8
0
 62
     0
 10
181.15851303737489
 20
456.889076305917
 30
0.0
 11
179.5103200373749
 21
460.42404730591699
 31
0.0
  0
LINE
  5
5EBA
  8
0
 62
     0
 10
188.7115180373749
 20
457.25508030591692
 30
0.0
 11
188.39011603737481
 21
457.94407230591679
 31
0.0
  0
LINE
  5
5EBB
  8
0
 62
     0
 10
265.0034160373749
 20
473.12507330591689
 30
0.0
 11
265.0034160373749
 21
493.499081305917
 31
0.0
  0
LINE
  5
5EBC
  8
0
 62
     0
 10
182.6259080373749
 20
456.3600733059169
 30
0.0
 11
269.45141303737489
 21
496.84707630591691
 31
0.0
  0
LINE
  5
5EBD
  8
0
 62
     0
 10
187.57831803737491
 20
464.1860773059168
 30
0.0
 11
187.57831803737491
 21
496.6110803059168
 31
0.0
  0
LINE
  5
5EBE
  8
0
  6
AM_ISO08W050
 62
     0
 10
182.40211703737489
 20
480.21107130591679
 30
0.0
 11
190.9924180373749
 21
480.21107130591679
 31
0.0
  0
LINE
  5
5EBF
  8
0
 62
     0
 10
185.57831803737491
 20
491.81107730591691
 30
0.0
 11
185.57831803737491
 21
468.61108030591691
 31
0.0
  0
LINE
  5
5EC0
  8
0
 62
     0
 10
185.57831803737491
 20
491.81107730591691
 30
0.0
 11
186.57831803737491
 21
491.81107730591691
 31
0.0
  0
LINE
  5
5EC1
  8
0
 62
     0
 10
185.57831803737491
 20
468.61108030591691
 30
0.0
 11
186.57831803737491
 21
468.61108030591691
 31
0.0
  0
ARC
  5
5EC2
  8
0
 62
     0
 10
191.1783160373748
 20
496.6110803059168
 30
0.0
 40
3.5999979999999998
 50
90.000061000000898
 51
179.99998200000081
  0
ARC
  5
5EC3
  8
0
  6
CONTINUOUS
 62
     7
 10
268.97941403737491
 20
497.84107630591677
 30
0.0
 40
1.100006
 50
294.99982599999879
 51
24.999513999998751
  0
ARC
  5
5EC4
  8
0
 62
     0
 10
182.155417037375
 20
457.35407730591692
 30
0.0
 40
1.0999959999999971
 50
204.99980300000141
 51
295.0001949999986
  0
ARC
  5
5EC5
  8
0
 62
     0
 10
257.40341803737488
 20
473.12507330591689
 30
0.0
 40
7.5999979999999967
 50
288.9000159999996
 51
0.0000179999992061
  0
ARC
  5
5EC6
  8
0
 62
     0
 10
191.97421903737489
 20
458.77607430591701
 30
0.0
 40
3.5999979999999998
 50
204.9991569999998
 51
269.09402099999909
  0
ARC
  5
5EC7
  8
0
 62
     0
 10
195.080717037375
 20
655.15206530591718
 30
0.0
 40
200.0
 50
269.09405199999981
 51
288.90000299999889
  0
ARC
  5
5EC8
  8
0
 62
     0
 10
187.48381603737479
 20
457.52207630591698
 30
0.0
 40
0.9999979999999998
 50
24.999268000004911
 51
114.9993579999974
  0
ARC
  5
5EC9
  8
0
  6
CONTINUOUS
 62
     7
 10
267.0034160373749
 20
493.499081305917
 30
0.0
 40
2.0
 50
115.0001499999975
 51
179.99998200000081
  0
ARC
  5
5ECA
  8
0
  6
CONTINUOUS
 62
     7
 10
260.92141603737491
 20
497.61108030591691
 30
0.0
 40
2.600006
 50
40.686130000000617
 51
90.0
  0
ARC
  5
5ECB
  8
0
 62
     0
 10
186.57831803737491
 20
492.8110773059168
 30
0.0
 40
1.0
 50
269.99894299999841
 51
0.0000179999992061
  0
ARC
  5
5ECC
  8
0
 62
     0
 10
186.57831803737491
 20
467.6110803059168
 30
0.0
 40
1.0
 50
0.0000179999992061
 51
90.0
  0
LINE
  5
5ECD
  8
0
  6
AM_ISO08W050
 62
     0
 10
225.07831403737489
 20
510.2957873059168
 30
0.0
 11
225.07831403737489
 21
496.3089653059169
 31
0.0
  0
LINE
  5
5ECE
  8
0
  6
CONTINUOUS
 62
     7
 10
281.57831403737492
 20
508.7110713059169
 30
0.0
 11
281.57831403737492
 21
655.711076305917
 31
0.0
  0
ARC
  5
5ECF
  8
0
 62
     0
 10
119.5971890373749
 20
503.73614130591659
 30
0.0
 40
2.0
 50
60.311696999998048
 51
90.0
  0
LINE
  5
5ED0
  8
0
 62
     0
 10
112.07831403737489
 20
505.73614130591699
 30
0.0
 11
119.5971890373749
 21
505.73614130591699
 31
0.0
  0
ARC
  5
5ED1
  8
0
 62
     0
 10
117.6529410373749
 20
506.44201330591699
 30
0.0
 40
2.0
 50
11.08497000000493
 51
90.0
  0
LINE
  5
5ED2
  8
0
 62
     0
 10
112.07831403737489
 20
508.44201330591659
 30
0.0
 11
117.6529410373749
 21
508.44201330591659
 31
0.0
  0
ARC
  5
5ED3
  8
0
 62
     0
 10
121.57831403737489
 20
507.2110713059169
 30
0.0
 40
2.0
 50
180.0
 51
270.0
  0
ARC
  5
5ED4
  8
0
 62
     0
 10
121.57831403737489
 20
515.71107530591689
 30
0.0
 40
2.0
 50
180.0
 51
270.0
  0
LINE
  5
5ED5
  8
0
 62
     0
 10
119.57831403737489
 20
529.41155830591686
 30
0.0
 11
119.57831403737489
 21
507.2110713059169
 31
0.0
  0
LINE
  5
5ED6
  8
0
 62
     0
 10
112.07831403737489
 20
528.02377430591685
 30
0.0
 11
119.57831403737489
 21
528.02377430591685
 31
0.0
  0
LINE
  5
5ED7
  8
0
 62
     0
 10
112.07831403737489
 20
516.44707930591699
 30
0.0
 11
119.57831403737489
 21
516.44707930591699
 31
0.0
  0
LINE
  5
5ED8
  8
0
 62
     0
 10
112.07831403737489
 20
510.38691630591711
 30
0.0
 11
119.57831403737489
 21
510.38691630591711
 31
0.0
  0
ARC
  5
5ED9
  8
0
  6
CONTINUOUS
 62
     7
 10
269.57831203737487
 20
515.71106730591703
 30
0.0
 40
2.0
 50
269.99999800000052
 51
359.99999799999722
  0
LINE
  5
5EDA
  8
0
 62
     0
 10
121.57831403737489
 20
531.41155830591686
 30
0.0
 11
269.57831103737487
 21
531.41155830591686
 31
0.0
  0
LINE
  5
5EDB
  8
0
 62
     0
 10
121.57831403737489
 20
513.71107530591701
 30
0.0
 11
269.58401503737491
 21
513.71107530591701
 31
0.0
  0
LINE
  5
5EDC
  8
0
  6
CONTINUOUS
 62
     7
 10
271.57831403737492
 20
508.7110713059169
 30
0.0
 11
281.57831103737487
 21
508.7110713059169
 31
0.0
  0
LINE
  5
5EDD
  8
0
  6
CONTINUOUS
 62
     7
 10
272.57831403737492
 20
519.17226330591689
 30
0.0
 11
281.57831203737499
 21
519.17226330591689
 31
0.0
  0
LINE
  5
5EDF
  8
0
 62
     0
 10
119.57831403737489
 20
657.16385930591673
 30
0.0
 11
119.57831403737489
 21
654.12505530591693
 31
0.0
  0
ARC
  5
5EE0
  8
0
 62
     0
 10
121.57831403737489
 20
648.71107530591701
 30
0.0
 40
2.0
 50
90.0
 51
180.0
  0
LINE
  5
5EE1
  8
0
 62
     0
 10
112.07831403737489
 20
636.48567230591675
 30
0.0
 11
119.57831403737489
 21
636.48567230591675
 31
0.0
  0
LINE
  5
5EE2
  8
0
 62
     0
 10
112.07831403737489
 20
648.05169130591707
 30
0.0
 11
119.57831403737489
 21
648.05169130591707
 31
0.0
  0
LINE
  5
5EE3
  8
0
 62
     0
 10
112.07831403737489
 20
654.12505530591693
 30
0.0
 11
119.57831403737489
 21
654.12505530591693
 31
0.0
  0
LINE
  5
5EE4
  8
0
 62
     0
 10
119.57831403737489
 20
658.68931730591703
 30
0.0
 11
119.57831403737489
 21
658.08604130591698
 31
0.0
  0
ARC
  5
5EE5
  8
0
 62
     0
 10
121.57831403737489
 20
657.16385930591673
 30
0.0
 40
2.0
 50
90.0
 51
180.0
  0
LINE
  5
5EE6
  8
0
 62
     0
 10
112.07831403737489
 20
660.10421630591702
 30
0.0
 11
118.0589850373749
 21
660.10421630591702
 31
0.0
  0
LINE
  5
5EE7
  8
0
 62
     0
 10
112.07831403737489
 20
658.78970430591698
 30
0.0
 11
117.729625037375
 21
658.78970430591698
 31
0.0
  0
ARC
  5
5EE8
  8
0
 62
     0
 10
117.729625037375
 20
660.78970430591687
 30
0.0
 40
2.0
 50
270.0
 51
344.1903739999986
  0
ARC
  5
5EE9
  8
0
 62
     0
 10
121.57831403737489
 20
659.69993730591693
 30
0.0
 40
2.0
 50
90.0
 51
164.1903739999986
  0
ARC
  5
5EEA
  8
0
 62
     0
 10
118.0589850373749
 20
662.10421630591702
 30
0.0
 40
2.0
 50
270.0
 51
331.6221430000025
  0
ARC
  5
5EEB
  8
0
 62
     0
 10
121.57831403737489
 20
660.2030793059173
 30
0.0
 40
2.0
 50
90.0
 51
151.62214399999931
  0
ARC
  5
5EEC
  8
0
  6
CONTINUOUS
 62
     7
 10
269.57831403737492
 20
648.71107530591701
 30
0.0
 40
2.0
 50
0.0
 51
90.0
  0
ARC
  5
5EED
  8
0
  6
CONTINUOUS
 62
     7
 10
268.45082203737502
 20
657.16385930591673
 30
0.0
 40
2.0
 50
15.000000000001579
 51
90.0
  0
LINE
  5
5EEE
  8
0
  6
CONTINUOUS
 62
     7
 10
273.57831403737492
 20
645.755205305917
 30
0.0
 11
270.3826740373749
 21
657.68149730591676
 31
0.0
  0
ARC
  5
5EEF
  8
0
  6
CONTINUOUS
 62
     7
 10
269.41533803737502
 20
658.68931730591703
 30
0.0
 40
2.0
 50
15.000000000001579
 51
90.0
  0
LINE
  5
5EF0
  8
0
  6
CONTINUOUS
 62
     7
 10
273.57831403737492
 20
650.88028830591691
 30
0.0
 11
271.3471900373749
 21
659.20695630591695
 31
0.0
  0
ARC
  5
5EF1
  8
0
  6
CONTINUOUS
 62
     7
 10
269.96303203737489
 20
659.69993730591693
 30
0.0
 40
2.0
 50
15.000000000001579
 51
90.0
  0
LINE
  5
5EF2
  8
0
  6
CONTINUOUS
 62
     7
 10
273.57831403737492
 20
653.93492530591675
 30
0.0
 11
271.89488303737488
 21
660.21757530591674
 31
0.0
  0
ARC
  5
5EF3
  8
0
  6
CONTINUOUS
 62
     7
 10
270.24406603737492
 20
660.2030793059173
 30
0.0
 40
2.0
 50
15.000000000001579
 51
90.0
  0
LINE
  5
5EF4
  8
0
  6
CONTINUOUS
 62
     7
 10
273.57831403737492
 20
655.48690330591694
 30
0.0
 11
272.17591803737491
 21
660.72071830591699
 31
0.0
  0
ARC
  5
5EF5
  8
0
 62
     0
 10
117.57831403737489
 20
658.08604130591698
 30
0.0
 40
2.0
 50
270.0
 51
0.0
  0
ARC
  5
5EF6
  8
0
 62
     0
 10
121.57831403737489
 20
658.68931730591703
 30
0.0
 40
2.0
 50
90.0
 51
180.0
  0
LINE
  5
5EF7
  8
0
 62
     0
 10
112.07831403737489
 20
656.08604130591686
 30
0.0
 11
117.57831403737489
 21
656.08604130591686
 31
0.0
  0
LINE
  5
5EF8
  8
0
 62
     0
 10
119.57831403737489
 20
654.12505530591693
 30
0.0
 11
119.57831403737489
 21
635.08241130591693
 31
0.0
  0
LINE
  5
5EFA
  8
0
  6
CONTINUOUS
 62
     7
 10
272.57831403737492
 20
645.24987930591692
 30
0.0
 11
281.57831403737492
 21
645.24987930591692
 31
0.0
  0
LINE
  5
5EFB
  8
0
 62
     0
 10
121.57831403737489
 20
633.08241130591693
 30
0.0
 11
269.57831403737492
 21
633.08241130591693
 31
0.0
  0
LINE
  5
5EFC
  8
0
 62
     0
 10
121.57831403737489
 20
662.20307930591673
 30
0.0
 11
270.24406603737492
 21
662.20307930591673
 31
0.0
  0
LINE
  5
5EFD
  8
0
 62
     0
 10
121.57831403737489
 20
650.71107530591701
 30
0.0
 11
269.57831403737492
 21
650.71107530591701
 31
0.0
  0
LINE
  5
5EFE
  8
0
 62
     0
 10
121.57831403737489
 20
659.16385930591673
 30
0.0
 11
268.45082203737502
 21
659.16385930591673
 31
0.0
  0
LINE
  5
5EFF
  8
0
 62
     0
 10
121.57831403737489
 20
660.68931730591703
 30
0.0
 11
269.41533803737502
 21
660.68931730591703
 31
0.0
  0
LINE
  5
5F00
  8
0
 62
     0
 10
121.57831403737489
 20
661.69993730591693
 30
0.0
 11
269.96303203737489
 21
661.69993730591693
 31
0.0
  0
LINE
  5
5F01
  8
0
 62
     0
 10
191.57831403737489
 20
503.2110713059169
 30
0.0
 11
191.57831403737489
 21
500.2110713059169
 31
0.0
  0
LINE
  5
5F02
  8
0
  6
CONTINUOUS
 62
     7
 10
258.57831403737492
 20
503.2110713059169
 30
0.0
 11
258.57831403737492
 21
500.2110713059169
 31
0.0
  0
LINE
  5
5F03
  8
0
 62
     0
 10
56.078314037374923
 20
521.41810130591693
 30
0.0
 11
56.078314037374923
 21
644.32603130591701
 31
0.0
  0
LINE
  5
5F04
  8
0
 62
     0
 10
52.078684037374899
 20
519.61109130591694
 30
0.0
 11
52.078684037374899
 21
644.81101130591674
 31
0.0
  0
LINE
  5
5F05
  8
0
 62
     0
 10
56.478274037374888
 20
649.47807130591696
 30
0.0
 11
57.60126403737496
 21
655.8490413059169
 31
0.0
  0
LINE
  5
5F06
  8
0
 62
     0
 10
62.963384037374972
 20
660.59300130591703
 30
0.0
 11
88.605354037374994
 21
661.93699130591699
 31
0.0
  0
LINE
  5
5F07
  8
0
 62
     0
 10
89.078314037374938
 20
503.15577130591703
 30
0.0
 11
89.078314037374938
 21
661.09764130591691
 31
0.0
  0
LINE
  5
5F08
  8
0
 62
     0
 10
59.94025403737492
 20
654.23802130591673
 30
0.0
 11
59.94025403737492
 21
510.69105130591691
 31
0.0
  0
LINE
  5
5F09
  8
0
 62
     0
 10
56.478274037374888
 20
514.94407130591708
 30
0.0
 11
57.60126403737496
 21
508.574011305917
 31
0.0
  0
LINE
  5
5F0A
  8
0
 62
     0
 10
62.963324037374889
 20
503.83006130591701
 30
0.0
 11
88.605354037374994
 21
502.48606130591691
 31
0.0
  0
LINE
  5
5F0B
  8
0
 62
     0
 10
90.171334037374933
 20
662.96104130591675
 30
0.0
 11
112.07831403737489
 21
662.96104130591675
 31
0.0
  0
LINE
  5
5F0C
  8
0
 62
     0
 10
90.171334037374933
 20
501.4610713059169
 30
0.0
 11
112.07831403737489
 21
501.4610713059169
 31
0.0
  0
LINE
  5
5F0D
  8
0
  6
CONTINUOUS
 62
     7
 10
258.57831403737492
 20
505.21107130591679
 30
0.0
 11
258.57831403737492
 21
503.2110713059169
 31
0.0
  0
LINE
  5
5F0E
  8
0
 62
     0
 10
191.57831403737489
 20
505.21107130591679
 30
0.0
 11
191.57831403737489
 21
503.2110713059169
 31
0.0
  0
LINE
  5
5F0F
  8
0
 62
     0
 10
191.57831403737489
 20
503.2110713059169
 30
0.0
 11
258.57831403737492
 21
503.2110713059169
 31
0.0
  0
LINE
  5
5F10
  8
0
 62
     0
 10
121.57831403737489
 20
505.21107130591679
 30
0.0
 11
268.35883403737489
 21
505.21107130591679
 31
0.0
  0
LINE
  5
5F11
  8
0
 62
     0
 10
235.07831403737489
 20
608.21107130591702
 30
0.0
 11
112.07831403737489
 21
608.21107130591702
 31
0.0
  0
LINE
  5
5F12
  8
0
 62
     0
 10
235.07831403737489
 20
556.21107130591702
 30
0.0
 11
112.07831403737489
 21
556.21107130591702
 31
0.0
  0
LINE
  5
5F13
  8
0
  6
CONTINUOUS
 62
     7
 10
251.07831403737489
 20
609.21107130591702
 30
0.0
 11
251.07831403737489
 21
615.21107130591702
 31
0.0
  0
LINE
  5
5F14
  8
0
  6
CONTINUOUS
 62
     7
 10
236.07831403737489
 20
609.21107130591702
 30
0.0
 11
236.07831403737489
 21
615.21107130591702
 31
0.0
  0
LINE
  5
5F15
  8
0
  6
CONTINUOUS
 62
     7
 10
251.07831403737489
 20
555.21107130591702
 30
0.0
 11
251.07831403737489
 21
549.21107130591702
 31
0.0
  0
LINE
  5
5F16
  8
0
  6
CONTINUOUS
 62
     7
 10
236.07831403737489
 20
555.21107130591702
 30
0.0
 11
236.07831403737489
 21
549.21107130591702
 31
0.0
  0
LINE
  5
5F17
  8
0
 62
     0
 10
207.57831403737489
 20
602.71107130591702
 30
0.0
 11
207.57831403737489
 21
561.71107130591702
 31
0.0
  0
LINE
  5
5F18
  8
0
  6
CONTINUOUS
 62
     7
 10
270.57831403737492
 20
602.71107130591702
 30
0.0
 11
270.57831403737492
 21
561.71107130591702
 31
0.0
  0
LINE
  5
5F19
  8
0
 62
     0
 10
207.57831403737489
 20
602.71107130591702
 30
0.0
 11
270.57831403737492
 21
602.71107130591702
 31
0.0
  0
LINE
  5
5F1A
  8
0
 62
     0
 10
207.57831403737489
 20
561.71107130591702
 30
0.0
 11
270.57831403737492
 21
561.71107130591702
 31
0.0
  0
LINE
  5
5F1B
  8
0
 62
     0
 10
207.57831403737489
 20
595.21107130591702
 30
0.0
 11
270.57831403737492
 21
595.21107130591702
 31
0.0
  0
LINE
  5
5F1C
  8
0
 62
     0
 10
119.57831403737489
 20
585.21107130591702
 30
0.0
 11
119.57831403737489
 21
579.21107130591702
 31
0.0
  0
LINE
  5
5F1D
  8
0
  6
CONTINUOUS
 62
     7
 10
270.290414037375
 20
506.69236130591679
 30
0.0
 11
271.27832403737489
 21
510.371041305917
 31
0.0
  0
LINE
  5
5F1E
  8
0
  6
CONTINUOUS
 62
     7
 10
269.70233403737501
 20
506.69236130591679
 30
0.0
 11
271.27832403737489
 21
512.56108130591701
 31
0.0
  0
LINE
  5
5F1F
  8
0
  6
CONTINUOUS
 62
     7
 10
271.57831403737492
 20
545.25285130591692
 30
0.0
 11
271.57831403737492
 21
508.7110713059169
 31
0.0
  0
LINE
  5
5F20
  8
0
 62
     0
 10
270.57831403737492
 20
558.21107130591702
 30
0.0
 11
112.07831403737489
 21
558.21107130591702
 31
0.0
  0
LINE
  5
5F21
  8
0
  6
CONTINUOUS
 62
     7
 10
270.57831403737492
 20
556.21107130591702
 30
0.0
 11
252.07831403737489
 21
556.21107130591702
 31
0.0
  0
LINE
  5
5F22
  8
0
 62
     0
 10
203.57831403737489
 20
566.21107130591702
 30
0.0
 11
112.07831403737489
 21
566.21107130591702
 31
0.0
  0
LINE
  5
5F23
  8
0
 62
     0
 10
203.57831403737489
 20
568.21107130591702
 30
0.0
 11
112.07831403737489
 21
568.21107130591702
 31
0.0
  0
LINE
  5
5F24
  8
0
 62
     0
 10
203.57831403737489
 20
576.21107130591702
 30
0.0
 11
112.07831403737489
 21
576.21107130591702
 31
0.0
  0
LINE
  5
5F25
  8
0
 62
     0
 10
203.57831403737489
 20
578.21107130591702
 30
0.0
 11
120.57831403737489
 21
578.21107130591702
 31
0.0
  0
LINE
  5
5F26
  8
0
 62
     0
 10
270.57831403737492
 20
536.21107130591702
 30
0.0
 11
112.07831403737489
 21
536.21107130591702
 31
0.0
  0
LINE
  5
5F27
  8
0
 62
     0
 10
270.57831403737492
 20
548.21107130591702
 30
0.0
 11
112.07831403737489
 21
548.21107130591702
 31
0.0
  0
LINE
  5
5F28
  8
0
 62
     0
 10
270.57831403737492
 20
546.2110713059169
 30
0.0
 11
112.07831403737489
 21
546.2110713059169
 31
0.0
  0
LINE
  5
5F29
  8
0
 62
     0
 10
270.57831403737492
 20
538.21107130591679
 30
0.0
 11
112.07831403737489
 21
538.21107130591679
 31
0.0
  0
LINE
  5
5F2A
  8
0
 62
     0
 10
270.57831403737492
 20
626.21107130591702
 30
0.0
 11
112.07831403737489
 21
626.21107130591702
 31
0.0
  0
LINE
  5
5F2B
  8
0
 62
     0
 10
270.57831403737492
 20
618.21107130591702
 30
0.0
 11
112.07831403737489
 21
618.21107130591702
 31
0.0
  0
LINE
  5
5F2C
  8
0
 62
     0
 10
270.57831403737492
 20
616.21107130591702
 30
0.0
 11
112.07831403737489
 21
616.21107130591702
 31
0.0
  0
LINE
  5
5F2D
  8
0
 62
     0
 10
270.57831403737492
 20
628.21107130591702
 30
0.0
 11
112.07831403737489
 21
628.21107130591702
 31
0.0
  0
LINE
  5
5F2E
  8
0
 62
     0
 10
203.57831403737489
 20
586.21107130591702
 30
0.0
 11
120.57831403737489
 21
586.21107130591702
 31
0.0
  0
LINE
  5
5F2F
  8
0
 62
     0
 10
203.57831403737489
 20
588.21107130591679
 30
0.0
 11
112.07831403737489
 21
588.21107130591679
 31
0.0
  0
LINE
  5
5F30
  8
0
 62
     0
 10
203.57831403737489
 20
596.2110713059169
 30
0.0
 11
112.07831403737489
 21
596.2110713059169
 31
0.0
  0
LINE
  5
5F31
  8
0
 62
     0
 10
203.57831403737489
 20
598.21107130591702
 30
0.0
 11
112.07831403737489
 21
598.21107130591702
 31
0.0
  0
LINE
  5
5F32
  8
0
  6
CONTINUOUS
 62
     7
 10
270.57831403737492
 20
608.21107130591702
 30
0.0
 11
252.07831403737489
 21
608.21107130591702
 31
0.0
  0
LINE
  5
5F33
  8
0
 62
     0
 10
270.57831403737492
 20
606.21107130591702
 30
0.0
 11
112.07831403737489
 21
606.21107130591702
 31
0.0
  0
LINE
  5
5F34
  8
0
  6
CONTINUOUS
 62
     7
 10
271.57831403737492
 20
619.16929130591711
 30
0.0
 11
271.57831403737492
 21
648.71107530591701
 31
0.0
  0
LINE
  5
5F35
  8
0
 62
     0
 10
112.07831403737489
 20
662.96104130591675
 30
0.0
 11
112.07831403737489
 21
501.4610713059169
 31
0.0
  0
ARC
  5
5F36
  8
0
 62
     0
 10
88.578314037374895
 20
662.43601130591708
 30
0.0
 40
0.5
 50
272.99997000000081
 51
335.54394999999602
  0
ARC
  5
5F37
  8
0
 62
     0
 10
63.264224037374852
 20
654.85105130591694
 30
0.0
 40
5.75
 50
92.999985999999041
 51
169.99998000000201
  0
ARC
  5
5F38
  8
0
 62
     0
 10
90.171334037374933
 20
661.71104130591698
 30
0.0
 40
1.25
 50
89.999989000000838
 51
155.54397999999961
  0
ARC
  5
5F39
  8
0
 62
     0
 10
54.328684037374899
 20
644.81101130591674
 30
0.0
 40
2.25
 50
98.816588000000024
 51
179.99997999999789
  0
ARC
  5
5F3A
  8
0
 62
     0
 10
53.523994037374848
 20
649.9991213059169
 30
0.0
 40
3.0
 50
278.81697000000048
 51
349.99994999999728
  0
ARC
  5
5F3B
  8
0
 62
     0
 10
54.328684037374899
 20
519.61109130591694
 30
0.0
 40
2.25
 50
179.99997999999789
 51
261.18293999999872
  0
ARC
  5
5F3C
  8
0
 62
     0
 10
53.523994037374848
 20
514.42311130591702
 30
0.0
 40
3.0
 50
9.9998319999961929
 51
81.183191000000207
  0
ARC
  5
5F3D
  8
0
 62
     0
 10
88.578314037374895
 20
501.98707130591691
 30
0.0
 40
0.5
 50
24.45639900000074
 51
86.999984999999697
  0
ARC
  5
5F3E
  8
0
 62
     0
 10
63.264224037374852
 20
509.57203130591671
 30
0.0
 40
5.75
 50
189.99998000000039
 51
266.9999499999995
  0
ARC
  5
5F3F
  8
0
 62
     0
 10
90.171334037374933
 20
502.7110713059169
 30
0.0
 40
1.25
 50
204.45597000000129
 51
269.99995999999919
  0
ARC
  5
5F40
  8
0
  6
CONTINUOUS
 62
     7
 10
268.35883403737489
 20
507.2110713059169
 30
0.0
 40
2.0
 50
269.999989999999
 51
344.96831000000168
  0
ARC
  5
5F41
  8
0
  6
CONTINUOUS
 62
     7
 10
267.77075403737501
 20
507.2110713059169
 30
0.0
 40
2.0
 50
269.999989999999
 51
344.96831000000168
  0
ARC
  5
5F42
  8
0
  6
CONTINUOUS
 62
     7
 10
252.07831403737489
 20
549.21107130591702
 30
0.0
 40
1.0
 50
179.999989999999
 51
270.0
  0
ARC
  5
5F43
  8
0
  6
CONTINUOUS
 62
     7
 10
235.07831403737489
 20
549.21107130591702
 30
0.0
 40
1.0
 50
269.999989999999
 51
0.0000010000014034
  0
ARC
  5
5F44
  8
0
  6
CONTINUOUS
 62
     7
 10
235.07831403737489
 20
615.21107130591702
 30
0.0
 40
1.0
 50
0.0
 51
90.000003000000945
  0
ARC
  5
5F45
  8
0
  6
CONTINUOUS
 62
     7
 10
252.07831403737489
 20
615.21107130591702
 30
0.0
 40
1.0
 50
90.000003000000945
 51
180.000010000001
  0
ARC
  5
5F46
  8
0
  6
CONTINUOUS
 62
     7
 10
252.07831403737489
 20
555.21107130591702
 30
0.0
 40
1.0
 50
90.000003000000945
 51
180.000010000001
  0
ARC
  5
5F47
  8
0
  6
CONTINUOUS
 62
     7
 10
235.07831403737489
 20
555.21107130591702
 30
0.0
 40
1.0
 50
0.0
 51
90.000003000000945
  0
ARC
  5
5F48
  8
0
  6
CONTINUOUS
 62
     7
 10
252.07831403737489
 20
609.21107130591702
 30
0.0
 40
1.0
 50
179.999989999999
 51
270.0
  0
ARC
  5
5F49
  8
0
  6
CONTINUOUS
 62
     7
 10
235.07831403737489
 20
609.21107130591702
 30
0.0
 40
1.0
 50
269.999989999999
 51
0.0000010000014034
  0
CIRCLE
  5
5F4A
  8
0
  6
CONTINUOUS
 62
     7
 10
246.07831403737489
 20
610.71107130591702
 30
0.0
 40
1.0
  0
CIRCLE
  5
5F4B
  8
0
  6
CONTINUOUS
 62
     7
 10
241.07831403737489
 20
610.71107130591702
 30
0.0
 40
1.149999999999999
  0
CIRCLE
  5
5F4C
  8
0
  6
CONTINUOUS
 62
     7
 10
241.07831403737489
 20
610.71107130591702
 30
0.0
 40
1.1000000000000001
  0
CIRCLE
  5
5F4D
  8
0
  6
CONTINUOUS
 62
     7
 10
241.07831403737489
 20
553.71107130591702
 30
0.0
 40
1.1000000000000001
  0
CIRCLE
  5
5F4E
  8
0
  6
CONTINUOUS
 62
     7
 10
241.07831403737489
 20
553.71107130591702
 30
0.0
 40
1.149999999999999
  0
CIRCLE
  5
5F4F
  8
0
  6
CONTINUOUS
 62
     7
 10
246.07831403737489
 20
553.71107130591702
 30
0.0
 40
1.0
  0
ARC
  5
5F50
  8
0
 62
     0
 10
203.57831403737489
 20
597.21107130591702
 30
0.0
 40
1.0
 50
269.999989999999
 51
90.000003000000945
  0
ARC
  5
5F51
  8
0
 62
     0
 10
203.57831403737489
 20
587.21107130591702
 30
0.0
 40
1.0
 50
269.999989999999
 51
90.000003000000945
  0
ARC
  5
5F52
  8
0
 62
     0
 10
203.57831403737489
 20
577.21107130591702
 30
0.0
 40
1.0
 50
269.999989999999
 51
90.000003000000945
  0
ARC
  5
5F53
  8
0
 62
     0
 10
203.57831403737489
 20
567.2110713059169
 30
0.0
 40
1.0
 50
269.999989999999
 51
90.000003000000945
  0
ARC
  5
5F54
  8
0
  6
CONTINUOUS
 62
     7
 10
268.62830403737502
 20
547.21107130591702
 30
0.0
 40
1.0
 50
269.999989999999
 51
90.000003000000945
  0
ARC
  5
5F55
  8
0
  6
CONTINUOUS
 62
     7
 10
270.57831403737492
 20
547.21107130591702
 30
0.0
 40
1.0
 50
269.999989999999
 51
90.000003000000945
  0
ARC
  5
5F56
  8
0
  6
CONTINUOUS
 62
     7
 10
268.62830403737502
 20
557.21107130591702
 30
0.0
 40
1.0
 50
269.999989999999
 51
90.000003000000945
  0
ARC
  5
5F57
  8
0
  6
CONTINUOUS
 62
     7
 10
270.57831403737492
 20
557.21107130591702
 30
0.0
 40
1.0
 50
269.999989999999
 51
90.000003000000945
  0
ARC
  5
5F58
  8
0
  6
CONTINUOUS
 62
     7
 10
268.62830403737502
 20
607.21107130591702
 30
0.0
 40
1.0
 50
269.999989999999
 51
90.000003000000945
  0
ARC
  5
5F59
  8
0
  6
CONTINUOUS
 62
     7
 10
270.57831403737492
 20
607.21107130591702
 30
0.0
 40
1.0
 50
269.999989999999
 51
90.000003000000945
  0
ARC
  5
5F5A
  8
0
  6
CONTINUOUS
 62
     7
 10
268.62830403737502
 20
617.2110713059169
 30
0.0
 40
1.0
 50
269.999989999999
 51
90.000003000000945
  0
ARC
  5
5F5B
  8
0
  6
CONTINUOUS
 62
     7
 10
270.57831403737492
 20
617.2110713059169
 30
0.0
 40
1.0
 50
269.999989999999
 51
90.000003000000945
  0
ARC
  5
5F5C
  8
0
 62
     0
 10
120.57831403737489
 20
585.21107130591702
 30
0.0
 40
1.0
 50
90.000003000000945
 51
180.000010000001
  0
ARC
  5
5F5D
  8
0
 62
     0
 10
120.57831403737489
 20
579.21107130591702
 30
0.0
 40
1.0
 50
179.999989999999
 51
270.0
  0
ARC
  5
5F5E
  8
0
 62
     0
 10
120.5782840373749
 20
567.2110713059169
 30
0.0
 40
1.0
 50
90.000003000000945
 51
270.0
  0
ARC
  5
5F5F
  8
0
 62
     0
 10
120.5782840373749
 20
557.21107130591702
 30
0.0
 40
1.0
 50
90.000003000000945
 51
270.0
  0
ARC
  5
5F60
  8
0
  6
CONTINUOUS
 62
     7
 10
268.62830403737502
 20
537.21107130591702
 30
0.0
 40
1.0
 50
269.999989999999
 51
90.000003000000945
  0
ARC
  5
5F61
  8
0
  6
CONTINUOUS
 62
     7
 10
270.57831403737492
 20
537.21107130591702
 30
0.0
 40
1.0
 50
269.999989999999
 51
90.000003000000945
  0
ARC
  5
5F62
  8
0
 62
     0
 10
120.5782840373749
 20
537.21107130591702
 30
0.0
 40
1.0
 50
90.000003000000945
 51
270.0
  0
ARC
  5
5F63
  8
0
 62
     0
 10
120.5782840373749
 20
547.21107130591702
 30
0.0
 40
1.0
 50
90.000003000000945
 51
270.0
  0
ARC
  5
5F64
  8
0
  6
CONTINUOUS
 62
     7
 10
272.7243740373749
 20
509.99067130591669
 30
0.0
 40
1.4952499999999991
 50
140.03764999999649
 51
165.2626000000021
  0
ARC
  5
5F65
  8
0
  6
CONTINUOUS
 62
     7
 10
272.71930403737503
 20
512.16657130591693
 30
0.0
 40
1.4940209999999989
 50
139.79257999999919
 51
164.69034000000019
  0
ARC
  5
5F66
  8
0
  6
CONTINUOUS
 62
     7
 10
272.72247403737492
 20
655.97813130591703
 30
0.0
 40
1.495147999999999
 50
195.00188999999639
 51
195.00621300000489
  0
ARC
  5
5F67
  8
0
 62
     0
 10
120.5782840373749
 20
617.2110713059169
 30
0.0
 40
1.0
 50
90.000003000000945
 51
270.0
  0
ARC
  5
5F68
  8
0
 62
     0
 10
120.5782840373749
 20
627.21107130591702
 30
0.0
 40
1.0
 50
90.000003000000945
 51
270.0
  0
ARC
  5
5F69
  8
0
  6
CONTINUOUS
 62
     7
 10
270.57831403737492
 20
627.21107130591702
 30
0.0
 40
1.0
 50
269.999989999999
 51
90.000003000000945
  0
ARC
  5
5F6A
  8
0
  6
CONTINUOUS
 62
     7
 10
268.62830403737502
 20
627.21107130591702
 30
0.0
 40
1.0
 50
269.999989999999
 51
90.000003000000945
  0
ARC
  5
5F6B
  8
0
 62
     0
 10
120.5782840373749
 20
607.21107130591702
 30
0.0
 40
1.0
 50
90.000003000000945
 51
270.0
  0
ARC
  5
5F6C
  8
0
 62
     0
 10
120.5782840373749
 20
597.21107130591702
 30
0.0
 40
1.0
 50
90.000003000000945
 51
270.0
  0
LINE
  5
5F6D
  8
0
  6
CONTINUOUS
 62
     7
 10
281.57832003737479
 20
655.711076305917
 30
0.0
 11
273.51824703737492
 21
655.711076305917
 31
0.0
  0
LINE
  5
5F6E
  8
0
  6
CONTINUOUS
 62
     7
 10
272.57831403737492
 20
545.25285130591692
 30
0.0
 11
281.57831403737492
 21
545.25285130591692
 31
0.0
  0
LINE
  5
5F6F
  8
0
  6
CONTINUOUS
 62
     7
 10
272.57831403737492
 20
619.16929130591711
 30
0.0
 11
281.57831403737492
 21
619.16929130591711
 31
0.0
  0
LINE
  5
5F70
  8
0
  6
AM_ISO08W050
 62
     0
 10
48.995926904796292
 20
582.2110713059169
 30
0.0
 11
442.87068294943532
 21
582.21107130591702
 31
0.0
  0
LINE
  5
63B2
  8
0
  6
CONTINUOUS
 62
     7
 10
318.07948970342522
 20
499.96013630591682
 30
0.0
 11
318.07948970342522
 21
664.46203630591697
 31
0.0
  0
LINE
  5
63B3
  8
0
  6
CONTINUOUS
 62
     7
 10
318.07948970342522
 20
499.96013630591682
 30
0.0
 11
313.00966970342512
 21
500.13717630591708
 31
0.0
  0
LINE
  5
63B4
  8
0
  6
CONTINUOUS
 62
     7
 10
318.07945970342519
 20
664.46203630591697
 30
0.0
 11
313.00963970342508
 21
664.2849663059169
 31
0.0
  0
LINE
  5
63B5
  8
0
  6
CONTINUOUS
 62
     7
 10
311.07945970342507
 20
502.13598630591707
 30
0.0
 11
311.07945970342507
 21
662.28618630591723
 31
0.0
  0
LINE
  5
63B6
  8
0
  6
CONTINUOUS
 62
     7
 10
281.57948970342522
 20
621.68575630591715
 30
0.0
 11
311.07945970342507
 21
621.68575630591715
 31
0.0
  0
LINE
  5
63B7
  8
0
  6
CONTINUOUS
 62
     7
 10
281.57945970342507
 20
655.71111630591713
 30
0.0
 11
309.13181303953041
 21
656.43259233978802
 31
0.0
  0
LINE
  5
63B8
  8
0
  6
CONTINUOUS
 62
     7
 10
281.57948970342522
 20
643.78972630591716
 30
0.0
 11
311.07945970342507
 21
643.78972630591716
 31
0.0
  0
LINE
  5
63CB
  8
0
  6
CONTINUOUS
 62
     7
 10
281.57948970342522
 20
520.63244630591703
 30
0.0
 11
311.07945970342507
 21
520.63244630591703
 31
0.0
  0
LINE
  5
63CC
  8
0
  6
CONTINUOUS
 62
     7
 10
281.57945970342507
 20
508.71105630591688
 30
0.0
 11
309.13181303953041
 21
507.98958027204628
 31
0.0
  0
LINE
  5
63CD
  8
0
  6
CONTINUOUS
 62
     7
 10
281.57948970342522
 20
542.73641630591715
 30
0.0
 11
311.07945970342507
 21
542.73641630591715
 31
0.0
  0
LINE
  5
63CE
  8
0
  6
CONTINUOUS
 62
     7
 10
385.00972970342508
 20
489.99291630591688
 30
0.0
 11
393.07948970342522
 21
489.71108630591692
 31
0.0
  0
LINE
  5
63CF
  8
0
  6
CONTINUOUS
 62
     7
 10
397.07951970342509
 20
667.21111630591713
 30
0.0
 11
397.07951970342509
 21
497.21108630591692
 31
0.0
  0
LINE
  5
63D0
  8
0
  6
CONTINUOUS
 62
     7
 10
407.07945970342507
 20
578.21108630591709
 30
0.0
 11
439.07945970342507
 21
578.21108630591709
 31
0.0
  0
LINE
  5
63D1
  8
0
  6
CONTINUOUS
 62
     7
 10
383.07948970342522
 20
491.99169630591712
 30
0.0
 11
383.07948970342522
 21
672.4304763059173
 31
0.0
  0
LINE
  5
63D2
  8
0
  6
CONTINUOUS
 62
     7
 10
381.38520970342512
 20
668.01677630591666
 30
0.0
 11
383.07948970342522
 21
669.71105630591694
 31
0.0
  0
LINE
  5
63D3
  8
0
  6
CONTINUOUS
 62
     7
 10
387.07948970342522
 20
511.71108630591709
 30
0.0
 11
387.07948970342522
 21
652.38338630591716
 31
0.0
  0
LINE
  5
63D4
  8
0
  6
CENTER
 62
     7
 10
380.52842970342522
 20
658.225036305917
 30
0.0
 11
399.8300397034252
 21
658.225036305917
 31
0.0
  0
LINE
  5
63D5
  8
0
  6
CONTINUOUS
 62
     7
 10
393.07948970342522
 20
667.21111630591713
 30
0.0
 11
397.07951970342509
 21
667.21111630591713
 31
0.0
  0
LINE
  5
63D6
  8
0
  6
CONTINUOUS
 62
     7
 10
393.07948970342522
 20
489.71108630591692
 30
0.0
 11
393.07948970342522
 21
674.71111630591713
 31
0.0
  0
LINE
  5
63D7
  8
0
  6
CONTINUOUS
 62
     7
 10
378.02418970342512
 20
497.86681630591693
 30
0.0
 11
318.07948970342522
 21
499.96013630591682
 31
0.0
  0
LINE
  5
63D8
  8
0
  6
CONTINUOUS
 62
     7
 10
378.02418970342512
 20
666.55535630591714
 30
0.0
 11
318.07948970342522
 21
664.46203630591697
 31
0.0
  0
LINE
  5
63DA
  8
0
  6
CONTINUOUS
 62
     7
 10
397.07948970342522
 20
596.21111630591713
 30
0.0
 11
439.07945970342507
 21
596.21111630591713
 31
0.0
  0
LINE
  5
63DB
  8
0
  6
CONTINUOUS
 62
     7
 10
397.07948970342522
 20
568.21111630591713
 30
0.0
 11
439.07945970342507
 21
568.21111630591713
 31
0.0
  0
LINE
  5
63DC
  8
0
  6
CONTINUOUS
 62
     7
 10
407.07945970342507
 20
586.21105630591717
 30
0.0
 11
407.07945970342507
 21
578.21108630591709
 31
0.0
  0
LINE
  5
63DD
  8
0
  6
CENTER
 62
     7
 10
380.3867097034252
 20
506.19710630591698
 30
0.0
 11
400.31489970342511
 21
506.19710630591698
 31
0.0
  0
LINE
  5
63DE
  8
0
  6
CONTINUOUS
 62
     7
 10
381.38524970342519
 20
496.40538630591709
 30
0.0
 11
383.07951970342521
 21
494.71111630591707
 31
0.0
  0
LINE
  5
63DF
  8
0
  6
CONTINUOUS
 62
     7
 10
385.00972970342508
 20
674.42931630591715
 30
0.0
 11
393.07948970342522
 21
674.71111630591713
 31
0.0
  0
LINE
  5
63E0
  8
0
  6
CONTINUOUS
 62
     7
 10
407.07945970342507
 20
586.21105630591717
 30
0.0
 11
439.07945970342507
 21
586.21105630591717
 31
0.0
  0
LINE
  5
63E1
  8
0
  6
CONTINUOUS
 62
     7
 10
393.07948970342522
 20
497.21108630591692
 30
0.0
 11
397.07951970342509
 21
497.21108630591692
 31
0.0
  0
ARC
  5
63E2
  8
0
  6
CONTINUOUS
 62
     7
 10
313.0794597034253
 20
502.13598630591707
 30
0.0
 40
2.0
 50
180.000010000001
 51
267.99999999999949
  0
ARC
  5
63E3
  8
0
  6
CONTINUOUS
 62
     7
 10
313.0794597034253
 20
662.28618630591723
 30
0.0
 40
2.0
 50
91.999998000000545
 51
180.000010000001
  0
ARC
  5
63E4
  8
0
  6
CONTINUOUS
 62
     7
 10
377.84968970342521
 20
492.86986630591713
 30
0.0
 40
5.0
 50
45.000000999996871
 51
87.999999999999545
  0
ARC
  5
63E5
  8
0
  6
CONTINUOUS
 62
     7
 10
384.07948970342522
 20
512.03878630591703
 30
0.0
 40
3.0
 50
267.99999999999949
 51
0.0
  0
ARC
  5
63E6
  8
0
  6
CONTINUOUS
 62
     7
 10
385.07951970342521
 20
491.99169630591712
 30
0.0
 40
2.0
 50
179.999989999999
 51
268.00000999999861
  0
ARC
  5
63E7
  8
0
  6
CONTINUOUS
 62
     7
 10
386.07948970342511
 20
633.33632630591717
 30
0.0
 40
3.0
 50
179.999989999999
 51
270.0
  0
ARC
  5
63E8
  8
0
  6
CONTINUOUS
 62
     7
 10
385.07951970342521
 20
672.4304763059173
 30
0.0
 40
2.0
 50
91.999998000000545
 51
180.000010000001
  0
ARC
  5
63E9
  8
0
  6
CONTINUOUS
 62
     7
 10
407.07945970342507
 20
582.21105630591717
 30
0.0
 40
3.9999962
 50
90.000003000000945
 51
270.0
  0
ARC
  5
63EA
  8
0
  6
CONTINUOUS
 62
     7
 10
384.07948970342522
 20
652.38338630591716
 30
0.0
 40
3.0
 50
0.0
 51
91.999998000000545
  0
ARC
  5
63EB
  8
0
  6
CONTINUOUS
 62
     7
 10
377.84968970342521
 20
671.552306305917
 30
0.0
 40
5.0
 50
272.00000000000051
 51
315.0
  0
ARC
  5
63EC
  8
0
  6
CONTINUOUS
 62
     7
 10
386.07948970342511
 20
531.08584630591713
 30
0.0
 40
3.0
 50
90.000003000000945
 51
180.000010000001
  0
POLYLINE
  5
63ED
  8
0
  6
CONTINUOUS
 62
     7
 66
     1
 10
0.0
 20
0.0
 30
0.0
  0
VERTEX
  5
63EE
  8
0
  6
CONTINUOUS
 62
     7
 10
379.9925497034252
 20
666.62407630591724
 30
0.0
 42
0.081985852
  0
VERTEX
  5
63EF
  8
0
  6
CONTINUOUS
 62
     7
 10
357.87665970342522
 20
611.71239630591708
 30
0.0
 42
0.10914194
  0
VERTEX
  5
63F0
  8
0
  6
CONTINUOUS
 62
     7
 10
357.87674970342522
 20
552.70938630591706
 30
0.0
 42
0.081985219
  0
VERTEX
  5
63F1
  8
0
  6
CONTINUOUS
 62
     7
 10
379.9925497034252
 20
497.79808630591708
 30
0.0
  0
SEQEND
  5
63F2
  8
0
 62
     7
  0
LINE
  5
6438
  8
0
  6
CONTINUOUS
 62
     7
 10
318.07948970342522
 20
386.74732855278359
 30
0.0
 11
353.4757597034253
 21
387.98338855278348
 31
0.0
  0
LINE
  5
6439
  8
0
  6
CONTINUOUS
 62
     7
 10
393.07948970342522
 20
243.94730755278351
 30
0.0
 11
397.07945970342519
 21
243.94730755278351
 31
0.0
  0
LINE
  5
643A
  8
0
  6
CONTINUOUS
 62
     7
 10
407.07945970342507
 20
345.94732855278352
 30
0.0
 11
407.07945970342507
 21
342.9473285527834
 31
0.0
  0
LINE
  5
643B
  8
0
  6
CONTINUOUS
 62
     7
 10
383.07948970342522
 20
380.07252855278352
 30
0.0
 11
383.07948970342522
 21
419.16671855278321
 31
0.0
  0
LINE
  5
643C
  8
0
  6
CONTINUOUS
 62
     7
 10
393.07948970342522
 20
328.94731855278337
 30
0.0
 11
393.07948970342522
 21
421.4472985527832
 31
0.0
  0
LINE
  5
643D
  8
0
  6
CONTINUOUS
 62
     7
 10
385.00969970342521
 20
421.16551855278323
 30
0.0
 11
393.07948970342522
 21
421.44731855278332
 31
0.0
  0
LINE
  5
643E
  8
0
  6
CONTINUOUS
 62
     7
 10
360.83339970342519
 20
223.2542985527835
 30
0.0
 11
383.07948970342522
 21
236.0980795527835
 31
0.0
  0
LINE
  5
643F
  8
0
  6
CONTINUOUS
 62
     7
 10
397.07945970342519
 20
413.94729855278342
 30
0.0
 11
397.07945970342519
 21
243.94730755278351
 31
0.0
  0
LINE
  5
6440
  8
0
  6
CONTINUOUS
 62
     7
 10
383.07948970342522
 20
305.03697855278352
 30
0.0
 11
383.07948970342522
 21
380.07252855278352
 31
0.0
  0
LINE
  5
6441
  8
0
  6
CONTINUOUS
 62
     7
 10
354.65678970342509
 20
388.02461855278341
 30
0.0
 11
374.00956970342509
 21
370.31842855278347
 31
0.0
  0
LINE
  5
6442
  8
0
  6
CONTINUOUS
 62
     7
 10
374.00959970342529
 20
370.31842855278347
 30
0.0
 11
374.00959970342529
 21
370.31842855278347
 31
0.0
  0
LINE
  5
6443
  8
0
  6
CONTINUOUS
 62
     7
 10
407.07945970342507
 20
345.94732855278352
 30
0.0
 11
439.07945970342507
 21
345.94732855278352
 31
0.0
  0
LINE
  5
6445
  8
0
  6
CONTINUOUS
 62
     7
 10
397.07945970342519
 20
314.94732855278352
 30
0.0
 11
439.07945970342507
 21
314.94732855278352
 31
0.0
  0
LINE
  5
6446
  8
0
  6
CONTINUOUS
 62
     7
 10
397.07945970342519
 20
342.9473285527834
 30
0.0
 11
439.07945970342507
 21
342.9473285527834
 31
0.0
  0
LINE
  5
6447
  8
0
  6
CONTINUOUS
 62
     7
 10
439.07945970342507
 20
345.94732855278352
 30
0.0
 11
439.07945970342507
 21
314.94732855278352
 31
0.0
  0
LINE
  5
6448
  8
0
  6
CONTINUOUS
 62
     7
 10
381.65425970342523
 20
347.42158855278342
 30
0.0
 11
377.31779970342518
 21
324.29081855278338
 31
0.0
  0
LINE
  5
6449
  8
0
  6
CONTINUOUS
 62
     7
 10
393.07948970342522
 20
413.94729855278342
 30
0.0
 11
397.07945970342519
 21
413.94729855278342
 31
0.0
  0
LINE
  5
644A
  8
0
  6
CENTER
 62
     7
 10
380.81648970342519
 20
404.96127855278309
 30
0.0
 11
399.08720970342529
 21
404.96127855278309
 31
0.0
  0
LINE
  5
644B
  8
0
  6
CONTINUOUS
 62
     7
 10
318.07948970342522
 20
224.74730655278341
 30
0.0
 11
318.07948970342522
 21
386.74731855278338
 31
0.0
  0
LINE
  5
644C
  8
0
  6
CONTINUOUS
 62
     7
 10
281.57948970342522
 20
232.2473025527834
 30
0.0
 11
308.15800970342519
 21
231.5513185527835
 31
0.0
  0
LINE
  5
644D
  8
0
  6
CONTINUOUS
 62
     7
 10
281.57948970342522
 20
367.32595855278339
 30
0.0
 11
311.07951970342521
 21
367.32595855278339
 31
0.0
  0
LINE
  5
644E
  8
0
  6
CONTINUOUS
 62
     7
 10
281.57948970342522
 20
244.16867355278339
 30
0.0
 11
311.07951970342521
 21
244.16867355278339
 31
0.0
  0
LINE
  5
644F
  8
0
  6
CONTINUOUS
 62
     7
 10
318.07948970342522
 20
239.63708855278341
 30
0.0
 11
383.07948970342522
 21
239.63708855278341
 31
0.0
  0
LINE
  5
6450
  8
0
  6
CONTINUOUS
 62
     7
 10
387.07948970342522
 20
258.44730755278351
 30
0.0
 11
387.07948970342522
 21
399.11959855278337
 31
0.0
  0
LINE
  5
6451
  8
0
  6
CONTINUOUS
 62
     7
 10
318.07948970342522
 20
351.9973185527835
 30
0.0
 11
380.02479970342512
 21
351.9973185527835
 31
0.0
  0
LINE
  5
6452
  8
0
  6
CONTINUOUS
 62
     7
 10
383.07948970342522
 20
239.2046695527834
 30
0.0
 11
383.07948970342522
 21
274.57665855278339
 31
0.0
  0
LINE
  5
6453
  8
0
  6
CONTINUOUS
 62
     7
 10
355.49241970342513
 20
388.8602285527835
 30
0.0
 11
383.07948970342522
 21
416.44728855278328
 31
0.0
  0
LINE
  5
6454
  8
0
  6
CONTINUOUS
 62
     7
 10
343.07945970342519
 20
252.47953355278341
 30
0.0
 11
383.07948970342522
 21
252.47953355278341
 31
0.0
  0
LINE
  5
6455
  8
0
  6
CONTINUOUS
 62
     7
 10
343.07945970342519
 20
267.14284855278339
 30
0.0
 11
383.07948970342522
 21
267.14284855278339
 31
0.0
  0
LINE
  5
6456
  8
0
  6
CONTINUOUS
 62
     7
 10
343.07945970342519
 20
253.66253255278349
 30
0.0
 11
343.07945970342519
 21
265.98253155278348
 31
0.0
  0
LINE
  5
6457
  8
0
  6
CONTINUOUS
 62
     7
 10
393.07948970342522
 20
236.44729955278351
 30
0.0
 11
393.07948970342522
 21
328.94731855278337
 31
0.0
  0
LINE
  5
6458
  8
0
  6
CONTINUOUS
 62
     7
 10
383.07948970342522
 20
236.09809455278349
 30
0.0
 11
393.07948970342522
 21
236.44729955278351
 31
0.0
  0
LINE
  5
6459
  8
0
  6
CONTINUOUS
 62
     7
 10
318.07948970342522
 20
224.74731055278349
 30
0.0
 11
360.83339970342519
 21
223.25431055278349
 31
0.0
  0
LINE
  5
645A
  8
0
  6
CENTER
 62
     7
 10
379.81791970342522
 20
252.9333145527834
 30
0.0
 11
400.79792970342521
 21
252.9333145527834
 31
0.0
  0
LINE
  5
645B
  8
0
  6
CONTINUOUS
 62
     7
 10
281.57948970342522
 20
379.24732855278347
 30
0.0
 11
308.15800970342519
 21
379.94331855278341
 31
0.0
  0
LINE
  5
645C
  8
0
  6
CONTINUOUS
 62
     7
 10
311.07951970342521
 20
384.61569855278327
 30
0.0
 11
311.07951970342521
 21
226.92313755278349
 31
0.0
  0
LINE
  5
645D
  8
0
  6
CONTINUOUS
 62
     7
 10
313.02711970342511
 20
386.61500855278342
 30
0.0
 11
318.07945970342519
 21
386.74731855278338
 31
0.0
  0
LINE
  5
645E
  8
0
  6
CONTINUOUS
 62
     7
 10
281.57948970342522
 20
266.27263955278352
 30
0.0
 11
311.07951970342521
 21
266.27263955278352
 31
0.0
  0
LINE
  5
645F
  8
0
  6
CONTINUOUS
 62
     7
 10
281.57948970342522
 20
345.22199855278348
 30
0.0
 11
311.07951970342521
 21
345.22199855278348
 31
0.0
  0
LINE
  5
6460
  8
0
  6
CONTINUOUS
 62
     7
 10
318.07948970342522
 20
224.74731055278349
 30
0.0
 11
313.00966970342512
 21
224.92435455278351
 31
0.0
  0
ARC
  5
6461
  8
0
  6
CONTINUOUS
 62
     7
 10
353.37108970342518
 20
390.98156855278347
 30
0.0
 40
3.0
 50
272.0000000000004
 51
315.0
  0
ARC
  5
6462
  8
0
  6
CONTINUOUS
 62
     7
 10
386.07948970342511
 20
274.57665855278339
 30
0.0
 40
3.0
 50
90.000003000000945
 51
180.0000099999977
  0
ARC
  5
6463
  8
0
  6
CONTINUOUS
 62
     7
 10
386.07948970342511
 20
239.2046695527834
 30
0.0
 40
3.0
 50
179.999989999999
 51
271.99999000000139
  0
ARC
  5
6464
  8
0
  6
CONTINUOUS
 62
     7
 10
401.72480970342519
 20
319.7150885527833
 30
0.0
 40
24.83221099999999
 50
169.38167999999959
 51
218.7932100000013
  0
ARC
  5
6465
  8
0
  6
CONTINUOUS
 62
     7
 10
357.2472497034251
 20
351.9973185527835
 30
0.0
 40
24.83221099999999
 50
349.38167999999962
 51
47.544065999997642
  0
ARC
  5
6466
  8
0
  6
CONTINUOUS
 62
     7
 10
386.07948970342511
 20
380.07252855278352
 30
0.0
 40
3.0
 50
179.999989999999
 51
270.0
  0
ARC
  5
6467
  8
0
  6
CONTINUOUS
 62
     7
 10
308.07951970342521
 20
228.55235255278339
 30
0.0
 40
3.0
 50
0.0
 51
88.499997000000747
  0
ARC
  5
6468
  8
0
  6
CONTINUOUS
 62
     7
 10
313.07948970342522
 20
226.92313755278349
 30
0.0
 40
2.0
 50
179.999989999999
 51
268.00000999999861
  0
ARC
  5
6469
  8
0
  6
CONTINUOUS
 62
     7
 10
343.08116970342519
 20
259.81119155278338
 30
0.0
 40
7.331658799999996
 50
90.000003000000945
 51
270.0
  0
ARC
  5
646A
  8
0
  6
CONTINUOUS
 62
     7
 10
384.07948970342522
 20
399.11959855278337
 30
0.0
 40
3.0
 50
0.0
 51
91.999998000000545
  0
ARC
  5
646B
  8
0
  6
CONTINUOUS
 62
     7
 10
385.07945970342507
 20
419.16671855278321
 30
0.0
 40
2.0
 50
91.999998000000545
 51
180.0000099999977
  0
ARC
  5
646C
  8
0
  6
CONTINUOUS
 62
     7
 10
308.07951970342521
 20
382.94229855278343
 30
0.0
 40
3.0
 50
271.49999999999949
 51
0.0
  0
ARC
  5
646D
  8
0
  6
CONTINUOUS
 62
     7
 10
313.07948970342522
 20
384.61569855278327
 30
0.0
 40
2.0
 50
91.500001000001546
 51
180.0000099999977
  0
ARC
  5
646E
  8
0
  6
CONTINUOUS
 62
     7
 10
384.07948970342522
 20
258.44730755278351
 30
0.0
 40
3.0
 50
270.0
 51
0.0
  0
LINE
  5
6502
  8
0
  6
AM_ISO08W050
 62
     0
 10
648.08993091411571
 20
219.5390465527835
 30
0.0
 11
648.08993091411571
 21
427.17584855278329
 31
0.0
  0
LINE
  5
6503
  8
0
  6
AM_ISO08W050
 62
     0
 10
550.43673091411563
 20
328.94731855278337
 30
0.0
 11
745.46217591411562
 21
328.94731855278337
 31
0.0
  0
LINE
  5
6504
  8
0
  6
CONTINUOUS
 62
     7
 10
618.08991091411565
 20
421.4472985527832
 30
0.0
 11
572.18985091411571
 21
419.04177855278328
 31
0.0
  0
LINE
  5
6505
  8
0
  6
CONTINUOUS
 62
     7
 10
679.60512091411579
 20
356.2198785527832
 30
0.0
 11
704.49291091411578
 21
381.10766855278331
 31
0.0
  0
LINE
  5
6506
  8
0
  6
CONTINUOUS
 62
     7
 10
648.08993091411571
 20
421.44731855278332
 30
0.0
 11
618.08993091411571
 21
421.44731855278332
 31
0.0
  0
LINE
  5
6507
  8
0
  6
CONTINUOUS
 62
     7
 10
555.58991091411565
 20
298.9472885527835
 30
0.0
 11
557.99544091411565
 21
253.04723655278349
 31
0.0
  0
LINE
  5
6508
  8
0
  6
CONTINUOUS
 62
     7
 10
740.5899299141156
 20
328.94731855278337
 30
0.0
 11
740.5899299141156
 21
358.94731855278349
 31
0.0
  0
LINE
  5
6509
  8
0
  6
CONTINUOUS
 62
     7
 10
740.58992191411562
 20
358.94729855278342
 30
0.0
 11
738.1844009141156
 21
404.84738855278351
 31
0.0
  0
LINE
  5
650A
  8
0
  6
CONTINUOUS
 62
     7
 10
620.81734091411556
 20
360.46252855278351
 30
0.0
 11
595.92957091411563
 21
385.3502985527835
 31
0.0
  0
LINE
  5
650B
  8
0
  6
CONTINUOUS
 62
     7
 10
740.58992191411562
 20
298.94731855278349
 30
0.0
 11
738.1844009141156
 21
253.04722955278351
 31
0.0
  0
LINE
  5
650C
  8
0
  6
CONTINUOUS
 62
     7
 10
650.58993091411571
 20
389.56707855278353
 30
0.0
 11
650.58993091411571
 21
400.13516855278351
 31
0.0
  0
LINE
  5
650D
  8
0
  6
CONTINUOUS
 62
     7
 10
740.5899299141156
 20
328.94731855278337
 30
0.0
 11
740.5899299141156
 21
298.94731855278349
 31
0.0
  0
LINE
  5
650E
  8
0
  6
CONTINUOUS
 62
     7
 10
618.08993091411571
 20
236.4473075527834
 30
0.0
 11
572.18987091411555
 21
238.8528245527834
 31
0.0
  0
LINE
  5
650F
  8
0
  6
CONTINUOUS
 62
     7
 10
678.0899309141156
 20
421.4472985527832
 30
0.0
 11
723.98999591411564
 21
419.04177855278328
 31
0.0
  0
LINE
  5
6510
  8
0
  6
CONTINUOUS
 62
     7
 10
648.08993091411571
 20
421.44731855278332
 30
0.0
 11
678.0899309141156
 21
421.44731855278332
 31
0.0
  0
LINE
  5
6511
  8
0
  6
CONTINUOUS
 62
     7
 10
648.08993091411571
 20
236.44729955278351
 30
0.0
 11
678.0899309141156
 21
236.44729955278351
 31
0.0
  0
LINE
  5
6512
  8
0
  6
CONTINUOUS
 62
     7
 10
555.58993091411571
 20
328.94731855278337
 30
0.0
 11
555.58993091411571
 21
358.94731855278349
 31
0.0
  0
LINE
  5
6513
  8
0
  6
CONTINUOUS
 62
     7
 10
555.58993091411571
 20
358.94729855278342
 30
0.0
 11
557.9954609141156
 21
404.84736855278328
 31
0.0
  0
LINE
  5
6514
  8
0
  6
CONTINUOUS
 62
     7
 10
648.08993091411571
 20
236.44729955278351
 30
0.0
 11
618.08993091411571
 21
236.44729955278351
 31
0.0
  0
LINE
  5
6515
  8
0
  6
CONTINUOUS
 62
     7
 10
687.08993091411571
 20
328.94731855278337
 30
0.0
 11
687.08993091411571
 21
305.74732855278347
 31
0.0
  0
LINE
  5
6516
  8
0
  6
CONTINUOUS
 62
     7
 10
675.36248091411574
 20
360.46252855278351
 30
0.0
 11
700.25026591411563
 21
385.35031855278328
 31
0.0
  0
LINE
  5
6517
  8
0
  6
CONTINUOUS
 62
     7
 10
609.08991091411565
 20
328.94731855278337
 30
0.0
 11
609.08991091411565
 21
305.74732855278347
 31
0.0
  0
LINE
  5
6518
  8
0
  6
CONTINUOUS
 62
     7
 10
534.95293091411565
 20
274.2873385527833
 30
0.0
 11
534.96493091411514
 21
274.69731855278337
 31
0.0
  0
LINE
  5
6519
  8
0
  6
CONTINUOUS
 62
     7
 10
534.91890091411562
 20
273.88129855278351
 30
0.0
 11
534.95293091411565
 21
274.28736855278339
 31
0.0
  0
LINE
  5
651A
  8
0
  6
CONTINUOUS
 62
     7
 10
534.86190091411572
 20
273.48030855278341
 30
0.0
 11
534.91890091411562
 21
273.88130855278348
 31
0.0
  0
LINE
  5
651B
  8
0
  6
CONTINUOUS
 62
     7
 10
534.78389091411555
 20
273.08930855278351
 30
0.0
 11
534.86190091411572
 21
273.48031855278339
 31
0.0
  0
LINE
  5
651C
  8
0
  6
CONTINUOUS
 62
     7
 10
534.6839509141156
 20
272.71140855278338
 30
0.0
 11
534.78393091411544
 21
273.08933855278337
 31
0.0
  0
LINE
  5
651D
  8
0
  6
CONTINUOUS
 62
     7
 10
534.56289091411566
 20
272.34732855278338
 30
0.0
 11
534.68389091411564
 21
272.71134855278348
 31
0.0
  0
LINE
  5
651E
  8
0
  6
CONTINUOUS
 62
     7
 10
534.42193091411559
 20
272.00128855278342
 30
0.0
 11
534.56295091411562
 21
272.3472885527832
 31
0.0
  0
LINE
  5
651F
  8
0
  6
CONTINUOUS
 62
     7
 10
534.26293091411537
 20
271.67629855278341
 30
0.0
 11
534.42193091411559
 21
272.00130855278348
 31
0.0
  0
LINE
  5
6520
  8
0
  6
CONTINUOUS
 62
     7
 10
534.08596091411562
 20
271.37439255278338
 30
0.0
 11
534.26293091411537
 21
271.67635855278348
 31
0.0
  0
LINE
  5
6521
  8
0
  6
CONTINUOUS
 62
     7
 10
533.89300091411565
 20
271.09734655278351
 30
0.0
 11
534.08596091411562
 21
271.37430155278349
 31
0.0
  0
LINE
  5
6522
  8
0
  6
CONTINUOUS
 62
     7
 10
533.68493091411563
 20
270.84731655278352
 30
0.0
 11
533.89296091411563
 21
271.09733955278352
 31
0.0
  0
LINE
  5
6523
  8
0
  6
CONTINUOUS
 62
     7
 10
533.46493091411548
 20
270.6272925527835
 30
0.0
 11
533.68496091411566
 21
270.84733155278349
 31
0.0
  0
LINE
  5
6524
  8
0
  6
CONTINUOUS
 62
     7
 10
533.23189091411564
 20
270.43738155278339
 30
0.0
 11
533.46489091411524
 21
270.62739155278348
 31
0.0
  0
LINE
  5
6525
  8
0
  6
CONTINUOUS
 62
     7
 10
532.99096091411582
 20
270.28029955278339
 30
0.0
 11
533.23195091411549
 21
270.43729755278338
 31
0.0
  0
LINE
  5
6526
  8
0
  6
CONTINUOUS
 62
     7
 10
532.74090091411563
 20
270.15738255278347
 30
0.0
 11
532.99090091411563
 21
270.28037555278343
 31
0.0
  0
LINE
  5
6527
  8
0
  6
CONTINUOUS
 62
     7
 10
532.48592091411547
 20
270.06834755278351
 30
0.0
 11
532.74093091411555
 21
270.15735155278338
 31
0.0
  0
LINE
  5
6528
  8
0
  6
CONTINUOUS
 62
     7
 10
532.22594091411588
 20
270.01533055278338
 30
0.0
 11
532.48592091411547
 21
270.06832455278351
 31
0.0
  0
LINE
  5
6529
  8
0
  6
CONTINUOUS
 62
     7
 10
531.96499091411567
 20
269.99732555278348
 30
0.0
 11
532.22594091411588
 21
270.01532355278351
 31
0.0
  0
LINE
  5
652A
  8
0
  6
CONTINUOUS
 62
     7
 10
530.31298091411566
 20
269.99835555278338
 30
0.0
 11
534.45394091411526
 21
269.99835555278338
 31
0.0
  0
LINE
  5
652B
  8
0
  6
CONTINUOUS
 62
     7
 10
532.22588091411546
 20
341.47929855278352
 30
0.0
 11
531.96489091411559
 21
341.4962985527834
 31
0.0
  0
LINE
  5
652C
  8
0
  6
CONTINUOUS
 62
     7
 10
532.48592091411547
 20
341.42532855278353
 30
0.0
 11
532.22591091411562
 21
341.4793285527835
 31
0.0
  0
LINE
  5
652D
  8
0
  6
CONTINUOUS
 62
     7
 10
532.74093091411555
 20
341.33637855278351
 30
0.0
 11
532.48592091411547
 21
341.42536855278343
 31
0.0
  0
LINE
  5
652E
  8
0
  6
CONTINUOUS
 62
     7
 10
532.99099091411586
 20
341.21331855278328
 30
0.0
 11
532.74093091411555
 21
341.33634855278342
 31
0.0
  0
LINE
  5
652F
  8
0
  6
CONTINUOUS
 62
     7
 10
533.23195091411549
 20
341.05635855278342
 30
0.0
 11
532.99093091411555
 21
341.21336855278332
 31
0.0
  0
LINE
  5
6530
  8
0
  6
CONTINUOUS
 62
     7
 10
533.46493091411548
 20
340.8673885527835
 30
0.0
 11
533.23192091411545
 21
341.05638855278352
 31
0.0
  0
LINE
  5
6531
  8
0
  6
CONTINUOUS
 62
     7
 10
533.68496091411566
 20
340.64625855278342
 30
0.0
 11
533.46489091411524
 21
340.8673085527833
 31
0.0
  0
LINE
  5
6532
  8
0
  6
CONTINUOUS
 62
     7
 10
533.89296091411563
 20
340.39730855278327
 30
0.0
 11
533.68496091411566
 21
340.64631855278338
 31
0.0
  0
LINE
  5
6533
  8
0
  6
CONTINUOUS
 62
     7
 10
534.08593091411569
 20
340.12034855278353
 30
0.0
 11
533.89290091411544
 21
340.39736855278352
 31
0.0
  0
LINE
  5
6534
  8
0
  6
CONTINUOUS
 62
     7
 10
534.26290091411545
 20
339.81733855278338
 30
0.0
 11
534.08590091411577
 21
340.12034855278353
 31
0.0
  0
LINE
  5
6535
  8
0
  6
CONTINUOUS
 62
     7
 10
534.42190091411555
 20
339.4922985527835
 30
0.0
 11
534.26290091411545
 21
339.8173085527834
 31
0.0
  0
LINE
  5
6536
  8
0
  6
CONTINUOUS
 62
     7
 10
534.56292091411547
 20
339.14628855278352
 30
0.0
 11
534.42193091411559
 21
339.4922985527835
 31
0.0
  0
LINE
  5
6537
  8
0
  6
CONTINUOUS
 62
     7
 10
534.6839509141156
 20
338.78334855278331
 30
0.0
 11
534.56295091411562
 21
339.14639855278352
 31
0.0
  0
LINE
  5
6538
  8
0
  6
CONTINUOUS
 62
     7
 10
534.78393091411544
 20
338.4043885527833
 30
0.0
 11
534.6839509141156
 21
338.7833585527834
 31
0.0
  0
LINE
  5
6539
  8
0
  6
CONTINUOUS
 62
     7
 10
534.86193091411565
 20
338.01330855278343
 30
0.0
 11
534.78393091411544
 21
338.40431855278342
 31
0.0
  0
LINE
  5
653A
  8
0
  6
CONTINUOUS
 62
     7
 10
534.91890091411562
 20
337.61335855278332
 30
0.0
 11
534.86193091411565
 21
338.0133385527833
 31
0.0
  0
LINE
  5
653B
  8
0
  6
CONTINUOUS
 62
     7
 10
534.95290091411562
 20
337.20632855278342
 30
0.0
 11
534.91890091411562
 21
337.6133285527834
 31
0.0
  0
LINE
  5
653C
  8
0
  6
CONTINUOUS
 62
     7
 10
534.96493091411514
 20
336.79634855278329
 30
0.0
 11
534.95293091411565
 21
337.2063185527835
 31
0.0
  0
LINE
  5
653D
  8
0
  6
CONTINUOUS
 62
     7
 10
557.28284091411581
 20
266.6449235527835
 30
0.0
 11
555.18691091411563
 21
266.30632355278351
 31
0.0
  0
LINE
  5
653E
  8
0
  6
CONTINUOUS
 62
     7
 10
527.13695091411546
 20
266.77136555278338
 30
0.0
 11
530.15688091411585
 21
266.29837355278352
 31
0.0
  0
LINE
  5
653F
  8
0
  6
CONTINUOUS
 62
     7
 10
534.96496091411564
 20
336.79632855278339
 30
0.0
 11
534.96496091411564
 21
274.4233785527835
 31
0.0
  0
LINE
  5
6540
  8
0
  6
CONTINUOUS
 62
     7
 10
527.13692091411565
 20
344.72233855278353
 30
0.0
 11
530.15691091411577
 21
345.19532855278328
 31
0.0
  0
LINE
  5
6541
  8
0
  6
CONTINUOUS
 62
     7
 10
521.08492091411563
 20
274.69730855278328
 30
0.0
 11
521.08492091411563
 21
336.79632855278339
 31
0.0
  0
LINE
  5
6542
  8
0
  6
CENTER
 62
     7
 10
716.2394239141156
 20
260.79780955278352
 30
0.0
 11
731.55762291411565
 21
245.47960955278339
 31
0.0
  0
LINE
  5
6543
  8
0
  6
CONTINUOUS
 62
     7
 10
722.95487091411565
 20
300.74732855278347
 30
0.0
 11
692.08994091411546
 21
300.74732855278347
 31
0.0
  0
LINE
  5
6544
  8
0
  6
CONTINUOUS
 62
     7
 10
644.08993091411571
 20
338.94731855278349
 30
0.0
 11
652.08991091411565
 21
338.94731855278349
 31
0.0
  0
LINE
  5
6545
  8
0
  6
CONTINUOUS
 62
     7
 10
645.58993091411571
 20
389.56707855278353
 30
0.0
 11
645.58993091411571
 21
400.13516855278351
 31
0.0
  0
LINE
  5
6546
  8
0
  6
CONTINUOUS
 62
     7
 10
678.0899309141156
 20
236.44731455278341
 30
0.0
 11
723.98999591411564
 21
238.8528325527835
 31
0.0
  0
LINE
  5
6547
  8
0
  6
CONTINUOUS
 62
     7
 10
652.08991091411565
 20
338.94731855278349
 30
0.0
 11
652.08991091411565
 21
345.94732855278352
 31
0.0
  0
LINE
  5
6548
  8
0
  6
CONTINUOUS
 62
     7
 10
573.22497091411549
 20
300.74732855278347
 30
0.0
 11
604.08991091411565
 21
300.74732855278347
 31
0.0
  0
LINE
  5
6549
  8
0
  6
CENTER
 62
     7
 10
715.72460791411561
 20
396.58200855278341
 30
0.0
 11
731.31507691411559
 21
412.1724685527833
 31
0.0
  0
LINE
  5
654B
  8
0
  6
CENTER
 62
     7
 10
579.79264091411574
 20
397.24458855278328
 30
0.0
 11
564.73516091411545
 21
412.30206855278328
 31
0.0
  0
LINE
  5
654C
  8
0
  6
CONTINUOUS
 62
     7
 10
616.57470091411574
 20
356.21989855278338
 30
0.0
 11
591.68694091411555
 21
381.10765855278328
 31
0.0
  0
LINE
  5
654D
  8
0
  6
CONTINUOUS
 62
     7
 10
555.58993091411571
 20
328.94731855278337
 30
0.0
 11
555.58993091411571
 21
298.94731855278349
 31
0.0
  0
LINE
  5
654E
  8
0
  6
CENTER
 62
     7
 10
580.15088091411565
 20
261.00828855278343
 30
0.0
 11
564.19489091411572
 21
245.05229555278339
 31
0.0
  0
LINE
  5
654F
  8
0
  6
CONTINUOUS
 62
     7
 10
644.08993091411571
 20
338.94731855278349
 30
0.0
 11
644.08993091411571
 21
345.94732855278352
 31
0.0
  0
LINE
  5
6550
  8
0
  6
CONTINUOUS
 62
     7
 10
644.08993091411571
 20
345.94732855278352
 30
0.0
 11
652.08991091411565
 21
345.94732855278352
 31
0.0
  0
ARC
  5
6551
  8
0
  6
CONTINUOUS
 62
     7
 10
642.5899309141156
 20
389.56707855278353
 30
0.0
 40
3.0
 50
273.75419999999599
 51
0.0
  0
ARC
  5
6552
  8
0
  6
CONTINUOUS
 62
     7
 10
681.72645091411573
 20
354.09855855278352
 30
0.0
 40
3.0
 50
135.0
 51
216.78678999999889
  0
ARC
  5
6553
  8
0
  6
CONTINUOUS
 62
     7
 10
648.08993091411571
 20
305.74732855278347
 30
0.0
 40
81.0
 50
270.0
 51
291.36620000000198
  0
ARC
  5
6554
  8
0
  6
CONTINUOUS
 62
     7
 10
572.97489091411569
 20
404.06234855278342
 30
0.0
 40
15.0
 50
92.999999000001679
 51
176.99999000000031
  0
ARC
  5
6555
  8
0
  6
CONTINUOUS
 62
     7
 10
698.12896591411561
 20
387.47161855278353
 30
0.0
 40
3.0
 50
315.0
 51
49.469137000003222
  0
ARC
  5
6556
  8
0
  6
CONTINUOUS
 62
     7
 10
648.08993091411571
 20
328.94731855278337
 30
0.0
 40
39.000011000000001
 50
0.0
 51
36.7867909999975
  0
ARC
  5
6557
  8
0
  6
CONTINUOUS
 62
     7
 10
648.08993091411571
 20
328.94731855278337
 30
0.0
 40
39.000011000000001
 50
53.213208000000037
 51
126.78679000000091
  0
ARC
  5
6558
  8
0
  6
CONTINUOUS
 62
     7
 10
692.08994091411546
 20
305.74732855278347
 30
0.0
 40
5.0
 50
179.999989999999
 51
270.0
  0
ARC
  5
6559
  8
0
  6
CONTINUOUS
 62
     7
 10
572.97489091411569
 20
253.8322715527834
 30
0.0
 40
15.0
 50
183.00000999999969
 51
267.00000000000091
  0
ARC
  5
655A
  8
0
  6
CONTINUOUS
 62
     7
 10
648.08993091411571
 20
305.74732855278347
 30
0.0
 40
81.0
 50
125.474170000001
 51
155.4112299999997
  0
ARC
  5
655B
  8
0
  6
CONTINUOUS
 62
     7
 10
648.08993091411571
 20
305.74732855278347
 30
0.0
 40
81.0
 50
24.588775000001409
 51
54.52582999999899
  0
ARC
  5
655C
  8
0
  6
CONTINUOUS
 62
     7
 10
648.08993091411571
 20
328.94731855278337
 30
0.0
 40
74.400002000000001
 50
355.05458000000129
 51
8.1165494000001353
  0
ARC
  5
655D
  8
0
  6
CONTINUOUS
 62
     7
 10
723.20496191411564
 20
253.8322715527834
 30
0.0
 40
15.0
 50
272.99999999999909
 51
356.99999999999778
  0
ARC
  5
655E
  8
0
  6
CONTINUOUS
 62
     7
 10
653.58993091411571
 20
400.13516855278351
 30
0.0
 40
3.0
 50
85.582086000002036
 51
180.0000099999977
  0
ARC
  5
655F
  8
0
  6
CONTINUOUS
 62
     7
 10
642.5899309141156
 20
400.13516855278351
 30
0.0
 40
3.0
 50
0.0
 51
94.417919000003408
  0
ARC
  5
6560
  8
0
  6
CONTINUOUS
 62
     7
 10
653.58993091411571
 20
389.56707855278353
 30
0.0
 40
3.0
 50
180.0000099999977
 51
266.24579999999742
  0
ARC
  5
6561
  8
0
  6
CONTINUOUS
 62
     7
 10
723.20496191411564
 20
253.8322715527834
 30
0.0
 40
15.0
 50
272.99999999999909
 51
356.99999999999778
  0
ARC
  5
6562
  8
0
  6
CONTINUOUS
 62
     7
 10
723.20496191411564
 20
404.06234855278342
 30
0.0
 40
15.0
 50
3.0000001000020982
 51
86.999998999997004
  0
ARC
  5
6563
  8
0
  6
CONTINUOUS
 62
     7
 10
723.20496191411564
 20
404.06234855278342
 30
0.0
 40
15.0
 50
3.0000001000020982
 51
86.999998999997004
  0
ARC
  5
6564
  8
0
  6
CONTINUOUS
 62
     7
 10
706.61424091411561
 20
378.98634855278328
 30
0.0
 40
3.0
 50
40.530864999999089
 51
135.0
  0
CIRCLE
  5
6565
  8
0
  6
CONTINUOUS
 62
     7
 10
648.08993091411571
 20
328.94731855278337
 30
0.0
 40
85.0
  0
ARC
  5
6566
  8
0
  6
CONTINUOUS
 62
     7
 10
528.15197091411562
 20
272.68534855278341
 30
0.0
 40
6.0
 50
187.26796999999829
 51
269.99995999999589
  0
ARC
  5
6567
  8
0
  6
CONTINUOUS
 62
     7
 10
542.64895091411563
 20
336.97933855278342
 30
0.0
 40
71.776702999999983
 50
259.9759600000005
 51
280.05995999999868
  0
ARC
  5
6568
  8
0
  6
CONTINUOUS
 62
     7
 10
540.87992091411559
 20
391.89331855278328
 30
0.0
 40
122.221
 50
262.57496000000248
 51
277.61102999999969
  0
ARC
  5
6569
  8
0
  6
CONTINUOUS
 62
     7
 10
525.08495091411555
 20
274.69730855278328
 30
0.0
 40
4.0
 50
179.99997999999789
 51
269.99995000000149
  0
ARC
  5
656A
  8
0
  6
CONTINUOUS
 62
     7
 10
528.15197091411562
 20
338.80837855278338
 30
0.0
 40
6.0
 50
89.999988999997555
 51
172.73197000000229
  0
ARC
  5
656B
  8
0
  6
CONTINUOUS
 62
     7
 10
542.64895091411563
 20
274.51438855278337
 30
0.0
 40
71.776702999999983
 50
79.61305400000208
 51
100.02399000000329
  0
ARC
  5
656C
  8
0
  6
CONTINUOUS
 62
     7
 10
540.87992091411559
 20
219.60077255278341
 30
0.0
 40
122.221
 50
83.08735899999931
 51
97.425484000000395
  0
ARC
  5
656D
  8
0
  6
CONTINUOUS
 62
     7
 10
525.08495091411555
 20
336.79632855278339
 30
0.0
 40
4.0
 50
89.999988999997555
 51
179.99997999999789
  0
ARC
  5
656E
  8
0
  6
CONTINUOUS
 62
     7
 10
572.97489091411569
 20
404.06234855278342
 30
0.0
 40
15.0
 50
92.999999000001679
 51
176.99999000000031
  0
ARC
  5
656F
  8
0
  6
CONTINUOUS
 62
     7
 10
648.08993091411571
 20
305.74732855278347
 30
0.0
 40
76.0
 50
167.23980000000071
 51
181.39353999999909
  0
ARC
  5
6570
  8
0
  6
CONTINUOUS
 62
     7
 10
648.08993091411571
 20
328.94731855278337
 30
0.0
 40
74.400002000000001
 50
171.8834499999985
 51
184.94541999999859
  0
ARC
  5
6571
  8
0
  6
CENTER
 62
     7
 10
648.08993091411571
 20
328.94731855278337
 30
0.0
 40
107.50001
 50
308.22346000000061
 51
322.3169300000003
  0
ARC
  5
6572
  8
0
  6
CONTINUOUS
 62
     7
 10
673.24118091411538
 20
362.58383855278328
 30
0.0
 40
3.0
 50
233.21320999999909
 51
315.0
  0
ARC
  5
6573
  8
0
  6
CONTINUOUS
 62
     7
 10
648.08993091411571
 20
305.74732855278347
 30
0.0
 40
76.0
 50
358.60644999999943
 51
12.76020199999941
  0
ARC
  5
6574
  8
0
  6
CONTINUOUS
 62
     7
 10
648.08993091411571
 20
305.74732855278347
 30
0.0
 40
81.0
 50
93.754195000000863
 51
121.1390599999999
  0
CIRCLE
  5
6575
  8
0
  6
CONTINUOUS
 62
     7
 10
724.10390291411545
 20
404.96127855278309
 30
0.0
 40
6.0
  0
CIRCLE
  5
6576
  8
0
  6
CONTINUOUS
 62
     7
 10
648.08993091411571
 20
328.94731855278337
 30
0.0
 40
29.0
  0
ARC
  5
6577
  8
0
  6
CONTINUOUS
 62
     7
 10
606.33994091411557
 20
233.43418455278351
 30
0.0
 40
8.0
 50
156.738740000001
 51
323.26127000000218
  0
CIRCLE
  5
6578
  8
0
  6
CONTINUOUS
 62
     7
 10
724.10390291411545
 20
252.9333145527834
 30
0.0
 40
6.0
  0
CIRCLE
  5
6579
  8
0
  6
CONTINUOUS
 62
     7
 10
572.07596091411574
 20
404.96127855278309
 30
0.0
 40
6.0
  0
ARC
  5
657A
  8
0
  6
CENTER
 62
     7
 10
648.08993091411571
 20
328.94731855278337
 30
0.0
 40
107.50001
 50
218.02724000000009
 51
232.42256
  0
ARC
  5
657B
  8
0
  6
CONTINUOUS
 62
     7
 10
689.83993091411537
 20
233.43418455278351
 30
0.0
 40
8.0
 50
216.73873999999759
 51
23.261258000001192
  0
ARC
  5
657C
  8
0
  6
CONTINUOUS
 62
     7
 10
589.56562091411524
 20
378.98634855278328
 30
0.0
 40
3.0
 50
45.00000100000149
 51
139.4691400000001
  0
ARC
  5
657D
  8
0
  6
CONTINUOUS
 62
     7
 10
679.42209091411576
 20
225.6580155527835
 30
0.0
 40
5.0
 50
36.738736999998601
 51
111.3662099999999
  0
ARC
  5
657E
  8
0
  6
CONTINUOUS
 62
     7
 10
572.97489091411569
 20
253.8322715527834
 30
0.0
 40
15.0
 50
183.00000999999969
 51
267.00000000000091
  0
ARC
  5
657F
  8
0
  6
CONTINUOUS
 62
     7
 10
604.08991091411565
 20
305.74732855278347
 30
0.0
 40
5.0
 50
270.0
 51
0.0
  0
ARC
  5
6580
  8
0
  6
CENTER
 62
     7
 10
648.08993091411571
 20
328.94731855278337
 30
0.0
 40
107.50001
 50
38.027232000001028
 51
53.246321000001373
  0
CIRCLE
  5
6581
  8
0
  6
CONTINUOUS
 62
     7
 10
572.07596091411574
 20
252.9333145527834
 30
0.0
 40
6.0
  0
ARC
  5
6582
  8
0
  6
CONTINUOUS
 62
     7
 10
616.75777091411555
 20
225.6580155527835
 30
0.0
 40
5.0
 50
68.633797999997611
 51
143.26125999999971
  0
CIRCLE
  5
6583
  8
0
  6
CONTINUOUS
 62
     7
 10
648.08993091411571
 20
328.94731855278337
 30
0.0
 40
3.0
  0
ARC
  5
6584
  8
0
  6
CONTINUOUS
 62
     7
 10
598.05089091411571
 20
387.47161855278353
 30
0.0
 40
3.0
 50
130.5308599999974
 51
225.0
  0
ARC
  5
6585
  8
0
  6
CONTINUOUS
 62
     7
 10
622.93868091411525
 20
362.58383855278328
 30
0.0
 40
3.0
 50
225.0
 51
306.78679000000079
  0
ARC
  5
6586
  8
0
  6
CONTINUOUS
 62
     7
 10
648.08993091411571
 20
328.94731855278337
 30
0.0
 40
39.000011000000001
 50
143.213210000001
 51
180.0000099999977
  0
ARC
  5
6587
  8
0
  6
CONTINUOUS
 62
     7
 10
614.4534009141156
 20
354.09855855278352
 30
0.0
 40
3.0
 50
323.21321000000103
 51
45.00000100000149
  0
ARC
  5
6588
  8
0
  6
CONTINUOUS
 62
     7
 10
648.08993091411571
 20
305.74732855278347
 30
0.0
 40
81.0
 50
58.8609450000028
 51
86.245802999997153
  0
ARC
  5
6589
  8
0
  6
CONTINUOUS
 62
     7
 10
648.08993091411571
 20
305.74732855278347
 30
0.0
 40
81.0
 50
248.6337999999979
 51
270.0
  0
CIRCLE
  5
658A
  8
0
  6
CONTINUOUS
 62
     7
 10
648.08993091411571
 20
328.94731855278337
 30
0.0
 40
80.0
  0
ARC
  5
658B
  8
0
  6
CENTER
 62
     7
 10
648.08993091411571
 20
328.94731855278337
 30
0.0
 40
107.50001
 50
128.3277899999984
 51
141.73167999999961
  0
ARC
  5
658C
  8
0
  6
CONTINUOUS
 62
     7
 10
648.08993091411571
 20
328.94731855278337
 30
0.0
 40
14.00000099999999
 50
106.60154000000141
 51
73.398451999997818
  0
CIRCLE
  5
658D
  8
0
  6
CONTINUOUS
 62
     7
 10
648.08993091411571
 20
328.94731855278337
 30
0.0
 40
4.0
  0
ARC
  5
66EB
  8
0
  6
CONTINUOUS
 62
     7
 10
309.07945970342507
 20
658.43190700441653
 30
0.0
 40
2.0
 50
271.49998393705317
 51
0.0
1001
GENIUS_GENODEF_13
1002
{
1000
HIER
1070
     0
1002
}
1002
{
1000
MANEDIT
1070
     0
1002
}
1002
{
1000
NOSEL
1070
     0
1002
}
1002
{
1000
BEHIND
1070
     0
1002
}
1002
{
1000
OTHER
1070
     0
1002
}
1002
{
1000
REACTOR
1002
}
1001
GENIUS_GENOBJ-N-FIL_13
1002
{
1000
OWNER
1000
GEN
1002
}
  0
ARC
  5
66EC
  8
0
  6
CONTINUOUS
 62
     7
 10
309.07945970342507
 20
505.99026560741783
 30
0.0
 40
2.0
 50
0.0
 51
88.500016062947026
1001
GENIUS_GENODEF_13
1002
{
1000
HIER
1070
     0
1002
}
1002
{
1000
MANEDIT
1070
     0
1002
}
1002
{
1000
NOSEL
1070
     0
1002
}
1002
{
1000
BEHIND
1070
     0
1002
}
1002
{
1000
OTHER
1070
     0
1002
}
1002
{
1000
REACTOR
1002
}
1001
GENIUS_GENOBJ-N-FIL_13
1002
{
1000
OWNER
1000
GEN
1002
}
  0
TEXT
  5
68E4
  8
0
  6
CONTINUOUS
 62
     0
 10
521.87234937899461
 20
571.98009865372296
 30
0.0
 40
10.0
  1
VX08-003EMF~VX08-030EMF
  0
ENDSEC
  0
EOF
