  0
SECTION
  2
HEADER
  9
$ACADVER
  1
AC1009
  9
$INSBASE
 10
0.0
 20
0.0
 30
0.0
  9
$EXTMIN
 10
127.4210787847489
 20
310.5636123582492
 30
-0.0015258207003583
  9
$EXTMAX
 10
974.30757526924333
 20
812.31034250550601
 30
0.0000000349246037
  9
$LIMMIN
 10
507.9222345301996
 20
52.70125734438988
  9
$LIMMAX
 10
915.9222345301996
 20
336.70125734438989
  9
$ORTHOMODE
 70
     0
  9
$REGENMODE
 70
     1
  9
$FILLMODE
 70
     1
  9
$QTEXTMODE
 70
     0
  9
$MIRRTEXT
 70
     0
  9
$DRAGMODE
 70
     2
  9
$LTSCALE
 40
1.0
  9
$OSMODE
 70
   551
  9
$ATTMODE
 70
     1
  9
$TEXTSIZE
 40
2.5
  9
$TRACEWID
 40
1.0
  9
$TEXTSTYLE
  7
STANDARD
  9
$CLAYER
  8
0
  9
$CELTYPE
  6
BYLAYER
  9
$CECOLOR
 62
   256
  9
$DIMSCALE
 40
1.0
  9
$DIMASZ
 40
2.0
  9
$DIMEXO
 40
1.0
  9
$DIMDLI
 40
8.0
  9
$DIMRND
 40
0.0
  9
$DIMDLE
 40
0.0
  9
$DIMEXE
 40
1.0
  9
$DIMTP
 40
0.1
  9
$DIMTM
 40
0.1
  9
$DIMTXT
 40
2.5
  9
$DIMCEN
 40
0.0
  9
$DIMTSZ
 40
0.0
  9
$DIMTOL
 70
     0
  9
$DIMLIM
 70
     0
  9
$DIMTIH
 70
     0
  9
$DIMTOH
 70
     0
  9
$DIMSE1
 70
     0
  9
$DIMSE2
 70
     0
  9
$DIMTAD
 70
     3
  9
$DIMZIN
 70
     8
  9
$DIMBLK
  1

  9
$DIMASO
 70
     1
  9
$DIMSHO
 70
     1
  9
$DIMPOST
  1

  9
$DIMAPOST
  1
"
  9
$DIMALT
 70
     0
  9
$DIMALTD
 70
     2
  9
$DIMALTF
 40
0.0393701
  9
$DIMLFAC
 40
1.0
  9
$DIMTOFL
 70
     1
  9
$DIMTVP
 40
0.0
  9
$DIMTIX
 70
     0
  9
$DIMSOXD
 70
     0
  9
$DIMSAH
 70
     0
  9
$DIMBLK1
  1

  9
$DIMBLK2
  1

  9
$DIMSTYLE
  2
AM_JIS
  9
$DIMCLRD
 70
     2
  9
$DIMCLRE
 70
     2
  9
$DIMCLRT
 70
     4
  9
$DIMTFAC
 40
0.71
  9
$DIMGAP
 40
1.5
  9
$LUNITS
 70
     2
  9
$LUPREC
 70
     2
  9
$SKETCHINC
 40
1.0
  9
$FILLETRAD
 40
0.0
  9
$AUNITS
 70
     0
  9
$AUPREC
 70
     0
  9
$MENU
  1
.
  9
$ELEVATION
 40
0.0
  9
$PELEVATION
 40
0.0
  9
$THICKNESS
 40
0.0
  9
$LIMCHECK
 70
     0
  9
$BLIPMODE
 70
     0
  9
$CHAMFERA
 40
0.0
  9
$CHAMFERB
 40
0.0
  9
$SKPOLY
 70
     0
  9
$TDCREATE
 40
2456905.4274614118
  9
$TDUPDATE
 40
2458540.652573484
  9
$TDINDWG
 40
0.0620106019
  9
$TDUSRTIMER
 40
0.0620103588
  9
$USRTIMER
 70
     1
  9
$ANGBASE
 50
0.0
  9
$ANGDIR
 70
     0
  9
$PDMODE
 70
     0
  9
$PDSIZE
 40
0.0
  9
$PLINEWID
 40
0.0
  9
$COORDS
 70
     1
  9
$SPLFRAME
 70
     0
  9
$SPLINETYPE
 70
     6
  9
$SPLINESEGS
 70
     8
  9
$ATTDIA
 70
     1
  9
$ATTREQ
 70
     1
  9
$HANDLING
 70
     1
  9
$HANDSEED
  5
1876
  9
$SURFTAB1
 70
     6
  9
$SURFTAB2
 70
     6
  9
$SURFTYPE
 70
     6
  9
$SURFU
 70
     6
  9
$SURFV
 70
     6
  9
$UCSNAME
  2

  9
$UCSORG
 10
0.0
 20
0.0
 30
0.0
  9
$UCSXDIR
 10
1.0
 20
0.0
 30
0.0
  9
$UCSYDIR
 10
0.0
 20
1.0
 30
0.0
  9
$PUCSNAME
  2

  9
$PUCSORG
 10
0.0
 20
0.0
 30
0.0
  9
$PUCSXDIR
 10
1.0
 20
0.0
 30
0.0
  9
$PUCSYDIR
 10
0.0
 20
1.0
 30
0.0
  9
$USERI1
 70
     0
  9
$USERI2
 70
     0
  9
$USERI3
 70
     0
  9
$USERI4
 70
     0
  9
$USERI5
 70
     0
  9
$USERR1
 40
0.0
  9
$USERR2
 40
0.0
  9
$USERR3
 40
0.0
  9
$USERR4
 40
0.0
  9
$USERR5
 40
0.0
  9
$WORLDVIEW
 70
     1
  9
$SHADEDGE
 70
     3
  9
$SHADEDIF
 70
    70
  9
$TILEMODE
 70
     1
  9
$MAXACTVP
 70
    64
  9
$PLIMCHECK
 70
     0
  9
$PEXTMIN
 10
1.0000000000000000E+020
 20
1.0000000000000000E+020
 30
1.0000000000000000E+020
  9
$PEXTMAX
 10
-1.0000000000000000E+020
 20
-1.0000000000000000E+020
 30
-1.0000000000000000E+020
  9
$PLIMMIN
 10
0.0
 20
0.0
  9
$PLIMMAX
 10
420.0
 20
297.0
  9
$UNITMODE
 70
     0
  9
$VISRETAIN
 70
     1
  9
$PLINEGEN
 70
     0
  9
$PSLTSCALE
 70
     1
  0
ENDSEC
  0
SECTION
  2
TABLES
  0
TABLE
  2
VPORT
 70
     1
  0
VPORT
  2
*ACTIVE
 70
     0
 10
0.0
 20
0.0
 11
1.0
 21
1.0
 12
550.86432702699608
 22
561.43697743187761
 13
0.0
 23
0.0
 14
2.5
 24
2.5
 15
10.0
 25
10.0
 16
0.0
 26
0.0
 36
1.0
 17
0.0
 27
0.0
 37
0.0
 40
505.19121570890837
 41
1.7571592210767459
 42
50.0
 43
0.0
 44
0.0
 50
0.0
 51
0.0
 71
     0
 72
  1000
 73
     1
 74
     3
 75
     0
 76
     0
 77
     0
 78
     0
  0
ENDTAB
  0
TABLE
  2
LTYPE
 70
    24
  0
LTYPE
  2
CONTINUOUS
 70
     0
  3
Solid line
 72
    65
 73
     0
 40
0.0
  0
LTYPE
  2
AM_ISO02W050
 70
     0
  3
__ __ __ __ __ __ __ __ __ __ __ __ __ __ __
 72
    65
 73
     2
 40
7.5
 49
6.0
 49
-1.5
  0
LTYPE
  2
AM_ISO08W050
 70
     0
  3
____ . ____ . ____ . ____ . ____ . ____ . ____
 72
    65
 73
     4
 40
18.0
 49
12.0
 49
-1.5
 49
3.0
 49
-1.5
  0
LTYPE
  2
AM_ISO09W050
 70
     0
  3
_____ . . _____ . . _____ . . ____ .. ____
 72
    65
 73
     6
 40
22.5
 49
12.0
 49
-1.5
 49
3.0
 49
-1.5
 49
3.0
 49
-1.5
  0
LTYPE
  2
AMCONSTR
 70
     0
  3
_______________________
 72
    65
 73
     2
 40
9999.0
 49
9999.0
 49
0.0
  0
LTYPE
  2
AM_ISO08W050X2
 70
     0
  3
__ . __ . __ . __ . __ . __
 72
    65
 73
     4
 40
9.0
 49
6.0
 49
-0.75
 49
1.5
 49
-0.75
  0
LTYPE
  2
AM_ISO02W050X2
 70
     0
  3
 _ _ _ _ _ _ _ _ _ _ _ _
 72
    65
 73
     2
 40
3.75
 49
3.0
 49
-0.75
  0
LTYPE
  2
AMZIGZAG
 70
     0
  3
/\/-/\/-/\/-/\/-/\/-/\/
 72
    65
 73
     2
 40
11.0001
 49
0.0001
 49
-11.0
  0
LTYPE
  2
CENTER
 70
     0
  3
Center ____ _ ____ _ ____ _ ____ _ ____ _ ____
 72
    65
 73
     4
 40
50.799999999999997
 49
31.75
 49
-6.3499999999999979
 49
6.3499999999999979
 49
-6.3499999999999979
  0
LTYPE
  2
ACANSTGBM
 70
     0
  3
__ . . __ . .
 72
    65
 73
     6
 40
9.0
 49
4.0
 49
-1.0
 49
1.0
 49
-1.0
 49
1.0
 49
-1.0
  0
LTYPE
  2
ACANSTGLM
 70
     0
  3
_ _ _ _ _
 72
    65
 73
     2
 40
3.0
 49
2.0
 49
-1.0
  0
LTYPE
  2
ACISOWELD
 70
     0
  3
_ _ _ _ _
 72
    65
 73
     2
 40
2.0
 49
2.0
 49
-1.0
  0
LTYPE
  2
ACISOTGB
 70
     0
  3
__ . . __ . .
 72
    65
 73
     6
 40
9.0
 49
4.0
 49
-1.0
 49
1.0
 49
-1.0
 49
1.0
 49
-1.0
  0
LTYPE
  2
ACISOTGL
 70
     0
  3
_ _ _ _ _
 72
    65
 73
     2
 40
3.0
 49
2.0
 49
-1.0
  0
LTYPE
  2
ACJISTGB
 70
     0
  3
__ . . __ . .
 72
    65
 73
     6
 40
9.0
 49
4.0
 49
-1.0
 49
1.0
 49
-1.0
 49
1.0
 49
-1.0
  0
LTYPE
  2
ACJISTGL
 70
     0
  3
_ _ _ _ _
 72
    65
 73
     2
 40
3.0
 49
2.0
 49
-1.0
  0
LTYPE
  2
HIDDEN
 70
     0
  3
Hidden __ __ __ __ __ __ __ __ __ __ __ __ __ _
 72
    65
 73
     2
 40
9.5249999999999968
 49
6.3499999999999979
 49
-3.174999999999998
  0
LTYPE
  2
PHANTOM2
 70
     0
  3
Phantom (.5x) ___ _ _ ___ _ _ ___ _ _ ___ _ _
 72
    65
 73
     6
 40
31.75
 49
15.875
 49
-3.174999999999998
 49
3.174999999999998
 49
-3.174999999999998
 49
3.174999999999998
 49
-3.174999999999998
  0
LTYPE
  2
CENTER2
 70
     0
  3
Center (.5x) ___ _ ___ _ ___ _ ___ _ ___ _ ___
 72
    65
 73
     4
 40
1.125
 49
0.75
 49
-0.125
 49
0.125
 49
-0.125
  0
LTYPE
  2
HIDDEN2
 70
     0
  3
Hidden (.5x) _ _ _ _ _ _ _ _ _ _ _ _ _ _ _ _ _
 72
    65
 73
     2
 40
0.1875
 49
0.125
 49
-0.0625
  0
LTYPE
  2
AMZIGZAG2
 70
     0
  3
/\/-/\/-/\/-/\/-/\/-/\/
 72
    65
 73
     2
 40
0.4401
 49
0.0001
 49
-0.4400000000000003
  0
LTYPE
  2
ACANSTGB
 70
     0
  3
__ . . __ . .
 72
    65
 73
     6
 40
0.35433070866
 49
0.15748031496
 49
-0.03937007874
 49
0.03937007874
 49
-0.03937007874
 49
0.03937007874
 49
-0.03937007874
  0
LTYPE
  2
ACANSTGL
 70
     0
  3
_ _ _ _ _
 72
    65
 73
     2
 40
0.11811023622
 49
0.07874015748
 49
-0.03937007874
  0
ENDTAB
  0
TABLE
  2
LAYER
 70
     4
  0
LAYER
  2
0
 70
     0
 62
     7
  6
CONTINUOUS
  0
LAYER
  2
DEFPOINTS
 70
     0
 62
     7
  6
CONTINUOUS
  0
LAYER
  2
AM_5
 70
     0
 62
     2
  6
CONTINUOUS
  0
LAYER
  2
AM_CL
 70
     0
 62
     1
  6
AMCONSTR
  0
ENDTAB
  0
TABLE
  2
STYLE
 70
     8
  0
STYLE
  2
STANDARD
 70
     0
 40
0.0
 41
0.71
 50
0.0
 71
     0
 42
2.5
  3
txt.shx
  4
bigfont.shx
  0
STYLE
  2

 70
     1
 40
0.0
 41
1.0
 50
0.0
 71
     0
 42
2.5
  3
ltypeshp.shx
  4

  0
STYLE
  2
ACANSTS
 70
     0
 40
1.0
 41
1.0
 50
0.0
 71
     0
 42
2.5
  3
romans.shx
  4
bigfont.shx
  0
STYLE
  2
ACANSGDT
 70
     0
 40
0.0
 41
1.0
 50
0.0
 71
     0
 42
2.5
  3
amgdtans.shx
  4

  0
STYLE
  2
ACISOTS
 70
     0
 40
1.0
 41
1.0
 50
0.0
 71
     0
 42
2.5
  3
isocp.shx
  4
extfont.shx
  0
STYLE
  2
ACISOGDT
 70
     0
 40
0.0
 41
1.0
 50
0.0
 71
     0
 42
2.5
  3
amgdt.shx
  4

  0
STYLE
  2
ACJISTS
 70
     0
 40
1.0
 41
1.0
 50
0.0
 71
     0
 42
2.5
  3
isocp.shx
  4
extfont.shx
  0
STYLE
  2
ACJISGDT
 70
     0
 40
0.0
 41
1.0
 50
0.0
 71
     0
 42
2.5
  3
amgdt.shx
  4

  0
ENDTAB
  0
TABLE
  2
VIEW
 70
     6
  0
VIEW
  2
AM_VIEW1
 70
     0
 40
142.0
 10
643.64884575681072
 20
265.70125734438989
 41
271.45322245322239
 11
0.0
 21
0.0
 31
1.0
 12
0.0
 22
0.0
 32
0.0
 42
50.0
 43
0.0
 44
0.0
 50
0.0
 71
     0
  0
VIEW
  2
AM_VIEW2
 70
     0
 40
142.0
 10
780.19562330358815
 20
265.70125734438989
 41
271.45322245322239
 11
0.0
 21
0.0
 31
1.0
 12
0.0
 22
0.0
 32
0.0
 42
50.0
 43
0.0
 44
0.0
 50
0.0
 71
     0
  0
VIEW
  2
AM_VIEW3
 70
     0
 40
142.0
 10
643.64884575681072
 20
123.7012573443899
 41
271.45322245322239
 11
0.0
 21
0.0
 31
1.0
 12
0.0
 22
0.0
 32
0.0
 42
50.0
 43
0.0
 44
0.0
 50
0.0
 71
     0
  0
VIEW
  2
AM_VIEW4
 70
     0
 40
142.0
 10
780.19562330358815
 20
123.7012573443899
 41
271.45322245322239
 11
0.0
 21
0.0
 31
1.0
 12
0.0
 22
0.0
 32
0.0
 42
50.0
 43
0.0
 44
0.0
 50
0.0
 71
     0
  0
VIEW
  2
AM_VIEW5
 70
     0
 40
142.0
 10
711.9222345301996
 20
194.70125734438989
 41
271.45322245322239
 11
0.0
 21
0.0
 31
1.0
 12
0.0
 22
0.0
 32
0.0
 42
50.0
 43
0.0
 44
0.0
 50
0.0
 71
     0
  0
VIEW
  2
AM_VIEW6
 70
     0
 40
283.99716000000001
 10
711.9222345301996
 20
194.70125734438989
 41
542.90101584199601
 11
0.0
 21
0.0
 31
1.0
 12
0.0
 22
0.0
 32
0.0
 42
50.0
 43
0.0
 44
0.0
 50
0.0
 71
     0
  0
ENDTAB
  0
TABLE
  2
UCS
 70
     0
  0
ENDTAB
  0
TABLE
  2
APPID
 70
   158
  0
APPID
  2
ACAD
 70
     0
  0
APPID
  2
ACADANNOTATIVE
 70
     0
  0
APPID
  2
MCAD_NO_VIS
 70
     0
  0
APPID
  2
ACAD_TEMP_GRAPHIC
 70
     0
  0
APPID
  2
AD_DRAW
 70
     0
  0
APPID
  2
ACATTRIBSERVICES
 70
     0
  0
APPID
  2
ACAD_MLEADERVER
 70
     0
  0
APPID
  2
DESIGNERASSEMBLIES
 70
     0
  0
APPID
  2
ACADM_DIM_EDIT
 70
     0
  0
APPID
  2
AMDT_DM_ADJ
 70
     0
  0
APPID
  2
GENIUS_GENDIMSH_14
 70
     0
  0
APPID
  2
GEVID1057795304
 70
     0
  0
APPID
  2
GEVDC
 70
     0
  0
APPID
  2
GEVCON
 70
     0
  0
APPID
  2
GENIUS_GENBH_13
 70
     0
  0
APPID
  2
GENIUS_GENOENT_13
 70
     0
  0
APPID
  2
GENIUS_GENOBJ-NBEHI-BHF_13
 70
     0
  0
APPID
  2
GENIUS_GENOLIS_13
 70
     0
  0
APPID
  2
GENIUS_GENODEF_13
 70
     0
  0
APPID
  2
GENIUS_GENOREF_13
 70
     0
  0
APPID
  2
GENIUS_GENOBJ-NBEHI-BHB_13
 70
     0
  0
APPID
  2
GENIUS_GENOBJ-F-SCPASSM_13
 70
     0
  0
APPID
  2
GENIUS_GENDTOL_13
 70
     0
  0
APPID
  2
GENIUS_GENTRA_14
 70
     0
  0
APPID
  2
ASURF_PCURVE_APPNAME
 70
     0
  0
APPID
  2
GENIUS_GENCFG_13
 70
     0
  0
APPID
  2
GENIUS_GE3CFG0_13
 70
     0
  0
APPID
  2
GENIUS_GENCFG0_13
 70
     0
  0
APPID
  2
GENIUS_GENCFG1_13
 70
     0
  0
APPID
  2
GENIUS_GENCFG2_13
 70
     0
  0
APPID
  2
GENIUS_GENCFG3_13
 70
     0
  0
APPID
  2
GENIUS_GENCFG4_13
 70
     0
  0
APPID
  2
GENIUS_GEVCFG0_13
 70
     0
  0
APPID
  2
GENIUS_GENOBJ-N-TIT_13
 70
     0
  0
APPID
  2
GENIUS_GENTITLE_13
 70
     0
  0
APPID
  2
GENIUS_GENSCREG_15
 70
     0
  0
APPID
  2
GENIUS_GENOBJ-N-SDF_13
 70
     0
  0
APPID
  2
GENIUS_GENFIL_13
 70
     0
  0
APPID
  2
GENIUS_GENOBJ-N-CHA_13
 70
     0
  0
APPID
  2
GENIUS_GEFSH_13
 70
     0
  0
APPID
  2
GENIUS_GENOBJ-F-SHS_13
 70
     0
  0
APPID
  2
GENIUS_GENOBJ-N-CEN_13
 70
     0
  0
APPID
  2
GENIUS_GENREC_14
 70
     0
  0
APPID
  2
GENIUS_GENOBJ-N-REC_13
 70
     0
  0
APPID
  2
GENIUS_GENOBJ-N-HTC_13
 70
     0
  0
APPID
  2
GENIUS_GENHATCH_13
 70
     0
  0
APPID
  2
ACADANNOPO
 70
     0
  0
APPID
  2
ACAD_NAV_VCDISPLAY
 70
     0
  0
APPID
  2
ACAECLAYERSTANDARD
 70
     0
  0
APPID
  2
ACAD_DSTYLE_DIMBREAK
 70
     0
  0
APPID
  2
ACAD_DSTYLE_DIMJAG
 70
     0
  0
APPID
  2
ACAD_DSTYLE_DIMINSPECT
 70
     0
  0
APPID
  2
GENIUS_GENCEN_19
 70
     0
  0
APPID
  2
ACAD_PSEXT
 70
     0
  0
APPID
  2
ACAD_EXEMPT_FROM_CAD_STANDARDS
 70
     0
  0
APPID
  2
GENIUS_DUMCFG0_13
 70
     0
  0
APPID
  2
GENIUS_GENOBJ-N-FIL_13
 70
     0
  0
APPID
  2
ACAD_DSTYLE_DIMTEXT_FILL
 70
     0
  0
APPID
  2
AMG_2DHIDE
 70
     0
  0
APPID
  2
GENIUS_GEFSHEP_13
 70
     0
  0
APPID
  2
GENIUS_GENOBJ-F-SHE_13
 70
     0
  0
APPID
  2
GENIUS_GEFSHE_13
 70
     0
  0
APPID
  2
ACAD_DIMASSOC_DIMLFAC
 70
     0
  0
APPID
  2
ACAD_DIMASSOC_CALC_DIMLFAC
 70
     0
  0
APPID
  2
ACAD_DIMASSOC_OVERRIDDEN_D
 70
     0
  0
APPID
  2
GENIUS_GENOBJ-F-SHSV_13
 70
     0
  0
APPID
  2
GENIUS_GEFWELD_13
 70
     0
  0
APPID
  2
GENIUS_GENOBJ-N-CRS_13
 70
     0
  0
APPID
  2
GENIUS_GENOBJ-N-RSBK_13
 70
     0
  0
APPID
  2
GENIUS_GENOBJ-N-LIB_13
 70
     0
  0
APPID
  2
GENIUS_GENSCALE_13
 70
     0
  0
APPID
  2
GENIUS_GENHINW_13
 70
     0
  0
APPID
  2
GENIUS_FIRSTVISTXT_14
 70
     0
  0
APPID
  2
GENIUS_GENOBJ-N-LEADER_13
 70
     0
  0
APPID
  2
GENIUS_GENDREL_13
 70
     0
  0
APPID
  2
GEVPT
 70
     0
  0
APPID
  2
GEVIT
 70
     0
  0
APPID
  2
VCC
 70
     0
  0
APPID
  2
GENBH
 70
     0
  0
APPID
  2
GEVMK
 70
     0
  0
APPID
  2
GENIUS_GENOBJ-F-DESC_13
 70
     0
  0
APPID
  2
GENIUS_GEFDESC_14
 70
     0
  0
APPID
  2
GENIUS_GENOBJ-F-FEAT_13
 70
     0
  0
APPID
  2
GENIUS_GEFFEAT_14
 70
     0
  0
APPID
  2
GENIUS_GEFPARTINS_13
 70
     0
  0
APPID
  2
GENIUS_GENSCREG_13
 70
     0
  0
APPID
  2
GENIUS_GEFSHP_13
 70
     0
  0
APPID
  2
GEVID1025574798
 70
     0
  0
APPID
  2
GEVID1025574769
 70
     0
  0
APPID
  2
GEVID1025757451
 70
     0
  0
APPID
  2
GEVID1240528327
 70
     0
  0
APPID
  2
AMG_2DSTRUCT_BTR
 70
     0
  0
APPID
  2
ACADM_2DVIEW_IGN_NOTIFY
 70
     0
  0
APPID
  2
GEVID1240528328
 70
     0
  0
APPID
  2
GEVID1240528329
 70
     0
  0
APPID
  2
GEVRADREF
 70
     0
  0
APPID
  2
GEVID1240528330
 70
     0
  0
APPID
  2
GEVID1240528331
 70
     0
  0
APPID
  2
GEVID1240528332
 70
     0
  0
APPID
  2
GEVID1240791080
 70
     0
  0
APPID
  2
GEVID1240791081
 70
     0
  0
APPID
  2
GEVID1240791082
 70
     0
  0
APPID
  2
GEVID1240791083
 70
     0
  0
APPID
  2
GEVID1240791084
 70
     0
  0
APPID
  2
GEVID1240791085
 70
     0
  0
APPID
  2
GEVID1240791086
 70
     0
  0
APPID
  2
GEVID1240791087
 70
     0
  0
APPID
  2
GEVID1240791088
 70
     0
  0
APPID
  2
GEVID1240791089
 70
     0
  0
APPID
  2
GEVID1240791090
 70
     0
  0
APPID
  2
GEVID1240791091
 70
     0
  0
APPID
  2
GEVID1240791092
 70
     0
  0
APPID
  2
GEVID1240791093
 70
     0
  0
APPID
  2
GEVID1240791094
 70
     0
  0
APPID
  2
GEVID1240791095
 70
     0
  0
APPID
  2
GEVID1240791096
 70
     0
  0
APPID
  2
GEVID1240791097
 70
     0
  0
APPID
  2
GEVID1240791098
 70
     0
  0
APPID
  2
GEVID1240791099
 70
     0
  0
APPID
  2
GEVID1240791100
 70
     0
  0
APPID
  2
GEVID1240791101
 70
     0
  0
APPID
  2
GEVID1240791102
 70
     0
  0
APPID
  2
GEVID1240791103
 70
     0
  0
APPID
  2
GEVID1240791104
 70
     0
  0
APPID
  2
GEVID1240791105
 70
     0
  0
APPID
  2
GEVID1240875381
 70
     0
  0
APPID
  2
GEVID1240875382
 70
     0
  0
APPID
  2
GEVID1240875383
 70
     0
  0
APPID
  2
GEVID1240875384
 70
     0
  0
APPID
  2
GEVID1240875385
 70
     0
  0
APPID
  2
GEVID1240875386
 70
     0
  0
APPID
  2
GEVID1240875387
 70
     0
  0
APPID
  2
GEVID1240875388
 70
     0
  0
APPID
  2
GEVID1240875389
 70
     0
  0
APPID
  2
GEVID1240875390
 70
     0
  0
APPID
  2
GEVID1240875391
 70
     0
  0
APPID
  2
GEVID1240875392
 70
     0
  0
APPID
  2
GEVID1240875393
 70
     0
  0
APPID
  2
GEVID1240875394
 70
     0
  0
APPID
  2
GEVID1240875395
 70
     0
  0
APPID
  2
GEVID1240875396
 70
     0
  0
APPID
  2
GEVID1240875397
 70
     0
  0
APPID
  2
GEVID1240875398
 70
     0
  0
APPID
  2
GEVID1240875399
 70
     0
  0
APPID
  2
GEVID1240908996
 70
     0
  0
APPID
  2
GEVID1240908997
 70
     0
  0
APPID
  2
GEVID1240908998
 70
     0
  0
APPID
  2
GEVID1240908999
 70
     0
  0
APPID
  2
GEVID1240909000
 70
     0
  0
APPID
  2
GENIUS_GENOBJ-N-ZOO_13
 70
     0
  0
APPID
  2
GENIUS_GENZOO_17
 70
     0
  0
APPID
  2
ACAD_DSTYLE_DIMRADIAL_EXTENSION
 70
     0
  0
APPID
  2
GENIUS_GE3SECT_13
 70
     0
  0
APPID
  2
GEV_VCCNULL_SWITCH_OFF
 70
     0
  0
APPID
  2
ACAD_DSTYLE_DIMTALN
 70
     0
  0
APPID
  2
DCO15
 70
     0
  0
APPID
  2
ACAD_DSTYLE_DIMANGULAR_EXT
 70
     0
  0
APPID
  2
CONTENTBLOCKDESCRIPTION
 70
     0
  0
ENDTAB
  0
TABLE
  2
DIMSTYLE
 70
    22
  0
DIMSTYLE
  2
AM_ANSI
 70
     0
  3

  4
"
  5

  6

  7

 40
1.0
 41
2.5
 42
1.0
 43
10.0
 44
1.0
 45
0.0
 46
0.0
 47
0.1
 48
0.1
140
3.5
141
0.0
142
0.0
143
0.0393701
144
1.0
145
0.0
146
0.71
147
1.5
 71
     0
 72
     0
 73
     1
 74
     1
 75
     0
 76
     0
 77
     0
 78
     8
170
     0
171
     2
172
     0
173
     0
174
     0
175
     0
176
     2
177
     2
178
     4
  0
DIMSTYLE
  2
AM_ANSI$3
 70
     0
  3

  4
"
  5

  6

  7

 40
1.0
 41
2.5
 42
1.0
 43
10.0
 44
1.0
 45
0.0
 46
0.0
 47
0.1
 48
0.1
140
3.5
141
0.0
142
0.0
143
0.0393701
144
1.0
145
0.0
146
0.71
147
1.5
 71
     0
 72
     0
 73
     1
 74
     1
 75
     0
 76
     0
 77
     0
 78
     8
170
     0
171
     2
172
     0
173
     0
174
     0
175
     0
176
     2
177
     2
178
     4
  0
DIMSTYLE
  2
AM_ANSI$4
 70
     0
  3

  4
"
  5

  6

  7

 40
1.0
 41
2.5
 42
1.0
 43
10.0
 44
1.0
 45
0.0
 46
0.0
 47
0.1
 48
0.1
140
3.5
141
0.0
142
0.0
143
0.0393701
144
1.0
145
0.0
146
0.71
147
1.5
 71
     0
 72
     0
 73
     1
 74
     1
 75
     0
 76
     0
 77
     0
 78
     8
170
     0
171
     2
172
     0
173
     0
174
     0
175
     0
176
     2
177
     2
178
     4
  0
DIMSTYLE
  2
AM_ANSI$7
 70
     0
  3

  4
"
  5

  6

  7

 40
1.0
 41
2.5
 42
1.0
 43
10.0
 44
1.0
 45
0.0
 46
0.0
 47
0.1
 48
0.1
140
5.0
141
0.0
142
0.0
143
0.0393701
144
1.0
145
0.0
146
0.71
147
1.5
 71
     0
 72
     0
 73
     1
 74
     1
 75
     0
 76
     0
 77
     0
 78
     8
170
     0
171
     2
172
     0
173
     0
174
     0
175
     0
176
     2
177
     2
178
     4
  0
DIMSTYLE
  2
AM_ANSI$SF
 70
     0
  3

  4
"
  5

  6

  7

 40
1.0
 41
2.5
 42
1.0
 43
10.0
 44
1.0
 45
0.0
 46
0.0
 47
0.1
 48
0.1
140
3.5
141
0.0
142
0.0
143
0.0393701
144
1.0
145
0.0
146
0.71
147
1.5
 71
     0
 72
     0
 73
     1
 74
     1
 75
     1
 76
     1
 77
     0
 78
     8
170
     0
171
     2
172
     0
173
     0
174
     0
175
     0
176
     2
177
     2
178
     4
  0
DIMSTYLE
  2
AM_ANSI$SH
 70
     0
  3

  4
"
  5

  6
GENAXEH
  7

 40
1.0
 41
2.5
 42
1.0
 43
10.0
 44
1.0
 45
0.0
 46
0.0
 47
0.1
 48
0.1
140
3.5
141
0.0
142
0.0
143
0.0393701
144
1.0
145
0.0
146
0.71
147
1.5
 71
     0
 72
     0
 73
     1
 74
     1
 75
     1
 76
     1
 77
     0
 78
     8
170
     0
171
     2
172
     0
173
     1
174
     0
175
     0
176
     2
177
     2
178
     4
  0
DIMSTYLE
  2
AM_ISO
 70
     0
  3

  4
"
  5

  6

  7

 40
1.0
 41
2.5
 42
1.0
 43
10.0
 44
1.0
 45
0.0
 46
0.0
 47
0.1
 48
0.1
140
3.5
141
0.0
142
0.0
143
0.0393701
144
1.0
145
0.0
146
0.71
147
1.5
 71
     0
 72
     0
 73
     0
 74
     0
 75
     0
 76
     0
 77
     1
 78
     8
170
     0
171
     2
172
     1
173
     0
174
     0
175
     0
176
   256
177
   256
178
     2
  0
DIMSTYLE
  2
AM_ISO$3
 70
     0
  3

  4
"
  5

  6

  7

 40
1.0
 41
2.5
 42
1.0
 43
10.0
 44
1.0
 45
0.0
 46
0.0
 47
0.1
 48
0.1
140
3.5
141
0.0
142
0.0
143
0.0393701
144
1.0
145
0.0
146
0.71
147
1.5
 71
     0
 72
     0
 73
     0
 74
     1
 75
     0
 76
     0
 77
     1
 78
     8
170
     0
171
     2
172
     0
173
     0
174
     0
175
     0
176
   256
177
   256
178
     2
  0
DIMSTYLE
  2
AM_ISO$4
 70
     0
  3

  4
"
  5

  6

  7

 40
1.0
 41
2.5
 42
1.0
 43
10.0
 44
1.0
 45
0.0
 46
0.0
 47
0.1
 48
0.1
140
3.5
141
0.0
142
0.0
143
0.0393701
144
1.0
145
0.0
146
0.71
147
1.5
 71
     0
 72
     0
 73
     0
 74
     1
 75
     0
 76
     0
 77
     1
 78
     8
170
     0
171
     2
172
     0
173
     0
174
     0
175
     0
176
   256
177
   256
178
     2
  0
DIMSTYLE
  2
AM_ISO$6
 70
     0
  3

  4
"
  5

  6

  7

 40
1.0
 41
2.5
 42
1.0
 43
10.0
 44
1.0
 45
0.0
 46
0.0
 47
0.1
 48
0.1
140
3.5
141
0.0
142
0.0
143
0.0393701
144
1.0
145
0.0
146
0.71
147
1.5
 71
     0
 72
     0
 73
     0
 74
     0
 75
     0
 76
     0
 77
     0
 78
     8
170
     0
171
     2
172
     1
173
     0
174
     0
175
     0
176
   256
177
   256
178
     2
  0
DIMSTYLE
  2
AM_ISO$7
 70
     0
  3

  4
"
  5

  6

  7

 40
1.0
 41
2.5
 42
1.0
 43
10.0
 44
1.0
 45
0.0
 46
0.0
 47
0.1
 48
0.1
140
5.0
141
0.0
142
0.0
143
0.0393701
144
1.0
145
0.0
146
0.71
147
1.5
 71
     0
 72
     0
 73
     0
 74
     0
 75
     0
 76
     0
 77
     1
 78
     8
170
     0
171
     2
172
     1
173
     0
174
     0
175
     0
176
   256
177
   256
178
     2
  0
DIMSTYLE
  2
AM_ISO$SF
 70
     0
  3

  4
"
  5

  6

  7

 40
1.0
 41
2.5
 42
1.0
 43
10.0
 44
1.0
 45
0.0
 46
0.0
 47
0.1
 48
0.1
140
3.5
141
0.0
142
0.0
143
0.0393701
144
1.0
145
0.0
146
0.71
147
1.5
 71
     0
 72
     0
 73
     0
 74
     0
 75
     1
 76
     1
 77
     1
 78
     8
170
     0
171
     2
172
     1
173
     0
174
     0
175
     0
176
   256
177
   256
178
     2
  0
DIMSTYLE
  2
AM_ISO$SH
 70
     0
  3

  4
"
  5

  6
GENAXEH
  7

 40
1.0
 41
2.5
 42
1.0
 43
10.0
 44
1.0
 45
0.0
 46
0.0
 47
0.1
 48
0.1
140
3.5
141
0.0
142
0.0
143
0.0393701
144
2.0
145
0.0
146
0.71
147
1.5
 71
     0
 72
     0
 73
     0
 74
     0
 75
     1
 76
     1
 77
     1
 78
     8
170
     0
171
     2
172
     1
173
     1
174
     0
175
     0
176
   256
177
   256
178
     2
  0
DIMSTYLE
  2
AM_JIS
 70
     0
  3

  4
"
  5

  6

  7

 40
1.0
 41
2.0
 42
1.0
 43
8.0
 44
1.0
 45
0.0
 46
0.0
 47
0.1
 48
0.1
140
2.5
141
0.0
142
0.0
143
0.0393701
144
1.0
145
0.0
146
0.71
147
1.5
 71
     0
 72
     0
 73
     0
 74
     0
 75
     0
 76
     0
 77
     3
 78
     8
170
     0
171
     2
172
     1
173
     0
174
     0
175
     0
176
     2
177
     2
178
     4
  0
DIMSTYLE
  2
AM_JIS$3
 70
     0
  3

  4
"
  5

  6

  7

 40
1.0
 41
2.0
 42
1.0
 43
10.0
 44
1.0
 45
0.0
 46
0.0
 47
0.1
 48
0.1
140
2.5
141
0.0
142
0.0
143
0.0393701
144
1.0
145
0.0
146
0.71
147
1.5
 71
     0
 72
     0
 73
     0
 74
     1
 75
     0
 76
     0
 77
     3
 78
     8
170
     0
171
     2
172
     0
173
     0
174
     0
175
     0
176
     2
177
     2
178
     4
  0
DIMSTYLE
  2
AM_JIS$4
 70
     0
  3

  4
"
  5

  6

  7

 40
1.0
 41
2.0
 42
1.0
 43
10.0
 44
1.0
 45
0.0
 46
0.0
 47
0.1
 48
0.1
140
2.5
141
0.0
142
0.0
143
0.0393701
144
1.0
145
0.0
146
0.71
147
1.5
 71
     0
 72
     0
 73
     0
 74
     0
 75
     0
 76
     0
 77
     3
 78
     8
170
     0
171
     2
172
     0
173
     0
174
     0
175
     0
176
     2
177
     2
178
     4
  0
DIMSTYLE
  2
AM_JIS$6
 70
     0
  3

  4
"
  5

  6

  7

 40
1.0
 41
2.0
 42
1.0
 43
10.0
 44
1.0
 45
0.0
 46
0.0
 47
0.1
 48
0.1
140
2.5
141
0.0
142
0.0
143
0.0393701
144
1.0
145
0.0
146
0.71
147
1.5
 71
     0
 72
     0
 73
     0
 74
     0
 75
     0
 76
     0
 77
     0
 78
     8
170
     0
171
     2
172
     1
173
     0
174
     0
175
     0
176
     2
177
     2
178
     4
  0
DIMSTYLE
  2
AM_JIS$7
 70
     0
  3

  4
"
  5

  6
OPEN30
  7
OPEN30
 40
1.0
 41
2.0
 42
1.0
 43
10.0
 44
1.0
 45
0.0
 46
0.0
 47
0.1
 48
0.1
140
2.5
141
0.0
142
0.0
143
0.0393701
144
1.0
145
0.0
146
0.71
147
1.5
 71
     0
 72
     0
 73
     0
 74
     0
 75
     0
 76
     0
 77
     3
 78
     8
170
     0
171
     2
172
     1
173
     0
174
     0
175
     0
176
     2
177
     2
178
     4
  0
DIMSTYLE
  2
AM_JIS$SF
 70
     0
  3

  4
"
  5

  6

  7

 40
1.0
 41
2.0
 42
1.0
 43
10.0
 44
1.0
 45
0.0
 46
0.0
 47
0.1
 48
0.1
140
2.5
141
0.0
142
0.0
143
0.0393701
144
1.0
145
0.0
146
0.71
147
1.5
 71
     0
 72
     0
 73
     0
 74
     0
 75
     1
 76
     1
 77
     3
 78
     8
170
     0
171
     2
172
     1
173
     0
174
     0
175
     0
176
     2
177
     2
178
     4
  0
DIMSTYLE
  2
AM_JIS$SH
 70
     0
  3

  4
"
  5

  6
GENAXEH
  7

 40
1.0
 41
2.0
 42
1.0
 43
10.0
 44
1.0
 45
0.0
 46
0.0
 47
0.1
 48
0.1
140
2.5
141
0.0
142
0.0
143
0.0393701
144
2.0
145
0.0
146
0.71
147
1.5
 71
     0
 72
     0
 73
     0
 74
     0
 75
     1
 76
     1
 77
     3
 78
     8
170
     0
171
     2
172
     1
173
     1
174
     0
175
     0
176
     2
177
     2
178
     4
  0
DIMSTYLE
  2
AM_JIS$0
 70
     0
  3

  4
"
  5

  6

  7

 40
1.0
 41
2.0
 42
1.0
 43
8.0
 44
1.0
 45
0.0
 46
0.0
 47
0.1
 48
0.1
140
2.5
141
0.0
142
0.0
143
0.0393701
144
1.0
145
0.0
146
0.71
147
1.5
 71
     0
 72
     0
 73
     0
 74
     0
 75
     0
 76
     0
 77
     3
 78
     8
170
     0
171
     2
172
     1
173
     0
174
     0
175
     0
176
     2
177
     2
178
     4
  0
DIMSTYLE
  2
STANDARD
 70
     0
  3

  4

  5

  6

  7

 40
1.0
 41
0.18
 42
0.0625
 43
0.38
 44
0.18
 45
0.0
 46
0.0
 47
0.0
 48
0.0
140
0.18
141
0.09
142
0.0
143
25.399999999999999
144
1.0
145
0.0
146
1.0
147
0.09
 71
     0
 72
     0
 73
     1
 74
     1
 75
     0
 76
     0
 77
     0
 78
     0
170
     0
171
     2
172
     0
173
     0
174
     0
175
     0
176
     0
177
     0
178
     0
  0
ENDTAB
  0
ENDSEC
  0
SECTION
  2
BLOCKS
  0
BLOCK
  8
0
  2
$MODEL_SPACE
 70
     0
 10
0.0
 20
0.0
 30
0.0
  3
$MODEL_SPACE
  1

  0
ENDBLK
  5
6E
  8
0
  0
BLOCK
 67
     1
  8
0
  2
$PAPER_SPACE
 70
     0
 10
0.0
 20
0.0
 30
0.0
  3
$PAPER_SPACE
  1

  0
ENDBLK
  5
6A
 67
     1
  8
0
  0
BLOCK
  8
0
  2
GENAXEH
 70
     0
 10
0.0
 20
0.0
 30
0.0
  3
GENAXEH
  1

  0
LINE
  5
16BB
  8
0
 10
-1.0
 20
0.0
 30
0.0
 11
1.0
 21
0.0
 31
0.0
  0
ENDBLK
  5
16BC
  8
0
  0
BLOCK
  8
0
  2
_OPEN30
 70
     0
 10
0.0
 20
0.0
 30
0.0
  3
_OPEN30
  1

  0
LINE
  5
1702
  8
0
  6
BYBLOCK
 62
     0
 10
-1.0
 20
0.26794919
 30
0.0
 11
0.0
 21
0.0
 31
0.0
  0
LINE
  5
1703
  8
0
  6
BYBLOCK
 62
     0
 10
0.0
 20
0.0
 30
0.0
 11
-1.0
 21
-0.26794919
 31
0.0
  0
LINE
  5
1704
  8
0
  6
BYBLOCK
 62
     0
 10
0.0
 20
0.0
 30
0.0
 11
-1.0
 21
0.0
 31
0.0
  0
ENDBLK
  5
1705
  8
0
  0
BLOCK
  8
0
  2
_ACMFILLEDHALF
 70
     0
 10
0.0
 20
0.0
 30
0.0
  3
_ACMFILLEDHALF
  1

  0
TRACE
  5
17DC
  8
0
  6
CONTINUOUS
 62
     0
 10
-0.8
 20
0.0
 30
0.0
 11
-1.0
 21
0.166666666
 31
0.0
 12
0.0
 22
0.0
 32
0.0
 13
0.0
 23
0.0
 33
0.0
  0
LINE
  5
17DD
  8
0
  6
CONTINUOUS
 62
     0
 10
-1.0
 20
0.0
 30
0.0
 11
-0.8
 21
0.0
 31
0.0
  0
ENDBLK
  5
17DE
  8
0
  0
BLOCK
  8
0
  2
*U7
 70
     1
 10
0.0
 20
0.0
 30
0.0
  3
*U7
  1

  0
TEXT
  5
1873
  8
0
 62
     0
 10
5.126250792283801
 20
5.9826223594979657
 30
0.0
 40
15.0
  1
ＶＸ０８－００３ＥＭ～ＶＸ０８－０３０ＥＭ
 41
0.71
  0
ENDBLK
  5
1875
  8
0
  0
ENDSEC
  0
SECTION
  2
ENTITIES
  0
POINT
  5
B07
  8
0
 62
     0
 10
369.29154744812081
 20
417.35215909310602
 30
0.0
  0
LINE
  5
B08
  8
0
 62
     0
 10
369.29154744812081
 20
343.85215909310602
 30
0.0
 11
369.29154744812081
 21
417.35215909310602
 31
0.0
  0
POINT
  5
B09
  8
0
 62
     0
 10
369.29154744812081
 20
417.3521009832856
 30
0.0
  0
LINE
  5
B0C
  8
0
  6
AM_ISO08W050
 10
390.55728744812058
 20
445.35212809310599
 30
0.0
 11
603.5707574481205
 21
445.35212809310599
 31
0.0
  0
LINE
  5
B0D
  8
0
  6
AM_ISO08W050
 10
127.4463532776642
 20
417.35215909310602
 30
0.0
 11
398.1385670005622
 21
417.35215909310602
 31
0.0
  0
LINE
  5
B19
  8
0
 62
     0
 10
600.79152744812075
 20
429.35215909310602
 30
0.0
 11
600.79152744812075
 21
464.35211509310602
 31
0.0
  0
LINE
  5
B54
  8
0
 62
     0
 10
369.29154744812081
 20
343.85214109310618
 30
0.0
 11
401.36136744812052
 21
342.7322380931061
 31
0.0
  0
LINE
  5
B56
  8
0
 62
     0
 10
369.29154744812081
 20
490.8521350931058
 30
0.0
 11
400.8962174481203
 21
491.95580509310571
 31
0.0
  0
LINE
  5
B59
  8
0
 62
     0
 10
369.29154744812081
 20
343.85215609310598
 30
0.0
 11
369.29154744812081
 21
490.85216509310618
 31
0.0
  0
LINE
  5
B5A
  8
0
 62
     0
 10
403.79154744812081
 20
508.37621509310611
 30
0.0
 11
403.79154744812081
 21
326.32870309310601
 31
0.0
  0
LINE
  5
B5F
  8
0
 62
     0
 10
369.29154744812081
 20
377.87747209310601
 30
0.0
 11
403.79154744812081
 21
377.87747209310601
 31
0.0
  0
LINE
  5
B60
  8
0
 62
     0
 10
369.29154744812081
 20
456.82682509310581
 30
0.0
 11
403.79154744812081
 21
456.82682509310581
 31
0.0
  0
LINE
  5
B65
  8
0
 62
     0
 10
369.29154744812081
 20
478.93079509310598
 30
0.0
 11
403.79154744812081
 21
478.93079509310598
 31
0.0
  0
LINE
  5
B66
  8
0
 62
     0
 10
369.29154744812081
 20
355.7735140931062
 30
0.0
 11
403.79154744812081
 21
355.7735140931062
 31
0.0
  0
ARC
  5
B8C
  8
0
 62
     0
 10
400.79154744812058
 20
494.95400509310588
 30
0.0
 40
3.0
 50
272.00000000000369
 51
0.0
  0
ARC
  5
B8D
  8
0
 62
     0
 10
400.79154744812058
 20
339.7503190931061
 30
0.0
 40
3.0
 50
0.0
 51
87.999999999996362
  0
ARC
  5
B8F
  8
0
 62
     0
 10
406.79154744812081
 20
326.32870309310601
 30
0.0
 40
3.0
 50
179.999989999999
 51
268.00000999999219
  0
ARC
  5
B90
  8
0
 62
     0
 10
406.79154744812081
 20
508.37621509310611
 30
0.0
 40
3.0
 50
91.999997999994051
 51
180.00001000000091
  0
LINE
  5
BED
  8
0
 62
     0
 10
360.29154744812081
 20
343.85218959310617
 30
0.0
 11
369.29154744812081
 21
343.85218959310617
 31
0.0
  0
LINE
  5
BEE
  8
0
 62
     0
 10
359.29154744812081
 20
479.35218959310612
 30
0.0
 11
359.29154744812081
 21
463.52218959310602
 31
0.0
  0
ARC
  5
BEF
  8
0
 62
     0
 10
356.4679284481208
 20
342.45602459310612
 30
0.0
 40
2.0
 50
270.0
 51
345.0000029999984
  0
LINE
  5
BF0
  8
0
 62
     0
 10
359.29154744812081
 20
344.85218959310617
 30
0.0
 11
359.29154744812081
 21
345.26650659310621
 31
0.0
  0
LINE
  5
BF1
  8
0
 62
     0
 10
359.29154744812081
 20
344.84719559310622
 30
0.0
 11
359.29154744812081
 21
344.85218959310617
 31
0.0
  0
LINE
  5
BF2
  8
0
 62
     0
 10
359.20399144812092
 20
344.93974559310618
 30
0.0
 11
359.29154744812081
 21
344.85218959310617
 31
0.0
  0
LINE
  5
BF3
  8
0
 62
     0
 10
361.29154744812081
 20
354.35218959310617
 30
0.0
 11
360.2150244481208
 21
350.33455159310608
 31
0.0
  0
ARC
  5
BF4
  8
0
 62
     0
 10
360.28905044812092
 20
344.84969259310623
 30
0.0
 40
0.9975059999999999
 50
179.85657799999959
 51
270.14342200000033
  0
LINE
  5
BF5
  8
0
 62
     0
 10
360.29154744812081
 20
354.35218959310617
 30
0.0
 11
369.29154744812081
 21
354.35218959310617
 31
0.0
  0
LINE
  5
BF6
  8
0
 62
     0
 10
361.29154744812081
 20
352.73060859310618
 30
0.0
 11
358.39978044812079
 21
341.93838659310609
 31
0.0
  0
ARC
  5
BF7
  8
0
 62
     0
 10
358.28317244812081
 20
350.85218959310617
 30
0.0
 40
2.0
 50
270.0
 51
345.00000000000239
  0
ARC
  5
BF8
  8
0
 62
     0
 10
360.29154744812081
 20
355.35218959310617
 30
0.0
 40
1.0
 50
180.0
 51
270.0
  0
ARC
  5
BF9
  8
0
 62
     0
 10
290.29154744812081
 20
339.48999159310608
 30
0.0
 40
2.0
 50
270.0
 51
0.0
  0
ARC
  5
BFA
  8
0
 62
     0
 10
290.29154744812081
 20
339.91726959310608
 30
0.0
 40
2.0
 50
270.0
 51
0.0
  0
ARC
  5
BFB
  8
0
 62
     0
 10
290.29154744812081
 20
340.92262059310599
 30
0.0
 40
2.0
 50
270.0
 51
346.5086890000016
  0
LINE
  5
BFC
  8
0
 62
     0
 10
292.29154744812081
 20
339.48999159310608
 30
0.0
 11
292.29154744812081
 21
340.45602459310612
 31
0.0
  0
ARC
  5
BFD
  8
0
 62
     0
 10
209.29154744812081
 20
339.48999159310608
 30
0.0
 40
2.0
 50
180.0
 51
270.0
  0
LINE
  5
BFE
  8
0
 62
     0
 10
207.29154744812081
 20
341.46783359310609
 30
0.0
 11
207.29154744812081
 21
340.92262059310599
 31
0.0
  0
ARC
  5
BFF
  8
0
 62
     0
 10
209.14099744812091
 20
339.91726959310608
 30
0.0
 40
2.0
 50
195.7695469999999
 51
270.0
  0
ARC
  5
C00
  8
0
 62
     0
 10
209.29154744812081
 20
340.92262059310599
 30
0.0
 40
2.0
 50
180.0
 51
270.0
  0
ARC
  5
C01
  8
0
 62
     0
 10
209.29154744812081
 20
342.45602459310612
 30
0.0
 40
2.0
 50
180.0
 51
270.0
  0
LINE
  5
C02
  8
0
 62
     0
 10
207.29154744812081
 20
345.82382259310617
 30
0.0
 11
207.29154744812081
 21
342.45602459310612
 31
0.0
  0
ARC
  5
C03
  8
0
 62
     0
 10
205.29154744812081
 20
345.82382259310617
 30
0.0
 40
2.0
 50
0.0
 51
90.0
  0
ARC
  5
C04
  8
0
 62
     0
 10
205.29154744812081
 20
341.46783359310609
 30
0.0
 40
2.0
 50
0.0
 51
90.0
  0
ARC
  5
C05
  8
0
 62
     0
 10
205.29154744812081
 20
338.83019459310611
 30
0.0
 40
2.0
 50
15.7695469999999
 51
90.0
  0
ARC
  5
C06
  8
0
 62
     0
 10
205.29154744812081
 20
364.45113959310618
 30
0.0
 40
2.0
 50
0.0
 51
90.0
  0
LINE
  5
C07
  8
0
 62
     0
 10
207.29154744812081
 20
351.99627059310598
 30
0.0
 11
207.29154744812081
 21
364.45113959310618
 31
0.0
  0
ARC
  5
C08
  8
0
 62
     0
 10
209.29154744812081
 20
350.85218959310617
 30
0.0
 40
2.0
 50
180.0
 51
270.0
  0
ARC
  5
C09
  8
0
 62
     0
 10
205.29154744812081
 20
351.99627059310598
 30
0.0
 40
2.0
 50
0.0
 51
90.0
  0
LINE
  5
C0A
  8
0
 62
     0
 10
207.29154744812081
 20
351.99627059310598
 30
0.0
 11
207.29154744812081
 21
350.85218959310617
 31
0.0
  0
LINE
  5
C0B
  8
0
 62
     0
 10
205.29154744812081
 20
353.99627059310598
 30
0.0
 11
199.78553644812069
 21
353.99627059310598
 31
0.0
  0
LINE
  5
C0C
  8
0
 62
     0
 10
209.29154744812081
 20
348.85218959310617
 30
0.0
 11
358.28317244812081
 21
348.85218959310617
 31
0.0
  0
LINE
  5
C0D
  8
0
 62
     0
 10
199.78553644812069
 20
366.45113959310618
 30
0.0
 11
357.79154744812081
 21
366.45113959310618
 31
0.0
  0
LINE
  5
C0E
  8
0
 62
     0
 10
209.29154744812081
 20
337.48999159310608
 30
0.0
 11
290.29154744812081
 21
337.48999159310608
 31
0.0
  0
LINE
  5
C0F
  8
0
 62
     0
 10
209.14099744812091
 20
337.91726959310608
 30
0.0
 11
290.29154744812081
 21
337.91726959310608
 31
0.0
  0
LINE
  5
C10
  8
0
 62
     0
 10
209.29154744812081
 20
338.92262059310599
 30
0.0
 11
290.29154744812081
 21
338.92262059310599
 31
0.0
  0
LINE
  5
C11
  8
0
 62
     0
 10
209.29154744812081
 20
340.45602459310612
 30
0.0
 11
356.4679284481208
 21
340.45602459310612
 31
0.0
  0
LINE
  5
C12
  8
0
 62
     0
 10
205.29154744812081
 20
340.83019459310611
 30
0.0
 11
199.78553644812069
 21
340.83019459310611
 31
0.0
  0
LINE
  5
C13
  8
0
 62
     0
 10
205.29154744812081
 20
343.46783359310609
 30
0.0
 11
199.78553644812069
 21
343.46783359310609
 31
0.0
  0
LINE
  5
C14
  8
0
 62
     0
 10
205.29154744812081
 20
347.82382259310617
 30
0.0
 11
199.78553644812069
 21
347.82382259310617
 31
0.0
  0
LINE
  5
C15
  8
0
 62
     0
 10
360.29154744812081
 20
480.35218959310578
 30
0.0
 11
369.29154744812081
 21
480.35218959310578
 31
0.0
  0
LINE
  5
C16
  8
0
 62
     0
 10
361.29154744812081
 20
480.35218959310578
 30
0.0
 11
360.2150244481208
 21
484.36982759310598
 31
0.0
  0
ARC
  5
C17
  8
0
 62
     0
 10
360.29154744812081
 20
479.35218959310612
 30
0.0
 40
1.0
 50
90.0
 51
180.0
  0
LINE
  5
C18
  8
0
 62
     0
 10
359.20399144812092
 20
489.76463359310583
 30
0.0
 11
359.29154744812081
 21
489.852189593106
 31
0.0
  0
LINE
  5
C19
  8
0
 62
     0
 10
359.29154744812081
 20
489.85718359310579
 30
0.0
 11
359.29154744812081
 21
489.852189593106
 31
0.0
  0
ARC
  5
C1A
  8
0
 62
     0
 10
360.28905044812092
 20
489.85468659310578
 30
0.0
 40
0.9975059999999999
 50
89.856577999999615
 51
180.14342200000019
  0
LINE
  5
C1B
  8
0
 62
     0
 10
359.29154744812081
 20
489.852189593106
 30
0.0
 11
359.29154744812081
 21
489.43787259310602
 31
0.0
  0
LINE
  5
C1C
  8
0
 62
     0
 10
360.29154744812081
 20
490.852189593106
 30
0.0
 11
369.29154744812081
 21
490.852189593106
 31
0.0
  0
LINE
  5
C1D
  8
0
 62
     0
 10
361.29154744812081
 20
481.973770593106
 30
0.0
 11
358.39978044812079
 21
492.76599259310598
 31
0.0
  0
ARC
  5
C1E
  8
0
 62
     0
 10
358.28317244812081
 20
483.852189593106
 30
0.0
 40
2.0
 50
14.9999999999976
 51
90.0
  0
ARC
  5
C1F
  8
0
 62
     0
 10
356.4679284481208
 20
492.248354593106
 30
0.0
 40
2.0
 50
14.999997000001709
 51
90.0
  0
LINE
  5
C20
  8
0
 62
     0
 10
292.29154744812081
 20
495.21438759310581
 30
0.0
 11
292.29154744812081
 21
494.248354593106
 31
0.0
  0
ARC
  5
C21
  8
0
 62
     0
 10
290.29154744812081
 20
493.78175859310602
 30
0.0
 40
2.0
 50
13.491310999998401
 51
90.0
  0
ARC
  5
C22
  8
0
 62
     0
 10
290.29154744812081
 20
494.78710959310581
 30
0.0
 40
2.0
 50
0.0
 51
90.0
  0
ARC
  5
C23
  8
0
 62
     0
 10
290.29154744812081
 20
495.21438759310581
 30
0.0
 40
2.0
 50
0.0
 51
90.0
  0
LINE
  5
C24
  8
0
 62
     0
 10
207.29154744812081
 20
482.70810859310609
 30
0.0
 11
207.29154744812081
 21
483.852189593106
 31
0.0
  0
ARC
  5
C25
  8
0
 62
     0
 10
205.29154744812081
 20
482.70810859310609
 30
0.0
 40
2.0
 50
270.0
 51
0.0
  0
ARC
  5
C26
  8
0
 62
     0
 10
209.29154744812081
 20
483.852189593106
 30
0.0
 40
2.0
 50
90.0
 51
180.0
  0
LINE
  5
C27
  8
0
 62
     0
 10
207.29154744812081
 20
482.70810859310609
 30
0.0
 11
207.29154744812081
 21
470.253239593106
 31
0.0
  0
ARC
  5
C28
  8
0
 62
     0
 10
205.29154744812081
 20
470.253239593106
 30
0.0
 40
2.0
 50
270.0
 51
0.0
  0
LINE
  5
C29
  8
0
 62
     0
 10
207.29154744812081
 20
488.88055659310578
 30
0.0
 11
207.29154744812081
 21
492.248354593106
 31
0.0
  0
ARC
  5
C2A
  8
0
 62
     0
 10
205.29154744812081
 20
488.88055659310578
 30
0.0
 40
2.0
 50
270.0
 51
0.0
  0
ARC
  5
C2B
  8
0
 62
     0
 10
209.29154744812081
 20
492.248354593106
 30
0.0
 40
2.0
 50
90.0
 51
180.0
  0
ARC
  5
C2C
  8
0
 62
     0
 10
205.29154744812081
 20
493.23654559310597
 30
0.0
 40
2.0
 50
270.0
 51
0.0
  0
ARC
  5
C2D
  8
0
 62
     0
 10
209.29154744812081
 20
493.78175859310602
 30
0.0
 40
2.0
 50
90.0
 51
180.0
  0
ARC
  5
C2E
  8
0
 62
     0
 10
205.29154744812081
 20
495.87418459310612
 30
0.0
 40
2.0
 50
270.0
 51
344.23045300000013
  0
ARC
  5
C2F
  8
0
 62
     0
 10
209.14099744812091
 20
494.78710959310581
 30
0.0
 40
2.0
 50
90.0
 51
164.2304530000001
  0
LINE
  5
C30
  8
0
 62
     0
 10
207.29154744812081
 20
493.23654559310597
 30
0.0
 11
207.29154744812081
 21
493.78175859310602
 31
0.0
  0
ARC
  5
C31
  8
0
 62
     0
 10
209.29154744812081
 20
495.21438759310581
 30
0.0
 40
2.0
 50
90.0
 51
180.0
  0
LINE
  5
C32
  8
0
 62
     0
 10
205.29154744812081
 20
493.87418459310601
 30
0.0
 11
199.78553644812069
 21
493.87418459310601
 31
0.0
  0
LINE
  5
C33
  8
0
 62
     0
 10
205.29154744812081
 20
491.23654559310597
 30
0.0
 11
199.78553644812069
 21
491.23654559310597
 31
0.0
  0
LINE
  5
C34
  8
0
 62
     0
 10
205.29154744812081
 20
486.88055659310618
 30
0.0
 11
199.78553644812069
 21
486.88055659310618
 31
0.0
  0
LINE
  5
C35
  8
0
 62
     0
 10
205.29154744812081
 20
480.70810859310581
 30
0.0
 11
199.78553644812069
 21
480.70810859310581
 31
0.0
  0
LINE
  5
C36
  8
0
 62
     0
 10
209.29154744812081
 20
497.21438759310598
 30
0.0
 11
290.29154744812081
 21
497.21438759310598
 31
0.0
  0
LINE
  5
C37
  8
0
 62
     0
 10
209.14099744812091
 20
496.78710959310598
 30
0.0
 11
290.29154744812081
 21
496.78710959310598
 31
0.0
  0
LINE
  5
C38
  8
0
 62
     0
 10
209.29154744812081
 20
495.78175859310602
 30
0.0
 11
290.29154744812081
 21
495.78175859310602
 31
0.0
  0
LINE
  5
C39
  8
0
 62
     0
 10
209.29154744812081
 20
494.248354593106
 30
0.0
 11
356.4679284481208
 21
494.248354593106
 31
0.0
  0
LINE
  5
C3A
  8
0
 62
     0
 10
209.29154744812081
 20
485.852189593106
 30
0.0
 11
358.28317244812081
 21
485.852189593106
 31
0.0
  0
LINE
  5
C3B
  8
0
 62
     0
 10
199.78553644812069
 20
468.253239593106
 30
0.0
 11
357.79154744812081
 21
468.253239593106
 31
0.0
  0
LINE
  5
C3C
  8
0
 62
     0
 10
359.29154744812081
 20
373.52218959310608
 30
0.0
 11
359.29154744812081
 21
381.16218959310618
 31
0.0
  0
LINE
  5
C3D
  8
0
 62
     0
 10
359.29154744812081
 20
461.18213159310591
 30
0.0
 11
359.29154744812081
 21
453.542189593106
 31
0.0
  0
ARC
  5
C3E
  8
0
 62
     0
 10
360.29090844812077
 20
370.3106585931061
 30
0.0
 40
1.0026319999999971
 50
0.0540849999984558
 51
81.243759000000509
  0
LINE
  5
C3F
  8
0
 62
     0
 10
360.44354044812081
 20
371.30160559310599
 30
0.0
 11
358.68474144812092
 21
371.57218959310597
 31
0.0
  0
LINE
  5
C40
  8
0
 62
     0
 10
360.43354044812082
 20
373.39160559310608
 30
0.0
 11
358.83085244812082
 21
373.17218959310622
 31
0.0
  0
ARC
  5
C41
  8
0
 62
     0
 10
360.28657244812081
 20
374.387809593106
 30
0.0
 40
1.0069859999999999
 50
278.39216299999862
 51
359.64700199999788
  0
LINE
  5
C42
  8
0
 62
     0
 10
361.29354044812078
 20
374.38160559310609
 30
0.0
 11
361.29354044812078
 21
370.31160559310598
 31
0.0
  0
ARC
  5
C43
  8
0
 62
     0
 10
358.75018444812082
 20
372.35824959310622
 30
0.0
 40
0.8033630000000001
 50
0.2393300000011745
 51
89.760669999998839
  0
ARC
  5
C44
  8
0
 62
     0
 10
358.74847844812069
 20
372.36666759310617
 30
0.0
 40
0.8050779999999997
 50
270.3602510000016
 51
359.6397490000017
  0
ARC
  5
C45
  8
0
 62
     0
 10
360.28657244812081
 20
460.31656959310601
 30
0.0
 40
1.0069859999999999
 50
0.3529979999987895
 51
81.607837000001453
  0
LINE
  5
C46
  8
0
 62
     0
 10
360.43354044812082
 20
461.31277359310582
 30
0.0
 11
358.83085244812082
 21
461.53218959310578
 31
0.0
  0
ARC
  5
C47
  8
0
 62
     0
 10
360.29090844812077
 20
464.39372059310591
 30
0.0
 40
1.0026319999999971
 50
278.75624099999948
 51
359.94591499999831
  0
LINE
  5
C48
  8
0
 62
     0
 10
361.29354044812078
 20
460.32277359310581
 30
0.0
 11
361.29354044812078
 21
464.39277359310603
 31
0.0
  0
LINE
  5
C49
  8
0
 62
     0
 10
360.44354044812081
 20
463.40277359310602
 30
0.0
 11
358.68474144812092
 21
463.13218959310581
 31
0.0
  0
ARC
  5
C4A
  8
0
 62
     0
 10
358.75018444812082
 20
462.34612959310579
 30
0.0
 40
0.8033630000000001
 50
270.23933000000108
 51
359.76067000000211
  0
ARC
  5
C4B
  8
0
 62
     0
 10
358.74847844812069
 20
462.33771159310578
 30
0.0
 40
0.8050779999999997
 50
0.3602510000016315
 51
89.639748999998375
  0
LINE
  5
C4C
  8
0
 62
     0
 10
359.29154744812081
 20
455.21613459310601
 30
0.0
 11
369.29154744812081
 21
455.21613459310601
 31
0.0
  0
LINE
  5
C4D
  8
0
 62
     0
 10
359.29154744812081
 20
379.49824459310622
 30
0.0
 11
369.29154744812081
 21
379.49824459310622
 31
0.0
  0
LINE
  5
C4E
  8
0
 62
     0
 10
360.4315474481208
 20
413.38218959310609
 30
0.0
 11
358.75154744812079
 21
413.15218959310607
 31
0.0
  0
LINE
  5
C4F
  8
0
 62
     0
 10
360.44154744812079
 20
411.292189593106
 30
0.0
 11
358.75154744812079
 21
411.55218959310599
 31
0.0
  0
LINE
  5
C50
  8
0
 62
     0
 10
361.29154744812081
 20
414.3721895931061
 30
0.0
 11
361.29154744812081
 21
410.30218959310599
 31
0.0
  0
LINE
  5
C51
  8
0
 62
     0
 10
360.4315474481208
 20
403.38218959310581
 30
0.0
 11
358.75154744812079
 21
403.15218959310602
 31
0.0
  0
LINE
  5
C52
  8
0
 62
     0
 10
360.44154744812079
 20
401.292189593106
 30
0.0
 11
358.75154744812079
 21
401.55218959310571
 31
0.0
  0
LINE
  5
C53
  8
0
 62
     0
 10
361.29154744812081
 20
404.3721895931061
 30
0.0
 11
361.29154744812081
 21
400.30218959310599
 31
0.0
  0
LINE
  5
C54
  8
0
 62
     0
 10
360.44154744812079
 20
391.29218959310617
 30
0.0
 11
358.75154744812079
 21
391.55218959310599
 31
0.0
  0
LINE
  5
C55
  8
0
 62
     0
 10
360.4315474481208
 20
393.38218959310609
 30
0.0
 11
358.75154744812079
 21
393.15218959310607
 31
0.0
  0
LINE
  5
C56
  8
0
 62
     0
 10
361.29154744812081
 20
394.37218959310599
 30
0.0
 11
361.29154744812081
 21
390.30218959310611
 31
0.0
  0
LINE
  5
C57
  8
0
 62
     0
 10
361.29154744812081
 20
384.37218959310599
 30
0.0
 11
361.29154744812081
 21
380.37218959310599
 31
0.0
  0
LINE
  5
C58
  8
0
 62
     0
 10
360.4315474481208
 20
383.3821895931062
 30
0.0
 11
358.75154744812079
 21
383.15218959310607
 31
0.0
  0
LINE
  5
C59
  8
0
 62
     0
 10
360.44154744812079
 20
381.29218959310617
 30
0.0
 11
358.75154744812079
 21
381.55218959310599
 31
0.0
  0
ARC
  5
C5A
  8
0
 62
     0
 10
358.74315244812078
 20
412.35218959310612
 30
0.0
 40
0.8000439999999999
 50
270.6012089999997
 51
89.398791000000301
  0
ARC
  5
C5B
  8
0
 62
     0
 10
360.2889154481208
 20
410.30124359310582
 30
0.0
 40
1.0026319999999971
 50
0.0540849999984558
 51
81.243759000000509
  0
ARC
  5
C5C
  8
0
 62
     0
 10
360.28458044812089
 20
414.37839359310578
 30
0.0
 40
1.0069859999999999
 50
278.39216299999862
 51
359.64700199999788
  0
ARC
  5
C5D
  8
0
 62
     0
 10
358.74648544812078
 20
402.35725159310613
 30
0.0
 40
0.8050779999999997
 50
270.3602510000016
 51
359.6397490000017
  0
ARC
  5
C5E
  8
0
 62
     0
 10
360.2889154481208
 20
400.30124359310599
 30
0.0
 40
1.0026319999999971
 50
0.0540849999984558
 51
81.243759000000509
  0
ARC
  5
C5F
  8
0
 62
     0
 10
360.28458044812089
 20
404.37839359310613
 30
0.0
 40
1.0069859999999999
 50
278.39216299999862
 51
359.64700199999788
  0
ARC
  5
C60
  8
0
 62
     0
 10
358.74819144812079
 20
392.34883359310618
 30
0.0
 40
0.8033630000000001
 50
0.2393300000011745
 51
89.760669999998839
  0
ARC
  5
C61
  8
0
 62
     0
 10
358.74648544812078
 20
392.35725159310613
 30
0.0
 40
0.8050779999999997
 50
270.3602510000016
 51
359.6397490000017
  0
ARC
  5
C62
  8
0
 62
     0
 10
360.28458044812089
 20
394.37839359310618
 30
0.0
 40
1.0069859999999999
 50
278.39216299999862
 51
359.64700199999788
  0
ARC
  5
C63
  8
0
 62
     0
 10
360.2889154481208
 20
390.30124359310599
 30
0.0
 40
1.0026319999999971
 50
0.0540849999984558
 51
81.243759000000509
  0
ARC
  5
C64
  8
0
 62
     0
 10
360.28458044812089
 20
384.37839359310618
 30
0.0
 40
1.0069859999999999
 50
278.39216299999862
 51
359.64700199999788
  0
ARC
  5
C65
  8
0
 62
     0
 10
360.2889154481208
 20
380.30124359310599
 30
0.0
 40
1.0026319999999971
 50
0.0540849999984558
 51
81.243759000000509
  0
ARC
  5
C66
  8
0
 62
     0
 10
358.74648544812078
 20
382.35725159310613
 30
0.0
 40
0.8050779999999997
 50
270.3602510000016
 51
359.6397490000017
  0
ARC
  5
C67
  8
0
 62
     0
 10
358.74819144812079
 20
382.34883359310601
 30
0.0
 40
0.8033630000000001
 50
0.2393300000011745
 51
89.760669999998839
  0
ARC
  5
C68
  8
0
 62
     0
 10
358.74819144812079
 20
402.34883359310618
 30
0.0
 40
0.8033630000000001
 50
0.2393300000011745
 51
89.760669999998839
  0
LINE
  5
C69
  8
0
 62
     0
 10
357.6856434481208
 20
413.36218959310571
 30
0.0
 11
360.28546044812077
 21
413.36218959310571
 31
0.0
  0
LINE
  5
C6A
  8
0
 62
     0
 10
357.6856434481208
 20
411.33218959310602
 30
0.0
 11
360.1815474481208
 21
411.33218959310602
 31
0.0
  0
LINE
  5
C6B
  8
0
 62
     0
 10
357.6856434481208
 20
403.38218959310581
 30
0.0
 11
360.4315474481208
 21
403.38218959310581
 31
0.0
  0
LINE
  5
C6C
  8
0
 62
     0
 10
357.6856434481208
 20
401.30218959310599
 30
0.0
 11
360.34154744812082
 21
401.30218959310599
 31
0.0
  0
LINE
  5
C6D
  8
0
 62
     0
 10
357.6856434481208
 20
393.4321895931061
 30
0.0
 11
360.79676444812083
 21
393.4321895931061
 31
0.0
  0
LINE
  5
C6E
  8
0
 62
     0
 10
357.6856434481208
 20
391.25218959310621
 30
0.0
 11
360.70154744812089
 21
391.25218959310621
 31
0.0
  0
LINE
  5
C6F
  8
0
 62
     0
 10
357.6856434481208
 20
383.50218959310621
 30
0.0
 11
360.78085444812092
 21
383.50218959310621
 31
0.0
  0
LINE
  5
C70
  8
0
 62
     0
 10
357.6856434481208
 20
381.16218959310618
 30
0.0
 11
360.80276644812091
 21
381.16218959310618
 31
0.0
  0
LINE
  5
C71
  8
0
 62
     0
 10
357.6856434481208
 20
383.15218959310607
 30
0.0
 11
358.75154744812079
 21
383.15218959310607
 31
0.0
  0
LINE
  5
C72
  8
0
 62
     0
 10
357.6856434481208
 20
413.15218959310607
 30
0.0
 11
358.75154744812079
 21
413.15218959310607
 31
0.0
  0
LINE
  5
C73
  8
0
 62
     0
 10
357.6856434481208
 20
411.55218959310599
 30
0.0
 11
358.75154744812079
 21
411.55218959310599
 31
0.0
  0
LINE
  5
C74
  8
0
 62
     0
 10
357.6856434481208
 20
403.15218959310602
 30
0.0
 11
358.75154744812079
 21
403.15218959310602
 31
0.0
  0
LINE
  5
C75
  8
0
 62
     0
 10
357.6856434481208
 20
401.55218959310571
 30
0.0
 11
358.75154744812079
 21
401.55218959310571
 31
0.0
  0
LINE
  5
C76
  8
0
 62
     0
 10
357.6856434481208
 20
393.15218959310607
 30
0.0
 11
358.75154744812079
 21
393.15218959310607
 31
0.0
  0
LINE
  5
C77
  8
0
 62
     0
 10
357.6856434481208
 20
391.55218959310599
 30
0.0
 11
358.75154744812079
 21
391.55218959310599
 31
0.0
  0
LINE
  5
C78
  8
0
 62
     0
 10
357.6856434481208
 20
381.55218959310599
 30
0.0
 11
358.75154744812079
 21
381.55218959310599
 31
0.0
  0
LINE
  5
C79
  8
0
 62
     0
 10
360.4315474481208
 20
443.38218959310598
 30
0.0
 11
358.75154744812079
 21
443.15218959310602
 31
0.0
  0
LINE
  5
C7A
  8
0
 62
     0
 10
360.44154744812079
 20
441.29218959310577
 30
0.0
 11
358.75154744812079
 21
441.55218959310599
 31
0.0
  0
LINE
  5
C7B
  8
0
 62
     0
 10
361.29154744812081
 20
444.37218959310599
 30
0.0
 11
361.29154744812081
 21
440.30218959310582
 31
0.0
  0
LINE
  5
C7C
  8
0
 62
     0
 10
360.4315474481208
 20
433.38218959310609
 30
0.0
 11
358.75154744812079
 21
433.15218959310602
 31
0.0
  0
LINE
  5
C7D
  8
0
 62
     0
 10
360.44154744812079
 20
431.29218959310617
 30
0.0
 11
358.75154744812079
 21
431.55218959310599
 31
0.0
  0
LINE
  5
C7E
  8
0
 62
     0
 10
361.29154744812081
 20
434.3721895931061
 30
0.0
 11
361.29154744812081
 21
430.30218959310599
 31
0.0
  0
LINE
  5
C7F
  8
0
 62
     0
 10
360.4315474481208
 20
423.38218959310581
 30
0.0
 11
358.75154744812079
 21
423.15218959310579
 31
0.0
  0
LINE
  5
C80
  8
0
 62
     0
 10
360.44154744812079
 20
421.29218959310577
 30
0.0
 11
358.75154744812079
 21
421.55218959310582
 31
0.0
  0
LINE
  5
C81
  8
0
 62
     0
 10
361.29154744812081
 20
424.37218959310582
 30
0.0
 11
361.29154744812081
 21
420.30218959310571
 31
0.0
  0
LINE
  5
C82
  8
0
 62
     0
 10
361.29154744812081
 20
454.3721895931061
 30
0.0
 11
361.29154744812081
 21
450.30218959310599
 31
0.0
  0
LINE
  5
C83
  8
0
 62
     0
 10
360.4315474481208
 20
453.38218959310609
 30
0.0
 11
358.75154744812079
 21
453.15218959310602
 31
0.0
  0
LINE
  5
C84
  8
0
 62
     0
 10
360.44154744812079
 20
451.292189593106
 30
0.0
 11
358.75154744812079
 21
451.55218959310571
 31
0.0
  0
ARC
  5
C85
  8
0
 62
     0
 10
358.74309144812082
 20
442.35319559310608
 30
0.0
 40
0.80105
 50
270.6048560000001
 51
80.04681700000134
  0
ARC
  5
C86
  8
0
 62
     0
 10
360.2889154481208
 20
440.30124359310582
 30
0.0
 40
1.0026319999999971
 50
0.0540849999984558
 51
81.243759000000509
  0
ARC
  5
C87
  8
0
 62
     0
 10
360.28458044812089
 20
444.37839359310601
 30
0.0
 40
1.0069859999999999
 50
278.39216299999862
 51
359.64700199999788
  0
ARC
  5
C88
  8
0
 62
     0
 10
358.74315244812078
 20
432.352189593106
 30
0.0
 40
0.8000439999999999
 50
270.6012089999997
 51
89.398791000000301
  0
ARC
  5
C89
  8
0
 62
     0
 10
360.2889154481208
 20
430.30124359310582
 30
0.0
 40
1.0026319999999971
 50
0.0540849999984558
 51
81.243759000000509
  0
ARC
  5
C8A
  8
0
 62
     0
 10
360.28458044812089
 20
434.37839359310578
 30
0.0
 40
1.0069859999999999
 50
278.39216299999862
 51
359.64700199999788
  0
ARC
  5
C8B
  8
0
 62
     0
 10
358.74315244812078
 20
422.35218959310578
 30
0.0
 40
0.8000439999999999
 50
270.6012089999997
 51
89.398791000000301
  0
ARC
  5
C8C
  8
0
 62
     0
 10
360.2889154481208
 20
420.30124359310599
 30
0.0
 40
1.0026319999999971
 50
0.0540849999984558
 51
81.243759000000509
  0
ARC
  5
C8D
  8
0
 62
     0
 10
360.28458044812089
 20
424.37839359310618
 30
0.0
 40
1.0069859999999999
 50
278.39216299999862
 51
359.64700199999788
  0
ARC
  5
C8E
  8
0
 62
     0
 10
360.2889154481208
 20
450.30124359310611
 30
0.0
 40
1.0026319999999971
 50
0.0540849999984558
 51
81.243759000000509
  0
ARC
  5
C8F
  8
0
 62
     0
 10
360.28458044812089
 20
454.37839359310613
 30
0.0
 40
1.0069859999999999
 50
278.39216299999862
 51
359.64700199999788
  0
ARC
  5
C90
  8
0
 62
     0
 10
358.74309244812082
 20
452.353405593106
 30
0.0
 40
0.801261
 50
270.60461099999839
 51
94.506741999999505
  0
LINE
  5
C91
  8
0
 62
     0
 10
357.6856434481208
 20
443.45218959310603
 30
0.0
 11
360.6797614481207
 21
443.45218959310603
 31
0.0
  0
LINE
  5
C92
  8
0
 62
     0
 10
357.6856434481208
 20
441.27218959310608
 30
0.0
 11
360.5389844481208
 21
441.27218959310608
 31
0.0
  0
LINE
  5
C93
  8
0
 62
     0
 10
357.6856434481208
 20
433.39218959310608
 30
0.0
 11
360.48810744812079
 21
433.39218959310608
 31
0.0
  0
LINE
  5
C94
  8
0
 62
     0
 10
357.6856434481208
 20
431.31218959310581
 30
0.0
 11
360.31154744812079
 21
431.31218959310581
 31
0.0
  0
LINE
  5
C95
  8
0
 62
     0
 10
357.6856434481208
 20
423.37218959310599
 30
0.0
 11
360.35850444812081
 21
423.37218959310599
 31
0.0
  0
LINE
  5
C96
  8
0
 62
     0
 10
357.6856434481208
 20
421.33218959310602
 30
0.0
 11
360.1815474481208
 21
421.33218959310602
 31
0.0
  0
LINE
  5
C97
  8
0
 62
     0
 10
357.6856434481208
 20
453.542189593106
 30
0.0
 11
360.84563644812079
 21
453.542189593106
 31
0.0
  0
LINE
  5
C98
  8
0
 62
     0
 10
357.6856434481208
 20
451.19218959310598
 30
0.0
 11
360.74879144812093
 21
451.19218959310598
 31
0.0
  0
LINE
  5
C99
  8
0
 62
     0
 10
357.6856434481208
 20
453.15218959310602
 30
0.0
 11
358.80605244812079
 21
453.15218959310602
 31
0.0
  0
LINE
  5
C9A
  8
0
 62
     0
 10
357.6856434481208
 20
451.55218959310571
 30
0.0
 11
358.75154744812079
 21
451.55218959310571
 31
0.0
  0
LINE
  5
C9B
  8
0
 62
     0
 10
357.6856434481208
 20
443.15218959310602
 30
0.0
 11
358.80045244812078
 21
443.15218959310602
 31
0.0
  0
LINE
  5
C9C
  8
0
 62
     0
 10
357.6856434481208
 20
441.55218959310599
 30
0.0
 11
358.75154744812079
 21
441.55218959310599
 31
0.0
  0
LINE
  5
C9D
  8
0
 62
     0
 10
357.6856434481208
 20
433.15218959310602
 30
0.0
 11
358.75154744812079
 21
433.15218959310602
 31
0.0
  0
LINE
  5
C9E
  8
0
 62
     0
 10
357.6856434481208
 20
431.55218959310599
 30
0.0
 11
358.75154744812079
 21
431.55218959310599
 31
0.0
  0
LINE
  5
C9F
  8
0
 62
     0
 10
357.6856434481208
 20
423.15218959310579
 30
0.0
 11
358.75154744812079
 21
423.15218959310579
 31
0.0
  0
LINE
  5
CA0
  8
0
 62
     0
 10
357.6856434481208
 20
421.55218959310582
 30
0.0
 11
358.75154744812079
 21
421.55218959310582
 31
0.0
  0
ARC
  5
CA1
  8
0
 62
     0
 10
280.98775044812089
 20
406.05226959310602
 30
0.0
 40
2.6000000000000001
 50
137.1002180000024
 51
180.0
  0
ARC
  5
CA2
  8
0
 62
     0
 10
280.98775044812089
 20
428.65210959310599
 30
0.0
 40
2.6000000000000001
 50
180.0
 51
222.8997819999976
  0
ARC
  5
CA3
  8
0
 62
     0
 10
268.82749544812089
 20
417.352189593106
 30
0.0
 40
14.0
 50
317.10021800000243
 51
42.899781999997558
  0
LINE
  5
CA4
  8
0
 62
     0
 10
357.6856434481208
 20
380.62150859310623
 30
0.0
 11
357.6856434481208
 21
454.08005159310602
 31
0.0
  0
LINE
  5
CA5
  8
0
 62
     0
 10
352.58565344812058
 20
384.2444925931062
 30
0.0
 11
352.58565344812058
 21
450.46420659310598
 31
0.0
  0
LINE
  5
CA6
  8
0
 62
     0
 10
349.26865144812092
 20
384.04769259310598
 30
0.0
 11
349.26865144812092
 21
450.65669459310578
 31
0.0
  0
LINE
  5
CA7
  8
0
 62
     0
 10
274.92905244812079
 20
384.68945059310607
 30
0.0
 11
274.92905244812079
 21
404.44269359310613
 31
0.0
  0
LINE
  5
CA8
  8
0
 62
     0
 10
274.92905244812079
 20
450.01078959310581
 30
0.0
 11
274.92905244812079
 21
430.2616895931061
 31
0.0
  0
LINE
  5
CA9
  8
0
 62
     0
 10
269.4399504481209
 20
452.30339359310602
 30
0.0
 11
269.4399504481209
 21
382.40098559310599
 31
0.0
  0
LINE
  5
CAA
  8
0
 62
     0
 10
267.37614944812071
 20
452.16858959310582
 30
0.0
 11
267.37614944812071
 21
382.53578559310608
 31
0.0
  0
LINE
  5
CAB
  8
0
 62
     0
 10
278.38775044812093
 20
384.81999359310618
 30
0.0
 11
278.38775044812093
 21
406.05226959310602
 31
0.0
  0
LINE
  5
CAC
  8
0
 62
     0
 10
278.38775044812093
 20
428.65210959310599
 30
0.0
 11
278.38775044812093
 21
446.93448759310581
 31
0.0
  0
ARC
  5
CAD
  8
0
 62
     0
 10
349.58565344812081
 20
384.2444925931062
 30
0.0
 40
3.0
 50
273.55702099999951
 51
0.0000179999992061
  0
ARC
  5
CAE
  8
0
 62
     0
 10
354.08565344812069
 20
380.63198959310603
 30
0.0
 40
3.6000059999999978
 50
273.96599900000109
 51
0.0000179999992061
  0
ARC
  5
CAF
  8
0
 62
     0
 10
278.52905044812093
 20
384.69359359310607
 30
0.0
 40
3.6000009999999998
 50
180.00007799999861
 51
266.68501399999951
  0
ARC
  5
CB0
  8
0
 62
     0
 10
312.79154744812081
 20
976.20216559310586
 30
0.0
 40
596.09997599999986
 50
266.68505800000048
 51
273.5570069999996
  0
ARC
  5
CB1
  8
0
 62
     0
 10
275.0399524481208
 20
382.40099059310597
 30
0.0
 40
5.5999989999999968
 50
180.00005699999849
 51
266.36204099999878
  0
ARC
  5
CB2
  8
0
 62
     0
 10
272.9761524481209
 20
382.53579059310613
 30
0.0
 40
5.600000999999998
 50
180.00005699999849
 51
266.16303700000037
  0
ARC
  5
CB3
  8
0
 62
     0
 10
312.79154744812081
 20
976.20216559310586
 30
0.0
 40
600.59997599999986
 50
266.16305400000141
 51
273.96601300000123
  0
ARC
  5
CB4
  8
0
 62
     0
 10
346.26865144812092
 20
384.04769259310598
 30
0.0
 40
3.0
 50
273.23604300000119
 51
0.0000179999992061
  0
ARC
  5
CB5
  8
0
 62
     0
 10
349.58565344812081
 20
450.45989359310607
 30
0.0
 40
3.0000029999999982
 50
0.0000179999992061
 51
86.443252999999885
  0
ARC
  5
CB6
  8
0
 62
     0
 10
354.08565344812069
 20
454.07219059310597
 30
0.0
 40
3.5999989999999982
 50
0.0000179999992061
 51
86.033744000000837
  0
ARC
  5
CB7
  8
0
 62
     0
 10
278.52905044812093
 20
450.01078959310581
 30
0.0
 40
3.5999979999999998
 50
93.315004999999587
 51
179.99998200000081
  0
ARC
  5
CB8
  8
0
 62
     0
 10
312.79154744812081
 20
-141.49778640689379
 30
0.0
 40
596.09997599999986
 50
86.443289999999465
 51
93.31508899999956
  0
ARC
  5
CB9
  8
0
 62
     0
 10
275.0399524481208
 20
452.30339159310603
 30
0.0
 40
5.5999980000000003
 50
93.638056000000859
 51
179.99998200000081
  0
ARC
  5
CBA
  8
0
 62
     0
 10
272.9761524481209
 20
452.16858859310582
 30
0.0
 40
5.5999980000000003
 50
93.837062000000614
 51
179.99998200000081
  0
ARC
  5
CBB
  8
0
 62
     0
 10
312.79154744812081
 20
-141.49778640689379
 30
0.0
 40
600.59997599999986
 50
86.033760000000385
 51
93.836910000000643
  0
ARC
  5
CBC
  8
0
 62
     0
 10
346.26865144812092
 20
450.65669359310601
 30
0.0
 40
2.9999989999999999
 50
0.0000179999992061
 51
86.764376000000055
  0
ARC
  5
CBD
  8
0
 62
     0
 10
276.92905244812079
 20
430.2616895931061
 30
0.0
 40
1.999997
 50
179.99998200000081
 51
229.4100490000007
  0
ARC
  5
CBE
  8
0
 62
     0
 10
276.92905244812079
 20
404.44269359310613
 30
0.0
 40
2.0
 50
130.59005899999829
 51
179.99998200000081
  0
ARC
  5
CBF
  8
0
 62
     0
 10
265.86815044812079
 20
417.352189593106
 30
0.0
 40
15.000002
 50
310.58999199999971
 51
49.40970199999888
  0
ARC
  5
CC0
  8
0
 62
     0
 10
356.89155644812081
 20
471.6611635931061
 30
0.0
 40
2.2000009999999981
 50
180.00000300000079
 51
269.99997799999852
  0
ARC
  5
CC1
  8
0
 62
     0
 10
356.89155644812081
 20
476.26116959310599
 30
0.0
 40
2.1999970000000002
 50
90.0
 51
179.99998200000081
  0
LINE
  5
CC2
  8
0
 62
     0
 10
359.29154744812081
 20
473.91172159310582
 30
0.0
 11
357.9915474481208
 21
473.16116659310609
 31
0.0
  0
LINE
  5
CC3
  8
0
 62
     0
 10
359.29154744812081
 20
474.91172159310611
 30
0.0
 11
357.9915474481208
 21
474.16116659310609
 31
0.0
  0
LINE
  5
CC4
  8
0
 62
     0
 10
357.9915474481208
 20
478.56116659310612
 30
0.0
 11
359.29154744812081
 21
478.56116659310612
 31
0.0
  0
LINE
  5
CC5
  8
0
 62
     0
 10
357.9915474481208
 20
469.36116659310608
 30
0.0
 11
359.29154744812081
 21
469.36116659310608
 31
0.0
  0
LINE
  5
CC6
  8
0
 62
     0
 10
359.29154744812081
 20
478.56116659310612
 30
0.0
 11
359.29154744812081
 21
469.36116659310608
 31
0.0
  0
LINE
  5
CC7
  8
0
 62
     0
 10
354.69154444812079
 20
476.26116959310599
 30
0.0
 11
354.69154444812079
 21
471.6611635931061
 31
0.0
  0
LINE
  5
CC8
  8
0
 62
     0
 10
357.9915474481208
 20
478.56116659310612
 30
0.0
 11
357.9915474481208
 21
469.36116659310608
 31
0.0
  0
LINE
  5
CC9
  8
0
 62
     0
 10
357.9915474481208
 20
469.4611665931061
 30
0.0
 11
356.89155644812081
 21
469.4611665931061
 31
0.0
  0
LINE
  5
CCA
  8
0
 62
     0
 10
357.9915474481208
 20
478.4611665931061
 30
0.0
 11
356.89155644812081
 21
478.4611665931061
 31
0.0
  0
LINE
  5
CCB
  8
0
 62
     0
 10
369.29154744812081
 20
343.85218959310617
 30
0.0
 11
369.29154744812081
 21
490.85213159310598
 31
0.0
  0
LINE
  5
CCC
  8
0
 62
     0
 10
207.29154744812081
 20
453.15213159310582
 30
0.0
 11
267.4632014481208
 21
453.15213159310582
 31
0.0
  0
LINE
  5
CCD
  8
0
 62
     0
 10
207.29154744812081
 20
451.55213159310603
 30
0.0
 11
267.37614944812071
 21
451.55213159310603
 31
0.0
  0
LINE
  5
CCE
  8
0
 62
     0
 10
199.78553644812069
 20
443.15213159310599
 30
0.0
 11
267.37614944812071
 21
443.15213159310599
 31
0.0
  0
LINE
  5
CCF
  8
0
 62
     0
 10
199.78553644812069
 20
441.55213159310603
 30
0.0
 11
267.37614944812071
 21
441.55213159310603
 31
0.0
  0
LINE
  5
CD0
  8
0
 62
     0
 10
199.78553644812069
 20
431.55213159310608
 30
0.0
 11
267.37614944812071
 21
431.55213159310608
 31
0.0
  0
LINE
  5
CD1
  8
0
 62
     0
 10
199.78553644812069
 20
433.15213159310599
 30
0.0
 11
267.37614944812071
 21
433.15213159310599
 31
0.0
  0
LINE
  5
CD2
  8
0
 62
     0
 10
199.78553644812069
 20
433.40213159310582
 30
0.0
 11
267.37614944812071
 21
433.40213159310582
 31
0.0
  0
LINE
  5
CD3
  8
0
 62
     0
 10
207.29154744812081
 20
451.20213159310578
 30
0.0
 11
267.37614944812071
 21
451.20213159310578
 31
0.0
  0
LINE
  5
CD4
  8
0
 62
     0
 10
207.29154744812081
 20
453.54213159310609
 30
0.0
 11
267.54721444812083
 21
453.54213159310609
 31
0.0
  0
LINE
  5
CD5
  8
0
 62
     0
 10
267.37614944812071
 20
443.45213159310612
 30
0.0
 11
199.78553644812069
 21
443.45213159310612
 31
0.0
  0
LINE
  5
CD6
  8
0
 62
     0
 10
267.37614944812071
 20
441.272131593106
 30
0.0
 11
199.78553644812069
 21
441.272131593106
 31
0.0
  0
LINE
  5
CD7
  8
0
 62
     0
 10
267.37614944812071
 20
431.32213159310601
 30
0.0
 11
199.78553644812069
 21
431.32213159310601
 31
0.0
  0
LINE
  5
CD8
  8
0
 62
     0
 10
267.37614944812071
 20
423.37213159310602
 30
0.0
 11
199.78553644812069
 21
423.37213159310602
 31
0.0
  0
LINE
  5
CD9
  8
0
 62
     0
 10
267.37614944812071
 20
421.34213159310599
 30
0.0
 11
199.78553644812069
 21
421.34213159310599
 31
0.0
  0
LINE
  5
CDA
  8
0
 62
     0
 10
267.37614944812071
 20
423.15213159310582
 30
0.0
 11
199.78553644812069
 21
423.15213159310582
 31
0.0
  0
LINE
  5
CDB
  8
0
 62
     0
 10
267.37614944812071
 20
421.55213159310603
 30
0.0
 11
199.78553644812069
 21
421.55213159310603
 31
0.0
  0
LINE
  5
CDC
  8
0
 62
     0
 10
207.29154744812081
 20
463.13213159310578
 30
0.0
 11
358.68436344812079
 21
463.13213159310578
 31
0.0
  0
LINE
  5
CDD
  8
0
 62
     0
 10
207.29154744812081
 20
461.53213159310582
 30
0.0
 11
358.83127644812078
 21
461.53213159310582
 31
0.0
  0
LINE
  5
CDE
  8
0
 62
     0
 10
199.78553644812069
 20
463.522131593106
 30
0.0
 11
360.7864924481209
 21
463.522131593106
 31
0.0
  0
LINE
  5
CDF
  8
0
 62
     0
 10
207.29154744812081
 20
461.18213159310591
 30
0.0
 11
360.80118444812081
 21
461.18213159310591
 31
0.0
  0
LINE
  5
CE0
  8
0
 62
     0
 10
357.79154744812081
 20
468.25318159310609
 30
0.0
 11
357.90770744812079
 21
469.4611665931061
 31
0.0
  0
LINE
  5
CE1
  8
0
 62
     0
 10
199.78553644812069
 20
446.63368859310611
 30
0.0
 11
207.29154744812081
 21
446.63368859310611
 31
0.0
  0
LINE
  5
CE2
  8
0
 62
     0
 10
199.78553644812069
 20
452.35213159310581
 30
0.0
 11
207.29154744812081
 21
452.35213159310581
 31
0.0
  0
LINE
  5
CE3
  8
0
 62
     0
 10
199.78553644812069
 20
462.87213159310602
 30
0.0
 11
207.29154744812081
 21
462.87213159310602
 31
0.0
  0
LINE
  5
CE4
  8
0
 62
     0
 10
199.78553644812069
 20
463.28346359310581
 30
0.0
 11
207.29154744812081
 21
463.28346359310581
 31
0.0
  0
LINE
  5
CE5
  8
0
 62
     0
 10
207.29154744812081
 20
463.28346359310581
 30
0.0
 11
207.29154744812081
 21
446.63368859310611
 31
0.0
  0
ARC
  5
CE6
  8
0
 62
     0
 10
141.79032644812079
 20
480.52102859310583
 30
0.0
 40
2.0
 50
96.369371000000768
 51
180.0
  0
ARC
  5
CE7
  8
0
 62
     0
 10
141.23563844812091
 20
485.49016259310582
 30
0.0
 40
2.999997
 50
276.3693710000008
 51
350.0001740000024
  0
LINE
  5
CE8
  8
0
 62
     0
 10
144.19007044812091
 20
484.96914259310603
 30
0.0
 11
145.25093244812081
 21
490.98661859310579
 31
0.0
  0
LINE
  5
CE9
  8
0
 62
     0
 10
139.79032644812079
 20
354.1832925931061
 30
0.0
 11
139.79032644812079
 21
480.52102859310583
 31
0.0
  0
LINE
  5
CEA
  8
0
 62
     0
 10
146.84452544812081
 20
491.31416759310588
 30
0.0
 11
146.84452544812081
 21
343.39015359310599
 31
0.0
  0
LINE
  5
CEB
  8
0
 62
     0
 10
176.79216444812079
 20
337.60237259310611
 30
0.0
 11
176.79216444812079
 21
497.10194859310587
 31
0.0
  0
LINE
  5
CEC
  8
0
 62
     0
 10
176.47954344812081
 20
497.08556559310591
 30
0.0
 11
150.61287344812081
 21
495.73006259310603
 31
0.0
  0
LINE
  5
CED
  8
0
 62
     0
 10
178.04258444812081
 20
498.10213159310598
 30
0.0
 11
199.79154744812081
 21
498.10213159310598
 31
0.0
  0
ARC
  5
CEE
  8
0
 62
     0
 10
178.04258444812081
 20
496.85213159310592
 30
0.0
 40
1.25
 50
89.999982000000799
 51
154.62363900000179
  0
ARC
  5
CEF
  8
0
 62
     0
 10
150.91373944812079
 20
489.98811759310581
 30
0.0
 40
5.7500059999999991
 50
92.999882999999429
 51
170.00004800000099
  0
ARC
  5
CF0
  8
0
 62
     0
 10
176.45337744812079
 20
497.58488059310571
 30
0.0
 40
0.5
 50
272.99975299999932
 51
335.24659000000122
  0
LINE
  5
CF1
  8
0
 62
     0
 10
207.29154744812081
 20
381.55218959310599
 30
0.0
 11
267.46320944812078
 21
381.55218959310599
 31
0.0
  0
LINE
  5
CF2
  8
0
 62
     0
 10
207.29154744812081
 20
383.15218959310607
 30
0.0
 11
267.37614944812071
 21
383.15218959310607
 31
0.0
  0
LINE
  5
CF3
  8
0
 62
     0
 10
199.78553644812069
 20
391.55218959310599
 30
0.0
 11
267.37614944812071
 21
391.55218959310599
 31
0.0
  0
LINE
  5
CF4
  8
0
 62
     0
 10
199.78553644812069
 20
393.15218959310607
 30
0.0
 11
267.37614944812071
 21
393.15218959310607
 31
0.0
  0
LINE
  5
CF5
  8
0
 62
     0
 10
199.78553644812069
 20
403.15218959310602
 30
0.0
 11
267.37614944812071
 21
403.15218959310602
 31
0.0
  0
LINE
  5
CF6
  8
0
 62
     0
 10
199.78553644812069
 20
401.55218959310571
 30
0.0
 11
267.37614944812071
 21
401.55218959310571
 31
0.0
  0
LINE
  5
CF7
  8
0
 62
     0
 10
199.78553644812069
 20
401.30218959310599
 30
0.0
 11
267.37614944812071
 21
401.30218959310599
 31
0.0
  0
LINE
  5
CF8
  8
0
 62
     0
 10
207.29154744812081
 20
383.50218959310621
 30
0.0
 11
267.37614944812071
 21
383.50218959310621
 31
0.0
  0
LINE
  5
CF9
  8
0
 62
     0
 10
207.29154744812081
 20
381.16218959310618
 30
0.0
 11
267.5472264481208
 21
381.16218959310618
 31
0.0
  0
LINE
  5
CFA
  8
0
 62
     0
 10
267.37614944812071
 20
391.25218959310621
 30
0.0
 11
199.78553644812069
 21
391.25218959310621
 31
0.0
  0
LINE
  5
CFB
  8
0
 62
     0
 10
267.37614944812071
 20
393.4321895931061
 30
0.0
 11
199.78553644812069
 21
393.4321895931061
 31
0.0
  0
LINE
  5
CFC
  8
0
 62
     0
 10
267.37614944812071
 20
403.38218959310581
 30
0.0
 11
199.78553644812069
 21
403.38218959310581
 31
0.0
  0
LINE
  5
CFD
  8
0
 62
     0
 10
267.37614944812071
 20
411.33218959310602
 30
0.0
 11
199.78553644812069
 21
411.33218959310602
 31
0.0
  0
LINE
  5
CFE
  8
0
 62
     0
 10
267.37614944812071
 20
413.36218959310571
 30
0.0
 11
199.78553644812069
 21
413.36218959310571
 31
0.0
  0
LINE
  5
CFF
  8
0
 62
     0
 10
267.37614944812071
 20
411.55218959310599
 30
0.0
 11
199.78553644812069
 21
411.55218959310599
 31
0.0
  0
LINE
  5
D00
  8
0
 62
     0
 10
267.37614944812071
 20
413.15218959310607
 30
0.0
 11
199.78553644812069
 21
413.15218959310607
 31
0.0
  0
LINE
  5
D01
  8
0
 62
     0
 10
207.29154744812081
 20
371.57218959310597
 30
0.0
 11
358.68474144812092
 21
371.57218959310597
 31
0.0
  0
LINE
  5
D02
  8
0
 62
     0
 10
207.29154744812081
 20
373.17218959310622
 30
0.0
 11
358.83085244812082
 21
373.17218959310622
 31
0.0
  0
LINE
  5
D03
  8
0
 62
     0
 10
199.78553644812069
 20
371.18218959310599
 30
0.0
 11
360.78659544812092
 21
371.18218959310599
 31
0.0
  0
LINE
  5
D04
  8
0
 62
     0
 10
207.29154744812081
 20
373.52218959310608
 30
0.0
 11
360.80108644812088
 21
373.52218959310608
 31
0.0
  0
LINE
  5
D05
  8
0
 62
     0
 10
357.79154744812081
 20
373.52218959310608
 30
0.0
 11
357.79154744812081
 21
381.16218959310618
 31
0.0
  0
LINE
  5
D06
  8
0
 62
     0
 10
357.79154744812081
 20
366.45113959310618
 30
0.0
 11
357.79154744812081
 21
371.18218959310599
 31
0.0
  0
LINE
  5
D07
  8
0
 62
     0
 10
359.29154744812081
 20
355.35218959310617
 30
0.0
 11
359.29154744812081
 21
371.18218959310599
 31
0.0
  0
LINE
  5
D08
  8
0
 62
     0
 10
357.79154744812081
 20
366.45113959310618
 30
0.0
 11
357.9077024481208
 21
365.24321359310608
 31
0.0
  0
LINE
  5
D09
  8
0
 62
     0
 10
199.78553644812069
 20
388.07063259310598
 30
0.0
 11
207.29154744812081
 21
388.07063259310598
 31
0.0
  0
LINE
  5
D0A
  8
0
 62
     0
 10
199.78553644812069
 20
382.35218959310617
 30
0.0
 11
207.29154744812081
 21
382.35218959310617
 31
0.0
  0
LINE
  5
D0B
  8
0
 62
     0
 10
199.78553644812069
 20
371.83218959310608
 30
0.0
 11
207.29154744812081
 21
371.83218959310608
 31
0.0
  0
LINE
  5
D0C
  8
0
 62
     0
 10
199.78553644812069
 20
371.42085759310618
 30
0.0
 11
207.29154744812081
 21
371.42085759310618
 31
0.0
  0
LINE
  5
D0D
  8
0
 62
     0
 10
207.29154744812081
 20
371.42085759310618
 30
0.0
 11
207.29154744812081
 21
388.07063259310598
 31
0.0
  0
ARC
  5
D0E
  8
0
 62
     0
 10
141.79032644812079
 20
354.1832925931061
 30
0.0
 40
2.0
 50
180.0
 51
263.63062899999932
  0
ARC
  5
D0F
  8
0
 62
     0
 10
141.23563844812091
 20
349.21415859310622
 30
0.0
 40
2.999997
 50
9.9998259999975794
 51
83.63062899999926
  0
LINE
  5
D10
  8
0
 62
     0
 10
144.19007044812091
 20
349.73517859310613
 30
0.0
 11
145.25093244812081
 21
343.71770259310608
 31
0.0
  0
LINE
  5
D11
  8
0
 62
     0
 10
143.79032644812079
 20
483.09615059310579
 30
0.0
 11
143.79032644812079
 21
351.60817059310608
 31
0.0
  0
LINE
  5
D12
  8
0
 62
     0
 10
358.9915474481208
 20
383.50218959310621
 30
0.0
 11
359.29154744812081
 21
383.50218959310621
 31
0.0
  0
LINE
  5
D13
  8
0
 62
     0
 10
358.94085644812083
 20
381.16218959310618
 30
0.0
 11
359.29154744812081
 21
381.16218959310618
 31
0.0
  0
LINE
  5
D14
  8
0
 62
     0
 10
176.47954344812081
 20
337.61875559310607
 30
0.0
 11
150.61287344812081
 21
338.97425859310607
 31
0.0
  0
LINE
  5
D15
  8
0
 62
     0
 10
178.04258444812081
 20
336.60218959310612
 30
0.0
 11
199.79154744812081
 21
336.60218959310612
 31
0.0
  0
ARC
  5
D16
  8
0
 62
     0
 10
178.04258444812081
 20
337.85218959310612
 30
0.0
 40
1.25
 50
205.3763609999981
 51
270.00001799999922
  0
ARC
  5
D17
  8
0
 62
     0
 10
150.91373944812079
 20
344.71620359310617
 30
0.0
 40
5.7500059999999991
 50
189.9999519999989
 51
267.00011700000061
  0
ARC
  5
D18
  8
0
 62
     0
 10
176.45337744812079
 20
337.11944059310599
 30
0.0
 40
0.5
 50
24.75340999999878
 51
87.000247000000712
  0
LINE
  5
D19
  8
0
 62
     0
 10
357.79154744812081
 20
468.25318159310609
 30
0.0
 11
357.79154744812081
 21
463.52218959310602
 31
0.0
  0
LINE
  5
D1A
  8
0
 62
     0
 10
357.79154744812081
 20
461.18218959310587
 30
0.0
 11
357.79154744812081
 21
453.542189593106
 31
0.0
  0
LINE
  5
D1B
  8
0
 62
     0
 10
199.78553644812069
 20
336.60218959310612
 30
0.0
 11
199.78553644812069
 21
498.10213159310598
 31
0.0
  0
ARC
  5
D1C
  8
0
 62
     0
 10
356.89155444812093
 20
363.04321659310619
 30
0.0
 40
2.2000009999999981
 50
90.000022000001564
 51
179.99999699999901
  0
ARC
  5
D1D
  8
0
 62
     0
 10
356.89155444812093
 20
358.44321059310607
 30
0.0
 40
2.1999970000000002
 50
180.00001799999899
 51
270.0
  0
LINE
  5
D1E
  8
0
 62
     0
 10
359.29154544812093
 20
360.79265859310618
 30
0.0
 11
357.99154544812092
 21
361.5432135931062
 31
0.0
  0
LINE
  5
D1F
  8
0
 62
     0
 10
359.29154544812093
 20
359.79265859310618
 30
0.0
 11
357.99154544812092
 21
360.54321359310609
 31
0.0
  0
LINE
  5
D20
  8
0
 62
     0
 10
357.99154544812092
 20
356.14321359310622
 30
0.0
 11
359.29154544812093
 21
356.14321359310622
 31
0.0
  0
LINE
  5
D21
  8
0
 62
     0
 10
357.99154544812092
 20
365.3432135931061
 30
0.0
 11
359.29154544812093
 21
365.3432135931061
 31
0.0
  0
LINE
  5
D22
  8
0
 62
     0
 10
359.29154544812093
 20
356.14321359310622
 30
0.0
 11
359.29154544812093
 21
365.3432135931061
 31
0.0
  0
LINE
  5
D23
  8
0
 62
     0
 10
354.69154244812091
 20
358.44321059310607
 30
0.0
 11
354.69154244812091
 21
363.04321659310619
 31
0.0
  0
LINE
  5
D24
  8
0
 62
     0
 10
357.99154544812092
 20
356.14321359310622
 30
0.0
 11
357.99154544812092
 21
365.3432135931061
 31
0.0
  0
LINE
  5
D25
  8
0
 62
     0
 10
357.99154544812092
 20
365.24321359310608
 30
0.0
 11
356.89155444812093
 21
365.24321359310608
 31
0.0
  0
LINE
  5
D26
  8
0
 62
     0
 10
357.99154544812092
 20
356.24321359310608
 30
0.0
 11
356.89155444812093
 21
356.24321359310608
 31
0.0
  0
LINE
  5
102E
  8
0
  6
CONTINUOUS
 62
     0
 10
369.29152744812092
 20
633.20852751480277
 30
0.0
 11
403.7915274481208
 21
633.20852751480277
 31
0.0
  0
LINE
  5
102F
  8
0
  6
CONTINUOUS
 62
     0
 10
369.29152744812092
 20
756.36578751480295
 30
0.0
 11
403.7915274481208
 21
756.36578751480295
 31
0.0
  0
LINE
  5
1030
  8
0
  6
CONTINUOUS
 62
     0
 10
369.29152744812092
 20
734.26184751480287
 30
0.0
 11
403.7915274481208
 21
734.26184751480287
 31
0.0
  0
LINE
  5
1031
  8
0
  6
CONTINUOUS
 62
     0
 10
369.29152744812092
 20
655.31250751480275
 30
0.0
 11
403.7915274481208
 21
655.31250751480275
 31
0.0
  0
LINE
  5
1032
  8
0
  6
CONTINUOUS
 62
     0
 10
369.29146744812101
 20
621.287147514803
 30
0.0
 11
401.3613574481206
 21
620.16723751480299
 31
0.0
  0
LINE
  5
1033
  8
0
  6
CONTINUOUS
 62
     0
 10
369.29152744812092
 20
768.28717751480269
 30
0.0
 11
400.89620744812061
 21
769.39080751480265
 31
0.0
  0
ARC
  5
1064
  8
0
  6
CONTINUOUS
 62
     0
 10
400.7915274481208
 20
772.38897751480272
 30
0.0
 40
3.0
 50
271.99999999999721
 51
0.0
  0
ARC
  5
1065
  8
0
  6
CONTINUOUS
 62
     0
 10
400.7915274481208
 20
617.185337514803
 30
0.0
 40
3.0
 50
0.0
 51
88.000000000002785
  0
ARC
  5
108E
  8
0
 62
     0
 10
360.29152744812092
 20
632.74836701480274
 30
0.0
 40
1.0
 50
180.0
 51
270.0
  0
ARC
  5
108F
  8
0
 62
     0
 10
360.29152744812092
 20
756.82598301480266
 30
0.0
 40
1.0
 50
90.0
 51
180.0
  0
LINE
  5
1090
  8
0
 62
     0
 10
278.89152944812082
 20
612.78717501480276
 30
0.0
 11
348.63462944812079
 21
612.78717501480276
 31
0.0
  0
LINE
  5
1091
  8
0
 62
     0
 10
357.68964744812092
 20
610.88219601480273
 30
0.0
 11
356.041652448121
 21
614.41616001480281
 31
0.0
  0
LINE
  5
1092
  8
0
 62
     0
 10
356.041652448121
 20
614.41616001480281
 30
0.0
 11
267.22353344812092
 21
573.0001510148029
 31
0.0
  0
LINE
  5
1093
  8
0
 62
     0
 10
268.87172644812091
 20
569.46518001480285
 30
0.0
 11
267.22353344812092
 21
573.0001510148029
 31
0.0
  0
LINE
  5
1094
  8
0
 62
     0
 10
276.42473144812089
 20
569.83118401480283
 30
0.0
 11
276.10332944812092
 21
570.5201760148027
 31
0.0
  0
LINE
  5
1095
  8
0
 62
     0
 10
352.71662944812078
 20
585.70117701480274
 30
0.0
 11
352.71662944812078
 21
606.07518501480286
 31
0.0
  0
LINE
  5
1096
  8
0
 62
     0
 10
270.33912144812092
 20
568.93617701480275
 30
0.0
 11
357.16462644812111
 21
609.42318001480282
 31
0.0
  0
LINE
  5
1097
  8
0
 62
     0
 10
275.29153144812091
 20
576.76218101480265
 30
0.0
 11
275.29153144812091
 21
609.18718401480282
 31
0.0
  0
LINE
  5
1098
  8
0
  6
AM_ISO08W050
 62
     0
 10
270.11533044812091
 20
592.78717501480276
 30
0.0
 11
278.70563144812093
 21
592.78717501480276
 31
0.0
  0
LINE
  5
1099
  8
0
 62
     0
 10
273.29153144812091
 20
604.38718101480265
 30
0.0
 11
273.29153144812091
 21
581.18718401480282
 31
0.0
  0
LINE
  5
109A
  8
0
 62
     0
 10
273.29153144812091
 20
604.38718101480265
 30
0.0
 11
274.29153144812091
 21
604.38718101480265
 31
0.0
  0
LINE
  5
109B
  8
0
 62
     0
 10
273.29153144812091
 20
581.18718401480282
 30
0.0
 11
274.29153144812091
 21
581.18718401480282
 31
0.0
  0
ARC
  5
109C
  8
0
 62
     0
 10
278.89152944812082
 20
609.18718401480282
 30
0.0
 40
3.5999979999999998
 50
90.000061000000898
 51
179.99998200000081
  0
ARC
  5
109D
  8
0
 62
     0
 10
356.69262744812102
 20
610.41718001480274
 30
0.0
 40
1.100006
 50
294.99982600000169
 51
24.999513999998751
  0
ARC
  5
109E
  8
0
 62
     0
 10
269.868630448121
 20
569.93018101480266
 30
0.0
 40
1.0999959999999971
 50
204.99980300000141
 51
295.00019499999559
  0
ARC
  5
109F
  8
0
 62
     0
 10
345.11663144812093
 20
585.70117701480274
 30
0.0
 40
7.5999979999999967
 50
288.90001600000272
 51
0.0000179999992061
  0
ARC
  5
10A0
  8
0
 62
     0
 10
279.68743244812089
 20
571.3521780148028
 30
0.0
 40
3.5999979999999998
 50
204.9991569999998
 51
269.09402099999909
  0
ARC
  5
10A1
  8
0
 62
     0
 10
282.79393044812099
 20
767.72816901480269
 30
0.0
 40
200.0
 50
269.09405199999651
 51
288.9000030000019
  0
ARC
  5
10A2
  8
0
 62
     0
 10
275.19702944812087
 20
570.09818001480289
 30
0.0
 40
0.9999979999999998
 50
24.999268000004911
 51
114.9993579999945
  0
ARC
  5
10A3
  8
0
 62
     0
 10
354.7166294481209
 20
606.07518501480286
 30
0.0
 40
2.0
 50
115.0001500000004
 51
179.99998200000081
  0
ARC
  5
10A4
  8
0
 62
     0
 10
348.63462944812079
 20
610.18718401480282
 30
0.0
 40
2.600006
 50
40.686130000000617
 51
90.0
  0
ARC
  5
10A5
  8
0
 62
     0
 10
274.29153144812091
 20
605.38718101480299
 30
0.0
 40
1.0
 50
269.99894299999522
 51
0.0000179999992061
  0
ARC
  5
10A6
  8
0
 62
     0
 10
274.29153144812091
 20
580.18718401480282
 30
0.0
 40
1.0
 50
0.0000179999992061
 51
90.0
  0
LINE
  5
10A7
  8
0
  6
AM_ISO08W050
 62
     0
 10
312.79152744812092
 20
622.87189101480283
 30
0.0
 11
312.79152744812092
 21
608.88506901480275
 31
0.0
  0
LINE
  5
10A8
  8
0
 62
     0
 10
369.29152744812092
 20
621.28717501480276
 30
0.0
 11
369.29152744812092
 21
768.28718001480297
 31
0.0
  0
ARC
  5
10A9
  8
0
 62
     0
 10
207.3104024481209
 20
616.31224501480301
 30
0.0
 40
2.0
 50
60.311697000000869
 51
90.0
  0
LINE
  5
10AA
  8
0
 62
     0
 10
199.79152744812089
 20
618.3122450148029
 30
0.0
 11
207.3104024481209
 21
618.3122450148029
 31
0.0
  0
ARC
  5
10AB
  8
0
 62
     0
 10
205.36615444812091
 20
619.01811701480278
 30
0.0
 40
2.0
 50
11.08497000000493
 51
90.0
  0
LINE
  5
10AC
  8
0
 62
     0
 10
199.79152744812089
 20
621.0181170148029
 30
0.0
 11
205.36615444812091
 21
621.0181170148029
 31
0.0
  0
ARC
  5
10AD
  8
0
 62
     0
 10
209.29152744812089
 20
619.78717501480287
 30
0.0
 40
2.0
 50
180.0
 51
270.0
  0
ARC
  5
10AE
  8
0
 62
     0
 10
209.29152744812089
 20
628.28717901480275
 30
0.0
 40
2.0
 50
180.0
 51
270.0
  0
LINE
  5
10AF
  8
0
 62
     0
 10
207.29152744812089
 20
641.98766201480282
 30
0.0
 11
207.29152744812089
 21
619.78717501480287
 31
0.0
  0
LINE
  5
10B0
  8
0
 62
     0
 10
199.79152744812089
 20
640.59987801480281
 30
0.0
 11
207.29152744812089
 21
640.59987801480281
 31
0.0
  0
LINE
  5
10B1
  8
0
 62
     0
 10
199.79152744812089
 20
629.02318301480273
 30
0.0
 11
207.29152744812089
 21
629.02318301480273
 31
0.0
  0
LINE
  5
10B2
  8
0
 62
     0
 10
199.79152744812089
 20
622.96302001480285
 30
0.0
 11
207.29152744812089
 21
622.96302001480285
 31
0.0
  0
ARC
  5
10B3
  8
0
 62
     0
 10
357.29152544812092
 20
628.28717101480288
 30
0.0
 40
2.0
 50
269.99999799999722
 51
359.99999799999722
  0
LINE
  5
10B4
  8
0
 62
     0
 10
209.29152744812089
 20
643.98766201480271
 30
0.0
 11
357.29152444812092
 21
643.98766201480271
 31
0.0
  0
LINE
  5
10B5
  8
0
 62
     0
 10
209.29152744812089
 20
626.28717901480275
 30
0.0
 11
357.2972284481209
 21
626.28717901480275
 31
0.0
  0
LINE
  5
10B6
  8
0
 62
     0
 10
359.2915274481208
 20
621.28717501480276
 30
0.0
 11
369.29152444812092
 21
621.28717501480276
 31
0.0
  0
LINE
  5
10B7
  8
0
 62
     0
 10
360.29152744812092
 20
631.74836701480274
 30
0.0
 11
369.29152544812098
 21
631.74836701480274
 31
0.0
  0
LINE
  5
10B9
  8
0
 62
     0
 10
207.29152744812089
 20
769.73996301480258
 30
0.0
 11
207.29152744812089
 21
766.70115901480256
 31
0.0
  0
ARC
  5
10BA
  8
0
 62
     0
 10
209.29152744812089
 20
761.28717901480275
 30
0.0
 40
2.0
 50
90.0
 51
180.0
  0
LINE
  5
10BB
  8
0
 62
     0
 10
199.79152744812089
 20
749.06177601480272
 30
0.0
 11
207.29152744812089
 21
749.06177601480272
 31
0.0
  0
LINE
  5
10BC
  8
0
 62
     0
 10
199.79152744812089
 20
760.62779501480304
 30
0.0
 11
207.29152744812089
 21
760.62779501480304
 31
0.0
  0
LINE
  5
10BD
  8
0
 62
     0
 10
199.79152744812089
 20
766.70115901480256
 30
0.0
 11
207.29152744812089
 21
766.70115901480256
 31
0.0
  0
LINE
  5
10BE
  8
0
 62
     0
 10
207.29152744812089
 20
771.265421014803
 30
0.0
 11
207.29152744812089
 21
770.66214501480272
 31
0.0
  0
ARC
  5
10BF
  8
0
 62
     0
 10
209.29152744812089
 20
769.73996301480258
 30
0.0
 40
2.0
 50
90.0
 51
180.0
  0
LINE
  5
10C0
  8
0
 62
     0
 10
199.79152744812089
 20
772.68032001480287
 30
0.0
 11
205.77219844812089
 21
772.68032001480287
 31
0.0
  0
LINE
  5
10C1
  8
0
 62
     0
 10
199.79152744812089
 20
771.36580801480306
 30
0.0
 11
205.44283844812099
 21
771.36580801480306
 31
0.0
  0
ARC
  5
10C2
  8
0
 62
     0
 10
205.44283844812099
 20
773.36580801480272
 30
0.0
 40
2.0
 50
270.0
 51
344.1903739999978
  0
ARC
  5
10C3
  8
0
 62
     0
 10
209.29152744812089
 20
772.27604101480301
 30
0.0
 40
2.0
 50
90.0
 51
164.19037399999769
  0
ARC
  5
10C4
  8
0
 62
     0
 10
205.77219844812089
 20
774.68032001480265
 30
0.0
 40
2.0
 50
270.0
 51
331.62214300000102
  0
ARC
  5
10C5
  8
0
 62
     0
 10
209.29152744812089
 20
772.77918301480304
 30
0.0
 40
2.0
 50
90.0
 51
151.6221439999978
  0
ARC
  5
10C6
  8
0
 62
     0
 10
357.2915274481208
 20
761.28717901480275
 30
0.0
 40
2.0
 50
0.0
 51
90.0
  0
ARC
  5
10C7
  8
0
 62
     0
 10
356.1640354481209
 20
769.73996301480258
 30
0.0
 40
2.0
 50
15.000000000000741
 51
90.0
  0
LINE
  5
10C8
  8
0
 62
     0
 10
361.2915274481208
 20
758.33130901480286
 30
0.0
 11
358.09588744812089
 21
770.25760101480273
 31
0.0
  0
ARC
  5
10C9
  8
0
 62
     0
 10
357.12855144812102
 20
771.265421014803
 30
0.0
 40
2.0
 50
15.000000000000741
 51
90.0
  0
LINE
  5
10CA
  8
0
 62
     0
 10
361.2915274481208
 20
763.45639201480265
 30
0.0
 11
359.06040344812089
 21
771.78306001480269
 31
0.0
  0
ARC
  5
10CB
  8
0
 62
     0
 10
357.67624544812088
 20
772.27604101480301
 30
0.0
 40
2.0
 50
15.000000000000741
 51
90.0
  0
LINE
  5
10CC
  8
0
 62
     0
 10
361.2915274481208
 20
766.51102901480272
 30
0.0
 11
359.60809644812088
 21
772.79367901480271
 31
0.0
  0
ARC
  5
10CD
  8
0
 62
     0
 10
357.95727944812091
 20
772.77918301480304
 30
0.0
 40
2.0
 50
15.000000000000741
 51
90.0
  0
LINE
  5
10CE
  8
0
 62
     0
 10
361.2915274481208
 20
768.06300701480291
 30
0.0
 11
359.88913144812091
 21
773.29682201480296
 31
0.0
  0
ARC
  5
10CF
  8
0
 62
     0
 10
205.29152744812089
 20
770.66214501480272
 30
0.0
 40
2.0
 50
270.0
 51
0.0
  0
ARC
  5
10D0
  8
0
 62
     0
 10
209.29152744812089
 20
771.265421014803
 30
0.0
 40
2.0
 50
90.0
 51
180.0
  0
LINE
  5
10D1
  8
0
 62
     0
 10
199.79152744812089
 20
768.66214501480272
 30
0.0
 11
205.29152744812089
 21
768.66214501480272
 31
0.0
  0
LINE
  5
10D2
  8
0
 62
     0
 10
207.29152744812089
 20
766.70115901480256
 30
0.0
 11
207.29152744812089
 21
747.65851501480302
 31
0.0
  0
LINE
  5
10D4
  8
0
 62
     0
 10
360.29152744812092
 20
757.82598301480255
 30
0.0
 11
369.29152744812092
 21
757.82598301480255
 31
0.0
  0
LINE
  5
10D5
  8
0
 62
     0
 10
209.29152744812089
 20
745.65851501480302
 30
0.0
 11
357.2915274481208
 21
745.65851501480302
 31
0.0
  0
LINE
  5
10D6
  8
0
 62
     0
 10
209.29152744812089
 20
774.77918301480304
 30
0.0
 11
357.95727944812091
 21
774.77918301480304
 31
0.0
  0
LINE
  5
10D7
  8
0
 62
     0
 10
209.29152744812089
 20
763.28717901480275
 30
0.0
 11
357.2915274481208
 21
763.28717901480275
 31
0.0
  0
LINE
  5
10D8
  8
0
 62
     0
 10
209.29152744812089
 20
771.7399630148027
 30
0.0
 11
356.1640354481209
 21
771.7399630148027
 31
0.0
  0
LINE
  5
10D9
  8
0
 62
     0
 10
209.29152744812089
 20
773.26542101480266
 30
0.0
 11
357.12855144812102
 21
773.26542101480266
 31
0.0
  0
LINE
  5
10DA
  8
0
 62
     0
 10
209.29152744812089
 20
774.27604101480301
 30
0.0
 11
357.67624544812088
 21
774.27604101480301
 31
0.0
  0
LINE
  5
10DB
  8
0
 62
     0
 10
279.29152744812092
 20
615.78717501480287
 30
0.0
 11
279.29152744812092
 21
612.78717501480276
 31
0.0
  0
LINE
  5
10DC
  8
0
 62
     0
 10
346.29152744812092
 20
615.78717501480287
 30
0.0
 11
346.29152744812092
 21
612.78717501480276
 31
0.0
  0
LINE
  5
10DD
  8
0
 62
     0
 10
143.79152744812089
 20
633.9942050148029
 30
0.0
 11
143.79152744812089
 21
756.90213501480287
 31
0.0
  0
LINE
  5
10DE
  8
0
 62
     0
 10
139.79189744812089
 20
632.18719501480291
 30
0.0
 11
139.79189744812089
 21
757.38711501480259
 31
0.0
  0
LINE
  5
10DF
  8
0
 62
     0
 10
144.19148744812091
 20
762.05417501480269
 30
0.0
 11
145.3144774481209
 21
768.42514501480275
 31
0.0
  0
LINE
  5
10E0
  8
0
 62
     0
 10
150.6765974481209
 20
773.16910501480288
 30
0.0
 11
176.31856744812089
 21
774.51309501480296
 31
0.0
  0
LINE
  5
10E1
  8
0
 62
     0
 10
176.79152744812089
 20
615.73187501480288
 30
0.0
 11
176.79152744812089
 21
773.67374501480265
 31
0.0
  0
LINE
  5
10E2
  8
0
 62
     0
 10
147.65346744812089
 20
766.81412501480304
 30
0.0
 11
147.65346744812089
 21
623.26715501480282
 31
0.0
  0
LINE
  5
10E3
  8
0
 62
     0
 10
144.19148744812091
 20
627.52017501480282
 30
0.0
 11
145.3144774481209
 21
621.15011501480274
 31
0.0
  0
LINE
  5
10E4
  8
0
 62
     0
 10
150.67653744812091
 20
616.40616501480281
 30
0.0
 11
176.31856744812089
 21
615.06216501480264
 31
0.0
  0
LINE
  5
10E5
  8
0
 62
     0
 10
177.88454744812091
 20
775.53714501480272
 30
0.0
 11
199.79152744812089
 21
775.53714501480272
 31
0.0
  0
LINE
  5
10E6
  8
0
 62
     0
 10
177.88454744812091
 20
614.03717501480287
 30
0.0
 11
199.79152744812089
 21
614.03717501480287
 31
0.0
  0
LINE
  5
10E7
  8
0
 62
     0
 10
346.29152744812092
 20
617.78717501480276
 30
0.0
 11
346.29152744812092
 21
615.78717501480287
 31
0.0
  0
LINE
  5
10E8
  8
0
 62
     0
 10
279.29152744812092
 20
617.78717501480276
 30
0.0
 11
279.29152744812092
 21
615.78717501480287
 31
0.0
  0
LINE
  5
10E9
  8
0
 62
     0
 10
279.29152744812092
 20
615.78717501480287
 30
0.0
 11
346.29152744812092
 21
615.78717501480287
 31
0.0
  0
LINE
  5
10EA
  8
0
 62
     0
 10
209.29152744812089
 20
617.78717501480276
 30
0.0
 11
356.07204744812088
 21
617.78717501480276
 31
0.0
  0
LINE
  5
10EB
  8
0
 62
     0
 10
322.79152744812092
 20
720.78717501480276
 30
0.0
 11
199.79152744812089
 21
720.78717501480276
 31
0.0
  0
LINE
  5
10EC
  8
0
 62
     0
 10
322.79152744812092
 20
668.78717501480276
 30
0.0
 11
199.79152744812089
 21
668.78717501480276
 31
0.0
  0
LINE
  5
10ED
  8
0
 62
     0
 10
338.79152744812092
 20
721.78717501480276
 30
0.0
 11
338.79152744812092
 21
727.78717501480287
 31
0.0
  0
LINE
  5
10EE
  8
0
 62
     0
 10
323.7915274481208
 20
721.78717501480276
 30
0.0
 11
323.7915274481208
 21
727.78717501480287
 31
0.0
  0
LINE
  5
10EF
  8
0
 62
     0
 10
338.79152744812092
 20
667.78717501480276
 30
0.0
 11
338.79152744812092
 21
661.78717501480287
 31
0.0
  0
LINE
  5
10F0
  8
0
 62
     0
 10
323.7915274481208
 20
667.78717501480276
 30
0.0
 11
323.7915274481208
 21
661.78717501480287
 31
0.0
  0
LINE
  5
10F1
  8
0
 62
     0
 10
295.29152744812092
 20
715.28717501480287
 30
0.0
 11
295.29152744812092
 21
674.28717501480287
 31
0.0
  0
LINE
  5
10F2
  8
0
 62
     0
 10
358.29152744812092
 20
715.28717501480287
 30
0.0
 11
358.29152744812092
 21
674.28717501480287
 31
0.0
  0
LINE
  5
10F3
  8
0
 62
     0
 10
295.29152744812092
 20
715.28717501480287
 30
0.0
 11
358.29152744812092
 21
715.28717501480287
 31
0.0
  0
LINE
  5
10F4
  8
0
 62
     0
 10
295.29152744812092
 20
674.28717501480287
 30
0.0
 11
358.29152744812092
 21
674.28717501480287
 31
0.0
  0
LINE
  5
10F5
  8
0
 62
     0
 10
295.29152744812092
 20
707.78717501480287
 30
0.0
 11
358.29152744812092
 21
707.78717501480287
 31
0.0
  0
LINE
  5
10F6
  8
0
 62
     0
 10
207.29152744812089
 20
697.78717501480276
 30
0.0
 11
207.29152744812089
 21
691.78717501480276
 31
0.0
  0
LINE
  5
10F7
  8
0
 62
     0
 10
358.00362744812088
 20
619.26846501480281
 30
0.0
 11
358.99153744812088
 21
622.94714501480303
 31
0.0
  0
LINE
  5
10F8
  8
0
 62
     0
 10
357.415547448121
 20
619.26846501480281
 30
0.0
 11
358.99153744812088
 21
625.13718501480287
 31
0.0
  0
LINE
  5
10F9
  8
0
 62
     0
 10
359.2915274481208
 20
657.82895501480289
 30
0.0
 11
359.2915274481208
 21
621.28717501480276
 31
0.0
  0
LINE
  5
10FA
  8
0
 62
     0
 10
358.29152744812092
 20
670.78717501480276
 30
0.0
 11
199.79152744812089
 21
670.78717501480276
 31
0.0
  0
LINE
  5
10FB
  8
0
 62
     0
 10
358.29152744812092
 20
668.78717501480276
 30
0.0
 11
339.79152744812092
 21
668.78717501480276
 31
0.0
  0
LINE
  5
10FC
  8
0
 62
     0
 10
291.29152744812092
 20
678.78717501480287
 30
0.0
 11
199.79152744812089
 21
678.78717501480287
 31
0.0
  0
LINE
  5
10FD
  8
0
 62
     0
 10
291.29152744812092
 20
680.78717501480276
 30
0.0
 11
199.79152744812089
 21
680.78717501480276
 31
0.0
  0
LINE
  5
10FE
  8
0
 62
     0
 10
291.29152744812092
 20
688.78717501480276
 30
0.0
 11
199.79152744812089
 21
688.78717501480276
 31
0.0
  0
LINE
  5
10FF
  8
0
 62
     0
 10
291.29152744812092
 20
690.78717501480287
 30
0.0
 11
208.29152744812089
 21
690.78717501480287
 31
0.0
  0
LINE
  5
1100
  8
0
 62
     0
 10
358.29152744812092
 20
648.78717501480287
 30
0.0
 11
199.79152744812089
 21
648.78717501480287
 31
0.0
  0
LINE
  5
1101
  8
0
 62
     0
 10
358.29152744812092
 20
660.78717501480276
 30
0.0
 11
199.79152744812089
 21
660.78717501480276
 31
0.0
  0
LINE
  5
1102
  8
0
 62
     0
 10
358.29152744812092
 20
658.78717501480276
 30
0.0
 11
199.79152744812089
 21
658.78717501480276
 31
0.0
  0
LINE
  5
1103
  8
0
 62
     0
 10
358.29152744812092
 20
650.78717501480276
 30
0.0
 11
199.79152744812089
 21
650.78717501480276
 31
0.0
  0
LINE
  5
1104
  8
0
 62
     0
 10
358.29152744812092
 20
738.78717501480276
 30
0.0
 11
199.79152744812089
 21
738.78717501480276
 31
0.0
  0
LINE
  5
1105
  8
0
 62
     0
 10
358.29152744812092
 20
730.78717501480276
 30
0.0
 11
199.79152744812089
 21
730.78717501480276
 31
0.0
  0
LINE
  5
1106
  8
0
 62
     0
 10
358.29152744812092
 20
728.78717501480287
 30
0.0
 11
199.79152744812089
 21
728.78717501480287
 31
0.0
  0
LINE
  5
1107
  8
0
 62
     0
 10
358.29152744812092
 20
740.78717501480287
 30
0.0
 11
199.79152744812089
 21
740.78717501480287
 31
0.0
  0
LINE
  5
1108
  8
0
 62
     0
 10
291.29152744812092
 20
698.78717501480287
 30
0.0
 11
208.29152744812089
 21
698.78717501480287
 31
0.0
  0
LINE
  5
1109
  8
0
 62
     0
 10
291.29152744812092
 20
700.78717501480276
 30
0.0
 11
199.79152744812089
 21
700.78717501480276
 31
0.0
  0
LINE
  5
110A
  8
0
 62
     0
 10
291.29152744812092
 20
708.78717501480276
 30
0.0
 11
199.79152744812089
 21
708.78717501480276
 31
0.0
  0
LINE
  5
110B
  8
0
 62
     0
 10
291.29152744812092
 20
710.78717501480276
 30
0.0
 11
199.79152744812089
 21
710.78717501480276
 31
0.0
  0
LINE
  5
110C
  8
0
 62
     0
 10
358.29152744812092
 20
720.78717501480276
 30
0.0
 11
339.79152744812092
 21
720.78717501480276
 31
0.0
  0
LINE
  5
110D
  8
0
 62
     0
 10
358.29152744812092
 20
718.78717501480276
 30
0.0
 11
199.79152744812089
 21
718.78717501480276
 31
0.0
  0
LINE
  5
110E
  8
0
 62
     0
 10
359.2915274481208
 20
731.74539501480297
 30
0.0
 11
359.2915274481208
 21
761.28717901480275
 31
0.0
  0
LINE
  5
110F
  8
0
 62
     0
 10
199.79152744812089
 20
775.53714501480272
 30
0.0
 11
199.79152744812089
 21
614.03717501480287
 31
0.0
  0
ARC
  5
1110
  8
0
 62
     0
 10
176.29152744812089
 20
775.0121150148027
 30
0.0
 40
0.5
 50
272.99997000000388
 51
335.54394999999732
  0
ARC
  5
1111
  8
0
 62
     0
 10
150.97743744812081
 20
767.42715501480302
 30
0.0
 40
5.75
 50
92.999985999995815
 51
169.9999800000015
  0
ARC
  5
1112
  8
0
 62
     0
 10
177.88454744812091
 20
774.28714501480295
 30
0.0
 40
1.25
 50
89.999988999997555
 51
155.54397999999961
  0
ARC
  5
1113
  8
0
 62
     0
 10
142.04189744812089
 20
757.38711501480259
 30
0.0
 40
2.25
 50
98.816588000003236
 51
179.99997999999789
  0
ARC
  5
1114
  8
0
 62
     0
 10
141.23720744812081
 20
762.57522501480275
 30
0.0
 40
3.0
 50
278.8169699999973
 51
349.99994999999791
  0
ARC
  5
1115
  8
0
 62
     0
 10
142.04189744812089
 20
632.18719501480291
 30
0.0
 40
2.25
 50
179.99997999999789
 51
261.18293999999872
  0
ARC
  5
1116
  8
0
 62
     0
 10
141.23720744812081
 20
626.99921501480299
 30
0.0
 40
3.0
 50
9.9998319999967595
 51
81.183191000000207
  0
ARC
  5
1117
  8
0
 62
     0
 10
176.29152744812089
 20
614.56317501480271
 30
0.0
 40
0.5
 50
24.45639900000074
 51
86.999984999999697
  0
ARC
  5
1118
  8
0
 62
     0
 10
150.97743744812081
 20
622.14813501480273
 30
0.0
 40
5.75
 50
189.99997999999979
 51
266.9999499999962
  0
ARC
  5
1119
  8
0
 62
     0
 10
177.88454744812091
 20
615.28717501480287
 30
0.0
 40
1.25
 50
204.45597000000129
 51
269.99995999999589
  0
ARC
  5
111A
  8
0
 62
     0
 10
356.07204744812088
 20
619.78717501480287
 30
0.0
 40
2.0
 50
269.999989999999
 51
344.96831000000168
  0
ARC
  5
111B
  8
0
 62
     0
 10
355.48396744812089
 20
619.78717501480287
 30
0.0
 40
2.0
 50
269.999989999999
 51
344.96831000000168
  0
ARC
  5
111C
  8
0
 62
     0
 10
339.79152744812092
 20
661.78717501480287
 30
0.0
 40
1.0
 50
179.999989999999
 51
270.0
  0
ARC
  5
111D
  8
0
 62
     0
 10
322.79152744812092
 20
661.78717501480287
 30
0.0
 40
1.0
 50
269.999989999999
 51
0.0000010000014034
  0
ARC
  5
111E
  8
0
 62
     0
 10
322.79152744812092
 20
727.78717501480287
 30
0.0
 40
1.0
 50
0.0
 51
90.00000299999769
  0
ARC
  5
111F
  8
0
 62
     0
 10
339.79152744812092
 20
727.78717501480287
 30
0.0
 40
1.0
 50
90.00000299999769
 51
180.000010000001
  0
ARC
  5
1120
  8
0
 62
     0
 10
339.79152744812092
 20
667.78717501480276
 30
0.0
 40
1.0
 50
90.00000299999769
 51
180.000010000001
  0
ARC
  5
1121
  8
0
 62
     0
 10
322.79152744812092
 20
667.78717501480276
 30
0.0
 40
1.0
 50
0.0
 51
90.00000299999769
  0
ARC
  5
1122
  8
0
 62
     0
 10
339.79152744812092
 20
721.78717501480276
 30
0.0
 40
1.0
 50
179.999989999999
 51
270.0
  0
ARC
  5
1123
  8
0
 62
     0
 10
322.79152744812092
 20
721.78717501480276
 30
0.0
 40
1.0
 50
269.999989999999
 51
0.0000010000014034
  0
CIRCLE
  5
1124
  8
0
 62
     0
 10
333.79152744812092
 20
723.28717501480276
 30
0.0
 40
1.0
  0
CIRCLE
  5
1125
  8
0
 62
     0
 10
328.79152744812092
 20
723.28717501480276
 30
0.0
 40
1.149999999999999
  0
CIRCLE
  5
1126
  8
0
 62
     0
 10
328.79152744812092
 20
723.28717501480276
 30
0.0
 40
1.1000000000000001
  0
CIRCLE
  5
1127
  8
0
 62
     0
 10
328.79152744812092
 20
666.28717501480287
 30
0.0
 40
1.1000000000000001
  0
CIRCLE
  5
1128
  8
0
 62
     0
 10
328.79152744812092
 20
666.28717501480287
 30
0.0
 40
1.149999999999999
  0
CIRCLE
  5
1129
  8
0
 62
     0
 10
333.79152744812092
 20
666.28717501480287
 30
0.0
 40
1.0
  0
ARC
  5
112A
  8
0
 62
     0
 10
291.29152744812092
 20
709.78717501480276
 30
0.0
 40
1.0
 50
269.999989999999
 51
90.00000299999769
  0
ARC
  5
112B
  8
0
 62
     0
 10
291.29152744812092
 20
699.78717501480276
 30
0.0
 40
1.0
 50
269.999989999999
 51
90.00000299999769
  0
ARC
  5
112C
  8
0
 62
     0
 10
291.29152744812092
 20
689.78717501480276
 30
0.0
 40
1.0
 50
269.999989999999
 51
90.00000299999769
  0
ARC
  5
112D
  8
0
 62
     0
 10
291.29152744812092
 20
679.78717501480276
 30
0.0
 40
1.0
 50
269.999989999999
 51
90.00000299999769
  0
ARC
  5
112E
  8
0
 62
     0
 10
356.34151744812101
 20
659.78717501480276
 30
0.0
 40
1.0
 50
269.999989999999
 51
90.00000299999769
  0
ARC
  5
112F
  8
0
 62
     0
 10
358.29152744812092
 20
659.78717501480276
 30
0.0
 40
1.0
 50
269.999989999999
 51
90.00000299999769
  0
ARC
  5
1130
  8
0
 62
     0
 10
356.34151744812101
 20
669.78717501480287
 30
0.0
 40
1.0
 50
269.999989999999
 51
90.00000299999769
  0
ARC
  5
1131
  8
0
 62
     0
 10
358.29152744812092
 20
669.78717501480287
 30
0.0
 40
1.0
 50
269.999989999999
 51
90.00000299999769
  0
ARC
  5
1132
  8
0
 62
     0
 10
356.34151744812101
 20
719.78717501480287
 30
0.0
 40
1.0
 50
269.999989999999
 51
90.00000299999769
  0
ARC
  5
1133
  8
0
 62
     0
 10
358.29152744812092
 20
719.78717501480287
 30
0.0
 40
1.0
 50
269.999989999999
 51
90.00000299999769
  0
ARC
  5
1134
  8
0
 62
     0
 10
356.34151744812101
 20
729.78717501480276
 30
0.0
 40
1.0
 50
269.999989999999
 51
90.00000299999769
  0
ARC
  5
1135
  8
0
 62
     0
 10
358.29152744812092
 20
729.78717501480276
 30
0.0
 40
1.0
 50
269.999989999999
 51
90.00000299999769
  0
ARC
  5
1136
  8
0
 62
     0
 10
208.29152744812089
 20
697.78717501480276
 30
0.0
 40
1.0
 50
90.00000299999769
 51
180.000010000001
  0
ARC
  5
1137
  8
0
 62
     0
 10
208.29152744812089
 20
691.78717501480276
 30
0.0
 40
1.0
 50
179.999989999999
 51
270.0
  0
ARC
  5
1138
  8
0
 62
     0
 10
208.29149744812091
 20
679.78717501480276
 30
0.0
 40
1.0
 50
90.00000299999769
 51
270.0
  0
ARC
  5
1139
  8
0
 62
     0
 10
208.29149744812091
 20
669.78717501480287
 30
0.0
 40
1.0
 50
90.00000299999769
 51
270.0
  0
ARC
  5
113A
  8
0
 62
     0
 10
356.34151744812101
 20
649.78717501480276
 30
0.0
 40
1.0
 50
269.999989999999
 51
90.00000299999769
  0
ARC
  5
113B
  8
0
 62
     0
 10
358.29152744812092
 20
649.78717501480276
 30
0.0
 40
1.0
 50
269.999989999999
 51
90.00000299999769
  0
ARC
  5
113C
  8
0
 62
     0
 10
208.29149744812091
 20
649.78717501480276
 30
0.0
 40
1.0
 50
90.00000299999769
 51
270.0
  0
ARC
  5
113D
  8
0
 62
     0
 10
208.29149744812091
 20
659.78717501480276
 30
0.0
 40
1.0
 50
90.00000299999769
 51
270.0
  0
ARC
  5
113E
  8
0
 62
     0
 10
360.43758744812089
 20
622.56677501480283
 30
0.0
 40
1.4952499999999991
 50
140.03764999999859
 51
165.2626000000021
  0
ARC
  5
113F
  8
0
 62
     0
 10
360.43251744812102
 20
624.74267501480278
 30
0.0
 40
1.4940209999999989
 50
139.79258000000129
 51
164.69034000000019
  0
ARC
  5
1140
  8
0
 62
     0
 10
360.4356874481208
 20
768.554235014803
 30
0.0
 40
1.495147999999999
 50
195.00188999999639
 51
195.00621300000489
  0
ARC
  5
1141
  8
0
 62
     0
 10
208.29149744812091
 20
729.78717501480276
 30
0.0
 40
1.0
 50
90.00000299999769
 51
270.0
  0
ARC
  5
1142
  8
0
 62
     0
 10
208.29149744812091
 20
739.78717501480276
 30
0.0
 40
1.0
 50
90.00000299999769
 51
270.0
  0
ARC
  5
1143
  8
0
 62
     0
 10
358.29152744812092
 20
739.78717501480276
 30
0.0
 40
1.0
 50
269.999989999999
 51
90.00000299999769
  0
ARC
  5
1144
  8
0
 62
     0
 10
356.34151744812101
 20
739.78717501480276
 30
0.0
 40
1.0
 50
269.999989999999
 51
90.00000299999769
  0
ARC
  5
1145
  8
0
 62
     0
 10
208.29149744812091
 20
719.78717501480287
 30
0.0
 40
1.0
 50
90.00000299999769
 51
270.0
  0
ARC
  5
1146
  8
0
 62
     0
 10
208.29149744812091
 20
709.78717501480276
 30
0.0
 40
1.0
 50
90.00000299999769
 51
270.0
  0
LINE
  5
1147
  8
0
 62
     0
 10
369.2915334481209
 20
768.28718001480297
 30
0.0
 11
361.23146044812091
 21
768.28718001480297
 31
0.0
  0
LINE
  5
1148
  8
0
 62
     0
 10
360.29152744812092
 20
657.82895501480289
 30
0.0
 11
369.29152744812092
 21
657.82895501480289
 31
0.0
  0
LINE
  5
1149
  8
0
 62
     0
 10
360.29152744812092
 20
731.74539501480297
 30
0.0
 11
369.29152744812092
 21
731.74539501480297
 31
0.0
  0
LINE
  5
114A
  8
0
  6
AM_ISO08W050
 10
131.2359954357116
 20
694.78717501480287
 30
0.0
 11
605.99779672945988
 21
694.78717501480287
 31
0.0
  0
ARC
  5
114B
  8
0
  6
CONTINUOUS
 62
     0
 10
356.89153444812098
 20
640.47820201480283
 30
0.0
 40
2.2000009999999981
 50
90.000022000001564
 51
179.99999700000231
  0
ARC
  5
114C
  8
0
  6
CONTINUOUS
 62
     0
 10
356.89153444812098
 20
635.87819601480282
 30
0.0
 40
2.1999970000000002
 50
180.00001799999919
 51
270.0
  0
LINE
  5
114D
  8
0
  6
CONTINUOUS
 62
     0
 10
359.29152544812098
 20
638.22764401480288
 30
0.0
 11
357.99152544812102
 21
638.97819901480273
 31
0.0
  0
LINE
  5
114E
  8
0
  6
CONTINUOUS
 62
     0
 10
359.29152544812098
 20
637.22764401480265
 30
0.0
 11
357.99152544812102
 21
637.97819901480273
 31
0.0
  0
LINE
  5
114F
  8
0
  6
CONTINUOUS
 62
     0
 10
357.99152544812102
 20
633.57819901480275
 30
0.0
 11
359.29152544812098
 21
633.57819901480275
 31
0.0
  0
LINE
  5
1150
  8
0
  6
CONTINUOUS
 62
     0
 10
357.99152544812102
 20
642.77819901480268
 30
0.0
 11
359.29152544812098
 21
642.77819901480268
 31
0.0
  0
LINE
  5
1151
  8
0
  6
CONTINUOUS
 62
     0
 10
359.29152544812098
 20
633.57819901480275
 30
0.0
 11
359.29152544812098
 21
642.77819901480268
 31
0.0
  0
LINE
  5
1152
  8
0
  6
CONTINUOUS
 62
     0
 10
354.69152244812102
 20
635.87819601480282
 30
0.0
 11
354.69152244812102
 21
640.47820201480283
 31
0.0
  0
LINE
  5
1153
  8
0
  6
CONTINUOUS
 62
     0
 10
357.99152544812102
 20
633.57819901480275
 30
0.0
 11
357.99152544812102
 21
642.77819901480268
 31
0.0
  0
LINE
  5
1154
  8
0
  6
CONTINUOUS
 62
     0
 10
357.99152544812102
 20
642.67819901480289
 30
0.0
 11
356.89153444812098
 21
642.67819901480289
 31
0.0
  0
LINE
  5
1155
  8
0
  6
CONTINUOUS
 62
     0
 10
357.99152544812102
 20
633.67819901480266
 30
0.0
 11
356.89153444812098
 21
633.67819901480266
 31
0.0
  0
ARC
  5
1156
  8
0
  6
CONTINUOUS
 62
     0
 10
356.89153644812092
 20
749.09614901480302
 30
0.0
 40
2.2000009999999981
 50
180.00000299999761
 51
269.99997799999852
  0
ARC
  5
1157
  8
0
  6
CONTINUOUS
 62
     0
 10
356.89153644812092
 20
753.69615501480291
 30
0.0
 40
2.1999970000000002
 50
90.0
 51
179.99998200000081
  0
LINE
  5
1158
  8
0
  6
CONTINUOUS
 62
     0
 10
359.2915274481208
 20
751.34670701480286
 30
0.0
 11
357.99152744812091
 21
750.59615201480301
 31
0.0
  0
LINE
  5
1159
  8
0
  6
CONTINUOUS
 62
     0
 10
359.2915274481208
 20
752.34670701480275
 30
0.0
 11
357.99152744812091
 21
751.59615201480301
 31
0.0
  0
LINE
  5
115A
  8
0
  6
CONTINUOUS
 62
     0
 10
357.99152744812091
 20
755.99615201480287
 30
0.0
 11
359.2915274481208
 21
755.99615201480287
 31
0.0
  0
LINE
  5
115B
  8
0
  6
CONTINUOUS
 62
     0
 10
357.99152744812091
 20
746.79615201480271
 30
0.0
 11
359.2915274481208
 21
746.79615201480271
 31
0.0
  0
LINE
  5
115C
  8
0
  6
CONTINUOUS
 62
     0
 10
359.2915274481208
 20
755.99615201480287
 30
0.0
 11
359.2915274481208
 21
746.79615201480271
 31
0.0
  0
LINE
  5
115D
  8
0
  6
CONTINUOUS
 62
     0
 10
354.6915244481209
 20
753.69615501480291
 30
0.0
 11
354.6915244481209
 21
749.09614901480302
 31
0.0
  0
LINE
  5
115E
  8
0
  6
CONTINUOUS
 62
     0
 10
357.99152744812091
 20
755.99615201480287
 30
0.0
 11
357.99152744812091
 21
746.79615201480271
 31
0.0
  0
LINE
  5
115F
  8
0
  6
CONTINUOUS
 62
     0
 10
357.99152744812091
 20
746.89615201480274
 30
0.0
 11
356.89153644812092
 21
746.89615201480274
 31
0.0
  0
LINE
  5
1160
  8
0
  6
CONTINUOUS
 62
     0
 10
357.99152744812091
 20
755.89615201480274
 30
0.0
 11
356.89153644812092
 21
755.89615201480274
 31
0.0
  0
LINE
  5
1425
  8
0
  6
CONTINUOUS
 62
     7
 10
425.79146744812078
 20
595.28716001480291
 30
0.0
 11
425.79146744812078
 21
794.28716001480245
 31
0.0
  0
LINE
  5
1426
  8
0
  6
CONTINUOUS
 62
     7
 10
415.79146744812061
 20
629.71495001480275
 30
0.0
 11
415.79146744812061
 21
759.85936001480297
 31
0.0
  0
LINE
  5
1427
  8
0
  6
CONTINUOUS
 62
     7
 10
418.68679744812073
 20
595.53523001480301
 30
0.0
 11
425.79140744812088
 21
595.28716001480291
 31
0.0
  0
LINE
  5
1428
  8
0
  6
CONTINUOUS
 62
     7
 10
403.79146744812061
 20
603.86605001480302
 30
0.0
 11
403.79146744812061
 21
785.70830001480317
 31
0.0
  0
LINE
  5
1429
  8
0
  6
CONTINUOUS
 62
     7
 10
403.79146744812061
 20
626.71495001480275
 30
0.0
 11
412.79146744812078
 21
626.71495001480275
 31
0.0
  0
LINE
  5
142A
  8
0
  6
CONTINUOUS
 62
     7
 10
403.79146744812061
 20
637.46959001480286
 30
0.0
 11
415.79146744812061
 21
637.46959001480286
 31
0.0
  0
LINE
  5
142B
  8
0
  6
CONTINUOUS
 62
     7
 10
403.79146744812061
 20
762.85936001480275
 30
0.0
 11
412.79146744812078
 21
762.85936001480275
 31
0.0
  0
LINE
  5
142C
  8
0
  6
CONTINUOUS
 62
     7
 10
403.79146744812061
 20
752.10472001480287
 30
0.0
 11
415.79146744812061
 21
752.10472001480287
 31
0.0
  0
LINE
  5
142D
  8
0
  6
CONTINUOUS
 62
     7
 10
406.79146744812061
 20
611.89714001480274
 30
0.0
 11
412.79146744812078
 21
611.89714001480274
 31
0.0
  0
LINE
  5
142E
  8
0
  6
CONTINUOUS
 62
     7
 10
415.79146744812061
 20
598.53343001480289
 30
0.0
 11
415.79146744812061
 21
608.89714001480297
 31
0.0
  0
LINE
  5
142F
  8
0
  6
CONTINUOUS
 62
     7
 10
406.79146744812061
 20
600.86605001480302
 30
0.0
 11
412.82869744812058
 21
600.86605001480302
 31
0.0
  0
LINE
  5
1430
  8
0
  6
CONTINUOUS
 62
     7
 10
406.79146744812061
 20
788.70830001480294
 30
0.0
 11
412.82869744812058
 21
788.70830001480294
 31
0.0
  0
LINE
  5
1431
  8
0
  6
CONTINUOUS
 62
     7
 10
415.79146744812061
 20
791.04088001480295
 30
0.0
 11
415.79146744812061
 21
780.67717001480332
 31
0.0
  0
LINE
  5
1432
  8
0
  6
CONTINUOUS
 62
     7
 10
406.79146744812061
 20
777.67717001480275
 30
0.0
 11
412.79146744812078
 21
777.67717001480275
 31
0.0
  0
LINE
  5
1433
  8
0
  6
CONTINUOUS
 62
     7
 10
418.68673744812082
 20
794.03905001480291
 30
0.0
 11
425.79140744812088
 21
794.28716001480245
 31
0.0
  0
LINE
  5
1434
  8
0
  6
CONTINUOUS
 62
     7
 10
517.8503074481207
 20
590.72835001480303
 30
0.0
 11
523.79152744812075
 21
584.78713001480321
 31
0.0
  0
LINE
  5
1435
  8
0
  6
CONTINUOUS
 62
     7
 10
425.79152744812058
 20
595.28716001480291
 30
0.0
 11
514.48925744812061
 21
592.18975001480283
 31
0.0
  0
LINE
  5
1436
  8
0
  6
CONTINUOUS
 62
     7
 10
527.50695744812083
 20
601.19551001480284
 30
0.0
 11
527.68679744812061
 21
601.189230014803
 31
0.0
  0
LINE
  5
1437
  8
0
  6
CONTINUOUS
 62
     7
 10
600.79152744812075
 20
710.78716001480245
 30
0.0
 11
542.79149744812059
 21
710.78716001480245
 31
0.0
  0
LINE
  5
1438
  8
0
  6
CONTINUOUS
 62
     7
 10
526.68679744812061
 20
577.70983001480283
 30
0.0
 11
538.79149744812059
 21
577.28713001480321
 31
0.0
  0
LINE
  5
1439
  8
0
  6
CONTINUOUS
 62
     7
 10
600.79152744812075
 20
678.78719001480283
 30
0.0
 11
542.79149744812059
 21
678.78719001480283
 31
0.0
  0
LINE
  5
143A
  8
0
  6
CONTINUOUS
 62
     7
 10
600.79152744812075
 20
678.78719001480283
 30
0.0
 11
600.79152744812075
 21
710.78716001480245
 31
0.0
  0
LINE
  5
143B
  8
0
  6
CONTINUOUS
 62
     7
 10
526.79149744812059
 20
638.87642001480276
 30
0.0
 11
530.79149744812059
 21
638.87642001480276
 31
0.0
  0
LINE
  5
143C
  8
0
  6
CONTINUOUS
 62
     7
 10
542.79149744812059
 20
589.78713001480276
 30
0.0
 11
542.79149744812059
 21
799.78716001480302
 31
0.0
  0
LINE
  5
143D
  8
0
  6
CONTINUOUS
 62
     7
 10
538.79149744812059
 20
799.78716001480302
 30
0.0
 11
542.79149744812059
 21
799.78716001480302
 31
0.0
  0
LINE
  5
143E
  8
0
  6
CONTINUOUS
 62
     7
 10
527.50695744812083
 20
788.37877001480297
 30
0.0
 11
527.68679744812061
 21
788.385060014803
 31
0.0
  0
LINE
  5
143F
  8
0
  6
CONTINUOUS
 62
     7
 10
526.79149744812059
 20
750.69792001480255
 30
0.0
 11
530.79149744812059
 21
750.69792001480255
 31
0.0
  0
LINE
  5
1440
  8
0
  6
CONTINUOUS
 62
     7
 10
538.79149744812059
 20
577.28716001480302
 30
0.0
 11
538.79149744812059
 21
812.28716001480302
 31
0.0
  0
LINE
  5
1441
  8
0
  6
CONTINUOUS
 62
     7
 10
526.68682744812077
 20
811.86449001480298
 30
0.0
 11
538.79149744812059
 21
812.28716001480302
 31
0.0
  0
LINE
  5
1442
  8
0
  6
CONTINUOUS
 62
     7
 10
530.79149744812059
 20
604.18743001480289
 30
0.0
 11
530.79149744812059
 21
785.3868900148027
 31
0.0
  0
LINE
  5
1443
  8
0
  6
CENTER
 62
     7
 10
548.27346744812064
 20
790.24663001480303
 30
0.0
 11
517.18749744812055
 21
790.24663001480303
 31
0.0
  0
LINE
  5
1444
  8
0
  6
CONTINUOUS
 62
     7
 10
425.79152744812058
 20
794.28716001480245
 30
0.0
 11
514.48928744812065
 21
797.38457001480288
 31
0.0
  0
LINE
  5
1445
  8
0
  6
CENTER
 62
     7
 10
548.27346744812064
 20
599.3277500148032
 30
0.0
 11
517.18749744812055
 21
599.3277500148032
 31
0.0
  0
LINE
  5
1446
  8
0
  6
CONTINUOUS
 62
     7
 10
517.8503074481207
 20
798.845930014803
 30
0.0
 11
523.79149744812082
 21
804.78716001480291
 31
0.0
  0
LINE
  5
1447
  8
0
  6
CONTINUOUS
 62
     7
 10
523.79149744812082
 20
580.70803001480283
 30
0.0
 11
523.79149744812082
 21
808.86626001480261
 31
0.0
  0
LINE
  5
1448
  8
0
  6
CONTINUOUS
 62
     7
 10
538.79149744812059
 20
589.78713001480276
 30
0.0
 11
542.79149744812059
 21
589.78713001480276
 31
0.0
  0
LINE
  5
1449
  8
0
  6
CONTINUOUS
 62
     7
 10
555.79149744812059
 20
699.78716001480302
 30
0.0
 11
555.79149744812059
 21
689.78716001480302
 31
0.0
  0
LINE
  5
144A
  8
0
  6
CONTINUOUS
 62
     7
 10
555.79149744812059
 20
699.78716001480302
 30
0.0
 11
600.79152744812075
 21
699.78716001480302
 31
0.0
  0
LINE
  5
144B
  8
0
  6
CONTINUOUS
 62
     7
 10
555.79149744812059
 20
689.78716001480302
 30
0.0
 11
600.79152744812075
 21
689.78716001480302
 31
0.0
  0
ARC
  5
144C
  8
0
  6
CONTINUOUS
 62
     7
 10
400.79146744812078
 20
772.38896001480305
 30
0.0
 40
3.0
 50
271.99999999999721
 51
0.0
  0
ARC
  5
144D
  8
0
  6
CONTINUOUS
 62
     7
 10
400.79146744812078
 20
617.18532001480298
 30
0.0
 40
3.0
 50
0.0
 51
88.000000000002785
  0
ARC
  5
144E
  8
0
  6
CONTINUOUS
 62
     7
 10
412.79146744812078
 20
629.71495001480275
 30
0.0
 40
3.0
 50
270.0
 51
0.0
  0
ARC
  5
144F
  8
0
  6
CONTINUOUS
 62
     7
 10
412.79146744812078
 20
759.85936001480297
 30
0.0
 40
3.0
 50
0.0
 51
90.00000299999769
  0
ARC
  5
1450
  8
0
  6
CONTINUOUS
 62
     7
 10
412.79146744812078
 20
608.89714001480297
 30
0.0
 40
3.0
 50
0.0
 51
90.00000299999769
  0
ARC
  5
1451
  8
0
  6
CONTINUOUS
 62
     7
 10
418.79146744812073
 20
598.53343001480289
 30
0.0
 40
3.0
 50
180.000010000001
 51
268.0000000000029
  0
ARC
  5
1452
  8
0
  6
CONTINUOUS
 62
     7
 10
406.79146744812061
 20
614.89714001480274
 30
0.0
 40
3.0
 50
180.000010000001
 51
270.0
  0
ARC
  5
1453
  8
0
  6
CONTINUOUS
 62
     7
 10
406.79146744812061
 20
603.86605001480302
 30
0.0
 40
3.0
 50
180.000010000001
 51
270.0
  0
ARC
  5
1454
  8
0
  6
CONTINUOUS
 62
     7
 10
412.82869744812058
 20
597.86605001480302
 30
0.0
 40
3.0
 50
6.3862994000022004
 51
90.00000299999769
  0
ARC
  5
1455
  8
0
  6
CONTINUOUS
 62
     7
 10
412.82869744812058
 20
791.70830001480294
 30
0.0
 40
3.0
 50
270.0
 51
353.61370000000329
  0
ARC
  5
1456
  8
0
  6
CONTINUOUS
 62
     7
 10
406.79146744812061
 20
774.67717001480287
 30
0.0
 40
3.0
 50
90.00000299999769
 51
180.000010000001
  0
ARC
  5
1457
  8
0
  6
CONTINUOUS
 62
     7
 10
418.79146744812073
 20
791.04088001480295
 30
0.0
 40
3.0
 50
91.999998000000545
 51
180.000010000001
  0
ARC
  5
1458
  8
0
  6
CONTINUOUS
 62
     7
 10
412.79146744812078
 20
780.67717001480332
 30
0.0
 40
3.0
 50
270.0
 51
0.0
  0
ARC
  5
1459
  8
0
  6
CONTINUOUS
 62
     7
 10
406.79146744812061
 20
785.70830001480317
 30
0.0
 40
3.0
 50
90.00000299999769
 51
180.000010000001
  0
ARC
  5
145A
  8
0
  6
CONTINUOUS
 62
     7
 10
514.31475744812087
 20
587.19280001480274
 30
0.0
 40
5.0
 50
45.00000099999918
 51
88.000000000002785
  0
ARC
  5
145B
  8
0
  6
CONTINUOUS
 62
     7
 10
527.79149744812082
 20
604.18743001480289
 30
0.0
 40
3.0
 50
268.0000000000029
 51
0.0
  0
ARC
  5
145C
  8
0
  6
CONTINUOUS
 62
     7
 10
527.79149744812082
 20
785.3868900148027
 30
0.0
 40
3.0
 50
0.0
 51
91.999998000000545
  0
ARC
  5
145D
  8
0
  6
CONTINUOUS
 62
     7
 10
526.79149744812059
 20
808.86626001480261
 30
0.0
 40
3.0
 50
91.999998000000545
 51
180.000010000001
  0
ARC
  5
145E
  8
0
  6
CONTINUOUS
 62
     7
 10
526.79149744812059
 20
635.87642001480299
 30
0.0
 40
3.0
 50
90.00000299999769
 51
180.000010000001
  0
ARC
  5
145F
  8
0
  6
CONTINUOUS
 62
     7
 10
526.79149744812059
 20
753.69792001480255
 30
0.0
 40
3.0
 50
179.999989999999
 51
270.0
  0
ARC
  5
1460
  8
0
  6
CONTINUOUS
 62
     7
 10
526.79149744812059
 20
580.70803001480283
 30
0.0
 40
3.0
 50
179.999989999999
 51
268.00000999999861
  0
ARC
  5
1461
  8
0
  6
CONTINUOUS
 62
     7
 10
514.31475744812087
 20
802.38152001480319
 30
0.0
 40
5.0
 50
271.99999999999721
 51
315.0
  0
ARC
  5
1462
  8
0
  6
CONTINUOUS
 62
     7
 10
555.79149744812059
 20
694.78716001480302
 30
0.0
 40
5.0
 50
90.00000299999769
 51
270.0
  0
POLYLINE
  5
1463
  8
0
  6
CONTINUOUS
 62
     7
 66
     1
 10
0.0
 20
0.0
 30
0.0
  0
VERTEX
  5
1464
  8
0
  6
CONTINUOUS
 62
     7
 10
516.45760744812083
 20
797.45329001480275
 30
0.0
 42
0.07982674
  0
VERTEX
  5
1465
  8
0
  6
CONTINUOUS
 62
     7
 10
490.61577744812081
 20
730.54684001480302
 30
0.0
 42
0.10414855
  0
VERTEX
  5
1466
  8
0
  6
CONTINUOUS
 62
     7
 10
490.61584744812058
 20
659.02711001480282
 30
0.0
 42
0.07982627
  0
VERTEX
  5
1467
  8
0
  6
CONTINUOUS
 62
     7
 10
516.45760744812083
 20
592.12102001480298
 30
0.0
  0
SEQEND
  5
1468
  8
0
 62
     7
  0
LINE
  5
14B4
  8
0
  6
CONTINUOUS
 62
     7
 10
600.79152744812075
 20
461.35212809310599
 30
0.0
 11
542.79155744812033
 21
461.35212809310599
 31
0.0
  0
LINE
  5
14B5
  8
0
  6
CONTINUOUS
 62
     7
 10
600.79152744812075
 20
464.3521280931061
 30
0.0
 11
555.79152744812052
 21
464.3521280931061
 31
0.0
  0
LINE
  5
14B6
  8
0
  6
CONTINUOUS
 62
     7
 10
600.79152744812075
 20
429.35214809310582
 30
0.0
 11
542.79155744812033
 21
429.35214809310582
 31
0.0
  0
LINE
  5
14B7
  8
0
  6
CONTINUOUS
 62
     7
 10
555.79152744812052
 20
461.35212809310599
 30
0.0
 11
555.79152744812052
 21
464.3521280931061
 31
0.0
  0
LINE
  5
14B8
  8
0
  6
CONTINUOUS
 62
     7
 10
425.7915574481205
 20
516.85212809310588
 30
0.0
 11
425.7915574481205
 21
317.85212309310612
 31
0.0
  0
LINE
  5
14BA
  8
0
  6
CONTINUOUS
 62
     7
 10
600.79152744812075
 20
429.35214809310582
 30
0.0
 11
600.79152744812075
 21
464.3521280931061
 31
0.0
  0
LINE
  5
14BB
  8
0
  6
CONTINUOUS
 62
     7
 10
425.7915574481205
 20
447.5374680931061
 30
0.0
 11
425.79308744812022
 21
447.5374680931061
 31
0.0
  0
LINE
  5
14BC
  8
0
  6
CONTINUOUS
 62
     7
 10
403.79155744812022
 20
508.37617809310581
 30
0.0
 11
403.79155744812022
 21
326.32869409310598
 31
0.0
  0
LINE
  5
14BD
  8
0
  6
CONTINUOUS
 62
     7
 10
406.6868874481205
 20
511.3743780931058
 30
0.0
 11
413.86132744812051
 21
511.62490809310577
 31
0.0
  0
LINE
  5
14BE
  8
0
  6
CONTINUOUS
 62
     7
 10
415.79155744812027
 20
320.13271409310607
 30
0.0
 11
415.79155744812027
 21
336.93434509310612
 31
0.0
  0
LINE
  5
14BF
  8
0
  6
CONTINUOUS
 62
     7
 10
417.72173744812028
 20
516.5703280931059
 30
0.0
 11
425.79149744812059
 21
516.85212809310588
 31
0.0
  0
LINE
  5
14C0
  8
0
  6
CONTINUOUS
 62
     7
 10
405.7915574481205
 20
500.65478809310588
 30
0.0
 11
413.7915574481205
 21
500.65478809310588
 31
0.0
  0
LINE
  5
14C1
  8
0
  6
CONTINUOUS
 62
     7
 10
405.7915574481205
 20
483.68422809310579
 30
0.0
 11
413.7915574481205
 21
483.68422809310579
 31
0.0
  0
LINE
  5
14C2
  8
0
  6
CONTINUOUS
 62
     7
 10
415.79155744812027
 20
502.65477809310602
 30
0.0
 11
415.79155744812027
 21
514.571548093106
 31
0.0
  0
LINE
  5
14C3
  8
0
  6
CONTINUOUS
 62
     7
 10
405.27007744812062
 20
474.73480809310581
 30
0.0
 11
414.22063744812033
 21
474.73480809310581
 31
0.0
  0
LINE
  5
14C4
  8
0
  6
CONTINUOUS
 62
     7
 10
406.68682744812048
 20
323.32991109310598
 30
0.0
 11
413.86132744812051
 21
323.0793690931061
 31
0.0
  0
LINE
  5
14C5
  8
0
  6
CONTINUOUS
 62
     7
 10
415.79155744812027
 20
356.97188209310599
 30
0.0
 11
415.79155744812027
 21
481.68423809310599
 31
0.0
  0
LINE
  5
14C6
  8
0
  6
CONTINUOUS
 62
     7
 10
417.72173744812028
 20
318.13393409310612
 30
0.0
 11
425.7915574481205
 21
317.85213109310598
 31
0.0
  0
LINE
  5
14C7
  8
0
  6
CONTINUOUS
 62
     7
 10
542.79155744812033
 20
340.3521310931061
 30
0.0
 11
542.79155744812033
 21
550.35215809310603
 31
0.0
  0
LINE
  5
14C8
  8
0
  6
CONTINUOUS
 62
     7
 10
538.79152744812052
 20
550.35215809310603
 30
0.0
 11
542.79155744812033
 21
550.35215809310603
 31
0.0
  0
LINE
  5
14C9
  8
0
  6
CONTINUOUS
 62
     7
 10
527.50698744812053
 20
538.94374809310602
 30
0.0
 11
527.68682744812054
 21
538.95002809310574
 31
0.0
  0
LINE
  5
14CA
  8
0
  6
CONTINUOUS
 62
     7
 10
486.89153744812029
 20
518.45207809310602
 30
0.0
 11
494.12169744812041
 21
517.29081809310605
 31
0.0
  0
LINE
  5
14CB
  8
0
  6
CONTINUOUS
 62
     7
 10
526.79152744812052
 20
383.66285809310602
 30
0.0
 11
530.79155744812056
 21
383.66285809310602
 31
0.0
  0
LINE
  5
14CC
  8
0
  6
CONTINUOUS
 62
     7
 10
526.79152744812052
 20
413.58789809310582
 30
0.0
 11
530.79155744812056
 21
413.58789809310582
 31
0.0
  0
LINE
  5
14CD
  8
0
  6
CONTINUOUS
 62
     7
 10
526.79152744812052
 20
501.26287809310583
 30
0.0
 11
530.79155744812056
 21
501.26287809310583
 31
0.0
  0
LINE
  5
14CE
  8
0
  6
CENTER
 62
     7
 10
548.13668744812048
 20
349.892719093106
 30
0.0
 11
517.26665744812033
 21
349.892719093106
 31
0.0
  0
LINE
  5
14CF
  8
0
  6
CONTINUOUS
 62
     7
 10
403.79155744812022
 20
356.97188209310599
 30
0.0
 11
522.0550474481206
 21
356.97188209310599
 31
0.0
  0
LINE
  5
14D0
  8
0
  6
CONTINUOUS
 62
     7
 10
511.02846744812058
 20
315.620114093106
 30
0.0
 11
531.79152744812052
 21
327.60767809310607
 31
0.0
  0
LINE
  5
14D1
  8
0
  6
CONTINUOUS
 62
     7
 10
511.67940744812029
 20
494.38914809310609
 30
0.0
 11
507.25865744812052
 21
451.78527809310577
 31
0.0
  0
LINE
  5
14D2
  8
0
  6
CONTINUOUS
 62
     7
 10
403.79155744812022
 20
496.5565680931058
 30
0.0
 11
510.78502744812027
 21
496.5565680931058
 31
0.0
  0
LINE
  5
14D3
  8
0
  6
CONTINUOUS
 62
     7
 10
523.79152744812029
 20
416.58789809310611
 30
0.0
 11
523.79152744812029
 21
504.26287809310583
 31
0.0
  0
LINE
  5
14D4
  8
0
  6
CONTINUOUS
 62
     7
 10
523.79152744812029
 20
330.43491009310611
 30
0.0
 11
523.79152744812029
 21
380.66285809310591
 31
0.0
  0
LINE
  5
14D5
  8
0
  6
CONTINUOUS
 62
     7
 10
403.79155744812022
 20
336.93434509310612
 30
0.0
 11
522.0550474481206
 21
336.93434509310612
 31
0.0
  0
LINE
  5
14D6
  8
0
  6
CONTINUOUS
 62
     7
 10
538.79152744812052
 20
327.8521310931061
 30
0.0
 11
538.79152744812052
 21
445.35212809310599
 31
0.0
  0
LINE
  5
14D7
  8
0
  6
CONTINUOUS
 62
     7
 10
538.79152744812052
 20
445.35212809310599
 30
0.0
 11
538.79152744812052
 21
562.85212809310576
 31
0.0
  0
LINE
  5
14D8
  8
0
  6
CONTINUOUS
 62
     7
 10
526.68685744812069
 20
562.42939809310576
 30
0.0
 11
538.79152744812052
 21
562.85212809310576
 31
0.0
  0
LINE
  5
14D9
  8
0
  6
CONTINUOUS
 62
     7
 10
526.07607744812026
 20
350.92242109310598
 30
0.0
 11
527.89623744812047
 21
350.98598109310609
 31
0.0
  0
LINE
  5
14DA
  8
0
  6
CONTINUOUS
 62
     7
 10
530.79155744812056
 20
445.35212809310599
 30
0.0
 11
530.79155744812056
 21
535.95185809310601
 31
0.0
  0
LINE
  5
14DB
  8
0
  6
CONTINUOUS
 62
     7
 10
538.79152744812052
 20
340.3521310931061
 30
0.0
 11
542.79155744812033
 21
340.3521310931061
 31
0.0
  0
LINE
  5
14DC
  8
0
  6
CONTINUOUS
 62
     7
 10
530.79155744812056
 20
353.98415009310611
 30
0.0
 11
530.79155744812056
 21
445.35212809310599
 31
0.0
  0
LINE
  5
14DD
  8
0
  6
CENTER
 62
     7
 10
547.61345744812024
 20
540.81153809310604
 30
0.0
 11
519.35955744812054
 21
540.81153809310604
 31
0.0
  0
LINE
  5
14DE
  8
0
  6
CONTINUOUS
 62
     7
 10
526.89623744812025
 20
327.43674109310609
 30
0.0
 11
538.79152744812052
 21
327.85213909310608
 31
0.0
  0
LINE
  5
14DF
  8
0
  6
CONTINUOUS
 62
     7
 10
425.7915574481205
 20
317.85213109310598
 30
0.0
 11
511.02852744812049
 21
315.62012109310598
 31
0.0
  0
LINE
  5
14E0
  8
0
  6
CONTINUOUS
 62
     7
 10
425.7915574481205
 20
516.85212809310588
 30
0.0
 11
484.8973974481205
 21
518.39987809310605
 31
0.0
  0
LINE
  5
14E1
  8
0
  6
CONTINUOUS
 62
     7
 10
488.30205744812042
 20
519.86259809310604
 30
0.0
 11
523.79155744812033
 21
555.35212809310576
 31
0.0
  0
LINE
  5
14E2
  8
0
  6
CONTINUOUS
 62
     7
 10
523.79152744812029
 20
504.26287809310583
 30
0.0
 11
523.79152744812029
 21
559.43126809310604
 31
0.0
  0
ARC
  5
14E3
  8
0
  6
CONTINUOUS
 62
     7
 10
413.7915574481205
 20
513.6236880931059
 30
0.0
 40
2.0
 50
271.9999999999971
 51
0.0
  0
ARC
  5
14E4
  8
0
  6
CONTINUOUS
 62
     7
 10
406.79155744812027
 20
508.37617809310581
 30
0.0
 40
3.0
 50
91.999998000000545
 51
180.0000099999977
  0
ARC
  5
14E5
  8
0
  6
CONTINUOUS
 62
     7
 10
406.79155744812027
 20
326.32869409310598
 30
0.0
 40
3.0
 50
179.999989999999
 51
268.00000999999861
  0
ARC
  5
14E6
  8
0
  6
CONTINUOUS
 62
     7
 10
417.7915574481205
 20
514.571548093106
 30
0.0
 40
2.0
 50
91.999998000000545
 51
180.0000099999977
  0
ARC
  5
14E7
  8
0
  6
CONTINUOUS
 62
     7
 10
400.7915574481205
 20
339.75030209310597
 30
0.0
 40
3.0
 50
0.0
 51
87.999999999996405
  0
ARC
  5
14E8
  8
0
  6
CONTINUOUS
 62
     7
 10
400.7915574481205
 20
494.95398809310598
 30
0.0
 40
3.0
 50
271.9999999999971
 51
0.0
  0
ARC
  5
14E9
  8
0
  6
CONTINUOUS
 62
     7
 10
413.7915574481205
 20
481.68423809310599
 30
0.0
 40
2.0
 50
0.0
 51
90.00000299999769
  0
ARC
  5
14EA
  8
0
  6
CONTINUOUS
 62
     7
 10
405.7915574481205
 20
485.68422809310579
 30
0.0
 40
2.0
 50
179.999989999999
 51
270.0
  0
ARC
  5
14EB
  8
0
  6
CONTINUOUS
 62
     7
 10
413.7915574481205
 20
502.65477809310602
 30
0.0
 40
2.0
 50
270.0
 51
0.0
  0
ARC
  5
14EC
  8
0
  6
CONTINUOUS
 62
     7
 10
405.7915574481205
 20
498.65478809310599
 30
0.0
 40
2.0
 50
90.00000299999769
 51
180.0000099999977
  0
ARC
  5
14ED
  8
0
  6
CONTINUOUS
 62
     7
 10
413.7915574481205
 20
321.08059309310602
 30
0.0
 40
2.0
 50
0.0
 51
87.999999999996405
  0
ARC
  5
14EE
  8
0
  6
CONTINUOUS
 62
     7
 10
417.7915574481205
 20
320.13271409310607
 30
0.0
 40
2.0
 50
179.999989999999
 51
268.00000999999861
  0
ARC
  5
14EF
  8
0
  6
CONTINUOUS
 62
     7
 10
406.79155744812027
 20
326.32808709310609
 30
0.0
 40
3.0
 50
179.999989999999
 51
268.00000999999861
  0
ARC
  5
14F0
  8
0
  6
CONTINUOUS
 62
     7
 10
484.76647744812072
 20
523.39814809310599
 30
0.0
 40
5.0
 50
271.50000000000267
 51
315.0
  0
ARC
  5
14F1
  8
0
  6
CONTINUOUS
 62
     7
 10
527.79155744812033
 20
535.95185809310601
 30
0.0
 40
3.0
 50
0.0
 51
91.999998000000545
  0
ARC
  5
14F2
  8
0
  6
CONTINUOUS
 62
     7
 10
526.79152744812052
 20
559.43126809310604
 30
0.0
 40
3.0
 50
91.999998000000545
 51
180.0000099999977
  0
ARC
  5
14F3
  8
0
  6
CONTINUOUS
 62
     7
 10
526.79152744812052
 20
504.26287809310583
 30
0.0
 40
3.0
 50
179.999989999999
 51
270.0
  0
ARC
  5
14F4
  8
0
  6
CONTINUOUS
 62
     7
 10
527.79155744812033
 20
353.98415009310611
 30
0.0
 40
3.0
 50
271.9999999999971
 51
0.0
  0
ARC
  5
14F5
  8
0
  6
CONTINUOUS
 62
     7
 10
526.79152744812052
 20
416.58789809310611
 30
0.0
 40
3.0
 50
179.999989999999
 51
270.0
  0
ARC
  5
14F6
  8
0
  6
CONTINUOUS
 62
     7
 10
526.79152744812052
 20
380.66285809310591
 30
0.0
 40
3.0
 50
90.00000299999769
 51
180.0000099999977
  0
ARC
  5
14F7
  8
0
  6
CONTINUOUS
 62
     7
 10
547.04503744812064
 20
447.65689809310618
 30
0.0
 40
40.0
 50
174.0759799999995
 51
234.4553399999995
  0
ARC
  5
14F8
  8
0
  6
CONTINUOUS
 62
     7
 10
490.79152744812041
 20
496.5565680931058
 30
0.0
 40
21.0
 50
354.07597999999962
 51
80.875525000003066
  0
ARC
  5
14F9
  8
0
  6
CONTINUOUS
 62
     7
 10
526.79152744812052
 20
330.43491009310611
 30
0.0
 40
3.0
 50
179.999989999999
 51
271.99999000000139
  0
LINE
  5
1562
  8
0
  6
AM_ISO08W050
 10
832.80054622463615
 20
310.573551093106
 30
0.0
 11
832.80054622463615
 21
569.89537809310571
 31
0.0
  0
LINE
  5
1563
  8
0
  6
AM_ISO08W050
 10
710.45404622463593
 20
445.35212809310588
 30
0.0
 11
955.70412722463595
 21
445.35212809310588
 31
0.0
  0
LINE
  5
1564
  8
0
  6
CONTINUOUS
 62
     7
 10
711.84753622463609
 20
378.37617809310592
 30
0.0
 11
714.86749622463594
 21
377.90318809310583
 31
0.0
  0
LINE
  5
1565
  8
0
  6
CONTINUOUS
 62
     7
 10
711.88632622463592
 20
456.33323809310588
 30
0.0
 11
715.30054622463592
 21
456.86798809310602
 31
0.0
  0
LINE
  5
1566
  8
0
  6
CONTINUOUS
 62
     7
 10
705.7955062246358
 20
386.302118093106
 30
0.0
 11
705.7955062246358
 21
448.40115809310578
 31
0.0
  0
LINE
  5
1567
  8
0
  6
CONTINUOUS
 62
     7
 10
880.80054122463594
 20
445.35212809310588
 30
0.0
 11
880.80054122463594
 21
407.35214809310582
 31
0.0
  0
LINE
  5
1568
  8
0
  6
CONTINUOUS
 62
     7
 10
835.80054622463581
 20
525.86683809310603
 30
0.0
 11
835.80054622463581
 21
519.676378093106
 31
0.0
  0
LINE
  5
1569
  8
0
  6
CONTINUOUS
 62
     7
 10
829.80054622463604
 20
525.86683809310603
 30
0.0
 11
829.80054622463604
 21
519.676378093106
 31
0.0
  0
LINE
  5
156A
  8
0
  6
CONTINUOUS
 62
     7
 10
832.80054622463615
 20
327.85213109310598
 30
0.0
 11
862.80054622463604
 21
327.85213109310598
 31
0.0
  0
LINE
  5
156B
  8
0
  6
CONTINUOUS
 62
     7
 10
950.30053722463595
 20
415.35212809310582
 30
0.0
 11
946.88568522463595
 21
350.19285209310601
 31
0.0
  0
LINE
  5
156C
  8
0
  6
CONTINUOUS
 62
     7
 10
950.30053522463595
 20
445.35212809310588
 30
0.0
 11
950.30053522463595
 21
475.35212809310582
 31
0.0
  0
LINE
  5
156D
  8
0
  6
CONTINUOUS
 62
     7
 10
862.80053622463595
 20
327.852123093106
 30
0.0
 11
927.95982022463602
 21
331.26697909310599
 31
0.0
  0
LINE
  5
156E
  8
0
  6
CONTINUOUS
 62
     7
 10
832.80054622463615
 20
562.85212809310576
 30
0.0
 11
862.80054622463604
 21
562.85212809310576
 31
0.0
  0
LINE
  5
156F
  8
0
  6
CONTINUOUS
 62
     7
 10
862.80054622463604
 20
562.85212809310576
 30
0.0
 11
927.95981222463581
 21
559.43727809310599
 31
0.0
  0
LINE
  5
1570
  8
0
  6
CENTER
 62
     7
 10
917.26397022463595
 20
529.81556809310575
 30
0.0
 11
937.9823312246358
 21
550.53392809310583
 31
0.0
  0
LINE
  5
1571
  8
0
  6
CONTINUOUS
 62
     7
 10
872.56133622463597
 20
479.45607809310587
 30
0.0
 11
901.79164522463589
 21
508.68637809310582
 31
0.0
  0
LINE
  5
1572
  8
0
  6
CONTINUOUS
 62
     7
 10
866.90446622463605
 20
485.11293809310581
 30
0.0
 11
896.13477722463585
 21
514.34323809310604
 31
0.0
  0
LINE
  5
1573
  8
0
  6
CONTINUOUS
 62
     7
 10
793.03973622463593
 20
479.45607809310587
 30
0.0
 11
763.80943622463565
 21
508.68637809310582
 31
0.0
  0
LINE
  5
1574
  8
0
  6
CENTER
 62
     7
 10
746.99312622463594
 20
359.54472809310602
 30
0.0
 11
727.55314622463607
 21
340.104756093106
 31
0.0
  0
LINE
  5
1575
  8
0
  6
CENTER
 62
     7
 10
748.67253622463579
 20
529.48011809310594
 30
0.0
 11
727.75384622463594
 21
550.39882809310575
 31
0.0
  0
LINE
  5
1576
  8
0
  6
CONTINUOUS
 62
     7
 10
715.30054622463592
 20
415.35212809310582
 30
0.0
 11
718.71539622463592
 21
350.19284509310597
 31
0.0
  0
LINE
  5
1577
  8
0
  6
CONTINUOUS
 62
     7
 10
950.30053522463595
 20
445.35212809310588
 30
0.0
 11
950.30053522463595
 21
415.35212809310582
 31
0.0
  0
LINE
  5
1578
  8
0
  6
CONTINUOUS
 62
     7
 10
950.30053922463594
 20
475.35212809310582
 30
0.0
 11
946.88568522463595
 21
540.51139809310587
 31
0.0
  0
LINE
  5
1579
  8
0
  6
CONTINUOUS
 62
     7
 10
802.80054622463581
 20
562.85212809310576
 30
0.0
 11
737.64126622463596
 21
559.43727809310599
 31
0.0
  0
LINE
  5
157A
  8
0
  6
CONTINUOUS
 62
     7
 10
802.80054622463581
 20
327.852123093106
 30
0.0
 11
737.64126622463596
 21
331.26697909310599
 31
0.0
  0
LINE
  5
157B
  8
0
  6
CENTER
 62
     7
 10
917.09941522463589
 20
361.05325709310603
 30
0.0
 11
938.24905022463565
 21
339.90362209310598
 31
0.0
  0
LINE
  5
157C
  8
0
  6
CONTINUOUS
 62
     7
 10
715.30054622463592
 20
475.35212809310582
 30
0.0
 11
718.71539622463592
 21
540.51142809310591
 31
0.0
  0
LINE
  5
157D
  8
0
  6
CONTINUOUS
 62
     7
 10
715.30054622463592
 20
445.35212809310588
 30
0.0
 11
715.30054622463592
 21
415.35212809310582
 31
0.0
  0
LINE
  5
157E
  8
0
  6
CONTINUOUS
 62
     7
 10
832.80054622463615
 20
327.85213109310598
 30
0.0
 11
802.80052622463597
 21
327.85213109310598
 31
0.0
  0
LINE
  5
157F
  8
0
  6
CONTINUOUS
 62
     7
 10
832.80054622463615
 20
562.85212809310576
 30
0.0
 11
802.80052622463597
 21
562.85212809310576
 31
0.0
  0
LINE
  5
1580
  8
0
  6
CONTINUOUS
 62
     7
 10
715.30054622463592
 20
445.35212809310588
 30
0.0
 11
715.30054622463592
 21
475.35212809310582
 31
0.0
  0
LINE
  5
1581
  8
0
  6
CONTINUOUS
 62
     7
 10
784.80052622463597
 20
445.35212809310588
 30
0.0
 11
784.80052622463597
 21
407.35214809310582
 31
0.0
  0
LINE
  5
1582
  8
0
  6
CONTINUOUS
 62
     7
 10
779.80054622463592
 20
402.35214809310582
 30
0.0
 11
746.82379622463588
 21
402.35214809310582
 31
0.0
  0
LINE
  5
1583
  8
0
  6
CONTINUOUS
 62
     7
 10
798.69659622463575
 20
485.11293809310581
 30
0.0
 11
769.46629622463593
 21
514.34323809310604
 31
0.0
  0
LINE
  5
1584
  8
0
  6
CONTINUOUS
 62
     7
 10
885.80054122463605
 20
402.35214809310582
 30
0.0
 11
918.77727522463579
 21
402.35214809310582
 31
0.0
  0
LINE
  5
1585
  8
0
  6
CONTINUOUS
 62
     7
 10
827.80054622463615
 20
456.35214809310582
 30
0.0
 11
837.80052622463586
 21
456.35214809310582
 31
0.0
  0
LINE
  5
1586
  8
0
  6
CONTINUOUS
 62
     7
 10
827.80054622463615
 20
456.35214809310582
 30
0.0
 11
827.80054622463615
 21
464.35212809310599
 31
0.0
  0
LINE
  5
1587
  8
0
  6
CONTINUOUS
 62
     7
 10
837.80052622463586
 20
456.35214809310582
 30
0.0
 11
837.80052622463586
 21
464.35212809310599
 31
0.0
  0
LINE
  5
1588
  8
0
  6
CONTINUOUS
 62
     7
 10
827.80054622463615
 20
464.35212809310599
 30
0.0
 11
837.80052622463586
 21
464.35212809310599
 31
0.0
  0
ARC
  5
1589
  8
0
  6
CONTINUOUS
 62
     7
 10
712.86255622463625
 20
384.2901580931059
 30
0.0
 40
6.0
 50
187.26796999999829
 51
261.56424999999888
  0
ARC
  5
158A
  8
0
  6
CONTINUOUS
 62
     7
 10
727.35954622463566
 20
448.5841680931058
 30
0.0
 40
71.776702999999983
 50
259.9759600000005
 51
261.92998999999952
  0
ARC
  5
158B
  8
0
  6
CONTINUOUS
 62
     7
 10
725.59051622463573
 20
503.49813809310598
 30
0.0
 40
122.221
 50
262.57496000000248
 51
266.0027899999975
  0
ARC
  5
158C
  8
0
  6
CONTINUOUS
 62
     7
 10
709.79553622463595
 20
386.302118093106
 30
0.0
 40
4.0
 50
179.99997999999789
 51
269.99995000000149
  0
ARC
  5
158D
  8
0
  6
CONTINUOUS
 62
     7
 10
712.86255622463625
 20
450.41320809310599
 30
0.0
 40
6.0
 50
98.439062999997802
 51
172.73197000000229
  0
ARC
  5
158E
  8
0
  6
CONTINUOUS
 62
     7
 10
725.59051622463573
 20
331.205578093106
 30
0.0
 40
122.221
 50
94.829540000001217
 51
97.425484000000395
  0
ARC
  5
158F
  8
0
  6
CONTINUOUS
 62
     7
 10
709.79553622463595
 20
448.40115809310578
 30
0.0
 40
4.0
 50
89.999988999997555
 51
179.99997999999789
  0
ARC
  5
1590
  8
0
  6
CONTINUOUS
 62
     7
 10
838.80054622463604
 20
525.86683809310603
 30
0.0
 40
3.0
 50
90.00000299999769
 51
180.0000099999977
  0
ARC
  5
1591
  8
0
  6
CONTINUOUS
 62
     7
 10
863.36894622463581
 20
488.64846809310581
 30
0.0
 40
5.0
 50
234.77685999999909
 51
315.0
  0
ARC
  5
1592
  8
0
  6
CONTINUOUS
 62
     7
 10
926.91309422463587
 20
351.239575093106
 30
0.0
 40
20.0
 50
272.99999999999909
 51
356.99999999999778
  0
ARC
  5
1593
  8
0
  6
CONTINUOUS
 62
     7
 10
926.91309422463587
 20
539.46470809310597
 30
0.0
 40
20.0
 50
3.0000001000020982
 51
86.999998999997004
  0
ARC
  5
1594
  8
0
  6
CONTINUOUS
 62
     7
 10
826.80054622463592
 20
519.676378093106
 30
0.0
 40
3.0
 50
273.35581999999692
 51
0.0
  0
ARC
  5
1595
  8
0
  6
CONTINUOUS
 62
     7
 10
832.80054622463615
 20
417.35214809310582
 30
0.0
 40
93.499999999999986
 50
162.14679000000021
 51
183.00788
  0
ARC
  5
1596
  8
0
  6
CONTINUOUS
 62
     7
 10
832.80054622463615
 20
417.35214809310582
 30
0.0
 40
99.500000000000014
 50
93.355818000003936
 51
121.1615
  0
ARC
  5
1597
  8
0
  6
CONTINUOUS
 62
     7
 10
876.09686622463619
 20
475.92054809310582
 30
0.0
 40
5.0
 50
135.0
 51
215.22314999999961
  0
ARC
  5
1598
  8
0
  6
CONTINUOUS
 62
     7
 10
826.80054622463592
 20
525.86683809310603
 30
0.0
 40
3.0
 50
0.0
 51
90.00000299999769
  0
ARC
  5
1599
  8
0
  6
CONTINUOUS
 62
     7
 10
838.80054622463604
 20
519.676378093106
 30
0.0
 40
3.0
 50
179.999989999999
 51
266.64419000000061
  0
ARC
  5
159A
  8
0
  6
CONTINUOUS
 62
     7
 10
832.80054622463615
 20
417.35214809310582
 30
0.0
 40
99.500000000000014
 50
242.8856600000008
 51
297.11435000000102
  0
ARC
  5
159B
  8
0
  6
CENTER
 62
     7
 10
832.80054622463615
 20
445.35212809310588
 30
0.0
 40
135.0
 50
38.368393000000047
 51
52.256346000001919
  0
CIRCLE
  5
159C
  8
0
  6
CONTINUOUS
 62
     7
 10
928.25995322463598
 20
540.81153809310558
 30
0.0
 40
7.5
  0
ARC
  5
159D
  8
0
  6
CONTINUOUS
 62
     7
 10
905.32717522463577
 20
505.15084809310599
 30
0.0
 40
5.0
 50
39.505817999999088
 51
135.0
  0
ARC
  5
159E
  8
0
  6
CONTINUOUS
 62
     7
 10
892.59926222463605
 20
517.87878809310575
 30
0.0
 40
5.0
 50
315.0
 51
50.494182000000933
  0
CIRCLE
  5
159F
  8
0
  6
CONTINUOUS
 62
     7
 10
832.80054622463615
 20
445.35212809310588
 30
0.0
 40
105.0
  0
CIRCLE
  5
15A0
  8
0
  6
CONTINUOUS
 62
     7
 10
737.34112622463567
 20
540.81153809310558
 30
0.0
 40
7.5
  0
CIRCLE
  5
15A1
  8
0
  6
CONTINUOUS
 62
     7
 10
832.80054622463615
 20
445.35212809310588
 30
0.0
 40
99.0
  0
ARC
  5
15A2
  8
0
  6
CENTER
 62
     7
 10
832.80054622463615
 20
445.35212809310588
 30
0.0
 40
135.0
 50
126.37568000000179
 51
142.25635000000241
  0
ARC
  5
15A3
  8
0
  6
CENTER
 62
     7
 10
832.80054622463615
 20
445.35212809310588
 30
0.0
 40
135.0
 50
218.36838999999779
 51
232.25634999999781
  0
CIRCLE
  5
15A4
  8
0
  6
CONTINUOUS
 62
     7
 10
737.34112622463567
 20
349.892719093106
 30
0.0
 40
7.5
  0
ARC
  5
15A5
  8
0
  6
CONTINUOUS
 62
     7
 10
738.6879762246358
 20
539.46470809310597
 30
0.0
 40
20.0
 50
92.999999000001679
 51
176.99999000000031
  0
ARC
  5
15A6
  8
0
  6
CENTER
 62
     7
 10
832.80054622463615
 20
445.35212809310588
 30
0.0
 40
135.0
 50
306.77085999999912
 51
322.2563500000025
  0
CIRCLE
  5
15A7
  8
0
  6
CONTINUOUS
 62
     7
 10
928.25995322463598
 20
349.892719093106
 30
0.0
 40
7.5
  0
ARC
  5
15A8
  8
0
  6
CONTINUOUS
 62
     7
 10
738.6879762246358
 20
351.239575093106
 30
0.0
 40
20.0
 50
183.00000999999969
 51
267.00000000000091
  0
ARC
  5
15A9
  8
0
  6
CONTINUOUS
 62
     7
 10
746.82379622463588
 20
407.35214809310582
 30
0.0
 40
5.0
 50
203.84446999999949
 51
270.0
  0
ARC
  5
15AA
  8
0
  6
CONTINUOUS
 62
     7
 10
802.23211622463577
 20
488.64846809310581
 30
0.0
 40
5.0
 50
225.0
 51
305.22315000000231
  0
ARC
  5
15AB
  8
0
  6
CONTINUOUS
 62
     7
 10
832.80054622463615
 20
417.35214809310582
 30
0.0
 40
99.500000000000014
 50
58.838493999999237
 51
86.644179999996624
  0
ARC
  5
15AC
  8
0
  6
CONTINUOUS
 62
     7
 10
832.80054622463615
 20
417.35214809310582
 30
0.0
 40
99.500000000000014
 50
29.730242999997191
 51
54.136312000000359
  0
ARC
  5
15AD
  8
0
  6
CONTINUOUS
 62
     7
 10
832.80054622463615
 20
417.35214809310582
 30
0.0
 40
93.499999999999986
 50
356.99212
 51
17.85321299999983
  0
ARC
  5
15AE
  8
0
  6
CONTINUOUS
 62
     7
 10
760.27389622463591
 20
505.15084809310599
 30
0.0
 40
5.0
 50
45.00000100000149
 51
140.49417999999881
  0
ARC
  5
15AF
  8
0
  6
CONTINUOUS
 62
     7
 10
832.80054622463615
 20
445.35212809310588
 30
0.0
 40
48.0
 50
54.776849999997779
 51
125.2231400000008
  0
ARC
  5
15B0
  8
0
  6
CONTINUOUS
 62
     7
 10
832.80054622463615
 20
445.35212809310588
 30
0.0
 40
48.0
 50
0.0
 51
35.223151999999843
  0
ARC
  5
15B1
  8
0
  6
CONTINUOUS
 62
     7
 10
832.80054622463615
 20
445.35212809310588
 30
0.0
 40
89.0
 50
0.4282278599984297
 51
13.875763999998069
  0
CIRCLE
  5
15B2
  8
0
  6
CONTINUOUS
 62
     7
 10
832.80054622463615
 20
445.35212809310588
 30
0.0
 40
29.0
  0
ARC
  5
15B3
  8
0
  6
CONTINUOUS
 62
     7
 10
832.80054622463615
 20
445.35212809310588
 30
0.0
 40
48.0
 50
144.7768400000017
 51
180.0000099999977
  0
ARC
  5
15B4
  8
0
  6
CONTINUOUS
 62
     7
 10
918.77727522463579
 20
407.35214809310582
 30
0.0
 40
5.0
 50
270.0
 51
336.15553000000051
  0
ARC
  5
15B5
  8
0
  6
CONTINUOUS
 62
     7
 10
773.00180622463586
 20
517.87878809310575
 30
0.0
 40
5.0
 50
129.50581999999909
 51
225.0
  0
ARC
  5
15B6
  8
0
  6
CONTINUOUS
 62
     7
 10
885.80054122463605
 20
407.35214809310582
 30
0.0
 40
5.0
 50
179.999989999999
 51
270.0
  0
ARC
  5
15B7
  8
0
  6
CONTINUOUS
 62
     7
 10
832.80054622463615
 20
417.35214809310582
 30
0.0
 40
99.500000000000014
 50
125.86368999999679
 51
150.2697600000005
  0
ARC
  5
15B8
  8
0
  6
CONTINUOUS
 62
     7
 10
779.80054622463592
 20
407.35214809310582
 30
0.0
 40
5.0
 50
270.0
 51
0.0
  0
ARC
  5
15B9
  8
0
  6
CONTINUOUS
 62
     7
 10
789.50421622463591
 20
475.92054809310582
 30
0.0
 40
5.0
 50
324.77685000000042
 51
45.00000100000149
  0
ARC
  5
15BA
  8
0
  6
CONTINUOUS
 62
     7
 10
832.80054622463615
 20
445.35212809310588
 30
0.0
 40
89.0
 50
166.12423000000121
 51
179.57177000000021
  0
ARC
  5
15BB
  8
0
  6
CONTINUOUS
 62
     7
 10
832.80054622463615
 20
445.35212809310588
 30
0.0
 40
16.0
 50
108.2099599999986
 51
71.790051999998809
  0
CIRCLE
  5
15BC
  8
0
  6
CONTINUOUS
 62
     7
 10
832.80054622463615
 20
445.35212809310588
 30
0.0
 40
4.0
  0
ARC
  5
15BD
  8
0
  6
CONTINUOUS
 62
     7
 10
832.80054622463615
 20
445.35212809310588
 30
0.0
 40
16.0
 50
108.2099599999986
 51
71.790051999998809
  0
CIRCLE
  5
15BE
  8
0
  6
CONTINUOUS
 62
     7
 10
832.80054622463615
 20
445.35212809310588
 30
0.0
 40
4.0
  0
CIRCLE
  5
15BF
  8
0
  6
CONTINUOUS
 62
     7
 10
832.80054622463615
 20
445.35212809310588
 30
0.0
 40
2.75
  0
CIRCLE
  5
15C0
  8
0
  6
CONTINUOUS
 62
     7
 10
832.80054622463615
 20
445.35212809310588
 30
0.0
 40
4.0
  0
CIRCLE
  5
15C1
  8
0
  6
CONTINUOUS
 62
     7
 10
832.80054622463615
 20
445.35212809310588
 30
0.0
 40
2.75
  0
CIRCLE
  5
15C2
  8
0
  6
CONTINUOUS
 62
     7
 10
832.80054622463615
 20
445.35212809310588
 30
0.0
 40
2.75
  0
TEXT
  5
1814
  8
0
  6
CONTINUOUS
 62
     0
 10
644.24990666946042
 20
648.1489016890888
 30
0.0
 40
15.0
  1
VX08-040EMF~VX08-100EMF
  0
ENDSEC
  0
EOF
