  0
SECTION
  2
HEADER
  9
$ACADVER
  1
AC1009
  9
$INSBASE
 10
0.0
 20
0.0
 30
0.0
  9
$EXTMIN
 10
163.29143934380591
 20
371.75433028690668
 30
-0.0015258207003583
  9
$EXTMAX
 10
1086.8658863948151
 20
994.32866177432606
 30
0.0000000349246037
  9
$LIMMIN
 10
0.0000005999945643
 20
-0.0000005963913736
  9
$LIMMAX
 10
1422.5000005999941
 20
924.99999940360874
  9
$ORTHOMODE
 70
     0
  9
$REGENMODE
 70
     1
  9
$FILLMODE
 70
     1
  9
$QTEXTMODE
 70
     0
  9
$MIRRTEXT
 70
     0
  9
$DRAGMODE
 70
     2
  9
$LTSCALE
 40
1.0
  9
$OSMODE
 70
   551
  9
$ATTMODE
 70
     1
  9
$TEXTSIZE
 40
2.5
  9
$TRACEWID
 40
1.0
  9
$TEXTSTYLE
  7
STANDARD
  9
$CLAYER
  8
0
  9
$CELTYPE
  6
BYLAYER
  9
$CECOLOR
 62
   256
  9
$DIMSCALE
 40
1.0
  9
$DIMASZ
 40
2.0
  9
$DIMEXO
 40
1.0
  9
$DIMDLI
 40
8.0
  9
$DIMRND
 40
0.0
  9
$DIMDLE
 40
0.0
  9
$DIMEXE
 40
1.0
  9
$DIMTP
 40
-0.025
  9
$DIMTM
 40
0.043
  9
$DIMTXT
 40
2.5
  9
$DIMCEN
 40
0.0
  9
$DIMTSZ
 40
0.0
  9
$DIMTOL
 70
     0
  9
$DIMLIM
 70
     0
  9
$DIMTIH
 70
     0
  9
$DIMTOH
 70
     0
  9
$DIMSE1
 70
     0
  9
$DIMSE2
 70
     0
  9
$DIMTAD
 70
     3
  9
$DIMZIN
 70
     8
  9
$DIMBLK
  1

  9
$DIMASO
 70
     1
  9
$DIMSHO
 70
     1
  9
$DIMPOST
  1

  9
$DIMAPOST
  1
"
  9
$DIMALT
 70
     0
  9
$DIMALTD
 70
     2
  9
$DIMALTF
 40
0.0393701
  9
$DIMLFAC
 40
1.0
  9
$DIMTOFL
 70
     1
  9
$DIMTVP
 40
0.0
  9
$DIMTIX
 70
     0
  9
$DIMSOXD
 70
     0
  9
$DIMSAH
 70
     0
  9
$DIMBLK1
  1

  9
$DIMBLK2
  1

  9
$DIMSTYLE
  2
AM_JIS
  9
$DIMCLRD
 70
     2
  9
$DIMCLRE
 70
     2
  9
$DIMCLRT
 70
     4
  9
$DIMTFAC
 40
0.71
  9
$DIMGAP
 40
1.5
  9
$LUNITS
 70
     2
  9
$LUPREC
 70
     2
  9
$SKETCHINC
 40
1.0
  9
$FILLETRAD
 40
0.0
  9
$AUNITS
 70
     0
  9
$AUPREC
 70
     0
  9
$MENU
  1
.
  9
$ELEVATION
 40
0.0
  9
$PELEVATION
 40
0.0
  9
$THICKNESS
 40
0.0
  9
$LIMCHECK
 70
     0
  9
$BLIPMODE
 70
     0
  9
$CHAMFERA
 40
2.5
  9
$CHAMFERB
 40
2.5
  9
$SKPOLY
 70
     0
  9
$TDCREATE
 40
2456829.3841110538
  9
$TDUPDATE
 40
2458540.6584544438
  9
$TDINDWG
 40
0.9527572454
  9
$TDUSRTIMER
 40
0.9527568171
  9
$USRTIMER
 70
     1
  9
$ANGBASE
 50
0.0
  9
$ANGDIR
 70
     0
  9
$PDMODE
 70
     0
  9
$PDSIZE
 40
0.0
  9
$PLINEWID
 40
0.0
  9
$COORDS
 70
     1
  9
$SPLFRAME
 70
     0
  9
$SPLINETYPE
 70
     6
  9
$SPLINESEGS
 70
     8
  9
$ATTDIA
 70
     1
  9
$ATTREQ
 70
     1
  9
$HANDLING
 70
     1
  9
$HANDSEED
  5
8862
  9
$SURFTAB1
 70
     6
  9
$SURFTAB2
 70
     6
  9
$SURFTYPE
 70
     6
  9
$SURFU
 70
     6
  9
$SURFV
 70
     6
  9
$UCSNAME
  2

  9
$UCSORG
 10
0.0
 20
0.0
 30
0.0
  9
$UCSXDIR
 10
1.0
 20
0.0
 30
0.0
  9
$UCSYDIR
 10
0.0
 20
1.0
 30
0.0
  9
$PUCSNAME
  2

  9
$PUCSORG
 10
0.0
 20
0.0
 30
0.0
  9
$PUCSXDIR
 10
1.0
 20
0.0
 30
0.0
  9
$PUCSYDIR
 10
0.0
 20
1.0
 30
0.0
  9
$USERI1
 70
     0
  9
$USERI2
 70
     0
  9
$USERI3
 70
     0
  9
$USERI4
 70
     0
  9
$USERI5
 70
     0
  9
$USERR1
 40
0.0
  9
$USERR2
 40
0.0
  9
$USERR3
 40
0.0
  9
$USERR4
 40
0.0
  9
$USERR5
 40
0.0
  9
$WORLDVIEW
 70
     1
  9
$SHADEDGE
 70
     3
  9
$SHADEDIF
 70
    70
  9
$TILEMODE
 70
     1
  9
$MAXACTVP
 70
    64
  9
$PLIMCHECK
 70
     0
  9
$PEXTMIN
 10
1.0000000000000000E+020
 20
1.0000000000000000E+020
 30
1.0000000000000000E+020
  9
$PEXTMAX
 10
-1.0000000000000000E+020
 20
-1.0000000000000000E+020
 30
-1.0000000000000000E+020
  9
$PLIMMIN
 10
0.0
 20
0.0
  9
$PLIMMAX
 10
420.0
 20
297.0
  9
$UNITMODE
 70
     0
  9
$VISRETAIN
 70
     1
  9
$PLINEGEN
 70
     0
  9
$PSLTSCALE
 70
     1
  0
ENDSEC
  0
SECTION
  2
TABLES
  0
TABLE
  2
VPORT
 70
     1
  0
VPORT
  2
*ACTIVE
 70
     0
 10
0.0
 20
0.0
 11
1.0
 21
1.0
 12
625.07866286931085
 22
683.04149603061626
 13
0.0
 23
0.0
 14
12.5
 24
12.5
 15
50.0
 25
50.0
 16
0.0
 26
0.0
 36
1.0
 17
0.0
 27
0.0
 37
0.0
 40
626.84829714980447
 41
1.757159221076747
 42
50.0
 43
0.0
 44
0.0
 50
0.0
 51
0.0
 71
     0
 72
  1000
 73
     1
 74
     3
 75
     0
 76
     0
 77
     0
 78
     0
  0
ENDTAB
  0
TABLE
  2
LTYPE
 70
    24
  0
LTYPE
  2
CONTINUOUS
 70
     0
  3
Solid line
 72
    65
 73
     0
 40
0.0
  0
LTYPE
  2
AM_ISO02W050
 70
     0
  3
__ __ __ __ __ __ __ __ __ __ __ __ __ __ __
 72
    65
 73
     2
 40
7.5
 49
6.0
 49
-1.5
  0
LTYPE
  2
AM_ISO08W050
 70
     0
  3
____ . ____ . ____ . ____ . ____ . ____ . ____
 72
    65
 73
     4
 40
18.0
 49
12.0
 49
-1.5
 49
3.0
 49
-1.5
  0
LTYPE
  2
AM_ISO09W050
 70
     0
  3
_____ . . _____ . . _____ . . ____ .. ____
 72
    65
 73
     6
 40
22.5
 49
12.0
 49
-1.5
 49
3.0
 49
-1.5
 49
3.0
 49
-1.5
  0
LTYPE
  2
AMCONSTR
 70
     0
  3
_______________________
 72
    65
 73
     2
 40
9999.0
 49
9999.0
 49
0.0
  0
LTYPE
  2
AM_ISO08W050X2
 70
     0
  3
__ . __ . __ . __ . __ . __
 72
    65
 73
     4
 40
9.0
 49
6.0
 49
-0.75
 49
1.5
 49
-0.75
  0
LTYPE
  2
AM_ISO02W050X2
 70
     0
  3
 _ _ _ _ _ _ _ _ _ _ _ _
 72
    65
 73
     2
 40
3.75
 49
3.0
 49
-0.75
  0
LTYPE
  2
AMZIGZAG
 70
     0
  3
/\/-/\/-/\/-/\/-/\/-/\/
 72
    65
 73
     2
 40
11.0001
 49
0.0001
 49
-11.0
  0
LTYPE
  2
ACANSTGBM
 70
     0
  3
__ . . __ . .
 72
    65
 73
     6
 40
9.0
 49
4.0
 49
-1.0
 49
1.0
 49
-1.0
 49
1.0
 49
-1.0
  0
LTYPE
  2
ACANSTGLM
 70
     0
  3
_ _ _ _ _
 72
    65
 73
     2
 40
3.0
 49
2.0
 49
-1.0
  0
LTYPE
  2
ACISOWELD
 70
     0
  3
_ _ _ _ _
 72
    65
 73
     2
 40
2.0
 49
2.0
 49
-1.0
  0
LTYPE
  2
ACISOTGB
 70
     0
  3
__ . . __ . .
 72
    65
 73
     6
 40
9.0
 49
4.0
 49
-1.0
 49
1.0
 49
-1.0
 49
1.0
 49
-1.0
  0
LTYPE
  2
ACISOTGL
 70
     0
  3
_ _ _ _ _
 72
    65
 73
     2
 40
3.0
 49
2.0
 49
-1.0
  0
LTYPE
  2
ACJISTGB
 70
     0
  3
__ . . __ . .
 72
    65
 73
     6
 40
9.0
 49
4.0
 49
-1.0
 49
1.0
 49
-1.0
 49
1.0
 49
-1.0
  0
LTYPE
  2
ACJISTGL
 70
     0
  3
_ _ _ _ _
 72
    65
 73
     2
 40
3.0
 49
2.0
 49
-1.0
  0
LTYPE
  2
CENTER
 70
     0
  3
Center ____ _ ____ _ ____ _ ____ _ ____ _ ____
 72
    65
 73
     4
 40
50.799999999999997
 49
31.75
 49
-6.3499999999999979
 49
6.3499999999999979
 49
-6.3499999999999979
  0
LTYPE
  2
HIDDEN
 70
     0
  3
Hidden __ __ __ __ __ __ __ __ __ __ __ __ __ _
 72
    65
 73
     2
 40
9.5249999999999968
 49
6.3499999999999979
 49
-3.174999999999998
  0
LTYPE
  2
PHANTOM2
 70
     0
  3
Phantom (.5x) ___ _ _ ___ _ _ ___ _ _ ___ _ _
 72
    65
 73
     6
 40
31.75
 49
15.875
 49
-3.174999999999998
 49
3.174999999999998
 49
-3.174999999999998
 49
3.174999999999998
 49
-3.174999999999998
  0
LTYPE
  2
CENTER2
 70
     0
  3
Center (.5x) ___ _ ___ _ ___ _ ___ _ ___ _ ___
 72
    65
 73
     4
 40
1.125
 49
0.75
 49
-0.125
 49
0.125
 49
-0.125
  0
LTYPE
  2
HIDDEN2
 70
     0
  3
Hidden (.5x) _ _ _ _ _ _ _ _ _ _ _ _ _ _ _ _ _
 72
    65
 73
     2
 40
0.1875
 49
0.125
 49
-0.0625
  0
LTYPE
  2
AMZIGZAG2
 70
     0
  3
/\/-/\/-/\/-/\/-/\/-/\/
 72
    65
 73
     2
 40
0.4401
 49
0.0001
 49
-0.4400000000000003
  0
LTYPE
  2
ACANSTGB
 70
     0
  3
__ . . __ . .
 72
    65
 73
     6
 40
0.35433070866
 49
0.15748031496
 49
-0.03937007874
 49
0.03937007874
 49
-0.03937007874
 49
0.03937007874
 49
-0.03937007874
  0
LTYPE
  2
ACANSTGL
 70
     0
  3
_ _ _ _ _
 72
    65
 73
     2
 40
0.11811023622
 49
0.07874015748
 49
-0.03937007874
  0
ENDTAB
  0
TABLE
  2
LAYER
 70
     4
  0
LAYER
  2
0
 70
     0
 62
     7
  6
CONTINUOUS
  0
LAYER
  2
DEFPOINTS
 70
     0
 62
     7
  6
CONTINUOUS
  0
LAYER
  2
AM_5
 70
     0
 62
     2
  6
CONTINUOUS
  0
LAYER
  2
AM_CL
 70
     0
 62
     1
  6
AMCONSTR
  0
ENDTAB
  0
TABLE
  2
STYLE
 70
     8
  0
STYLE
  2
STANDARD
 70
     0
 40
0.0
 41
0.7400000000000003
 50
0.0
 71
     0
 42
2.5
  3
txt.shx
  4
bigfont.shx
  0
STYLE
  2

 70
     1
 40
0.0
 41
1.0
 50
0.0
 71
     0
 42
2.5
  3
ltypeshp.shx
  4

  0
STYLE
  2
ACANSTS
 70
     0
 40
1.0
 41
1.0
 50
0.0
 71
     0
 42
2.5
  3
romans.shx
  4
bigfont.shx
  0
STYLE
  2
ACANSGDT
 70
     0
 40
0.0
 41
1.0
 50
0.0
 71
     0
 42
2.5
  3
amgdtans.shx
  4

  0
STYLE
  2
ACISOTS
 70
     0
 40
1.0
 41
1.0
 50
0.0
 71
     0
 42
2.5
  3
isocp.shx
  4
extfont.shx
  0
STYLE
  2
ACISOGDT
 70
     0
 40
0.0
 41
1.0
 50
0.0
 71
     0
 42
2.5
  3
amgdt.shx
  4

  0
STYLE
  2
ACJISGDT
 70
     0
 40
0.0
 41
1.0
 50
0.0
 71
     0
 42
2.5
  3
amgdt.shx
  4

  0
STYLE
  2
ACJISTS
 70
     0
 40
1.0
 41
1.0
 50
0.0
 71
     0
 42
2.5
  3
isocp.shx
  4
extfont.shx
  0
ENDTAB
  0
TABLE
  2
VIEW
 70
     6
  0
VIEW
  2
AM_VIEW1
 70
     0
 40
462.5
 10
488.83452017294832
 20
693.74999940360874
 41
977.66903914590773
 11
0.0
 21
0.0
 31
1.0
 12
0.0
 22
0.0
 32
0.0
 42
50.0
 43
0.0
 44
0.0
 50
0.0
 71
     0
  0
VIEW
  2
AM_VIEW2
 70
     0
 40
462.5
 10
933.66548102704076
 20
693.74999940360874
 41
977.66903914590773
 11
0.0
 21
0.0
 31
1.0
 12
0.0
 22
0.0
 32
0.0
 42
50.0
 43
0.0
 44
0.0
 50
0.0
 71
     0
  0
VIEW
  2
AM_VIEW3
 70
     0
 40
462.5
 10
488.83452017294832
 20
231.24999940360871
 41
977.66903914590773
 11
0.0
 21
0.0
 31
1.0
 12
0.0
 22
0.0
 32
0.0
 42
50.0
 43
0.0
 44
0.0
 50
0.0
 71
     0
  0
VIEW
  2
AM_VIEW4
 70
     0
 40
462.5
 10
933.66548102704076
 20
231.24999940360871
 41
977.66903914590773
 11
0.0
 21
0.0
 31
1.0
 12
0.0
 22
0.0
 32
0.0
 42
50.0
 43
0.0
 44
0.0
 50
0.0
 71
     0
  0
VIEW
  2
AM_VIEW5
 70
     0
 40
462.5
 10
711.25000059999468
 20
462.49999940360868
 41
977.66903914590773
 11
0.0
 21
0.0
 31
1.0
 12
0.0
 22
0.0
 32
0.0
 42
50.0
 43
0.0
 44
0.0
 50
0.0
 71
     0
  0
VIEW
  2
AM_VIEW6
 70
     0
 40
924.99075000000016
 10
711.25000059999468
 20
462.49999940360868
 41
1955.318524911032
 11
0.0
 21
0.0
 31
1.0
 12
0.0
 22
0.0
 32
0.0
 42
50.0
 43
0.0
 44
0.0
 50
0.0
 71
     0
  0
ENDTAB
  0
TABLE
  2
UCS
 70
     0
  0
ENDTAB
  0
TABLE
  2
APPID
 70
   158
  0
APPID
  2
ACAD
 70
     0
  0
APPID
  2
ACADANNOTATIVE
 70
     0
  0
APPID
  2
ACAD_MLEADERVER
 70
     0
  0
APPID
  2
MCAD_NO_VIS
 70
     0
  0
APPID
  2
ACAD_TEMP_GRAPHIC
 70
     0
  0
APPID
  2
AD_DRAW
 70
     0
  0
APPID
  2
ACATTRIBSERVICES
 70
     0
  0
APPID
  2
DESIGNERASSEMBLIES
 70
     0
  0
APPID
  2
ACADM_DIM_EDIT
 70
     0
  0
APPID
  2
AMDT_DM_ADJ
 70
     0
  0
APPID
  2
GENIUS_GENDIMSH_14
 70
     0
  0
APPID
  2
GEVID1057795304
 70
     0
  0
APPID
  2
GEVDC
 70
     0
  0
APPID
  2
GEVCON
 70
     0
  0
APPID
  2
GENIUS_GENBH_13
 70
     0
  0
APPID
  2
GENIUS_GENOENT_13
 70
     0
  0
APPID
  2
GENIUS_GENOBJ-NBEHI-BHF_13
 70
     0
  0
APPID
  2
GENIUS_GENOLIS_13
 70
     0
  0
APPID
  2
GENIUS_GENODEF_13
 70
     0
  0
APPID
  2
GENIUS_GENOREF_13
 70
     0
  0
APPID
  2
GENIUS_GENOBJ-NBEHI-BHB_13
 70
     0
  0
APPID
  2
GENIUS_GENOBJ-F-SCPASSM_13
 70
     0
  0
APPID
  2
GENIUS_GENDTOL_13
 70
     0
  0
APPID
  2
GENIUS_GENTRA_14
 70
     0
  0
APPID
  2
ASURF_PCURVE_APPNAME
 70
     0
  0
APPID
  2
GENIUS_GENCFG_13
 70
     0
  0
APPID
  2
GENIUS_GE3CFG0_13
 70
     0
  0
APPID
  2
GENIUS_GENCFG0_13
 70
     0
  0
APPID
  2
GENIUS_GENCFG1_13
 70
     0
  0
APPID
  2
GENIUS_GENCFG2_13
 70
     0
  0
APPID
  2
GENIUS_GENCFG3_13
 70
     0
  0
APPID
  2
GENIUS_GENCFG4_13
 70
     0
  0
APPID
  2
GENIUS_GEVCFG0_13
 70
     0
  0
APPID
  2
GENIUS_GENOBJ-N-TIT_13
 70
     0
  0
APPID
  2
GENIUS_GENTITLE_13
 70
     0
  0
APPID
  2
GENIUS_GENSCREG_15
 70
     0
  0
APPID
  2
GENIUS_GENOBJ-N-SDF_13
 70
     0
  0
APPID
  2
GENIUS_GENFIL_13
 70
     0
  0
APPID
  2
GENIUS_GENOBJ-N-CHA_13
 70
     0
  0
APPID
  2
GENIUS_GEFSH_13
 70
     0
  0
APPID
  2
GENIUS_GENOBJ-F-SHS_13
 70
     0
  0
APPID
  2
GENIUS_GENOBJ-N-CEN_13
 70
     0
  0
APPID
  2
GENIUS_GENREC_14
 70
     0
  0
APPID
  2
GENIUS_GENOBJ-N-REC_13
 70
     0
  0
APPID
  2
GENIUS_GENOBJ-N-HTC_13
 70
     0
  0
APPID
  2
GENIUS_GENHATCH_13
 70
     0
  0
APPID
  2
ACAD_PSEXT
 70
     0
  0
APPID
  2
ACAD_EXEMPT_FROM_CAD_STANDARDS
 70
     0
  0
APPID
  2
ACAECLAYERSTANDARD
 70
     0
  0
APPID
  2
GENIUS_GENCEN_19
 70
     0
  0
APPID
  2
ACAD_DSTYLE_DIMINSPECT
 70
     0
  0
APPID
  2
ACAD_DSTYLE_DIMANGULAR_EXT
 70
     0
  0
APPID
  2
ACADANNOPO
 70
     0
  0
APPID
  2
ACAD_NAV_VCDISPLAY
 70
     0
  0
APPID
  2
GENIUS_GENOBJ-N-FIL_13
 70
     0
  0
APPID
  2
ACAD_DSTYLE_DIMBREAK
 70
     0
  0
APPID
  2
ACAD_DSTYLE_DIMJAG
 70
     0
  0
APPID
  2
ACAD_DSTYLE_DIMRADIAL_EXTENSION
 70
     0
  0
APPID
  2
GENIUS_GENHINW_13
 70
     0
  0
APPID
  2
GENIUS_FIRSTVISTXT_14
 70
     0
  0
APPID
  2
GENIUS_GENOBJ-N-LEADER_13
 70
     0
  0
APPID
  2
GENIUS_DUMCFG0_13
 70
     0
  0
APPID
  2
ACAD_DSTYLE_DIMTEXT_FILL
 70
     0
  0
APPID
  2
AMG_2DHIDE
 70
     0
  0
APPID
  2
GENIUS_GEFSHEP_13
 70
     0
  0
APPID
  2
GENIUS_GENOBJ-F-SHE_13
 70
     0
  0
APPID
  2
GENIUS_GEFSHE_13
 70
     0
  0
APPID
  2
ACAD_DIMASSOC_DIMLFAC
 70
     0
  0
APPID
  2
ACAD_DIMASSOC_CALC_DIMLFAC
 70
     0
  0
APPID
  2
ACAD_DIMASSOC_OVERRIDDEN_D
 70
     0
  0
APPID
  2
GENIUS_GENOBJ-F-SHSV_13
 70
     0
  0
APPID
  2
GENIUS_GEFWELD_13
 70
     0
  0
APPID
  2
GENIUS_GENOBJ-N-CRS_13
 70
     0
  0
APPID
  2
GENIUS_GENOBJ-N-RSBK_13
 70
     0
  0
APPID
  2
GENIUS_GENOBJ-N-LIB_13
 70
     0
  0
APPID
  2
GENIUS_GENSCALE_13
 70
     0
  0
APPID
  2
GENIUS_GENDREL_13
 70
     0
  0
APPID
  2
GEVPT
 70
     0
  0
APPID
  2
GEVIT
 70
     0
  0
APPID
  2
VCC
 70
     0
  0
APPID
  2
GENBH
 70
     0
  0
APPID
  2
GEVMK
 70
     0
  0
APPID
  2
GENIUS_GENOBJ-F-DESC_13
 70
     0
  0
APPID
  2
GENIUS_GEFDESC_14
 70
     0
  0
APPID
  2
GENIUS_GENOBJ-F-FEAT_13
 70
     0
  0
APPID
  2
GENIUS_GEFFEAT_14
 70
     0
  0
APPID
  2
GENIUS_GEFPARTINS_13
 70
     0
  0
APPID
  2
GENIUS_GENSCREG_13
 70
     0
  0
APPID
  2
GENIUS_GEFSHP_13
 70
     0
  0
APPID
  2
GEVID1025574798
 70
     0
  0
APPID
  2
GEVID1025574769
 70
     0
  0
APPID
  2
GEVID1025757451
 70
     0
  0
APPID
  2
GEVID1240528327
 70
     0
  0
APPID
  2
AMG_2DSTRUCT_BTR
 70
     0
  0
APPID
  2
ACADM_2DVIEW_IGN_NOTIFY
 70
     0
  0
APPID
  2
GEVID1240528328
 70
     0
  0
APPID
  2
GEVID1240528329
 70
     0
  0
APPID
  2
GEVRADREF
 70
     0
  0
APPID
  2
GEVID1240528330
 70
     0
  0
APPID
  2
GEVID1240528331
 70
     0
  0
APPID
  2
GEVID1240528332
 70
     0
  0
APPID
  2
GEVID1240791080
 70
     0
  0
APPID
  2
GEVID1240791081
 70
     0
  0
APPID
  2
GEVID1240791082
 70
     0
  0
APPID
  2
GEVID1240791083
 70
     0
  0
APPID
  2
GEVID1240791084
 70
     0
  0
APPID
  2
GEVID1240791085
 70
     0
  0
APPID
  2
GEVID1240791086
 70
     0
  0
APPID
  2
GEVID1240791087
 70
     0
  0
APPID
  2
GEVID1240791088
 70
     0
  0
APPID
  2
GEVID1240791089
 70
     0
  0
APPID
  2
GEVID1240791090
 70
     0
  0
APPID
  2
GEVID1240791091
 70
     0
  0
APPID
  2
GEVID1240791092
 70
     0
  0
APPID
  2
GEVID1240791093
 70
     0
  0
APPID
  2
GEVID1240791094
 70
     0
  0
APPID
  2
GEVID1240791095
 70
     0
  0
APPID
  2
GEVID1240791096
 70
     0
  0
APPID
  2
GEVID1240791097
 70
     0
  0
APPID
  2
GEVID1240791098
 70
     0
  0
APPID
  2
GEVID1240791099
 70
     0
  0
APPID
  2
GEVID1240791100
 70
     0
  0
APPID
  2
GEVID1240791101
 70
     0
  0
APPID
  2
GEVID1240791102
 70
     0
  0
APPID
  2
GEVID1240791103
 70
     0
  0
APPID
  2
GEVID1240791104
 70
     0
  0
APPID
  2
GEVID1240791105
 70
     0
  0
APPID
  2
GEVID1240875381
 70
     0
  0
APPID
  2
GEVID1240875382
 70
     0
  0
APPID
  2
GEVID1240875383
 70
     0
  0
APPID
  2
GEVID1240875384
 70
     0
  0
APPID
  2
GEVID1240875385
 70
     0
  0
APPID
  2
GEVID1240875386
 70
     0
  0
APPID
  2
GEVID1240875387
 70
     0
  0
APPID
  2
GEVID1240875388
 70
     0
  0
APPID
  2
GEVID1240875389
 70
     0
  0
APPID
  2
GEVID1240875390
 70
     0
  0
APPID
  2
GEVID1240875391
 70
     0
  0
APPID
  2
GEVID1240875392
 70
     0
  0
APPID
  2
GEVID1240875393
 70
     0
  0
APPID
  2
GEVID1240875394
 70
     0
  0
APPID
  2
GEVID1240875395
 70
     0
  0
APPID
  2
GEVID1240875396
 70
     0
  0
APPID
  2
GEVID1240875397
 70
     0
  0
APPID
  2
GEVID1240875398
 70
     0
  0
APPID
  2
GEVID1240875399
 70
     0
  0
APPID
  2
GEVID1240908996
 70
     0
  0
APPID
  2
GEVID1240908997
 70
     0
  0
APPID
  2
GEVID1240908998
 70
     0
  0
APPID
  2
GEVID1240908999
 70
     0
  0
APPID
  2
GEVID1240909000
 70
     0
  0
APPID
  2
GENIUS_GENOBJ-N-ZOO_13
 70
     0
  0
APPID
  2
GENIUS_GENZOO_17
 70
     0
  0
APPID
  2
GENIUS_GE3SECT_13
 70
     0
  0
APPID
  2
GEV_VCCNULL_SWITCH_OFF
 70
     0
  0
APPID
  2
ACAD_DSTYLE_DIMTALN
 70
     0
  0
APPID
  2
DCO15
 70
     0
  0
APPID
  2
CONTENTBLOCKDESCRIPTION
 70
     0
  0
ENDTAB
  0
TABLE
  2
DIMSTYLE
 70
    22
  0
DIMSTYLE
  2
AM_ANSI
 70
     0
  3

  4
"
  5

  6

  7

 40
1.0
 41
2.5
 42
1.0
 43
10.0
 44
1.0
 45
0.0
 46
0.0
 47
0.1
 48
0.1
140
3.5
141
0.0
142
0.0
143
0.0393701
144
1.0
145
0.0
146
0.71
147
1.5
 71
     0
 72
     0
 73
     1
 74
     1
 75
     0
 76
     0
 77
     0
 78
     8
170
     0
171
     2
172
     0
173
     0
174
     0
175
     0
176
     2
177
     2
178
     4
  0
DIMSTYLE
  2
AM_ANSI$3
 70
     0
  3

  4
"
  5

  6

  7

 40
1.0
 41
2.5
 42
1.0
 43
10.0
 44
1.0
 45
0.0
 46
0.0
 47
0.1
 48
0.1
140
3.5
141
0.0
142
0.0
143
0.0393701
144
1.0
145
0.0
146
0.71
147
1.5
 71
     0
 72
     0
 73
     1
 74
     1
 75
     0
 76
     0
 77
     0
 78
     8
170
     0
171
     2
172
     0
173
     0
174
     0
175
     0
176
     2
177
     2
178
     4
  0
DIMSTYLE
  2
AM_ANSI$4
 70
     0
  3

  4
"
  5

  6

  7

 40
1.0
 41
2.5
 42
1.0
 43
10.0
 44
1.0
 45
0.0
 46
0.0
 47
0.1
 48
0.1
140
3.5
141
0.0
142
0.0
143
0.0393701
144
1.0
145
0.0
146
0.71
147
1.5
 71
     0
 72
     0
 73
     1
 74
     1
 75
     0
 76
     0
 77
     0
 78
     8
170
     0
171
     2
172
     0
173
     0
174
     0
175
     0
176
     2
177
     2
178
     4
  0
DIMSTYLE
  2
AM_ANSI$7
 70
     0
  3

  4
"
  5

  6

  7

 40
1.0
 41
2.5
 42
1.0
 43
10.0
 44
1.0
 45
0.0
 46
0.0
 47
0.1
 48
0.1
140
5.0
141
0.0
142
0.0
143
0.0393701
144
1.0
145
0.0
146
0.71
147
1.5
 71
     0
 72
     0
 73
     1
 74
     1
 75
     0
 76
     0
 77
     0
 78
     8
170
     0
171
     2
172
     0
173
     0
174
     0
175
     0
176
     2
177
     2
178
     4
  0
DIMSTYLE
  2
AM_ANSI$SF
 70
     0
  3

  4
"
  5

  6

  7

 40
1.0
 41
2.5
 42
1.0
 43
10.0
 44
1.0
 45
0.0
 46
0.0
 47
0.1
 48
0.1
140
3.5
141
0.0
142
0.0
143
0.0393701
144
1.0
145
0.0
146
0.71
147
1.5
 71
     0
 72
     0
 73
     1
 74
     1
 75
     1
 76
     1
 77
     0
 78
     8
170
     0
171
     2
172
     0
173
     0
174
     0
175
     0
176
     2
177
     2
178
     4
  0
DIMSTYLE
  2
AM_ANSI$SH
 70
     0
  3

  4
"
  5

  6
GENAXEH
  7

 40
1.0
 41
2.5
 42
1.0
 43
10.0
 44
1.0
 45
0.0
 46
0.0
 47
0.1
 48
0.1
140
3.5
141
0.0
142
0.0
143
0.0393701
144
1.0
145
0.0
146
0.71
147
1.5
 71
     0
 72
     0
 73
     1
 74
     1
 75
     1
 76
     1
 77
     0
 78
     8
170
     0
171
     2
172
     0
173
     1
174
     0
175
     0
176
     2
177
     2
178
     4
  0
DIMSTYLE
  2
AM_ISO
 70
     0
  3

  4
"
  5

  6

  7

 40
1.0
 41
2.5
 42
1.0
 43
10.0
 44
1.0
 45
0.0
 46
0.0
 47
0.1
 48
0.1
140
3.5
141
0.0
142
0.0
143
0.0393701
144
1.0
145
0.0
146
0.71
147
1.5
 71
     0
 72
     0
 73
     0
 74
     0
 75
     0
 76
     0
 77
     1
 78
     8
170
     0
171
     2
172
     1
173
     0
174
     0
175
     0
176
   256
177
   256
178
     2
  0
DIMSTYLE
  2
AM_ISO$3
 70
     0
  3

  4
"
  5

  6

  7

 40
1.0
 41
2.5
 42
1.0
 43
10.0
 44
1.0
 45
0.0
 46
0.0
 47
0.1
 48
0.1
140
3.5
141
0.0
142
0.0
143
0.0393701
144
1.0
145
0.0
146
0.71
147
1.5
 71
     0
 72
     0
 73
     0
 74
     1
 75
     0
 76
     0
 77
     1
 78
     8
170
     0
171
     2
172
     0
173
     0
174
     0
175
     0
176
   256
177
   256
178
     2
  0
DIMSTYLE
  2
AM_ISO$4
 70
     0
  3

  4
"
  5

  6

  7

 40
1.0
 41
2.5
 42
1.0
 43
10.0
 44
1.0
 45
0.0
 46
0.0
 47
0.1
 48
0.1
140
3.5
141
0.0
142
0.0
143
0.0393701
144
1.0
145
0.0
146
0.71
147
1.5
 71
     0
 72
     0
 73
     0
 74
     1
 75
     0
 76
     0
 77
     1
 78
     8
170
     0
171
     2
172
     0
173
     0
174
     0
175
     0
176
   256
177
   256
178
     2
  0
DIMSTYLE
  2
AM_ISO$6
 70
     0
  3

  4
"
  5

  6

  7

 40
1.0
 41
2.5
 42
1.0
 43
10.0
 44
1.0
 45
0.0
 46
0.0
 47
0.1
 48
0.1
140
3.5
141
0.0
142
0.0
143
0.0393701
144
1.0
145
0.0
146
0.71
147
1.5
 71
     0
 72
     0
 73
     0
 74
     0
 75
     0
 76
     0
 77
     0
 78
     8
170
     0
171
     2
172
     1
173
     0
174
     0
175
     0
176
   256
177
   256
178
     2
  0
DIMSTYLE
  2
AM_ISO$7
 70
     0
  3

  4
"
  5

  6

  7

 40
1.0
 41
2.5
 42
1.0
 43
10.0
 44
1.0
 45
0.0
 46
0.0
 47
0.1
 48
0.1
140
5.0
141
0.0
142
0.0
143
0.0393701
144
1.0
145
0.0
146
0.71
147
1.5
 71
     0
 72
     0
 73
     0
 74
     0
 75
     0
 76
     0
 77
     1
 78
     8
170
     0
171
     2
172
     1
173
     0
174
     0
175
     0
176
   256
177
   256
178
     2
  0
DIMSTYLE
  2
AM_ISO$SF
 70
     0
  3

  4
"
  5

  6

  7

 40
1.0
 41
2.5
 42
1.0
 43
10.0
 44
1.0
 45
0.0
 46
0.0
 47
0.1
 48
0.1
140
3.5
141
0.0
142
0.0
143
0.0393701
144
1.0
145
0.0
146
0.71
147
1.5
 71
     0
 72
     0
 73
     0
 74
     0
 75
     1
 76
     1
 77
     1
 78
     8
170
     0
171
     2
172
     1
173
     0
174
     0
175
     0
176
   256
177
   256
178
     2
  0
DIMSTYLE
  2
AM_ISO$SH
 70
     0
  3

  4
"
  5

  6
GENAXEH
  7

 40
1.0
 41
2.5
 42
1.0
 43
10.0
 44
1.0
 45
0.0
 46
0.0
 47
0.1
 48
0.1
140
3.5
141
0.0
142
0.0
143
0.0393701
144
2.0
145
0.0
146
0.71
147
1.5
 71
     0
 72
     0
 73
     0
 74
     0
 75
     1
 76
     1
 77
     1
 78
     8
170
     0
171
     2
172
     1
173
     1
174
     0
175
     0
176
   256
177
   256
178
     2
  0
DIMSTYLE
  2
AM_JIS
 70
     0
  3

  4
"
  5

  6

  7

 40
1.0
 41
2.0
 42
1.0
 43
8.0
 44
1.0
 45
0.0
 46
0.0
 47
0.1
 48
0.1
140
2.5
141
0.0
142
0.0
143
0.0393701
144
1.0
145
0.0
146
0.71
147
1.5
 71
     0
 72
     0
 73
     0
 74
     0
 75
     0
 76
     0
 77
     3
 78
     8
170
     0
171
     2
172
     1
173
     0
174
     0
175
     0
176
     2
177
     2
178
     4
  0
DIMSTYLE
  2
AM_JIS$3
 70
     0
  3

  4
"
  5

  6

  7

 40
1.0
 41
2.0
 42
1.0
 43
10.0
 44
1.0
 45
0.0
 46
0.0
 47
0.1
 48
0.1
140
2.5
141
0.0
142
0.0
143
0.0393701
144
1.0
145
0.0
146
0.71
147
1.5
 71
     0
 72
     0
 73
     0
 74
     1
 75
     0
 76
     0
 77
     3
 78
     8
170
     0
171
     2
172
     0
173
     0
174
     0
175
     0
176
     2
177
     2
178
     4
  0
DIMSTYLE
  2
AM_JIS$4
 70
     0
  3

  4
"
  5

  6

  7

 40
1.0
 41
2.0
 42
1.0
 43
10.0
 44
1.0
 45
0.0
 46
0.0
 47
0.1
 48
0.1
140
2.5
141
0.0
142
0.0
143
0.0393701
144
1.0
145
0.0
146
0.71
147
1.5
 71
     0
 72
     0
 73
     0
 74
     0
 75
     0
 76
     0
 77
     3
 78
     8
170
     0
171
     2
172
     0
173
     0
174
     0
175
     0
176
     2
177
     2
178
     4
  0
DIMSTYLE
  2
AM_JIS$6
 70
     0
  3

  4
"
  5

  6

  7

 40
1.0
 41
2.0
 42
1.0
 43
10.0
 44
1.0
 45
0.0
 46
0.0
 47
0.1
 48
0.1
140
2.5
141
0.0
142
0.0
143
0.0393701
144
1.0
145
0.0
146
0.71
147
1.5
 71
     0
 72
     0
 73
     0
 74
     0
 75
     0
 76
     0
 77
     0
 78
     8
170
     0
171
     2
172
     1
173
     0
174
     0
175
     0
176
     2
177
     2
178
     4
  0
DIMSTYLE
  2
AM_JIS$7
 70
     0
  3

  4
"
  5

  6
OPEN30
  7
OPEN30
 40
1.0
 41
2.0
 42
1.0
 43
10.0
 44
1.0
 45
0.0
 46
0.0
 47
0.1
 48
0.1
140
2.5
141
0.0
142
0.0
143
0.0393701
144
1.0
145
0.0
146
0.71
147
1.5
 71
     0
 72
     0
 73
     0
 74
     0
 75
     0
 76
     0
 77
     3
 78
     8
170
     0
171
     2
172
     1
173
     0
174
     0
175
     0
176
     2
177
     2
178
     4
  0
DIMSTYLE
  2
AM_JIS$SF
 70
     0
  3

  4
"
  5

  6

  7

 40
1.0
 41
2.0
 42
1.0
 43
10.0
 44
1.0
 45
0.0
 46
0.0
 47
0.1
 48
0.1
140
2.5
141
0.0
142
0.0
143
0.0393701
144
1.0
145
0.0
146
0.71
147
1.5
 71
     0
 72
     0
 73
     0
 74
     0
 75
     1
 76
     1
 77
     3
 78
     8
170
     0
171
     2
172
     1
173
     0
174
     0
175
     0
176
     2
177
     2
178
     4
  0
DIMSTYLE
  2
AM_JIS$SH
 70
     0
  3

  4
"
  5

  6
GENAXEH
  7

 40
1.0
 41
2.0
 42
1.0
 43
10.0
 44
1.0
 45
0.0
 46
0.0
 47
0.1
 48
0.1
140
2.5
141
0.0
142
0.0
143
0.0393701
144
2.0
145
0.0
146
0.71
147
1.5
 71
     0
 72
     0
 73
     0
 74
     0
 75
     1
 76
     1
 77
     3
 78
     8
170
     0
171
     2
172
     1
173
     1
174
     0
175
     0
176
     2
177
     2
178
     4
  0
DIMSTYLE
  2
AM_JIS$0
 70
     0
  3

  4
"
  5

  6

  7

 40
1.0
 41
2.0
 42
1.0
 43
8.0
 44
1.0
 45
0.0
 46
0.0
 47
0.1
 48
0.1
140
2.5
141
0.0
142
0.0
143
0.0393701
144
1.0
145
0.0
146
0.71
147
1.5
 71
     0
 72
     0
 73
     0
 74
     0
 75
     0
 76
     0
 77
     3
 78
     8
170
     0
171
     2
172
     1
173
     0
174
     0
175
     0
176
     2
177
     2
178
     4
  0
DIMSTYLE
  2
STANDARD
 70
     0
  3

  4

  5

  6

  7

 40
1.0
 41
0.18
 42
0.0625
 43
0.38
 44
0.18
 45
0.0
 46
0.0
 47
0.0
 48
0.0
140
0.18
141
0.09
142
0.0
143
25.399999999999999
144
1.0
145
0.0
146
1.0
147
0.09
 71
     0
 72
     0
 73
     1
 74
     1
 75
     0
 76
     0
 77
     0
 78
     0
170
     0
171
     2
172
     0
173
     0
174
     0
175
     0
176
     0
177
     0
178
     0
  0
ENDTAB
  0
ENDSEC
  0
SECTION
  2
BLOCKS
  0
BLOCK
  8
0
  2
$MODEL_SPACE
 70
     0
 10
0.0
 20
0.0
 30
0.0
  3
$MODEL_SPACE
  1

  0
ENDBLK
  5
77
  8
0
  0
BLOCK
 67
     1
  8
0
  2
$PAPER_SPACE
 70
     0
 10
0.0
 20
0.0
 30
0.0
  3
$PAPER_SPACE
  1

  0
ENDBLK
  5
73
 67
     1
  8
0
  0
BLOCK
  8
0
  2
GENAXEH
 70
     0
 10
0.0
 20
0.0
 30
0.0
  3
GENAXEH
  1

  0
LINE
  5
86A3
  8
0
 10
-1.0
 20
0.0
 30
0.0
 11
1.0
 21
0.0
 31
0.0
  0
ENDBLK
  5
86A4
  8
0
  0
BLOCK
  8
0
  2
_OPEN30
 70
     0
 10
0.0
 20
0.0
 30
0.0
  3
_OPEN30
  1

  0
LINE
  5
86EA
  8
0
  6
BYBLOCK
 62
     0
 10
-1.0
 20
0.26794919
 30
0.0
 11
0.0
 21
0.0
 31
0.0
  0
LINE
  5
86EB
  8
0
  6
BYBLOCK
 62
     0
 10
0.0
 20
0.0
 30
0.0
 11
-1.0
 21
-0.26794919
 31
0.0
  0
LINE
  5
86EC
  8
0
  6
BYBLOCK
 62
     0
 10
0.0
 20
0.0
 30
0.0
 11
-1.0
 21
0.0
 31
0.0
  0
ENDBLK
  5
86ED
  8
0
  0
BLOCK
  8
0
  2
_ACMFILLEDHALF
 70
     0
 10
0.0
 20
0.0
 30
0.0
  3
_ACMFILLEDHALF
  1

  0
TRACE
  5
87C3
  8
0
  6
CONTINUOUS
 62
     0
 10
-0.8
 20
0.0
 30
0.0
 11
-1.0
 21
0.166666666
 31
0.0
 12
0.0
 22
0.0
 32
0.0
 13
0.0
 23
0.0
 33
0.0
  0
LINE
  5
87C4
  8
0
  6
CONTINUOUS
 62
     0
 10
-1.0
 20
0.0
 30
0.0
 11
-0.8
 21
0.0
 31
0.0
  0
ENDBLK
  5
87C5
  8
0
  0
BLOCK
  8
0
  2
*U7
 70
     1
 10
0.0
 20
0.0
 30
0.0
  3
*U7
  1

  0
TEXT
  5
885F
  8
0
 62
     0
 10
5.1211371559201648
 20
5.9826223594979657
 30
0.0
 40
15.0
  1
ＶＸ０８－００３ＥＭ～ＶＸ０８－０３０ＥＭ
 41
0.7400000000000003
  0
ENDBLK
  5
8861
  8
0
  0
ENDSEC
  0
SECTION
  2
ENTITIES
  0
LINE
  5
5E7B
  8
0
 62
     0
 10
400.58070280505348
 20
583.14887470227359
 30
0.0
 11
400.58070280505348
 21
509.64887470227359
 31
0.0
  0
LINE
  5
5EE7
  8
0
 62
     0
 10
400.58070280505348
 20
583.14887470227359
 30
0.0
 11
400.58070280505348
 21
436.14893281209379
 31
0.0
  0
LINE
  5
5EF5
  8
0
  6
AM_ISO08W050
 62
     0
 10
164.70592276871409
 20
509.64893281209362
 30
0.0
 11
441.63517816808633
 21
509.64893281209362
 31
0.0
  0
LINE
  5
5F4A
  8
0
  6
AM_ISO08W050
 62
     0
 10
424.66930280505329
 20
547.64890281209375
 30
0.0
 11
658.55215280505308
 21
547.64890281209375
 31
0.0
  0
LINE
  5
5F61
  8
0
 62
     0
 10
400.58070280505348
 20
583.1489628120936
 30
0.0
 11
430.25525280505371
 21
584.18521781209358
 31
0.0
  0
LINE
  5
5F62
  8
0
 62
     0
 10
405.58070280505342
 20
429.89789281209391
 30
0.0
 11
405.58070280505342
 21
447.64890281209381
 31
0.0
  0
LINE
  5
5F63
  8
0
 62
     0
 10
408.31925280505362
 20
426.90933781209372
 30
0.0
 11
432.34220280505349
 21
424.80759281209379
 31
0.0
  0
LINE
  5
5F64
  8
0
 62
     0
 10
400.58070280505348
 20
436.14893281209379
 30
0.0
 11
400.58070280505348
 21
583.14893281209368
 31
0.0
  0
LINE
  5
5F6B
  8
0
 62
     0
 10
400.58070280505348
 20
470.17423281209358
 30
0.0
 11
435.08075280505358
 21
470.17423281209358
 31
0.0
  0
LINE
  5
5F6C
  8
0
 62
     0
 10
400.58070280505348
 20
549.12360281209385
 30
0.0
 11
435.08075280505358
 21
549.12360281209385
 31
0.0
  0
LINE
  5
5F6D
  8
0
 62
     0
 10
400.58070280505348
 20
571.22754781209358
 30
0.0
 11
435.08075280505358
 21
571.22754781209358
 31
0.0
  0
LINE
  5
5F6E
  8
0
 62
     0
 10
400.58070280505348
 20
448.07028781209362
 30
0.0
 11
435.08075280505358
 21
448.07028781209362
 31
0.0
  0
ARC
  5
5FC1
  8
0
 62
     0
 10
402.58075280505358
 20
433.07727781209371
 30
0.0
 40
3.0000000500000001
 50
0.0
 51
87.999999999996362
  0
ARC
  5
5FC2
  8
0
 62
     0
 10
408.58075280505358
 20
429.89789281209391
 30
0.0
 40
3.0000000500000001
 50
179.999989999999
 51
264.99999999999937
  0
ARC
  5
5FC3
  8
0
 62
     0
 10
432.08070280505342
 20
421.8190378120936
 30
0.0
 40
3.0000000500000001
 50
0.0
 51
84.999997000011817
  0
ARC
  5
5FC4
  8
0
 62
     0
 10
430.08075280505358
 20
589.18216781209355
 30
0.0
 40
5.0
 50
272.00000000000369
 51
0.0
  0
LINE
  5
7015
  8
0
 62
     0
 10
400.58070280505348
 20
436.14893281209379
 30
0.0
 11
402.68545129690619
 21
436.07545034312062
 31
0.0
  0
LINE
  5
7688
  8
0
 62
     0
 10
391.58070280505348
 20
436.14890370227363
 30
0.0
 11
400.58070280505348
 21
436.14890370227363
 31
0.0
  0
LINE
  5
7689
  8
0
 62
     0
 10
390.58070280505348
 20
571.64890370227363
 30
0.0
 11
390.58070280505348
 21
555.8189037022737
 31
0.0
  0
ARC
  5
768A
  8
0
 62
     0
 10
387.75708380505353
 20
434.75273870227358
 30
0.0
 40
2.0
 50
270.0
 51
345.0000029999984
  0
LINE
  5
768B
  8
0
 62
     0
 10
390.58070280505348
 20
437.14890370227363
 30
0.0
 11
390.58070280505348
 21
437.56322070227361
 31
0.0
  0
LINE
  5
768C
  8
0
 62
     0
 10
390.58070280505348
 20
437.14390970227362
 30
0.0
 11
390.58070280505348
 21
437.14890370227363
 31
0.0
  0
LINE
  5
768D
  8
0
 62
     0
 10
390.49314680505353
 20
437.23645970227358
 30
0.0
 11
390.58070280505348
 21
437.14890370227363
 31
0.0
  0
LINE
  5
768E
  8
0
 62
     0
 10
392.58070280505348
 20
446.64890370227363
 30
0.0
 11
391.50417980505341
 21
442.63126570227359
 31
0.0
  0
ARC
  5
768F
  8
0
 62
     0
 10
391.57820580505359
 20
437.14640670227362
 30
0.0
 40
0.9975059999999999
 50
179.85657799999959
 51
270.14342200000033
  0
LINE
  5
7690
  8
0
 62
     0
 10
391.58070280505348
 20
446.64890370227363
 30
0.0
 11
400.58070280505348
 21
446.64890370227363
 31
0.0
  0
LINE
  5
7691
  8
0
 62
     0
 10
392.58070280505348
 20
445.02732270227358
 30
0.0
 11
389.68893580505352
 21
434.2351007022736
 31
0.0
  0
ARC
  5
7692
  8
0
 62
     0
 10
389.57232780505348
 20
443.14890370227351
 30
0.0
 40
2.0
 50
270.0
 51
345.00000000000239
  0
ARC
  5
7693
  8
0
 62
     0
 10
391.58070280505348
 20
447.64890370227363
 30
0.0
 40
1.0
 50
180.0
 51
270.0
  0
ARC
  5
7694
  8
0
 62
     0
 10
321.58070280505348
 20
431.78670570227359
 30
0.0
 40
2.0
 50
270.0
 51
0.0
  0
ARC
  5
7695
  8
0
 62
     0
 10
321.58070280505348
 20
432.21398370227359
 30
0.0
 40
2.0
 50
270.0
 51
0.0
  0
ARC
  5
7696
  8
0
 62
     0
 10
321.58070280505348
 20
433.21933470227361
 30
0.0
 40
2.0
 50
270.0
 51
346.5086890000016
  0
LINE
  5
7697
  8
0
 62
     0
 10
323.58070280505348
 20
431.78670570227359
 30
0.0
 11
323.58070280505348
 21
432.75273870227358
 31
0.0
  0
ARC
  5
7698
  8
0
 62
     0
 10
240.58070280505351
 20
431.78670570227359
 30
0.0
 40
2.0
 50
180.0
 51
270.0
  0
LINE
  5
7699
  8
0
 62
     0
 10
238.58070280505351
 20
433.76454770227372
 30
0.0
 11
238.58070280505351
 21
433.21933470227361
 31
0.0
  0
ARC
  5
769A
  8
0
 62
     0
 10
240.4301528050535
 20
432.21398370227359
 30
0.0
 40
2.0
 50
195.7695469999999
 51
270.0
  0
ARC
  5
769B
  8
0
 62
     0
 10
240.58070280505351
 20
433.21933470227361
 30
0.0
 40
2.0
 50
180.0
 51
270.0
  0
ARC
  5
769C
  8
0
 62
     0
 10
240.58070280505351
 20
434.75273870227358
 30
0.0
 40
2.0
 50
180.0
 51
270.0
  0
LINE
  5
769D
  8
0
 62
     0
 10
238.58070280505351
 20
438.12053670227363
 30
0.0
 11
238.58070280505351
 21
434.75273870227358
 31
0.0
  0
ARC
  5
769E
  8
0
 62
     0
 10
236.58070280505351
 20
438.12053670227363
 30
0.0
 40
2.0
 50
0.0
 51
90.0
  0
ARC
  5
769F
  8
0
 62
     0
 10
236.58070280505351
 20
433.76454770227372
 30
0.0
 40
2.0
 50
0.0
 51
90.0
  0
ARC
  5
76A0
  8
0
 62
     0
 10
236.58070280505351
 20
431.12690870227351
 30
0.0
 40
2.0
 50
15.7695469999999
 51
90.0
  0
ARC
  5
76A1
  8
0
 62
     0
 10
236.58070280505351
 20
456.74785370227352
 30
0.0
 40
2.0
 50
0.0
 51
90.0
  0
LINE
  5
76A2
  8
0
 62
     0
 10
238.58070280505351
 20
444.2929847022736
 30
0.0
 11
238.58070280505351
 21
456.74785370227352
 31
0.0
  0
ARC
  5
76A3
  8
0
 62
     0
 10
240.58070280505351
 20
443.14890370227351
 30
0.0
 40
2.0
 50
180.0
 51
270.0
  0
ARC
  5
76A4
  8
0
 62
     0
 10
236.58070280505351
 20
444.2929847022736
 30
0.0
 40
2.0
 50
0.0
 51
90.0
  0
LINE
  5
76A5
  8
0
 62
     0
 10
238.58070280505351
 20
444.2929847022736
 30
0.0
 11
238.58070280505351
 21
443.14890370227351
 31
0.0
  0
LINE
  5
76A6
  8
0
 62
     0
 10
236.58070280505351
 20
446.2929847022736
 30
0.0
 11
231.07469180505339
 21
446.2929847022736
 31
0.0
  0
LINE
  5
76A7
  8
0
 62
     0
 10
240.58070280505351
 20
441.14890370227363
 30
0.0
 11
389.57232780505348
 21
441.14890370227363
 31
0.0
  0
LINE
  5
76A8
  8
0
 62
     0
 10
231.07469180505339
 20
458.74785370227357
 30
0.0
 11
389.08070280505348
 21
458.74785370227357
 31
0.0
  0
LINE
  5
76A9
  8
0
 62
     0
 10
240.58070280505351
 20
429.78670570227359
 30
0.0
 11
321.58070280505348
 21
429.78670570227359
 31
0.0
  0
LINE
  5
76AA
  8
0
 62
     0
 10
240.4301528050535
 20
430.21398370227359
 30
0.0
 11
321.58070280505348
 21
430.21398370227359
 31
0.0
  0
LINE
  5
76AB
  8
0
 62
     0
 10
240.58070280505351
 20
431.21933470227361
 30
0.0
 11
321.58070280505348
 21
431.21933470227361
 31
0.0
  0
LINE
  5
76AC
  8
0
 62
     0
 10
240.58070280505351
 20
432.75273870227358
 30
0.0
 11
387.75708380505353
 21
432.75273870227358
 31
0.0
  0
LINE
  5
76AD
  8
0
 62
     0
 10
236.58070280505351
 20
433.12690870227362
 30
0.0
 11
231.07469180505339
 21
433.12690870227362
 31
0.0
  0
LINE
  5
76AE
  8
0
 62
     0
 10
236.58070280505351
 20
435.76454770227338
 30
0.0
 11
231.07469180505339
 21
435.76454770227338
 31
0.0
  0
LINE
  5
76AF
  8
0
 62
     0
 10
236.58070280505351
 20
440.12053670227363
 30
0.0
 11
231.07469180505339
 21
440.12053670227363
 31
0.0
  0
LINE
  5
76B0
  8
0
 62
     0
 10
391.58070280505348
 20
572.64890370227363
 30
0.0
 11
400.58070280505348
 21
572.64890370227363
 31
0.0
  0
LINE
  5
76B1
  8
0
 62
     0
 10
392.58070280505348
 20
572.64890370227363
 30
0.0
 11
391.50417980505341
 21
576.66654170227355
 31
0.0
  0
ARC
  5
76B2
  8
0
 62
     0
 10
391.58070280505348
 20
571.64890370227363
 30
0.0
 40
1.0
 50
90.0
 51
180.0
  0
LINE
  5
76B3
  8
0
 62
     0
 10
390.49314680505353
 20
582.06134770227357
 30
0.0
 11
390.58070280505348
 21
582.14890370227363
 31
0.0
  0
LINE
  5
76B4
  8
0
 62
     0
 10
390.58070280505348
 20
582.15389770227353
 30
0.0
 11
390.58070280505348
 21
582.14890370227363
 31
0.0
  0
ARC
  5
76B5
  8
0
 62
     0
 10
391.57820580505359
 20
582.15140070227335
 30
0.0
 40
0.9975059999999999
 50
89.856577999999615
 51
180.1434220000003
  0
LINE
  5
76B6
  8
0
 62
     0
 10
390.58070280505348
 20
582.14890370227363
 30
0.0
 11
390.58070280505348
 21
581.73458670227365
 31
0.0
  0
LINE
  5
76B7
  8
0
 62
     0
 10
391.58070280505348
 20
583.14890370227363
 30
0.0
 11
400.58070280505348
 21
583.14890370227363
 31
0.0
  0
LINE
  5
76B8
  8
0
 62
     0
 10
392.58070280505348
 20
574.27048470227362
 30
0.0
 11
389.68893580505352
 21
585.06270670227343
 31
0.0
  0
ARC
  5
76B9
  8
0
 62
     0
 10
389.57232780505348
 20
576.14890370227363
 30
0.0
 40
2.0
 50
14.9999999999976
 51
90.0
  0
ARC
  5
76BA
  8
0
 62
     0
 10
387.75708380505353
 20
584.54506870227362
 30
0.0
 40
2.0
 50
14.999997000001709
 51
90.0
  0
LINE
  5
76BB
  8
0
 62
     0
 10
323.58070280505348
 20
587.51110170227355
 30
0.0
 11
323.58070280505348
 21
586.54506870227362
 31
0.0
  0
ARC
  5
76BC
  8
0
 62
     0
 10
321.58070280505348
 20
586.07847270227353
 30
0.0
 40
2.0
 50
13.491310999998401
 51
90.0
  0
ARC
  5
76BD
  8
0
 62
     0
 10
321.58070280505348
 20
587.08382370227343
 30
0.0
 40
2.0
 50
0.0
 51
90.0
  0
ARC
  5
76BE
  8
0
 62
     0
 10
321.58070280505348
 20
587.51110170227355
 30
0.0
 40
2.0
 50
0.0
 51
90.0
  0
LINE
  5
76BF
  8
0
 62
     0
 10
238.58070280505351
 20
575.00482270227371
 30
0.0
 11
238.58070280505351
 21
576.14890370227363
 31
0.0
  0
ARC
  5
76C0
  8
0
 62
     0
 10
236.58070280505351
 20
575.00482270227371
 30
0.0
 40
2.0
 50
270.0
 51
0.0
  0
ARC
  5
76C1
  8
0
 62
     0
 10
240.58070280505351
 20
576.14890370227363
 30
0.0
 40
2.0
 50
90.0
 51
180.0
  0
LINE
  5
76C2
  8
0
 62
     0
 10
238.58070280505351
 20
575.00482270227371
 30
0.0
 11
238.58070280505351
 21
562.54995370227357
 31
0.0
  0
ARC
  5
76C3
  8
0
 62
     0
 10
236.58070280505351
 20
562.54995370227357
 30
0.0
 40
2.0
 50
270.0
 51
0.0
  0
LINE
  5
76C4
  8
0
 62
     0
 10
238.58070280505351
 20
581.17727070227363
 30
0.0
 11
238.58070280505351
 21
584.54506870227362
 31
0.0
  0
ARC
  5
76C5
  8
0
 62
     0
 10
236.58070280505351
 20
581.17727070227363
 30
0.0
 40
2.0
 50
270.0
 51
0.0
  0
ARC
  5
76C6
  8
0
 62
     0
 10
240.58070280505351
 20
584.54506870227362
 30
0.0
 40
2.0
 50
90.0
 51
180.0
  0
ARC
  5
76C7
  8
0
 62
     0
 10
236.58070280505351
 20
585.53325970227365
 30
0.0
 40
2.0
 50
270.0
 51
0.0
  0
ARC
  5
76C8
  8
0
 62
     0
 10
240.58070280505351
 20
586.07847270227353
 30
0.0
 40
2.0
 50
90.0
 51
180.0
  0
ARC
  5
76C9
  8
0
 62
     0
 10
236.58070280505351
 20
588.17089870227369
 30
0.0
 40
2.0
 50
270.0
 51
344.23045300000013
  0
ARC
  5
76CA
  8
0
 62
     0
 10
240.4301528050535
 20
587.08382370227343
 30
0.0
 40
2.0
 50
90.0
 51
164.2304530000001
  0
LINE
  5
76CB
  8
0
 62
     0
 10
238.58070280505351
 20
585.53325970227365
 30
0.0
 11
238.58070280505351
 21
586.07847270227353
 31
0.0
  0
ARC
  5
76CC
  8
0
 62
     0
 10
240.58070280505351
 20
587.51110170227355
 30
0.0
 40
2.0
 50
90.0
 51
180.0
  0
LINE
  5
76CD
  8
0
 62
     0
 10
236.58070280505351
 20
586.17089870227358
 30
0.0
 11
231.07469180505339
 21
586.17089870227358
 31
0.0
  0
LINE
  5
76CE
  8
0
 62
     0
 10
236.58070280505351
 20
583.53325970227365
 30
0.0
 11
231.07469180505339
 21
583.53325970227365
 31
0.0
  0
LINE
  5
76CF
  8
0
 62
     0
 10
236.58070280505351
 20
579.17727070227363
 30
0.0
 11
231.07469180505339
 21
579.17727070227363
 31
0.0
  0
LINE
  5
76D0
  8
0
 62
     0
 10
236.58070280505351
 20
573.00482270227371
 30
0.0
 11
231.07469180505339
 21
573.00482270227371
 31
0.0
  0
LINE
  5
76D1
  8
0
 62
     0
 10
240.58070280505351
 20
589.51110170227355
 30
0.0
 11
321.58070280505348
 21
589.51110170227355
 31
0.0
  0
LINE
  5
76D2
  8
0
 62
     0
 10
240.4301528050535
 20
589.08382370227343
 30
0.0
 11
321.58070280505348
 21
589.08382370227343
 31
0.0
  0
LINE
  5
76D3
  8
0
 62
     0
 10
240.58070280505351
 20
588.07847270227353
 30
0.0
 11
321.58070280505348
 21
588.07847270227353
 31
0.0
  0
LINE
  5
76D4
  8
0
 62
     0
 10
240.58070280505351
 20
586.54506870227362
 30
0.0
 11
387.75708380505353
 21
586.54506870227362
 31
0.0
  0
LINE
  5
76D5
  8
0
 62
     0
 10
240.58070280505351
 20
578.14890370227363
 30
0.0
 11
389.57232780505348
 21
578.14890370227363
 31
0.0
  0
LINE
  5
76D6
  8
0
 62
     0
 10
231.07469180505339
 20
560.54995370227346
 30
0.0
 11
389.08070280505348
 21
560.54995370227346
 31
0.0
  0
LINE
  5
76D7
  8
0
 62
     0
 10
390.58070280505348
 20
465.81890370227359
 30
0.0
 11
390.58070280505348
 21
473.45890370227357
 31
0.0
  0
LINE
  5
76D8
  8
0
 62
     0
 10
390.58070280505348
 20
553.47884570227347
 30
0.0
 11
390.58070280505348
 21
545.83890370227368
 31
0.0
  0
ARC
  5
76D9
  8
0
 62
     0
 10
391.5800638050535
 20
462.60737270227361
 30
0.0
 40
1.0026319999999971
 50
0.0540849999984558
 51
81.243759000000509
  0
LINE
  5
76DA
  8
0
 62
     0
 10
391.73269580505342
 20
463.59831970227361
 30
0.0
 11
389.97389680505353
 21
463.8689037022736
 31
0.0
  0
LINE
  5
76DB
  8
0
 62
     0
 10
391.72269580505338
 20
465.68831970227359
 30
0.0
 11
390.12000780505338
 21
465.46890370227362
 31
0.0
  0
ARC
  5
76DC
  8
0
 62
     0
 10
391.57572780505348
 20
466.68452370227362
 30
0.0
 40
1.0069859999999999
 50
278.39216299999862
 51
359.64700199999788
  0
LINE
  5
76DD
  8
0
 62
     0
 10
392.5826958050535
 20
466.6783197022736
 30
0.0
 11
392.5826958050535
 21
462.6083197022736
 31
0.0
  0
ARC
  5
76DE
  8
0
 62
     0
 10
390.03933980505349
 20
464.65496370227362
 30
0.0
 40
0.8033630000000001
 50
0.2393300000011745
 51
89.760669999998839
  0
ARC
  5
76DF
  8
0
 62
     0
 10
390.03763380505342
 20
464.66338170227363
 30
0.0
 40
0.8050779999999997
 50
270.3602510000016
 51
359.6397490000017
  0
ARC
  5
76E0
  8
0
 62
     0
 10
391.57572780505348
 20
552.61328370227363
 30
0.0
 40
1.0069859999999999
 50
0.3529979999987895
 51
81.607837000001453
  0
LINE
  5
76E1
  8
0
 62
     0
 10
391.72269580505338
 20
553.60948770227344
 30
0.0
 11
390.12000780505338
 21
553.82890370227358
 31
0.0
  0
ARC
  5
76E2
  8
0
 62
     0
 10
391.5800638050535
 20
556.69043470227348
 30
0.0
 40
1.0026319999999971
 50
278.75624099999948
 51
359.94591499999831
  0
LINE
  5
76E3
  8
0
 62
     0
 10
392.5826958050535
 20
552.61948770227343
 30
0.0
 11
392.5826958050535
 21
556.68948770227371
 31
0.0
  0
LINE
  5
76E4
  8
0
 62
     0
 10
391.73269580505342
 20
555.6994877022737
 30
0.0
 11
389.97389680505353
 21
555.42890370227337
 31
0.0
  0
ARC
  5
76E5
  8
0
 62
     0
 10
390.03933980505349
 20
554.64284370227347
 30
0.0
 40
0.8033630000000001
 50
270.23933000000108
 51
359.76067000000211
  0
ARC
  5
76E6
  8
0
 62
     0
 10
390.03763380505342
 20
554.63442570227346
 30
0.0
 40
0.8050779999999997
 50
0.3602510000016315
 51
89.639748999998375
  0
LINE
  5
76E7
  8
0
 62
     0
 10
390.58070280505348
 20
547.51284870227357
 30
0.0
 11
400.58070280505348
 21
547.51284870227357
 31
0.0
  0
LINE
  5
76E8
  8
0
 62
     0
 10
390.58070280505348
 20
471.79495870227362
 30
0.0
 11
400.58070280505348
 21
471.79495870227362
 31
0.0
  0
LINE
  5
76E9
  8
0
 62
     0
 10
391.72070280505352
 20
505.67890370227371
 30
0.0
 11
390.04070280505351
 21
505.44890370227358
 31
0.0
  0
LINE
  5
76EA
  8
0
 62
     0
 10
391.7307028050534
 20
503.58890370227363
 30
0.0
 11
390.04070280505351
 21
503.84890370227362
 31
0.0
  0
LINE
  5
76EB
  8
0
 62
     0
 10
392.58070280505348
 20
506.66890370227372
 30
0.0
 11
392.58070280505348
 21
502.59890370227362
 31
0.0
  0
LINE
  5
76EC
  8
0
 62
     0
 10
391.72070280505352
 20
495.6789037022736
 30
0.0
 11
390.04070280505351
 21
495.44890370227358
 31
0.0
  0
LINE
  5
76ED
  8
0
 62
     0
 10
391.7307028050534
 20
493.58890370227363
 30
0.0
 11
390.04070280505351
 21
493.84890370227362
 31
0.0
  0
LINE
  5
76EE
  8
0
 62
     0
 10
392.58070280505348
 20
496.66890370227361
 30
0.0
 11
392.58070280505348
 21
492.59890370227362
 31
0.0
  0
LINE
  5
76EF
  8
0
 62
     0
 10
391.7307028050534
 20
483.58890370227363
 30
0.0
 11
390.04070280505351
 21
483.84890370227362
 31
0.0
  0
LINE
  5
76F0
  8
0
 62
     0
 10
391.72070280505352
 20
485.6789037022736
 30
0.0
 11
390.04070280505351
 21
485.44890370227358
 31
0.0
  0
LINE
  5
76F1
  8
0
 62
     0
 10
392.58070280505348
 20
486.66890370227361
 30
0.0
 11
392.58070280505348
 21
482.59890370227339
 31
0.0
  0
LINE
  5
76F2
  8
0
 62
     0
 10
392.58070280505348
 20
476.66890370227361
 30
0.0
 11
392.58070280505348
 21
472.66890370227361
 31
0.0
  0
LINE
  5
76F3
  8
0
 62
     0
 10
391.72070280505352
 20
475.6789037022736
 30
0.0
 11
390.04070280505351
 21
475.44890370227358
 31
0.0
  0
LINE
  5
76F4
  8
0
 62
     0
 10
391.7307028050534
 20
473.58890370227363
 30
0.0
 11
390.04070280505351
 21
473.84890370227362
 31
0.0
  0
ARC
  5
76F5
  8
0
 62
     0
 10
390.03230780505351
 20
504.64890370227363
 30
0.0
 40
0.8000439999999999
 50
270.6012089999997
 51
89.398791000000301
  0
ARC
  5
76F6
  8
0
 62
     0
 10
391.57807080505353
 20
502.59795770227362
 30
0.0
 40
1.0026319999999971
 50
0.0540849999984558
 51
81.243759000000509
  0
ARC
  5
76F7
  8
0
 62
     0
 10
391.5737358050535
 20
506.67510770227358
 30
0.0
 40
1.0069859999999999
 50
278.39216299999862
 51
359.64700199999788
  0
ARC
  5
76F8
  8
0
 62
     0
 10
390.0356408050535
 20
494.65396570227358
 30
0.0
 40
0.8050779999999997
 50
270.3602510000016
 51
359.6397490000017
  0
ARC
  5
76F9
  8
0
 62
     0
 10
391.57807080505353
 20
492.59795770227362
 30
0.0
 40
1.0026319999999971
 50
0.0540849999984558
 51
81.243759000000509
  0
ARC
  5
76FA
  8
0
 62
     0
 10
391.5737358050535
 20
496.67510770227358
 30
0.0
 40
1.0069859999999999
 50
278.39216299999862
 51
359.64700199999788
  0
ARC
  5
76FB
  8
0
 62
     0
 10
390.03734680505352
 20
484.64554770227357
 30
0.0
 40
0.8033630000000001
 50
0.2393300000011745
 51
89.760669999998839
  0
ARC
  5
76FC
  8
0
 62
     0
 10
390.0356408050535
 20
484.65396570227358
 30
0.0
 40
0.8050779999999997
 50
270.3602510000016
 51
359.6397490000017
  0
ARC
  5
76FD
  8
0
 62
     0
 10
391.5737358050535
 20
486.67510770227358
 30
0.0
 40
1.0069859999999999
 50
278.39216299999862
 51
359.64700199999788
  0
ARC
  5
76FE
  8
0
 62
     0
 10
391.57807080505353
 20
482.59795770227362
 30
0.0
 40
1.0026319999999971
 50
0.0540849999984558
 51
81.243759000000509
  0
ARC
  5
76FF
  8
0
 62
     0
 10
391.5737358050535
 20
476.67510770227358
 30
0.0
 40
1.0069859999999999
 50
278.39216299999862
 51
359.64700199999788
  0
ARC
  5
7700
  8
0
 62
     0
 10
391.57807080505353
 20
472.5979577022735
 30
0.0
 40
1.0026319999999971
 50
0.0540849999984558
 51
81.243759000000509
  0
ARC
  5
7701
  8
0
 62
     0
 10
390.0356408050535
 20
474.65396570227358
 30
0.0
 40
0.8050779999999997
 50
270.3602510000016
 51
359.6397490000017
  0
ARC
  5
7702
  8
0
 62
     0
 10
390.03734680505352
 20
474.64554770227357
 30
0.0
 40
0.8033630000000001
 50
0.2393300000011745
 51
89.760669999998839
  0
ARC
  5
7703
  8
0
 62
     0
 10
390.03734680505352
 20
494.64554770227357
 30
0.0
 40
0.8033630000000001
 50
0.2393300000011745
 51
89.760669999998839
  0
LINE
  5
7704
  8
0
 62
     0
 10
388.97479880505352
 20
505.65890370227362
 30
0.0
 11
391.57461580505338
 21
505.65890370227362
 31
0.0
  0
LINE
  5
7705
  8
0
 62
     0
 10
388.97479880505352
 20
503.62890370227359
 30
0.0
 11
391.47070280505352
 21
503.62890370227359
 31
0.0
  0
LINE
  5
7706
  8
0
 62
     0
 10
388.97479880505352
 20
495.6789037022736
 30
0.0
 11
391.72070280505352
 21
495.6789037022736
 31
0.0
  0
LINE
  5
7707
  8
0
 62
     0
 10
388.97479880505352
 20
493.59890370227362
 30
0.0
 11
391.63070280505349
 21
493.59890370227362
 31
0.0
  0
LINE
  5
7708
  8
0
 62
     0
 10
388.97479880505352
 20
485.72890370227361
 30
0.0
 11
392.08591980505349
 21
485.72890370227361
 31
0.0
  0
LINE
  5
7709
  8
0
 62
     0
 10
388.97479880505352
 20
483.54890370227361
 30
0.0
 11
391.9907028050535
 21
483.54890370227361
 31
0.0
  0
LINE
  5
770A
  8
0
 62
     0
 10
388.97479880505352
 20
475.79890370227372
 30
0.0
 11
392.07000980505347
 21
475.79890370227372
 31
0.0
  0
LINE
  5
770B
  8
0
 62
     0
 10
388.97479880505352
 20
473.45890370227357
 30
0.0
 11
392.09192180505352
 21
473.45890370227357
 31
0.0
  0
LINE
  5
770C
  8
0
 62
     0
 10
388.97479880505352
 20
475.44890370227358
 30
0.0
 11
390.04070280505351
 21
475.44890370227358
 31
0.0
  0
LINE
  5
770D
  8
0
 62
     0
 10
388.97479880505352
 20
505.44890370227358
 30
0.0
 11
390.04070280505351
 21
505.44890370227358
 31
0.0
  0
LINE
  5
770E
  8
0
 62
     0
 10
388.97479880505352
 20
503.84890370227362
 30
0.0
 11
390.04070280505351
 21
503.84890370227362
 31
0.0
  0
LINE
  5
770F
  8
0
 62
     0
 10
388.97479880505352
 20
495.44890370227358
 30
0.0
 11
390.04070280505351
 21
495.44890370227358
 31
0.0
  0
LINE
  5
7710
  8
0
 62
     0
 10
388.97479880505352
 20
493.84890370227362
 30
0.0
 11
390.04070280505351
 21
493.84890370227362
 31
0.0
  0
LINE
  5
7711
  8
0
 62
     0
 10
388.97479880505352
 20
485.44890370227358
 30
0.0
 11
390.04070280505351
 21
485.44890370227358
 31
0.0
  0
LINE
  5
7712
  8
0
 62
     0
 10
388.97479880505352
 20
483.84890370227362
 30
0.0
 11
390.04070280505351
 21
483.84890370227362
 31
0.0
  0
LINE
  5
7713
  8
0
 62
     0
 10
388.97479880505352
 20
473.84890370227362
 30
0.0
 11
390.04070280505351
 21
473.84890370227362
 31
0.0
  0
LINE
  5
7714
  8
0
 62
     0
 10
391.72070280505352
 20
535.6789037022736
 30
0.0
 11
390.04070280505351
 21
535.44890370227358
 31
0.0
  0
LINE
  5
7715
  8
0
 62
     0
 10
391.7307028050534
 20
533.58890370227357
 30
0.0
 11
390.04070280505351
 21
533.84890370227356
 31
0.0
  0
LINE
  5
7716
  8
0
 62
     0
 10
392.58070280505348
 20
536.66890370227361
 30
0.0
 11
392.58070280505348
 21
532.59890370227356
 31
0.0
  0
LINE
  5
7717
  8
0
 62
     0
 10
391.72070280505352
 20
525.6789037022736
 30
0.0
 11
390.04070280505351
 21
525.44890370227336
 31
0.0
  0
LINE
  5
7718
  8
0
 62
     0
 10
391.7307028050534
 20
523.58890370227368
 30
0.0
 11
390.04070280505351
 21
523.84890370227367
 31
0.0
  0
LINE
  5
7719
  8
0
 62
     0
 10
392.58070280505348
 20
526.66890370227361
 30
0.0
 11
392.58070280505348
 21
522.59890370227367
 31
0.0
  0
LINE
  5
771A
  8
0
 62
     0
 10
391.72070280505352
 20
515.67890370227337
 30
0.0
 11
390.04070280505351
 21
515.44890370227336
 31
0.0
  0
LINE
  5
771B
  8
0
 62
     0
 10
391.7307028050534
 20
513.58890370227357
 30
0.0
 11
390.04070280505351
 21
513.84890370227356
 31
0.0
  0
LINE
  5
771C
  8
0
 62
     0
 10
392.58070280505348
 20
516.66890370227338
 30
0.0
 11
392.58070280505348
 21
512.59890370227356
 31
0.0
  0
LINE
  5
771D
  8
0
 62
     0
 10
392.58070280505348
 20
546.66890370227361
 30
0.0
 11
392.58070280505348
 21
542.59890370227367
 31
0.0
  0
LINE
  5
771E
  8
0
 62
     0
 10
391.72070280505352
 20
545.6789037022736
 30
0.0
 11
390.04070280505351
 21
545.44890370227336
 31
0.0
  0
LINE
  5
771F
  8
0
 62
     0
 10
391.7307028050534
 20
543.58890370227368
 30
0.0
 11
390.04070280505351
 21
543.84890370227356
 31
0.0
  0
ARC
  5
7720
  8
0
 62
     0
 10
390.03224680505349
 20
534.64990970227359
 30
0.0
 40
0.80105
 50
270.6048560000001
 51
80.04681700000134
  0
ARC
  5
7721
  8
0
 62
     0
 10
391.57807080505353
 20
532.59795770227345
 30
0.0
 40
1.0026319999999971
 50
0.0540849999984558
 51
81.243759000000509
  0
ARC
  5
7722
  8
0
 62
     0
 10
391.5737358050535
 20
536.67510770227364
 30
0.0
 40
1.0069859999999999
 50
278.39216299999862
 51
359.64700199999788
  0
ARC
  5
7723
  8
0
 62
     0
 10
390.03230780505351
 20
524.64890370227363
 30
0.0
 40
0.8000439999999999
 50
270.6012089999997
 51
89.398791000000301
  0
ARC
  5
7724
  8
0
 62
     0
 10
391.57807080505353
 20
522.59795770227345
 30
0.0
 40
1.0026319999999971
 50
0.0540849999984558
 51
81.243759000000509
  0
ARC
  5
7725
  8
0
 62
     0
 10
391.5737358050535
 20
526.67510770227364
 30
0.0
 40
1.0069859999999999
 50
278.39216299999862
 51
359.64700199999788
  0
ARC
  5
7726
  8
0
 62
     0
 10
390.03230780505351
 20
514.64890370227363
 30
0.0
 40
0.8000439999999999
 50
270.6012089999997
 51
89.398791000000301
  0
ARC
  5
7727
  8
0
 62
     0
 10
391.57807080505353
 20
512.59795770227345
 30
0.0
 40
1.0026319999999971
 50
0.0540849999984558
 51
81.243759000000509
  0
ARC
  5
7728
  8
0
 62
     0
 10
391.5737358050535
 20
516.67510770227364
 30
0.0
 40
1.0069859999999999
 50
278.39216299999862
 51
359.64700199999788
  0
ARC
  5
7729
  8
0
 62
     0
 10
391.57807080505353
 20
542.59795770227367
 30
0.0
 40
1.0026319999999971
 50
0.0540849999984558
 51
81.243759000000509
  0
ARC
  5
772A
  8
0
 62
     0
 10
391.5737358050535
 20
546.67510770227364
 30
0.0
 40
1.0069859999999999
 50
278.39216299999862
 51
359.64700199999788
  0
ARC
  5
772B
  8
0
 62
     0
 10
390.03224780505349
 20
544.65011970227363
 30
0.0
 40
0.801261
 50
270.60461099999839
 51
94.506741999999505
  0
LINE
  5
772C
  8
0
 62
     0
 10
388.97479880505352
 20
535.74890370227354
 30
0.0
 11
391.96891680505342
 21
535.74890370227354
 31
0.0
  0
LINE
  5
772D
  8
0
 62
     0
 10
388.97479880505352
 20
533.5689037022737
 30
0.0
 11
391.82813980505352
 21
533.5689037022737
 31
0.0
  0
LINE
  5
772E
  8
0
 62
     0
 10
388.97479880505352
 20
525.68890370227359
 30
0.0
 11
391.77726280505351
 21
525.68890370227359
 31
0.0
  0
LINE
  5
772F
  8
0
 62
     0
 10
388.97479880505352
 20
523.60890370227355
 30
0.0
 11
391.60070280505352
 21
523.60890370227355
 31
0.0
  0
LINE
  5
7730
  8
0
 62
     0
 10
388.97479880505352
 20
515.66890370227361
 30
0.0
 11
391.64765980505348
 21
515.66890370227361
 31
0.0
  0
LINE
  5
7731
  8
0
 62
     0
 10
388.97479880505352
 20
513.62890370227365
 30
0.0
 11
391.47070280505352
 21
513.62890370227365
 31
0.0
  0
LINE
  5
7732
  8
0
 62
     0
 10
388.97479880505352
 20
545.83890370227368
 30
0.0
 11
392.13479180505351
 21
545.83890370227368
 31
0.0
  0
LINE
  5
7733
  8
0
 62
     0
 10
388.97479880505352
 20
543.48890370227343
 30
0.0
 11
392.03794680505348
 21
543.48890370227343
 31
0.0
  0
LINE
  5
7734
  8
0
 62
     0
 10
388.97479880505352
 20
545.44890370227336
 30
0.0
 11
390.09520780505352
 21
545.44890370227336
 31
0.0
  0
LINE
  5
7735
  8
0
 62
     0
 10
388.97479880505352
 20
543.84890370227356
 30
0.0
 11
390.04070280505351
 21
543.84890370227356
 31
0.0
  0
LINE
  5
7736
  8
0
 62
     0
 10
388.97479880505352
 20
535.44890370227358
 30
0.0
 11
390.08960780505339
 21
535.44890370227358
 31
0.0
  0
LINE
  5
7737
  8
0
 62
     0
 10
388.97479880505352
 20
533.84890370227356
 30
0.0
 11
390.04070280505351
 21
533.84890370227356
 31
0.0
  0
LINE
  5
7738
  8
0
 62
     0
 10
388.97479880505352
 20
525.44890370227336
 30
0.0
 11
390.04070280505351
 21
525.44890370227336
 31
0.0
  0
LINE
  5
7739
  8
0
 62
     0
 10
388.97479880505352
 20
523.84890370227367
 30
0.0
 11
390.04070280505351
 21
523.84890370227367
 31
0.0
  0
LINE
  5
773A
  8
0
 62
     0
 10
388.97479880505352
 20
515.44890370227336
 30
0.0
 11
390.04070280505351
 21
515.44890370227336
 31
0.0
  0
LINE
  5
773B
  8
0
 62
     0
 10
388.97479880505352
 20
513.84890370227356
 30
0.0
 11
390.04070280505351
 21
513.84890370227356
 31
0.0
  0
ARC
  5
773C
  8
0
 62
     0
 10
312.27690580505362
 20
498.34898370227359
 30
0.0
 40
2.6000000000000001
 50
137.1002180000024
 51
180.0
  0
ARC
  5
773D
  8
0
 62
     0
 10
312.27690580505362
 20
520.94882370227356
 30
0.0
 40
2.6000000000000001
 50
180.0
 51
222.8997819999976
  0
ARC
  5
773E
  8
0
 62
     0
 10
300.1166508050535
 20
509.64890370227363
 30
0.0
 40
14.0
 50
317.10021800000243
 51
42.899781999997558
  0
LINE
  5
773F
  8
0
 62
     0
 10
388.97479880505352
 20
472.91822270227362
 30
0.0
 11
388.97479880505352
 21
546.37676570227325
 31
0.0
  0
LINE
  5
7740
  8
0
 62
     0
 10
383.87480880505342
 20
476.5412067022736
 30
0.0
 11
383.87480880505342
 21
542.76092070227344
 31
0.0
  0
LINE
  5
7741
  8
0
 62
     0
 10
380.55780680505359
 20
476.3444067022736
 30
0.0
 11
380.55780680505359
 21
542.95340870227358
 31
0.0
  0
LINE
  5
7742
  8
0
 62
     0
 10
306.21820780505351
 20
476.98616470227358
 30
0.0
 11
306.21820780505351
 21
496.73940770227358
 31
0.0
  0
LINE
  5
7743
  8
0
 62
     0
 10
306.21820780505351
 20
542.30750370227338
 30
0.0
 11
306.21820780505351
 21
522.55840370227361
 31
0.0
  0
LINE
  5
7744
  8
0
 62
     0
 10
300.72910580505351
 20
544.60010770227325
 30
0.0
 11
300.72910580505351
 21
474.69769970227361
 31
0.0
  0
LINE
  5
7745
  8
0
 62
     0
 10
298.66530480505338
 20
544.46530370227345
 30
0.0
 11
298.66530480505338
 21
474.83249970227359
 31
0.0
  0
LINE
  5
7747
  8
0
 62
     0
 10
309.67690580505359
 20
477.11670770227357
 30
0.0
 11
309.67690580505359
 21
498.34898370227359
 31
0.0
  0
LINE
  5
7748
  8
0
 62
     0
 10
309.67690580505359
 20
520.94882370227356
 30
0.0
 11
309.67690580505359
 21
539.23120170227355
 31
0.0
  0
ARC
  5
7749
  8
0
 62
     0
 10
380.87480880505342
 20
476.5412067022736
 30
0.0
 40
3.0
 50
273.55702099999951
 51
0.0000179999992061
  0
ARC
  5
774A
  8
0
 62
     0
 10
385.37480880505342
 20
472.92870370227359
 30
0.0
 40
3.6000059999999978
 50
273.96599900000109
 51
0.0000179999992061
  0
ARC
  5
774B
  8
0
 62
     0
 10
309.81820580505348
 20
476.99030770227358
 30
0.0
 40
3.6000009999999998
 50
180.00007799999869
 51
266.68501399999951
  0
ARC
  5
774C
  8
0
 62
     0
 10
344.08070280505348
 20
1068.4988797022729
 30
0.0
 40
596.09997599999986
 50
266.68505800000048
 51
273.5570069999996
  0
ARC
  5
774D
  8
0
 62
     0
 10
306.32910780505341
 20
474.69770470227371
 30
0.0
 40
5.5999989999999968
 50
180.00005699999849
 51
266.36204099999878
  0
ARC
  5
774E
  8
0
 62
     0
 10
304.26530780505351
 20
474.83250470227358
 30
0.0
 40
5.600000999999998
 50
180.00005699999849
 51
266.16303700000049
  0
ARC
  5
774F
  8
0
 62
     0
 10
344.08070280505348
 20
1068.4988797022729
 30
0.0
 40
600.59997599999986
 50
266.16305400000141
 51
273.96601300000123
  0
ARC
  5
7750
  8
0
 62
     0
 10
377.55780680505347
 20
476.3444067022736
 30
0.0
 40
3.0
 50
273.23604300000119
 51
0.0000179999992061
  0
ARC
  5
7751
  8
0
 62
     0
 10
380.87480880505342
 20
542.75660770227364
 30
0.0
 40
3.0000029999999982
 50
0.0000179999992061
 51
86.443252999999885
  0
ARC
  5
7752
  8
0
 62
     0
 10
385.37480880505342
 20
546.36890470227354
 30
0.0
 40
3.5999989999999982
 50
0.0000179999992061
 51
86.033744000000837
  0
ARC
  5
7753
  8
0
 62
     0
 10
309.81820580505348
 20
542.30750370227338
 30
0.0
 40
3.5999979999999998
 50
93.315004999999587
 51
179.99998200000081
  0
ARC
  5
7754
  8
0
 62
     0
 10
344.08070280505348
 20
-49.201072297726292
 30
0.0
 40
596.09997599999986
 50
86.443289999999465
 51
93.315088999999574
  0
ARC
  5
7755
  8
0
 62
     0
 10
306.32910780505341
 20
544.60010570227325
 30
0.0
 40
5.5999980000000003
 50
93.638056000000873
 51
179.99998200000081
  0
ARC
  5
7756
  8
0
 62
     0
 10
304.26530780505351
 20
544.46530270227356
 30
0.0
 40
5.5999980000000003
 50
93.837062000000643
 51
179.99998200000081
  0
ARC
  5
7757
  8
0
 62
     0
 10
344.08070280505348
 20
-49.201072297726292
 30
0.0
 40
600.59997599999986
 50
86.033760000000385
 51
93.836910000000643
  0
ARC
  5
7758
  8
0
 62
     0
 10
377.55780680505347
 20
542.95340770227358
 30
0.0
 40
2.9999989999999999
 50
0.0000179999992061
 51
86.764376000000055
  0
ARC
  5
7759
  8
0
 62
     0
 10
308.21820780505351
 20
522.55840370227361
 30
0.0
 40
1.999997
 50
179.99998200000081
 51
229.4100490000007
  0
ARC
  5
775A
  8
0
 62
     0
 10
308.21820780505351
 20
496.73940770227358
 30
0.0
 40
2.0
 50
130.59005899999829
 51
179.99998200000081
  0
ARC
  5
775B
  8
0
 62
     0
 10
297.1573058050534
 20
509.64890370227363
 30
0.0
 40
15.000002
 50
310.58999199999971
 51
49.40970199999888
  0
ARC
  5
775C
  8
0
 62
     0
 10
388.18071180505348
 20
563.95787770227366
 30
0.0
 40
2.2000009999999981
 50
180.0000030000009
 51
269.99997799999852
  0
ARC
  5
775D
  8
0
 62
     0
 10
388.18071180505348
 20
568.55788370227356
 30
0.0
 40
2.1999970000000002
 50
90.0
 51
179.99998200000081
  0
LINE
  5
775E
  8
0
 62
     0
 10
390.58070280505348
 20
566.2084357022735
 30
0.0
 11
389.28070280505352
 21
565.45788070227366
 31
0.0
  0
LINE
  5
775F
  8
0
 62
     0
 10
390.58070280505348
 20
567.20843570227362
 30
0.0
 11
389.28070280505352
 21
566.45788070227366
 31
0.0
  0
LINE
  5
7760
  8
0
 62
     0
 10
389.28070280505352
 20
570.85788070227363
 30
0.0
 11
390.58070280505348
 21
570.85788070227363
 31
0.0
  0
LINE
  5
7761
  8
0
 62
     0
 10
389.28070280505352
 20
561.65788070227359
 30
0.0
 11
390.58070280505348
 21
561.65788070227359
 31
0.0
  0
LINE
  5
7762
  8
0
 62
     0
 10
390.58070280505348
 20
570.85788070227363
 30
0.0
 11
390.58070280505348
 21
561.65788070227359
 31
0.0
  0
LINE
  5
7763
  8
0
 62
     0
 10
385.98069980505352
 20
568.55788370227356
 30
0.0
 11
385.98069980505352
 21
563.95787770227366
 31
0.0
  0
LINE
  5
7764
  8
0
 62
     0
 10
389.28070280505352
 20
570.85788070227363
 30
0.0
 11
389.28070280505352
 21
561.65788070227359
 31
0.0
  0
LINE
  5
7765
  8
0
 62
     0
 10
389.28070280505352
 20
561.75788070227372
 30
0.0
 11
388.18071180505348
 21
561.75788070227372
 31
0.0
  0
LINE
  5
7766
  8
0
 62
     0
 10
389.28070280505352
 20
570.75788070227372
 30
0.0
 11
388.18071180505348
 21
570.75788070227372
 31
0.0
  0
LINE
  5
7767
  8
0
 62
     0
 10
400.58070280505348
 20
436.14890370227363
 30
0.0
 11
400.58070280505348
 21
583.14884570227343
 31
0.0
  0
LINE
  5
7768
  8
0
 62
     0
 10
238.58070280505351
 20
545.44884570227362
 30
0.0
 11
298.75235680505341
 21
545.44884570227362
 31
0.0
  0
LINE
  5
7769
  8
0
 62
     0
 10
238.58070280505351
 20
543.84884570227325
 30
0.0
 11
298.66530480505338
 21
543.84884570227325
 31
0.0
  0
LINE
  5
776A
  8
0
 62
     0
 10
231.07469180505339
 20
535.44884570227362
 30
0.0
 11
298.66530480505338
 21
535.44884570227362
 31
0.0
  0
LINE
  5
776B
  8
0
 62
     0
 10
231.07469180505339
 20
533.84884570227359
 30
0.0
 11
298.66530480505338
 21
533.84884570227359
 31
0.0
  0
LINE
  5
776C
  8
0
 62
     0
 10
231.07469180505339
 20
523.84884570227359
 30
0.0
 11
298.66530480505338
 21
523.84884570227359
 31
0.0
  0
LINE
  5
776D
  8
0
 62
     0
 10
231.07469180505339
 20
525.44884570227362
 30
0.0
 11
298.66530480505338
 21
525.44884570227362
 31
0.0
  0
LINE
  5
776E
  8
0
 62
     0
 10
231.07469180505339
 20
525.69884570227339
 30
0.0
 11
298.66530480505338
 21
525.69884570227339
 31
0.0
  0
LINE
  5
776F
  8
0
 62
     0
 10
238.58070280505351
 20
543.49884570227357
 30
0.0
 11
298.66530480505338
 21
543.49884570227357
 31
0.0
  0
LINE
  5
7770
  8
0
 62
     0
 10
238.58070280505351
 20
545.8388457022736
 30
0.0
 11
298.83636980505349
 21
545.8388457022736
 31
0.0
  0
LINE
  5
7771
  8
0
 62
     0
 10
298.66530480505338
 20
535.74884570227368
 30
0.0
 11
231.07469180505339
 21
535.74884570227368
 31
0.0
  0
LINE
  5
7772
  8
0
 62
     0
 10
298.66530480505338
 20
533.56884570227362
 30
0.0
 11
231.07469180505339
 21
533.56884570227362
 31
0.0
  0
LINE
  5
7773
  8
0
 62
     0
 10
298.66530480505338
 20
523.61884570227335
 30
0.0
 11
231.07469180505339
 21
523.61884570227335
 31
0.0
  0
LINE
  5
7774
  8
0
 62
     0
 10
298.66530480505338
 20
515.66884570227353
 30
0.0
 11
231.07469180505339
 21
515.66884570227353
 31
0.0
  0
LINE
  5
7775
  8
0
 62
     0
 10
298.66530480505338
 20
513.63884570227344
 30
0.0
 11
231.07469180505339
 21
513.63884570227344
 31
0.0
  0
LINE
  5
7776
  8
0
 62
     0
 10
298.66530480505338
 20
515.44884570227339
 30
0.0
 11
231.07469180505339
 21
515.44884570227339
 31
0.0
  0
LINE
  5
7777
  8
0
 62
     0
 10
298.66530480505338
 20
513.84884570227337
 30
0.0
 11
231.07469180505339
 21
513.84884570227337
 31
0.0
  0
LINE
  5
7778
  8
0
 62
     0
 10
238.58070280505351
 20
555.42884570227363
 30
0.0
 11
389.97351880505352
 21
555.42884570227363
 31
0.0
  0
LINE
  5
7779
  8
0
 62
     0
 10
238.58070280505351
 20
553.82884570227361
 30
0.0
 11
390.1204318050535
 21
553.82884570227361
 31
0.0
  0
LINE
  5
777A
  8
0
 62
     0
 10
231.07469180505339
 20
555.81884570227362
 30
0.0
 11
392.07564780505351
 21
555.81884570227362
 31
0.0
  0
LINE
  5
777B
  8
0
 62
     0
 10
238.58070280505351
 20
553.47884570227347
 30
0.0
 11
392.09033980505347
 21
553.47884570227347
 31
0.0
  0
LINE
  5
777C
  8
0
 62
     0
 10
389.08070280505348
 20
560.54989570227372
 30
0.0
 11
389.1968628050534
 21
561.75788070227372
 31
0.0
  0
LINE
  5
777D
  8
0
 62
     0
 10
231.07469180505339
 20
538.93040270227368
 30
0.0
 11
238.58070280505351
 21
538.93040270227368
 31
0.0
  0
LINE
  5
777E
  8
0
 62
     0
 10
231.07469180505339
 20
544.64884570227343
 30
0.0
 11
238.58070280505351
 21
544.64884570227343
 31
0.0
  0
LINE
  5
777F
  8
0
 62
     0
 10
231.07469180505339
 20
555.16884570227353
 30
0.0
 11
238.58070280505351
 21
555.16884570227353
 31
0.0
  0
LINE
  5
7780
  8
0
 62
     0
 10
231.07469180505339
 20
555.58017770227355
 30
0.0
 11
238.58070280505351
 21
555.58017770227355
 31
0.0
  0
LINE
  5
7781
  8
0
 62
     0
 10
238.58070280505351
 20
555.58017770227355
 30
0.0
 11
238.58070280505351
 21
538.93040270227368
 31
0.0
  0
ARC
  5
7782
  8
0
 62
     0
 10
173.07948180505349
 20
572.81774270227345
 30
0.0
 40
2.0
 50
96.369371000000768
 51
180.0
  0
ARC
  5
7783
  8
0
 62
     0
 10
172.52479380505349
 20
577.78687670227362
 30
0.0
 40
2.999997
 50
276.3693710000008
 51
350.0001740000024
  0
LINE
  5
7784
  8
0
 62
     0
 10
175.47922580505349
 20
577.2658567022736
 30
0.0
 11
176.5400878050535
 21
583.28333270227347
 31
0.0
  0
LINE
  5
7785
  8
0
 62
     0
 10
171.07948180505349
 20
446.48000670227361
 30
0.0
 11
171.07948180505349
 21
572.81774270227345
 31
0.0
  0
LINE
  5
7786
  8
0
 62
     0
 10
178.13368080505339
 20
583.61088170227356
 30
0.0
 11
178.13368080505339
 21
435.68686770227362
 31
0.0
  0
LINE
  5
7787
  8
0
 62
     0
 10
208.08131980505351
 20
429.89908670227362
 30
0.0
 11
208.08131980505351
 21
589.39866270227355
 31
0.0
  0
LINE
  5
7788
  8
0
 62
     0
 10
207.7686988050535
 20
589.38227970227354
 30
0.0
 11
181.90202880505339
 21
588.02677670227354
 31
0.0
  0
LINE
  5
7789
  8
0
 62
     0
 10
209.3317398050535
 20
590.39884570227343
 30
0.0
 11
231.08070280505351
 21
590.39884570227343
 31
0.0
  0
ARC
  5
778A
  8
0
 62
     0
 10
209.3317398050535
 20
589.14884570227343
 30
0.0
 40
1.25
 50
89.999982000000799
 51
154.62363900000179
  0
ARC
  5
778B
  8
0
 62
     0
 10
182.20289480505349
 20
582.28483170227344
 30
0.0
 40
5.7500059999999991
 50
92.999882999999429
 51
170.00004800000099
  0
ARC
  5
778C
  8
0
 62
     0
 10
207.74253280505349
 20
589.88159470227345
 30
0.0
 40
0.5
 50
272.99975299999932
 51
335.24659000000122
  0
LINE
  5
778D
  8
0
 62
     0
 10
238.58070280505351
 20
473.84890370227362
 30
0.0
 11
298.7523648050535
 21
473.84890370227362
 31
0.0
  0
LINE
  5
778E
  8
0
 62
     0
 10
238.58070280505351
 20
475.44890370227358
 30
0.0
 11
298.66530480505338
 21
475.44890370227358
 31
0.0
  0
LINE
  5
778F
  8
0
 62
     0
 10
231.07469180505339
 20
483.84890370227362
 30
0.0
 11
298.66530480505338
 21
483.84890370227362
 31
0.0
  0
LINE
  5
7790
  8
0
 62
     0
 10
231.07469180505339
 20
485.44890370227358
 30
0.0
 11
298.66530480505338
 21
485.44890370227358
 31
0.0
  0
LINE
  5
7791
  8
0
 62
     0
 10
231.07469180505339
 20
495.44890370227358
 30
0.0
 11
298.66530480505338
 21
495.44890370227358
 31
0.0
  0
LINE
  5
7792
  8
0
 62
     0
 10
231.07469180505339
 20
493.84890370227362
 30
0.0
 11
298.66530480505338
 21
493.84890370227362
 31
0.0
  0
LINE
  5
7793
  8
0
 62
     0
 10
231.07469180505339
 20
493.59890370227362
 30
0.0
 11
298.66530480505338
 21
493.59890370227362
 31
0.0
  0
LINE
  5
7794
  8
0
 62
     0
 10
238.58070280505351
 20
475.79890370227372
 30
0.0
 11
298.66530480505338
 21
475.79890370227372
 31
0.0
  0
LINE
  5
7795
  8
0
 62
     0
 10
238.58070280505351
 20
473.45890370227357
 30
0.0
 11
298.83638180505352
 21
473.45890370227357
 31
0.0
  0
LINE
  5
7796
  8
0
 62
     0
 10
298.66530480505338
 20
483.54890370227361
 30
0.0
 11
231.07469180505339
 21
483.54890370227361
 31
0.0
  0
LINE
  5
7797
  8
0
 62
     0
 10
298.66530480505338
 20
485.72890370227361
 30
0.0
 11
231.07469180505339
 21
485.72890370227361
 31
0.0
  0
LINE
  5
7798
  8
0
 62
     0
 10
298.66530480505338
 20
495.6789037022736
 30
0.0
 11
231.07469180505339
 21
495.6789037022736
 31
0.0
  0
LINE
  5
7799
  8
0
 62
     0
 10
298.66530480505338
 20
503.62890370227359
 30
0.0
 11
231.07469180505339
 21
503.62890370227359
 31
0.0
  0
LINE
  5
779A
  8
0
 62
     0
 10
298.66530480505338
 20
505.65890370227362
 30
0.0
 11
231.07469180505339
 21
505.65890370227362
 31
0.0
  0
LINE
  5
779B
  8
0
 62
     0
 10
298.66530480505338
 20
503.84890370227362
 30
0.0
 11
231.07469180505339
 21
503.84890370227362
 31
0.0
  0
LINE
  5
779C
  8
0
 62
     0
 10
298.66530480505338
 20
505.44890370227358
 30
0.0
 11
231.07469180505339
 21
505.44890370227358
 31
0.0
  0
LINE
  5
779D
  8
0
 62
     0
 10
238.58070280505351
 20
463.8689037022736
 30
0.0
 11
389.97389680505353
 21
463.8689037022736
 31
0.0
  0
LINE
  5
779E
  8
0
 62
     0
 10
238.58070280505351
 20
465.46890370227362
 30
0.0
 11
390.12000780505338
 21
465.46890370227362
 31
0.0
  0
LINE
  5
779F
  8
0
 62
     0
 10
231.07469180505339
 20
463.47890370227361
 30
0.0
 11
392.07575080505347
 21
463.47890370227361
 31
0.0
  0
LINE
  5
77A0
  8
0
 62
     0
 10
238.58070280505351
 20
465.81890370227359
 30
0.0
 11
392.09024180505338
 21
465.81890370227359
 31
0.0
  0
LINE
  5
77A1
  8
0
 62
     0
 10
389.08070280505348
 20
465.81890370227359
 30
0.0
 11
389.08070280505348
 21
473.45890370227357
 31
0.0
  0
LINE
  5
77A2
  8
0
 62
     0
 10
389.08070280505348
 20
458.74785370227357
 30
0.0
 11
389.08070280505348
 21
463.47890370227361
 31
0.0
  0
LINE
  5
77A3
  8
0
 62
     0
 10
390.58070280505348
 20
447.64890370227363
 30
0.0
 11
390.58070280505348
 21
463.47890370227361
 31
0.0
  0
LINE
  5
77A4
  8
0
 62
     0
 10
389.08070280505348
 20
458.74785370227357
 30
0.0
 11
389.19685780505353
 21
457.53992770227359
 31
0.0
  0
LINE
  5
77A5
  8
0
 62
     0
 10
231.07469180505339
 20
480.36734670227349
 30
0.0
 11
238.58070280505351
 21
480.36734670227349
 31
0.0
  0
LINE
  5
77A6
  8
0
 62
     0
 10
231.07469180505339
 20
474.64890370227363
 30
0.0
 11
238.58070280505351
 21
474.64890370227363
 31
0.0
  0
LINE
  5
77A7
  8
0
 62
     0
 10
231.07469180505339
 20
464.12890370227359
 30
0.0
 11
238.58070280505351
 21
464.12890370227359
 31
0.0
  0
LINE
  5
77A8
  8
0
 62
     0
 10
231.07469180505339
 20
463.71757170227357
 30
0.0
 11
238.58070280505351
 21
463.71757170227357
 31
0.0
  0
LINE
  5
77A9
  8
0
 62
     0
 10
238.58070280505351
 20
463.71757170227357
 30
0.0
 11
238.58070280505351
 21
480.36734670227349
 31
0.0
  0
ARC
  5
77AA
  8
0
 62
     0
 10
173.07948180505349
 20
446.48000670227361
 30
0.0
 40
2.0
 50
180.0
 51
263.63062899999932
  0
ARC
  5
77AB
  8
0
 62
     0
 10
172.52479380505349
 20
441.51087270227362
 30
0.0
 40
2.999997
 50
9.9998259999975794
 51
83.63062899999926
  0
LINE
  5
77AC
  8
0
 62
     0
 10
175.47922580505349
 20
442.03189270227358
 30
0.0
 11
176.5400878050535
 21
436.01441670227359
 31
0.0
  0
LINE
  5
77AD
  8
0
 62
     0
 10
175.07948180505349
 20
575.39286470227353
 30
0.0
 11
175.07948180505349
 21
443.90488470227359
 31
0.0
  0
LINE
  5
77AE
  8
0
 62
     0
 10
390.28070280505352
 20
475.79890370227372
 30
0.0
 11
390.58070280505348
 21
475.79890370227372
 31
0.0
  0
LINE
  5
77AF
  8
0
 62
     0
 10
390.23001180505349
 20
473.45890370227357
 30
0.0
 11
390.58070280505348
 21
473.45890370227357
 31
0.0
  0
LINE
  5
77B0
  8
0
 62
     0
 10
207.7686988050535
 20
429.91546970227358
 30
0.0
 11
181.90202880505339
 21
431.27097270227358
 31
0.0
  0
LINE
  5
77B1
  8
0
 62
     0
 10
209.3317398050535
 20
428.89890370227363
 30
0.0
 11
231.08070280505351
 21
428.89890370227363
 31
0.0
  0
ARC
  5
77B2
  8
0
 62
     0
 10
209.3317398050535
 20
430.14890370227363
 30
0.0
 40
1.25
 50
205.3763609999981
 51
270.00001799999922
  0
ARC
  5
77B3
  8
0
 62
     0
 10
182.20289480505349
 20
437.01291770227363
 30
0.0
 40
5.7500059999999991
 50
189.9999519999989
 51
267.00011700000061
  0
ARC
  5
77B4
  8
0
 62
     0
 10
207.74253280505349
 20
429.41615470227362
 30
0.0
 40
0.5
 50
24.75340999999878
 51
87.000247000000712
  0
LINE
  5
77B5
  8
0
 62
     0
 10
389.08070280505348
 20
560.54989570227372
 30
0.0
 11
389.08070280505348
 21
555.8189037022737
 31
0.0
  0
LINE
  5
77B6
  8
0
 62
     0
 10
389.08070280505348
 20
553.47890370227344
 30
0.0
 11
389.08070280505348
 21
545.83890370227368
 31
0.0
  0
LINE
  5
77B7
  8
0
 62
     0
 10
231.07469180505339
 20
428.89890370227363
 30
0.0
 11
231.07469180505339
 21
590.39884570227343
 31
0.0
  0
ARC
  5
77B8
  8
0
 62
     0
 10
388.18070980505348
 20
455.33993070227359
 30
0.0
 40
2.2000009999999981
 50
90.000022000001564
 51
179.99999699999901
  0
ARC
  5
77B9
  8
0
 62
     0
 10
388.18070980505348
 20
450.73992470227358
 30
0.0
 40
2.1999970000000002
 50
180.00001799999919
 51
270.0
  0
LINE
  5
77BA
  8
0
 62
     0
 10
390.58070080505348
 20
453.08937270227358
 30
0.0
 11
389.28070080505353
 21
453.8399277022736
 31
0.0
  0
LINE
  5
77BB
  8
0
 62
     0
 10
390.58070080505348
 20
452.08937270227358
 30
0.0
 11
389.28070080505353
 21
452.8399277022736
 31
0.0
  0
LINE
  5
77BC
  8
0
 62
     0
 10
389.28070080505353
 20
448.43992770227362
 30
0.0
 11
390.58070080505348
 21
448.43992770227362
 31
0.0
  0
LINE
  5
77BD
  8
0
 62
     0
 10
389.28070080505353
 20
457.63992770227361
 30
0.0
 11
390.58070080505348
 21
457.63992770227361
 31
0.0
  0
LINE
  5
77BE
  8
0
 62
     0
 10
390.58070080505348
 20
448.43992770227362
 30
0.0
 11
390.58070080505348
 21
457.63992770227361
 31
0.0
  0
LINE
  5
77BF
  8
0
 62
     0
 10
385.98069780505352
 20
450.73992470227358
 30
0.0
 11
385.98069780505352
 21
455.33993070227359
 31
0.0
  0
LINE
  5
77C0
  8
0
 62
     0
 10
389.28070080505353
 20
448.43992770227362
 30
0.0
 11
389.28070080505353
 21
457.63992770227361
 31
0.0
  0
LINE
  5
77C1
  8
0
 62
     0
 10
389.28070080505353
 20
457.53992770227359
 30
0.0
 11
388.18070980505348
 21
457.53992770227359
 31
0.0
  0
LINE
  5
77C2
  8
0
 62
     0
 10
389.28070080505353
 20
448.53992770227359
 30
0.0
 11
388.18070980505348
 21
448.53992770227359
 31
0.0
  0
LINE
  5
8098
  8
0
  6
AM_ISO08W050
 62
     0
 10
163.35351612273709
 20
851.79823389852413
 30
0.0
 11
665.59468280505337
 21
851.79825639852402
 31
0.0
  0
LINE
  5
8099
  8
0
  6
CONTINUOUS
 62
     0
 10
400.58070280505302
 20
913.37687639852413
 30
0.0
 11
435.08070280505319
 21
913.37687639852413
 31
0.0
  0
LINE
  5
809A
  8
0
  6
CONTINUOUS
 62
     0
 10
400.58070280505302
 20
891.27292639852408
 30
0.0
 11
435.08070280505319
 21
891.27292639852408
 31
0.0
  0
LINE
  5
809F
  8
0
  6
CONTINUOUS
 62
     0
 10
400.58070280505302
 20
925.29831639852398
 30
0.0
 11
430.25514280505371
 21
926.33457639852395
 31
0.0
  0
LINE
  5
80DC
  8
0
  6
CONTINUOUS
 62
     0
 10
400.58070280505302
 20
790.21964639852433
 30
0.0
 11
435.08070280505319
 21
790.21964639852433
 31
0.0
  0
LINE
  5
80DD
  8
0
  6
CONTINUOUS
 62
     0
 10
400.58070280505302
 20
812.32358639852396
 30
0.0
 11
435.08070280505319
 21
812.32358639852396
 31
0.0
  0
LINE
  5
80E0
  8
0
  6
CONTINUOUS
 62
     0
 10
400.5806428050534
 20
778.29825639852402
 30
0.0
 11
430.25520280505327
 21
777.26200639852402
 31
0.0
  0
ARC
  5
812B
  8
0
  6
CONTINUOUS
 62
     0
 10
429.58077280505341
 20
851.79825639852402
 30
0.0
 40
3.9999962
 50
90.00000299999769
 51
270.0
  0
ARC
  5
813A
  8
0
 62
     0
 10
391.58070280505319
 20
789.75944589852395
 30
0.0
 40
1.0
 50
180.0
 51
270.0
  0
ARC
  5
813B
  8
0
 62
     0
 10
391.58070280505319
 20
913.83706189852398
 30
0.0
 40
1.0
 50
90.0
 51
180.0
  0
LINE
  5
813C
  8
0
 62
     0
 10
310.1807048050531
 20
769.79825389852397
 30
0.0
 11
379.92380480505312
 21
769.79825389852397
 31
0.0
  0
LINE
  5
813D
  8
0
 62
     0
 10
388.9788228050532
 20
767.89327489852371
 30
0.0
 11
387.33082780505322
 21
771.42723889852402
 31
0.0
  0
LINE
  5
813E
  8
0
 62
     0
 10
387.33082780505322
 20
771.42723889852402
 30
0.0
 11
298.51270880505319
 21
730.01122989852399
 31
0.0
  0
LINE
  5
813F
  8
0
 62
     0
 10
300.16090180505319
 20
726.47625889852418
 30
0.0
 11
298.51270880505319
 21
730.01122989852399
 31
0.0
  0
LINE
  5
8140
  8
0
 62
     0
 10
307.71390680505323
 20
726.84226289852404
 30
0.0
 11
307.39250480505319
 21
727.53125489852403
 31
0.0
  0
LINE
  5
8141
  8
0
 62
     0
 10
384.00580480505312
 20
742.71225589852395
 30
0.0
 11
384.00580480505312
 21
763.08626389852418
 31
0.0
  0
LINE
  5
8142
  8
0
 62
     0
 10
301.6282968050532
 20
725.94725589852396
 30
0.0
 11
388.45380180505322
 21
766.43425889852369
 31
0.0
  0
LINE
  5
8143
  8
0
 62
     0
 10
306.58070680505318
 20
733.77325989852386
 30
0.0
 11
306.58070680505318
 21
766.19826289852404
 31
0.0
  0
LINE
  5
8144
  8
0
  6
AM_ISO08W050
 62
     0
 10
301.40450580505319
 20
749.79825389852385
 30
0.0
 11
309.99480680505309
 21
749.79825389852385
 31
0.0
  0
LINE
  5
8145
  8
0
 62
     0
 10
304.58070680505318
 20
761.39825989852397
 30
0.0
 11
304.58070680505318
 21
738.19826289852404
 31
0.0
  0
LINE
  5
8146
  8
0
 62
     0
 10
304.58070680505318
 20
761.39825989852397
 30
0.0
 11
305.58070680505318
 21
761.39825989852397
 31
0.0
  0
LINE
  5
8147
  8
0
 62
     0
 10
304.58070680505318
 20
738.19826289852404
 30
0.0
 11
305.58070680505318
 21
738.19826289852404
 31
0.0
  0
ARC
  5
8148
  8
0
 62
     0
 10
310.1807048050531
 20
766.19826289852404
 30
0.0
 40
3.5999979999999998
 50
90.000061000000898
 51
179.99998200000081
  0
ARC
  5
8149
  8
0
 62
     0
 10
387.98180280505318
 20
767.42825889852395
 30
0.0
 40
1.100006
 50
294.99982600000169
 51
24.999513999998751
  0
ARC
  5
814A
  8
0
 62
     0
 10
301.15780580505327
 20
726.94125989852398
 30
0.0
 40
1.0999959999999971
 50
204.99980300000141
 51
295.0001950000015
  0
ARC
  5
814B
  8
0
 62
     0
 10
376.4058068050532
 20
742.71225589852395
 30
0.0
 40
7.5999979999999967
 50
288.90001599999658
 51
0.0000179999992061
  0
ARC
  5
814C
  8
0
 62
     0
 10
310.97660780505322
 20
728.36325689852401
 30
0.0
 40
3.5999979999999998
 50
204.9991569999998
 51
269.09402099999909
  0
ARC
  5
814D
  8
0
 62
     0
 10
314.08310580505332
 20
924.73924789852435
 30
0.0
 40
200.0
 50
269.09405199999651
 51
288.9000030000019
  0
ARC
  5
814E
  8
0
 62
     0
 10
306.48620480505321
 20
727.10925889852399
 30
0.0
 40
0.9999979999999998
 50
24.999268000004911
 51
114.9993580000004
  0
ARC
  5
814F
  8
0
 62
     0
 10
386.00580480505312
 20
763.08626389852418
 30
0.0
 40
2.0
 50
115.0001500000004
 51
179.99998200000081
  0
ARC
  5
8150
  8
0
 62
     0
 10
379.92380480505312
 20
767.19826289852404
 30
0.0
 40
2.600006
 50
40.686130000000617
 51
90.0
  0
ARC
  5
8151
  8
0
 62
     0
 10
305.58070680505318
 20
762.39825989852386
 30
0.0
 40
1.0
 50
269.99894299999522
 51
0.0000179999992061
  0
ARC
  5
8152
  8
0
 62
     0
 10
305.58070680505318
 20
737.19826289852404
 30
0.0
 40
1.0
 50
0.0000179999992061
 51
90.0
  0
LINE
  5
8153
  8
0
  6
AM_ISO08W050
 62
     0
 10
344.08070280505319
 20
779.88296989852404
 30
0.0
 11
344.08070280505319
 21
765.89614789852374
 31
0.0
  0
LINE
  5
8154
  8
0
 62
     0
 10
400.58070280505302
 20
778.29825389852397
 30
0.0
 11
400.58070280505302
 21
925.29825889852395
 31
0.0
  0
ARC
  5
8155
  8
0
 62
     0
 10
238.5995778050532
 20
773.32332389852377
 30
0.0
 40
2.0
 50
60.311696999995213
 51
90.0
  0
LINE
  5
8156
  8
0
 62
     0
 10
231.08070280505319
 20
775.323323898524
 30
0.0
 11
238.5995778050532
 21
775.323323898524
 31
0.0
  0
ARC
  5
8157
  8
0
 62
     0
 10
236.6553298050531
 20
776.02919589852399
 30
0.0
 40
2.0
 50
11.08497000000493
 51
90.0
  0
LINE
  5
8158
  8
0
 62
     0
 10
231.08070280505319
 20
778.02919589852365
 30
0.0
 11
236.6553298050531
 21
778.02919589852365
 31
0.0
  0
ARC
  5
8159
  8
0
 62
     0
 10
240.58070280505311
 20
776.79825389852431
 30
0.0
 40
2.0
 50
180.0
 51
270.0
  0
ARC
  5
815A
  8
0
 62
     0
 10
240.58070280505311
 20
785.29825789852396
 30
0.0
 40
2.0
 50
180.0
 51
270.0
  0
LINE
  5
815B
  8
0
 62
     0
 10
238.58070280505319
 20
798.99874089852403
 30
0.0
 11
238.58070280505319
 21
776.79825389852431
 31
0.0
  0
LINE
  5
815C
  8
0
 62
     0
 10
231.08070280505319
 20
797.61095689852402
 30
0.0
 11
238.58070280505319
 21
797.61095689852402
 31
0.0
  0
LINE
  5
815D
  8
0
 62
     0
 10
231.08070280505319
 20
786.03426189852405
 30
0.0
 11
238.58070280505319
 21
786.03426189852405
 31
0.0
  0
LINE
  5
815E
  8
0
 62
     0
 10
231.08070280505319
 20
779.97409889852418
 30
0.0
 11
238.58070280505319
 21
779.97409889852418
 31
0.0
  0
ARC
  5
815F
  8
0
 62
     0
 10
388.5807008050532
 20
785.29824989852432
 30
0.0
 40
2.0
 50
269.99999799999722
 51
359.99999799999722
  0
LINE
  5
8160
  8
0
 62
     0
 10
240.58070280505311
 20
800.99874089852403
 30
0.0
 11
388.5806998050532
 21
800.99874089852403
 31
0.0
  0
LINE
  5
8161
  8
0
 62
     0
 10
240.58070280505311
 20
783.29825789852396
 30
0.0
 11
388.58640380505318
 21
783.29825789852396
 31
0.0
  0
LINE
  5
8162
  8
0
 62
     0
 10
390.58070280505319
 20
778.29825389852397
 30
0.0
 11
400.58069980505292
 21
778.29825389852397
 31
0.0
  0
LINE
  5
8163
  8
0
 62
     0
 10
391.58070280505319
 20
788.75944589852395
 30
0.0
 11
400.58070080505291
 21
788.75944589852395
 31
0.0
  0
LINE
  5
8165
  8
0
 62
     0
 10
238.58070280505319
 20
926.75104189852402
 30
0.0
 11
238.58070280505319
 21
923.71223789852399
 31
0.0
  0
ARC
  5
8166
  8
0
 62
     0
 10
240.58070280505311
 20
918.29825789852407
 30
0.0
 40
2.0
 50
90.0
 51
180.0
  0
LINE
  5
8167
  8
0
 62
     0
 10
231.08070280505319
 20
906.07285489852359
 30
0.0
 11
238.58070280505319
 21
906.07285489852359
 31
0.0
  0
LINE
  5
8168
  8
0
 62
     0
 10
231.08070280505319
 20
917.63887389852403
 30
0.0
 11
238.58070280505319
 21
917.63887389852403
 31
0.0
  0
LINE
  5
8169
  8
0
 62
     0
 10
231.08070280505319
 20
923.71223789852399
 30
0.0
 11
238.58070280505319
 21
923.71223789852399
 31
0.0
  0
LINE
  5
816A
  8
0
 62
     0
 10
238.58070280505319
 20
928.27649989852387
 30
0.0
 11
238.58070280505319
 21
927.67322389852416
 31
0.0
  0
ARC
  5
816B
  8
0
 62
     0
 10
240.58070280505311
 20
926.75104189852402
 30
0.0
 40
2.0
 50
90.0
 51
180.0
  0
LINE
  5
816C
  8
0
 62
     0
 10
231.08070280505319
 20
929.69139889852397
 30
0.0
 11
237.06137380505319
 21
929.69139889852397
 31
0.0
  0
LINE
  5
816D
  8
0
 62
     0
 10
231.08070280505319
 20
928.37688689852405
 30
0.0
 11
236.7320138050533
 21
928.37688689852405
 31
0.0
  0
ARC
  5
816E
  8
0
 62
     0
 10
236.7320138050533
 20
930.37688689852405
 30
0.0
 40
2.0
 50
270.0
 51
344.1903739999978
  0
ARC
  5
816F
  8
0
 62
     0
 10
240.58070280505311
 20
929.287119898524
 30
0.0
 40
2.0
 50
90.0
 51
164.19037399999769
  0
ARC
  5
8170
  8
0
 62
     0
 10
237.06137380505319
 20
931.69139889852386
 30
0.0
 40
2.0
 50
270.0
 51
331.62214300000102
  0
ARC
  5
8171
  8
0
 62
     0
 10
240.58070280505311
 20
929.79026189852402
 30
0.0
 40
2.0
 50
90.0
 51
151.6221439999978
  0
ARC
  5
8172
  8
0
 62
     0
 10
388.58070280505319
 20
918.29825789852407
 30
0.0
 40
2.0
 50
0.0
 51
90.0
  0
ARC
  5
8173
  8
0
 62
     0
 10
387.45321080505317
 20
926.75104189852402
 30
0.0
 40
2.0
 50
15.000000000000741
 51
90.0
  0
LINE
  5
8174
  8
0
 62
     0
 10
392.58070280505319
 20
915.34238789852395
 30
0.0
 11
389.38506280505322
 21
927.26867989852406
 31
0.0
  0
ARC
  5
8175
  8
0
 62
     0
 10
388.41772680505329
 20
928.27649989852387
 30
0.0
 40
2.0
 50
15.000000000000741
 51
90.0
  0
LINE
  5
8176
  8
0
 62
     0
 10
392.58070280505319
 20
920.46747089852386
 30
0.0
 11
390.34957880505323
 21
928.79413889852356
 31
0.0
  0
ARC
  5
8177
  8
0
 62
     0
 10
388.9654208050531
 20
929.287119898524
 30
0.0
 40
2.0
 50
15.000000000000741
 51
90.0
  0
LINE
  5
8178
  8
0
 62
     0
 10
392.58070280505319
 20
923.52210789852347
 30
0.0
 11
390.89727180505321
 21
929.80475789852403
 31
0.0
  0
ARC
  5
8179
  8
0
 62
     0
 10
389.24645480505308
 20
929.79026189852402
 30
0.0
 40
2.0
 50
15.000000000000741
 51
90.0
  0
LINE
  5
817A
  8
0
 62
     0
 10
392.58070280505319
 20
925.074085898524
 30
0.0
 11
391.17830680505318
 21
930.30790089852405
 31
0.0
  0
ARC
  5
817B
  8
0
 62
     0
 10
236.58070280505319
 20
927.67322389852416
 30
0.0
 40
2.0
 50
270.0
 51
0.0
  0
ARC
  5
817C
  8
0
 62
     0
 10
240.58070280505311
 20
928.27649989852387
 30
0.0
 40
2.0
 50
90.0
 51
180.0
  0
LINE
  5
817D
  8
0
 62
     0
 10
231.08070280505319
 20
925.67322389852404
 30
0.0
 11
236.58070280505319
 21
925.67322389852404
 31
0.0
  0
LINE
  5
817E
  8
0
 62
     0
 10
238.58070280505319
 20
923.71223789852399
 30
0.0
 11
238.58070280505319
 21
904.66959389852389
 31
0.0
  0
LINE
  5
8180
  8
0
 62
     0
 10
391.58070280505319
 20
914.83706189852387
 30
0.0
 11
400.58070280505302
 21
914.83706189852387
 31
0.0
  0
LINE
  5
8181
  8
0
 62
     0
 10
240.58070280505311
 20
902.66959389852389
 30
0.0
 11
388.58070280505319
 21
902.66959389852389
 31
0.0
  0
LINE
  5
8182
  8
0
 62
     0
 10
240.58070280505311
 20
931.79026189852402
 30
0.0
 11
389.24645480505308
 21
931.79026189852402
 31
0.0
  0
LINE
  5
8183
  8
0
 62
     0
 10
240.58070280505311
 20
920.29825789852396
 30
0.0
 11
388.58070280505319
 21
920.29825789852396
 31
0.0
  0
LINE
  5
8184
  8
0
 62
     0
 10
240.58070280505311
 20
928.75104189852345
 30
0.0
 11
387.45321080505317
 21
928.75104189852345
 31
0.0
  0
LINE
  5
8185
  8
0
 62
     0
 10
240.58070280505311
 20
930.27649989852387
 30
0.0
 11
388.41772680505329
 21
930.27649989852387
 31
0.0
  0
LINE
  5
8186
  8
0
 62
     0
 10
240.58070280505311
 20
931.287119898524
 30
0.0
 11
388.9654208050531
 21
931.287119898524
 31
0.0
  0
LINE
  5
8187
  8
0
 62
     0
 10
310.58070280505319
 20
772.79825389852431
 30
0.0
 11
310.58070280505319
 21
769.79825389852397
 31
0.0
  0
LINE
  5
8188
  8
0
 62
     0
 10
377.58070280505319
 20
772.79825389852431
 30
0.0
 11
377.58070280505319
 21
769.79825389852397
 31
0.0
  0
LINE
  5
8189
  8
0
 62
     0
 10
175.08070280505311
 20
791.00528389852366
 30
0.0
 11
175.08070280505311
 21
913.91321389852385
 31
0.0
  0
LINE
  5
818A
  8
0
 62
     0
 10
171.0810728050532
 20
789.19827389852412
 30
0.0
 11
171.0810728050532
 21
914.39819389852391
 31
0.0
  0
LINE
  5
818B
  8
0
 62
     0
 10
175.4806628050531
 20
919.06525389852345
 30
0.0
 11
176.60365280505309
 21
925.43622389852385
 31
0.0
  0
LINE
  5
818C
  8
0
 62
     0
 10
181.96577280505309
 20
930.18018389852386
 30
0.0
 11
207.60774280505319
 21
931.52417389852405
 31
0.0
  0
LINE
  5
818D
  8
0
 62
     0
 10
208.08070280505319
 20
772.74295389852421
 30
0.0
 11
208.08070280505319
 21
930.68482389852386
 31
0.0
  0
LINE
  5
818E
  8
0
 62
     0
 10
178.94264280505311
 20
923.82520389852402
 30
0.0
 11
178.94264280505311
 21
780.27823389852347
 31
0.0
  0
LINE
  5
818F
  8
0
 62
     0
 10
175.4806628050531
 20
784.53125389852403
 30
0.0
 11
176.60365280505309
 21
778.16119389852395
 31
0.0
  0
LINE
  5
8190
  8
0
 62
     0
 10
181.9657128050531
 20
773.41724389852402
 30
0.0
 11
207.60774280505319
 21
772.07324389852397
 31
0.0
  0
LINE
  5
8191
  8
0
 62
     0
 10
209.17372280505319
 20
932.54822389852416
 30
0.0
 11
231.08070280505319
 21
932.54822389852416
 31
0.0
  0
LINE
  5
8192
  8
0
 62
     0
 10
209.17372280505319
 20
771.04825389852419
 30
0.0
 11
231.08070280505319
 21
771.04825389852419
 31
0.0
  0
LINE
  5
8193
  8
0
 62
     0
 10
377.58070280505319
 20
774.79825389852385
 30
0.0
 11
377.58070280505319
 21
772.79825389852431
 31
0.0
  0
LINE
  5
8194
  8
0
 62
     0
 10
310.58070280505319
 20
774.79825389852385
 30
0.0
 11
310.58070280505319
 21
772.79825389852431
 31
0.0
  0
LINE
  5
8195
  8
0
 62
     0
 10
310.58070280505319
 20
772.79825389852431
 30
0.0
 11
377.58070280505319
 21
772.79825389852431
 31
0.0
  0
LINE
  5
8196
  8
0
 62
     0
 10
240.58070280505311
 20
774.79825389852385
 30
0.0
 11
387.36122280505322
 21
774.79825389852385
 31
0.0
  0
LINE
  5
8197
  8
0
 62
     0
 10
354.08070280505319
 20
877.79825389852397
 30
0.0
 11
231.08070280505319
 21
877.79825389852397
 31
0.0
  0
LINE
  5
8198
  8
0
 62
     0
 10
354.08070280505319
 20
825.79825389852397
 30
0.0
 11
231.08070280505319
 21
825.79825389852397
 31
0.0
  0
LINE
  5
8199
  8
0
 62
     0
 10
370.08070280505319
 20
878.79825389852408
 30
0.0
 11
370.08070280505319
 21
884.79825389852397
 31
0.0
  0
LINE
  5
819A
  8
0
 62
     0
 10
355.08070280505319
 20
878.79825389852408
 30
0.0
 11
355.08070280505319
 21
884.79825389852397
 31
0.0
  0
LINE
  5
819B
  8
0
 62
     0
 10
370.08070280505319
 20
824.79825389852385
 30
0.0
 11
370.08070280505319
 21
818.79825389852397
 31
0.0
  0
LINE
  5
819C
  8
0
 62
     0
 10
355.08070280505319
 20
824.79825389852385
 30
0.0
 11
355.08070280505319
 21
818.79825389852397
 31
0.0
  0
LINE
  5
819D
  8
0
 62
     0
 10
326.58070280505319
 20
872.29825389852397
 30
0.0
 11
326.58070280505319
 21
831.29825389852397
 31
0.0
  0
LINE
  5
819E
  8
0
 62
     0
 10
389.58070280505319
 20
872.29825389852397
 30
0.0
 11
389.58070280505319
 21
831.29825389852397
 31
0.0
  0
LINE
  5
819F
  8
0
 62
     0
 10
326.58070280505319
 20
872.29825389852397
 30
0.0
 11
389.58070280505319
 21
872.29825389852397
 31
0.0
  0
LINE
  5
81A0
  8
0
 62
     0
 10
326.58070280505319
 20
831.29825389852397
 30
0.0
 11
389.58070280505319
 21
831.29825389852397
 31
0.0
  0
LINE
  5
81A1
  8
0
 62
     0
 10
326.58070280505319
 20
864.79825389852419
 30
0.0
 11
389.58070280505319
 21
864.79825389852419
 31
0.0
  0
LINE
  5
81A2
  8
0
 62
     0
 10
238.58070280505319
 20
854.79825389852408
 30
0.0
 11
238.58070280505319
 21
848.79825389852419
 31
0.0
  0
LINE
  5
81A3
  8
0
 62
     0
 10
389.29280280505321
 20
776.27954389852403
 30
0.0
 11
390.28071280505321
 21
779.95822389852401
 31
0.0
  0
LINE
  5
81A4
  8
0
 62
     0
 10
388.70472280505322
 20
776.27954389852403
 30
0.0
 11
390.28071280505321
 21
782.14826389852374
 31
0.0
  0
LINE
  5
81A5
  8
0
 62
     0
 10
390.58070280505319
 20
814.84003389852398
 30
0.0
 11
390.58070280505319
 21
778.29825389852397
 31
0.0
  0
LINE
  5
81A6
  8
0
 62
     0
 10
389.58070280505319
 20
827.79825389852397
 30
0.0
 11
231.08070280505319
 21
827.79825389852397
 31
0.0
  0
LINE
  5
81A7
  8
0
 62
     0
 10
389.58070280505319
 20
825.79825389852397
 30
0.0
 11
371.08070280505319
 21
825.79825389852397
 31
0.0
  0
LINE
  5
81A8
  8
0
 62
     0
 10
322.58070280505319
 20
835.79825389852397
 30
0.0
 11
231.08070280505319
 21
835.79825389852397
 31
0.0
  0
LINE
  5
81A9
  8
0
 62
     0
 10
322.58070280505319
 20
837.79825389852408
 30
0.0
 11
231.08070280505319
 21
837.79825389852408
 31
0.0
  0
LINE
  5
81AA
  8
0
 62
     0
 10
322.58070280505319
 20
845.79825389852408
 30
0.0
 11
231.08070280505319
 21
845.79825389852408
 31
0.0
  0
LINE
  5
81AB
  8
0
 62
     0
 10
322.58070280505319
 20
847.79825389852408
 30
0.0
 11
239.58070280505319
 21
847.79825389852408
 31
0.0
  0
LINE
  5
81AC
  8
0
 62
     0
 10
389.58070280505319
 20
805.79825389852408
 30
0.0
 11
231.08070280505319
 21
805.79825389852408
 31
0.0
  0
LINE
  5
81AD
  8
0
 62
     0
 10
389.58070280505319
 20
817.79825389852397
 30
0.0
 11
231.08070280505319
 21
817.79825389852397
 31
0.0
  0
LINE
  5
81AE
  8
0
 62
     0
 10
389.58070280505319
 20
815.79825389852385
 30
0.0
 11
231.08070280505319
 21
815.79825389852385
 31
0.0
  0
LINE
  5
81AF
  8
0
 62
     0
 10
389.58070280505319
 20
807.79825389852385
 30
0.0
 11
231.08070280505319
 21
807.79825389852385
 31
0.0
  0
LINE
  5
81B0
  8
0
 62
     0
 10
389.58070280505319
 20
895.79825389852408
 30
0.0
 11
231.08070280505319
 21
895.79825389852408
 31
0.0
  0
LINE
  5
81B1
  8
0
 62
     0
 10
389.58070280505319
 20
887.79825389852408
 30
0.0
 11
231.08070280505319
 21
887.79825389852408
 31
0.0
  0
LINE
  5
81B2
  8
0
 62
     0
 10
389.58070280505319
 20
885.79825389852397
 30
0.0
 11
231.08070280505319
 21
885.79825389852397
 31
0.0
  0
LINE
  5
81B3
  8
0
 62
     0
 10
389.58070280505319
 20
897.79825389852431
 30
0.0
 11
231.08070280505319
 21
897.79825389852431
 31
0.0
  0
LINE
  5
81B4
  8
0
 62
     0
 10
322.58070280505319
 20
855.79825389852408
 30
0.0
 11
239.58070280505319
 21
855.79825389852408
 31
0.0
  0
LINE
  5
81B5
  8
0
 62
     0
 10
322.58070280505319
 20
857.79825389852385
 30
0.0
 11
231.08070280505319
 21
857.79825389852385
 31
0.0
  0
LINE
  5
81B6
  8
0
 62
     0
 10
322.58070280505319
 20
865.79825389852385
 30
0.0
 11
231.08070280505319
 21
865.79825389852385
 31
0.0
  0
LINE
  5
81B7
  8
0
 62
     0
 10
322.58070280505319
 20
867.79825389852397
 30
0.0
 11
231.08070280505319
 21
867.79825389852397
 31
0.0
  0
LINE
  5
81B8
  8
0
 62
     0
 10
389.58070280505319
 20
877.79825389852397
 30
0.0
 11
371.08070280505319
 21
877.79825389852397
 31
0.0
  0
LINE
  5
81B9
  8
0
 62
     0
 10
389.58070280505319
 20
875.79825389852397
 30
0.0
 11
231.08070280505319
 21
875.79825389852397
 31
0.0
  0
LINE
  5
81BA
  8
0
 62
     0
 10
390.58070280505319
 20
888.75647389852395
 30
0.0
 11
390.58070280505319
 21
918.29825789852407
 31
0.0
  0
LINE
  5
81BB
  8
0
 62
     0
 10
231.08070280505319
 20
932.54822389852416
 30
0.0
 11
231.08070280505319
 21
771.04825389852419
 31
0.0
  0
ARC
  5
81BC
  8
0
 62
     0
 10
207.58070280505319
 20
932.02319389852414
 30
0.0
 40
0.5
 50
272.99997000000388
 51
335.54394999999732
  0
ARC
  5
81BD
  8
0
 62
     0
 10
182.26661280505309
 20
924.43823389852389
 30
0.0
 40
5.75
 50
92.999985999995815
 51
169.9999800000015
  0
ARC
  5
81BE
  8
0
 62
     0
 10
209.17372280505319
 20
931.29822389852404
 30
0.0
 40
1.25
 50
89.999988999997555
 51
155.54397999999961
  0
ARC
  5
81BF
  8
0
 62
     0
 10
173.3310728050532
 20
914.39819389852391
 30
0.0
 40
2.25
 50
98.816588000003236
 51
179.99997999999789
  0
ARC
  5
81C0
  8
0
 62
     0
 10
172.52638280505309
 20
919.58630389852385
 30
0.0
 40
3.0
 50
278.8169699999973
 51
349.99994999999791
  0
ARC
  5
81C1
  8
0
 62
     0
 10
173.3310728050532
 20
789.19827389852412
 30
0.0
 40
2.25
 50
179.99997999999789
 51
261.18293999999872
  0
ARC
  5
81C2
  8
0
 62
     0
 10
172.52638280505309
 20
784.01029389852374
 30
0.0
 40
3.0
 50
9.9998319999967595
 51
81.183191000000207
  0
ARC
  5
81C3
  8
0
 62
     0
 10
207.58070280505319
 20
771.57425389852403
 30
0.0
 40
0.5
 50
24.456398999994811
 51
86.999984999999697
  0
ARC
  5
81C4
  8
0
 62
     0
 10
182.26661280505309
 20
779.15921389852394
 30
0.0
 40
5.75
 50
189.99997999999979
 51
266.9999500000028
  0
ARC
  5
81C5
  8
0
 62
     0
 10
209.17372280505319
 20
772.29825389852431
 30
0.0
 40
1.25
 50
204.45597000000129
 51
269.99995999999589
  0
ARC
  5
81C6
  8
0
 62
     0
 10
387.36122280505322
 20
776.79825389852431
 30
0.0
 40
2.0
 50
269.999989999999
 51
344.96831000000168
  0
ARC
  5
81C7
  8
0
 62
     0
 10
386.77314280505323
 20
776.79825389852431
 30
0.0
 40
2.0
 50
269.999989999999
 51
344.96831000000168
  0
ARC
  5
81C8
  8
0
 62
     0
 10
371.08070280505319
 20
818.79825389852397
 30
0.0
 40
1.0
 50
179.999989999999
 51
270.0
  0
ARC
  5
81C9
  8
0
 62
     0
 10
354.08070280505319
 20
818.79825389852397
 30
0.0
 40
1.0
 50
269.999989999999
 51
0.0000010000014034
  0
ARC
  5
81CA
  8
0
 62
     0
 10
354.08070280505319
 20
884.79825389852397
 30
0.0
 40
1.0
 50
0.0
 51
90.00000299999769
  0
ARC
  5
81CB
  8
0
 62
     0
 10
371.08070280505319
 20
884.79825389852397
 30
0.0
 40
1.0
 50
90.00000299999769
 51
180.000010000001
  0
ARC
  5
81CC
  8
0
 62
     0
 10
371.08070280505319
 20
824.79825389852385
 30
0.0
 40
1.0
 50
90.00000299999769
 51
180.000010000001
  0
ARC
  5
81CD
  8
0
 62
     0
 10
354.08070280505319
 20
824.79825389852385
 30
0.0
 40
1.0
 50
0.0
 51
90.00000299999769
  0
ARC
  5
81CE
  8
0
 62
     0
 10
371.08070280505319
 20
878.79825389852408
 30
0.0
 40
1.0
 50
179.999989999999
 51
270.0
  0
ARC
  5
81CF
  8
0
 62
     0
 10
354.08070280505319
 20
878.79825389852408
 30
0.0
 40
1.0
 50
269.999989999999
 51
0.0000010000014034
  0
CIRCLE
  5
81D0
  8
0
 62
     0
 10
365.08070280505319
 20
880.29825389852397
 30
0.0
 40
1.0
  0
CIRCLE
  5
81D1
  8
0
 62
     0
 10
360.08070280505319
 20
880.29825389852397
 30
0.0
 40
1.149999999999999
  0
CIRCLE
  5
81D2
  8
0
 62
     0
 10
360.08070280505319
 20
880.29825389852397
 30
0.0
 40
1.1000000000000001
  0
CIRCLE
  5
81D3
  8
0
 62
     0
 10
360.08070280505319
 20
823.29825389852397
 30
0.0
 40
1.1000000000000001
  0
CIRCLE
  5
81D4
  8
0
 62
     0
 10
360.08070280505319
 20
823.29825389852397
 30
0.0
 40
1.149999999999999
  0
CIRCLE
  5
81D5
  8
0
 62
     0
 10
365.08070280505319
 20
823.29825389852397
 30
0.0
 40
1.0
  0
ARC
  5
81D6
  8
0
 62
     0
 10
322.58070280505319
 20
866.79825389852397
 30
0.0
 40
1.0
 50
269.999989999999
 51
90.00000299999769
  0
ARC
  5
81D7
  8
0
 62
     0
 10
322.58070280505319
 20
856.79825389852419
 30
0.0
 40
1.0
 50
269.999989999999
 51
90.00000299999769
  0
ARC
  5
81D8
  8
0
 62
     0
 10
322.58070280505319
 20
846.79825389852408
 30
0.0
 40
1.0
 50
269.999989999999
 51
90.00000299999769
  0
ARC
  5
81D9
  8
0
 62
     0
 10
322.58070280505319
 20
836.79825389852408
 30
0.0
 40
1.0
 50
269.999989999999
 51
90.00000299999769
  0
ARC
  5
81DA
  8
0
 62
     0
 10
387.63069280505329
 20
816.79825389852374
 30
0.0
 40
1.0
 50
269.999989999999
 51
90.00000299999769
  0
ARC
  5
81DB
  8
0
 62
     0
 10
389.58070280505319
 20
816.79825389852374
 30
0.0
 40
1.0
 50
269.999989999999
 51
90.00000299999769
  0
ARC
  5
81DC
  8
0
 62
     0
 10
387.63069280505329
 20
826.79825389852397
 30
0.0
 40
1.0
 50
269.999989999999
 51
90.00000299999769
  0
ARC
  5
81DD
  8
0
 62
     0
 10
389.58070280505319
 20
826.79825389852397
 30
0.0
 40
1.0
 50
269.999989999999
 51
90.00000299999769
  0
ARC
  5
81DE
  8
0
 62
     0
 10
387.63069280505329
 20
876.79825389852397
 30
0.0
 40
1.0
 50
269.999989999999
 51
90.00000299999769
  0
ARC
  5
81DF
  8
0
 62
     0
 10
389.58070280505319
 20
876.79825389852397
 30
0.0
 40
1.0
 50
269.999989999999
 51
90.00000299999769
  0
ARC
  5
81E0
  8
0
 62
     0
 10
387.63069280505329
 20
886.79825389852408
 30
0.0
 40
1.0
 50
269.999989999999
 51
90.00000299999769
  0
ARC
  5
81E1
  8
0
 62
     0
 10
389.58070280505319
 20
886.79825389852408
 30
0.0
 40
1.0
 50
269.999989999999
 51
90.00000299999769
  0
ARC
  5
81E2
  8
0
 62
     0
 10
239.58070280505319
 20
854.79825389852408
 30
0.0
 40
1.0
 50
90.00000299999769
 51
180.000010000001
  0
ARC
  5
81E3
  8
0
 62
     0
 10
239.58070280505319
 20
848.79825389852419
 30
0.0
 40
1.0
 50
179.999989999999
 51
270.0
  0
ARC
  5
81E4
  8
0
 62
     0
 10
239.58067280505321
 20
836.79825389852408
 30
0.0
 40
1.0
 50
90.00000299999769
 51
270.0
  0
ARC
  5
81E5
  8
0
 62
     0
 10
239.58067280505321
 20
826.79825389852397
 30
0.0
 40
1.0
 50
90.00000299999769
 51
270.0
  0
ARC
  5
81E6
  8
0
 62
     0
 10
387.63069280505329
 20
806.79825389852419
 30
0.0
 40
1.0
 50
269.999989999999
 51
90.00000299999769
  0
ARC
  5
81E7
  8
0
 62
     0
 10
389.58070280505319
 20
806.79825389852419
 30
0.0
 40
1.0
 50
269.999989999999
 51
90.00000299999769
  0
ARC
  5
81E8
  8
0
 62
     0
 10
239.58067280505321
 20
806.79825389852419
 30
0.0
 40
1.0
 50
90.00000299999769
 51
270.0
  0
ARC
  5
81E9
  8
0
 62
     0
 10
239.58067280505321
 20
816.79825389852374
 30
0.0
 40
1.0
 50
90.00000299999769
 51
270.0
  0
ARC
  5
81EA
  8
0
 62
     0
 10
391.72676280505323
 20
779.57785389852404
 30
0.0
 40
1.4952499999999991
 50
140.03764999999859
 51
165.2626000000021
  0
ARC
  5
81EB
  8
0
 62
     0
 10
391.72169280505341
 20
781.753753898524
 30
0.0
 40
1.4940209999999989
 50
139.79258000000129
 51
164.69034000000019
  0
ARC
  5
81EC
  8
0
 62
     0
 10
391.72486280505308
 20
925.56531389852387
 30
0.0
 40
1.495147999999999
 50
195.00188999999639
 51
195.00621300000489
  0
ARC
  5
81ED
  8
0
 62
     0
 10
239.58067280505321
 20
886.79825389852408
 30
0.0
 40
1.0
 50
90.00000299999769
 51
270.0
  0
ARC
  5
81EE
  8
0
 62
     0
 10
239.58067280505321
 20
896.79825389852408
 30
0.0
 40
1.0
 50
90.00000299999769
 51
270.0
  0
ARC
  5
81EF
  8
0
 62
     0
 10
389.58070280505319
 20
896.79825389852408
 30
0.0
 40
1.0
 50
269.999989999999
 51
90.00000299999769
  0
ARC
  5
81F0
  8
0
 62
     0
 10
387.63069280505329
 20
896.79825389852408
 30
0.0
 40
1.0
 50
269.999989999999
 51
90.00000299999769
  0
ARC
  5
81F1
  8
0
 62
     0
 10
239.58067280505321
 20
876.79825389852397
 30
0.0
 40
1.0
 50
90.00000299999769
 51
270.0
  0
ARC
  5
81F2
  8
0
 62
     0
 10
239.58067280505321
 20
866.79825389852397
 30
0.0
 40
1.0
 50
90.00000299999769
 51
270.0
  0
LINE
  5
81F3
  8
0
 62
     0
 10
400.58070880505318
 20
925.29825889852395
 30
0.0
 11
392.52063580505319
 21
925.29825889852395
 31
0.0
  0
LINE
  5
81F4
  8
0
 62
     0
 10
391.58070280505319
 20
814.84003389852398
 30
0.0
 11
400.58070280505302
 21
814.84003389852398
 31
0.0
  0
LINE
  5
81F5
  8
0
 62
     0
 10
391.58070280505319
 20
888.75647389852395
 30
0.0
 11
400.58070280505302
 21
888.75647389852395
 31
0.0
  0
ARC
  5
81F6
  8
0
  6
CONTINUOUS
 62
     0
 10
388.18070980505331
 20
797.48928089852404
 30
0.0
 40
2.2000009999999981
 50
90.000022000001564
 51
179.99999700000231
  0
ARC
  5
81F7
  8
0
  6
CONTINUOUS
 62
     0
 10
388.18070980505331
 20
792.88927489852426
 30
0.0
 40
2.1999970000000002
 50
180.00001799999919
 51
270.0
  0
LINE
  5
81F8
  8
0
  6
CONTINUOUS
 62
     0
 10
390.5807008050532
 20
795.23872289852432
 30
0.0
 11
389.2807008050533
 21
795.98927789852405
 31
0.0
  0
LINE
  5
81F9
  8
0
  6
CONTINUOUS
 62
     0
 10
390.5807008050532
 20
794.23872289852375
 30
0.0
 11
389.2807008050533
 21
794.98927789852405
 31
0.0
  0
LINE
  5
81FA
  8
0
  6
CONTINUOUS
 62
     0
 10
389.2807008050533
 20
790.5892778985243
 30
0.0
 11
390.5807008050532
 21
790.5892778985243
 31
0.0
  0
LINE
  5
81FB
  8
0
  6
CONTINUOUS
 62
     0
 10
389.2807008050533
 20
799.78927789852401
 30
0.0
 11
390.5807008050532
 21
799.78927789852401
 31
0.0
  0
LINE
  5
81FC
  8
0
  6
CONTINUOUS
 62
     0
 10
390.5807008050532
 20
790.5892778985243
 30
0.0
 11
390.5807008050532
 21
799.78927789852401
 31
0.0
  0
LINE
  5
81FD
  8
0
  6
CONTINUOUS
 62
     0
 10
385.98069780505318
 20
792.88927489852426
 30
0.0
 11
385.98069780505318
 21
797.48928089852404
 31
0.0
  0
LINE
  5
81FE
  8
0
  6
CONTINUOUS
 62
     0
 10
389.2807008050533
 20
790.5892778985243
 30
0.0
 11
389.2807008050533
 21
799.78927789852401
 31
0.0
  0
LINE
  5
81FF
  8
0
  6
CONTINUOUS
 62
     0
 10
389.2807008050533
 20
799.68927789852432
 30
0.0
 11
388.18070980505331
 21
799.68927789852432
 31
0.0
  0
LINE
  5
8200
  8
0
  6
CONTINUOUS
 62
     0
 10
389.2807008050533
 20
790.68927789852387
 30
0.0
 11
388.18070980505331
 21
790.68927789852387
 31
0.0
  0
ARC
  5
8201
  8
0
  6
CONTINUOUS
 62
     0
 10
388.18071180505319
 20
906.10722789852389
 30
0.0
 40
2.2000009999999981
 50
180.00000299999761
 51
269.99997799999852
  0
ARC
  5
8202
  8
0
  6
CONTINUOUS
 62
     0
 10
388.18071180505319
 20
910.70723389852355
 30
0.0
 40
2.1999970000000002
 50
90.0
 51
179.99998200000081
  0
LINE
  5
8203
  8
0
  6
CONTINUOUS
 62
     0
 10
390.58070280505319
 20
908.35778589852396
 30
0.0
 11
389.28070280505318
 21
907.60723089852399
 31
0.0
  0
LINE
  5
8204
  8
0
  6
CONTINUOUS
 62
     0
 10
390.58070280505319
 20
909.35778589852396
 30
0.0
 11
389.28070280505318
 21
908.60723089852399
 31
0.0
  0
LINE
  5
8205
  8
0
  6
CONTINUOUS
 62
     0
 10
389.28070280505318
 20
913.00723089852386
 30
0.0
 11
390.58070280505319
 21
913.00723089852386
 31
0.0
  0
LINE
  5
8206
  8
0
  6
CONTINUOUS
 62
     0
 10
389.28070280505318
 20
903.80723089852347
 30
0.0
 11
390.58070280505319
 21
903.80723089852347
 31
0.0
  0
LINE
  5
8207
  8
0
  6
CONTINUOUS
 62
     0
 10
390.58070280505319
 20
913.00723089852386
 30
0.0
 11
390.58070280505319
 21
903.80723089852347
 31
0.0
  0
LINE
  5
8208
  8
0
  6
CONTINUOUS
 62
     0
 10
385.98069980505318
 20
910.70723389852355
 30
0.0
 11
385.98069980505318
 21
906.10722789852389
 31
0.0
  0
LINE
  5
8209
  8
0
  6
CONTINUOUS
 62
     0
 10
389.28070280505318
 20
913.00723089852386
 30
0.0
 11
389.28070280505318
 21
903.80723089852347
 31
0.0
  0
LINE
  5
820A
  8
0
  6
CONTINUOUS
 62
     0
 10
389.28070280505318
 20
903.90723089852395
 30
0.0
 11
388.18071180505319
 21
903.90723089852395
 31
0.0
  0
LINE
  5
820B
  8
0
  6
CONTINUOUS
 62
     0
 10
389.28070280505318
 20
912.90723089852406
 30
0.0
 11
388.18071180505319
 21
912.90723089852406
 31
0.0
  0
LINE
  5
83F6
  8
0
  6
CONTINUOUS
 62
     7
 10
451.01094280505328
 20
980.54203588270673
 30
0.0
 11
462.08070280505342
 21
980.9286258827068
 31
0.0
  0
LINE
  5
83F7
  8
0
  6
CONTINUOUS
 62
     7
 10
435.08070280505308
 20
737.6902858827068
 30
0.0
 11
435.08070280505308
 21
847.79825588270671
 31
0.0
  0
LINE
  5
83F8
  8
0
  6
CONTINUOUS
 62
     7
 10
449.08064280505312
 20
715.58848588270712
 30
0.0
 11
449.08064280505312
 21
842.25882588270667
 31
0.0
  0
LINE
  5
83F9
  8
0
  6
CONTINUOUS
 62
     7
 10
437.55983280505359
 20
968.87729588270724
 30
0.0
 11
446.60164280505342
 21
970.47165588270673
 31
0.0
  0
LINE
  5
83FA
  8
0
  6
CONTINUOUS
 62
     7
 10
451.92366280505331
 20
991.00394588270683
 30
0.0
 11
462.08070280505342
 21
991.53623588270671
 31
0.0
  0
LINE
  5
83FB
  8
0
  6
CONTINUOUS
 62
     7
 10
451.91072280505358
 20
712.59330588270689
 30
0.0
 11
462.08070280505342
 21
712.06034588270666
 31
0.0
  0
LINE
  5
83FC
  8
0
  6
CONTINUOUS
 62
     7
 10
462.08070280505342
 20
712.06028588270692
 30
0.0
 11
462.08070280505342
 21
847.79825588270671
 31
0.0
  0
LINE
  5
83FD
  8
0
  6
CONTINUOUS
 62
     7
 10
449.08064280505312
 20
774.23246588270695
 30
0.0
 11
462.08070280505342
 21
774.23246588270695
 31
0.0
  0
LINE
  5
83FE
  8
0
  6
CONTINUOUS
 62
     7
 10
449.08064280505312
 20
800.23368588270694
 30
0.0
 11
462.08070280505342
 21
800.23368588270694
 31
0.0
  0
LINE
  5
83FF
  8
0
  6
CONTINUOUS
 62
     7
 10
449.08064280505312
 20
903.36283588270669
 30
0.0
 11
462.08070280505342
 21
903.36283588270669
 31
0.0
  0
LINE
  5
8400
  8
0
  6
CONTINUOUS
 62
     7
 10
449.08064280505312
 20
929.36405588270679
 30
0.0
 11
462.08070280505342
 21
929.36405588270679
 31
0.0
  0
LINE
  5
8401
  8
0
  6
CONTINUOUS
 62
     7
 10
451.01088280505371
 20
723.05448588270679
 30
0.0
 11
462.08070280505342
 21
722.66788588270674
 31
0.0
  0
LINE
  5
8402
  8
0
  6
CONTINUOUS
 62
     7
 10
437.55971280505349
 20
734.71921588270709
 30
0.0
 11
446.60164280505342
 21
733.12491588270711
 31
0.0
  0
LINE
  5
8403
  8
0
  6
CENTER
 62
     7
 10
446.0807728050533
 20
835.08988588270699
 30
0.0
 11
446.0807728050533
 21
866.40311588270686
 31
0.0
  0
LINE
  5
8404
  8
0
  6
CONTINUOUS
 62
     7
 10
429.5807728050533
 20
847.79825588270671
 30
0.0
 11
462.5807728050533
 21
847.79825588270671
 31
0.0
  0
LINE
  5
8405
  8
0
  6
CONTINUOUS
 62
     7
 10
429.5807728050533
 20
855.79825588270694
 30
0.0
 11
462.5807728050533
 21
855.79825588270694
 31
0.0
  0
LINE
  5
8406
  8
0
  6
CONTINUOUS
 62
     7
 10
462.08070280505342
 20
855.79825588270694
 30
0.0
 11
462.08070280505342
 21
991.53623588270671
 31
0.0
  0
LINE
  5
8407
  8
0
  6
CONTINUOUS
 62
     7
 10
449.08064280505312
 20
861.33768588270698
 30
0.0
 11
449.08064280505312
 21
988.00803588270674
 31
0.0
  0
LINE
  5
8408
  8
0
  6
CONTINUOUS
 62
     7
 10
435.08070280505308
 20
855.79825588270694
 30
0.0
 11
435.08070280505308
 21
965.93943588270656
 31
0.0
  0
LINE
  5
8409
  8
0
  6
CONTINUOUS
 62
     7
 10
462.08070280505342
 20
800.23368588270694
 30
0.0
 11
560.08070280505319
 21
800.23368588270694
 31
0.0
  0
LINE
  5
840A
  8
0
  6
CONTINUOUS
 62
     7
 10
549.9493628050534
 20
924.70035588270673
 30
0.0
 11
560.08070280505319
 21
932.2584058827066
 31
0.0
  0
LINE
  5
840B
  8
0
  6
CONTINUOUS
 62
     7
 10
557.93330280505324
 20
948.8018558827066
 30
0.0
 11
525.43056280505323
 21
929.36405588270679
 31
0.0
  0
LINE
  5
840C
  8
0
  6
CONTINUOUS
 62
     7
 10
557.64699280505351
 20
955.04490588270676
 30
0.0
 11
516.22841280505338
 21
930.27506588270671
 31
0.0
  0
LINE
  5
840D
  8
0
  6
CONTINUOUS
 62
     7
 10
578.08070280505353
 20
731.79825588270694
 30
0.0
 11
582.08070280505353
 21
731.79825588270694
 31
0.0
  0
LINE
  5
840E
  8
0
  6
CONTINUOUS
 62
     7
 10
578.08070280505353
 20
971.79825588270671
 30
0.0
 11
582.08070280505353
 21
971.79825588270671
 31
0.0
  0
LINE
  5
840F
  8
0
  6
CONTINUOUS
 62
     7
 10
582.08070280505353
 20
731.79825588270694
 30
0.0
 11
582.08070280505353
 21
971.79825588270671
 31
0.0
  0
LINE
  5
8410
  8
0
  6
CONTINUOUS
 62
     7
 10
568.08070280505331
 20
740.84098588270695
 30
0.0
 11
568.08070280505331
 21
962.75553588270634
 31
0.0
  0
LINE
  5
8411
  8
0
  6
CONTINUOUS
 62
     7
 10
562.97591280505344
 20
993.770855882707
 30
0.0
 11
578.08070280505353
 21
994.29831588270702
 31
0.0
  0
LINE
  5
8412
  8
0
  6
CONTINUOUS
 62
     7
 10
578.08070280505353
 20
709.29825588270694
 30
0.0
 11
578.08070280505353
 21
994.29825588270671
 31
0.0
  0
LINE
  5
8413
  8
0
  6
CONTINUOUS
 62
     7
 10
560.08070280505319
 20
712.80729588270674
 30
0.0
 11
560.08070280505319
 21
990.77262588270662
 31
0.0
  0
LINE
  5
8414
  8
0
  6
CONTINUOUS
 62
     7
 10
562.97597280505352
 20
709.82572588270705
 30
0.0
 11
578.08070280505353
 21
709.29825588270694
 31
0.0
  0
LINE
  5
8415
  8
0
  6
CONTINUOUS
 62
     7
 10
557.64699280505351
 20
748.55167588270695
 30
0.0
 11
516.22841280505338
 21
773.32145588270703
 31
0.0
  0
LINE
  5
8416
  8
0
  6
CONTINUOUS
 62
     7
 10
557.93330280505324
 20
754.79459588270674
 30
0.0
 11
525.43056280505323
 21
774.23246588270695
 31
0.0
  0
LINE
  5
8417
  8
0
  6
CONTINUOUS
 62
     7
 10
549.9493628050534
 20
778.89615588270681
 30
0.0
 11
560.08070280505319
 21
771.33811588270703
 31
0.0
  0
LINE
  5
8418
  8
0
  6
CONTINUOUS
 62
     7
 10
598.08070280505342
 20
845.79825588270694
 30
0.0
 11
654.08070280505342
 21
845.79825588270694
 31
0.0
  0
LINE
  5
8419
  8
0
  6
CONTINUOUS
 62
     7
 10
462.08070280505342
 20
774.23246588270695
 30
0.0
 11
513.87648280505323
 21
774.23246588270695
 31
0.0
  0
LINE
  5
841A
  8
0
  6
CONTINUOUS
 62
     7
 10
462.08070280505342
 20
712.06028588270692
 30
0.0
 11
563.01430280505315
 21
709.82462588270675
 31
0.0
  0
LINE
  5
841B
  8
0
  6
CONTINUOUS
 62
     7
 10
462.08070280505342
 20
722.66788588270674
 30
0.0
 11
560.08070280505319
 21
719.24564588270675
 31
0.0
  0
LINE
  5
841C
  8
0
  6
CONTINUOUS
 62
     7
 10
598.08070280505342
 20
857.79825588270705
 30
0.0
 11
654.08070280505342
 21
857.79825588270705
 31
0.0
  0
LINE
  5
841D
  8
0
  6
CONTINUOUS
 62
     7
 10
598.08070280505342
 20
857.79825588270705
 30
0.0
 11
598.08070280505342
 21
845.79825588270694
 31
0.0
  0
LINE
  5
841E
  8
0
  6
CONTINUOUS
 62
     7
 10
654.08070280505342
 20
830.79825588270694
 30
0.0
 11
654.08070280505342
 21
872.79825588270671
 31
0.0
  0
LINE
  5
841F
  8
0
  6
CONTINUOUS
 62
     7
 10
584.08070280505331
 20
829.29825588270705
 30
0.0
 11
584.08070280505331
 21
874.29825588270694
 31
0.0
  0
LINE
  5
8420
  8
0
  6
CONTINUOUS
 62
     7
 10
582.08070280505353
 20
829.29825588270705
 30
0.0
 11
584.08070280505331
 21
829.29825588270705
 31
0.0
  0
LINE
  5
8421
  8
0
  6
CONTINUOUS
 62
     7
 10
582.08070280505353
 20
874.29825588270694
 30
0.0
 11
584.08070280505331
 21
874.29825588270694
 31
0.0
  0
LINE
  5
8422
  8
0
  6
CONTINUOUS
 62
     7
 10
584.08070280505331
 20
830.79825588270694
 30
0.0
 11
654.08070280505342
 21
830.79825588270694
 31
0.0
  0
LINE
  5
8423
  8
0
  6
CONTINUOUS
 62
     7
 10
584.08070280505331
 20
872.79825588270671
 30
0.0
 11
654.08070280505342
 21
872.79825588270671
 31
0.0
  0
LINE
  5
8424
  8
0
  6
CONTINUOUS
 62
     7
 10
517.76820280505319
 20
778.89615588270681
 30
0.0
 11
560.08070280505319
 21
778.89615588270681
 31
0.0
  0
LINE
  5
8425
  8
0
  6
CONTINUOUS
 62
     7
 10
462.08070280505342
 20
903.36283588270669
 30
0.0
 11
560.08070280505319
 21
903.36283588270669
 31
0.0
  0
LINE
  5
8426
  8
0
  6
CONTINUOUS
 62
     7
 10
462.08070280505342
 20
980.9286258827068
 30
0.0
 11
560.08077280505324
 21
984.35080588270671
 31
0.0
  0
LINE
  5
8427
  8
0
  6
CONTINUOUS
 62
     7
 10
462.08070280505342
 20
991.53623588270671
 30
0.0
 11
563.01424280505364
 21
993.77195588270672
 31
0.0
  0
LINE
  5
8428
  8
0
  6
CONTINUOUS
 62
     7
 10
462.08070280505342
 20
929.36405588270679
 30
0.0
 11
513.87648280505323
 21
929.36405588270679
 31
0.0
  0
LINE
  5
8429
  8
0
  6
CONTINUOUS
 62
     7
 10
517.76820280505319
 20
924.70035588270673
 30
0.0
 11
560.08070280505319
 21
924.70035588270673
 31
0.0
  0
ARC
  5
842A
  8
0
  6
CONTINUOUS
 62
     7
 10
451.08070280505302
 20
978.5432558827066
 30
0.0
 40
2.0
 50
91.999998000000545
 51
180.000010000001
  0
ARC
  5
842B
  8
0
  6
CONTINUOUS
 62
     7
 10
438.08070280505302
 20
965.92283588270664
 30
0.0
 40
3.0
 50
99.999999999998593
 51
180.000010000001
  0
ARC
  5
842C
  8
0
  6
CONTINUOUS
 62
     7
 10
446.08070280505302
 20
973.42600588270705
 30
0.0
 40
3.0
 50
280.00001000000123
 51
0.0
  0
ARC
  5
842D
  8
0
  6
CONTINUOUS
 62
     7
 10
430.08070280505302
 20
931.33146588270665
 30
0.0
 40
5.0
 50
272.00000000000369
 51
0.0
  0
ARC
  5
842E
  8
0
  6
CONTINUOUS
 62
     7
 10
452.08064280505317
 20
988.00803588270674
 30
0.0
 40
3.0
 50
92.999999000001679
 51
180.000010000001
  0
ARC
  5
842F
  8
0
  6
CONTINUOUS
 62
     7
 10
451.08070280505302
 20
725.05326588270691
 30
0.0
 40
2.0
 50
179.999989999999
 51
268.00000999999861
  0
ARC
  5
8430
  8
0
  6
CONTINUOUS
 62
     7
 10
438.08070280505302
 20
737.67368588270665
 30
0.0
 40
3.0
 50
179.999989999999
 51
260.00000000000142
  0
ARC
  5
8431
  8
0
  6
CONTINUOUS
 62
     7
 10
446.08070280505302
 20
730.17057588270666
 30
0.0
 40
3.0
 50
0.0
 51
79.999998000001099
  0
ARC
  5
8432
  8
0
  6
CONTINUOUS
 62
     7
 10
430.08070280505302
 20
772.26505588270675
 30
0.0
 40
5.0
 50
0.0
 51
87.999999999996248
  0
ARC
  5
8433
  8
0
  6
CONTINUOUS
 62
     7
 10
452.08064280505317
 20
715.58848588270712
 30
0.0
 40
3.0
 50
180.000010000001
 51
266.99999000000031
  0
ARC
  5
8434
  8
0
  6
CONTINUOUS
 62
     7
 10
446.0807728050533
 20
851.79825588270694
 30
0.0
 40
10.0
 50
23.57803699999776
 51
156.42196000000089
  0
ARC
  5
8435
  8
0
  6
CONTINUOUS
 62
     7
 10
429.5807728050533
 20
851.79825588270694
 30
0.0
 40
3.9999962
 50
90.00000299999769
 51
270.0
  0
ARC
  5
8436
  8
0
  6
CONTINUOUS
 62
     7
 10
462.5807728050533
 20
851.79825588270694
 30
0.0
 40
3.9999962
 50
270.0
 51
90.00000299999769
  0
ARC
  5
8437
  8
0
  6
CONTINUOUS
 62
     7
 10
446.0807728050533
 20
851.79825588270694
 30
0.0
 40
10.0
 50
203.57826999999861
 51
336.4217200000013
  0
ARC
  5
8438
  8
0
  6
CONTINUOUS
 62
     7
 10
563.08070280505331
 20
740.84098588270695
 30
0.0
 40
5.0
 50
267.99999999999619
 51
0.0
  0
ARC
  5
8439
  8
0
  6
CONTINUOUS
 62
     7
 10
555.08070280505319
 20
959.33603588270682
 30
0.0
 40
5.0
 50
300.88098000000019
 51
0.0
  0
ARC
  5
843A
  8
0
  6
CONTINUOUS
 62
     7
 10
563.08070280505331
 20
962.75553588270634
 30
0.0
 40
5.0
 50
0.0
 51
91.999998000000545
  0
ARC
  5
843B
  8
0
  6
CONTINUOUS
 62
     7
 10
565.08070280505353
 20
917.93265588270674
 30
0.0
 40
5.0
 50
179.999989999999
 51
270.0
  0
ARC
  5
843C
  8
0
  6
CONTINUOUS
 62
     7
 10
563.08070280505331
 20
990.77262588270662
 30
0.0
 40
3.0
 50
91.999998000000545
 51
180.000010000001
  0
ARC
  5
843D
  8
0
  6
CONTINUOUS
 62
     7
 10
555.08070280505319
 20
744.26047588270694
 30
0.0
 40
5.0
 50
0.0
 51
59.11901699999779
  0
ARC
  5
843E
  8
0
  6
CONTINUOUS
 62
     7
 10
565.08070280505353
 20
785.66385588270703
 30
0.0
 40
5.0
 50
90.00000299999769
 51
180.000010000001
  0
ARC
  5
843F
  8
0
  6
CONTINUOUS
 62
     7
 10
563.08070280505331
 20
712.82389588270678
 30
0.0
 40
3.0
 50
179.999989999999
 51
268.00000999999861
  0
ARC
  5
8440
  8
0
  6
CONTINUOUS
 62
     7
 10
513.87648280505323
 20
771.23246588270695
 30
0.0
 40
3.0
 50
59.11902300000196
 51
90.00000299999769
  0
ARC
  5
8441
  8
0
  6
CONTINUOUS
 62
     7
 10
517.76820280505319
 20
775.89615588270681
 30
0.0
 40
3.0
 50
90.00000299999769
 51
239.11901999999989
  0
ARC
  5
8442
  8
0
  6
CONTINUOUS
 62
     7
 10
513.87648280505323
 20
932.36405588270702
 30
0.0
 40
3.0
 50
270.0
 51
300.88098000000019
  0
ARC
  5
8443
  8
0
  6
CONTINUOUS
 62
     7
 10
517.76820280505319
 20
927.70035588270662
 30
0.0
 40
3.0
 50
120.8809700000043
 51
270.0
  0
ARC
  5
8444
  8
0
  6
CONTINUOUS
 62
     7
 10
598.08070280505342
 20
851.79825588270694
 30
0.0
 40
6.0000037999999991
 50
90.00000299999769
 51
270.0
  0
POLYLINE
  5
8445
  8
0
  6
CONTINUOUS
 62
     7
 66
     1
 10
0.0
 20
0.0
 30
0.0
  0
VERTEX
  5
8446
  8
0
  6
CONTINUOUS
 62
     7
 10
560.08070280505319
 20
970.9911258827068
 30
0.0
  0
VERTEX
  5
8447
  8
0
  6
CONTINUOUS
 62
     7
 10
552.42188280505343
 20
951.92043588270667
 30
0.0
 42
-1.0
  0
SEQEND
  5
8448
  8
0
 62
     7
  0
POLYLINE
  5
8449
  8
0
  6
CONTINUOUS
 62
     7
 66
     1
 10
0.0
 20
0.0
 30
0.0
  0
VERTEX
  5
844A
  8
0
  6
CONTINUOUS
 62
     7
 10
552.42181280505338
 20
751.67627588270705
 30
0.0
 42
0.0052467582
  0
VERTEX
  5
844B
  8
0
  6
CONTINUOUS
 62
     7
 10
554.84203280505369
 20
745.26644588270665
 30
0.0
 42
0.0052066449
  0
VERTEX
  5
844C
  8
0
  6
CONTINUOUS
 62
     7
 10
557.39570280505325
 20
738.90861588270718
 30
0.0
 42
0.0051740769
  0
VERTEX
  5
844D
  8
0
  6
CONTINUOUS
 62
     7
 10
560.08070280505319
 20
732.60538588270674
 30
0.0
  0
SEQEND
  5
844E
  8
0
 62
     7
  0
POLYLINE
  5
844F
  8
0
  6
CONTINUOUS
 62
     7
 66
     1
 10
0.0
 20
0.0
 30
0.0
  0
VERTEX
  5
8450
  8
0
  6
CONTINUOUS
 62
     7
 10
538.94495280505328
 20
903.36277588270673
 30
0.0
 42
0.030646372
  0
VERTEX
  5
8451
  8
0
  6
CONTINUOUS
 62
     7
 10
534.5354128050534
 20
869.07936588270718
 30
0.0
 42
0.064801293
  0
VERTEX
  5
8452
  8
0
  6
CONTINUOUS
 62
     7
 10
538.94495280505328
 20
800.23371588270686
 30
0.0
  0
SEQEND
  5
8453
  8
0
 62
     7
  0
LINE
  5
84AC
  8
0
  6
CONTINUOUS
 62
     7
 10
460.08080280505351
 20
639.6489328120939
 30
0.0
 11
462.08073280505357
 21
639.6489328120939
 31
0.0
  0
LINE
  5
84AD
  8
0
  6
CONTINUOUS
 62
     7
 10
438.26360280505338
 20
646.14896281209394
 30
0.0
 11
453.8978128050536
 21
646.14896281209394
 31
0.0
  0
LINE
  5
84AE
  8
0
  6
CONTINUOUS
 62
     7
 10
435.75786280505372
 20
639.14896281209394
 30
0.0
 11
450.41344280505359
 21
639.14896281209394
 31
0.0
  0
LINE
  5
84AF
  8
0
  6
CONTINUOUS
 62
     7
 10
436.08073280505369
 20
639.1489328120939
 30
0.0
 11
437.7929528050538
 21
645.53901281209369
 31
0.0
  0
LINE
  5
84B0
  8
0
  6
CONTINUOUS
 62
     7
 10
446.08073280505329
 20
647.64896281209371
 30
0.0
 11
453.58415280505358
 21
646.26362281209367
 31
0.0
  0
LINE
  5
84B1
  8
0
  6
CONTINUOUS
 62
     7
 10
438.57732280505348
 20
646.26356281209371
 30
0.0
 11
446.08073280505329
 21
647.64890281209375
 31
0.0
  0
LINE
  5
84B2
  8
0
  6
CONTINUOUS
 62
     7
 10
460.08080280505351
 20
639.57911281209374
 30
0.0
 11
460.08080280505351
 21
639.6489328120939
 31
0.0
  0
LINE
  5
84B3
  8
0
  6
CONTINUOUS
 62
     7
 10
437.5597428050537
 20
626.7279128120939
 30
0.0
 11
446.60167280505362
 21
628.32224281209369
 31
0.0
  0
LINE
  5
84B4
  8
0
  6
CONTINUOUS
 62
     7
 10
449.08073280505369
 20
382.03428281209392
 30
0.0
 11
449.08073280505369
 21
637.26359281209375
 31
0.0
  0
LINE
  5
84B5
  8
0
  6
CONTINUOUS
 62
     7
 10
435.08080280505351
 20
395.52439281209388
 30
0.0
 11
435.08080280505351
 21
637.6489328120939
 31
0.0
  0
LINE
  5
84B6
  8
0
  6
CONTINUOUS
 62
     7
 10
451.01091280505381
 20
639.26237281209387
 30
0.0
 11
462.08073280505357
 21
639.6489328120939
 31
0.0
  0
LINE
  5
84B7
  8
0
  6
CONTINUOUS
 62
     7
 10
456.00359280505359
 20
639.43678281209372
 30
0.0
 11
454.36852280505332
 21
645.53907281209376
 31
0.0
  0
LINE
  5
84B8
  8
0
  6
CONTINUOUS
 62
     7
 10
582.0807328050538
 20
570.14890281209375
 30
0.0
 11
584.08067280505338
 21
570.14890281209375
 31
0.0
  0
LINE
  5
84B9
  8
0
  6
CONTINUOUS
 62
     7
 10
582.0807328050538
 20
525.14890281209375
 30
0.0
 11
584.08067280505338
 21
525.14890281209375
 31
0.0
  0
LINE
  5
84BA
  8
0
  6
CONTINUOUS
 62
     7
 10
557.93333280505351
 20
644.65257281209369
 30
0.0
 11
516.1752828050536
 21
619.67970281209375
 31
0.0
  0
LINE
  5
84BB
  8
0
  6
CONTINUOUS
 62
     7
 10
557.64702280505367
 20
650.89552281209387
 30
0.0
 11
520.58812280505379
 21
628.73292281209365
 31
0.0
  0
LINE
  5
84BC
  8
0
  6
CONTINUOUS
 62
     7
 10
544.02342280505343
 20
616.13026281209375
 30
0.0
 11
560.08067280505338
 21
628.10905281209375
 31
0.0
  0
LINE
  5
84BD
  8
0
  6
CONTINUOUS
 62
     7
 10
513.58073280505334
 20
615.13783281209373
 30
0.0
 11
541.03374280505352
 21
615.13783281209373
 31
0.0
  0
LINE
  5
84BE
  8
0
  6
CONTINUOUS
 62
     7
 10
490.08073280505369
 20
446.28695281209389
 30
0.0
 11
560.08073280505334
 21
446.28695281209389
 31
0.0
  0
LINE
  5
84BF
  8
0
  6
CONTINUOUS
 62
     7
 10
490.08073280505369
 20
428.6913228120938
 30
0.0
 11
490.08073280505369
 21
444.79131281209391
 31
0.0
  0
LINE
  5
84C0
  8
0
  6
CONTINUOUS
 62
     7
 10
490.08073280505369
 20
426.8446728120939
 30
0.0
 11
560.08073280505334
 21
426.8446728120939
 31
0.0
  0
LINE
  5
84C1
  8
0
  6
CONTINUOUS
 62
     7
 10
535.37358280505339
 20
642.94178281209372
 30
0.0
 11
558.61626280505345
 21
666.18446281209367
 31
0.0
  0
LINE
  5
84C2
  8
0
  6
CONTINUOUS
 62
     7
 10
578.0807328050538
 20
667.64890281209375
 30
0.0
 11
582.0807328050538
 21
667.64890281209375
 31
0.0
  0
LINE
  5
84C3
  8
0
  6
CONTINUOUS
 62
     7
 10
563.69328280505351
 20
562.57206281209358
 30
0.0
 11
568.08073280505323
 21
562.57206281209358
 31
0.0
  0
LINE
  5
84C4
  8
0
  6
CONTINUOUS
 62
     7
 10
449.08073280505369
 20
519.62992281209392
 30
0.0
 11
568.08073280505323
 21
519.62992281209392
 31
0.0
  0
LINE
  5
84C5
  8
0
  6
CONTINUOUS
 62
     7
 10
568.08073280505323
 20
547.64890281209375
 30
0.0
 11
568.08073280505323
 21
436.69163281209359
 31
0.0
  0
LINE
  5
84C6
  8
0
  6
CONTINUOUS
 62
     7
 10
578.0807328050538
 20
427.64892281209359
 30
0.0
 11
582.0807328050538
 21
427.64892281209359
 31
0.0
  0
LINE
  5
84C7
  8
0
  6
CONTINUOUS
 62
     7
 10
462.08067280505333
 20
379.64893281209379
 30
0.0
 11
521.80925280505369
 21
378.08488281209378
 31
0.0
  0
LINE
  5
84C8
  8
0
  6
CONTINUOUS
 62
     7
 10
582.0807328050538
 20
547.64890281209375
 30
0.0
 11
582.0807328050538
 21
667.64890281209375
 31
0.0
  0
LINE
  5
84C9
  8
0
  6
CONTINUOUS
 62
     7
 10
568.08073280505323
 20
547.64890281209375
 30
0.0
 11
568.08073280505323
 21
658.60621281209364
 31
0.0
  0
LINE
  5
84CA
  8
0
  6
CONTINUOUS
 62
     7
 10
449.08073280505369
 20
631.36622281209372
 30
0.0
 11
524.99126280505368
 21
631.36622281209372
 31
0.0
  0
LINE
  5
84CB
  8
0
  6
CONTINUOUS
 62
     7
 10
449.08073280505369
 20
616.90943281209366
 30
0.0
 11
511.14226280505369
 21
616.90943281209366
 31
0.0
  0
LINE
  5
84CC
  8
0
  6
CONTINUOUS
 62
     7
 10
558.9462728050537
 20
566.00187281209367
 30
0.0
 11
542.69328280505351
 21
615.13792281209373
 31
0.0
  0
LINE
  5
84CD
  8
0
  6
CONTINUOUS
 62
     7
 10
535.28844280505336
 20
637.52427281209373
 30
0.0
 11
533.96306280505326
 21
641.53126281209393
 31
0.0
  0
LINE
  5
84CE
  8
0
  6
CONTINUOUS
 62
     7
 10
562.97606280505374
 20
689.62144281209385
 30
0.0
 11
578.0807328050538
 21
690.14890281209387
 31
0.0
  0
LINE
  5
84CF
  8
0
  6
CONTINUOUS
 62
     7
 10
578.0807328050538
 20
405.14892281209382
 30
0.0
 11
578.0807328050538
 21
690.14890281209387
 31
0.0
  0
LINE
  5
84D0
  8
0
  6
CONTINUOUS
 62
     7
 10
560.08073280505334
 20
569.13575281209364
 30
0.0
 11
560.08073280505334
 21
686.62327281209366
 31
0.0
  0
LINE
  5
84D1
  8
0
  6
CONTINUOUS
 62
     7
 10
449.08073280505369
 20
499.66792281209382
 30
0.0
 11
568.08073280505323
 21
499.66792281209382
 31
0.0
  0
LINE
  5
84D2
  8
0
  6
CONTINUOUS
 62
     7
 10
582.0807328050538
 20
547.64890281209375
 30
0.0
 11
582.0807328050538
 21
427.64892281209359
 31
0.0
  0
LINE
  5
84D3
  8
0
  6
CONTINUOUS
 62
     7
 10
563.1854128050536
 20
404.62879281209359
 30
0.0
 11
578.0807328050538
 21
405.1489528120938
 31
0.0
  0
LINE
  5
84D4
  8
0
  6
CONTINUOUS
 62
     7
 10
449.08073280505369
 20
402.38845281209359
 30
0.0
 11
563.90422280505379
 21
402.38845281209359
 31
0.0
  0
LINE
  5
84D5
  8
0
  6
CONTINUOUS
 62
     7
 10
449.08073280505369
 20
387.93165281209377
 30
0.0
 11
538.86443280505353
 21
387.93165281209377
 31
0.0
  0
LINE
  5
84D6
  8
0
  6
CONTINUOUS
 62
     7
 10
560.08073280505334
 20
407.62695281209358
 30
0.0
 11
560.08073280505334
 21
456.14207281209377
 31
0.0
  0
LINE
  5
84D7
  8
0
  6
CONTINUOUS
 62
     7
 10
462.08073280505357
 20
379.64893281209379
 30
0.0
 11
462.08073280505357
 21
639.64890281209387
 31
0.0
  0
LINE
  5
84D8
  8
0
  6
CONTINUOUS
 62
     7
 10
462.08061280505342
 20
639.64896281209371
 30
0.0
 11
531.96892280505358
 21
641.47904281209355
 31
0.0
  0
LINE
  5
84D9
  8
0
  6
CONTINUOUS
 62
     7
 10
521.80925280505369
 20
378.08490281209379
 30
0.0
 11
568.08067280505338
 21
404.79975281209357
 31
0.0
  0
LINE
  5
84DA
  8
0
  6
CONTINUOUS
 62
     7
 10
437.5597428050537
 20
392.56996281209359
 30
0.0
 11
446.60173280505347
 21
390.97562281209389
 31
0.0
  0
LINE
  5
84DB
  8
0
  6
CONTINUOUS
 62
     7
 10
451.0109728050536
 20
380.03548281209379
 30
0.0
 11
462.08073280505357
 21
379.64891281209378
 31
0.0
  0
LINE
  5
84DC
  8
0
  6
CONTINUOUS
 62
     7
 10
584.08067280505338
 20
526.6489328120939
 30
0.0
 11
654.08070280505353
 21
526.6489328120939
 31
0.0
  0
LINE
  5
84DD
  8
0
  6
CONTINUOUS
 62
     7
 10
584.08067280505338
 20
568.6489328120939
 30
0.0
 11
654.08070280505353
 21
568.6489328120939
 31
0.0
  0
LINE
  5
84DE
  8
0
  6
CONTINUOUS
 62
     7
 10
584.08067280505338
 20
525.14890281209375
 30
0.0
 11
584.08067280505338
 21
570.14890281209375
 31
0.0
  0
LINE
  5
84DF
  8
0
  6
CONTINUOUS
 62
     7
 10
654.08070280505353
 20
526.6489328120939
 30
0.0
 11
654.08070280505353
 21
571.64890281209375
 31
0.0
  0
LINE
  5
84E0
  8
0
  6
CONTINUOUS
 62
     7
 10
598.08073280505334
 20
571.64890281209375
 30
0.0
 11
654.08070280505353
 21
571.64890281209375
 31
0.0
  0
LINE
  5
84E1
  8
0
  6
CONTINUOUS
 62
     7
 10
598.08073280505334
 20
571.64890281209375
 30
0.0
 11
598.08073280505334
 21
568.6489328120939
 31
0.0
  0
CIRCLE
  5
84E3
  8
0
  6
CONTINUOUS
 62
     7
 10
446.08073280505329
 20
660.1489328120939
 30
0.0
 40
12.5
  0
ARC
  5
84E4
  8
0
  6
CONTINUOUS
 62
     7
 10
438.75890280505359
 20
645.28019281209356
 30
0.0
 40
1.0
 50
100.4607199999961
 51
164.99998999999869
  0
ARC
  5
84E5
  8
0
  6
CONTINUOUS
 62
     7
 10
453.40263280505337
 20
645.28019281209356
 30
0.0
 40
1.0
 50
15.000000000000741
 51
79.539281000002006
  0
ARC
  5
84E6
  8
0
  6
CONTINUOUS
 62
     7
 10
432.1637428050534
 20
639.98539281209389
 30
0.0
 40
4.0
 50
347.9293300000017
 51
55.386359000001512
  0
ARC
  5
84E7
  8
0
  6
CONTINUOUS
 62
     7
 10
430.08080280505351
 20
589.18214281209373
 30
0.0
 40
5.0
 50
271.99999999999721
 51
0.0
  0
ARC
  5
84E8
  8
0
  6
CONTINUOUS
 62
     7
 10
432.08073280505369
 20
421.81904281209381
 30
0.0
 40
3.0
 50
0.0
 51
84.999996999998885
  0
ARC
  5
84E9
  8
0
  6
CONTINUOUS
 62
     7
 10
459.99767280505341
 20
639.98539281209389
 30
0.0
 40
4.0
 50
124.6136499999979
 51
187.86824999999581
  0
ARC
  5
84EA
  8
0
  6
CONTINUOUS
 62
     7
 10
437.08073280505357
 20
637.6489328120939
 30
0.0
 40
2.0
 50
131.40961999999629
 51
180.000010000001
  0
ARC
  5
84EB
  8
0
  6
CONTINUOUS
 62
     7
 10
446.08073280505329
 20
660.1489328120939
 30
0.0
 40
20.5
 50
304.61363999999702
 51
235.3863500000021
  0
ARC
  5
84EC
  8
0
  6
CONTINUOUS
 62
     7
 10
446.08073280505329
 20
631.27665281209374
 30
0.0
 40
3.0
 50
279.99999999999858
 51
0.0
  0
ARC
  5
84ED
  8
0
  6
CONTINUOUS
 62
     7
 10
438.08073280505312
 20
623.7734828120939
 30
0.0
 40
3.0
 50
99.999999999998593
 51
180.000010000001
  0
ARC
  5
84EE
  8
0
  6
CONTINUOUS
 62
     7
 10
451.08073280505312
 20
637.26359281209375
 30
0.0
 40
2.0
 50
91.999998000000545
 51
180.000010000001
  0
ARC
  5
84EF
  8
0
  6
CONTINUOUS
 62
     7
 10
555.08073280505334
 20
655.1867128120939
 30
0.0
 40
5.0
 50
300.88098000000019
 51
0.0
  0
ARC
  5
84F0
  8
0
  6
CONTINUOUS
 62
     7
 10
492.28056280505371
 20
641.44404281209358
 30
0.0
 40
30.946884000000011
 50
307.55230999999918
 51
335.59612999999899
  0
ARC
  5
84F1
  8
0
  6
CONTINUOUS
 62
     7
 10
513.58073280505334
 20
620.13783281209373
 30
0.0
 40
5.0
 50
229.7633299999992
 51
270.0
  0
ARC
  5
84F2
  8
0
  6
CONTINUOUS
 62
     7
 10
541.03374280505352
 20
620.13783281209373
 30
0.0
 40
5.0
 50
270.0
 51
306.7232099999984
  0
ARC
  5
84F3
  8
0
  6
CONTINUOUS
 62
     7
 10
490.08073280505369
 20
436.56582281209359
 30
0.0
 40
9.7211408999999982
 50
90.00000299999769
 51
270.0
  0
ARC
  5
84F4
  8
0
  6
CONTINUOUS
 62
     7
 10
563.08073280505323
 20
436.69163281209359
 30
0.0
 40
5.0
 50
268.0000000000029
 51
0.0
  0
ARC
  5
84F5
  8
0
  6
CONTINUOUS
 62
     7
 10
565.0807328050538
 20
456.14207281209377
 30
0.0
 40
5.0
 50
90.00000299999769
 51
180.000010000001
  0
ARC
  5
84F6
  8
0
  6
CONTINUOUS
 62
     7
 10
451.08073280505312
 20
382.03428281209392
 30
0.0
 40
2.0
 50
179.999989999999
 51
268.00000999999861
  0
ARC
  5
84F7
  8
0
  6
CONTINUOUS
 62
     7
 10
563.08073280505323
 20
658.60621281209364
 30
0.0
 40
5.0
 50
0.0
 51
91.999998000000545
  0
ARC
  5
84F8
  8
0
  6
CONTINUOUS
 62
     7
 10
555.08073280505334
 20
669.71998281209358
 30
0.0
 40
5.0
 50
315.0
 51
0.0
  0
ARC
  5
84F9
  8
0
  6
CONTINUOUS
 62
     7
 10
563.08073280505323
 20
407.62695281209358
 30
0.0
 40
3.0
 50
179.999989999999
 51
271.99999000000139
  0
ARC
  5
84FA
  8
0
  6
CONTINUOUS
 62
     7
 10
563.08073280505323
 20
686.62327281209366
 30
0.0
 40
3.0
 50
91.999998000000545
 51
180.000010000001
  0
ARC
  5
84FB
  8
0
  6
CONTINUOUS
 62
     7
 10
563.69328280505351
 20
567.57206281209358
 30
0.0
 40
5.0
 50
198.3029200000004
 51
270.0
  0
ARC
  5
84FC
  8
0
  6
CONTINUOUS
 62
     7
 10
531.8380628050536
 20
646.47730281209374
 30
0.0
 40
5.0
 50
271.50000000000267
 51
315.0
  0
ARC
  5
84FD
  8
0
  6
CONTINUOUS
 62
     7
 10
438.08073280505312
 20
395.52439281209388
 30
0.0
 40
3.0
 50
179.999989999999
 51
260.00000000000142
  0
ARC
  5
84FE
  8
0
  6
CONTINUOUS
 62
     7
 10
446.08073280505329
 20
388.02122281209392
 30
0.0
 40
3.0
 50
0.0
 51
79.999998000001099
  0
LINE
  5
855B
  8
0
  6
AM_ISO08W050
 62
     0
 10
913.73136577131868
 20
371.81169281209378
 30
0.0
 11
913.73136577131868
 21
698.8459228120937
 31
0.0
  0
LINE
  5
855C
  8
0
  6
AM_ISO08W050
 62
     0
 10
761.12399577131885
 20
547.64890281209375
 30
0.0
 11
1064.3599467713191
 21
547.64890281209375
 31
0.0
  0
LINE
  5
855E
  8
0
  6
CONTINUOUS
 62
     7
 10
975.73132577131867
 20
547.64890281209375
 30
0.0
 11
975.73132577131867
 21
527.64890281209387
 31
0.0
  0
LINE
  5
855F
  8
0
  6
CONTINUOUS
 62
     7
 10
841.22742577131908
 20
627.22392281209375
 30
0.0
 11
870.42136577131885
 21
598.02995281209371
 31
0.0
  0
LINE
  5
8560
  8
0
  6
CONTINUOUS
 62
     7
 10
993.30631577131896
 20
620.15287281209373
 30
0.0
 11
964.11234577131904
 21
590.9589028120937
 31
0.0
  0
LINE
  5
8561
  8
0
  6
CONTINUOUS
 62
     7
 10
834.1563457713188
 20
620.15284281209392
 30
0.0
 11
863.35031577131895
 21
590.95887281209377
 31
0.0
  0
LINE
  5
8562
  8
0
  6
CENTER
 62
     7
 10
782.22290577131878
 20
679.15736281209377
 30
0.0
 11
806.47705577131876
 21
654.9032128120939
 31
0.0
  0
LINE
  5
8563
  8
0
  6
CENTER
 62
     7
 10
781.5560657713188
 20
415.47370281209379
 30
0.0
 11
805.31357577131894
 21
439.23121281209382
 31
0.0
  0
LINE
  5
8564
  8
0
  6
CONTINUOUS
 62
     7
 10
771.23136577131868
 20
597.64890281209375
 30
0.0
 11
771.23136577131868
 21
547.64890281209375
 31
0.0
  0
LINE
  5
8565
  8
0
  6
CONTINUOUS
 62
     7
 10
863.73136577131868
 20
405.14892281209382
 30
0.0
 11
913.73136577131868
 21
405.14892281209382
 31
0.0
  0
LINE
  5
8566
  8
0
  6
CONTINUOUS
 62
     7
 10
792.05948577131869
 20
407.65177281209378
 30
0.0
 11
863.73129577131886
 21
405.14893281209362
 31
0.0
  0
LINE
  5
8567
  8
0
  6
CONTINUOUS
 62
     7
 10
773.73419577131881
 20
425.97712281209368
 30
0.0
 11
771.23136577131868
 21
497.64892281209382
 31
0.0
  0
LINE
  5
8568
  8
0
  6
CONTINUOUS
 62
     7
 10
1035.403167771319
 20
407.65179281209379
 30
0.0
 11
963.73132577131901
 21
405.1489528120938
 31
0.0
  0
LINE
  5
8569
  8
0
  6
CONTINUOUS
 62
     7
 10
1053.7285147713189
 20
425.97713281209388
 30
0.0
 11
1056.231345771319
 21
497.64892281209382
 31
0.0
  0
LINE
  5
856A
  8
0
  6
CONTINUOUS
 62
     7
 10
1056.231337771319
 20
497.64890281209381
 30
0.0
 11
1056.231337771319
 21
547.64890281209375
 31
0.0
  0
LINE
  5
856B
  8
0
  6
CENTER
 62
     7
 10
1045.5289757713181
 20
415.85128281209359
 30
0.0
 11
1021.443645771319
 21
439.93662281209362
 31
0.0
  0
LINE
  5
856C
  8
0
  6
CONTINUOUS
 62
     7
 10
771.23136577131868
 20
497.64890281209381
 30
0.0
 11
771.23136577131868
 21
547.64890281209375
 31
0.0
  0
LINE
  5
856D
  8
0
  6
CONTINUOUS
 62
     7
 10
773.73413577131885
 20
669.32072281209389
 30
0.0
 11
771.23129577131886
 21
597.64890281209375
 31
0.0
  0
LINE
  5
856E
  8
0
  6
CONTINUOUS
 62
     7
 10
792.05954577131865
 20
687.64606281209376
 30
0.0
 11
863.73136577131868
 21
690.14890281209387
 31
0.0
  0
LINE
  5
856F
  8
0
  6
CONTINUOUS
 62
     7
 10
963.73136577131868
 20
405.14892281209382
 30
0.0
 11
913.73136577131868
 21
405.14892281209382
 31
0.0
  0
LINE
  5
8570
  8
0
  6
CONTINUOUS
 62
     7
 10
851.73136577131879
 20
547.64890281209375
 30
0.0
 11
851.73136577131879
 21
527.64890281209387
 31
0.0
  0
LINE
  5
8571
  8
0
  6
CONTINUOUS
 62
     7
 10
986.23525577131875
 20
627.22392281209375
 30
0.0
 11
957.04128577131905
 21
598.02998281209375
 31
0.0
  0
LINE
  5
8572
  8
0
  6
CONTINUOUS
 62
     7
 10
917.23134577131896
 20
655.31388281209365
 30
0.0
 11
917.23134577131896
 21
636.36414281209386
 31
0.0
  0
LINE
  5
8573
  8
0
  6
CONTINUOUS
 62
     7
 10
910.23134577131884
 20
655.31388281209365
 30
0.0
 11
910.23134577131884
 21
636.36414281209386
 31
0.0
  0
LINE
  5
8574
  8
0
  6
CONTINUOUS
 62
     7
 10
808.2088657713191
 20
519.64892281209359
 30
0.0
 11
843.73136577131902
 21
519.64892281209359
 31
0.0
  0
LINE
  5
8575
  8
0
  6
CONTINUOUS
 62
     7
 10
863.73136577131868
 20
690.14890281209387
 30
0.0
 11
913.73136577131868
 21
690.14890281209387
 31
0.0
  0
LINE
  5
8576
  8
0
  6
CONTINUOUS
 62
     7
 10
1056.231337771319
 20
597.64890281209375
 30
0.0
 11
1056.231337771319
 21
547.64890281209375
 31
0.0
  0
LINE
  5
8577
  8
0
  6
CONTINUOUS
 62
     7
 10
963.73136577131868
 20
690.14890281209387
 30
0.0
 11
913.73136577131868
 21
690.14890281209387
 31
0.0
  0
LINE
  5
8578
  8
0
  6
CONTINUOUS
 62
     7
 10
1035.4031747713191
 20
687.64606281209376
 30
0.0
 11
963.73132577131901
 21
690.14890281209387
 31
0.0
  0
LINE
  5
8579
  8
0
  6
CONTINUOUS
 62
     7
 10
1053.7285077713191
 20
669.32072281209389
 30
0.0
 11
1056.231345771319
 21
597.64890281209375
 31
0.0
  0
LINE
  5
857A
  8
0
  6
CENTER
 62
     7
 10
1045.034735771319
 20
678.95234281209366
 30
0.0
 11
1020.315715771319
 21
654.23331281209369
 31
0.0
  0
LINE
  5
857B
  8
0
  6
CONTINUOUS
 62
     7
 10
1019.253835771319
 20
519.64892281209359
 30
0.0
 11
983.73136577131879
 21
519.64892281209359
 31
0.0
  0
LINE
  5
857C
  8
0
  6
CONTINUOUS
 62
     7
 10
988.39063577131878
 20
394.47744281209378
 30
0.0
 11
991.50997577131886
 21
406.11898281209369
 31
0.0
  0
LINE
  5
857D
  8
0
  6
CONTINUOUS
 62
     7
 10
851.31952577131892
 20
387.4063628120939
 30
0.0
 11
862.16675577131912
 21
390.31287281209387
 31
0.0
  0
LINE
  5
857E
  8
0
  6
CONTINUOUS
 62
     7
 10
976.14317577131885
 20
387.4063628120939
 30
0.0
 11
965.2959357713188
 21
390.31287281209387
 31
0.0
  0
LINE
  5
857F
  8
0
  6
CONTINUOUS
 62
     7
 10
839.07208577131871
 20
394.47744281209378
 30
0.0
 11
835.95273577131866
 21
406.11900281209358
 31
0.0
  0
LINE
  5
8580
  8
0
  6
CONTINUOUS
 62
     7
 10
907.73134577131896
 20
571.64890281209375
 30
0.0
 11
919.73134577131896
 21
571.64890281209375
 31
0.0
  0
LINE
  5
8581
  8
0
  6
CONTINUOUS
 62
     7
 10
907.73134577131896
 20
571.64890281209375
 30
0.0
 11
907.73134577131896
 21
563.6489328120939
 31
0.0
  0
LINE
  5
8582
  8
0
  6
CONTINUOUS
 62
     7
 10
919.73134577131896
 20
571.64890281209375
 30
0.0
 11
919.73134577131896
 21
563.6489328120939
 31
0.0
  0
LINE
  5
8583
  8
0
  6
CONTINUOUS
 62
     7
 10
907.73134577131896
 20
563.6489328120939
 30
0.0
 11
919.73134577131896
 21
563.6489328120939
 31
0.0
  0
ARC
  5
8584
  8
0
  6
CONTINUOUS
 62
     7
 10
843.73136577131902
 20
527.64890281209387
 30
0.0
 40
8.0
 50
270.0
 51
0.0
  0
ARC
  5
8585
  8
0
  6
CENTER
 62
     7
 10
913.73136577131868
 20
547.64890281209375
 30
0.0
 40
170.0
 50
307.83183000000099
 51
321.87703999999781
  0
ARC
  5
8586
  8
0
  6
CONTINUOUS
 62
     7
 10
967.64790577131919
 20
587.42335281209375
 30
0.0
 40
5.0
 50
135.0
 51
216.41631999999831
  0
ARC
  5
8587
  8
0
  6
CONTINUOUS
 62
     7
 10
844.76297577131868
 20
630.75944281209365
 30
0.0
 40
5.0
 50
129.6872200000015
 51
225.0
  0
ARC
  5
8588
  8
0
  6
CONTINUOUS
 62
     7
 10
859.81482577131885
 20
587.42335281209375
 30
0.0
 40
5.0
 50
323.58368000000172
 51
45.000001000003799
  0
ARC
  5
8589
  8
0
  6
CONTINUOUS
 62
     7
 10
830.62082577131912
 20
616.61729281209375
 30
0.0
 40
5.0
 50
45.000001000003799
 51
140.31277999999841
  0
ARC
  5
858A
  8
0
  6
CONTINUOUS
 62
     7
 10
873.95693577131885
 20
601.56550281209377
 30
0.0
 40
5.0
 50
225.0
 51
306.41631999999828
  0
ARC
  5
858B
  8
0
  6
CONTINUOUS
 62
     7
 10
913.73136577131868
 20
547.64890281209375
 30
0.0
 40
61.999995999999989
 50
0.0
 51
36.416317999996672
  0
CIRCLE
  5
858C
  8
0
  6
CONTINUOUS
 62
     7
 10
793.52319577131868
 20
667.85706281209377
 30
0.0
 40
9.5
  0
ARC
  5
858D
  8
0
  6
CENTER
 62
     7
 10
913.73136577131868
 20
547.64890281209375
 30
0.0
 40
170.0
 50
128.1879000000005
 51
141.53650999999979
  0
ARC
  5
858E
  8
0
  6
CONTINUOUS
 62
     7
 10
792.72260577131885
 20
668.65766281209369
 30
0.0
 40
19.0
 50
91.999998000000545
 51
177.99999999999619
  0
CIRCLE
  5
858F
  8
0
  6
CONTINUOUS
 62
     7
 10
793.52319577131868
 20
427.44079281209389
 30
0.0
 40
9.5
  0
ARC
  5
8590
  8
0
  6
CONTINUOUS
 62
     7
 10
983.73136577131879
 20
527.64890281209387
 30
0.0
 40
8.0
 50
179.999989999999
 51
270.0
  0
ARC
  5
8591
  8
0
  6
CONTINUOUS
 62
     7
 10
792.72260577131885
 20
426.64021281209381
 30
0.0
 40
19.0
 50
182.00000000000369
 51
268.0000000000029
  0
CIRCLE
  5
8592
  8
0
  6
CONTINUOUS
 62
     7
 10
913.73136577131868
 20
547.64890281209375
 30
0.0
 40
120.0
  0
ARC
  5
8593
  8
0
  6
CONTINUOUS
 62
     7
 10
1034.740081771319
 20
426.64021281209381
 30
0.0
 40
19.0
 50
271.99999999999721
 51
357.99999999999642
  0
CIRCLE
  5
8594
  8
0
  6
CONTINUOUS
 62
     7
 10
1033.939490771319
 20
427.44079281209389
 30
0.0
 40
9.5
  0
ARC
  5
8595
  8
0
  6
CONTINUOUS
 62
     7
 10
913.73136577131868
 20
547.64890281209375
 30
0.0
 40
61.999995999999989
 50
53.583681000000588
 51
126.41631999999829
  0
ARC
  5
8596
  8
0
  6
CONTINUOUS
 62
     7
 10
913.73136577131868
 20
547.64890281209375
 30
0.0
 40
61.999995999999989
 50
142.1149900000031
 51
180.000010000001
  0
ARC
  5
8597
  8
0
  6
CONTINUOUS
 62
     7
 10
996.84186577131879
 20
616.61729281209375
 30
0.0
 40
5.0
 50
39.687224000002047
 51
135.0
  0
ARC
  5
8598
  8
0
  6
CONTINUOUS
 62
     7
 10
953.50575577131872
 20
601.56550281209377
 30
0.0
 40
5.0
 50
233.58368000000169
 51
315.0
  0
ARC
  5
8599
  8
0
  6
CONTINUOUS
 62
     7
 10
913.73136577131868
 20
509.64892281209382
 30
0.0
 40
122.0
 50
22.571981999999579
 51
55.326819999998243
  0
ARC
  5
859A
  8
0
  6
CONTINUOUS
 62
     7
 10
922.23134577131884
 20
655.31388281209365
 30
0.0
 40
5.0
 50
85.485944000000956
 51
180.000010000001
  0
ARC
  5
859B
  8
0
  6
CONTINUOUS
 62
     7
 10
905.23134577131884
 20
655.31388281209365
 30
0.0
 40
5.0
 50
0.0
 51
94.514061000000368
  0
ARC
  5
859C
  8
0
  6
CONTINUOUS
 62
     7
 10
905.23134577131884
 20
636.36414281209386
 30
0.0
 40
5.0
 50
273.83763000000238
 51
0.0
  0
ARC
  5
859D
  8
0
  6
CONTINUOUS
 62
     7
 10
982.69974577131882
 20
630.75944281209365
 30
0.0
 40
5.0
 50
315.0
 51
50.312775000000542
  0
ARC
  5
859E
  8
0
  6
CONTINUOUS
 62
     7
 10
913.73136577131868
 20
509.64892281209382
 30
0.0
 40
122.0
 50
124.67318000000169
 51
157.42801999999691
  0
ARC
  5
859F
  8
0
  6
CONTINUOUS
 62
     7
 10
913.73136577131868
 20
509.64892281209382
 30
0.0
 40
122.0
 50
60.143060000001931
 51
86.162372000003458
  0
ARC
  5
85A0
  8
0
  6
CENTER
 62
     7
 10
913.73136577131868
 20
547.64890281209375
 30
0.0
 40
170.0
 50
217.84322999999799
 51
231.86049000000071
  0
CIRCLE
  5
85A1
  8
0
  6
CONTINUOUS
 62
     7
 10
1033.939490771319
 20
667.85706281209377
 30
0.0
 40
9.5
  0
ARC
  5
85A2
  8
0
  6
CONTINUOUS
 62
     7
 10
1034.740081771319
 20
668.65766281209369
 30
0.0
 40
19.0
 50
2.000000000003725
 51
88.000000000002785
  0
CIRCLE
  5
85A3
  8
0
  6
CONTINUOUS
 62
     7
 10
913.73136577131868
 20
547.64890281209375
 30
0.0
 40
113.0
  0
ARC
  5
85A4
  8
0
  6
CENTER
 62
     7
 10
913.73136577131868
 20
547.64890281209375
 30
0.0
 40
170.0
 50
37.843229999998073
 51
51.939940999999457
  0
ARC
  5
85A5
  8
0
  6
CONTINUOUS
 62
     7
 10
808.2088657713191
 20
524.64890281209375
 30
0.0
 40
5.0
 50
192.2960399999989
 51
270.0
  0
ARC
  5
85A6
  8
0
  6
CONTINUOUS
 62
     7
 10
1019.253835771319
 20
524.64890281209375
 30
0.0
 40
5.0
 50
270.0
 51
347.70394999999922
  0
ARC
  5
85A7
  8
0
  6
CONTINUOUS
 62
     7
 10
848.73136577131868
 20
397.06564281209381
 30
0.0
 40
10.0
 50
195.00001000000131
 51
285.0000000000008
  0
ARC
  5
85A8
  8
0
  6
CONTINUOUS
 62
     7
 10
922.23134577131884
 20
636.36414281209386
 30
0.0
 40
5.0
 50
179.999989999999
 51
266.16236000000089
  0
ARC
  5
85A9
  8
0
  6
CONTINUOUS
 62
     7
 10
913.73136577131868
 20
509.64892281209382
 30
0.0
 40
122.0
 50
93.837625999997201
 51
119.856939999998
  0
ARC
  5
85AA
  8
0
  6
CONTINUOUS
 62
     7
 10
913.73136577131868
 20
509.64892281209382
 30
0.0
 40
130.0
 50
246.63104000000291
 51
293.368959999997
  0
CIRCLE
  5
85AB
  8
0
  6
CONTINUOUS
 62
     7
 10
913.73136577131868
 20
547.64890281209375
 30
0.0
 40
41.0
  0
ARC
  5
85AC
  8
0
  6
CONTINUOUS
 62
     7
 10
978.73136577131879
 20
397.06564281209381
 30
0.0
 40
10.0
 50
254.99999999999929
 51
344.99999999999932
  0
CIRCLE
  5
85AD
  8
0
  6
CONTINUOUS
 62
     7
 10
913.73136577131868
 20
547.64890281209375
 30
0.0
 40
5.0
  0
CIRCLE
  5
85AE
  8
0
  6
CONTINUOUS
 62
     7
 10
913.73136577131868
 20
547.64890281209375
 30
0.0
 40
3.5
  0
ARC
  5
85AF
  8
0
  6
CONTINUOUS
 62
     7
 10
913.73136577131868
 20
547.64890281209375
 30
0.0
 40
20.999998000000001
 50
106.6015499999988
 51
73.398451999997818
  0
TEXT
  5
87FB
  8
0
  6
CONTINUOUS
 62
     0
 10
754.36283511687668
 20
836.19785578286951
 30
0.0
 40
15.0
  1
VX08-120EMF~VX08-200EMF
  0
ENDSEC
  0
EOF
