  0
SECTION
  2
HEADER
  9
$ACADVER
  1
AC1009
  9
$INSBASE
 10
0.0
 20
0.0
 30
0.0
  9
$EXTMIN
 10
187.48453238056479
 20
433.34472282873679
 30
-0.0000000000112498
  9
$EXTMAX
 10
1350.2115825281981
 20
1206.4907636649989
 30
0.0000000000002956
  9
$LIMMIN
 10
0.0000005999945643
 20
-0.0000005963913736
  9
$LIMMAX
 10
1707.000000599995
 20
1109.9999994036091
  9
$ORTHOMODE
 70
     1
  9
$REGENMODE
 70
     1
  9
$FILLMODE
 70
     1
  9
$QTEXTMODE
 70
     0
  9
$MIRRTEXT
 70
     0
  9
$DRAGMODE
 70
     2
  9
$LTSCALE
 40
1.0
  9
$OSMODE
 70
   551
  9
$ATTMODE
 70
     1
  9
$TEXTSIZE
 40
2.5
  9
$TRACEWID
 40
1.0
  9
$TEXTSTYLE
  7
STANDARD
  9
$CLAYER
  8
0
  9
$CELTYPE
  6
BYLAYER
  9
$CECOLOR
 62
   256
  9
$DIMSCALE
 40
1.0
  9
$DIMASZ
 40
2.0
  9
$DIMEXO
 40
1.0
  9
$DIMDLI
 40
8.0
  9
$DIMRND
 40
0.0
  9
$DIMDLE
 40
0.0
  9
$DIMEXE
 40
1.0
  9
$DIMTP
 40
-0.025
  9
$DIMTM
 40
0.043
  9
$DIMTXT
 40
2.5
  9
$DIMCEN
 40
0.0
  9
$DIMTSZ
 40
0.0
  9
$DIMTOL
 70
     0
  9
$DIMLIM
 70
     0
  9
$DIMTIH
 70
     0
  9
$DIMTOH
 70
     0
  9
$DIMSE1
 70
     0
  9
$DIMSE2
 70
     0
  9
$DIMTAD
 70
     3
  9
$DIMZIN
 70
     8
  9
$DIMBLK
  1

  9
$DIMASO
 70
     1
  9
$DIMSHO
 70
     1
  9
$DIMPOST
  1

  9
$DIMAPOST
  1
"
  9
$DIMALT
 70
     0
  9
$DIMALTD
 70
     2
  9
$DIMALTF
 40
0.0393701
  9
$DIMLFAC
 40
1.0
  9
$DIMTOFL
 70
     1
  9
$DIMTVP
 40
0.0
  9
$DIMTIX
 70
     0
  9
$DIMSOXD
 70
     0
  9
$DIMSAH
 70
     0
  9
$DIMBLK1
  1

  9
$DIMBLK2
  1

  9
$DIMSTYLE
  2
AM_JIS
  9
$DIMCLRD
 70
     2
  9
$DIMCLRE
 70
     2
  9
$DIMCLRT
 70
     4
  9
$DIMTFAC
 40
0.71
  9
$DIMGAP
 40
1.5
  9
$LUNITS
 70
     2
  9
$LUPREC
 70
     2
  9
$SKETCHINC
 40
1.0
  9
$FILLETRAD
 40
0.0
  9
$AUNITS
 70
     0
  9
$AUPREC
 70
     0
  9
$MENU
  1
.
  9
$ELEVATION
 40
0.0
  9
$PELEVATION
 40
0.0
  9
$THICKNESS
 40
0.0
  9
$LIMCHECK
 70
     0
  9
$BLIPMODE
 70
     0
  9
$CHAMFERA
 40
3.0
  9
$CHAMFERB
 40
3.0
  9
$SKPOLY
 70
     0
  9
$TDCREATE
 40
2456829.3841110538
  9
$TDUPDATE
 40
2458540.6589937038
  9
$TDINDWG
 40
0.6261719097
  9
$TDUSRTIMER
 40
0.6261714815
  9
$USRTIMER
 70
     1
  9
$ANGBASE
 50
0.0
  9
$ANGDIR
 70
     0
  9
$PDMODE
 70
     0
  9
$PDSIZE
 40
0.0
  9
$PLINEWID
 40
0.0
  9
$COORDS
 70
     1
  9
$SPLFRAME
 70
     0
  9
$SPLINETYPE
 70
     6
  9
$SPLINESEGS
 70
     8
  9
$ATTDIA
 70
     1
  9
$ATTREQ
 70
     1
  9
$HANDLING
 70
     1
  9
$HANDSEED
  5
9314
  9
$SURFTAB1
 70
     6
  9
$SURFTAB2
 70
     6
  9
$SURFTYPE
 70
     6
  9
$SURFU
 70
     6
  9
$SURFV
 70
     6
  9
$UCSNAME
  2

  9
$UCSORG
 10
0.0
 20
0.0
 30
0.0
  9
$UCSXDIR
 10
1.0
 20
0.0
 30
0.0
  9
$UCSYDIR
 10
0.0
 20
1.0
 30
0.0
  9
$PUCSNAME
  2

  9
$PUCSORG
 10
0.0
 20
0.0
 30
0.0
  9
$PUCSXDIR
 10
1.0
 20
0.0
 30
0.0
  9
$PUCSYDIR
 10
0.0
 20
1.0
 30
0.0
  9
$USERI1
 70
     0
  9
$USERI2
 70
     0
  9
$USERI3
 70
     0
  9
$USERI4
 70
     0
  9
$USERI5
 70
     0
  9
$USERR1
 40
0.0
  9
$USERR2
 40
0.0
  9
$USERR3
 40
0.0
  9
$USERR4
 40
0.0
  9
$USERR5
 40
0.0
  9
$WORLDVIEW
 70
     1
  9
$SHADEDGE
 70
     3
  9
$SHADEDIF
 70
    70
  9
$TILEMODE
 70
     1
  9
$MAXACTVP
 70
    64
  9
$PLIMCHECK
 70
     0
  9
$PEXTMIN
 10
1.0000000000000000E+020
 20
1.0000000000000000E+020
 30
1.0000000000000000E+020
  9
$PEXTMAX
 10
-1.0000000000000000E+020
 20
-1.0000000000000000E+020
 30
-1.0000000000000000E+020
  9
$PLIMMIN
 10
0.0
 20
0.0
  9
$PLIMMAX
 10
420.0
 20
297.0
  9
$UNITMODE
 70
     0
  9
$VISRETAIN
 70
     1
  9
$PLINEGEN
 70
     0
  9
$PSLTSCALE
 70
     1
  0
ENDSEC
  0
SECTION
  2
TABLES
  0
TABLE
  2
VPORT
 70
     1
  0
VPORT
  2
*ACTIVE
 70
     0
 10
0.0
 20
0.0
 11
1.0
 21
1.0
 12
768.84805745438143
 22
819.91774324686799
 13
0.0
 23
0.0
 14
15.0
 24
15.0
 15
60.0
 25
60.0
 16
0.0
 26
0.0
 36
1.0
 17
0.0
 27
0.0
 37
0.0
 40
778.4536795605386
 41
1.7571592210767459
 42
50.0
 43
0.0
 44
0.0
 50
0.0
 51
0.0
 71
     0
 72
  1000
 73
     1
 74
     3
 75
     0
 76
     0
 77
     0
 78
     0
  0
ENDTAB
  0
TABLE
  2
LTYPE
 70
    24
  0
LTYPE
  2
CONTINUOUS
 70
     0
  3
Solid line
 72
    65
 73
     0
 40
0.0
  0
LTYPE
  2
AM_ISO02W050
 70
     0
  3
__ __ __ __ __ __ __ __ __ __ __ __ __ __ __
 72
    65
 73
     2
 40
7.5
 49
6.0
 49
-1.5
  0
LTYPE
  2
AM_ISO08W050
 70
     0
  3
____ . ____ . ____ . ____ . ____ . ____ . ____
 72
    65
 73
     4
 40
18.0
 49
12.0
 49
-1.5
 49
3.0
 49
-1.5
  0
LTYPE
  2
AM_ISO09W050
 70
     0
  3
_____ . . _____ . . _____ . . ____ .. ____
 72
    65
 73
     6
 40
22.5
 49
12.0
 49
-1.5
 49
3.0
 49
-1.5
 49
3.0
 49
-1.5
  0
LTYPE
  2
AMCONSTR
 70
     0
  3
_______________________
 72
    65
 73
     2
 40
9999.0
 49
9999.0
 49
0.0
  0
LTYPE
  2
AM_ISO08W050X2
 70
     0
  3
__ . __ . __ . __ . __ . __
 72
    65
 73
     4
 40
9.0
 49
6.0
 49
-0.75
 49
1.5
 49
-0.75
  0
LTYPE
  2
AM_ISO02W050X2
 70
     0
  3
 _ _ _ _ _ _ _ _ _ _ _ _
 72
    65
 73
     2
 40
3.75
 49
3.0
 49
-0.75
  0
LTYPE
  2
AMZIGZAG
 70
     0
  3
/\/-/\/-/\/-/\/-/\/-/\/
 72
    65
 73
     2
 40
11.0001
 49
0.0001
 49
-11.0
  0
LTYPE
  2
ACANSTGBM
 70
     0
  3
__ . . __ . .
 72
    65
 73
     6
 40
9.0
 49
4.0
 49
-1.0
 49
1.0
 49
-1.0
 49
1.0
 49
-1.0
  0
LTYPE
  2
ACANSTGLM
 70
     0
  3
_ _ _ _ _
 72
    65
 73
     2
 40
3.0
 49
2.0
 49
-1.0
  0
LTYPE
  2
ACISOWELD
 70
     0
  3
_ _ _ _ _
 72
    65
 73
     2
 40
2.0
 49
2.0
 49
-1.0
  0
LTYPE
  2
ACISOTGB
 70
     0
  3
__ . . __ . .
 72
    65
 73
     6
 40
9.0
 49
4.0
 49
-1.0
 49
1.0
 49
-1.0
 49
1.0
 49
-1.0
  0
LTYPE
  2
ACISOTGL
 70
     0
  3
_ _ _ _ _
 72
    65
 73
     2
 40
3.0
 49
2.0
 49
-1.0
  0
LTYPE
  2
ACJISTGB
 70
     0
  3
__ . . __ . .
 72
    65
 73
     6
 40
9.0
 49
4.0
 49
-1.0
 49
1.0
 49
-1.0
 49
1.0
 49
-1.0
  0
LTYPE
  2
ACJISTGL
 70
     0
  3
_ _ _ _ _
 72
    65
 73
     2
 40
3.0
 49
2.0
 49
-1.0
  0
LTYPE
  2
CENTER
 70
     0
  3
Center ____ _ ____ _ ____ _ ____ _ ____ _ ____
 72
    65
 73
     4
 40
50.799999999999997
 49
31.75
 49
-6.3499999999999979
 49
6.3499999999999979
 49
-6.3499999999999979
  0
LTYPE
  2
HIDDEN
 70
     0
  3
Hidden __ __ __ __ __ __ __ __ __ __ __ __ __ _
 72
    65
 73
     2
 40
9.5249999999999968
 49
6.3499999999999979
 49
-3.174999999999998
  0
LTYPE
  2
PHANTOM2
 70
     0
  3
Phantom (.5x) ___ _ _ ___ _ _ ___ _ _ ___ _ _
 72
    65
 73
     6
 40
31.75
 49
15.875
 49
-3.174999999999998
 49
3.174999999999998
 49
-3.174999999999998
 49
3.174999999999998
 49
-3.174999999999998
  0
LTYPE
  2
CENTER2
 70
     0
  3
Center (.5x) ___ _ ___ _ ___ _ ___ _ ___ _ ___
 72
    65
 73
     4
 40
1.125
 49
0.75
 49
-0.125
 49
0.125
 49
-0.125
  0
LTYPE
  2
HIDDEN2
 70
     0
  3
Hidden (.5x) _ _ _ _ _ _ _ _ _ _ _ _ _ _ _ _ _
 72
    65
 73
     2
 40
0.1875
 49
0.125
 49
-0.0625
  0
LTYPE
  2
AMZIGZAG2
 70
     0
  3
/\/-/\/-/\/-/\/-/\/-/\/
 72
    65
 73
     2
 40
0.4401
 49
0.0001
 49
-0.4400000000000003
  0
LTYPE
  2
ACANSTGB
 70
     0
  3
__ . . __ . .
 72
    65
 73
     6
 40
0.35433070866
 49
0.15748031496
 49
-0.03937007874
 49
0.03937007874
 49
-0.03937007874
 49
0.03937007874
 49
-0.03937007874
  0
LTYPE
  2
ACANSTGL
 70
     0
  3
_ _ _ _ _
 72
    65
 73
     2
 40
0.11811023622
 49
0.07874015748
 49
-0.03937007874
  0
ENDTAB
  0
TABLE
  2
LAYER
 70
     4
  0
LAYER
  2
0
 70
     0
 62
     7
  6
CONTINUOUS
  0
LAYER
  2
DEFPOINTS
 70
     0
 62
     7
  6
CONTINUOUS
  0
LAYER
  2
AM_5
 70
     0
 62
     2
  6
CONTINUOUS
  0
LAYER
  2
AM_CL
 70
     0
 62
     1
  6
AMCONSTR
  0
ENDTAB
  0
TABLE
  2
STYLE
 70
     8
  0
STYLE
  2
STANDARD
 70
     0
 40
0.0
 41
0.7400000000000003
 50
0.0
 71
     0
 42
2.5
  3
txt.shx
  4
bigfont.shx
  0
STYLE
  2

 70
     1
 40
0.0
 41
1.0
 50
0.0
 71
     0
 42
2.5
  3
ltypeshp.shx
  4

  0
STYLE
  2
ACANSTS
 70
     0
 40
1.0
 41
1.0
 50
0.0
 71
     0
 42
2.5
  3
romans.shx
  4
bigfont.shx
  0
STYLE
  2
ACANSGDT
 70
     0
 40
0.0
 41
1.0
 50
0.0
 71
     0
 42
2.5
  3
amgdtans.shx
  4

  0
STYLE
  2
ACISOTS
 70
     0
 40
1.0
 41
1.0
 50
0.0
 71
     0
 42
2.5
  3
isocp.shx
  4
extfont.shx
  0
STYLE
  2
ACISOGDT
 70
     0
 40
0.0
 41
1.0
 50
0.0
 71
     0
 42
2.5
  3
amgdt.shx
  4

  0
STYLE
  2
ACJISGDT
 70
     0
 40
0.0
 41
1.0
 50
0.0
 71
     0
 42
2.5
  3
amgdt.shx
  4

  0
STYLE
  2
ACJISTS
 70
     0
 40
1.0
 41
1.0
 50
0.0
 71
     0
 42
2.5
  3
isocp.shx
  4
extfont.shx
  0
ENDTAB
  0
TABLE
  2
VIEW
 70
     6
  0
VIEW
  2
AM_VIEW1
 70
     0
 40
555.00000000000011
 10
586.60142408753904
 20
832.49999940360885
 41
1173.202846975089
 11
0.0
 21
0.0
 31
1.0
 12
0.0
 22
0.0
 32
0.0
 42
50.0
 43
0.0
 44
0.0
 50
0.0
 71
     0
  0
VIEW
  2
AM_VIEW2
 70
     0
 40
555.00000000000011
 10
1120.3985771124501
 20
832.49999940360885
 41
1173.202846975089
 11
0.0
 21
0.0
 31
1.0
 12
0.0
 22
0.0
 32
0.0
 42
50.0
 43
0.0
 44
0.0
 50
0.0
 71
     0
  0
VIEW
  2
AM_VIEW3
 70
     0
 40
555.00000000000011
 10
586.60142408753904
 20
277.49999940360868
 41
1173.202846975089
 11
0.0
 21
0.0
 31
1.0
 12
0.0
 22
0.0
 32
0.0
 42
50.0
 43
0.0
 44
0.0
 50
0.0
 71
     0
  0
VIEW
  2
AM_VIEW4
 70
     0
 40
555.00000000000011
 10
1120.3985771124501
 20
277.49999940360868
 41
1173.202846975089
 11
0.0
 21
0.0
 31
1.0
 12
0.0
 22
0.0
 32
0.0
 42
50.0
 43
0.0
 44
0.0
 50
0.0
 71
     0
  0
VIEW
  2
AM_VIEW5
 70
     0
 40
555.00000000000011
 10
853.50000059999445
 20
554.99999940360874
 41
1173.202846975089
 11
0.0
 21
0.0
 31
1.0
 12
0.0
 22
0.0
 32
0.0
 42
50.0
 43
0.0
 44
0.0
 50
0.0
 71
     0
  0
VIEW
  2
AM_VIEW6
 70
     0
 40
1109.9889000000001
 10
853.50000059999445
 20
554.99999940360874
 41
2346.3822298932391
 11
0.0
 21
0.0
 31
1.0
 12
0.0
 22
0.0
 32
0.0
 42
50.0
 43
0.0
 44
0.0
 50
0.0
 71
     0
  0
ENDTAB
  0
TABLE
  2
UCS
 70
     0
  0
ENDTAB
  0
TABLE
  2
APPID
 70
   158
  0
APPID
  2
ACAD
 70
     0
  0
APPID
  2
ACADANNOTATIVE
 70
     0
  0
APPID
  2
ACAD_MLEADERVER
 70
     0
  0
APPID
  2
MCAD_NO_VIS
 70
     0
  0
APPID
  2
ACAD_TEMP_GRAPHIC
 70
     0
  0
APPID
  2
AD_DRAW
 70
     0
  0
APPID
  2
ACATTRIBSERVICES
 70
     0
  0
APPID
  2
DESIGNERASSEMBLIES
 70
     0
  0
APPID
  2
ACADM_DIM_EDIT
 70
     0
  0
APPID
  2
AMDT_DM_ADJ
 70
     0
  0
APPID
  2
GENIUS_GENDIMSH_14
 70
     0
  0
APPID
  2
GEVID1057795304
 70
     0
  0
APPID
  2
GEVDC
 70
     0
  0
APPID
  2
GEVCON
 70
     0
  0
APPID
  2
GENIUS_GENBH_13
 70
     0
  0
APPID
  2
GENIUS_GENOENT_13
 70
     0
  0
APPID
  2
GENIUS_GENOBJ-NBEHI-BHF_13
 70
     0
  0
APPID
  2
GENIUS_GENOLIS_13
 70
     0
  0
APPID
  2
GENIUS_GENODEF_13
 70
     0
  0
APPID
  2
GENIUS_GENOREF_13
 70
     0
  0
APPID
  2
GENIUS_GENOBJ-NBEHI-BHB_13
 70
     0
  0
APPID
  2
GENIUS_GENOBJ-F-SCPASSM_13
 70
     0
  0
APPID
  2
GENIUS_GENDTOL_13
 70
     0
  0
APPID
  2
GENIUS_GENTRA_14
 70
     0
  0
APPID
  2
ASURF_PCURVE_APPNAME
 70
     0
  0
APPID
  2
GENIUS_GENCFG_13
 70
     0
  0
APPID
  2
GENIUS_GE3CFG0_13
 70
     0
  0
APPID
  2
GENIUS_GENCFG0_13
 70
     0
  0
APPID
  2
GENIUS_GENCFG1_13
 70
     0
  0
APPID
  2
GENIUS_GENCFG2_13
 70
     0
  0
APPID
  2
GENIUS_GENCFG3_13
 70
     0
  0
APPID
  2
GENIUS_GENCFG4_13
 70
     0
  0
APPID
  2
GENIUS_GEVCFG0_13
 70
     0
  0
APPID
  2
GENIUS_GENOBJ-N-TIT_13
 70
     0
  0
APPID
  2
GENIUS_GENTITLE_13
 70
     0
  0
APPID
  2
GENIUS_GENSCREG_15
 70
     0
  0
APPID
  2
GENIUS_GENOBJ-N-SDF_13
 70
     0
  0
APPID
  2
GENIUS_GENFIL_13
 70
     0
  0
APPID
  2
GENIUS_GENOBJ-N-CHA_13
 70
     0
  0
APPID
  2
GENIUS_GEFSH_13
 70
     0
  0
APPID
  2
GENIUS_GENOBJ-F-SHS_13
 70
     0
  0
APPID
  2
GENIUS_GENOBJ-N-CEN_13
 70
     0
  0
APPID
  2
GENIUS_GENREC_14
 70
     0
  0
APPID
  2
GENIUS_GENOBJ-N-REC_13
 70
     0
  0
APPID
  2
GENIUS_GENOBJ-N-HTC_13
 70
     0
  0
APPID
  2
GENIUS_GENHATCH_13
 70
     0
  0
APPID
  2
ACAD_PSEXT
 70
     0
  0
APPID
  2
ACAD_EXEMPT_FROM_CAD_STANDARDS
 70
     0
  0
APPID
  2
ACAECLAYERSTANDARD
 70
     0
  0
APPID
  2
GENIUS_GENCEN_19
 70
     0
  0
APPID
  2
ACAD_DSTYLE_DIMINSPECT
 70
     0
  0
APPID
  2
ACAD_DSTYLE_DIMANGULAR_EXT
 70
     0
  0
APPID
  2
ACADANNOPO
 70
     0
  0
APPID
  2
ACAD_NAV_VCDISPLAY
 70
     0
  0
APPID
  2
GENIUS_GENOBJ-N-FIL_13
 70
     0
  0
APPID
  2
ACAD_DSTYLE_DIMBREAK
 70
     0
  0
APPID
  2
ACAD_DSTYLE_DIMJAG
 70
     0
  0
APPID
  2
ACAD_DSTYLE_DIMRADIAL_EXTENSION
 70
     0
  0
APPID
  2
GENIUS_GENHINW_13
 70
     0
  0
APPID
  2
GENIUS_FIRSTVISTXT_14
 70
     0
  0
APPID
  2
GENIUS_GENOBJ-N-LEADER_13
 70
     0
  0
APPID
  2
GENIUS_DUMCFG0_13
 70
     0
  0
APPID
  2
ACAD_DSTYLE_DIMTEXT_FILL
 70
     0
  0
APPID
  2
AMG_2DHIDE
 70
     0
  0
APPID
  2
GENIUS_GEFSHEP_13
 70
     0
  0
APPID
  2
GENIUS_GENOBJ-F-SHE_13
 70
     0
  0
APPID
  2
GENIUS_GEFSHE_13
 70
     0
  0
APPID
  2
ACAD_DIMASSOC_DIMLFAC
 70
     0
  0
APPID
  2
ACAD_DIMASSOC_CALC_DIMLFAC
 70
     0
  0
APPID
  2
ACAD_DIMASSOC_OVERRIDDEN_D
 70
     0
  0
APPID
  2
GENIUS_GENOBJ-F-SHSV_13
 70
     0
  0
APPID
  2
GENIUS_GEFWELD_13
 70
     0
  0
APPID
  2
GENIUS_GENOBJ-N-CRS_13
 70
     0
  0
APPID
  2
GENIUS_GENOBJ-N-RSBK_13
 70
     0
  0
APPID
  2
GENIUS_GENOBJ-N-LIB_13
 70
     0
  0
APPID
  2
GENIUS_GENSCALE_13
 70
     0
  0
APPID
  2
GENIUS_GENDREL_13
 70
     0
  0
APPID
  2
GEVPT
 70
     0
  0
APPID
  2
GEVIT
 70
     0
  0
APPID
  2
VCC
 70
     0
  0
APPID
  2
GENBH
 70
     0
  0
APPID
  2
GEVMK
 70
     0
  0
APPID
  2
GENIUS_GENOBJ-F-DESC_13
 70
     0
  0
APPID
  2
GENIUS_GEFDESC_14
 70
     0
  0
APPID
  2
GENIUS_GENOBJ-F-FEAT_13
 70
     0
  0
APPID
  2
GENIUS_GEFFEAT_14
 70
     0
  0
APPID
  2
GENIUS_GEFPARTINS_13
 70
     0
  0
APPID
  2
GENIUS_GENSCREG_13
 70
     0
  0
APPID
  2
GENIUS_GEFSHP_13
 70
     0
  0
APPID
  2
GEVID1025574798
 70
     0
  0
APPID
  2
GEVID1025574769
 70
     0
  0
APPID
  2
GEVID1025757451
 70
     0
  0
APPID
  2
GEVID1240528327
 70
     0
  0
APPID
  2
AMG_2DSTRUCT_BTR
 70
     0
  0
APPID
  2
ACADM_2DVIEW_IGN_NOTIFY
 70
     0
  0
APPID
  2
GEVID1240528328
 70
     0
  0
APPID
  2
GEVID1240528329
 70
     0
  0
APPID
  2
GEVRADREF
 70
     0
  0
APPID
  2
GEVID1240528330
 70
     0
  0
APPID
  2
GEVID1240528331
 70
     0
  0
APPID
  2
GEVID1240528332
 70
     0
  0
APPID
  2
GEVID1240791080
 70
     0
  0
APPID
  2
GEVID1240791081
 70
     0
  0
APPID
  2
GEVID1240791082
 70
     0
  0
APPID
  2
GEVID1240791083
 70
     0
  0
APPID
  2
GEVID1240791084
 70
     0
  0
APPID
  2
GEVID1240791085
 70
     0
  0
APPID
  2
GEVID1240791086
 70
     0
  0
APPID
  2
GEVID1240791087
 70
     0
  0
APPID
  2
GEVID1240791088
 70
     0
  0
APPID
  2
GEVID1240791089
 70
     0
  0
APPID
  2
GEVID1240791090
 70
     0
  0
APPID
  2
GEVID1240791091
 70
     0
  0
APPID
  2
GEVID1240791092
 70
     0
  0
APPID
  2
GEVID1240791093
 70
     0
  0
APPID
  2
GEVID1240791094
 70
     0
  0
APPID
  2
GEVID1240791095
 70
     0
  0
APPID
  2
GEVID1240791096
 70
     0
  0
APPID
  2
GEVID1240791097
 70
     0
  0
APPID
  2
GEVID1240791098
 70
     0
  0
APPID
  2
GEVID1240791099
 70
     0
  0
APPID
  2
GEVID1240791100
 70
     0
  0
APPID
  2
GEVID1240791101
 70
     0
  0
APPID
  2
GEVID1240791102
 70
     0
  0
APPID
  2
GEVID1240791103
 70
     0
  0
APPID
  2
GEVID1240791104
 70
     0
  0
APPID
  2
GEVID1240791105
 70
     0
  0
APPID
  2
GEVID1240875381
 70
     0
  0
APPID
  2
GEVID1240875382
 70
     0
  0
APPID
  2
GEVID1240875383
 70
     0
  0
APPID
  2
GEVID1240875384
 70
     0
  0
APPID
  2
GEVID1240875385
 70
     0
  0
APPID
  2
GEVID1240875386
 70
     0
  0
APPID
  2
GEVID1240875387
 70
     0
  0
APPID
  2
GEVID1240875388
 70
     0
  0
APPID
  2
GEVID1240875389
 70
     0
  0
APPID
  2
GEVID1240875390
 70
     0
  0
APPID
  2
GEVID1240875391
 70
     0
  0
APPID
  2
GEVID1240875392
 70
     0
  0
APPID
  2
GEVID1240875393
 70
     0
  0
APPID
  2
GEVID1240875394
 70
     0
  0
APPID
  2
GEVID1240875395
 70
     0
  0
APPID
  2
GEVID1240875396
 70
     0
  0
APPID
  2
GEVID1240875397
 70
     0
  0
APPID
  2
GEVID1240875398
 70
     0
  0
APPID
  2
GEVID1240875399
 70
     0
  0
APPID
  2
GEVID1240908996
 70
     0
  0
APPID
  2
GEVID1240908997
 70
     0
  0
APPID
  2
GEVID1240908998
 70
     0
  0
APPID
  2
GEVID1240908999
 70
     0
  0
APPID
  2
GEVID1240909000
 70
     0
  0
APPID
  2
GENIUS_GENOBJ-N-ZOO_13
 70
     0
  0
APPID
  2
GENIUS_GENZOO_17
 70
     0
  0
APPID
  2
GENIUS_GE3SECT_13
 70
     0
  0
APPID
  2
GEV_VCCNULL_SWITCH_OFF
 70
     0
  0
APPID
  2
ACAD_DSTYLE_DIMTALN
 70
     0
  0
APPID
  2
DCO15
 70
     0
  0
APPID
  2
CONTENTBLOCKDESCRIPTION
 70
     0
  0
ENDTAB
  0
TABLE
  2
DIMSTYLE
 70
    22
  0
DIMSTYLE
  2
AM_ANSI
 70
     0
  3

  4
"
  5

  6

  7

 40
1.0
 41
2.5
 42
1.0
 43
10.0
 44
1.0
 45
0.0
 46
0.0
 47
0.1
 48
0.1
140
3.5
141
0.0
142
0.0
143
0.0393701
144
1.0
145
0.0
146
0.71
147
1.5
 71
     0
 72
     0
 73
     1
 74
     1
 75
     0
 76
     0
 77
     0
 78
     8
170
     0
171
     2
172
     0
173
     0
174
     0
175
     0
176
     2
177
     2
178
     4
  0
DIMSTYLE
  2
AM_ANSI$3
 70
     0
  3

  4
"
  5

  6

  7

 40
1.0
 41
2.5
 42
1.0
 43
10.0
 44
1.0
 45
0.0
 46
0.0
 47
0.1
 48
0.1
140
3.5
141
0.0
142
0.0
143
0.0393701
144
1.0
145
0.0
146
0.71
147
1.5
 71
     0
 72
     0
 73
     1
 74
     1
 75
     0
 76
     0
 77
     0
 78
     8
170
     0
171
     2
172
     0
173
     0
174
     0
175
     0
176
     2
177
     2
178
     4
  0
DIMSTYLE
  2
AM_ANSI$4
 70
     0
  3

  4
"
  5

  6

  7

 40
1.0
 41
2.5
 42
1.0
 43
10.0
 44
1.0
 45
0.0
 46
0.0
 47
0.1
 48
0.1
140
3.5
141
0.0
142
0.0
143
0.0393701
144
1.0
145
0.0
146
0.71
147
1.5
 71
     0
 72
     0
 73
     1
 74
     1
 75
     0
 76
     0
 77
     0
 78
     8
170
     0
171
     2
172
     0
173
     0
174
     0
175
     0
176
     2
177
     2
178
     4
  0
DIMSTYLE
  2
AM_ANSI$7
 70
     0
  3

  4
"
  5

  6

  7

 40
1.0
 41
2.5
 42
1.0
 43
10.0
 44
1.0
 45
0.0
 46
0.0
 47
0.1
 48
0.1
140
5.0
141
0.0
142
0.0
143
0.0393701
144
1.0
145
0.0
146
0.71
147
1.5
 71
     0
 72
     0
 73
     1
 74
     1
 75
     0
 76
     0
 77
     0
 78
     8
170
     0
171
     2
172
     0
173
     0
174
     0
175
     0
176
     2
177
     2
178
     4
  0
DIMSTYLE
  2
AM_ANSI$SF
 70
     0
  3

  4
"
  5

  6

  7

 40
1.0
 41
2.5
 42
1.0
 43
10.0
 44
1.0
 45
0.0
 46
0.0
 47
0.1
 48
0.1
140
3.5
141
0.0
142
0.0
143
0.0393701
144
1.0
145
0.0
146
0.71
147
1.5
 71
     0
 72
     0
 73
     1
 74
     1
 75
     1
 76
     1
 77
     0
 78
     8
170
     0
171
     2
172
     0
173
     0
174
     0
175
     0
176
     2
177
     2
178
     4
  0
DIMSTYLE
  2
AM_ANSI$SH
 70
     0
  3

  4
"
  5

  6
GENAXEH
  7

 40
1.0
 41
2.5
 42
1.0
 43
10.0
 44
1.0
 45
0.0
 46
0.0
 47
0.1
 48
0.1
140
3.5
141
0.0
142
0.0
143
0.0393701
144
1.0
145
0.0
146
0.71
147
1.5
 71
     0
 72
     0
 73
     1
 74
     1
 75
     1
 76
     1
 77
     0
 78
     8
170
     0
171
     2
172
     0
173
     1
174
     0
175
     0
176
     2
177
     2
178
     4
  0
DIMSTYLE
  2
AM_ISO
 70
     0
  3

  4
"
  5

  6

  7

 40
1.0
 41
2.5
 42
1.0
 43
10.0
 44
1.0
 45
0.0
 46
0.0
 47
0.1
 48
0.1
140
3.5
141
0.0
142
0.0
143
0.0393701
144
1.0
145
0.0
146
0.71
147
1.5
 71
     0
 72
     0
 73
     0
 74
     0
 75
     0
 76
     0
 77
     1
 78
     8
170
     0
171
     2
172
     1
173
     0
174
     0
175
     0
176
   256
177
   256
178
     2
  0
DIMSTYLE
  2
AM_ISO$3
 70
     0
  3

  4
"
  5

  6

  7

 40
1.0
 41
2.5
 42
1.0
 43
10.0
 44
1.0
 45
0.0
 46
0.0
 47
0.1
 48
0.1
140
3.5
141
0.0
142
0.0
143
0.0393701
144
1.0
145
0.0
146
0.71
147
1.5
 71
     0
 72
     0
 73
     0
 74
     1
 75
     0
 76
     0
 77
     1
 78
     8
170
     0
171
     2
172
     0
173
     0
174
     0
175
     0
176
   256
177
   256
178
     2
  0
DIMSTYLE
  2
AM_ISO$4
 70
     0
  3

  4
"
  5

  6

  7

 40
1.0
 41
2.5
 42
1.0
 43
10.0
 44
1.0
 45
0.0
 46
0.0
 47
0.1
 48
0.1
140
3.5
141
0.0
142
0.0
143
0.0393701
144
1.0
145
0.0
146
0.71
147
1.5
 71
     0
 72
     0
 73
     0
 74
     1
 75
     0
 76
     0
 77
     1
 78
     8
170
     0
171
     2
172
     0
173
     0
174
     0
175
     0
176
   256
177
   256
178
     2
  0
DIMSTYLE
  2
AM_ISO$6
 70
     0
  3

  4
"
  5

  6

  7

 40
1.0
 41
2.5
 42
1.0
 43
10.0
 44
1.0
 45
0.0
 46
0.0
 47
0.1
 48
0.1
140
3.5
141
0.0
142
0.0
143
0.0393701
144
1.0
145
0.0
146
0.71
147
1.5
 71
     0
 72
     0
 73
     0
 74
     0
 75
     0
 76
     0
 77
     0
 78
     8
170
     0
171
     2
172
     1
173
     0
174
     0
175
     0
176
   256
177
   256
178
     2
  0
DIMSTYLE
  2
AM_ISO$7
 70
     0
  3

  4
"
  5

  6

  7

 40
1.0
 41
2.5
 42
1.0
 43
10.0
 44
1.0
 45
0.0
 46
0.0
 47
0.1
 48
0.1
140
5.0
141
0.0
142
0.0
143
0.0393701
144
1.0
145
0.0
146
0.71
147
1.5
 71
     0
 72
     0
 73
     0
 74
     0
 75
     0
 76
     0
 77
     1
 78
     8
170
     0
171
     2
172
     1
173
     0
174
     0
175
     0
176
   256
177
   256
178
     2
  0
DIMSTYLE
  2
AM_ISO$SF
 70
     0
  3

  4
"
  5

  6

  7

 40
1.0
 41
2.5
 42
1.0
 43
10.0
 44
1.0
 45
0.0
 46
0.0
 47
0.1
 48
0.1
140
3.5
141
0.0
142
0.0
143
0.0393701
144
1.0
145
0.0
146
0.71
147
1.5
 71
     0
 72
     0
 73
     0
 74
     0
 75
     1
 76
     1
 77
     1
 78
     8
170
     0
171
     2
172
     1
173
     0
174
     0
175
     0
176
   256
177
   256
178
     2
  0
DIMSTYLE
  2
AM_ISO$SH
 70
     0
  3

  4
"
  5

  6
GENAXEH
  7

 40
1.0
 41
2.5
 42
1.0
 43
10.0
 44
1.0
 45
0.0
 46
0.0
 47
0.1
 48
0.1
140
3.5
141
0.0
142
0.0
143
0.0393701
144
2.0
145
0.0
146
0.71
147
1.5
 71
     0
 72
     0
 73
     0
 74
     0
 75
     1
 76
     1
 77
     1
 78
     8
170
     0
171
     2
172
     1
173
     1
174
     0
175
     0
176
   256
177
   256
178
     2
  0
DIMSTYLE
  2
AM_JIS
 70
     0
  3

  4
"
  5

  6

  7

 40
1.0
 41
2.0
 42
1.0
 43
8.0
 44
1.0
 45
0.0
 46
0.0
 47
0.1
 48
0.1
140
2.5
141
0.0
142
0.0
143
0.0393701
144
1.0
145
0.0
146
0.71
147
1.5
 71
     0
 72
     0
 73
     0
 74
     0
 75
     0
 76
     0
 77
     3
 78
     8
170
     0
171
     2
172
     1
173
     0
174
     0
175
     0
176
     2
177
     2
178
     4
  0
DIMSTYLE
  2
AM_JIS$3
 70
     0
  3

  4
"
  5

  6

  7

 40
1.0
 41
2.0
 42
1.0
 43
10.0
 44
1.0
 45
0.0
 46
0.0
 47
0.1
 48
0.1
140
2.5
141
0.0
142
0.0
143
0.0393701
144
1.0
145
0.0
146
0.71
147
1.5
 71
     0
 72
     0
 73
     0
 74
     1
 75
     0
 76
     0
 77
     3
 78
     8
170
     0
171
     2
172
     0
173
     0
174
     0
175
     0
176
     2
177
     2
178
     4
  0
DIMSTYLE
  2
AM_JIS$4
 70
     0
  3

  4
"
  5

  6

  7

 40
1.0
 41
2.0
 42
1.0
 43
10.0
 44
1.0
 45
0.0
 46
0.0
 47
0.1
 48
0.1
140
2.5
141
0.0
142
0.0
143
0.0393701
144
1.0
145
0.0
146
0.71
147
1.5
 71
     0
 72
     0
 73
     0
 74
     0
 75
     0
 76
     0
 77
     3
 78
     8
170
     0
171
     2
172
     0
173
     0
174
     0
175
     0
176
     2
177
     2
178
     4
  0
DIMSTYLE
  2
AM_JIS$6
 70
     0
  3

  4
"
  5

  6

  7

 40
1.0
 41
2.0
 42
1.0
 43
10.0
 44
1.0
 45
0.0
 46
0.0
 47
0.1
 48
0.1
140
2.5
141
0.0
142
0.0
143
0.0393701
144
1.0
145
0.0
146
0.71
147
1.5
 71
     0
 72
     0
 73
     0
 74
     0
 75
     0
 76
     0
 77
     0
 78
     8
170
     0
171
     2
172
     1
173
     0
174
     0
175
     0
176
     2
177
     2
178
     4
  0
DIMSTYLE
  2
AM_JIS$7
 70
     0
  3

  4
"
  5

  6
OPEN30
  7
OPEN30
 40
1.0
 41
2.0
 42
1.0
 43
10.0
 44
1.0
 45
0.0
 46
0.0
 47
0.1
 48
0.1
140
2.5
141
0.0
142
0.0
143
0.0393701
144
1.0
145
0.0
146
0.71
147
1.5
 71
     0
 72
     0
 73
     0
 74
     0
 75
     0
 76
     0
 77
     3
 78
     8
170
     0
171
     2
172
     1
173
     0
174
     0
175
     0
176
     2
177
     2
178
     4
  0
DIMSTYLE
  2
AM_JIS$SF
 70
     0
  3

  4
"
  5

  6

  7

 40
1.0
 41
2.0
 42
1.0
 43
10.0
 44
1.0
 45
0.0
 46
0.0
 47
0.1
 48
0.1
140
2.5
141
0.0
142
0.0
143
0.0393701
144
1.0
145
0.0
146
0.71
147
1.5
 71
     0
 72
     0
 73
     0
 74
     0
 75
     1
 76
     1
 77
     3
 78
     8
170
     0
171
     2
172
     1
173
     0
174
     0
175
     0
176
     2
177
     2
178
     4
  0
DIMSTYLE
  2
AM_JIS$SH
 70
     0
  3

  4
"
  5

  6
GENAXEH
  7

 40
1.0
 41
2.0
 42
1.0
 43
10.0
 44
1.0
 45
0.0
 46
0.0
 47
0.1
 48
0.1
140
2.5
141
0.0
142
0.0
143
0.0393701
144
2.0
145
0.0
146
0.71
147
1.5
 71
     0
 72
     0
 73
     0
 74
     0
 75
     1
 76
     1
 77
     3
 78
     8
170
     0
171
     2
172
     1
173
     1
174
     0
175
     0
176
     2
177
     2
178
     4
  0
DIMSTYLE
  2
AM_JIS$0
 70
     0
  3

  4
"
  5

  6

  7

 40
1.0
 41
2.0
 42
1.0
 43
8.0
 44
1.0
 45
0.0
 46
0.0
 47
0.1
 48
0.1
140
2.5
141
0.0
142
0.0
143
0.0393701
144
1.0
145
0.0
146
0.71
147
1.5
 71
     0
 72
     0
 73
     0
 74
     0
 75
     0
 76
     0
 77
     3
 78
     8
170
     0
171
     2
172
     1
173
     0
174
     0
175
     0
176
     2
177
     2
178
     4
  0
DIMSTYLE
  2
STANDARD
 70
     0
  3

  4

  5

  6

  7

 40
1.0
 41
0.18
 42
0.0625
 43
0.38
 44
0.18
 45
0.0
 46
0.0
 47
0.0
 48
0.0
140
0.18
141
0.09
142
0.0
143
25.399999999999999
144
1.0
145
0.0
146
1.0
147
0.09
 71
     0
 72
     0
 73
     1
 74
     1
 75
     0
 76
     0
 77
     0
 78
     0
170
     0
171
     2
172
     0
173
     0
174
     0
175
     0
176
     0
177
     0
178
     0
  0
ENDTAB
  0
ENDSEC
  0
SECTION
  2
BLOCKS
  0
BLOCK
  8
0
  2
$MODEL_SPACE
 70
     0
 10
0.0
 20
0.0
 30
0.0
  3
$MODEL_SPACE
  1

  0
ENDBLK
  5
77
  8
0
  0
BLOCK
 67
     1
  8
0
  2
$PAPER_SPACE
 70
     0
 10
0.0
 20
0.0
 30
0.0
  3
$PAPER_SPACE
  1

  0
ENDBLK
  5
73
 67
     1
  8
0
  0
BLOCK
  8
0
  2
GENAXEH
 70
     0
 10
0.0
 20
0.0
 30
0.0
  3
GENAXEH
  1

  0
LINE
  5
9155
  8
0
 10
-1.0
 20
0.0
 30
0.0
 11
1.0
 21
0.0
 31
0.0
  0
ENDBLK
  5
9156
  8
0
  0
BLOCK
  8
0
  2
_OPEN30
 70
     0
 10
0.0
 20
0.0
 30
0.0
  3
_OPEN30
  1

  0
LINE
  5
919C
  8
0
  6
BYBLOCK
 62
     0
 10
-1.0
 20
0.26794919
 30
0.0
 11
0.0
 21
0.0
 31
0.0
  0
LINE
  5
919D
  8
0
  6
BYBLOCK
 62
     0
 10
0.0
 20
0.0
 30
0.0
 11
-1.0
 21
-0.26794919
 31
0.0
  0
LINE
  5
919E
  8
0
  6
BYBLOCK
 62
     0
 10
0.0
 20
0.0
 30
0.0
 11
-1.0
 21
0.0
 31
0.0
  0
ENDBLK
  5
919F
  8
0
  0
BLOCK
  8
0
  2
_ACMFILLEDHALF
 70
     0
 10
0.0
 20
0.0
 30
0.0
  3
_ACMFILLEDHALF
  1

  0
TRACE
  5
9275
  8
0
  6
CONTINUOUS
 62
     0
 10
-0.8
 20
0.0
 30
0.0
 11
-1.0
 21
0.166666666
 31
0.0
 12
0.0
 22
0.0
 32
0.0
 13
0.0
 23
0.0
 33
0.0
  0
LINE
  5
9276
  8
0
  6
CONTINUOUS
 62
     0
 10
-1.0
 20
0.0
 30
0.0
 11
-0.8
 21
0.0
 31
0.0
  0
ENDBLK
  5
9277
  8
0
  0
BLOCK
  8
0
  2
*U7
 70
     1
 10
0.0
 20
0.0
 30
0.0
  3
*U7
  1

  0
TEXT
  5
9311
  8
0
 62
     0
 10
5.1211371559201648
 20
5.9826223594979657
 30
0.0
 40
15.0
  1
ＶＸ０８－００３ＥＭ～ＶＸ０８－０３０ＥＭ
 41
0.7400000000000003
  0
ENDBLK
  5
9313
  8
0
  0
ENDSEC
  0
SECTION
  2
ENTITIES
  0
POINT
  5
68C5
  8
0
 62
     0
 10
426.99858015850299
 20
551.88397369658185
 30
0.0
  0
LINE
  5
68C6
  8
0
 62
     0
 10
426.99858015850299
 20
478.3839736965819
 30
0.0
 11
426.99858015850299
 21
551.88397369658185
 31
0.0
  0
POINT
  5
694B
  8
0
 62
     0
 10
426.99858015850299
 20
551.88391558676165
 30
0.0
  0
LINE
  5
694C
  8
0
 62
     0
 10
426.99858015850299
 20
625.38391558676165
 30
0.0
 11
426.99858015850299
 21
551.88391558676165
 31
0.0
  0
LINE
  5
69B8
  8
0
 62
     0
 10
426.99858015850299
 20
625.38391558676165
 30
0.0
 11
426.99858015850299
 21
478.3839736965819
 31
0.0
  0
LINE
  5
69C6
  8
0
  6
AM_ISO08W050
 62
     0
 10
473.68483015850308
 20
639.38397869658229
 30
0.0
 11
837.92733015850297
 21
639.38397869658229
 31
0.0
  0
LINE
  5
6A2D
  8
0
 62
     0
 10
426.99858015850299
 20
478.38394369658232
 30
0.0
 11
435.49748015850298
 21
478.38394369658232
 31
0.0
  0
LINE
  5
6A2E
  8
0
  6
AM_ISO08W050
 62
     0
 10
189.31491488044409
 20
551.88397369658185
 30
0.0
 11
489.70712299158077
 21
551.88397369658185
 31
0.0
  0
LINE
  5
6A2F
  8
0
 62
     0
 10
504.9984801585033
 20
693.88392869658219
 30
0.0
 11
514.99848015850318
 21
693.88392869658219
 31
0.0
  0
LINE
  5
6A30
  8
0
 62
     0
 10
503.99848015850279
 20
494.88397369658219
 30
0.0
 11
514.99848015850318
 21
494.88397369658219
 31
0.0
  0
LINE
  5
6A31
  8
0
 62
     0
 10
501.99858015850299
 20
496.8839736965819
 30
0.0
 11
501.99858015850299
 21
690.88397869658206
 31
0.0
  0
LINE
  5
6A32
  8
0
 62
     0
 10
426.99858015850299
 20
625.38397869658229
 30
0.0
 11
440.5730301585026
 21
625.85800369658216
 31
0.0
  0
LINE
  5
6A33
  8
0
 62
     0
 10
450.19838015850252
 20
503.38394369658232
 30
0.0
 11
498.99848015850279
 21
503.38394369658232
 31
0.0
  0
LINE
  5
6A35
  8
0
 62
     0
 10
443.93398015850278
 20
627.31936869658216
 30
0.0
 11
500.53408015850277
 21
683.91942869658214
 31
0.0
  0
LINE
  5
6A36
  8
0
 62
     0
 10
440.1959301585029
 20
481.67385869658199
 30
0.0
 11
447.37928015850321
 21
501.41003869658198
 31
0.0
  0
LINE
  5
6A37
  8
0
 62
     0
 10
426.99858015850299
 20
625.38397869658229
 30
0.0
 11
426.99858015850299
 21
478.38394369658232
 31
0.0
  0
LINE
  5
6A38
  8
0
 62
     0
 10
501.99858015850299
 20
677.5791286965823
 30
0.0
 11
516.99858015850305
 21
677.5791286965823
 31
0.0
  0
LINE
  5
6A39
  8
0
 62
     0
 10
501.99858015850299
 20
667.39012869658177
 30
0.0
 11
516.99858015850305
 21
667.39012869658177
 31
0.0
  0
LINE
  5
6A3A
  8
0
 62
     0
 10
501.99858015850299
 20
651.1597636965821
 30
0.0
 11
516.99858015850305
 21
651.1597636965821
 31
0.0
  0
LINE
  5
6A3B
  8
0
 62
     0
 10
501.99858015850299
 20
537.608158696582
 30
0.0
 11
516.99858015850305
 21
537.608158696582
 31
0.0
  0
LINE
  5
6A3C
  8
0
 62
     0
 10
501.99858015850299
 20
521.37777869658191
 30
0.0
 11
516.99858015850305
 21
521.37777869658191
 31
0.0
  0
LINE
  5
6A3D
  8
0
 62
     0
 10
501.99858015850299
 20
511.18878369658199
 30
0.0
 11
516.99858015850305
 21
511.18878369658199
 31
0.0
  0
LINE
  5
6A3E
  8
0
 62
     0
 10
426.99858015850299
 20
512.40930369658236
 30
0.0
 11
438.99858015850299
 21
512.40930369658236
 31
0.0
  0
LINE
  5
6A3F
  8
0
 62
     0
 10
426.99858015850299
 20
591.35864869658224
 30
0.0
 11
441.99858015850299
 21
591.35864869658224
 31
0.0
  0
LINE
  5
6A40
  8
0
 62
     0
 10
448.0977801585031
 20
544.93210369658198
 30
0.0
 11
448.0977801585031
 21
503.38394369658232
 31
0.0
  0
LINE
  5
6A41
  8
0
 62
     0
 10
442.54128015850301
 20
625.92673369658223
 30
0.0
 11
442.54128015850301
 21
551.88397369658185
 31
0.0
  0
LINE
  5
6A42
  8
0
 62
     0
 10
438.99858015850299
 20
544.93210369658198
 30
0.0
 11
438.99858015850299
 21
479.81427369658229
 31
0.0
  0
LINE
  5
6A43
  8
0
 62
     0
 10
441.99858015850299
 20
547.93210369658209
 30
0.0
 11
498.99848015850279
 21
547.93210369658209
 31
0.0
  0
LINE
  5
6A44
  8
0
 62
     0
 10
426.99858015850299
 20
613.46261869658201
 30
0.0
 11
442.54128015850301
 21
613.46261869658201
 31
0.0
  0
LINE
  5
6A45
  8
0
 62
     0
 10
426.99858015850299
 20
490.30529869658199
 30
0.0
 11
438.99858015850299
 21
490.30529869658199
 31
0.0
  0
ARC
  5
6A89
  8
0
 62
     0
 10
435.49748015850298
 20
483.38394369658209
 30
0.0
 40
5.0
 50
270.0
 51
339.99999999999648
  0
ARC
  5
6A8A
  8
0
 62
     0
 10
496.99858015850299
 20
687.45502869658208
 30
0.0
 40
5.0
 50
315.00000000000938
 51
0.0
  0
ARC
  5
6A8B
  8
0
 62
     0
 10
504.9984801585033
 20
690.88397869658206
 30
0.0
 40
3.0000000500000001
 50
90.000002999984659
 51
180.000010000001
  0
ARC
  5
6A8C
  8
0
 62
     0
 10
498.99848015850279
 20
500.38397369658202
 30
0.0
 40
3.0000000500000001
 50
0.0
 51
90.000002999984659
  0
ARC
  5
6A8D
  8
0
 62
     0
 10
450.19838015850252
 20
500.38397369658202
 30
0.0
 40
3.0000000500000001
 50
90.000002999984659
 51
159.9999999999965
  0
ARC
  5
6A8E
  8
0
 62
     0
 10
503.99848015850279
 20
496.8839736965819
 30
0.0
 40
2.0000000500000001
 50
179.999989999999
 51
270.0
  0
ARC
  5
6A8F
  8
0
 62
     0
 10
440.39848015850282
 20
630.85495369658202
 30
0.0
 40
5.0
 50
271.9999999999776
 51
315.00000000000938
  0
LINE
  5
815C
  8
0
 62
     0
 10
417.99858015850299
 20
478.3840026965816
 30
0.0
 11
426.99858015850299
 21
478.3840026965816
 31
0.0
  0
LINE
  5
815D
  8
0
 62
     0
 10
416.99858015850299
 20
613.88400269658177
 30
0.0
 11
416.99858015850299
 21
598.05400269658173
 31
0.0
  0
ARC
  5
815E
  8
0
 62
     0
 10
414.17496115850298
 20
476.98783769658172
 30
0.0
 40
2.0
 50
270.0
 51
345.0000029999984
  0
LINE
  5
815F
  8
0
 62
     0
 10
416.99858015850299
 20
479.38400269658189
 30
0.0
 11
416.99858015850299
 21
479.79831969658193
 31
0.0
  0
LINE
  5
8160
  8
0
 62
     0
 10
416.99858015850299
 20
479.37900869658182
 30
0.0
 11
416.99858015850299
 21
479.38400269658189
 31
0.0
  0
LINE
  5
8161
  8
0
 62
     0
 10
416.91102415850298
 20
479.47155869658201
 30
0.0
 11
416.99858015850299
 21
479.38400269658189
 31
0.0
  0
LINE
  5
8162
  8
0
 62
     0
 10
418.99858015850299
 20
488.88400269658177
 30
0.0
 11
417.92205715850292
 21
484.86636469658163
 31
0.0
  0
ARC
  5
8163
  8
0
 62
     0
 10
417.9960831585031
 20
479.38150569658188
 30
0.0
 40
0.9975059999999999
 50
179.85657799999629
 51
270.14342200000033
  0
LINE
  5
8164
  8
0
 62
     0
 10
417.99858015850299
 20
488.88400269658177
 30
0.0
 11
426.99858015850299
 21
488.88400269658177
 31
0.0
  0
LINE
  5
8165
  8
0
 62
     0
 10
418.99858015850299
 20
487.26242169658161
 30
0.0
 11
416.10681315850297
 21
476.47019969658157
 31
0.0
  0
ARC
  5
8166
  8
0
 62
     0
 10
415.99020515850299
 20
485.38400269658172
 30
0.0
 40
2.0
 50
270.0
 51
345.00000000000563
  0
ARC
  5
8167
  8
0
 62
     0
 10
417.99858015850299
 20
489.8840026965816
 30
0.0
 40
1.0
 50
180.0
 51
270.0
  0
ARC
  5
8168
  8
0
 62
     0
 10
347.99858015850299
 20
474.02180469658202
 30
0.0
 40
2.0
 50
270.0
 51
0.0
  0
ARC
  5
8169
  8
0
 62
     0
 10
347.99858015850299
 20
474.44908269658202
 30
0.0
 40
2.0
 50
270.0
 51
0.0
  0
ARC
  5
816A
  8
0
 62
     0
 10
347.99858015850299
 20
475.45443369658182
 30
0.0
 40
2.0
 50
270.0
 51
346.50868899999841
  0
LINE
  5
816B
  8
0
 62
     0
 10
349.99858015850299
 20
474.02180469658202
 30
0.0
 11
349.99858015850299
 21
474.98783769658189
 31
0.0
  0
ARC
  5
816C
  8
0
 62
     0
 10
266.99858015850299
 20
474.02180469658202
 30
0.0
 40
2.0
 50
180.0
 51
270.0
  0
LINE
  5
816D
  8
0
 62
     0
 10
264.99858015850299
 20
475.99964669658192
 30
0.0
 11
264.99858015850299
 21
475.45443369658182
 31
0.0
  0
ARC
  5
816E
  8
0
 62
     0
 10
266.84803015850309
 20
474.44908269658202
 30
0.0
 40
2.0
 50
195.7695469999999
 51
270.0
  0
ARC
  5
816F
  8
0
 62
     0
 10
266.99858015850299
 20
475.45443369658182
 30
0.0
 40
2.0
 50
180.0
 51
270.0
  0
ARC
  5
8170
  8
0
 62
     0
 10
266.99858015850299
 20
476.98783769658172
 30
0.0
 40
2.0
 50
180.0
 51
270.0
  0
LINE
  5
8171
  8
0
 62
     0
 10
264.99858015850299
 20
480.35563569658188
 30
0.0
 11
264.99858015850299
 21
476.98783769658172
 31
0.0
  0
ARC
  5
8172
  8
0
 62
     0
 10
262.99858015850299
 20
480.35563569658188
 30
0.0
 40
2.0
 50
0.0
 51
90.0
  0
ARC
  5
8173
  8
0
 62
     0
 10
262.99858015850299
 20
475.99964669658192
 30
0.0
 40
2.0
 50
0.0
 51
90.0
  0
ARC
  5
8174
  8
0
 62
     0
 10
262.99858015850299
 20
473.36200769658183
 30
0.0
 40
2.0
 50
15.7695469999999
 51
90.0
  0
ARC
  5
8175
  8
0
 62
     0
 10
262.99858015850299
 20
498.98295269658172
 30
0.0
 40
2.0
 50
0.0
 51
90.0
  0
LINE
  5
8176
  8
0
 62
     0
 10
264.99858015850299
 20
486.52808369658158
 30
0.0
 11
264.99858015850299
 21
498.98295269658172
 31
0.0
  0
ARC
  5
8177
  8
0
 62
     0
 10
266.99858015850299
 20
485.38400269658172
 30
0.0
 40
2.0
 50
180.0
 51
270.0
  0
ARC
  5
8178
  8
0
 62
     0
 10
262.99858015850299
 20
486.52808369658158
 30
0.0
 40
2.0
 50
0.0
 51
90.0
  0
LINE
  5
8179
  8
0
 62
     0
 10
264.99858015850299
 20
486.52808369658158
 30
0.0
 11
264.99858015850299
 21
485.38400269658172
 31
0.0
  0
LINE
  5
817A
  8
0
 62
     0
 10
262.99858015850299
 20
488.5280836965818
 30
0.0
 11
257.49256915850299
 21
488.5280836965818
 31
0.0
  0
LINE
  5
817B
  8
0
 62
     0
 10
266.99858015850299
 20
483.38400269658189
 30
0.0
 11
415.99020515850299
 21
483.38400269658189
 31
0.0
  0
LINE
  5
817C
  8
0
 62
     0
 10
257.49256915850299
 20
500.98295269658189
 30
0.0
 11
415.49858015850299
 21
500.98295269658189
 31
0.0
  0
LINE
  5
817D
  8
0
 62
     0
 10
266.99858015850299
 20
472.02180469658163
 30
0.0
 11
347.99858015850299
 21
472.02180469658163
 31
0.0
  0
LINE
  5
817E
  8
0
 62
     0
 10
266.84803015850309
 20
472.44908269658163
 30
0.0
 11
347.99858015850299
 21
472.44908269658163
 31
0.0
  0
LINE
  5
817F
  8
0
 62
     0
 10
266.99858015850299
 20
473.45443369658182
 30
0.0
 11
347.99858015850299
 21
473.45443369658182
 31
0.0
  0
LINE
  5
8180
  8
0
 62
     0
 10
266.99858015850299
 20
474.98783769658189
 30
0.0
 11
414.17496115850298
 21
474.98783769658189
 31
0.0
  0
LINE
  5
8181
  8
0
 62
     0
 10
262.99858015850299
 20
475.36200769658188
 30
0.0
 11
257.49256915850299
 21
475.36200769658188
 31
0.0
  0
LINE
  5
8182
  8
0
 62
     0
 10
262.99858015850299
 20
477.99964669658181
 30
0.0
 11
257.49256915850299
 21
477.99964669658181
 31
0.0
  0
LINE
  5
8183
  8
0
 62
     0
 10
262.99858015850299
 20
482.35563569658183
 30
0.0
 11
257.49256915850299
 21
482.35563569658183
 31
0.0
  0
LINE
  5
8184
  8
0
 62
     0
 10
417.99858015850299
 20
614.884002696582
 30
0.0
 11
426.99858015850299
 21
614.884002696582
 31
0.0
  0
LINE
  5
8185
  8
0
 62
     0
 10
418.99858015850299
 20
614.884002696582
 30
0.0
 11
417.92205715850292
 21
618.90164069658192
 31
0.0
  0
ARC
  5
8186
  8
0
 62
     0
 10
417.99858015850299
 20
613.88400269658177
 30
0.0
 40
1.0
 50
90.0
 51
180.0
  0
LINE
  5
8187
  8
0
 62
     0
 10
416.91102415850298
 20
624.29644669658148
 30
0.0
 11
416.99858015850299
 21
624.384002696582
 31
0.0
  0
LINE
  5
8188
  8
0
 62
     0
 10
416.99858015850299
 20
624.38899669658156
 30
0.0
 11
416.99858015850299
 21
624.384002696582
 31
0.0
  0
ARC
  5
8189
  8
0
 62
     0
 10
417.9960831585031
 20
624.38649969658172
 30
0.0
 40
0.9975059999999999
 50
89.856577999999644
 51
180.14342199999709
  0
LINE
  5
818A
  8
0
 62
     0
 10
416.99858015850299
 20
624.384002696582
 30
0.0
 11
416.99858015850299
 21
623.96968569658202
 31
0.0
  0
LINE
  5
818B
  8
0
 62
     0
 10
417.99858015850299
 20
625.384002696582
 30
0.0
 11
426.99858015850299
 21
625.384002696582
 31
0.0
  0
LINE
  5
818C
  8
0
 62
     0
 10
418.99858015850299
 20
616.50558369658188
 30
0.0
 11
416.10681315850297
 21
627.29780569658169
 31
0.0
  0
ARC
  5
818D
  8
0
 62
     0
 10
415.99020515850299
 20
618.38400269658177
 30
0.0
 40
2.0
 50
14.999999999994451
 51
90.0
  0
ARC
  5
818E
  8
0
 62
     0
 10
414.17496115850298
 20
626.78016769658177
 30
0.0
 40
2.0
 50
14.999997000001709
 51
90.0
  0
LINE
  5
818F
  8
0
 62
     0
 10
349.99858015850299
 20
629.74620069658192
 30
0.0
 11
349.99858015850299
 21
628.78016769658188
 31
0.0
  0
ARC
  5
8190
  8
0
 62
     0
 10
347.99858015850299
 20
628.31357169658168
 30
0.0
 40
2.0
 50
13.49131100000157
 51
90.0
  0
ARC
  5
8191
  8
0
 62
     0
 10
347.99858015850299
 20
629.31892269658192
 30
0.0
 40
2.0
 50
0.0
 51
90.0
  0
ARC
  5
8192
  8
0
 62
     0
 10
347.99858015850299
 20
629.74620069658192
 30
0.0
 40
2.0
 50
0.0
 51
90.0
  0
LINE
  5
8193
  8
0
 62
     0
 10
264.99858015850299
 20
617.23992169658186
 30
0.0
 11
264.99858015850299
 21
618.38400269658177
 31
0.0
  0
ARC
  5
8194
  8
0
 62
     0
 10
262.99858015850299
 20
617.23992169658186
 30
0.0
 40
2.0
 50
270.0
 51
0.0
  0
ARC
  5
8195
  8
0
 62
     0
 10
266.99858015850299
 20
618.38400269658177
 30
0.0
 40
2.0
 50
90.0
 51
180.0
  0
LINE
  5
8196
  8
0
 62
     0
 10
264.99858015850299
 20
617.23992169658186
 30
0.0
 11
264.99858015850299
 21
604.78505269658172
 31
0.0
  0
ARC
  5
8197
  8
0
 62
     0
 10
262.99858015850299
 20
604.78505269658172
 30
0.0
 40
2.0
 50
270.0
 51
0.0
  0
LINE
  5
8198
  8
0
 62
     0
 10
264.99858015850299
 20
623.41236969658166
 30
0.0
 11
264.99858015850299
 21
626.78016769658177
 31
0.0
  0
ARC
  5
8199
  8
0
 62
     0
 10
262.99858015850299
 20
623.41236969658166
 30
0.0
 40
2.0
 50
270.0
 51
0.0
  0
ARC
  5
819A
  8
0
 62
     0
 10
266.99858015850299
 20
626.78016769658177
 30
0.0
 40
2.0
 50
90.0
 51
180.0
  0
ARC
  5
819B
  8
0
 62
     0
 10
262.99858015850299
 20
627.76835869658191
 30
0.0
 40
2.0
 50
270.0
 51
0.0
  0
ARC
  5
819C
  8
0
 62
     0
 10
266.99858015850299
 20
628.31357169658168
 30
0.0
 40
2.0
 50
90.0
 51
180.0
  0
ARC
  5
819D
  8
0
 62
     0
 10
262.99858015850299
 20
630.40599769658172
 30
0.0
 40
2.0
 50
270.0
 51
344.23045300000013
  0
ARC
  5
819E
  8
0
 62
     0
 10
266.84803015850309
 20
629.31892269658192
 30
0.0
 40
2.0
 50
90.0
 51
164.2304530000001
  0
LINE
  5
819F
  8
0
 62
     0
 10
264.99858015850299
 20
627.76835869658191
 30
0.0
 11
264.99858015850299
 21
628.31357169658168
 31
0.0
  0
ARC
  5
81A0
  8
0
 62
     0
 10
266.99858015850299
 20
629.74620069658192
 30
0.0
 40
2.0
 50
90.0
 51
180.0
  0
LINE
  5
81A1
  8
0
 62
     0
 10
262.99858015850299
 20
628.40599769658172
 30
0.0
 11
257.49256915850299
 21
628.40599769658172
 31
0.0
  0
LINE
  5
81A2
  8
0
 62
     0
 10
262.99858015850299
 20
625.76835869658191
 30
0.0
 11
257.49256915850299
 21
625.76835869658191
 31
0.0
  0
LINE
  5
81A3
  8
0
 62
     0
 10
262.99858015850299
 20
621.41236969658189
 30
0.0
 11
257.49256915850299
 21
621.41236969658189
 31
0.0
  0
LINE
  5
81A4
  8
0
 62
     0
 10
262.99858015850299
 20
615.23992169658175
 30
0.0
 11
257.49256915850299
 21
615.23992169658175
 31
0.0
  0
LINE
  5
81A5
  8
0
 62
     0
 10
266.99858015850299
 20
631.7462006965817
 30
0.0
 11
347.99858015850299
 21
631.7462006965817
 31
0.0
  0
LINE
  5
81A6
  8
0
 62
     0
 10
266.84803015850309
 20
631.31892269658169
 30
0.0
 11
347.99858015850299
 21
631.31892269658169
 31
0.0
  0
LINE
  5
81A7
  8
0
 62
     0
 10
266.99858015850299
 20
630.3135716965819
 30
0.0
 11
347.99858015850299
 21
630.3135716965819
 31
0.0
  0
LINE
  5
81A8
  8
0
 62
     0
 10
266.99858015850299
 20
628.78016769658188
 30
0.0
 11
414.17496115850298
 21
628.78016769658188
 31
0.0
  0
LINE
  5
81A9
  8
0
 62
     0
 10
266.99858015850299
 20
620.384002696582
 30
0.0
 11
415.99020515850299
 21
620.384002696582
 31
0.0
  0
LINE
  5
81AA
  8
0
 62
     0
 10
257.49256915850299
 20
602.78505269658172
 30
0.0
 11
415.49858015850299
 21
602.78505269658172
 31
0.0
  0
LINE
  5
81AB
  8
0
 62
     0
 10
416.99858015850299
 20
508.05400269658179
 30
0.0
 11
416.99858015850299
 21
515.69400269658183
 31
0.0
  0
LINE
  5
81AC
  8
0
 62
     0
 10
416.99858015850299
 20
595.71394469658173
 30
0.0
 11
416.99858015850299
 21
588.07400269658172
 31
0.0
  0
ARC
  5
81AD
  8
0
 62
     0
 10
417.99794115850301
 20
504.84247169658181
 30
0.0
 40
1.0026319999999971
 50
0.0540849999984558
 51
81.243759000001006
  0
LINE
  5
81AE
  8
0
 62
     0
 10
418.15057315850299
 20
505.83341869658187
 30
0.0
 11
416.3917741585031
 21
506.10400269658192
 31
0.0
  0
LINE
  5
81AF
  8
0
 62
     0
 10
418.14057315850278
 20
507.9234186965819
 30
0.0
 11
416.537885158503
 21
507.70400269658188
 31
0.0
  0
ARC
  5
81B0
  8
0
 62
     0
 10
417.99360515850299
 20
508.91962269658171
 30
0.0
 40
1.0069859999999999
 50
278.39216299999907
 51
359.6470019999947
  0
LINE
  5
81B1
  8
0
 62
     0
 10
419.00057315850302
 20
508.91341869658203
 30
0.0
 11
419.00057315850302
 21
504.84341869658192
 31
0.0
  0
ARC
  5
81B2
  8
0
 62
     0
 10
416.457217158503
 20
506.89006269658188
 30
0.0
 40
0.8033630000000001
 50
0.2393299999979177
 51
89.760669999998839
  0
ARC
  5
81B3
  8
0
 62
     0
 10
416.45551115850299
 20
506.89848069658183
 30
0.0
 40
0.8050779999999997
 50
270.3602510000016
 51
359.63974900000488
  0
ARC
  5
81B4
  8
0
 62
     0
 10
417.99360515850299
 20
594.84838269658178
 30
0.0
 40
1.0069859999999999
 50
0.3529979999987895
 51
81.60783700000097
  0
LINE
  5
81B5
  8
0
 62
     0
 10
418.14057315850278
 20
595.84458669658193
 30
0.0
 11
416.537885158503
 21
596.06400269658172
 31
0.0
  0
ARC
  5
81B6
  8
0
 62
     0
 10
417.99794115850301
 20
598.92553369658174
 30
0.0
 40
1.0026319999999971
 50
278.75624099999902
 51
359.94591499999501
  0
LINE
  5
81B7
  8
0
 62
     0
 10
419.00057315850302
 20
594.85458669658192
 30
0.0
 11
419.00057315850302
 21
598.92458669658174
 31
0.0
  0
LINE
  5
81B8
  8
0
 62
     0
 10
418.15057315850299
 20
597.93458669658173
 30
0.0
 11
416.3917741585031
 21
597.66400269658175
 31
0.0
  0
ARC
  5
81B9
  8
0
 62
     0
 10
416.457217158503
 20
596.87794269658161
 30
0.0
 40
0.8033630000000001
 50
270.23933000000108
 51
359.76067000000211
  0
ARC
  5
81BA
  8
0
 62
     0
 10
416.45551115850299
 20
596.86952469658161
 30
0.0
 40
0.8050779999999997
 50
0.3602510000016315
 51
89.639748999998375
  0
LINE
  5
81BB
  8
0
 62
     0
 10
416.99858015850299
 20
589.74794769658172
 30
0.0
 11
426.99858015850299
 21
589.74794769658172
 31
0.0
  0
LINE
  5
81BC
  8
0
 62
     0
 10
416.99858015850299
 20
514.03005769658193
 30
0.0
 11
426.99858015850299
 21
514.03005769658193
 31
0.0
  0
LINE
  5
81BD
  8
0
 62
     0
 10
418.13858015850298
 20
547.91400269658186
 30
0.0
 11
416.45858015850303
 21
547.68400269658184
 31
0.0
  0
LINE
  5
81BE
  8
0
 62
     0
 10
418.14858015850302
 20
545.82400269658183
 30
0.0
 11
416.45858015850303
 21
546.08400269658193
 31
0.0
  0
LINE
  5
81BF
  8
0
 62
     0
 10
418.99858015850299
 20
548.90400269658187
 30
0.0
 11
418.99858015850299
 21
544.83400269658193
 31
0.0
  0
LINE
  5
81C0
  8
0
 62
     0
 10
418.13858015850298
 20
537.91400269658209
 30
0.0
 11
416.45858015850303
 21
537.68400269658184
 31
0.0
  0
LINE
  5
81C1
  8
0
 62
     0
 10
418.14858015850302
 20
535.82400269658183
 30
0.0
 11
416.45858015850303
 21
536.08400269658193
 31
0.0
  0
LINE
  5
81C2
  8
0
 62
     0
 10
418.99858015850299
 20
538.90400269658198
 30
0.0
 11
418.99858015850299
 21
534.83400269658193
 31
0.0
  0
LINE
  5
81C3
  8
0
 62
     0
 10
418.14858015850302
 20
525.82400269658183
 30
0.0
 11
416.45858015850303
 21
526.08400269658193
 31
0.0
  0
LINE
  5
81C4
  8
0
 62
     0
 10
418.13858015850298
 20
527.91400269658163
 30
0.0
 11
416.45858015850303
 21
527.68400269658184
 31
0.0
  0
LINE
  5
81C5
  8
0
 62
     0
 10
418.99858015850299
 20
528.90400269658164
 30
0.0
 11
418.99858015850299
 21
524.83400269658193
 31
0.0
  0
LINE
  5
81C6
  8
0
 62
     0
 10
418.99858015850299
 20
518.90400269658198
 30
0.0
 11
418.99858015850299
 21
514.90400269658198
 31
0.0
  0
LINE
  5
81C7
  8
0
 62
     0
 10
418.13858015850298
 20
517.91400269658197
 30
0.0
 11
416.45858015850303
 21
517.68400269658184
 31
0.0
  0
LINE
  5
81C8
  8
0
 62
     0
 10
418.14858015850302
 20
515.82400269658183
 30
0.0
 11
416.45858015850303
 21
516.08400269658193
 31
0.0
  0
ARC
  5
81C9
  8
0
 62
     0
 10
416.45018515850302
 20
546.88400269658189
 30
0.0
 40
0.8000439999999999
 50
270.6012089999997
 51
89.398791000000301
  0
ARC
  5
81CA
  8
0
 62
     0
 10
417.99594815850298
 20
544.83305669658193
 30
0.0
 40
1.0026319999999971
 50
0.0540849999984558
 51
81.243759000001006
  0
ARC
  5
81CB
  8
0
 62
     0
 10
417.99161315850301
 20
548.91020669658201
 30
0.0
 40
1.0069859999999999
 50
278.39216299999907
 51
359.6470019999947
  0
ARC
  5
81CC
  8
0
 62
     0
 10
416.45351815850302
 20
536.88906469658184
 30
0.0
 40
0.8050779999999997
 50
270.3602510000016
 51
359.63974900000488
  0
ARC
  5
81CD
  8
0
 62
     0
 10
417.99594815850298
 20
534.83305669658193
 30
0.0
 40
1.0026319999999971
 50
0.0540849999984558
 51
81.243759000001006
  0
ARC
  5
81CE
  8
0
 62
     0
 10
417.99161315850301
 20
538.91020669658178
 30
0.0
 40
1.0069859999999999
 50
278.39216299999907
 51
359.6470019999947
  0
ARC
  5
81CF
  8
0
 62
     0
 10
416.45522415850297
 20
526.88064669658183
 30
0.0
 40
0.8033630000000001
 50
0.2393299999979177
 51
89.760669999998839
  0
ARC
  5
81D0
  8
0
 62
     0
 10
416.45351815850302
 20
526.88906469658184
 30
0.0
 40
0.8050779999999997
 50
270.3602510000016
 51
359.63974900000488
  0
ARC
  5
81D1
  8
0
 62
     0
 10
417.99161315850301
 20
528.91020669658201
 30
0.0
 40
1.0069859999999999
 50
278.39216299999907
 51
359.6470019999947
  0
ARC
  5
81D2
  8
0
 62
     0
 10
417.99594815850298
 20
524.83305669658193
 30
0.0
 40
1.0026319999999971
 50
0.0540849999984558
 51
81.243759000001006
  0
ARC
  5
81D3
  8
0
 62
     0
 10
417.99161315850301
 20
518.91020669658201
 30
0.0
 40
1.0069859999999999
 50
278.39216299999907
 51
359.6470019999947
  0
ARC
  5
81D4
  8
0
 62
     0
 10
417.99594815850298
 20
514.83305669658193
 30
0.0
 40
1.0026319999999971
 50
0.0540849999984558
 51
81.243759000001006
  0
ARC
  5
81D5
  8
0
 62
     0
 10
416.45351815850302
 20
516.88906469658184
 30
0.0
 40
0.8050779999999997
 50
270.3602510000016
 51
359.63974900000488
  0
ARC
  5
81D6
  8
0
 62
     0
 10
416.45522415850297
 20
516.88064669658183
 30
0.0
 40
0.8033630000000001
 50
0.2393299999979177
 51
89.760669999998839
  0
ARC
  5
81D7
  8
0
 62
     0
 10
416.45522415850297
 20
536.88064669658183
 30
0.0
 40
0.8033630000000001
 50
0.2393299999979177
 51
89.760669999998839
  0
LINE
  5
81D8
  8
0
 62
     0
 10
415.39267615850298
 20
547.89400269658199
 30
0.0
 11
417.99249315850301
 21
547.89400269658199
 31
0.0
  0
LINE
  5
81D9
  8
0
 62
     0
 10
415.39267615850298
 20
545.86400269658168
 30
0.0
 11
417.88858015850298
 21
545.86400269658168
 31
0.0
  0
LINE
  5
81DA
  8
0
 62
     0
 10
415.39267615850298
 20
537.91400269658209
 30
0.0
 11
418.13858015850298
 21
537.91400269658209
 31
0.0
  0
LINE
  5
81DB
  8
0
 62
     0
 10
415.39267615850298
 20
535.83400269658193
 30
0.0
 11
418.048580158503
 21
535.83400269658193
 31
0.0
  0
LINE
  5
81DC
  8
0
 62
     0
 10
415.39267615850298
 20
527.96400269658193
 30
0.0
 11
418.503797158503
 21
527.96400269658193
 31
0.0
  0
LINE
  5
81DD
  8
0
 62
     0
 10
415.39267615850298
 20
525.78400269658164
 30
0.0
 11
418.4085801585029
 21
525.78400269658164
 31
0.0
  0
LINE
  5
81DE
  8
0
 62
     0
 10
415.39267615850298
 20
518.03400269658187
 30
0.0
 11
418.4878871585031
 21
518.03400269658187
 31
0.0
  0
LINE
  5
81DF
  8
0
 62
     0
 10
415.39267615850298
 20
515.69400269658183
 30
0.0
 11
418.50979915850291
 21
515.69400269658183
 31
0.0
  0
LINE
  5
81E0
  8
0
 62
     0
 10
415.39267615850298
 20
517.68400269658184
 30
0.0
 11
416.45858015850303
 21
517.68400269658184
 31
0.0
  0
LINE
  5
81E1
  8
0
 62
     0
 10
415.39267615850298
 20
547.68400269658184
 30
0.0
 11
416.45858015850303
 21
547.68400269658184
 31
0.0
  0
LINE
  5
81E2
  8
0
 62
     0
 10
415.39267615850298
 20
546.08400269658193
 30
0.0
 11
416.45858015850303
 21
546.08400269658193
 31
0.0
  0
LINE
  5
81E3
  8
0
 62
     0
 10
415.39267615850298
 20
537.68400269658184
 30
0.0
 11
416.45858015850303
 21
537.68400269658184
 31
0.0
  0
LINE
  5
81E4
  8
0
 62
     0
 10
415.39267615850298
 20
536.08400269658193
 30
0.0
 11
416.45858015850303
 21
536.08400269658193
 31
0.0
  0
LINE
  5
81E5
  8
0
 62
     0
 10
415.39267615850298
 20
527.68400269658184
 30
0.0
 11
416.45858015850303
 21
527.68400269658184
 31
0.0
  0
LINE
  5
81E6
  8
0
 62
     0
 10
415.39267615850298
 20
526.08400269658193
 30
0.0
 11
416.45858015850303
 21
526.08400269658193
 31
0.0
  0
LINE
  5
81E7
  8
0
 62
     0
 10
415.39267615850298
 20
516.08400269658193
 30
0.0
 11
416.45858015850303
 21
516.08400269658193
 31
0.0
  0
LINE
  5
81E8
  8
0
 62
     0
 10
418.13858015850298
 20
577.91400269658175
 30
0.0
 11
416.45858015850303
 21
577.68400269658173
 31
0.0
  0
LINE
  5
81E9
  8
0
 62
     0
 10
418.14858015850302
 20
575.8240026965816
 30
0.0
 11
416.45858015850303
 21
576.08400269658193
 31
0.0
  0
LINE
  5
81EA
  8
0
 62
     0
 10
418.99858015850299
 20
578.90400269658176
 30
0.0
 11
418.99858015850299
 21
574.83400269658193
 31
0.0
  0
LINE
  5
81EB
  8
0
 62
     0
 10
418.13858015850298
 20
567.91400269658197
 30
0.0
 11
416.45858015850303
 21
567.68400269658173
 31
0.0
  0
LINE
  5
81EC
  8
0
 62
     0
 10
418.14858015850302
 20
565.82400269658172
 30
0.0
 11
416.45858015850303
 21
566.08400269658193
 31
0.0
  0
LINE
  5
81ED
  8
0
 62
     0
 10
418.99858015850299
 20
568.90400269658198
 30
0.0
 11
418.99858015850299
 21
564.83400269658193
 31
0.0
  0
LINE
  5
81EE
  8
0
 62
     0
 10
418.13858015850298
 20
557.91400269658163
 30
0.0
 11
416.45858015850303
 21
557.68400269658184
 31
0.0
  0
LINE
  5
81EF
  8
0
 62
     0
 10
418.14858015850302
 20
555.82400269658183
 30
0.0
 11
416.45858015850303
 21
556.08400269658193
 31
0.0
  0
LINE
  5
81F0
  8
0
 62
     0
 10
418.99858015850299
 20
558.90400269658164
 30
0.0
 11
418.99858015850299
 21
554.83400269658193
 31
0.0
  0
LINE
  5
81F1
  8
0
 62
     0
 10
418.99858015850299
 20
588.90400269658198
 30
0.0
 11
418.99858015850299
 21
584.83400269658193
 31
0.0
  0
LINE
  5
81F2
  8
0
 62
     0
 10
418.13858015850298
 20
587.91400269658209
 30
0.0
 11
416.45858015850303
 21
587.68400269658173
 31
0.0
  0
LINE
  5
81F3
  8
0
 62
     0
 10
418.14858015850302
 20
585.82400269658172
 30
0.0
 11
416.45858015850303
 21
586.08400269658193
 31
0.0
  0
ARC
  5
81F4
  8
0
 62
     0
 10
416.450124158503
 20
576.88500869658185
 30
0.0
 40
0.80105
 50
270.6048560000001
 51
80.04681700000134
  0
ARC
  5
81F5
  8
0
 62
     0
 10
417.99594815850298
 20
574.83305669658193
 30
0.0
 40
1.0026319999999971
 50
0.0540849999984558
 51
81.243759000001006
  0
ARC
  5
81F6
  8
0
 62
     0
 10
417.99161315850301
 20
578.91020669658201
 30
0.0
 40
1.0069859999999999
 50
278.39216299999907
 51
359.6470019999947
  0
ARC
  5
81F7
  8
0
 62
     0
 10
416.45018515850302
 20
566.884002696582
 30
0.0
 40
0.8000439999999999
 50
270.6012089999997
 51
89.398791000000301
  0
ARC
  5
81F8
  8
0
 62
     0
 10
417.99594815850298
 20
564.83305669658193
 30
0.0
 40
1.0026319999999971
 50
0.0540849999984558
 51
81.243759000001006
  0
ARC
  5
81F9
  8
0
 62
     0
 10
417.99161315850301
 20
568.91020669658201
 30
0.0
 40
1.0069859999999999
 50
278.39216299999907
 51
359.6470019999947
  0
ARC
  5
81FA
  8
0
 62
     0
 10
416.45018515850302
 20
556.884002696582
 30
0.0
 40
0.8000439999999999
 50
270.6012089999997
 51
89.398791000000301
  0
ARC
  5
81FB
  8
0
 62
     0
 10
417.99594815850298
 20
554.83305669658193
 30
0.0
 40
1.0026319999999971
 50
0.0540849999984558
 51
81.243759000001006
  0
ARC
  5
81FC
  8
0
 62
     0
 10
417.99161315850301
 20
558.91020669658201
 30
0.0
 40
1.0069859999999999
 50
278.39216299999907
 51
359.6470019999947
  0
ARC
  5
81FD
  8
0
 62
     0
 10
417.99594815850298
 20
584.83305669658193
 30
0.0
 40
1.0026319999999971
 50
0.0540849999984558
 51
81.243759000001006
  0
ARC
  5
81FE
  8
0
 62
     0
 10
417.99161315850301
 20
588.91020669658178
 30
0.0
 40
1.0069859999999999
 50
278.39216299999907
 51
359.6470019999947
  0
ARC
  5
81FF
  8
0
 62
     0
 10
416.450125158503
 20
586.88521869658189
 30
0.0
 40
0.801261
 50
270.60461099999839
 51
94.506741999999775
  0
LINE
  5
8200
  8
0
 62
     0
 10
415.39267615850298
 20
577.98400269658168
 30
0.0
 11
418.3867941585026
 21
577.98400269658168
 31
0.0
  0
LINE
  5
8201
  8
0
 62
     0
 10
415.39267615850298
 20
575.80400269658196
 30
0.0
 11
418.24601715850298
 21
575.80400269658196
 31
0.0
  0
LINE
  5
8202
  8
0
 62
     0
 10
415.39267615850298
 20
567.92400269658174
 30
0.0
 11
418.1951401585028
 21
567.92400269658174
 31
0.0
  0
LINE
  5
8203
  8
0
 62
     0
 10
415.39267615850298
 20
565.84400269658192
 30
0.0
 11
418.01858015850303
 21
565.84400269658192
 31
0.0
  0
LINE
  5
8204
  8
0
 62
     0
 10
415.39267615850298
 20
557.90400269658176
 30
0.0
 11
418.06553715850299
 21
557.90400269658176
 31
0.0
  0
LINE
  5
8205
  8
0
 62
     0
 10
415.39267615850298
 20
555.86400269658191
 30
0.0
 11
417.88858015850298
 21
555.86400269658191
 31
0.0
  0
LINE
  5
8206
  8
0
 62
     0
 10
415.39267615850298
 20
588.07400269658172
 30
0.0
 11
418.55266915850302
 21
588.07400269658172
 31
0.0
  0
LINE
  5
8207
  8
0
 62
     0
 10
415.39267615850298
 20
585.72400269658169
 30
0.0
 11
418.45582415850311
 21
585.72400269658169
 31
0.0
  0
LINE
  5
8208
  8
0
 62
     0
 10
415.39267615850298
 20
587.68400269658173
 30
0.0
 11
416.51308515850297
 21
587.68400269658173
 31
0.0
  0
LINE
  5
8209
  8
0
 62
     0
 10
415.39267615850298
 20
586.08400269658193
 30
0.0
 11
416.45858015850303
 21
586.08400269658193
 31
0.0
  0
LINE
  5
820A
  8
0
 62
     0
 10
415.39267615850298
 20
577.68400269658173
 30
0.0
 11
416.50748515850302
 21
577.68400269658173
 31
0.0
  0
LINE
  5
820B
  8
0
 62
     0
 10
415.39267615850298
 20
576.08400269658193
 30
0.0
 11
416.45858015850303
 21
576.08400269658193
 31
0.0
  0
LINE
  5
820C
  8
0
 62
     0
 10
415.39267615850298
 20
567.68400269658173
 30
0.0
 11
416.45858015850303
 21
567.68400269658173
 31
0.0
  0
LINE
  5
820D
  8
0
 62
     0
 10
415.39267615850298
 20
566.08400269658193
 30
0.0
 11
416.45858015850303
 21
566.08400269658193
 31
0.0
  0
LINE
  5
820E
  8
0
 62
     0
 10
415.39267615850298
 20
557.68400269658184
 30
0.0
 11
416.45858015850303
 21
557.68400269658184
 31
0.0
  0
LINE
  5
820F
  8
0
 62
     0
 10
415.39267615850298
 20
556.08400269658193
 30
0.0
 11
416.45858015850303
 21
556.08400269658193
 31
0.0
  0
ARC
  5
8210
  8
0
 62
     0
 10
338.69478315850313
 20
540.58408269658185
 30
0.0
 40
2.6000000000000001
 50
137.1002180000024
 51
180.0
  0
ARC
  5
8211
  8
0
 62
     0
 10
338.69478315850313
 20
563.18392269658193
 30
0.0
 40
2.6000000000000001
 50
180.0
 51
222.8997819999976
  0
ARC
  5
8212
  8
0
 62
     0
 10
326.53452815850312
 20
551.88400269658166
 30
0.0
 40
14.0
 50
317.10021800000243
 51
42.899781999997558
  0
LINE
  5
8213
  8
0
 62
     0
 10
415.39267615850298
 20
515.153321696582
 30
0.0
 11
415.39267615850298
 21
588.61186469658173
 31
0.0
  0
LINE
  5
8214
  8
0
 62
     0
 10
410.29268615850299
 20
518.77630569658186
 30
0.0
 11
410.29268615850299
 21
584.99601969658193
 31
0.0
  0
LINE
  5
8215
  8
0
 62
     0
 10
406.97568415850299
 20
518.57950569658192
 30
0.0
 11
406.97568415850299
 21
585.18850769658172
 31
0.0
  0
LINE
  5
8216
  8
0
 62
     0
 10
332.63608515850319
 20
519.2212636965819
 30
0.0
 11
332.63608515850319
 21
538.97450669658201
 31
0.0
  0
LINE
  5
8217
  8
0
 62
     0
 10
332.63608515850319
 20
584.54260269658175
 30
0.0
 11
332.63608515850319
 21
564.79350269658198
 31
0.0
  0
LINE
  5
8218
  8
0
 62
     0
 10
327.14698315850308
 20
586.83520669658174
 30
0.0
 11
327.14698315850308
 21
516.93279869658193
 31
0.0
  0
LINE
  5
8219
  8
0
 62
     0
 10
325.08318215850301
 20
586.70040269658193
 30
0.0
 11
325.08318215850301
 21
517.06759869658185
 31
0.0
  0
LINE
  5
821B
  8
0
 62
     0
 10
336.09478315850311
 20
519.35180669658155
 30
0.0
 11
336.09478315850311
 21
540.58408269658185
 31
0.0
  0
LINE
  5
821C
  8
0
 62
     0
 10
336.09478315850311
 20
563.18392269658193
 30
0.0
 11
336.09478315850311
 21
581.46630069658192
 31
0.0
  0
ARC
  5
821D
  8
0
 62
     0
 10
407.29268615850282
 20
518.77630569658186
 30
0.0
 40
3.0
 50
273.55702099999951
 51
0.0000179999992061
  0
ARC
  5
821E
  8
0
 62
     0
 10
411.79268615850259
 20
515.16380269658191
 30
0.0
 40
3.6000059999999978
 50
273.96599900000109
 51
0.0000179999992061
  0
ARC
  5
821F
  8
0
 62
     0
 10
336.23608315850311
 20
519.22540669658201
 30
0.0
 40
3.6000009999999998
 50
180.00007799999869
 51
266.68501399999968
  0
ARC
  5
8220
  8
0
 62
     0
 10
370.49858015850299
 20
1110.733978696582
 30
0.0
 40
596.09997599999986
 50
266.68505800000048
 51
273.55700699999932
  0
ARC
  5
8221
  8
0
 62
     0
 10
332.74698515850298
 20
516.9328036965818
 30
0.0
 40
5.5999989999999968
 50
180.00005699999531
 51
266.36204099999878
  0
ARC
  5
8222
  8
0
 62
     0
 10
330.68318515850308
 20
517.06760369658195
 30
0.0
 40
5.600000999999998
 50
180.00005699999531
 51
266.16303700000049
  0
ARC
  5
8223
  8
0
 62
     0
 10
370.49858015850299
 20
1110.733978696582
 30
0.0
 40
600.59997599999986
 50
266.16305400000141
 51
273.96601300000123
  0
ARC
  5
8224
  8
0
 62
     0
 10
403.97568415850299
 20
518.57950569658192
 30
0.0
 40
3.0
 50
273.23604300000142
 51
0.0000179999992061
  0
ARC
  5
8225
  8
0
 62
     0
 10
407.29268615850282
 20
584.99170669658201
 30
0.0
 40
3.0000029999999982
 50
0.0000179999992061
 51
86.4432529999997
  0
ARC
  5
8226
  8
0
 62
     0
 10
411.79268615850259
 20
588.60400369658191
 30
0.0
 40
3.5999989999999982
 50
0.0000179999992061
 51
86.033744000000837
  0
ARC
  5
8227
  8
0
 62
     0
 10
336.23608315850311
 20
584.54260269658175
 30
0.0
 40
3.5999979999999998
 50
93.315004999999786
 51
179.99998200000081
  0
ARC
  5
8228
  8
0
 62
     0
 10
370.49858015850299
 20
-6.9659733034179672
 30
0.0
 40
596.09997599999986
 50
86.443289999999465
 51
93.315088999999787
  0
ARC
  5
8229
  8
0
 62
     0
 10
332.74698515850298
 20
586.83520469658174
 30
0.0
 40
5.5999980000000003
 50
93.638056000000873
 51
179.99998200000081
  0
ARC
  5
822A
  8
0
 62
     0
 10
330.68318515850308
 20
586.70040169658193
 30
0.0
 40
5.5999980000000003
 50
93.837062000000643
 51
179.99998200000081
  0
ARC
  5
822B
  8
0
 62
     0
 10
370.49858015850299
 20
-6.9659733034179672
 30
0.0
 40
600.59997599999986
 50
86.033760000000655
 51
93.836910000000643
  0
ARC
  5
822C
  8
0
 62
     0
 10
403.97568415850299
 20
585.18850669658173
 30
0.0
 40
2.9999989999999999
 50
0.0000179999992061
 51
86.764376000000055
  0
ARC
  5
822D
  8
0
 62
     0
 10
334.63608515850319
 20
564.79350269658198
 30
0.0
 40
1.999997
 50
179.99998200000081
 51
229.4100490000026
  0
ARC
  5
822E
  8
0
 62
     0
 10
334.63608515850319
 20
538.97450669658201
 30
0.0
 40
2.0
 50
130.59005899999829
 51
179.99998200000081
  0
ARC
  5
822F
  8
0
 62
     0
 10
323.57518315850302
 20
551.88400269658166
 30
0.0
 40
15.000002
 50
310.58999199999971
 51
49.409702000001012
  0
ARC
  5
8230
  8
0
 62
     0
 10
414.59858915850299
 20
606.19297669658204
 30
0.0
 40
2.2000009999999981
 50
180.00000299999761
 51
269.99997799999852
  0
ARC
  5
8231
  8
0
 62
     0
 10
414.59858915850299
 20
610.79298269658193
 30
0.0
 40
2.1999970000000002
 50
90.0
 51
179.99998200000081
  0
LINE
  5
8232
  8
0
 62
     0
 10
416.99858015850299
 20
608.44353469658165
 30
0.0
 11
415.69858015850298
 21
607.69297969658192
 31
0.0
  0
LINE
  5
8233
  8
0
 62
     0
 10
416.99858015850299
 20
609.44353469658199
 30
0.0
 11
415.69858015850298
 21
608.69297969658192
 31
0.0
  0
LINE
  5
8234
  8
0
 62
     0
 10
415.69858015850298
 20
613.09297969658201
 30
0.0
 11
416.99858015850299
 21
613.09297969658201
 31
0.0
  0
LINE
  5
8235
  8
0
 62
     0
 10
415.69858015850298
 20
603.89297969658173
 30
0.0
 11
416.99858015850299
 21
603.89297969658173
 31
0.0
  0
LINE
  5
8236
  8
0
 62
     0
 10
416.99858015850299
 20
613.09297969658201
 30
0.0
 11
416.99858015850299
 21
603.89297969658173
 31
0.0
  0
LINE
  5
8237
  8
0
 62
     0
 10
412.39857715850297
 20
610.79298269658193
 30
0.0
 11
412.39857715850297
 21
606.19297669658204
 31
0.0
  0
LINE
  5
8238
  8
0
 62
     0
 10
415.69858015850298
 20
613.09297969658201
 30
0.0
 11
415.69858015850298
 21
603.89297969658173
 31
0.0
  0
LINE
  5
8239
  8
0
 62
     0
 10
415.69858015850298
 20
603.99297969658198
 30
0.0
 11
414.59858915850299
 21
603.99297969658198
 31
0.0
  0
LINE
  5
823A
  8
0
 62
     0
 10
415.69858015850298
 20
612.99297969658198
 30
0.0
 11
414.59858915850299
 21
612.99297969658198
 31
0.0
  0
LINE
  5
823B
  8
0
 62
     0
 10
426.99858015850299
 20
478.3840026965816
 30
0.0
 11
426.99858015850299
 21
625.38394469658192
 31
0.0
  0
LINE
  5
823C
  8
0
 62
     0
 10
264.99858015850299
 20
587.68394469658165
 30
0.0
 11
325.17023415850298
 21
587.68394469658165
 31
0.0
  0
LINE
  5
823D
  8
0
 62
     0
 10
264.99858015850299
 20
586.08394469658174
 30
0.0
 11
325.08318215850301
 21
586.08394469658174
 31
0.0
  0
LINE
  5
823E
  8
0
 62
     0
 10
257.49256915850299
 20
577.68394469658165
 30
0.0
 11
325.08318215850301
 21
577.68394469658165
 31
0.0
  0
LINE
  5
823F
  8
0
 62
     0
 10
257.49256915850299
 20
576.08394469658174
 30
0.0
 11
325.08318215850301
 21
576.08394469658174
 31
0.0
  0
LINE
  5
8240
  8
0
 62
     0
 10
257.49256915850299
 20
566.08394469658197
 30
0.0
 11
325.08318215850301
 21
566.08394469658197
 31
0.0
  0
LINE
  5
8241
  8
0
 62
     0
 10
257.49256915850299
 20
567.68394469658188
 30
0.0
 11
325.08318215850301
 21
567.68394469658188
 31
0.0
  0
LINE
  5
8242
  8
0
 62
     0
 10
257.49256915850299
 20
567.93394469658165
 30
0.0
 11
325.08318215850301
 21
567.93394469658165
 31
0.0
  0
LINE
  5
8243
  8
0
 62
     0
 10
264.99858015850299
 20
585.73394469658149
 30
0.0
 11
325.08318215850301
 21
585.73394469658149
 31
0.0
  0
LINE
  5
8244
  8
0
 62
     0
 10
264.99858015850299
 20
588.07394469658198
 30
0.0
 11
325.25424715850312
 21
588.07394469658198
 31
0.0
  0
LINE
  5
8245
  8
0
 62
     0
 10
325.08318215850301
 20
577.98394469658172
 30
0.0
 11
257.49256915850299
 21
577.98394469658172
 31
0.0
  0
LINE
  5
8246
  8
0
 62
     0
 10
325.08318215850301
 20
575.80394469658199
 30
0.0
 11
257.49256915850299
 21
575.80394469658199
 31
0.0
  0
LINE
  5
8247
  8
0
 62
     0
 10
325.08318215850301
 20
565.85394469658172
 30
0.0
 11
257.49256915850299
 21
565.85394469658172
 31
0.0
  0
LINE
  5
8248
  8
0
 62
     0
 10
325.08318215850301
 20
557.90394469658168
 30
0.0
 11
257.49256915850299
 21
557.90394469658168
 31
0.0
  0
LINE
  5
8249
  8
0
 62
     0
 10
325.08318215850301
 20
555.87394469658193
 30
0.0
 11
257.49256915850299
 21
555.87394469658193
 31
0.0
  0
LINE
  5
824A
  8
0
 62
     0
 10
325.08318215850301
 20
557.68394469658165
 30
0.0
 11
257.49256915850299
 21
557.68394469658165
 31
0.0
  0
LINE
  5
824B
  8
0
 62
     0
 10
325.08318215850301
 20
556.08394469658185
 30
0.0
 11
257.49256915850299
 21
556.08394469658185
 31
0.0
  0
LINE
  5
824C
  8
0
 62
     0
 10
264.99858015850299
 20
597.66394469658189
 30
0.0
 11
416.39139615850308
 21
597.66394469658189
 31
0.0
  0
LINE
  5
824D
  8
0
 62
     0
 10
264.99858015850299
 20
596.06394469658198
 30
0.0
 11
416.53830915850301
 21
596.06394469658198
 31
0.0
  0
LINE
  5
824E
  8
0
 62
     0
 10
257.49256915850299
 20
598.05394469658199
 30
0.0
 11
418.49352515850302
 21
598.05394469658199
 31
0.0
  0
LINE
  5
824F
  8
0
 62
     0
 10
264.99858015850299
 20
595.71394469658173
 30
0.0
 11
418.50821715850299
 21
595.71394469658173
 31
0.0
  0
LINE
  5
8250
  8
0
 62
     0
 10
415.49858015850299
 20
602.78499469658198
 30
0.0
 11
415.61474015850291
 21
603.99297969658198
 31
0.0
  0
LINE
  5
8251
  8
0
 62
     0
 10
257.49256915850299
 20
581.16550169658171
 30
0.0
 11
264.99858015850299
 21
581.16550169658171
 31
0.0
  0
LINE
  5
8252
  8
0
 62
     0
 10
257.49256915850299
 20
586.88394469658192
 30
0.0
 11
264.99858015850299
 21
586.88394469658192
 31
0.0
  0
LINE
  5
8253
  8
0
 62
     0
 10
257.49256915850299
 20
597.4039446965819
 30
0.0
 11
264.99858015850299
 21
597.4039446965819
 31
0.0
  0
LINE
  5
8254
  8
0
 62
     0
 10
257.49256915850299
 20
597.81527669658192
 30
0.0
 11
264.99858015850299
 21
597.81527669658192
 31
0.0
  0
LINE
  5
8255
  8
0
 62
     0
 10
264.99858015850299
 20
597.81527669658192
 30
0.0
 11
264.99858015850299
 21
581.16550169658171
 31
0.0
  0
ARC
  5
8256
  8
0
 62
     0
 10
199.497359158503
 20
615.05284169658159
 30
0.0
 40
2.0
 50
96.369371000000385
 51
180.0
  0
ARC
  5
8257
  8
0
 62
     0
 10
198.94267115850309
 20
620.02197569658165
 30
0.0
 40
2.999997
 50
276.3693710000004
 51
350.0001740000024
  0
LINE
  5
8258
  8
0
 62
     0
 10
201.89710315850311
 20
619.50095569658185
 30
0.0
 11
202.95796515850299
 21
625.51843169658173
 31
0.0
  0
LINE
  5
8259
  8
0
 62
     0
 10
197.497359158503
 20
488.71510569658182
 30
0.0
 11
197.497359158503
 21
615.05284169658159
 31
0.0
  0
LINE
  5
825A
  8
0
 62
     0
 10
204.5515581585031
 20
625.84598069658193
 30
0.0
 11
204.5515581585031
 21
477.92196669658182
 31
0.0
  0
LINE
  5
825B
  8
0
 62
     0
 10
234.49919715850311
 20
472.13418569658182
 30
0.0
 11
234.49919715850311
 21
631.63376169658193
 31
0.0
  0
LINE
  5
825C
  8
0
 62
     0
 10
234.18657615850299
 20
631.61737869658191
 30
0.0
 11
208.31990615850299
 21
630.26187569658191
 31
0.0
  0
LINE
  5
825D
  8
0
 62
     0
 10
235.74961715850301
 20
632.63394469658169
 30
0.0
 11
257.4985801585031
 21
632.63394469658169
 31
0.0
  0
ARC
  5
825E
  8
0
 62
     0
 10
235.74961715850301
 20
631.38394469658192
 30
0.0
 40
1.25
 50
89.999982000000799
 51
154.6236390000048
  0
ARC
  5
825F
  8
0
 62
     0
 10
208.62077215850309
 20
624.51993069658192
 30
0.0
 40
5.7500059999999991
 50
92.999882999999429
 51
170.0000479999978
  0
ARC
  5
8260
  8
0
 62
     0
 10
234.160410158503
 20
632.11669369658193
 30
0.0
 40
0.5
 50
272.99975299999932
 51
335.24659000000122
  0
LINE
  5
8261
  8
0
 62
     0
 10
264.99858015850299
 20
516.08400269658193
 30
0.0
 11
325.17024215850302
 21
516.08400269658193
 31
0.0
  0
LINE
  5
8262
  8
0
 62
     0
 10
264.99858015850299
 20
517.68400269658184
 30
0.0
 11
325.08318215850301
 21
517.68400269658184
 31
0.0
  0
LINE
  5
8263
  8
0
 62
     0
 10
257.49256915850299
 20
526.08400269658193
 30
0.0
 11
325.08318215850301
 21
526.08400269658193
 31
0.0
  0
LINE
  5
8264
  8
0
 62
     0
 10
257.49256915850299
 20
527.68400269658184
 30
0.0
 11
325.08318215850301
 21
527.68400269658184
 31
0.0
  0
LINE
  5
8265
  8
0
 62
     0
 10
257.49256915850299
 20
537.68400269658184
 30
0.0
 11
325.08318215850301
 21
537.68400269658184
 31
0.0
  0
LINE
  5
8266
  8
0
 62
     0
 10
257.49256915850299
 20
536.08400269658193
 30
0.0
 11
325.08318215850301
 21
536.08400269658193
 31
0.0
  0
LINE
  5
8267
  8
0
 62
     0
 10
257.49256915850299
 20
535.83400269658193
 30
0.0
 11
325.08318215850301
 21
535.83400269658193
 31
0.0
  0
LINE
  5
8268
  8
0
 62
     0
 10
264.99858015850299
 20
518.03400269658187
 30
0.0
 11
325.08318215850301
 21
518.03400269658187
 31
0.0
  0
LINE
  5
8269
  8
0
 62
     0
 10
264.99858015850299
 20
515.69400269658183
 30
0.0
 11
325.25425915850298
 21
515.69400269658183
 31
0.0
  0
LINE
  5
826A
  8
0
 62
     0
 10
325.08318215850301
 20
525.78400269658164
 30
0.0
 11
257.49256915850299
 21
525.78400269658164
 31
0.0
  0
LINE
  5
826B
  8
0
 62
     0
 10
325.08318215850301
 20
527.96400269658193
 30
0.0
 11
257.49256915850299
 21
527.96400269658193
 31
0.0
  0
LINE
  5
826C
  8
0
 62
     0
 10
325.08318215850301
 20
537.91400269658209
 30
0.0
 11
257.49256915850299
 21
537.91400269658209
 31
0.0
  0
LINE
  5
826D
  8
0
 62
     0
 10
325.08318215850301
 20
545.86400269658168
 30
0.0
 11
257.49256915850299
 21
545.86400269658168
 31
0.0
  0
LINE
  5
826E
  8
0
 62
     0
 10
325.08318215850301
 20
547.89400269658199
 30
0.0
 11
257.49256915850299
 21
547.89400269658199
 31
0.0
  0
LINE
  5
826F
  8
0
 62
     0
 10
325.08318215850301
 20
546.08400269658193
 30
0.0
 11
257.49256915850299
 21
546.08400269658193
 31
0.0
  0
LINE
  5
8270
  8
0
 62
     0
 10
325.08318215850301
 20
547.68400269658184
 30
0.0
 11
257.49256915850299
 21
547.68400269658184
 31
0.0
  0
LINE
  5
8271
  8
0
 62
     0
 10
264.99858015850299
 20
506.10400269658192
 30
0.0
 11
416.3917741585031
 21
506.10400269658192
 31
0.0
  0
LINE
  5
8272
  8
0
 62
     0
 10
264.99858015850299
 20
507.70400269658188
 30
0.0
 11
416.537885158503
 21
507.70400269658188
 31
0.0
  0
LINE
  5
8273
  8
0
 62
     0
 10
257.49256915850299
 20
505.71400269658182
 30
0.0
 11
418.4936281585031
 21
505.71400269658182
 31
0.0
  0
LINE
  5
8274
  8
0
 62
     0
 10
264.99858015850299
 20
508.05400269658179
 30
0.0
 11
418.50811915850289
 21
508.05400269658179
 31
0.0
  0
LINE
  5
8275
  8
0
 62
     0
 10
415.49858015850299
 20
508.05400269658179
 30
0.0
 11
415.49858015850299
 21
515.69400269658183
 31
0.0
  0
LINE
  5
8276
  8
0
 62
     0
 10
415.49858015850299
 20
500.98295269658189
 30
0.0
 11
415.49858015850299
 21
505.71400269658182
 31
0.0
  0
LINE
  5
8277
  8
0
 62
     0
 10
416.99858015850299
 20
489.8840026965816
 30
0.0
 11
416.99858015850299
 21
505.71400269658182
 31
0.0
  0
LINE
  5
8278
  8
0
 62
     0
 10
415.49858015850299
 20
500.98295269658189
 30
0.0
 11
415.61473515850298
 21
499.77502669658202
 31
0.0
  0
LINE
  5
8279
  8
0
 62
     0
 10
257.49256915850299
 20
522.60244569658164
 30
0.0
 11
264.99858015850299
 21
522.60244569658164
 31
0.0
  0
LINE
  5
827A
  8
0
 62
     0
 10
257.49256915850299
 20
516.884002696582
 30
0.0
 11
264.99858015850299
 21
516.884002696582
 31
0.0
  0
LINE
  5
827B
  8
0
 62
     0
 10
257.49256915850299
 20
506.36400269658202
 30
0.0
 11
264.99858015850299
 21
506.36400269658202
 31
0.0
  0
LINE
  5
827C
  8
0
 62
     0
 10
257.49256915850299
 20
505.95267069658189
 30
0.0
 11
264.99858015850299
 21
505.95267069658189
 31
0.0
  0
LINE
  5
827D
  8
0
 62
     0
 10
264.99858015850299
 20
505.95267069658189
 30
0.0
 11
264.99858015850299
 21
522.60244569658164
 31
0.0
  0
ARC
  5
827E
  8
0
 62
     0
 10
199.497359158503
 20
488.71510569658182
 30
0.0
 40
2.0
 50
180.0
 51
263.63062899999971
  0
ARC
  5
827F
  8
0
 62
     0
 10
198.94267115850309
 20
483.74597169658188
 30
0.0
 40
2.999997
 50
9.9998259999975794
 51
83.630628999999615
  0
LINE
  5
8280
  8
0
 62
     0
 10
201.89710315850311
 20
484.26699169658161
 30
0.0
 11
202.95796515850299
 21
478.2495156965818
 31
0.0
  0
LINE
  5
8281
  8
0
 62
     0
 10
201.49735915850309
 20
617.62796369658167
 30
0.0
 11
201.49735915850309
 21
486.13998369658179
 31
0.0
  0
LINE
  5
8282
  8
0
 62
     0
 10
416.69858015850298
 20
518.03400269658187
 30
0.0
 11
416.99858015850299
 21
518.03400269658187
 31
0.0
  0
LINE
  5
8283
  8
0
 62
     0
 10
416.64788915850301
 20
515.69400269658183
 30
0.0
 11
416.99858015850299
 21
515.69400269658183
 31
0.0
  0
LINE
  5
8284
  8
0
 62
     0
 10
234.18657615850299
 20
472.15056869658179
 30
0.0
 11
208.31990615850299
 21
473.50607169658178
 31
0.0
  0
LINE
  5
8285
  8
0
 62
     0
 10
235.74961715850301
 20
471.1340026965816
 30
0.0
 11
257.4985801585031
 21
471.1340026965816
 31
0.0
  0
ARC
  5
8286
  8
0
 62
     0
 10
235.74961715850301
 20
472.38400269658177
 30
0.0
 40
1.25
 50
205.3763609999952
 51
270.00001799999922
  0
ARC
  5
8287
  8
0
 62
     0
 10
208.62077215850309
 20
479.24801669658189
 30
0.0
 40
5.7500059999999991
 50
189.99995200000211
 51
267.00011700000061
  0
ARC
  5
8288
  8
0
 62
     0
 10
234.160410158503
 20
471.65125369658188
 30
0.0
 40
0.5
 50
24.75340999999878
 51
87.000247000000712
  0
LINE
  5
8289
  8
0
 62
     0
 10
415.49858015850299
 20
602.78499469658198
 30
0.0
 11
415.49858015850299
 21
598.05400269658173
 31
0.0
  0
LINE
  5
828A
  8
0
 62
     0
 10
415.49858015850299
 20
595.71400269658193
 30
0.0
 11
415.49858015850299
 21
588.07400269658172
 31
0.0
  0
LINE
  5
828B
  8
0
 62
     0
 10
257.49256915850299
 20
471.1340026965816
 30
0.0
 11
257.49256915850299
 21
632.63394469658169
 31
0.0
  0
ARC
  5
828C
  8
0
 62
     0
 10
414.59858715850311
 20
497.57502969658162
 30
0.0
 40
2.2000009999999981
 50
90.000022000001564
 51
179.9999969999958
  0
ARC
  5
828D
  8
0
 62
     0
 10
414.59858715850311
 20
492.97502369658167
 30
0.0
 40
2.1999970000000002
 50
180.00001799999919
 51
270.0
  0
LINE
  5
828E
  8
0
 62
     0
 10
416.99857815850299
 20
495.32447169658178
 30
0.0
 11
415.6985781585031
 21
496.07502669658197
 31
0.0
  0
LINE
  5
828F
  8
0
 62
     0
 10
416.99857815850299
 20
494.32447169658201
 30
0.0
 11
415.6985781585031
 21
495.0750266965818
 31
0.0
  0
LINE
  5
8290
  8
0
 62
     0
 10
415.6985781585031
 20
490.67502669658182
 30
0.0
 11
416.99857815850299
 21
490.67502669658182
 31
0.0
  0
LINE
  5
8291
  8
0
 62
     0
 10
415.6985781585031
 20
499.87502669658198
 30
0.0
 11
416.99857815850299
 21
499.87502669658198
 31
0.0
  0
LINE
  5
8292
  8
0
 62
     0
 10
416.99857815850299
 20
490.67502669658182
 30
0.0
 11
416.99857815850299
 21
499.87502669658198
 31
0.0
  0
LINE
  5
8293
  8
0
 62
     0
 10
412.39857515850298
 20
492.97502369658167
 30
0.0
 11
412.39857515850298
 21
497.57502969658162
 31
0.0
  0
LINE
  5
8294
  8
0
 62
     0
 10
415.6985781585031
 20
490.67502669658182
 30
0.0
 11
415.6985781585031
 21
499.87502669658198
 31
0.0
  0
LINE
  5
8295
  8
0
 62
     0
 10
415.6985781585031
 20
499.77502669658202
 30
0.0
 11
414.59858715850311
 21
499.77502669658202
 31
0.0
  0
LINE
  5
8296
  8
0
 62
     0
 10
415.6985781585031
 20
490.7750266965819
 30
0.0
 11
414.59858715850311
 21
490.7750266965819
 31
0.0
  0
LINE
  5
8AB6
  8
0
  6
AM_ISO08W050
 62
     0
 10
187.5599369297274
 20
1041.4723481779811
 30
0.0
 11
841.61572015850265
 21
1041.4723481779811
 31
0.0
  0
LINE
  5
8B01
  8
0
  6
CONTINUOUS
 62
     0
 10
426.99854015850281
 20
1080.9470181779809
 30
0.0
 11
438.99854015850298
 21
1080.9470181779809
 31
0.0
  0
LINE
  5
8B02
  8
0
  6
CONTINUOUS
 62
     0
 10
426.99854015850281
 20
1001.997678177981
 30
0.0
 11
438.99854015850298
 21
1001.997678177981
 31
0.0
  0
LINE
  5
8B03
  8
0
  6
CONTINUOUS
 62
     0
 10
426.99854015850281
 20
1103.052368177981
 30
0.0
 11
438.99854015850298
 21
1103.052368177981
 31
0.0
  0
LINE
  5
8B04
  8
0
  6
CONTINUOUS
 62
     0
 10
426.99854015850281
 20
979.89232817798074
 30
0.0
 11
438.99854015850298
 21
979.89232817798074
 31
0.0
  0
LINE
  5
8B05
  8
0
  6
CONTINUOUS
 62
     0
 10
501.99854015850309
 20
958.77715817798105
 30
0.0
 11
516.99854015850315
 21
958.77715817798105
 31
0.0
  0
LINE
  5
8B06
  8
0
  6
CONTINUOUS
 62
     0
 10
501.99854015850309
 20
968.96611817798077
 30
0.0
 11
516.99854015850315
 21
968.96611817798077
 31
0.0
  0
LINE
  5
8B07
  8
0
  6
CONTINUOUS
 62
     0
 10
501.99854015850309
 20
985.19652817798078
 30
0.0
 11
516.99854015850315
 21
985.19652817798078
 31
0.0
  0
LINE
  5
8B08
  8
0
  6
CONTINUOUS
 62
     0
 10
501.99854015850309
 20
1098.7480981779811
 30
0.0
 11
516.99854015850315
 21
1098.7480981779811
 31
0.0
  0
LINE
  5
8B09
  8
0
  6
CONTINUOUS
 62
     0
 10
501.99854015850309
 20
1114.978508177981
 30
0.0
 11
516.99854015850315
 21
1114.978508177981
 31
0.0
  0
LINE
  5
8B0A
  8
0
  6
CONTINUOUS
 62
     0
 10
501.99854015850309
 20
1125.1674781779809
 30
0.0
 11
516.99854015850315
 21
1125.1674781779809
 31
0.0
  0
LINE
  5
8B0C
  8
0
  6
CONTINUOUS
 62
     0
 10
504.99848015850267
 20
1141.472288177981
 30
0.0
 11
514.99848015850318
 21
1141.472288177981
 31
0.0
  0
LINE
  5
8B0D
  8
0
  6
CONTINUOUS
 62
     0
 10
503.99854015850298
 20
942.47234817798085
 30
0.0
 11
514.99848015850318
 21
942.47234817798085
 31
0.0
  0
LINE
  5
8B0E
  8
0
  6
CONTINUOUS
 62
     0
 10
501.99854015850309
 20
944.47234817798096
 30
0.0
 11
501.99854015850309
 21
1138.472288177981
 31
0.0
  0
LINE
  5
8B10
  8
0
  6
CONTINUOUS
 62
     0
 10
486.061100158503
 20
1117.0347881779801
 30
0.0
 11
500.5341201585029
 21
1131.5078081779809
 31
0.0
  0
LINE
  5
8B11
  8
0
  6
CONTINUOUS
 62
     0
 10
438.99854015850298
 20
967.97228817798077
 30
0.0
 11
438.99854015850298
 21
1114.9723481779811
 31
0.0
  0
LINE
  5
8B12
  8
0
  6
CONTINUOUS
 62
     0
 10
451.99854015850309
 20
1028.4723481779811
 30
0.0
 11
451.99854015850309
 21
1054.4723481779811
 31
0.0
  0
LINE
  5
8B13
  8
0
  6
CONTINUOUS
 62
     0
 10
456.99854015850298
 20
1023.472348177981
 30
0.0
 11
478.99854015850298
 21
1023.472348177981
 31
0.0
  0
LINE
  5
8B14
  8
0
  6
CONTINUOUS
 62
     0
 10
456.99854015850298
 20
1059.4723481779811
 30
0.0
 11
478.99854015850298
 21
1059.4723481779811
 31
0.0
  0
LINE
  5
8B15
  8
0
  6
CONTINUOUS
 62
     0
 10
484.09277015850279
 20
1116.9661181779809
 30
0.0
 11
426.99854015850281
 21
1114.9723481779811
 31
0.0
  0
LINE
  5
8B16
  8
0
  6
CONTINUOUS
 62
     0
 10
484.09277015850279
 20
965.97850817798098
 30
0.0
 11
426.99854015850281
 21
967.97228817798077
 31
0.0
  0
LINE
  5
8B17
  8
0
  6
CONTINUOUS
 62
     0
 10
486.06116015850262
 20
965.90978817798066
 30
0.0
 11
500.53406015850311
 21
951.43688817798068
 31
0.0
  0
LINE
  5
8B18
  8
0
  6
CONTINUOUS
 62
     0
 10
483.99854015850309
 20
1023.472348177981
 30
0.0
 11
483.99854015850309
 21
1059.4723481779811
 31
0.0
  0
ARC
  5
8B4E
  8
0
  6
CONTINUOUS
 62
     0
 10
496.99854015850298
 20
1135.0433881779809
 30
0.0
 40
5.0
 50
314.9999999999954
 51
0.0
  0
ARC
  5
8B4F
  8
0
  6
CONTINUOUS
 62
     0
 10
504.99848015850267
 20
1138.472288177981
 30
0.0
 40
3.0
 50
90.00000299999769
 51
180.000010000001
  0
ARC
  5
8B50
  8
0
  6
CONTINUOUS
 62
     0
 10
503.99854015850298
 20
944.47234817798096
 30
0.0
 40
2.0
 50
179.999989999999
 51
270.0
  0
ARC
  5
8B51
  8
0
  6
CONTINUOUS
 62
     0
 10
496.99854015850298
 20
947.90123817798099
 30
0.0
 40
5.0
 50
0.0
 51
45.000000999994569
  0
ARC
  5
8B52
  8
0
  6
CONTINUOUS
 62
     0
 10
456.99854015850298
 20
1028.4723481779811
 30
0.0
 40
5.0
 50
180.000010000001
 51
270.0
  0
ARC
  5
8B53
  8
0
  6
CONTINUOUS
 62
     0
 10
456.99854015850298
 20
1054.4723481779811
 30
0.0
 40
5.0
 50
90.00000299999769
 51
180.000010000001
  0
ARC
  5
8B54
  8
0
  6
CONTINUOUS
 62
     0
 10
483.91828015850263
 20
960.98155817798067
 30
0.0
 40
5.0
 50
44.999998000001611
 51
87.999999999996476
  0
ARC
  5
8B55
  8
0
  6
CONTINUOUS
 62
     0
 10
483.91828015850263
 20
1121.9630681779811
 30
0.0
 40
5.0
 50
272.00000000000352
 51
314.9999999999954
  0
ARC
  5
8B56
  8
0
  6
CONTINUOUS
 62
     0
 10
478.99854015850298
 20
1018.472348177981
 30
0.0
 40
5.0
 50
0.0
 51
90.00000299999769
  0
ARC
  5
8B57
  8
0
  6
CONTINUOUS
 62
     0
 10
478.99854015850298
 20
1064.4723481779799
 30
0.0
 40
5.0
 50
270.0
 51
0.0
  0
POLYLINE
  5
8B58
  8
0
  6
CONTINUOUS
 62
     0
 66
     1
 10
0.0
 20
0.0
 30
0.0
  0
VERTEX
  5
8B59
  8
0
  6
CONTINUOUS
 62
     0
 10
486.06116015850262
 20
965.90978817798066
 30
0.0
 42
-0.10362759
  0
VERTEX
  5
8B5A
  8
0
  6
CONTINUOUS
 62
     0
 10
446.65280015850288
 20
1012.135478177981
 30
0.0
 42
-0.26090923
  0
VERTEX
  5
8B5B
  8
0
  6
CONTINUOUS
 62
     0
 10
446.65280015850288
 20
1070.8092281779809
 30
0.0
 42
-0.10362793
  0
VERTEX
  5
8B5C
  8
0
  6
CONTINUOUS
 62
     0
 10
486.061100158503
 20
1117.0348481779811
 30
0.0
  0
SEQEND
  5
8B5D
  8
0
 62
     0
  0
ARC
  5
8B5E
  8
0
 62
     0
 10
417.99854015850258
 20
979.43353767798123
 30
0.0
 40
1.0
 50
180.0
 51
270.0
  0
ARC
  5
8B5F
  8
0
 62
     0
 10
417.99854015850258
 20
1103.5111536779809
 30
0.0
 40
1.0
 50
90.0
 51
180.0
  0
LINE
  5
8B60
  8
0
 62
     0
 10
336.59854215850282
 20
959.47234567798125
 30
0.0
 11
406.34164215850279
 21
959.47234567798125
 31
0.0
  0
LINE
  5
8B61
  8
0
 62
     0
 10
415.39666015850281
 20
957.567366677981
 30
0.0
 11
413.74866515850277
 21
961.10133067798097
 31
0.0
  0
LINE
  5
8B62
  8
0
 62
     0
 10
413.74866515850277
 20
961.10133067798097
 30
0.0
 11
324.93054615850281
 21
919.68532167798094
 31
0.0
  0
LINE
  5
8B63
  8
0
 62
     0
 10
326.57873915850291
 20
916.15035067798101
 30
0.0
 11
324.93054615850281
 21
919.68532167798094
 31
0.0
  0
LINE
  5
8B64
  8
0
 62
     0
 10
334.1317441585029
 20
916.51635467798098
 30
0.0
 11
333.81034215850281
 21
917.20534667798131
 31
0.0
  0
LINE
  5
8B65
  8
0
 62
     0
 10
410.42364215850262
 20
932.38634767798135
 30
0.0
 11
410.42364215850262
 21
952.76035567798101
 31
0.0
  0
LINE
  5
8B66
  8
0
 62
     0
 10
328.04613415850292
 20
915.62134767798068
 30
0.0
 11
414.87163915850277
 21
956.10835067798075
 31
0.0
  0
LINE
  5
8B67
  8
0
 62
     0
 10
332.99854415850291
 20
923.44735167798126
 30
0.0
 11
332.99854415850291
 21
955.87235467798132
 31
0.0
  0
LINE
  5
8B68
  8
0
  6
AM_ISO08W050
 62
     0
 10
327.82234315850292
 20
939.47234567798125
 30
0.0
 11
336.41264415850293
 21
939.47234567798125
 31
0.0
  0
LINE
  5
8B69
  8
0
 62
     0
 10
330.99854415850291
 20
951.07235167798081
 30
0.0
 11
330.99854415850291
 21
927.87235467798109
 31
0.0
  0
LINE
  5
8B6A
  8
0
 62
     0
 10
330.99854415850291
 20
951.07235167798081
 30
0.0
 11
331.99854415850291
 21
951.07235167798081
 31
0.0
  0
LINE
  5
8B6B
  8
0
 62
     0
 10
330.99854415850291
 20
927.87235467798109
 30
0.0
 11
331.99854415850291
 21
927.87235467798109
 31
0.0
  0
ARC
  5
8B6C
  8
0
 62
     0
 10
336.59854215850282
 20
955.87235467798132
 30
0.0
 40
3.5999979999999998
 50
90.000061000000898
 51
179.99998200000081
  0
ARC
  5
8B6D
  8
0
 62
     0
 10
414.39964015850268
 20
957.10235067798135
 30
0.0
 40
1.100006
 50
294.99982599999862
 51
24.999514000004648
  0
ARC
  5
8B6E
  8
0
 62
     0
 10
327.575643158503
 20
916.61535167798127
 30
0.0
 40
1.0999959999999971
 50
204.99980300000141
 51
295.00019499999559
  0
ARC
  5
8B6F
  8
0
 62
     0
 10
402.82364415850259
 20
932.38634767798135
 30
0.0
 40
7.5999979999999967
 50
288.90001599999869
 51
0.0000179999992061
  0
ARC
  5
8B70
  8
0
 62
     0
 10
337.39444515850289
 20
918.03734867798096
 30
0.0
 40
3.5999979999999998
 50
204.9991569999998
 51
269.0940209999992
  0
ARC
  5
8B71
  8
0
 62
     0
 10
340.50094315850299
 20
1114.413339677981
 30
0.0
 40
200.0
 50
269.09405200000299
 51
288.9000030000019
  0
ARC
  5
8B72
  8
0
 62
     0
 10
332.90404215850288
 20
916.78335067798093
 30
0.0
 40
0.9999979999999998
 50
24.999268000004911
 51
114.9993579999972
  0
ARC
  5
8B73
  8
0
 62
     0
 10
412.42364215850279
 20
952.76035567798101
 30
0.0
 40
2.0
 50
115.00014999999451
 51
179.99998200000081
  0
ARC
  5
8B74
  8
0
 62
     0
 10
406.34164215850279
 20
956.87235467798121
 30
0.0
 40
2.600006
 50
40.686129999995678
 51
90.0
  0
ARC
  5
8B75
  8
0
 62
     0
 10
331.99854415850291
 20
952.07235167798081
 30
0.0
 40
1.0
 50
269.99894299999522
 51
0.0000179999992061
  0
ARC
  5
8B76
  8
0
 62
     0
 10
331.99854415850291
 20
926.87235467798098
 30
0.0
 40
1.0
 50
0.0000179999992061
 51
90.0
  0
LINE
  5
8B77
  8
0
  6
AM_ISO08W050
 62
     0
 10
370.49854015850281
 20
969.55706167798132
 30
0.0
 11
370.49854015850281
 21
955.57023967798068
 31
0.0
  0
LINE
  5
8B78
  8
0
 62
     0
 10
426.99854015850281
 20
967.97234567798125
 30
0.0
 11
426.99854015850281
 21
1114.972350677981
 31
0.0
  0
ARC
  5
8B79
  8
0
 62
     0
 10
265.0174151585029
 20
962.99741567798117
 30
0.0
 40
2.0
 50
60.311696999995213
 51
90.0
  0
LINE
  5
8B7A
  8
0
 62
     0
 10
257.49854015850292
 20
964.99741567798083
 30
0.0
 11
265.0174151585029
 21
964.99741567798083
 31
0.0
  0
ARC
  5
8B7B
  8
0
 62
     0
 10
263.07316715850288
 20
965.70328767798082
 30
0.0
 40
2.0
 50
11.08497000000493
 51
90.0
  0
LINE
  5
8B7C
  8
0
 62
     0
 10
257.49854015850292
 20
967.70328767798105
 30
0.0
 11
263.07316715850288
 21
967.70328767798105
 31
0.0
  0
ARC
  5
8B7D
  8
0
 62
     0
 10
266.99854015850292
 20
966.47234567798091
 30
0.0
 40
2.0
 50
180.0
 51
270.0
  0
ARC
  5
8B7E
  8
0
 62
     0
 10
266.99854015850292
 20
974.97234967798136
 30
0.0
 40
2.0
 50
180.0
 51
270.0
  0
LINE
  5
8B7F
  8
0
 62
     0
 10
264.99854015850292
 20
988.67283267798132
 30
0.0
 11
264.99854015850292
 21
966.47234567798091
 31
0.0
  0
LINE
  5
8B80
  8
0
 62
     0
 10
257.49854015850292
 20
987.28504867798085
 30
0.0
 11
264.99854015850292
 21
987.28504867798085
 31
0.0
  0
LINE
  5
8B81
  8
0
 62
     0
 10
257.49854015850292
 20
975.70835367798134
 30
0.0
 11
264.99854015850292
 21
975.70835367798134
 31
0.0
  0
LINE
  5
8B82
  8
0
 62
     0
 10
257.49854015850292
 20
969.64819067798101
 30
0.0
 11
264.99854015850292
 21
969.64819067798101
 31
0.0
  0
ARC
  5
8B83
  8
0
 62
     0
 10
414.99853815850281
 20
974.97234167798126
 30
0.0
 40
2.0
 50
269.99999799999722
 51
359.99999799999722
  0
LINE
  5
8B84
  8
0
 62
     0
 10
266.99854015850292
 20
990.67283267798132
 30
0.0
 11
414.99853715850281
 21
990.67283267798132
 31
0.0
  0
LINE
  5
8B85
  8
0
 62
     0
 10
266.99854015850292
 20
972.97234967798113
 30
0.0
 11
415.00424115850291
 21
972.97234967798113
 31
0.0
  0
LINE
  5
8B86
  8
0
 62
     0
 10
416.99854015850258
 20
967.97234567798125
 30
0.0
 11
426.99853715850281
 21
967.97234567798125
 31
0.0
  0
LINE
  5
8B87
  8
0
 62
     0
 10
417.99854015850258
 20
978.43353767798135
 30
0.0
 11
426.99853815850281
 21
978.43353767798135
 31
0.0
  0
LINE
  5
8B89
  8
0
 62
     0
 10
264.99854015850292
 20
1116.425133677981
 30
0.0
 11
264.99854015850292
 21
1113.3863296779809
 31
0.0
  0
ARC
  5
8B8A
  8
0
 62
     0
 10
266.99854015850292
 20
1107.9723496779809
 30
0.0
 40
2.0
 50
90.0
 51
180.0
  0
LINE
  5
8B8B
  8
0
 62
     0
 10
257.49854015850292
 20
1095.746946677981
 30
0.0
 11
264.99854015850292
 21
1095.746946677981
 31
0.0
  0
LINE
  5
8B8C
  8
0
 62
     0
 10
257.49854015850292
 20
1107.3129656779811
 30
0.0
 11
264.99854015850292
 21
1107.3129656779811
 31
0.0
  0
LINE
  5
8B8D
  8
0
 62
     0
 10
257.49854015850292
 20
1113.3863296779809
 30
0.0
 11
264.99854015850292
 21
1113.3863296779809
 31
0.0
  0
LINE
  5
8B8E
  8
0
 62
     0
 10
264.99854015850292
 20
1117.950591677981
 30
0.0
 11
264.99854015850292
 21
1117.347315677981
 31
0.0
  0
ARC
  5
8B8F
  8
0
 62
     0
 10
266.99854015850292
 20
1116.425133677981
 30
0.0
 40
2.0
 50
90.0
 51
180.0
  0
LINE
  5
8B90
  8
0
 62
     0
 10
257.49854015850292
 20
1119.3654906779809
 30
0.0
 11
263.47921115850301
 21
1119.3654906779809
 31
0.0
  0
LINE
  5
8B91
  8
0
 62
     0
 10
257.49854015850292
 20
1118.050978677981
 30
0.0
 11
263.149851158503
 21
1118.050978677981
 31
0.0
  0
ARC
  5
8B92
  8
0
 62
     0
 10
263.149851158503
 20
1120.050978677981
 30
0.0
 40
2.0
 50
270.0
 51
344.1903739999978
  0
ARC
  5
8B93
  8
0
 62
     0
 10
266.99854015850292
 20
1118.9612116779811
 30
0.0
 40
2.0
 50
90.0
 51
164.19037399999769
  0
ARC
  5
8B94
  8
0
 62
     0
 10
263.47921115850301
 20
1121.3654906779809
 30
0.0
 40
2.0
 50
270.0
 51
331.62214300000397
  0
ARC
  5
8B95
  8
0
 62
     0
 10
266.99854015850292
 20
1119.4643536779811
 30
0.0
 40
2.0
 50
90.0
 51
151.6221439999978
  0
ARC
  5
8B96
  8
0
 62
     0
 10
414.99854015850281
 20
1107.9723496779809
 30
0.0
 40
2.0
 50
0.0
 51
90.0
  0
ARC
  5
8B97
  8
0
 62
     0
 10
413.8710481585029
 20
1116.425133677981
 30
0.0
 40
2.0
 50
15.00000000000702
 51
90.0
  0
LINE
  5
8B98
  8
0
 62
     0
 10
418.99854015850281
 20
1105.0164796779809
 30
0.0
 11
415.80290015850278
 21
1116.942771677981
 31
0.0
  0
ARC
  5
8B99
  8
0
 62
     0
 10
414.83556415850302
 20
1117.950591677981
 30
0.0
 40
2.0
 50
15.00000000000702
 51
90.0
  0
LINE
  5
8B9A
  8
0
 62
     0
 10
418.99854015850281
 20
1110.141562677981
 30
0.0
 11
416.76741615850273
 21
1118.468230677981
 31
0.0
  0
ARC
  5
8B9B
  8
0
 62
     0
 10
415.38325815850283
 20
1118.9612116779811
 30
0.0
 40
2.0
 50
15.00000000000702
 51
90.0
  0
LINE
  5
8B9C
  8
0
 62
     0
 10
418.99854015850281
 20
1113.196199677981
 30
0.0
 11
417.31510915850288
 21
1119.4788496779811
 31
0.0
  0
ARC
  5
8B9D
  8
0
 62
     0
 10
415.6642921585028
 20
1119.4643536779811
 30
0.0
 40
2.0
 50
15.00000000000702
 51
90.0
  0
LINE
  5
8B9E
  8
0
 62
     0
 10
418.99854015850281
 20
1114.7481776779809
 30
0.0
 11
417.59614415850291
 21
1119.981992677981
 31
0.0
  0
ARC
  5
8B9F
  8
0
 62
     0
 10
262.99854015850292
 20
1117.347315677981
 30
0.0
 40
2.0
 50
270.0
 51
0.0
  0
ARC
  5
8BA0
  8
0
 62
     0
 10
266.99854015850292
 20
1117.950591677981
 30
0.0
 40
2.0
 50
90.0
 51
180.0
  0
LINE
  5
8BA1
  8
0
 62
     0
 10
257.49854015850292
 20
1115.347315677981
 30
0.0
 11
262.99854015850292
 21
1115.347315677981
 31
0.0
  0
LINE
  5
8BA2
  8
0
 62
     0
 10
264.99854015850292
 20
1113.3863296779809
 30
0.0
 11
264.99854015850292
 21
1094.3436856779811
 31
0.0
  0
LINE
  5
8BA4
  8
0
 62
     0
 10
417.99854015850258
 20
1104.5111536779809
 30
0.0
 11
426.99854015850281
 21
1104.5111536779809
 31
0.0
  0
LINE
  5
8BA5
  8
0
 62
     0
 10
266.99854015850292
 20
1092.3436856779811
 30
0.0
 11
414.99854015850281
 21
1092.3436856779811
 31
0.0
  0
LINE
  5
8BA6
  8
0
 62
     0
 10
266.99854015850292
 20
1121.4643536779811
 30
0.0
 11
415.6642921585028
 21
1121.4643536779811
 31
0.0
  0
LINE
  5
8BA7
  8
0
 62
     0
 10
266.99854015850292
 20
1109.9723496779809
 30
0.0
 11
414.99854015850281
 21
1109.9723496779809
 31
0.0
  0
LINE
  5
8BA8
  8
0
 62
     0
 10
266.99854015850292
 20
1118.425133677981
 30
0.0
 11
413.8710481585029
 21
1118.425133677981
 31
0.0
  0
LINE
  5
8BA9
  8
0
 62
     0
 10
266.99854015850292
 20
1119.950591677981
 30
0.0
 11
414.83556415850302
 21
1119.950591677981
 31
0.0
  0
LINE
  5
8BAA
  8
0
 62
     0
 10
266.99854015850292
 20
1120.9612116779811
 30
0.0
 11
415.38325815850283
 21
1120.9612116779811
 31
0.0
  0
LINE
  5
8BAB
  8
0
 62
     0
 10
336.99854015850292
 20
962.47234567798125
 30
0.0
 11
336.99854015850292
 21
959.47234567798125
 31
0.0
  0
LINE
  5
8BAC
  8
0
 62
     0
 10
403.99854015850281
 20
962.47234567798125
 30
0.0
 11
403.99854015850281
 21
959.47234567798125
 31
0.0
  0
LINE
  5
8BAD
  8
0
 62
     0
 10
201.49854015850289
 20
980.67937567798117
 30
0.0
 11
201.49854015850289
 21
1103.587305677981
 31
0.0
  0
LINE
  5
8BAE
  8
0
 62
     0
 10
197.49891015850289
 20
978.87236567798129
 30
0.0
 11
197.49891015850289
 21
1104.072285677981
 31
0.0
  0
LINE
  5
8BAF
  8
0
 62
     0
 10
201.89850015850291
 20
1108.739345677981
 30
0.0
 11
203.02149015850301
 21
1115.1103156779809
 31
0.0
  0
LINE
  5
8BB0
  8
0
 62
     0
 10
208.3836101585029
 20
1119.8542756779809
 30
0.0
 11
234.025580158503
 21
1121.198265677981
 31
0.0
  0
LINE
  5
8BB1
  8
0
 62
     0
 10
234.49854015850289
 20
962.41704567798126
 30
0.0
 11
234.49854015850289
 21
1120.358915677981
 31
0.0
  0
LINE
  5
8BB2
  8
0
 62
     0
 10
205.3604801585029
 20
1113.4992956779811
 30
0.0
 11
205.3604801585029
 21
969.95232567798098
 31
0.0
  0
LINE
  5
8BB3
  8
0
 62
     0
 10
201.89850015850291
 20
974.20534567798097
 30
0.0
 11
203.02149015850301
 21
967.83528567798112
 31
0.0
  0
LINE
  5
8BB4
  8
0
 62
     0
 10
208.38355015850291
 20
963.09133567798096
 30
0.0
 11
234.025580158503
 21
961.74733567798069
 31
0.0
  0
LINE
  5
8BB5
  8
0
 62
     0
 10
235.59156015850289
 20
1122.222315677981
 30
0.0
 11
257.49854015850292
 21
1122.222315677981
 31
0.0
  0
LINE
  5
8BB6
  8
0
 62
     0
 10
235.59156015850289
 20
960.72234567798125
 30
0.0
 11
257.49854015850292
 21
960.72234567798125
 31
0.0
  0
LINE
  5
8BB7
  8
0
 62
     0
 10
403.99854015850281
 20
964.47234567798125
 30
0.0
 11
403.99854015850281
 21
962.47234567798125
 31
0.0
  0
LINE
  5
8BB8
  8
0
 62
     0
 10
336.99854015850292
 20
964.47234567798125
 30
0.0
 11
336.99854015850292
 21
962.47234567798125
 31
0.0
  0
LINE
  5
8BB9
  8
0
 62
     0
 10
336.99854015850292
 20
962.47234567798125
 30
0.0
 11
403.99854015850281
 21
962.47234567798125
 31
0.0
  0
LINE
  5
8BBA
  8
0
 62
     0
 10
266.99854015850292
 20
964.47234567798125
 30
0.0
 11
413.77906015850277
 21
964.47234567798125
 31
0.0
  0
LINE
  5
8BBB
  8
0
 62
     0
 10
380.49854015850281
 20
1067.4723456779809
 30
0.0
 11
257.49854015850292
 21
1067.4723456779809
 31
0.0
  0
LINE
  5
8BBC
  8
0
 62
     0
 10
380.49854015850281
 20
1015.472345677981
 30
0.0
 11
257.49854015850292
 21
1015.472345677981
 31
0.0
  0
LINE
  5
8BBD
  8
0
 62
     0
 10
396.49854015850292
 20
1068.4723456779809
 30
0.0
 11
396.49854015850292
 21
1074.4723456779809
 31
0.0
  0
LINE
  5
8BBE
  8
0
 62
     0
 10
381.49854015850292
 20
1068.4723456779809
 30
0.0
 11
381.49854015850292
 21
1074.4723456779809
 31
0.0
  0
LINE
  5
8BBF
  8
0
 62
     0
 10
396.49854015850292
 20
1014.472345677981
 30
0.0
 11
396.49854015850292
 21
1008.472345677981
 31
0.0
  0
LINE
  5
8BC0
  8
0
 62
     0
 10
381.49854015850292
 20
1014.472345677981
 30
0.0
 11
381.49854015850292
 21
1008.472345677981
 31
0.0
  0
LINE
  5
8BC1
  8
0
 62
     0
 10
352.99854015850292
 20
1061.9723456779809
 30
0.0
 11
352.99854015850292
 21
1020.972345677981
 31
0.0
  0
LINE
  5
8BC2
  8
0
 62
     0
 10
415.99854015850292
 20
1061.9723456779809
 30
0.0
 11
415.99854015850292
 21
1020.972345677981
 31
0.0
  0
LINE
  5
8BC3
  8
0
 62
     0
 10
352.99854015850292
 20
1061.9723456779809
 30
0.0
 11
415.99854015850292
 21
1061.9723456779809
 31
0.0
  0
LINE
  5
8BC4
  8
0
 62
     0
 10
352.99854015850292
 20
1020.972345677981
 30
0.0
 11
415.99854015850292
 21
1020.972345677981
 31
0.0
  0
LINE
  5
8BC5
  8
0
 62
     0
 10
352.99854015850292
 20
1054.4723456779809
 30
0.0
 11
415.99854015850292
 21
1054.4723456779809
 31
0.0
  0
LINE
  5
8BC6
  8
0
 62
     0
 10
264.99854015850292
 20
1044.4723456779809
 30
0.0
 11
264.99854015850292
 21
1038.4723456779809
 31
0.0
  0
LINE
  5
8BC7
  8
0
 62
     0
 10
415.71064015850283
 20
965.95363567798097
 30
0.0
 11
416.69855015850288
 21
969.63231567798096
 31
0.0
  0
LINE
  5
8BC8
  8
0
 62
     0
 10
415.12256015850289
 20
965.95363567798097
 30
0.0
 11
416.69855015850288
 21
971.8223556779808
 31
0.0
  0
LINE
  5
8BC9
  8
0
 62
     0
 10
416.99854015850258
 20
1004.514125677981
 30
0.0
 11
416.99854015850258
 21
967.97234567798125
 31
0.0
  0
LINE
  5
8BCA
  8
0
 62
     0
 10
415.99854015850292
 20
1017.472345677981
 30
0.0
 11
257.49854015850292
 21
1017.472345677981
 31
0.0
  0
LINE
  5
8BCB
  8
0
 62
     0
 10
415.99854015850292
 20
1015.472345677981
 30
0.0
 11
397.49854015850281
 21
1015.472345677981
 31
0.0
  0
LINE
  5
8BCC
  8
0
 62
     0
 10
348.99854015850292
 20
1025.4723456779809
 30
0.0
 11
257.49854015850292
 21
1025.4723456779809
 31
0.0
  0
LINE
  5
8BCD
  8
0
 62
     0
 10
348.99854015850292
 20
1027.4723456779809
 30
0.0
 11
257.49854015850292
 21
1027.4723456779809
 31
0.0
  0
LINE
  5
8BCE
  8
0
 62
     0
 10
348.99854015850292
 20
1035.4723456779809
 30
0.0
 11
257.49854015850292
 21
1035.4723456779809
 31
0.0
  0
LINE
  5
8BCF
  8
0
 62
     0
 10
348.99854015850292
 20
1037.4723456779809
 30
0.0
 11
265.99854015850292
 21
1037.4723456779809
 31
0.0
  0
LINE
  5
8BD0
  8
0
 62
     0
 10
415.99854015850292
 20
995.47234567798125
 30
0.0
 11
257.49854015850292
 21
995.47234567798125
 31
0.0
  0
LINE
  5
8BD1
  8
0
 62
     0
 10
415.99854015850292
 20
1007.472345677981
 30
0.0
 11
257.49854015850292
 21
1007.472345677981
 31
0.0
  0
LINE
  5
8BD2
  8
0
 62
     0
 10
415.99854015850292
 20
1005.472345677981
 30
0.0
 11
257.49854015850292
 21
1005.472345677981
 31
0.0
  0
LINE
  5
8BD3
  8
0
 62
     0
 10
415.99854015850292
 20
997.47234567798125
 30
0.0
 11
257.49854015850292
 21
997.47234567798125
 31
0.0
  0
LINE
  5
8BD4
  8
0
 62
     0
 10
415.99854015850292
 20
1085.4723456779809
 30
0.0
 11
257.49854015850292
 21
1085.4723456779809
 31
0.0
  0
LINE
  5
8BD5
  8
0
 62
     0
 10
415.99854015850292
 20
1077.4723456779809
 30
0.0
 11
257.49854015850292
 21
1077.4723456779809
 31
0.0
  0
LINE
  5
8BD6
  8
0
 62
     0
 10
415.99854015850292
 20
1075.4723456779809
 30
0.0
 11
257.49854015850292
 21
1075.4723456779809
 31
0.0
  0
LINE
  5
8BD7
  8
0
 62
     0
 10
415.99854015850292
 20
1087.4723456779809
 30
0.0
 11
257.49854015850292
 21
1087.4723456779809
 31
0.0
  0
LINE
  5
8BD8
  8
0
 62
     0
 10
348.99854015850292
 20
1045.4723456779809
 30
0.0
 11
265.99854015850292
 21
1045.4723456779809
 31
0.0
  0
LINE
  5
8BD9
  8
0
 62
     0
 10
348.99854015850292
 20
1047.4723456779809
 30
0.0
 11
257.49854015850292
 21
1047.4723456779809
 31
0.0
  0
LINE
  5
8BDA
  8
0
 62
     0
 10
348.99854015850292
 20
1055.4723456779809
 30
0.0
 11
257.49854015850292
 21
1055.4723456779809
 31
0.0
  0
LINE
  5
8BDB
  8
0
 62
     0
 10
348.99854015850292
 20
1057.4723456779809
 30
0.0
 11
257.49854015850292
 21
1057.4723456779809
 31
0.0
  0
LINE
  5
8BDC
  8
0
 62
     0
 10
415.99854015850292
 20
1067.4723456779809
 30
0.0
 11
397.49854015850281
 21
1067.4723456779809
 31
0.0
  0
LINE
  5
8BDD
  8
0
 62
     0
 10
415.99854015850292
 20
1065.4723456779809
 30
0.0
 11
257.49854015850292
 21
1065.4723456779809
 31
0.0
  0
LINE
  5
8BDE
  8
0
 62
     0
 10
416.99854015850258
 20
1078.4305656779809
 30
0.0
 11
416.99854015850258
 21
1107.9723496779809
 31
0.0
  0
LINE
  5
8BDF
  8
0
 62
     0
 10
257.49854015850292
 20
1122.222315677981
 30
0.0
 11
257.49854015850292
 21
960.72234567798125
 31
0.0
  0
ARC
  5
8BE0
  8
0
 62
     0
 10
233.99854015850289
 20
1121.697285677981
 30
0.0
 40
0.5
 50
272.99997000000388
 51
335.5439499999946
  0
ARC
  5
8BE1
  8
0
 62
     0
 10
208.68445015850281
 20
1114.1123256779811
 30
0.0
 40
5.75
 50
92.999986000002295
 51
169.9999800000015
  0
ARC
  5
8BE2
  8
0
 62
     0
 10
235.59156015850289
 20
1120.972315677981
 30
0.0
 40
1.25
 50
89.999988999997555
 51
155.54397999999961
  0
ARC
  5
8BE3
  8
0
 62
     0
 10
199.74891015850289
 20
1104.072285677981
 30
0.0
 40
2.25
 50
98.816587999996798
 51
179.99997999999789
  0
ARC
  5
8BE4
  8
0
 62
     0
 10
198.94422015850279
 20
1109.260395677981
 30
0.0
 40
3.0
 50
278.81696999999838
 51
349.99994999999677
  0
ARC
  5
8BE5
  8
0
 62
     0
 10
199.74891015850289
 20
978.87236567798129
 30
0.0
 40
2.25
 50
179.99997999999789
 51
261.1829399999977
  0
ARC
  5
8BE6
  8
0
 62
     0
 10
198.94422015850279
 20
973.68438567798103
 30
0.0
 40
3.0
 50
9.9998319999903433
 51
81.183191000000207
  0
ARC
  5
8BE7
  8
0
 62
     0
 10
233.99854015850289
 20
961.24834567798109
 30
0.0
 40
0.5
 50
24.45639900000074
 51
86.999985000000038
  0
ARC
  5
8BE8
  8
0
 62
     0
 10
208.68445015850281
 20
968.83330567798123
 30
0.0
 40
5.75
 50
189.99997999999979
 51
266.9999499999966
  0
ARC
  5
8BE9
  8
0
 62
     0
 10
235.59156015850289
 20
961.97234567798068
 30
0.0
 40
1.25
 50
204.45597000000731
 51
269.99995999999589
  0
ARC
  5
8BEA
  8
0
 62
     0
 10
413.77906015850277
 20
966.47234567798091
 30
0.0
 40
2.0
 50
269.999989999999
 51
344.96830999999543
  0
ARC
  5
8BEB
  8
0
 62
     0
 10
413.19098015850273
 20
966.47234567798091
 30
0.0
 40
2.0
 50
269.999989999999
 51
344.96830999999543
  0
ARC
  5
8BEC
  8
0
 62
     0
 10
397.49854015850281
 20
1008.472345677981
 30
0.0
 40
1.0
 50
179.999989999999
 51
270.0
  0
ARC
  5
8BED
  8
0
 62
     0
 10
380.49854015850281
 20
1008.472345677981
 30
0.0
 40
1.0
 50
269.999989999999
 51
0.0000009999948896
  0
ARC
  5
8BEE
  8
0
 62
     0
 10
380.49854015850281
 20
1074.4723456779809
 30
0.0
 40
1.0
 50
0.0
 51
90.00000299999769
  0
ARC
  5
8BEF
  8
0
 62
     0
 10
397.49854015850281
 20
1074.4723456779809
 30
0.0
 40
1.0
 50
90.00000299999769
 51
180.000010000001
  0
ARC
  5
8BF0
  8
0
 62
     0
 10
397.49854015850281
 20
1014.472345677981
 30
0.0
 40
1.0
 50
90.00000299999769
 51
180.000010000001
  0
ARC
  5
8BF1
  8
0
 62
     0
 10
380.49854015850281
 20
1014.472345677981
 30
0.0
 40
1.0
 50
0.0
 51
90.00000299999769
  0
ARC
  5
8BF2
  8
0
 62
     0
 10
397.49854015850281
 20
1068.4723456779809
 30
0.0
 40
1.0
 50
179.999989999999
 51
270.0
  0
ARC
  5
8BF3
  8
0
 62
     0
 10
380.49854015850281
 20
1068.4723456779809
 30
0.0
 40
1.0
 50
269.999989999999
 51
0.0000009999948896
  0
CIRCLE
  5
8BF4
  8
0
 62
     0
 10
391.49854015850281
 20
1069.9723456779809
 30
0.0
 40
1.0
  0
CIRCLE
  5
8BF5
  8
0
 62
     0
 10
386.49854015850292
 20
1069.9723456779809
 30
0.0
 40
1.149999999999999
  0
CIRCLE
  5
8BF6
  8
0
 62
     0
 10
386.49854015850292
 20
1069.9723456779809
 30
0.0
 40
1.1000000000000001
  0
CIRCLE
  5
8BF7
  8
0
 62
     0
 10
386.49854015850292
 20
1012.972345677981
 30
0.0
 40
1.1000000000000001
  0
CIRCLE
  5
8BF8
  8
0
 62
     0
 10
386.49854015850292
 20
1012.972345677981
 30
0.0
 40
1.149999999999999
  0
CIRCLE
  5
8BF9
  8
0
 62
     0
 10
391.49854015850281
 20
1012.972345677981
 30
0.0
 40
1.0
  0
ARC
  5
8BFA
  8
0
 62
     0
 10
348.99854015850292
 20
1056.4723456779809
 30
0.0
 40
1.0
 50
269.999989999999
 51
90.00000299999769
  0
ARC
  5
8BFB
  8
0
 62
     0
 10
348.99854015850292
 20
1046.4723456779809
 30
0.0
 40
1.0
 50
269.999989999999
 51
90.00000299999769
  0
ARC
  5
8BFC
  8
0
 62
     0
 10
348.99854015850292
 20
1036.4723456779809
 30
0.0
 40
1.0
 50
269.999989999999
 51
90.00000299999769
  0
ARC
  5
8BFD
  8
0
 62
     0
 10
348.99854015850292
 20
1026.4723456779809
 30
0.0
 40
1.0
 50
269.999989999999
 51
90.00000299999769
  0
ARC
  5
8BFE
  8
0
 62
     0
 10
414.04853015850279
 20
1006.472345677981
 30
0.0
 40
1.0
 50
269.999989999999
 51
90.00000299999769
  0
ARC
  5
8BFF
  8
0
 62
     0
 10
415.99854015850292
 20
1006.472345677981
 30
0.0
 40
1.0
 50
269.999989999999
 51
90.00000299999769
  0
ARC
  5
8C00
  8
0
 62
     0
 10
414.04853015850279
 20
1016.472345677981
 30
0.0
 40
1.0
 50
269.999989999999
 51
90.00000299999769
  0
ARC
  5
8C01
  8
0
 62
     0
 10
415.99854015850292
 20
1016.472345677981
 30
0.0
 40
1.0
 50
269.999989999999
 51
90.00000299999769
  0
ARC
  5
8C02
  8
0
 62
     0
 10
414.04853015850279
 20
1066.4723456779809
 30
0.0
 40
1.0
 50
269.999989999999
 51
90.00000299999769
  0
ARC
  5
8C03
  8
0
 62
     0
 10
415.99854015850292
 20
1066.4723456779809
 30
0.0
 40
1.0
 50
269.999989999999
 51
90.00000299999769
  0
ARC
  5
8C04
  8
0
 62
     0
 10
414.04853015850279
 20
1076.4723456779809
 30
0.0
 40
1.0
 50
269.999989999999
 51
90.00000299999769
  0
ARC
  5
8C05
  8
0
 62
     0
 10
415.99854015850292
 20
1076.4723456779809
 30
0.0
 40
1.0
 50
269.999989999999
 51
90.00000299999769
  0
ARC
  5
8C06
  8
0
 62
     0
 10
265.99854015850292
 20
1044.4723456779809
 30
0.0
 40
1.0
 50
90.00000299999769
 51
180.000010000001
  0
ARC
  5
8C07
  8
0
 62
     0
 10
265.99854015850292
 20
1038.4723456779809
 30
0.0
 40
1.0
 50
179.999989999999
 51
270.0
  0
ARC
  5
8C08
  8
0
 62
     0
 10
265.99851015850288
 20
1026.4723456779809
 30
0.0
 40
1.0
 50
90.00000299999769
 51
270.0
  0
ARC
  5
8C09
  8
0
 62
     0
 10
265.99851015850288
 20
1016.472345677981
 30
0.0
 40
1.0
 50
90.00000299999769
 51
270.0
  0
ARC
  5
8C0A
  8
0
 62
     0
 10
414.04853015850279
 20
996.47234567798125
 30
0.0
 40
1.0
 50
269.999989999999
 51
90.00000299999769
  0
ARC
  5
8C0B
  8
0
 62
     0
 10
415.99854015850292
 20
996.47234567798125
 30
0.0
 40
1.0
 50
269.999989999999
 51
90.00000299999769
  0
ARC
  5
8C0C
  8
0
 62
     0
 10
265.99851015850288
 20
996.47234567798125
 30
0.0
 40
1.0
 50
90.00000299999769
 51
270.0
  0
ARC
  5
8C0D
  8
0
 62
     0
 10
265.99851015850288
 20
1006.472345677981
 30
0.0
 40
1.0
 50
90.00000299999769
 51
270.0
  0
ARC
  5
8C0E
  8
0
 62
     0
 10
418.1446001585029
 20
969.25194567798121
 30
0.0
 40
1.4952499999999991
 50
140.0376499999945
 51
165.2626000000021
  0
ARC
  5
8C0F
  8
0
 62
     0
 10
418.13953015850302
 20
971.42784567798083
 30
0.0
 40
1.4940209999999989
 50
139.79258000000129
 51
164.69034000000019
  0
ARC
  5
8C10
  8
0
 62
     0
 10
418.14270015850281
 20
1115.239405677981
 30
0.0
 40
1.495147999999999
 50
195.00188999999011
 51
195.00621300001109
  0
ARC
  5
8C11
  8
0
 62
     0
 10
265.99851015850288
 20
1076.4723456779809
 30
0.0
 40
1.0
 50
90.00000299999769
 51
270.0
  0
ARC
  5
8C12
  8
0
 62
     0
 10
265.99851015850288
 20
1086.4723456779809
 30
0.0
 40
1.0
 50
90.00000299999769
 51
270.0
  0
ARC
  5
8C13
  8
0
 62
     0
 10
415.99854015850292
 20
1086.4723456779809
 30
0.0
 40
1.0
 50
269.999989999999
 51
90.00000299999769
  0
ARC
  5
8C14
  8
0
 62
     0
 10
414.04853015850279
 20
1086.4723456779809
 30
0.0
 40
1.0
 50
269.999989999999
 51
90.00000299999769
  0
ARC
  5
8C15
  8
0
 62
     0
 10
265.99851015850288
 20
1066.4723456779809
 30
0.0
 40
1.0
 50
90.00000299999769
 51
270.0
  0
ARC
  5
8C16
  8
0
 62
     0
 10
265.99851015850288
 20
1056.4723456779809
 30
0.0
 40
1.0
 50
90.00000299999769
 51
270.0
  0
LINE
  5
8C17
  8
0
 62
     0
 10
426.9985461585029
 20
1114.972350677981
 30
0.0
 11
418.93847315850257
 21
1114.972350677981
 31
0.0
  0
LINE
  5
8C18
  8
0
 62
     0
 10
417.99854015850258
 20
1004.514125677981
 30
0.0
 11
426.99854015850281
 21
1004.514125677981
 31
0.0
  0
LINE
  5
8C19
  8
0
 62
     0
 10
417.99854015850258
 20
1078.4305656779809
 30
0.0
 11
426.99854015850281
 21
1078.4305656779809
 31
0.0
  0
ARC
  5
8C1A
  8
0
  6
CONTINUOUS
 62
     0
 10
414.59854715850298
 20
987.16337267798099
 30
0.0
 40
2.2000009999999981
 50
90.000022000001564
 51
179.99999700000231
  0
ARC
  5
8C1B
  8
0
  6
CONTINUOUS
 62
     0
 10
414.59854715850298
 20
982.56336667798109
 30
0.0
 40
2.1999970000000002
 50
180.00001799999919
 51
270.0
  0
LINE
  5
8C1C
  8
0
  6
CONTINUOUS
 62
     0
 10
416.99853815850281
 20
984.91281467798126
 30
0.0
 11
415.69853815850291
 21
985.66336967798122
 31
0.0
  0
LINE
  5
8C1D
  8
0
  6
CONTINUOUS
 62
     0
 10
416.99853815850281
 20
983.91281467798115
 30
0.0
 11
415.69853815850291
 21
984.66336967798134
 31
0.0
  0
LINE
  5
8C1E
  8
0
  6
CONTINUOUS
 62
     0
 10
415.69853815850291
 20
980.26336967798068
 30
0.0
 11
416.99853815850281
 21
980.26336967798068
 31
0.0
  0
LINE
  5
8C1F
  8
0
  6
CONTINUOUS
 62
     0
 10
415.69853815850291
 20
989.46336967798129
 30
0.0
 11
416.99853815850281
 21
989.46336967798129
 31
0.0
  0
LINE
  5
8C20
  8
0
  6
CONTINUOUS
 62
     0
 10
416.99853815850281
 20
980.26336967798068
 30
0.0
 11
416.99853815850281
 21
989.46336967798129
 31
0.0
  0
LINE
  5
8C21
  8
0
  6
CONTINUOUS
 62
     0
 10
412.39853515850268
 20
982.56336667798109
 30
0.0
 11
412.39853515850268
 21
987.16337267798099
 31
0.0
  0
LINE
  5
8C22
  8
0
  6
CONTINUOUS
 62
     0
 10
415.69853815850291
 20
980.26336967798068
 30
0.0
 11
415.69853815850291
 21
989.46336967798129
 31
0.0
  0
LINE
  5
8C23
  8
0
  6
CONTINUOUS
 62
     0
 10
415.69853815850291
 20
989.36336967798127
 30
0.0
 11
414.59854715850298
 21
989.36336967798127
 31
0.0
  0
LINE
  5
8C24
  8
0
  6
CONTINUOUS
 62
     0
 10
415.69853815850291
 20
980.36336967798115
 30
0.0
 11
414.59854715850298
 21
980.36336967798115
 31
0.0
  0
ARC
  5
8C2B
  8
0
  6
CONTINUOUS
 62
     0
 10
414.59854915850281
 20
1095.7813196779809
 30
0.0
 40
2.2000009999999981
 50
180.00000299999761
 51
269.99997799999852
  0
ARC
  5
8C2C
  8
0
  6
CONTINUOUS
 62
     0
 10
414.59854915850281
 20
1100.3813256779811
 30
0.0
 40
2.1999970000000002
 50
90.0
 51
179.99998200000081
  0
LINE
  5
8C2D
  8
0
  6
CONTINUOUS
 62
     0
 10
416.99854015850258
 20
1098.0318776779809
 30
0.0
 11
415.69854015850279
 21
1097.2813226779811
 31
0.0
  0
LINE
  5
8C2E
  8
0
  6
CONTINUOUS
 62
     0
 10
416.99854015850258
 20
1099.0318776779809
 30
0.0
 11
415.69854015850279
 21
1098.2813226779811
 31
0.0
  0
LINE
  5
8C2F
  8
0
  6
CONTINUOUS
 62
     0
 10
415.69854015850279
 20
1102.6813226779809
 30
0.0
 11
416.99854015850258
 21
1102.6813226779809
 31
0.0
  0
LINE
  5
8C30
  8
0
  6
CONTINUOUS
 62
     0
 10
415.69854015850279
 20
1093.4813226779811
 30
0.0
 11
416.99854015850258
 21
1093.4813226779811
 31
0.0
  0
LINE
  5
8C31
  8
0
  6
CONTINUOUS
 62
     0
 10
416.99854015850258
 20
1102.6813226779809
 30
0.0
 11
416.99854015850258
 21
1093.4813226779811
 31
0.0
  0
LINE
  5
8C32
  8
0
  6
CONTINUOUS
 62
     0
 10
412.39853715850262
 20
1100.3813256779811
 30
0.0
 11
412.39853715850262
 21
1095.7813196779809
 31
0.0
  0
LINE
  5
8C33
  8
0
  6
CONTINUOUS
 62
     0
 10
415.69854015850279
 20
1102.6813226779809
 30
0.0
 11
415.69854015850279
 21
1093.4813226779811
 31
0.0
  0
LINE
  5
8C34
  8
0
  6
CONTINUOUS
 62
     0
 10
415.69854015850279
 20
1093.581322677981
 30
0.0
 11
414.59854915850281
 21
1093.581322677981
 31
0.0
  0
LINE
  5
8C35
  8
0
  6
CONTINUOUS
 62
     0
 10
415.69854015850279
 20
1102.581322677981
 30
0.0
 11
414.59854915850281
 21
1102.581322677981
 31
0.0
  0
LINE
  5
8E9D
  8
0
  6
CONTINUOUS
 62
     7
 10
595.99854015850315
 20
1174.4723481779811
 30
0.0
 11
595.99854015850315
 21
1046.4723481779811
 31
0.0
  0
LINE
  5
8E9E
  8
0
  6
CONTINUOUS
 62
     7
 10
595.99854015850315
 20
908.47228817798066
 30
0.0
 11
570.82404015850273
 21
909.35143817798075
 31
0.0
  0
LINE
  5
8E9F
  8
0
  6
CONTINUOUS
 62
     7
 10
595.99848015850296
 20
1174.4723481779811
 30
0.0
 11
570.82391015850305
 21
1173.5931981779811
 31
0.0
  0
LINE
  5
8EA0
  8
0
  6
CONTINUOUS
 62
     7
 10
561.17298015850304
 20
1153.49590817798
 30
0.0
 11
544.82398015850265
 21
1152.9249781779811
 31
0.0
  0
LINE
  5
8EA1
  8
0
  6
CONTINUOUS
 62
     7
 10
561.17298015850304
 20
929.44878817798076
 30
0.0
 11
544.82398015850265
 21
930.01970817798076
 31
0.0
  0
LINE
  5
8EA2
  8
0
  6
CONTINUOUS
 62
     7
 10
539.99848015850318
 20
935.01665817798062
 30
0.0
 11
539.99848015850318
 21
1147.9279781779801
 31
0.0
  0
LINE
  5
8EA3
  8
0
  6
CENTER
 62
     7
 10
577.99854015850315
 20
1026.291988177981
 30
0.0
 11
577.99854015850315
 21
1056.02690817798
 31
0.0
  0
LINE
  5
8EA4
  8
0
  6
CONTINUOUS
 62
     7
 10
557.99854015850303
 20
1036.4723481779811
 30
0.0
 11
597.99854015850315
 21
1036.4723481779811
 31
0.0
  0
LINE
  5
8EA5
  8
0
  6
CONTINUOUS
 62
     7
 10
557.99854015850303
 20
1046.4723481779811
 30
0.0
 11
597.99854015850315
 21
1046.4723481779811
 31
0.0
  0
LINE
  5
8EA6
  8
0
  6
CONTINUOUS
 62
     7
 10
595.99854015850315
 20
1036.4723481779811
 30
0.0
 11
595.99854015850315
 21
908.47228817798066
 31
0.0
  0
LINE
  5
8EA7
  8
0
  6
CONTINUOUS
 62
     7
 10
565.99848015850296
 20
914.34838817798084
 30
0.0
 11
565.99848015850296
 21
1030.93675817798
 31
0.0
  0
LINE
  5
8EA8
  8
0
  6
CONTINUOUS
 62
     7
 10
565.99848015850296
 20
1052.0079281779811
 30
0.0
 11
565.99848015850296
 21
1168.5962481779809
 31
0.0
  0
LINE
  5
8EA9
  8
0
  6
CONTINUOUS
 62
     7
 10
518.99848015850307
 20
968.46611817798066
 30
0.0
 11
539.99848015850318
 21
968.46611817798066
 31
0.0
  0
LINE
  5
8EAA
  8
0
  6
CONTINUOUS
 62
     7
 10
518.99848015850307
 20
984.69652817798033
 30
0.0
 11
539.99848015850318
 21
984.69652817798033
 31
0.0
  0
LINE
  5
8EAB
  8
0
  6
CONTINUOUS
 62
     7
 10
518.99848015850307
 20
1098.24809817798
 30
0.0
 11
539.99848015850318
 21
1098.24809817798
 31
0.0
  0
LINE
  5
8EAC
  8
0
  6
CONTINUOUS
 62
     7
 10
518.99848015850307
 20
1124.6674781779809
 30
0.0
 11
539.99848015850318
 21
1124.6674781779809
 31
0.0
  0
LINE
  5
8EAD
  8
0
  6
CONTINUOUS
 62
     7
 10
518.99848015850307
 20
1124.6674781779809
 30
0.0
 11
518.99848015850307
 21
1098.24809817798
 31
0.0
  0
LINE
  5
8EAE
  8
0
  6
CONTINUOUS
 62
     7
 10
518.99848015850307
 20
984.69652817798033
 30
0.0
 11
518.99848015850307
 21
958.27715817798037
 31
0.0
  0
LINE
  5
8EAF
  8
0
  6
CONTINUOUS
 62
     7
 10
518.99848015850307
 20
958.27715817798037
 30
0.0
 11
539.99848015850318
 21
958.27715817798037
 31
0.0
  0
LINE
  5
8EB0
  8
0
  6
CONTINUOUS
 62
     7
 10
516.99854015850315
 20
943.97228817798077
 30
0.0
 11
535.17304015850289
 21
943.33763817798081
 31
0.0
  0
LINE
  5
8EB1
  8
0
  6
CONTINUOUS
 62
     7
 10
518.99848015850307
 20
1114.4785081779801
 30
0.0
 11
539.99848015850318
 21
1114.4785081779801
 31
0.0
  0
LINE
  5
8EB2
  8
0
  6
CONTINUOUS
 62
     7
 10
516.99860015850265
 20
1138.9723481779811
 30
0.0
 11
535.17310015850296
 21
1139.6069881779811
 31
0.0
  0
LINE
  5
8EB3
  8
0
  6
CONTINUOUS
 62
     7
 10
516.99860015850265
 20
1138.9723481779811
 30
0.0
 11
516.99860015850265
 21
943.97234817798073
 31
0.0
  0
LINE
  5
8EB4
  8
0
  6
CONTINUOUS
 62
     7
 10
514.99848015850318
 20
942.47234817798085
 30
0.0
 11
516.99848015850284
 21
944.47234817798085
 31
0.0
  0
LINE
  5
8EB5
  8
0
  6
CONTINUOUS
 62
     7
 10
514.99854015850315
 20
1141.4723481779799
 30
0.0
 11
517.4816716615062
 21
1138.989216674978
 31
0.0
  0
LINE
  5
8EB6
  8
0
  6
CONTINUOUS
 62
     7
 10
740.99854015850281
 20
901.47234817798085
 30
0.0
 11
745.99854015850269
 21
901.47234817798085
 31
0.0
  0
LINE
  5
8EB7
  8
0
  6
CONTINUOUS
 62
     7
 10
745.99854015850269
 20
1011.472348177981
 30
0.0
 11
748.99848015850284
 21
1011.472348177981
 31
0.0
  0
LINE
  5
8EB8
  8
0
  6
CONTINUOUS
 62
     7
 10
723.82410015850314
 20
877.07207817798076
 30
0.0
 11
740.99860015850277
 21
876.47234817798085
 31
0.0
  0
LINE
  5
8EB9
  8
0
  6
CONTINUOUS
 62
     7
 10
768.99854015850315
 20
1049.4722881779801
 30
0.0
 11
830.99848015850273
 21
1049.4722881779801
 31
0.0
  0
LINE
  5
8EBA
  8
0
  6
CONTINUOUS
 62
     7
 10
595.99854015850315
 20
908.47228817798066
 30
0.0
 11
712.15527015850284
 21
904.41600817798064
 31
0.0
  0
LINE
  5
8EBB
  8
0
  6
CONTINUOUS
 62
     7
 10
715.51636015850283
 20
902.95464817798097
 30
0.0
 11
718.99860015850265
 21
899.47240817798047
 31
0.0
  0
LINE
  5
8EBC
  8
0
  6
CONTINUOUS
 62
     7
 10
768.99854015850315
 20
1033.4722881779801
 30
0.0
 11
830.99848015850273
 21
1033.4722881779801
 31
0.0
  0
LINE
  5
8EBD
  8
0
  6
CONTINUOUS
 62
     7
 10
748.99848015850284
 20
1071.4723481779811
 30
0.0
 11
748.99848015850284
 21
1011.472348177981
 31
0.0
  0
LINE
  5
8EBE
  8
0
  6
CONTINUOUS
 62
     7
 10
745.99854015850269
 20
1071.4723481779811
 30
0.0
 11
748.99848015850284
 21
1071.4723481779811
 31
0.0
  0
LINE
  5
8EBF
  8
0
  6
CONTINUOUS
 62
     7
 10
768.99848015850284
 20
1049.4722881779801
 30
0.0
 11
768.99848015850284
 21
1033.4722881779801
 31
0.0
  0
LINE
  5
8EC0
  8
0
  6
CONTINUOUS
 62
     7
 10
830.99848015850273
 20
1068.9723481779811
 30
0.0
 11
830.99848015850273
 21
1013.972348177981
 31
0.0
  0
LINE
  5
8EC1
  8
0
  6
CONTINUOUS
 62
     7
 10
748.99848015850284
 20
1013.972348177981
 30
0.0
 11
830.99848015850273
 21
1013.972348177981
 31
0.0
  0
LINE
  5
8EC2
  8
0
  6
CONTINUOUS
 62
     7
 10
748.99848015850284
 20
1068.9723481779811
 30
0.0
 11
830.99848015850273
 21
1068.9723481779811
 31
0.0
  0
LINE
  5
8EC3
  8
0
  6
CONTINUOUS
 62
     7
 10
707.64868015850266
 20
954.63066817798085
 30
0.0
 11
718.99854015850315
 21
946.30693817798078
 31
0.0
  0
LINE
  5
8EC4
  8
0
  6
CONTINUOUS
 62
     7
 10
678.34808015850308
 20
944.10826817798034
 30
0.0
 11
716.58734015850268
 21
920.96587817798081
 31
0.0
  0
LINE
  5
8EC5
  8
0
  6
CONTINUOUS
 62
     7
 10
680.93695015850267
 20
955.5988081779808
 30
0.0
 11
704.69177015850266
 21
955.5988081779808
 31
0.0
  0
LINE
  5
8EC6
  8
0
  6
CONTINUOUS
 62
     7
 10
680.92767015850268
 20
953.82189817798076
 30
0.0
 11
716.49677015850284
 21
932.29546817798098
 31
0.0
  0
LINE
  5
8EC7
  8
0
  6
CONTINUOUS
 62
     7
 10
675.9369501585029
 20
948.38591817798067
 30
0.0
 11
675.9369501585029
 21
950.5988081779808
 31
0.0
  0
LINE
  5
8EC8
  8
0
  6
CONTINUOUS
 62
     7
 10
595.99854015850315
 20
1174.4723481779811
 30
0.0
 11
712.15527015850284
 21
1178.52861817798
 31
0.0
  0
LINE
  5
8EC9
  8
0
  6
CONTINUOUS
 62
     7
 10
715.51636015850283
 20
1179.990048177981
 30
0.0
 11
718.99860015850265
 21
1183.472288177981
 31
0.0
  0
LINE
  5
8ECA
  8
0
  6
CONTINUOUS
 62
     7
 10
723.82410015850314
 20
1205.8726181779809
 30
0.0
 11
740.99860015850277
 21
1206.4723481779811
 31
0.0
  0
LINE
  5
8ECB
  8
0
  6
CONTINUOUS
 62
     7
 10
718.99854015850315
 20
1200.8756081779809
 30
0.0
 11
718.99854015850315
 21
882.06908817798092
 31
0.0
  0
LINE
  5
8ECC
  8
0
  6
CONTINUOUS
 62
     7
 10
740.99854015850281
 20
1206.4723481779811
 30
0.0
 11
740.99854015850281
 21
876.472288177981
 31
0.0
  0
LINE
  5
8ECD
  8
0
  6
CONTINUOUS
 62
     7
 10
740.99854015850281
 20
1181.4723481779799
 30
0.0
 11
745.99854015850269
 21
1181.4723481779799
 31
0.0
  0
LINE
  5
8ECE
  8
0
  6
CONTINUOUS
 62
     7
 10
745.99854015850269
 20
1181.4723481779799
 30
0.0
 11
745.99854015850269
 21
901.47234817798085
 31
0.0
  0
LINE
  5
8ECF
  8
0
  6
CONTINUOUS
 62
     7
 10
727.99860015850277
 20
1165.8214681779809
 30
0.0
 11
727.99860015850277
 21
917.12322817798076
 31
0.0
  0
LINE
  5
8ED0
  8
0
  6
CONTINUOUS
 62
     7
 10
675.9369501585029
 20
1134.5587081779811
 30
0.0
 11
675.9369501585029
 21
1132.3458781779809
 31
0.0
  0
LINE
  5
8ED1
  8
0
  6
CONTINUOUS
 62
     7
 10
680.92767015850268
 20
1129.1227381779811
 30
0.0
 11
716.49677015850284
 21
1150.649168177981
 31
0.0
  0
LINE
  5
8ED2
  8
0
  6
CONTINUOUS
 62
     7
 10
680.93695015850267
 20
1127.3458781779809
 30
0.0
 11
704.69177015850266
 21
1127.3458781779809
 31
0.0
  0
LINE
  5
8ED3
  8
0
  6
CONTINUOUS
 62
     7
 10
678.34808015850308
 20
1138.8363581779811
 30
0.0
 11
716.58734015850268
 21
1161.97881817798
 31
0.0
  0
LINE
  5
8ED4
  8
0
  6
CONTINUOUS
 62
     7
 10
707.64868015850266
 20
1128.313958177981
 30
0.0
 11
718.99854015850315
 21
1136.6377481779809
 31
0.0
  0
ARC
  5
8ED5
  8
0
  6
CONTINUOUS
 62
     7
 10
544.99848015850296
 20
935.01665817798062
 30
0.0
 40
5.0
 50
180.000010000001
 51
268.0000000000029
  0
ARC
  5
8ED6
  8
0
  6
CONTINUOUS
 62
     7
 10
544.99848015850296
 20
1147.9279781779801
 30
0.0
 40
5.0
 50
91.999998000000787
 51
180.000010000001
  0
ARC
  5
8ED7
  8
0
  6
CONTINUOUS
 62
     7
 10
577.99854015850315
 20
1041.4723481779811
 30
0.0
 40
15.0
 50
148.21198000000069
 51
160.5287699999993
  0
ARC
  5
8ED8
  8
0
  6
CONTINUOUS
 62
     7
 10
577.99854015850315
 20
1041.4723481779811
 30
0.0
 40
12.5
 50
23.578179999997541
 51
156.42182000000241
  0
ARC
  5
8ED9
  8
0
  6
CONTINUOUS
 62
     7
 10
557.99854015850303
 20
1041.4723481779811
 30
0.0
 40
5.0
 50
90.00000299999769
 51
270.0
  0
ARC
  5
8EDA
  8
0
  6
CONTINUOUS
 62
     7
 10
597.99854015850315
 20
1041.4723481779811
 30
0.0
 40
5.0
 50
270.0
 51
90.00000299999769
  0
ARC
  5
8EDB
  8
0
  6
CONTINUOUS
 62
     7
 10
577.99854015850315
 20
1041.4723481779811
 30
0.0
 40
12.5
 50
203.5781799999975
 51
336.42182999999483
  0
ARC
  5
8EDC
  8
0
  6
CONTINUOUS
 62
     7
 10
577.99854015850315
 20
1041.4723481779811
 30
0.0
 40
15.0
 50
199.4712300000007
 51
211.78801999999931
  0
ARC
  5
8EDD
  8
0
  6
CONTINUOUS
 62
     7
 10
570.99848015850296
 20
914.34838817798084
 30
0.0
 40
5.0
 50
180.000010000001
 51
268.0000000000029
  0
ARC
  5
8EDE
  8
0
  6
CONTINUOUS
 62
     7
 10
570.99848015850296
 20
1168.5962481779809
 30
0.0
 40
5.0
 50
91.999998000000787
 51
180.000010000001
  0
ARC
  5
8EDF
  8
0
  6
CONTINUOUS
 62
     7
 10
560.99848015850307
 20
1030.93675817798
 30
0.0
 40
5.0
 50
0.0
 51
31.788018000003131
  0
ARC
  5
8EE0
  8
0
  6
CONTINUOUS
 62
     7
 10
560.99848015850307
 20
1052.0079281779811
 30
0.0
 40
5.0
 50
328.21198000000072
 51
0.0
  0
ARC
  5
8EE1
  8
0
  6
CONTINUOUS
 62
     7
 10
534.99854015850315
 20
1144.603938177981
 30
0.0
 40
5.0
 50
271.99999999999699
 51
0.0
  0
ARC
  5
8EE2
  8
0
  6
CONTINUOUS
 62
     7
 10
534.99854015850315
 20
938.34069817798058
 30
0.0
 40
5.0
 50
0.0
 51
88.000000000002998
  0
ARC
  5
8EE3
  8
0
  6
CONTINUOUS
 62
     7
 10
560.99848015850307
 20
924.45183817798079
 30
0.0
 40
5.0
 50
0.0
 51
88.000000000002998
  0
ARC
  5
8EE4
  8
0
  6
CONTINUOUS
 62
     7
 10
560.99848015850307
 20
1158.4928581779809
 30
0.0
 40
5.0
 50
271.99999999999699
 51
0.0
  0
ARC
  5
8EE5
  8
0
  6
CONTINUOUS
 62
     7
 10
719.99854015850281
 20
975.13567817798082
 30
0.0
 40
8.0
 50
270.0
 51
0.0
  0
ARC
  5
8EE6
  8
0
  6
CONTINUOUS
 62
     7
 10
711.98078015850308
 20
899.41912817798095
 30
0.0
 40
5.0
 50
45.00000099999918
 51
88.000000000002998
  0
ARC
  5
8EE7
  8
0
  6
CONTINUOUS
 62
     7
 10
711.98078015850308
 20
1183.5255681779811
 30
0.0
 40
5.0
 50
271.99999999999699
 51
315.0000000000046
  0
ARC
  5
8EE8
  8
0
  6
CONTINUOUS
 62
     7
 10
723.99854015850315
 20
882.06908817798092
 30
0.0
 40
5.0
 50
179.999989999999
 51
268.00000999999878
  0
ARC
  5
8EE9
  8
0
  6
CONTINUOUS
 62
     7
 10
768.99854015850315
 20
1041.4722881779801
 30
0.0
 40
8.0000113999999982
 50
90.00000299999769
 51
270.0
  0
ARC
  5
8EEA
  8
0
  6
CONTINUOUS
 62
     7
 10
680.93695015850267
 20
950.5988081779808
 30
0.0
 40
5.0
 50
90.00000299999769
 51
180.000010000001
  0
ARC
  5
8EEB
  8
0
  6
CONTINUOUS
 62
     7
 10
713.99854015850315
 20
916.6882281779807
 30
0.0
 40
5.0
 50
0.0
 51
58.817640999998339
  0
ARC
  5
8EEC
  8
0
  6
CONTINUOUS
 62
     7
 10
680.93695015850267
 20
948.38591817798067
 30
0.0
 40
5.0
 50
179.999989999999
 51
238.81764999999371
  0
ARC
  5
8EED
  8
0
  6
CONTINUOUS
 62
     7
 10
704.69177015850266
 20
950.5988081779808
 30
0.0
 40
5.0
 50
53.744452999999368
 51
90.00000299999769
  0
ARC
  5
8EEE
  8
0
  6
CONTINUOUS
 62
     7
 10
719.99854015850281
 20
917.12322817798076
 30
0.0
 40
8.0
 50
270.0
 51
0.0
  0
ARC
  5
8EEF
  8
0
  6
CONTINUOUS
 62
     7
 10
723.99854015850315
 20
1200.8756081779809
 30
0.0
 40
5.0
 50
91.999998000000787
 51
180.000010000001
  0
ARC
  5
8EF0
  8
0
  6
CONTINUOUS
 62
     7
 10
719.99854015850281
 20
1107.8089581779809
 30
0.0
 40
8.0
 50
0.0
 51
90.00000299999769
  0
ARC
  5
8EF1
  8
0
  6
CONTINUOUS
 62
     7
 10
719.99854015850281
 20
1165.8214681779809
 30
0.0
 40
8.0
 50
0.0
 51
90.00000299999769
  0
ARC
  5
8EF2
  8
0
  6
CONTINUOUS
 62
     7
 10
704.69177015850266
 20
1132.3458781779809
 30
0.0
 40
5.0
 50
270.0
 51
306.25554999999889
  0
ARC
  5
8EF3
  8
0
  6
CONTINUOUS
 62
     7
 10
680.93695015850267
 20
1134.5587081779811
 30
0.0
 40
5.0
 50
121.1823599999997
 51
180.000010000001
  0
ARC
  5
8EF4
  8
0
  6
CONTINUOUS
 62
     7
 10
713.99854015850315
 20
1166.2564081779799
 30
0.0
 40
5.0
 50
301.18235999999968
 51
0.0
  0
ARC
  5
8EF5
  8
0
  6
CONTINUOUS
 62
     7
 10
680.93695015850267
 20
1132.3458781779809
 30
0.0
 40
5.0
 50
179.999989999999
 51
270.0
  0
POLYLINE
  5
8EF6
  8
0
  6
CONTINUOUS
 62
     7
 66
     1
 10
0.0
 20
0.0
 30
0.0
  0
VERTEX
  5
8EF7
  8
0
  6
CONTINUOUS
 62
     7
 10
714.12366015850284
 20
1178.5973481779811
 30
0.0
  0
VERTEX
  5
8EF8
  8
0
  6
CONTINUOUS
 62
     7
 10
710.89340015850269
 20
1158.5328381779809
 30
0.0
 42
-1.0
  0
SEQEND
  5
8EF9
  8
0
 62
     7
  0
POLYLINE
  5
8EFA
  8
0
  6
CONTINUOUS
 62
     7
 66
     1
 10
0.0
 20
0.0
 30
0.0
  0
VERTEX
  5
8EFB
  8
0
  6
CONTINUOUS
 62
     7
 10
709.08208015850266
 20
925.50804817798075
 30
0.0
 42
0.0020909347
  0
VERTEX
  5
8EFC
  8
0
  6
CONTINUOUS
 62
     7
 10
710.04793015850282
 20
918.46753817798083
 30
0.0
 42
0.0020881749
  0
VERTEX
  5
8EFD
  8
0
  6
CONTINUOUS
 62
     7
 10
711.07251015850284
 20
911.43591817798085
 30
0.0
 42
0.0020849591
  0
VERTEX
  5
8EFE
  8
0
  6
CONTINUOUS
 62
     7
 10
712.15527015850284
 20
904.41606817798095
 30
0.0
  0
SEQEND
  5
8EFF
  8
0
 62
     7
  0
POLYLINE
  5
8F00
  8
0
  6
CONTINUOUS
 62
     7
 66
     1
 10
0.0
 20
0.0
 30
0.0
  0
VERTEX
  5
8F01
  8
0
  6
CONTINUOUS
 62
     7
 10
706.9013701585028
 20
1127.860598177981
 30
0.0
 42
0.01720808
  0
VERTEX
  5
8F02
  8
0
  6
CONTINUOUS
 62
     7
 10
702.48510015850275
 20
1070.4854081779799
 30
0.0
 42
0.0088311605
  0
VERTEX
  5
8F03
  8
0
  6
CONTINUOUS
 62
     7
 10
701.76825015850284
 20
1041.4723481779811
 30
0.0
 42
0.025919753
  0
VERTEX
  5
8F04
  8
0
  6
CONTINUOUS
 62
     7
 10
705.63708015850284
 20
955.50865817798069
 30
0.0
  0
SEQEND
  5
8F05
  8
0
 62
     7
  0
LINE
  5
8F6A
  8
0
  6
CONTINUOUS
 62
     7
 10
516.99854015850269
 20
691.88397869658206
 30
0.0
 11
516.99854015850269
 21
496.88397869658218
 31
0.0
  0
LINE
  5
8F6B
  8
0
  6
CONTINUOUS
 62
     7
 10
748.99848015850296
 20
666.88397869658229
 30
0.0
 11
830.99848015850273
 21
666.88397869658229
 31
0.0
  0
LINE
  5
8F6C
  8
0
  6
CONTINUOUS
 62
     7
 10
830.99848015850273
 20
670.88393869658228
 30
0.0
 11
830.99848015850273
 21
611.88397869658218
 31
0.0
  0
LINE
  5
8F6D
  8
0
  6
CONTINUOUS
 62
     7
 10
748.99848015850296
 20
611.88397869658218
 30
0.0
 11
830.99848015850273
 21
611.88397869658218
 31
0.0
  0
LINE
  5
8F6E
  8
0
  6
CONTINUOUS
 62
     7
 10
768.99848015850307
 20
670.88393869658228
 30
0.0
 11
830.99848015850273
 21
670.88393869658228
 31
0.0
  0
LINE
  5
8F6F
  8
0
  6
CONTINUOUS
 62
     7
 10
768.99848015850307
 20
670.88393869658228
 30
0.0
 11
768.99848015850307
 21
666.88397869658229
 31
0.0
  0
LINE
  5
8F70
  8
0
  6
CONTINUOUS
 62
     7
 10
568.204470158503
 20
770.38393869658205
 30
0.0
 11
587.79254015850302
 21
770.38393869658205
 31
0.0
  0
LINE
  5
8F71
  8
0
  6
CONTINUOUS
 62
     7
 10
565.49848015850307
 20
761.38397869658206
 30
0.0
 11
567.74896015850265
 21
769.782868696582
 31
0.0
  0
LINE
  5
8F72
  8
0
  6
CONTINUOUS
 62
     7
 10
590.49848015850307
 20
761.38397869658206
 30
0.0
 11
588.24799015850272
 21
769.78292869658219
 31
0.0
  0
LINE
  5
8F73
  8
0
  6
CONTINUOUS
 62
     7
 10
568.52045015850297
 20
770.50485869658223
 30
0.0
 11
577.99848015850307
 21
772.38384869658216
 31
0.0
  0
LINE
  5
8F74
  8
0
  6
CONTINUOUS
 62
     7
 10
577.99854015850292
 20
772.38400869658221
 30
0.0
 11
587.47663015850287
 21
770.50500869658219
 31
0.0
  0
LINE
  5
8F75
  8
0
  6
CONTINUOUS
 62
     7
 10
539.99848015850307
 20
707.36794869658206
 30
0.0
 11
539.99848015850307
 21
481.94146869658221
 31
0.0
  0
LINE
  5
8F76
  8
0
  6
CONTINUOUS
 62
     7
 10
563.92475015850266
 20
462.11480869658209
 30
0.0
 11
542.0722701585031
 21
477.88717869658211
 31
0.0
  0
LINE
  5
8F77
  8
0
  6
CONTINUOUS
 62
     7
 10
541.39685015850296
 20
710.83608869658224
 30
0.0
 11
561.60010015850276
 21
731.81634869658205
 31
0.0
  0
LINE
  5
8F78
  8
0
  6
CONTINUOUS
 62
     7
 10
516.99848015850296
 20
691.88397869658206
 30
0.0
 11
535.17292015850285
 21
692.51861869658205
 31
0.0
  0
LINE
  5
8F79
  8
0
  6
CONTINUOUS
 62
     7
 10
518.99854015850281
 20
667.39013869658208
 30
0.0
 11
539.99848015850307
 21
667.39013869658208
 31
0.0
  0
LINE
  5
8F7A
  8
0
  6
CONTINUOUS
 62
     7
 10
565.99848015850296
 20
758.40496869658205
 30
0.0
 11
565.99848015850296
 21
449.36295869658221
 31
0.0
  0
LINE
  5
8F7B
  8
0
  6
CONTINUOUS
 62
     7
 10
567.92865015850271
 20
760.40371869658213
 30
0.0
 11
595.99848015850296
 21
761.38393869658205
 31
0.0
  0
LINE
  5
8F7C
  8
0
  6
CONTINUOUS
 62
     7
 10
562.99854015850269
 20
759.38397869658218
 30
0.0
 11
562.99854015850269
 21
735.28457869658223
 31
0.0
  0
LINE
  5
8F7D
  8
0
  6
CONTINUOUS
 62
     7
 10
561.60010015850276
 20
731.81634869658205
 30
0.0
 11
564.60010015850287
 21
734.93173869658222
 31
0.0
  0
LINE
  5
8F7E
  8
0
  6
CONTINUOUS
 62
     7
 10
564.99848015850307
 20
761.38393869658205
 30
0.0
 11
595.99848015850296
 21
761.38393869658205
 31
0.0
  0
LINE
  5
8F7F
  8
0
  6
CONTINUOUS
 62
     7
 10
516.99854015850269
 20
496.883958696582
 30
0.0
 11
535.17304015850289
 21
496.24929869658217
 31
0.0
  0
LINE
  5
8F80
  8
0
  6
CONTINUOUS
 62
     7
 10
518.99854015850281
 20
511.18877869658212
 30
0.0
 11
539.99848015850307
 21
511.18877869658212
 31
0.0
  0
LINE
  5
8F81
  8
0
  6
CONTINUOUS
 62
     7
 10
518.99854015850281
 20
537.60815869658222
 30
0.0
 11
518.99854015850281
 21
511.18877869658212
 31
0.0
  0
LINE
  5
8F82
  8
0
  6
CONTINUOUS
 62
     7
 10
518.99854015850281
 20
677.57913869658216
 30
0.0
 11
518.99854015850281
 21
651.15975869658223
 31
0.0
  0
LINE
  5
8F83
  8
0
  6
CONTINUOUS
 62
     7
 10
518.99854015850281
 20
677.57913869658216
 30
0.0
 11
539.99848015850307
 21
677.57913869658216
 31
0.0
  0
LINE
  5
8F84
  8
0
  6
CONTINUOUS
 62
     7
 10
518.99854015850281
 20
651.15975869658223
 30
0.0
 11
539.99848015850307
 21
651.15975869658223
 31
0.0
  0
LINE
  5
8F85
  8
0
  6
CONTINUOUS
 62
     7
 10
518.99854015850281
 20
537.60815869658222
 30
0.0
 11
539.99848015850307
 21
537.60815869658222
 31
0.0
  0
LINE
  5
8F86
  8
0
  6
CONTINUOUS
 62
     7
 10
518.99854015850281
 20
521.37775869658219
 30
0.0
 11
539.99848015850307
 21
521.37775869658219
 31
0.0
  0
LINE
  5
8F87
  8
0
  6
CONTINUOUS
 62
     7
 10
514.99854015850292
 20
693.88390869658224
 30
0.0
 11
516.99854015850269
 21
691.88390869658224
 31
0.0
  0
LINE
  5
8F88
  8
0
  6
CONTINUOUS
 62
     7
 10
514.99854015850292
 20
494.88390869658213
 30
0.0
 11
516.99854015850269
 21
496.88389869658198
 31
0.0
  0
LINE
  5
8F89
  8
0
  6
CONTINUOUS
 62
     7
 10
748.99848015850296
 20
669.38397869658218
 30
0.0
 11
748.99848015850296
 21
609.38397869658229
 31
0.0
  0
LINE
  5
8F8A
  8
0
  6
CONTINUOUS
 62
     7
 10
745.99848015850284
 20
609.38397869658229
 30
0.0
 11
748.99848015850296
 21
609.38397869658229
 31
0.0
  0
LINE
  5
8F8B
  8
0
  6
CONTINUOUS
 62
     7
 10
745.99848015850284
 20
669.38397869658218
 30
0.0
 11
748.99848015850296
 21
669.38397869658218
 31
0.0
  0
LINE
  5
8F8C
  8
0
  6
CONTINUOUS
 62
     7
 10
567.92877015850274
 20
447.36417869658209
 30
0.0
 11
595.99854015850269
 21
446.383958696582
 31
0.0
  0
LINE
  5
8F8D
  8
0
  6
CONTINUOUS
 62
     7
 10
703.79639015850307
 20
753.56332869658195
 30
0.0
 11
702.72547015850307
 21
765.11092869658205
 31
0.0
  0
LINE
  5
8F8E
  8
0
  6
CONTINUOUS
 62
     7
 10
707.64868015850254
 20
726.2255586965822
 30
0.0
 11
718.99854015850281
 21
734.54931869658208
 31
0.0
  0
LINE
  5
8F8F
  8
0
  6
CONTINUOUS
 62
     7
 10
678.34809015850271
 20
736.74798869658218
 30
0.0
 11
716.58734015850268
 21
759.8904086965822
 31
0.0
  0
LINE
  5
8F90
  8
0
  6
CONTINUOUS
 62
     7
 10
680.93689015850271
 20
725.25750869658214
 30
0.0
 11
704.69171015850281
 21
725.25750869658214
 31
0.0
  0
LINE
  5
8F91
  8
0
  6
CONTINUOUS
 62
     7
 10
680.92755015850287
 20
727.03445869658219
 30
0.0
 11
716.49671015850265
 21
748.56088869658208
 31
0.0
  0
LINE
  5
8F92
  8
0
  6
CONTINUOUS
 62
     7
 10
675.93689015850293
 20
732.47036869658166
 30
0.0
 11
675.93689015850293
 21
730.25750869658214
 31
0.0
  0
LINE
  5
8F93
  8
0
  6
CONTINUOUS
 62
     7
 10
718.32514015850325
 20
596.89587869658203
 30
0.0
 11
706.42133015850266
 21
725.25750869658214
 31
0.0
  0
LINE
  5
8F94
  8
0
  6
CONTINUOUS
 62
     7
 10
718.99848015850307
 20
547.11007869658226
 30
0.0
 11
718.99848015850307
 21
479.38395869658211
 31
0.0
  0
LINE
  5
8F95
  8
0
  6
CONTINUOUS
 62
     7
 10
727.99854015850281
 20
763.73309869658215
 30
0.0
 11
727.99854015850281
 21
515.03483869658226
 31
0.0
  0
LINE
  5
8F96
  8
0
  6
CONTINUOUS
 62
     7
 10
565.99848015850296
 20
546.05477869658239
 30
0.0
 11
718.99848015850307
 21
546.05477869658239
 31
0.0
  0
LINE
  5
8F97
  8
0
  6
CONTINUOUS
 62
     7
 10
683.10370015850265
 20
445.57711869658198
 30
0.0
 11
732.99854015850281
 21
474.3839286965823
 31
0.0
  0
LINE
  5
8F98
  8
0
  6
CONTINUOUS
 62
     7
 10
745.99848015850284
 20
779.38397869658195
 30
0.0
 11
745.99848015850284
 21
499.38397869658189
 31
0.0
  0
LINE
  5
8F99
  8
0
  6
CONTINUOUS
 62
     7
 10
740.99848015850296
 20
779.38397869658195
 30
0.0
 11
745.99848015850284
 21
779.38397869658195
 31
0.0
  0
LINE
  5
8F9A
  8
0
  6
CONTINUOUS
 62
     7
 10
740.99848015850296
 20
499.38397869658189
 30
0.0
 11
745.99848015850284
 21
499.38397869658189
 31
0.0
  0
LINE
  5
8F9B
  8
0
  6
CONTINUOUS
 62
     7
 10
740.99848015850296
 20
804.38397869658195
 30
0.0
 11
740.99848015850296
 21
474.38395869658223
 31
0.0
  0
LINE
  5
8F9C
  8
0
  6
CONTINUOUS
 62
     7
 10
718.99848015850307
 20
798.78722869658213
 30
0.0
 11
718.99848015850307
 21
605.12060869658217
 31
0.0
  0
LINE
  5
8F9D
  8
0
  6
CONTINUOUS
 62
     7
 10
640.99848015850296
 20
494.98501869658219
 30
0.0
 11
718.99848015850307
 21
494.98501869658219
 31
0.0
  0
LINE
  5
8F9E
  8
0
  6
CONTINUOUS
 62
     7
 10
640.99848015850296
 20
519.62986869658221
 30
0.0
 11
718.99848015850307
 21
519.62986869658221
 31
0.0
  0
LINE
  5
8F9F
  8
0
  6
CONTINUOUS
 62
     7
 10
595.99854015850269
 20
761.38393869658205
 30
0.0
 11
697.77997015850281
 21
764.04919869658215
 31
0.0
  0
LINE
  5
8FA0
  8
0
  6
CONTINUOUS
 62
     7
 10
723.99848015850296
 20
474.38395869658223
 30
0.0
 11
740.99848015850296
 21
474.38395869658223
 31
0.0
  0
LINE
  5
8FA1
  8
0
  6
CONTINUOUS
 62
     7
 10
723.82392015850269
 20
803.78420869658203
 30
0.0
 11
740.99848015850296
 21
804.38397869658195
 31
0.0
  0
LINE
  5
8FA2
  8
0
  6
CONTINUOUS
 62
     7
 10
595.99848015850296
 20
761.38393869658205
 30
0.0
 11
595.99848015850296
 21
446.383958696582
 31
0.0
  0
LINE
  5
8FA3
  8
0
  6
CONTINUOUS
 62
     7
 10
704.58930015850285
 20
766.97466869658206
 30
0.0
 11
718.99854015850281
 21
781.38390869658224
 31
0.0
  0
LINE
  5
8FA4
  8
0
  6
CONTINUOUS
 62
     7
 10
595.99854015850269
 20
446.38393869658228
 30
0.0
 11
677.84186015850287
 21
444.24079869658209
 31
0.0
  0
LINE
  5
8FA5
  8
0
  6
CONTINUOUS
 62
     7
 10
635.99848015850307
 20
514.62986869658198
 30
0.0
 11
635.99848015850307
 21
499.98501869658207
 31
0.0
  0
LINE
  5
8FA6
  8
0
  6
CONTINUOUS
 62
     7
 10
565.99848015850296
 20
647.85033869658241
 30
0.0
 11
713.59979015850286
 21
647.85033869658241
 31
0.0
  0
CIRCLE
  5
8FA7
  8
0
  6
CONTINUOUS
 62
     7
 10
577.99854015850292
 20
787.38397869658195
 30
0.0
 40
15.0
  0
ARC
  5
8FA8
  8
0
  6
CONTINUOUS
 62
     7
 10
577.99854015850292
 20
787.38397869658195
 30
0.0
 40
25.0
 50
306.46672000000018
 51
233.53329000000349
  0
ARC
  5
8FA9
  8
0
  6
CONTINUOUS
 62
     7
 10
568.71491015850268
 20
769.52404869658221
 30
0.0
 40
1.0
 50
101.21328999999881
 51
164.999990000005
  0
ARC
  5
8FAA
  8
0
  6
CONTINUOUS
 62
     7
 10
587.28211015850309
 20
769.52404869658221
 30
0.0
 40
1.0
 50
15.000000000000741
 51
78.786710000001207
  0
ARC
  5
8FAB
  8
0
  6
CONTINUOUS
 62
     7
 10
559.57349015850286
 20
762.45370869658223
 30
0.0
 40
6.0
 50
349.72994999999878
 51
53.533291000004859
  0
ARC
  5
8FAC
  8
0
  6
CONTINUOUS
 62
     7
 10
596.42353015850267
 20
762.45370869658223
 30
0.0
 40
6.0
 50
126.46669999999671
 51
190.27005999999921
  0
ARC
  5
8FAD
  8
0
  6
CONTINUOUS
 62
     7
 10
567.99854015850258
 20
449.36295869658221
 30
0.0
 40
2.0
 50
179.999989999999
 51
268.00000999999861
  0
ARC
  5
8FAE
  8
0
  6
CONTINUOUS
 62
     7
 10
544.99848015850296
 20
481.94146869658221
 30
0.0
 40
5.0
 50
179.999989999999
 51
234.17957000000149
  0
ARC
  5
8FAF
  8
0
  6
CONTINUOUS
 62
     7
 10
564.99848015850307
 20
759.38397869658218
 30
0.0
 40
2.0
 50
90.00000299999769
 51
180.000010000001
  0
ARC
  5
8FB0
  8
0
  6
CONTINUOUS
 62
     7
 10
544.99848015850296
 20
707.36794869658206
 30
0.0
 40
5.0
 50
136.08091999999979
 51
180.000010000001
  0
ARC
  5
8FB1
  8
0
  6
CONTINUOUS
 62
     7
 10
567.99854015850258
 20
758.40496869658205
 30
0.0
 40
2.0
 50
91.999998000000545
 51
180.000010000001
  0
ARC
  5
8FB2
  8
0
  6
CONTINUOUS
 62
     7
 10
557.99854015850281
 20
735.28457869658223
 30
0.0
 40
5.0
 50
316.08091999999988
 51
0.0
  0
ARC
  5
8FB3
  8
0
  6
CONTINUOUS
 62
     7
 10
560.99848015850307
 20
738.39996869658216
 30
0.0
 40
5.0
 50
316.08091999999988
 51
0.0
  0
ARC
  5
8FB4
  8
0
  6
CONTINUOUS
 62
     7
 10
534.99848015850296
 20
491.25233869658229
 30
0.0
 40
5.0
 50
0.0
 51
88.000000000002785
  0
ARC
  5
8FB5
  8
0
  6
CONTINUOUS
 62
     7
 10
534.99848015850296
 20
697.51556869658214
 30
0.0
 40
5.0
 50
271.99999999999721
 51
0.0
  0
ARC
  5
8FB6
  8
0
  6
CONTINUOUS
 62
     7
 10
560.99848015850307
 20
458.06056869658221
 30
0.0
 40
5.0
 50
0.0
 51
54.179554000000898
  0
ARC
  5
8FB7
  8
0
  6
CONTINUOUS
 62
     7
 10
713.99848015850284
 20
764.16805869658208
 30
0.0
 40
5.0
 50
301.18235999999632
 51
0.0
  0
ARC
  5
8FB8
  8
0
  6
CONTINUOUS
 62
     7
 10
680.93689015850271
 20
732.47036869658166
 30
0.0
 40
5.0
 50
121.18235999999629
 51
180.000010000001
  0
ARC
  5
8FB9
  8
0
  6
CONTINUOUS
 62
     7
 10
680.93689015850271
 20
730.25750869658214
 30
0.0
 40
5.0
 50
179.999989999999
 51
270.0
  0
ARC
  5
8FBA
  8
0
  6
CONTINUOUS
 62
     7
 10
704.69171015850281
 20
730.25750869658214
 30
0.0
 40
5.0
 50
270.0
 51
306.25554999999889
  0
ARC
  5
8FBB
  8
0
  6
CONTINUOUS
 62
     7
 10
678.10364015850257
 20
454.2373986965822
 30
0.0
 40
10.0
 50
268.49999999999733
 51
300.00000000000051
  0
ARC
  5
8FBC
  8
0
  6
CONTINUOUS
 62
     7
 10
697.51819015850265
 20
774.04574869658222
 30
0.0
 40
10.0
 50
271.50000000000267
 51
315.0
  0
ARC
  5
8FBD
  8
0
  6
CONTINUOUS
 62
     7
 10
726.29090015850284
 20
597.63458869658223
 30
0.0
 40
8.0
 50
185.2982400000015
 51
270.0
  0
ARC
  5
8FBE
  8
0
  6
CONTINUOUS
 62
     7
 10
719.99848015850296
 20
763.73309869658215
 30
0.0
 40
8.0
 50
0.0
 51
90.00000299999769
  0
ARC
  5
8FBF
  8
0
  6
CONTINUOUS
 62
     7
 10
719.99848015850296
 20
705.72060869658208
 30
0.0
 40
8.0
 50
0.0
 51
90.00000299999769
  0
ARC
  5
8FC0
  8
0
  6
CONTINUOUS
 62
     7
 10
719.99848015850296
 20
515.03483869658226
 30
0.0
 40
8.0
 50
270.0
 51
0.0
  0
ARC
  5
8FC1
  8
0
  6
CONTINUOUS
 62
     7
 10
719.99848015850296
 20
555.04731869658224
 30
0.0
 40
8.0
 50
270.0
 51
0.0
  0
ARC
  5
8FC2
  8
0
  6
CONTINUOUS
 62
     7
 10
640.99848015850296
 20
514.62986869658198
 30
0.0
 40
5.0
 50
90.00000299999769
 51
180.000010000001
  0
ARC
  5
8FC3
  8
0
  6
CONTINUOUS
 62
     7
 10
723.99848015850296
 20
479.38395869658211
 30
0.0
 40
5.0
 50
179.999989999999
 51
270.0
  0
ARC
  5
8FC4
  8
0
  6
CONTINUOUS
 62
     7
 10
723.99848015850296
 20
798.78722869658213
 30
0.0
 40
5.0
 50
91.999998000000545
 51
180.000010000001
  0
ARC
  5
8FC5
  8
0
  6
CONTINUOUS
 62
     7
 10
640.99848015850296
 20
499.98501869658207
 30
0.0
 40
5.0
 50
179.999989999999
 51
270.0
  0
LINE
  5
9016
  8
0
  6
AM_ISO08W050
 62
     0
 10
1323.4100046783949
 20
639.38397869658229
 30
0.0
 11
979.18051567839507
 21
639.38397869658229
 31
0.0
  0
LINE
  5
9017
  8
0
  6
AM_ISO08W050
 62
     0
 10
1151.787365678395
 20
433.38393869658228
 30
0.0
 11
1151.787365678395
 21
815.38326869658215
 31
0.0
  0
LINE
  5
9018
  8
0
  6
CONTINUOUS
 62
     7
 10
1146.787365678395
 20
807.38390869658224
 30
0.0
 11
1146.787365678395
 21
804.38397869658195
 31
0.0
  0
LINE
  5
9019
  8
0
  6
CONTINUOUS
 62
     7
 10
1156.787365678395
 20
807.38390869658224
 30
0.0
 11
1156.787365678395
 21
804.38397869658195
 31
0.0
  0
LINE
  5
901A
  8
0
  6
CONTINUOUS
 62
     7
 10
1159.787355678395
 20
660.88393869658216
 30
0.0
 11
1159.787355678395
 21
670.88393869658228
 31
0.0
  0
LINE
  5
901B
  8
0
  6
CONTINUOUS
 62
     7
 10
1143.787335678395
 20
660.88393869658216
 30
0.0
 11
1143.787335678395
 21
670.88393869658228
 31
0.0
  0
LINE
  5
901C
  8
0
  6
CONTINUOUS
 62
     7
 10
1143.787335678395
 20
670.88393869658228
 30
0.0
 11
1159.787355678395
 21
670.88393869658228
 31
0.0
  0
LINE
  5
901D
  8
0
  6
CONTINUOUS
 62
     7
 10
1143.787335678395
 20
660.88393869658216
 30
0.0
 11
1159.787355678395
 21
660.88393869658216
 31
0.0
  0
LINE
  5
901E
  8
0
  6
CONTINUOUS
 62
     7
 10
1096.787355678395
 20
804.38393869658205
 30
0.0
 11
1010.248505678395
 21
799.84863869658216
 31
0.0
  0
LINE
  5
901F
  8
0
  6
CONTINUOUS
 62
     7
 10
986.7873556783951
 20
584.38400869658221
 30
0.0
 11
991.32266567839565
 21
497.84515869658202
 31
0.0
  0
LINE
  5
9020
  8
0
  6
CONTINUOUS
 62
     7
 10
1316.7873466783949
 20
584.38397869658229
 30
0.0
 11
1312.252037678395
 21
497.84515869658202
 31
0.0
  0
LINE
  5
9021
  8
0
  6
CONTINUOUS
 62
     7
 10
1316.787357678395
 20
694.38397869658206
 30
0.0
 11
1312.2520526783951
 21
780.92281869658166
 31
0.0
  0
LINE
  5
9022
  8
0
  6
CONTINUOUS
 62
     7
 10
1206.7873856783949
 20
474.38397869658189
 30
0.0
 11
1293.3261956783949
 21
478.9192786965823
 31
0.0
  0
LINE
  5
9023
  8
0
  6
CONTINUOUS
 62
     7
 10
1206.7873856783949
 20
804.38397869658195
 30
0.0
 11
1293.3261646783949
 21
799.84866869658208
 31
0.0
  0
LINE
  5
9024
  8
0
  6
CONTINUOUS
 62
     7
 10
986.7873556783951
 20
694.3840086965821
 30
0.0
 11
991.32263567839527
 21
780.92278869658219
 31
0.0
  0
LINE
  5
9025
  8
0
  6
CONTINUOUS
 62
     7
 10
1030.1108756783949
 20
517.70750869658195
 30
0.0
 11
999.67083567839506
 21
487.26745869658203
 31
0.0
  0
LINE
  5
9026
  8
0
  6
CONTINUOUS
 62
     7
 10
1091.5135156783949
 20
691.17251869658219
 30
0.0
 11
1058.0796556783951
 21
724.60638869658214
 31
0.0
  0
LINE
  5
9027
  8
0
  6
CONTINUOUS
 62
     7
 10
1099.998805678395
 20
699.65777869658223
 30
0.0
 11
1066.564915678395
 21
733.09167869658222
 31
0.0
  0
LINE
  5
9028
  8
0
  6
CONTINUOUS
 62
     7
 10
1274.3658456783951
 20
761.96246869658205
 30
0.0
 11
1303.9038626783949
 21
791.50048869658235
 31
0.0
  0
LINE
  5
9029
  8
0
  6
CONTINUOUS
 62
     7
 10
1212.061235678395
 20
691.17257869658215
 30
0.0
 11
1245.4950556783949
 21
724.60638869658214
 31
0.0
  0
LINE
  5
902A
  8
0
  6
CONTINUOUS
 62
     7
 10
1226.787355678395
 20
639.38397869658229
 30
0.0
 11
1226.787355678395
 21
629.38397869658229
 31
0.0
  0
LINE
  5
902B
  8
0
  6
CONTINUOUS
 62
     7
 10
1275.3484656783951
 20
515.8228586965821
 30
0.0
 11
1303.2727666783951
 21
487.89855869658231
 31
0.0
  0
LINE
  5
902C
  8
0
  6
CONTINUOUS
 62
     7
 10
1076.7873856783949
 20
639.38397869658229
 30
0.0
 11
1076.7873856783949
 21
629.38397869658229
 31
0.0
  0
LINE
  5
902D
  8
0
  6
CONTINUOUS
 62
     7
 10
1203.575975678395
 20
699.65783869658219
 30
0.0
 11
1237.009795678395
 21
733.09164869658207
 31
0.0
  0
LINE
  5
902E
  8
0
  6
CONTINUOUS
 62
     7
 10
1316.7873466783949
 20
584.38397869658229
 30
0.0
 11
1316.7873466783949
 21
694.38397869658206
 31
0.0
  0
LINE
  5
902F
  8
0
  6
CONTINUOUS
 62
     7
 10
1096.787355678395
 20
474.38395869658223
 30
0.0
 11
1010.248535678395
 21
478.91926869658209
 31
0.0
  0
LINE
  5
9030
  8
0
  6
CONTINUOUS
 62
     7
 10
986.78738567839525
 20
584.38397869658229
 30
0.0
 11
986.78738567839525
 21
694.38397869658206
 31
0.0
  0
LINE
  5
9031
  8
0
  6
CONTINUOUS
 62
     7
 10
1096.7873856783949
 20
804.38397869658195
 30
0.0
 11
1206.787355678395
 21
804.38397869658195
 31
0.0
  0
LINE
  5
9032
  8
0
  6
CONTINUOUS
 62
     7
 10
1096.7873856783949
 20
474.38395869658223
 30
0.0
 11
1206.787355678395
 21
474.38395869658223
 31
0.0
  0
LINE
  5
9033
  8
0
  6
CONTINUOUS
 62
     7
 10
1278.3930516783951
 20
624.38397869658218
 30
0.0
 11
1231.787355678395
 21
624.38397869658218
 31
0.0
  0
LINE
  5
9034
  8
0
  6
CONTINUOUS
 62
     7
 10
1025.181705678395
 20
624.38397869658218
 30
0.0
 11
1071.7873856783949
 21
624.38397869658218
 31
0.0
  0
LINE
  5
9036
  8
0
  6
CONTINUOUS
 62
     7
 10
1220.987625678395
 20
445.88241869658219
 30
0.0
 11
1243.762495678395
 21
461.82954869658232
 31
0.0
  0
LINE
  5
9037
  8
0
  6
CONTINUOUS
 62
     7
 10
1089.9403356783939
 20
443.56396869658232
 30
0.0
 11
1213.6343656783949
 21
443.56396869658232
 31
0.0
  0
LINE
  5
9038
  8
0
  6
CONTINUOUS
 62
     7
 10
1028.437195678395
 20
762.73412869658216
 30
0.0
 11
999.67083567839506
 21
791.50048869658235
 31
0.0
  0
LINE
  5
9039
  8
0
  6
CONTINUOUS
 62
     7
 10
1082.5870956783949
 20
445.882428696582
 30
0.0
 11
1059.8122556783951
 21
461.82955869658213
 31
0.0
  0
ARC
  5
903A
  8
0
  6
CONTINUOUS
 62
     7
 10
1151.787365678395
 20
807.38390869658224
 30
0.0
 40
5.0
 50
359.999989999999
 51
179.999989999999
  0
ARC
  5
903B
  8
0
  6
CONTINUOUS
 62
     7
 10
1151.787365678395
 20
639.38397869658229
 30
0.0
 40
27.5
 50
106.91239000000481
 51
73.087596999999832
  0
CIRCLE
  5
903C
  8
0
  6
CONTINUOUS
 62
     7
 10
1151.787365678395
 20
639.38397869658229
 30
0.0
 40
4.5
  0
CIRCLE
  5
903D
  8
0
  6
CONTINUOUS
 62
     7
 10
1151.787365678395
 20
639.38397869658229
 30
0.0
 40
6.0
  0
ARC
  5
903E
  8
0
  6
CONTINUOUS
 62
     7
 10
1278.3930516783951
 20
629.38397869658229
 30
0.0
 40
5.0
 50
270.0
 51
355.48384999999843
  0
ARC
  5
903F
  8
0
  6
CONTINUOUS
 62
     7
 10
1011.295285678395
 20
498.8918486965822
 30
0.0
 40
20.0
 50
183.00001000000009
 51
266.9999999999946
  0
ARC
  5
9040
  8
0
  6
CONTINUOUS
 62
     7
 10
1151.787365678395
 20
639.38397869658229
 30
0.0
 40
75.0
 50
0.0
 51
37.096793000000822
  0
ARC
  5
9041
  8
0
  6
CONTINUOUS
 62
     7
 10
1292.2794656783949
 20
498.8918486965822
 30
0.0
 40
20.0
 50
273.0000000000054
 51
357.00000000000108
  0
ARC
  5
9042
  8
0
  6
CONTINUOUS
 62
     7
 10
1011.295285678395
 20
779.87606869658214
 30
0.0
 40
20.0
 50
92.999998999995213
 51
176.99998999999991
  0
ARC
  5
9043
  8
0
  6
CONTINUOUS
 62
     7
 10
1292.2794656783949
 20
779.87606869658214
 30
0.0
 40
20.0
 50
3.0000000999988461
 51
86.999998999997004
  0
ARC
  5
9044
  8
0
  6
CONTINUOUS
 62
     7
 10
1151.787365678395
 20
639.38397869658229
 30
0.0
 40
195.0
 50
218.1653200000016
 51
232.1288600000056
  0
ARC
  5
9045
  8
0
  6
CONTINUOUS
 62
     7
 10
1151.787365678395
 20
639.38397869658229
 30
0.0
 40
195.0
 50
128.03587000000181
 51
140.9156299999969
  0
CIRCLE
  5
9046
  8
0
  6
CONTINUOUS
 62
     7
 10
1289.6731876783949
 20
501.49815869658221
 30
0.0
 40
9.5
  0
ARC
  5
9047
  8
0
  6
CONTINUOUS
 62
     7
 10
1151.787365678395
 20
639.38397869658229
 30
0.0
 40
195.0
 50
39.367218999997661
 51
50.896188999998408
  0
CIRCLE
  5
9048
  8
0
  6
CONTINUOUS
 62
     7
 10
1013.901555678395
 20
501.49815869658221
 30
0.0
 40
9.5
  0
ARC
  5
9049
  8
0
  6
CONTINUOUS
 62
     7
 10
1151.787365678395
 20
639.38397869658229
 30
0.0
 40
195.0
 50
308.04002999999869
 51
321.50502999999992
  0
CIRCLE
  5
904A
  8
0
  6
CONTINUOUS
 62
     7
 10
1013.901555678395
 20
777.26977869658219
 30
0.0
 40
9.5
  0
CIRCLE
  5
904B
  8
0
  6
CONTINUOUS
 62
     7
 10
1289.6731876783949
 20
777.26977869658219
 30
0.0
 40
9.5
  0
ARC
  5
904C
  8
0
  6
CONTINUOUS
 62
     7
 10
1231.787355678395
 20
629.38397869658229
 30
0.0
 40
5.0
 50
179.999989999999
 51
270.0
  0
ARC
  5
904D
  8
0
  6
CONTINUOUS
 62
     7
 10
1071.7873856783949
 20
629.38397869658229
 30
0.0
 40
5.0
 50
270.0
 51
0.0
  0
ARC
  5
904E
  8
0
  6
CONTINUOUS
 62
     7
 10
1249.030595678395
 20
721.07085869658215
 30
0.0
 40
5.0
 50
40.031148000000073
 51
134.9999999999954
  0
ARC
  5
904F
  8
0
  6
CONTINUOUS
 62
     7
 10
1054.544095678395
 20
721.07085869658215
 30
0.0
 40
5.0
 50
45.00000099999918
 51
139.96885000000219
  0
CIRCLE
  5
9050
  8
0
  6
CONTINUOUS
 62
     7
 10
1151.787365678395
 20
639.38397869658229
 30
0.0
 40
140.0
  0
ARC
  5
9051
  8
0
  6
CONTINUOUS
 62
     7
 10
1151.787365678395
 20
639.38397869658229
 30
0.0
 40
60.0
 50
270.0
 51
90.00000299999769
  0
ARC
  5
9052
  8
0
  6
CONTINUOUS
 62
     7
 10
1087.9779356783949
 20
687.63702869658221
 30
0.0
 40
5.0
 50
322.90321000000222
 51
45.00000099999918
  0
ARC
  5
9053
  8
0
  6
CONTINUOUS
 62
     7
 10
1151.787365678395
 20
639.38397869658229
 30
0.0
 40
60.0
 50
90.00000299999769
 51
270.0
  0
ARC
  5
9054
  8
0
  6
CONTINUOUS
 62
     7
 10
1070.100465678395
 20
736.62719869658213
 30
0.0
 40
5.0
 50
130.03114999999781
 51
225.0000000000046
  0
ARC
  5
9055
  8
0
  6
CONTINUOUS
 62
     7
 10
1025.181705678395
 20
629.38397869658229
 30
0.0
 40
5.0
 50
184.5161599999995
 51
270.0
  0
CIRCLE
  5
9056
  8
0
  6
CONTINUOUS
 62
     7
 10
1151.787365678395
 20
639.38397869658229
 30
0.0
 40
132.0
  0
ARC
  5
9057
  8
0
  6
CONTINUOUS
 62
     7
 10
1215.5967556783951
 20
687.63702869658221
 30
0.0
 40
5.0
 50
134.9999999999954
 51
217.09680000000171
  0
ARC
  5
9058
  8
0
  6
CONTINUOUS
 62
     7
 10
1184.787355678395
 20
546.05477869658239
 30
0.0
 40
102.81999
 50
304.99999999999739
 51
317.98481999999723
  0
ARC
  5
9059
  8
0
  6
CONTINUOUS
 62
     7
 10
1213.6343656783949
 20
456.38395869658211
 30
0.0
 40
12.82
 50
270.0
 51
304.99999999999739
  0
ARC
  5
905A
  8
0
  6
CONTINUOUS
 62
     7
 10
1089.9403356783939
 20
456.38395869658211
 30
0.0
 40
12.82
 50
235.00000000000259
 51
270.0
  0
ARC
  5
905B
  8
0
  6
CONTINUOUS
 62
     7
 10
1118.787355678395
 20
546.05477869658239
 30
0.0
 40
102.81999
 50
222.0151800000028
 51
235.00000000000259
  0
ARC
  5
905C
  8
0
  6
CONTINUOUS
 62
     7
 10
1103.534275678395
 20
703.19335869658221
 30
0.0
 40
5.0
 50
225.0000000000046
 51
307.09678999999647
  0
ARC
  5
905D
  8
0
  6
CONTINUOUS
 62
     7
 10
1200.040425678395
 20
703.19335869658221
 30
0.0
 40
5.0
 50
232.90320999999309
 51
314.9999999999954
  0
ARC
  5
905E
  8
0
  6
CONTINUOUS
 62
     7
 10
1233.4742556783949
 20
736.62719869658213
 30
0.0
 40
5.0
 50
314.9999999999954
 51
49.96885100000106
  0
ARC
  5
905F
  8
0
  6
CONTINUOUS
 62
     7
 10
1151.787365678395
 20
639.38397869658229
 30
0.0
 40
75.0
 50
142.90321000000219
 51
180.000010000001
  0
ARC
  5
9060
  8
0
  6
CONTINUOUS
 62
     7
 10
1151.787365678395
 20
639.38397869658229
 30
0.0
 40
75.0
 50
52.903206000003003
 51
127.0967899999965
  0
TEXT
  5
92AD
  8
0
  6
CONTINUOUS
 62
     0
 10
1012.6433335228591
 20
1006.092100869139
 30
0.0
 40
15.0
  1
VX08-240EMF~VX08-500EMF
  0
ENDSEC
  0
EOF
