  0
SECTION
  2
HEADER
  9
$ACADVER
  1
AC1009
  9
$INSBASE
 10
0.0
 20
0.0
 30
0.0
  9
$EXTMIN
 10
144.2935584482247
 20
403.80720539931178
 30
-0.0000000349181948
  9
$EXTMAX
 10
1056.47255107923
 20
924.98068210204735
 30
0.0000000814935747
  9
$LIMMIN
 10
-2.7186596955807532
 20
0.0935949875579354
  9
$LIMMAX
 10
1419.781340304419
 20
925.09359498755794
  9
$ORTHOMODE
 70
     0
  9
$REGENMODE
 70
     1
  9
$FILLMODE
 70
     1
  9
$QTEXTMODE
 70
     0
  9
$MIRRTEXT
 70
     0
  9
$DRAGMODE
 70
     2
  9
$LTSCALE
 40
1.0
  9
$OSMODE
 70
   551
  9
$ATTMODE
 70
     1
  9
$TEXTSIZE
 40
2.5
  9
$TRACEWID
 40
1.0
  9
$TEXTSTYLE
  7
STANDARD
  9
$CLAYER
  8
0
  9
$CELTYPE
  6
BYLAYER
  9
$CECOLOR
 62
   256
  9
$DIMSCALE
 40
1.0
  9
$DIMASZ
 40
2.0
  9
$DIMEXO
 40
1.0
  9
$DIMDLI
 40
8.0
  9
$DIMRND
 40
0.0
  9
$DIMDLE
 40
0.0
  9
$DIMEXE
 40
1.0
  9
$DIMTP
 40
-0.025
  9
$DIMTM
 40
0.043
  9
$DIMTXT
 40
2.5
  9
$DIMCEN
 40
0.0
  9
$DIMTSZ
 40
0.0
  9
$DIMTOL
 70
     0
  9
$DIMLIM
 70
     0
  9
$DIMTIH
 70
     0
  9
$DIMTOH
 70
     0
  9
$DIMSE1
 70
     0
  9
$DIMSE2
 70
     0
  9
$DIMTAD
 70
     3
  9
$DIMZIN
 70
     8
  9
$DIMBLK
  1

  9
$DIMASO
 70
     1
  9
$DIMSHO
 70
     1
  9
$DIMPOST
  1

  9
$DIMAPOST
  1
"
  9
$DIMALT
 70
     0
  9
$DIMALTD
 70
     2
  9
$DIMALTF
 40
0.0393701
  9
$DIMLFAC
 40
1.0
  9
$DIMTOFL
 70
     1
  9
$DIMTVP
 40
0.0
  9
$DIMTIX
 70
     0
  9
$DIMSOXD
 70
     0
  9
$DIMSAH
 70
     0
  9
$DIMBLK1
  1

  9
$DIMBLK2
  1

  9
$DIMSTYLE
  2
AM_JIS
  9
$DIMCLRD
 70
     2
  9
$DIMCLRE
 70
     2
  9
$DIMCLRT
 70
     4
  9
$DIMTFAC
 40
0.71
  9
$DIMGAP
 40
1.5
  9
$LUNITS
 70
     2
  9
$LUPREC
 70
     2
  9
$SKETCHINC
 40
1.0
  9
$FILLETRAD
 40
0.0
  9
$AUNITS
 70
     0
  9
$AUPREC
 70
     0
  9
$MENU
  1
.
  9
$ELEVATION
 40
0.0
  9
$PELEVATION
 40
0.0
  9
$THICKNESS
 40
0.0
  9
$LIMCHECK
 70
     0
  9
$BLIPMODE
 70
     0
  9
$CHAMFERA
 40
2.5
  9
$CHAMFERB
 40
2.5
  9
$SKPOLY
 70
     0
  9
$TDCREATE
 40
2456829.3841110538
  9
$TDUPDATE
 40
2458540.660329306
  9
$TDINDWG
 40
0.352236875
  9
$TDUSRTIMER
 40
0.3522363079
  9
$USRTIMER
 70
     1
  9
$ANGBASE
 50
0.0
  9
$ANGDIR
 70
     0
  9
$PDMODE
 70
     0
  9
$PDSIZE
 40
0.0
  9
$PLINEWID
 40
0.0
  9
$COORDS
 70
     1
  9
$SPLFRAME
 70
     0
  9
$SPLINETYPE
 70
     6
  9
$SPLINESEGS
 70
     8
  9
$ATTDIA
 70
     1
  9
$ATTREQ
 70
     1
  9
$HANDLING
 70
     1
  9
$HANDSEED
  5
84A7
  9
$SURFTAB1
 70
     6
  9
$SURFTAB2
 70
     6
  9
$SURFTYPE
 70
     6
  9
$SURFU
 70
     6
  9
$SURFV
 70
     6
  9
$UCSNAME
  2

  9
$UCSORG
 10
0.0
 20
0.0
 30
0.0
  9
$UCSXDIR
 10
1.0
 20
0.0
 30
0.0
  9
$UCSYDIR
 10
0.0
 20
1.0
 30
0.0
  9
$PUCSNAME
  2

  9
$PUCSORG
 10
0.0
 20
0.0
 30
0.0
  9
$PUCSXDIR
 10
1.0
 20
0.0
 30
0.0
  9
$PUCSYDIR
 10
0.0
 20
1.0
 30
0.0
  9
$USERI1
 70
     0
  9
$USERI2
 70
     0
  9
$USERI3
 70
     0
  9
$USERI4
 70
     0
  9
$USERI5
 70
     0
  9
$USERR1
 40
0.0
  9
$USERR2
 40
0.0
  9
$USERR3
 40
0.0
  9
$USERR4
 40
0.0
  9
$USERR5
 40
0.0
  9
$WORLDVIEW
 70
     1
  9
$SHADEDGE
 70
     3
  9
$SHADEDIF
 70
    70
  9
$TILEMODE
 70
     1
  9
$MAXACTVP
 70
    64
  9
$PLIMCHECK
 70
     0
  9
$PEXTMIN
 10
1.0000000000000000E+020
 20
1.0000000000000000E+020
 30
1.0000000000000000E+020
  9
$PEXTMAX
 10
-1.0000000000000000E+020
 20
-1.0000000000000000E+020
 30
-1.0000000000000000E+020
  9
$PLIMMIN
 10
0.0
 20
0.0
  9
$PLIMMAX
 10
420.0
 20
297.0
  9
$UNITMODE
 70
     0
  9
$VISRETAIN
 70
     1
  9
$PLINEGEN
 70
     0
  9
$PSLTSCALE
 70
     1
  0
ENDSEC
  0
SECTION
  2
TABLES
  0
TABLE
  2
VPORT
 70
     1
  0
VPORT
  2
*ACTIVE
 70
     0
 10
0.0
 20
0.0
 11
1.0
 21
1.0
 12
600.38305476372761
 22
664.39394375067957
 13
0.0
 23
0.0
 14
12.5
 24
12.5
 15
50.0
 25
50.0
 16
0.0
 26
0.0
 36
1.0
 17
0.0
 27
0.0
 37
0.0
 40
524.75132665721662
 41
1.7571592210767459
 42
50.0
 43
0.0
 44
0.0
 50
0.0
 51
0.0
 71
    16
 72
  1000
 73
     1
 74
     3
 75
     0
 76
     0
 77
     0
 78
     0
  0
ENDTAB
  0
TABLE
  2
LTYPE
 70
    25
  0
LTYPE
  2
CONTINUOUS
 70
     0
  3
Solid line
 72
    65
 73
     0
 40
0.0
  0
LTYPE
  2
CENTER
 70
     0
  3
Center ____ _ ____ _ ____ _ ____ _ ____ _ ____
 72
    65
 73
     4
 40
50.799999999999997
 49
31.75
 49
-6.3499999999999979
 49
6.3499999999999979
 49
-6.3499999999999979
  0
LTYPE
  2
AM_ISO02W050
 70
     0
  3
__ __ __ __ __ __ __ __ __ __ __ __ __ __ __
 72
    65
 73
     2
 40
7.5
 49
6.0
 49
-1.5
  0
LTYPE
  2
AM_ISO08W050
 70
     0
  3
____ . ____ . ____ . ____ . ____ . ____ . ____
 72
    65
 73
     4
 40
18.0
 49
12.0
 49
-1.5
 49
3.0
 49
-1.5
  0
LTYPE
  2
AM_ISO09W050
 70
     0
  3
_____ . . _____ . . _____ . . ____ .. ____
 72
    65
 73
     6
 40
22.5
 49
12.0
 49
-1.5
 49
3.0
 49
-1.5
 49
3.0
 49
-1.5
  0
LTYPE
  2
AMCONSTR
 70
     0
  3
_______________________
 72
    65
 73
     2
 40
9999.0
 49
9999.0
 49
0.0
  0
LTYPE
  2
AM_ISO08W050X2
 70
     0
  3
__ . __ . __ . __ . __ . __
 72
    65
 73
     4
 40
9.0
 49
6.0
 49
-0.75
 49
1.5
 49
-0.75
  0
LTYPE
  2
AM_ISO02W050X2
 70
     0
  3
 _ _ _ _ _ _ _ _ _ _ _ _
 72
    65
 73
     2
 40
3.75
 49
3.0
 49
-0.75
  0
LTYPE
  2
AMZIGZAG
 70
     0
  3
/\/-/\/-/\/-/\/-/\/-/\/
 72
    65
 73
     2
 40
11.0001
 49
0.0001
 49
-11.0
  0
LTYPE
  2
ACANSTGBM
 70
     0
  3
__ . . __ . .
 72
    65
 73
     6
 40
9.0
 49
4.0
 49
-1.0
 49
1.0
 49
-1.0
 49
1.0
 49
-1.0
  0
LTYPE
  2
ACANSTGLM
 70
     0
  3
_ _ _ _ _
 72
    65
 73
     2
 40
3.0
 49
2.0
 49
-1.0
  0
LTYPE
  2
ACISOWELD
 70
     0
  3
_ _ _ _ _
 72
    65
 73
     2
 40
2.0
 49
2.0
 49
-1.0
  0
LTYPE
  2
ACISOTGB
 70
     0
  3
__ . . __ . .
 72
    65
 73
     6
 40
9.0
 49
4.0
 49
-1.0
 49
1.0
 49
-1.0
 49
1.0
 49
-1.0
  0
LTYPE
  2
ACISOTGL
 70
     0
  3
_ _ _ _ _
 72
    65
 73
     2
 40
3.0
 49
2.0
 49
-1.0
  0
LTYPE
  2
ACJISTGB
 70
     0
  3
__ . . __ . .
 72
    65
 73
     6
 40
9.0
 49
4.0
 49
-1.0
 49
1.0
 49
-1.0
 49
1.0
 49
-1.0
  0
LTYPE
  2
ACJISTGL
 70
     0
  3
_ _ _ _ _
 72
    65
 73
     2
 40
3.0
 49
2.0
 49
-1.0
  0
LTYPE
  2
HIDDEN
 70
     0
  3
Hidden __ __ __ __ __ __ __ __ __ __ __ __ __ _
 72
    65
 73
     2
 40
9.5249999999999968
 49
6.349999999999997
 49
-3.174999999999998
  0
LTYPE
  2
PHANTOM2
 70
     0
  3
Phantom (.5x) ___ _ _ ___ _ _ ___ _ _ ___ _ _
 72
    65
 73
     6
 40
31.75
 49
15.875
 49
-3.174999999999998
 49
3.174999999999998
 49
-3.174999999999998
 49
3.174999999999998
 49
-3.174999999999998
  0
LTYPE
  2
CENTER2
 70
     0
  3
Center (.5x) ___ _ ___ _ ___ _ ___ _ ___ _ ___
 72
    65
 73
     4
 40
1.125
 49
0.75
 49
-0.125
 49
0.125
 49
-0.125
  0
LTYPE
  2
HIDDEN2
 70
     0
  3
Hidden (.5x) _ _ _ _ _ _ _ _ _ _ _ _ _ _ _ _ _
 72
    65
 73
     2
 40
0.1875
 49
0.125
 49
-0.0625
  0
LTYPE
  2
AMZIGZAG2
 70
     0
  3
/\/-/\/-/\/-/\/-/\/-/\/
 72
    65
 73
     2
 40
0.4401
 49
0.0001
 49
-0.4400000000000003
  0
LTYPE
  2
ACANSTGB
 70
     0
  3
__ . . __ . .
 72
    65
 73
     6
 40
0.35433070866
 49
0.15748031496
 49
-0.03937007874
 49
0.03937007874
 49
-0.03937007874
 49
0.03937007874
 49
-0.03937007874
  0
LTYPE
  2
ACANSTGL
 70
     0
  3
_ _ _ _ _
 72
    65
 73
     2
 40
0.11811023622
 49
0.07874015748
 49
-0.03937007874
  0
LTYPE
  2
ACJISWELD
 70
     0
  3
_ _ _ _ _
 72
    65
 73
     2
 40
2.0
 49
2.0
 49
-1.0
  0
ENDTAB
  0
TABLE
  2
LAYER
 70
     6
  0
LAYER
  2
0
 70
     0
 62
     7
  6
CONTINUOUS
  0
LAYER
  2
DEFPOINTS
 70
     0
 62
     7
  6
CONTINUOUS
  0
LAYER
  2
AM_CL
 70
     0
 62
     1
  6
AMCONSTR
  0
LAYER
  2
AM_7
 70
     0
 62
     1
  6
AM_ISO08W050
  0
LAYER
  2
AM_5
 70
     0
 62
     2
  6
CONTINUOUS
  0
LAYER
  2
AM_0
 70
     0
 62
     7
  6
CONTINUOUS
  0
ENDTAB
  0
TABLE
  2
STYLE
 70
     8
  0
STYLE
  2
STANDARD
 70
     0
 40
0.0
 41
0.7400000000000003
 50
0.0
 71
     0
 42
2.5
  3
txt.shx
  4
bigfont.shx
  0
STYLE
  2

 70
     1
 40
0.0
 41
1.0
 50
0.0
 71
     0
 42
2.5
  3
ltypeshp.shx
  4

  0
STYLE
  2
ACANSTS
 70
     0
 40
1.0
 41
1.0
 50
0.0
 71
     0
 42
2.5
  3
romans.shx
  4
bigfont.shx
  0
STYLE
  2
ACANSGDT
 70
     0
 40
0.0
 41
1.0
 50
0.0
 71
     0
 42
2.5
  3
amgdtans.shx
  4

  0
STYLE
  2
ACISOTS
 70
     0
 40
1.0
 41
1.0
 50
0.0
 71
     0
 42
2.5
  3
isocp.shx
  4
extfont.shx
  0
STYLE
  2
ACISOGDT
 70
     0
 40
0.0
 41
1.0
 50
0.0
 71
     0
 42
2.5
  3
amgdt.shx
  4

  0
STYLE
  2
ACJISGDT
 70
     0
 40
0.0
 41
1.0
 50
0.0
 71
     0
 42
2.5
  3
amgdt.shx
  4

  0
STYLE
  2
ACJISTS
 70
     0
 40
1.0
 41
1.0
 50
0.0
 71
     0
 42
2.5
  3
isocp.shx
  4
extfont.shx
  0
ENDTAB
  0
TABLE
  2
VIEW
 70
     6
  0
VIEW
  2
AM_VIEW1
 70
     0
 40
462.5
 10
486.11585987737283
 20
693.84359498755771
 41
977.66903914590773
 11
0.0
 21
0.0
 31
1.0
 12
0.0
 22
0.0
 32
0.0
 42
50.0
 43
0.0
 44
0.0
 50
0.0
 71
    16
  0
VIEW
  2
AM_VIEW2
 70
     0
 40
462.5
 10
930.94682073146555
 20
693.84359498755771
 41
977.66903914590773
 11
0.0
 21
0.0
 31
1.0
 12
0.0
 22
0.0
 32
0.0
 42
50.0
 43
0.0
 44
0.0
 50
0.0
 71
    16
  0
VIEW
  2
AM_VIEW3
 70
     0
 40
462.5
 10
486.11585987737283
 20
231.34359498755799
 41
977.66903914590773
 11
0.0
 21
0.0
 31
1.0
 12
0.0
 22
0.0
 32
0.0
 42
50.0
 43
0.0
 44
0.0
 50
0.0
 71
    16
  0
VIEW
  2
AM_VIEW4
 70
     0
 40
462.5
 10
930.94682073146555
 20
231.34359498755799
 41
977.66903914590773
 11
0.0
 21
0.0
 31
1.0
 12
0.0
 22
0.0
 32
0.0
 42
50.0
 43
0.0
 44
0.0
 50
0.0
 71
    16
  0
VIEW
  2
AM_VIEW5
 70
     0
 40
462.5
 10
708.53134030441925
 20
462.59359498755799
 41
977.66903914590773
 11
0.0
 21
0.0
 31
1.0
 12
0.0
 22
0.0
 32
0.0
 42
50.0
 43
0.0
 44
0.0
 50
0.0
 71
    16
  0
VIEW
  2
AM_VIEW6
 70
     0
 40
924.99075000000016
 10
708.53134030441925
 20
462.59359498755799
 41
1955.318524911032
 11
0.0
 21
0.0
 31
1.0
 12
0.0
 22
0.0
 32
0.0
 42
50.0
 43
0.0
 44
0.0
 50
0.0
 71
    16
  0
ENDTAB
  0
TABLE
  2
UCS
 70
     0
  0
ENDTAB
  0
TABLE
  2
APPID
 70
   161
  0
APPID
  2
ACAD
 70
     0
  0
APPID
  2
ACADANNOTATIVE
 70
     0
  0
APPID
  2
ACAD_MLEADERVER
 70
     0
  0
APPID
  2
MCAD_NO_VIS
 70
     0
  0
APPID
  2
ACAD_TEMP_GRAPHIC
 70
     0
  0
APPID
  2
AD_DRAW
 70
     0
  0
APPID
  2
ACATTRIBSERVICES
 70
     0
  0
APPID
  2
DESIGNERASSEMBLIES
 70
     0
  0
APPID
  2
ACADM_DIM_EDIT
 70
     0
  0
APPID
  2
AMDT_DM_ADJ
 70
     0
  0
APPID
  2
GENIUS_GENDIMSH_14
 70
     0
  0
APPID
  2
GEVID1057795304
 70
     0
  0
APPID
  2
GEVDC
 70
     0
  0
APPID
  2
GEVCON
 70
     0
  0
APPID
  2
GENIUS_GENBH_13
 70
     0
  0
APPID
  2
GENIUS_GENOENT_13
 70
     0
  0
APPID
  2
GENIUS_GENOBJ-NBEHI-BHF_13
 70
     0
  0
APPID
  2
GENIUS_GENOLIS_13
 70
     0
  0
APPID
  2
GENIUS_GENODEF_13
 70
     0
  0
APPID
  2
GENIUS_GENOREF_13
 70
     0
  0
APPID
  2
GENIUS_GENOBJ-NBEHI-BHB_13
 70
     0
  0
APPID
  2
GENIUS_GENOBJ-F-SCPASSM_13
 70
     0
  0
APPID
  2
GENIUS_GENDTOL_13
 70
     0
  0
APPID
  2
GENIUS_GENTRA_14
 70
     0
  0
APPID
  2
ASURF_PCURVE_APPNAME
 70
     0
  0
APPID
  2
GENIUS_GENCFG_13
 70
     0
  0
APPID
  2
GENIUS_GE3CFG0_13
 70
     0
  0
APPID
  2
GENIUS_GENCFG0_13
 70
     0
  0
APPID
  2
GENIUS_GENCFG1_13
 70
     0
  0
APPID
  2
GENIUS_GENCFG2_13
 70
     0
  0
APPID
  2
GENIUS_GENCFG3_13
 70
     0
  0
APPID
  2
GENIUS_GENCFG4_13
 70
     0
  0
APPID
  2
GENIUS_GEVCFG0_13
 70
     0
  0
APPID
  2
GENIUS_GENOBJ-N-TIT_13
 70
     0
  0
APPID
  2
GENIUS_GENTITLE_13
 70
     0
  0
APPID
  2
GENIUS_GENSCREG_15
 70
     0
  0
APPID
  2
GENIUS_GENOBJ-N-SDF_13
 70
     0
  0
APPID
  2
GENIUS_GENFIL_13
 70
     0
  0
APPID
  2
GENIUS_GENOBJ-N-CHA_13
 70
     0
  0
APPID
  2
GENIUS_GEFSH_13
 70
     0
  0
APPID
  2
GENIUS_GENOBJ-F-SHS_13
 70
     0
  0
APPID
  2
GENIUS_GENOBJ-N-CEN_13
 70
     0
  0
APPID
  2
GENIUS_GENREC_14
 70
     0
  0
APPID
  2
GENIUS_GENOBJ-N-REC_13
 70
     0
  0
APPID
  2
GENIUS_GENOBJ-N-HTC_13
 70
     0
  0
APPID
  2
GENIUS_GENHATCH_13
 70
     0
  0
APPID
  2
ACAD_PSEXT
 70
     0
  0
APPID
  2
ACAD_EXEMPT_FROM_CAD_STANDARDS
 70
     0
  0
APPID
  2
ACAECLAYERSTANDARD
 70
     0
  0
APPID
  2
GENIUS_GENCEN_19
 70
     0
  0
APPID
  2
ACAD_DSTYLE_DIMINSPECT
 70
     0
  0
APPID
  2
ACAD_DSTYLE_DIMANGULAR_EXT
 70
     0
  0
APPID
  2
ACADANNOPO
 70
     0
  0
APPID
  2
ACAD_NAV_VCDISPLAY
 70
     0
  0
APPID
  2
GENIUS_GENOBJ-N-FIL_13
 70
     0
  0
APPID
  2
ACAUTHENVIRON
 70
     0
  0
APPID
  2
ACDBDYNAMICBLOCKTRUENAME
 70
     0
  0
APPID
  2
ACDBDYNAMICBLOCKGUID
 70
     0
  0
APPID
  2
ACDBBLOCKREPETAG
 70
     0
  0
APPID
  2
ACAD_DSTYLE_DIMBREAK
 70
     0
  0
APPID
  2
ACAD_DSTYLE_DIMJAG
 70
     0
  0
APPID
  2
GENIUS_GENHINW_13
 70
     0
  0
APPID
  2
GENIUS_FIRSTVISTXT_14
 70
     0
  0
APPID
  2
GENIUS_GENOBJ-N-LEADER_13
 70
     0
  0
APPID
  2
DCO15
 70
     0
  0
APPID
  2
GENIUS_DUMCFG0_13
 70
     0
  0
APPID
  2
ACAD_DSTYLE_DIMTEXT_FILL
 70
     0
  0
APPID
  2
AMG_2DHIDE
 70
     0
  0
APPID
  2
GENIUS_GEFSHEP_13
 70
     0
  0
APPID
  2
GENIUS_GENOBJ-F-SHE_13
 70
     0
  0
APPID
  2
GENIUS_GEFSHE_13
 70
     0
  0
APPID
  2
ACAD_DIMASSOC_DIMLFAC
 70
     0
  0
APPID
  2
ACAD_DIMASSOC_CALC_DIMLFAC
 70
     0
  0
APPID
  2
ACAD_DIMASSOC_OVERRIDDEN_D
 70
     0
  0
APPID
  2
GENIUS_GENOBJ-F-SHSV_13
 70
     0
  0
APPID
  2
GENIUS_GEFWELD_13
 70
     0
  0
APPID
  2
GENIUS_GENOBJ-N-CRS_13
 70
     0
  0
APPID
  2
GENIUS_GENOBJ-N-RSBK_13
 70
     0
  0
APPID
  2
GENIUS_GENOBJ-N-LIB_13
 70
     0
  0
APPID
  2
GENIUS_GENSCALE_13
 70
     0
  0
APPID
  2
GENIUS_GENDREL_13
 70
     0
  0
APPID
  2
GEVPT
 70
     0
  0
APPID
  2
GEVIT
 70
     0
  0
APPID
  2
VCC
 70
     0
  0
APPID
  2
GENBH
 70
     0
  0
APPID
  2
GEVMK
 70
     0
  0
APPID
  2
GENIUS_GENOBJ-F-DESC_13
 70
     0
  0
APPID
  2
GENIUS_GEFDESC_14
 70
     0
  0
APPID
  2
GENIUS_GENOBJ-F-FEAT_13
 70
     0
  0
APPID
  2
GENIUS_GEFFEAT_14
 70
     0
  0
APPID
  2
GENIUS_GEFPARTINS_13
 70
     0
  0
APPID
  2
GENIUS_GENSCREG_13
 70
     0
  0
APPID
  2
GENIUS_GEFSHP_13
 70
     0
  0
APPID
  2
GEVID1025574798
 70
     0
  0
APPID
  2
GEVID1025574769
 70
     0
  0
APPID
  2
GEVID1025757451
 70
     0
  0
APPID
  2
GEVID1240528327
 70
     0
  0
APPID
  2
AMG_2DSTRUCT_BTR
 70
     0
  0
APPID
  2
ACADM_2DVIEW_IGN_NOTIFY
 70
     0
  0
APPID
  2
GEVID1240528328
 70
     0
  0
APPID
  2
GEVID1240528329
 70
     0
  0
APPID
  2
GEVRADREF
 70
     0
  0
APPID
  2
GEVID1240528330
 70
     0
  0
APPID
  2
GEVID1240528331
 70
     0
  0
APPID
  2
GEVID1240528332
 70
     0
  0
APPID
  2
GEVID1240791080
 70
     0
  0
APPID
  2
GEVID1240791081
 70
     0
  0
APPID
  2
GEVID1240791082
 70
     0
  0
APPID
  2
GEVID1240791083
 70
     0
  0
APPID
  2
GEVID1240791084
 70
     0
  0
APPID
  2
GEVID1240791085
 70
     0
  0
APPID
  2
GEVID1240791086
 70
     0
  0
APPID
  2
GEVID1240791087
 70
     0
  0
APPID
  2
GEVID1240791088
 70
     0
  0
APPID
  2
GEVID1240791089
 70
     0
  0
APPID
  2
GEVID1240791090
 70
     0
  0
APPID
  2
GEVID1240791091
 70
     0
  0
APPID
  2
GEVID1240791092
 70
     0
  0
APPID
  2
GEVID1240791093
 70
     0
  0
APPID
  2
GEVID1240791094
 70
     0
  0
APPID
  2
GEVID1240791095
 70
     0
  0
APPID
  2
GEVID1240791096
 70
     0
  0
APPID
  2
GEVID1240791097
 70
     0
  0
APPID
  2
GEVID1240791098
 70
     0
  0
APPID
  2
GEVID1240791099
 70
     0
  0
APPID
  2
GEVID1240791100
 70
     0
  0
APPID
  2
GEVID1240791101
 70
     0
  0
APPID
  2
GEVID1240791102
 70
     0
  0
APPID
  2
GEVID1240791103
 70
     0
  0
APPID
  2
GEVID1240791104
 70
     0
  0
APPID
  2
GEVID1240791105
 70
     0
  0
APPID
  2
GEVID1240875381
 70
     0
  0
APPID
  2
GEVID1240875382
 70
     0
  0
APPID
  2
GEVID1240875383
 70
     0
  0
APPID
  2
GEVID1240875384
 70
     0
  0
APPID
  2
GEVID1240875385
 70
     0
  0
APPID
  2
GEVID1240875386
 70
     0
  0
APPID
  2
GEVID1240875387
 70
     0
  0
APPID
  2
GEVID1240875388
 70
     0
  0
APPID
  2
GEVID1240875389
 70
     0
  0
APPID
  2
GEVID1240875390
 70
     0
  0
APPID
  2
GEVID1240875391
 70
     0
  0
APPID
  2
GEVID1240875392
 70
     0
  0
APPID
  2
GEVID1240875393
 70
     0
  0
APPID
  2
GEVID1240875394
 70
     0
  0
APPID
  2
GEVID1240875395
 70
     0
  0
APPID
  2
GEVID1240875396
 70
     0
  0
APPID
  2
GEVID1240875397
 70
     0
  0
APPID
  2
GEVID1240875398
 70
     0
  0
APPID
  2
GEVID1240875399
 70
     0
  0
APPID
  2
GEVID1240908996
 70
     0
  0
APPID
  2
GEVID1240908997
 70
     0
  0
APPID
  2
GEVID1240908998
 70
     0
  0
APPID
  2
GEVID1240908999
 70
     0
  0
APPID
  2
GEVID1240909000
 70
     0
  0
APPID
  2
GENIUS_GENOBJ-N-ZOO_13
 70
     0
  0
APPID
  2
GENIUS_GENZOO_17
 70
     0
  0
APPID
  2
ACAD_DSTYLE_DIMRADIAL_EXTENSION
 70
     0
  0
APPID
  2
GENIUS_GE3SECT_13
 70
     0
  0
APPID
  2
GEV_VCCNULL_SWITCH_OFF
 70
     0
  0
APPID
  2
ACAD_DSTYLE_DIMTALN
 70
     0
  0
ENDTAB
  0
TABLE
  2
DIMSTYLE
 70
    23
  0
DIMSTYLE
  2
AM_ANSI
 70
     0
  3

  4
"
  5

  6

  7

 40
1.0
 41
2.5
 42
1.0
 43
10.0
 44
1.0
 45
0.0
 46
0.0
 47
0.1
 48
0.1
140
3.5
141
0.0
142
0.0
143
0.0393701
144
1.0
145
0.0
146
0.71
147
1.5
 71
     0
 72
     0
 73
     1
 74
     1
 75
     0
 76
     0
 77
     0
 78
     8
170
     0
171
     2
172
     0
173
     0
174
     0
175
     0
176
     2
177
     2
178
     4
  0
DIMSTYLE
  2
AM_ANSI$3
 70
     0
  3

  4
"
  5

  6

  7

 40
1.0
 41
2.5
 42
1.0
 43
10.0
 44
1.0
 45
0.0
 46
0.0
 47
0.1
 48
0.1
140
3.5
141
0.0
142
0.0
143
0.0393701
144
1.0
145
0.0
146
0.71
147
1.5
 71
     0
 72
     0
 73
     1
 74
     1
 75
     0
 76
     0
 77
     0
 78
     8
170
     0
171
     2
172
     0
173
     0
174
     0
175
     0
176
     2
177
     2
178
     4
  0
DIMSTYLE
  2
AM_ANSI$4
 70
     0
  3

  4
"
  5

  6

  7

 40
1.0
 41
2.5
 42
1.0
 43
10.0
 44
1.0
 45
0.0
 46
0.0
 47
0.1
 48
0.1
140
3.5
141
0.0
142
0.0
143
0.0393701
144
1.0
145
0.0
146
0.71
147
1.5
 71
     0
 72
     0
 73
     1
 74
     1
 75
     0
 76
     0
 77
     0
 78
     8
170
     0
171
     2
172
     0
173
     0
174
     0
175
     0
176
     2
177
     2
178
     4
  0
DIMSTYLE
  2
AM_ANSI$7
 70
     0
  3

  4
"
  5

  6

  7

 40
1.0
 41
2.5
 42
1.0
 43
10.0
 44
1.0
 45
0.0
 46
0.0
 47
0.1
 48
0.1
140
5.0
141
0.0
142
0.0
143
0.0393701
144
1.0
145
0.0
146
0.71
147
1.5
 71
     0
 72
     0
 73
     1
 74
     1
 75
     0
 76
     0
 77
     0
 78
     8
170
     0
171
     2
172
     0
173
     0
174
     0
175
     0
176
     2
177
     2
178
     4
  0
DIMSTYLE
  2
AM_ANSI$SF
 70
     0
  3

  4
"
  5

  6

  7

 40
1.0
 41
2.5
 42
1.0
 43
10.0
 44
1.0
 45
0.0
 46
0.0
 47
0.1
 48
0.1
140
3.5
141
0.0
142
0.0
143
0.0393701
144
1.0
145
0.0
146
0.71
147
1.5
 71
     0
 72
     0
 73
     1
 74
     1
 75
     1
 76
     1
 77
     0
 78
     8
170
     0
171
     2
172
     0
173
     0
174
     0
175
     0
176
     2
177
     2
178
     4
  0
DIMSTYLE
  2
AM_ANSI$SH
 70
     0
  3

  4
"
  5

  6
GENAXEH
  7

 40
1.0
 41
2.5
 42
1.0
 43
10.0
 44
1.0
 45
0.0
 46
0.0
 47
0.1
 48
0.1
140
3.5
141
0.0
142
0.0
143
0.0393701
144
1.0
145
0.0
146
0.71
147
1.5
 71
     0
 72
     0
 73
     1
 74
     1
 75
     1
 76
     1
 77
     0
 78
     8
170
     0
171
     2
172
     0
173
     1
174
     0
175
     0
176
     2
177
     2
178
     4
  0
DIMSTYLE
  2
AM_ISO
 70
     0
  3

  4
"
  5

  6

  7

 40
1.0
 41
2.5
 42
1.0
 43
10.0
 44
1.0
 45
0.0
 46
0.0
 47
0.1
 48
0.1
140
3.5
141
0.0
142
0.0
143
0.0393701
144
1.0
145
0.0
146
0.71
147
1.5
 71
     0
 72
     0
 73
     0
 74
     0
 75
     0
 76
     0
 77
     1
 78
     8
170
     0
171
     2
172
     1
173
     0
174
     0
175
     0
176
   256
177
   256
178
     2
  0
DIMSTYLE
  2
AM_ISO$3
 70
     0
  3

  4
"
  5

  6

  7

 40
1.0
 41
2.5
 42
1.0
 43
10.0
 44
1.0
 45
0.0
 46
0.0
 47
0.1
 48
0.1
140
3.5
141
0.0
142
0.0
143
0.0393701
144
1.0
145
0.0
146
0.71
147
1.5
 71
     0
 72
     0
 73
     0
 74
     1
 75
     0
 76
     0
 77
     1
 78
     8
170
     0
171
     2
172
     0
173
     0
174
     0
175
     0
176
   256
177
   256
178
     2
  0
DIMSTYLE
  2
AM_ISO$4
 70
     0
  3

  4
"
  5

  6

  7

 40
1.0
 41
2.5
 42
1.0
 43
10.0
 44
1.0
 45
0.0
 46
0.0
 47
0.1
 48
0.1
140
3.5
141
0.0
142
0.0
143
0.0393701
144
1.0
145
0.0
146
0.71
147
1.5
 71
     0
 72
     0
 73
     0
 74
     1
 75
     0
 76
     0
 77
     1
 78
     8
170
     0
171
     2
172
     0
173
     0
174
     0
175
     0
176
   256
177
   256
178
     2
  0
DIMSTYLE
  2
AM_ISO$6
 70
     0
  3

  4
"
  5

  6

  7

 40
1.0
 41
2.5
 42
1.0
 43
10.0
 44
1.0
 45
0.0
 46
0.0
 47
0.1
 48
0.1
140
3.5
141
0.0
142
0.0
143
0.0393701
144
1.0
145
0.0
146
0.71
147
1.5
 71
     0
 72
     0
 73
     0
 74
     0
 75
     0
 76
     0
 77
     0
 78
     8
170
     0
171
     2
172
     1
173
     0
174
     0
175
     0
176
   256
177
   256
178
     2
  0
DIMSTYLE
  2
AM_ISO$7
 70
     0
  3

  4
"
  5

  6

  7

 40
1.0
 41
2.5
 42
1.0
 43
10.0
 44
1.0
 45
0.0
 46
0.0
 47
0.1
 48
0.1
140
5.0
141
0.0
142
0.0
143
0.0393701
144
1.0
145
0.0
146
0.71
147
1.5
 71
     0
 72
     0
 73
     0
 74
     0
 75
     0
 76
     0
 77
     1
 78
     8
170
     0
171
     2
172
     1
173
     0
174
     0
175
     0
176
   256
177
   256
178
     2
  0
DIMSTYLE
  2
AM_ISO$SF
 70
     0
  3

  4
"
  5

  6

  7

 40
1.0
 41
2.5
 42
1.0
 43
10.0
 44
1.0
 45
0.0
 46
0.0
 47
0.1
 48
0.1
140
3.5
141
0.0
142
0.0
143
0.0393701
144
1.0
145
0.0
146
0.71
147
1.5
 71
     0
 72
     0
 73
     0
 74
     0
 75
     1
 76
     1
 77
     1
 78
     8
170
     0
171
     2
172
     1
173
     0
174
     0
175
     0
176
   256
177
   256
178
     2
  0
DIMSTYLE
  2
AM_ISO$SH
 70
     0
  3

  4
"
  5

  6
GENAXEH
  7

 40
1.0
 41
2.5
 42
1.0
 43
10.0
 44
1.0
 45
0.0
 46
0.0
 47
0.1
 48
0.1
140
3.5
141
0.0
142
0.0
143
0.0393701
144
2.0
145
0.0
146
0.71
147
1.5
 71
     0
 72
     0
 73
     0
 74
     0
 75
     1
 76
     1
 77
     1
 78
     8
170
     0
171
     2
172
     1
173
     1
174
     0
175
     0
176
   256
177
   256
178
     2
  0
DIMSTYLE
  2
AM_JIS
 70
     0
  3

  4
"
  5

  6

  7

 40
1.0
 41
2.0
 42
1.0
 43
8.0
 44
1.0
 45
0.0
 46
0.0
 47
0.1
 48
0.1
140
2.5
141
0.0
142
0.0
143
0.0393701
144
1.0
145
0.0
146
0.71
147
1.5
 71
     0
 72
     0
 73
     0
 74
     0
 75
     0
 76
     0
 77
     3
 78
     8
170
     0
171
     2
172
     1
173
     0
174
     0
175
     0
176
     2
177
     2
178
     4
  0
DIMSTYLE
  2
AM_JIS$3
 70
     0
  3

  4
"
  5

  6

  7

 40
1.0
 41
2.0
 42
1.0
 43
10.0
 44
1.0
 45
0.0
 46
0.0
 47
0.1
 48
0.1
140
2.5
141
0.0
142
0.0
143
0.0393701
144
1.0
145
0.0
146
0.71
147
1.5
 71
     0
 72
     0
 73
     0
 74
     1
 75
     0
 76
     0
 77
     3
 78
     8
170
     0
171
     2
172
     0
173
     0
174
     0
175
     0
176
     2
177
     2
178
     4
  0
DIMSTYLE
  2
AM_JIS$4
 70
     0
  3

  4
"
  5

  6

  7

 40
1.0
 41
2.0
 42
1.0
 43
10.0
 44
1.0
 45
0.0
 46
0.0
 47
0.1
 48
0.1
140
2.5
141
0.0
142
0.0
143
0.0393701
144
1.0
145
0.0
146
0.71
147
1.5
 71
     0
 72
     0
 73
     0
 74
     0
 75
     0
 76
     0
 77
     3
 78
     8
170
     0
171
     2
172
     0
173
     0
174
     0
175
     0
176
     2
177
     2
178
     4
  0
DIMSTYLE
  2
AM_JIS$6
 70
     0
  3

  4
"
  5

  6

  7

 40
1.0
 41
2.0
 42
1.0
 43
10.0
 44
1.0
 45
0.0
 46
0.0
 47
0.1
 48
0.1
140
2.5
141
0.0
142
0.0
143
0.0393701
144
1.0
145
0.0
146
0.71
147
1.5
 71
     0
 72
     0
 73
     0
 74
     0
 75
     0
 76
     0
 77
     0
 78
     8
170
     0
171
     2
172
     1
173
     0
174
     0
175
     0
176
     2
177
     2
178
     4
  0
DIMSTYLE
  2
AM_JIS$7
 70
     0
  3

  4
"
  5

  6
OPEN30
  7
OPEN30
 40
1.0
 41
2.0
 42
1.0
 43
10.0
 44
1.0
 45
0.0
 46
0.0
 47
0.1
 48
0.1
140
2.5
141
0.0
142
0.0
143
0.0393701
144
1.0
145
0.0
146
0.71
147
1.5
 71
     0
 72
     0
 73
     0
 74
     0
 75
     0
 76
     0
 77
     3
 78
     8
170
     0
171
     2
172
     1
173
     0
174
     0
175
     0
176
     2
177
     2
178
     4
  0
DIMSTYLE
  2
AM_JIS$SF
 70
     0
  3

  4
"
  5

  6

  7

 40
1.0
 41
2.0
 42
1.0
 43
10.0
 44
1.0
 45
0.0
 46
0.0
 47
0.1
 48
0.1
140
2.5
141
0.0
142
0.0
143
0.0393701
144
1.0
145
0.0
146
0.71
147
1.5
 71
     0
 72
     0
 73
     0
 74
     0
 75
     1
 76
     1
 77
     3
 78
     8
170
     0
171
     2
172
     1
173
     0
174
     0
175
     0
176
     2
177
     2
178
     4
  0
DIMSTYLE
  2
AM_JIS$SH
 70
     0
  3

  4
"
  5

  6
GENAXEH
  7

 40
1.0
 41
2.0
 42
1.0
 43
10.0
 44
1.0
 45
0.0
 46
0.0
 47
0.1
 48
0.1
140
2.5
141
0.0
142
0.0
143
0.0393701
144
2.0
145
0.0
146
0.71
147
1.5
 71
     0
 72
     0
 73
     0
 74
     0
 75
     1
 76
     1
 77
     3
 78
     8
170
     0
171
     2
172
     1
173
     1
174
     0
175
     0
176
     2
177
     2
178
     4
  0
DIMSTYLE
  2
AM_JIS$0
 70
     0
  3

  4
"
  5

  6

  7

 40
1.0
 41
2.0
 42
1.0
 43
8.0
 44
1.0
 45
0.0
 46
0.0
 47
0.1
 48
0.1
140
2.5
141
0.0
142
0.0
143
0.0393701
144
1.0
145
0.0
146
0.71
147
1.5
 71
     0
 72
     0
 73
     0
 74
     0
 75
     0
 76
     0
 77
     3
 78
     8
170
     0
171
     2
172
     1
173
     0
174
     0
175
     0
176
     2
177
     2
178
     4
  0
DIMSTYLE
  2
STANDARD
 70
     0
  3

  4

  5

  6

  7

 40
1.0
 41
0.18
 42
0.0625
 43
0.38
 44
0.18
 45
0.0
 46
0.0
 47
0.0
 48
0.0
140
0.18
141
0.09
142
0.0
143
25.399999999999999
144
1.0
145
0.0
146
1.0
147
0.09
 71
     0
 72
     0
 73
     1
 74
     1
 75
     0
 76
     0
 77
     0
 78
     0
170
     0
171
     2
172
     0
173
     0
174
     0
175
     0
176
     0
177
     0
178
     0
  0
DIMSTYLE
  2
AM_JIS$2
 70
     0
  3

  4
"
  5

  6

  7

 40
1.0
 41
2.0
 42
1.0
 43
8.0
 44
1.0
 45
0.0
 46
0.0
 47
0.1
 48
0.1
140
2.5
141
0.0
142
0.0
143
0.0393701
144
1.0
145
0.0
146
0.71
147
1.5
 71
     0
 72
     0
 73
     0
 74
     0
 75
     0
 76
     0
 77
     3
 78
     8
170
     0
171
     2
172
     1
173
     0
174
     0
175
     0
176
     2
177
     2
178
     4
  0
ENDTAB
  0
ENDSEC
  0
SECTION
  2
BLOCKS
  0
BLOCK
  8
0
  2
$MODEL_SPACE
 70
     0
 10
0.0
 20
0.0
 30
0.0
  3
$MODEL_SPACE
  1

  0
ENDBLK
  5
77
  8
0
  0
BLOCK
 67
     1
  8
0
  2
$PAPER_SPACE
 70
     0
 10
0.0
 20
0.0
 30
0.0
  3
$PAPER_SPACE
  1

  0
ENDBLK
  5
73
 67
     1
  8
0
  0
BLOCK
  8
0
  2
GENAXEH
 70
     0
 10
0.0
 20
0.0
 30
0.0
  3
GENAXEH
  1

  0
LINE
  5
82AC
  8
0
 10
-1.0
 20
0.0
 30
0.0
 11
1.0
 21
0.0
 31
0.0
  0
ENDBLK
  5
82AD
  8
0
  0
BLOCK
  8
0
  2
_OPEN30
 70
     0
 10
0.0
 20
0.0
 30
0.0
  3
_OPEN30
  1

  0
LINE
  5
82F3
  8
0
  6
BYBLOCK
 62
     0
 10
-1.0
 20
0.26794919
 30
0.0
 11
0.0
 21
0.0
 31
0.0
  0
LINE
  5
82F4
  8
0
  6
BYBLOCK
 62
     0
 10
0.0
 20
0.0
 30
0.0
 11
-1.0
 21
-0.26794919
 31
0.0
  0
LINE
  5
82F5
  8
0
  6
BYBLOCK
 62
     0
 10
0.0
 20
0.0
 30
0.0
 11
-1.0
 21
0.0
 31
0.0
  0
ENDBLK
  5
82F6
  8
0
  0
BLOCK
  8
0
  2
_ACMFILLEDHALF
 70
     0
 10
0.0
 20
0.0
 30
0.0
  3
_ACMFILLEDHALF
  1

  0
TRACE
  5
7770
  8
0
 62
     0
 10
-0.8
 20
0.0
 30
0.0
 11
-1.0
 21
0.166666666
 31
0.0
 12
0.0
 22
0.0
 32
0.0
 13
0.0
 23
0.0
 33
0.0
  0
LINE
  5
7771
  8
0
 62
     0
 10
-1.0
 20
0.0
 30
0.0
 11
-0.8
 21
0.0
 31
0.0
  0
ENDBLK
  5
7772
  8
0
  0
BLOCK
  8
0
  2
_ACMFILLED
 70
     0
 10
0.0
 20
0.0
 30
0.0
  3
_ACMFILLED
  1

  0
TRACE
  5
7780
  8
0
 62
     0
 10
-1.0
 20
-0.166666666
 30
0.0
 11
-1.0
 21
0.166666666
 31
0.0
 12
0.0
 22
0.0
 32
0.0
 13
0.0
 23
0.0
 33
0.0
  0
ENDBLK
  5
7781
  8
0
  0
BLOCK
  8
0
  2
_ACMFILLED15
 70
     0
 10
0.0
 20
0.0
 30
0.0
  3
_ACMFILLED15
  1

  0
TRACE
  5
77B5
  8
0
 62
     0
 10
-1.0
 20
-0.131652497
 30
0.0
 11
-1.0
 21
0.131652497
 31
0.0
 12
0.0
 22
0.0
 32
0.0
 13
0.0
 23
0.0
 33
0.0
  0
ENDBLK
  5
77B6
  8
0
  0
BLOCK
  8
0
  2
_ACMOPEN15
 70
     0
 10
0.0
 20
0.0
 30
0.0
  3
_ACMOPEN15
  1

  0
LINE
  5
77E8
  8
0
 62
     0
 10
-1.0
 20
0.0
 30
0.0
 11
0.0
 21
0.0
 31
0.0
  0
LINE
  5
77E9
  8
0
 62
     0
 10
-1.0
 20
-0.131652497
 30
0.0
 11
0.0
 21
0.0
 31
0.0
  0
LINE
  5
77EA
  8
0
 62
     0
 10
0.0
 20
0.0
 30
0.0
 11
-1.0
 21
0.131652497
 31
0.0
  0
ENDBLK
  5
77EB
  8
0
  0
BLOCK
  8
0
  2
A$C522B1E4B
 70
     0
 10
0.0
 20
0.0
 30
0.0
  3
A$C522B1E4B
  1

  0
LINE
  5
7971
  8
0
  6
CONTINUOUS
 62
     7
 10
0.0
 20
16.0
 30
0.0
 11
-57.999999999999929
 21
16.0
 31
0.0
  0
LINE
  5
7972
  8
0
  6
CONTINUOUS
 62
     7
 10
0.0
 20
19.000000000000082
 30
0.0
 11
-44.999999999999929
 21
19.000000000000082
 31
0.0
  0
LINE
  5
7973
  8
0
  6
CONTINUOUS
 62
     7
 10
0.0
 20
-15.99998000000002
 30
0.0
 11
-57.999999999999929
 21
-15.99998000000002
 31
0.0
  0
LINE
  5
7974
  8
0
  6
CONTINUOUS
 62
     7
 10
-44.999999999999929
 20
16.0
 30
0.0
 11
-44.999999999999929
 21
19.000000000000082
 31
0.0
  0
LINE
  5
7975
  8
0
  6
CENTER
 62
     1
 10
-210.03836000000001
 20
0.0
 30
0.0
 11
2.7792100000000901
 21
0.0
 31
0.0
  0
LINE
  5
7976
  8
0
  6
CONTINUOUS
 62
     7
 10
0.0
 20
-15.99998000000002
 30
0.0
 11
0.0
 21
19.000000000000082
 31
0.0
  0
LINE
  5
7977
  8
0
  6
CONTINUOUS
 62
     7
 10
-175.0000299999999
 20
2.1853499999999988
 30
0.0
 11
-174.99850000000001
 21
2.1853499999999988
 31
0.0
  0
LINE
  5
7978
  8
0
  6
CONTINUOUS
 62
     7
 10
-175.0000299999999
 20
-127.4999929999999
 30
0.0
 11
-175.0000299999999
 21
71.5
 31
0.0
  0
LINE
  5
7979
  8
0
  6
CONTINUOUS
 62
     7
 10
-194.00002999999981
 20
55.302660000000067
 30
0.0
 11
-186.99996999999979
 21
55.302660000000067
 31
0.0
  0
LINE
  5
797A
  8
0
  6
CONTINUOUS
 62
     7
 10
-195.00002999999981
 20
38.332099999999969
 30
0.0
 11
-186.99996999999979
 21
38.332099999999969
 31
0.0
  0
LINE
  5
797B
  8
0
  6
CONTINUOUS
 62
     7
 10
-197.00002999999981
 20
52.302660000000003
 30
0.0
 11
-197.00002999999981
 21
-87.742672999999925
 31
0.0
  0
LINE
  5
797C
  8
0
  6
CONTINUOUS
 62
     7
 10
-185.00002999999981
 20
36.332110000000092
 30
0.0
 11
-185.00002999999981
 21
-88.380230999999924
 31
0.0
  0
LINE
  5
797D
  8
0
  6
CONTINUOUS
 62
     7
 10
-185.00002999999981
 20
69.219419999999985
 30
0.0
 11
-185.00002999999981
 21
57.30265
 31
0.0
  0
LINE
  5
797E
  8
0
  6
CONTINUOUS
 62
     7
 10
-183.06979000000001
 20
-127.2181749999999
 30
0.0
 11
-175.0000299999999
 21
-127.4999779999999
 31
0.0
  0
LINE
  5
797F
  8
0
  6
CONTINUOUS
 62
     7
 10
-183.06985
 20
71.218220000000073
 30
0.0
 11
-174.99996999999991
 21
71.500020000000063
 31
0.0
  0
LINE
  5
7980
  8
0
  6
CONTINUOUS
 62
     7
 10
-194.00002999999981
 20
-108.41777499999991
 30
0.0
 11
-186.99996999999979
 21
-108.41777499999991
 31
0.0
  0
LINE
  5
7981
  8
0
  6
CONTINUOUS
 62
     7
 10
-185.00002999999981
 20
-110.41777499999991
 30
0.0
 11
-185.00002999999981
 21
-125.2194029999999
 31
0.0
  0
LINE
  5
7982
  8
0
  6
CONTINUOUS
 62
     7
 10
-197.00002999999981
 20
-87.742672999999925
 30
0.0
 11
-197.00002999999981
 21
-105.41777499999991
 31
0.0
  0
LINE
  5
7983
  8
0
  6
CONTINUOUS
 62
     7
 10
-195.94424000000001
 20
29.382680000000079
 30
0.0
 11
-186.3864999999999
 21
29.382680000000079
 31
0.0
  0
LINE
  5
7984
  8
0
  6
CONTINUOUS
 62
     7
 10
-57.999999999999929
 20
-104.9999819999999
 30
0.0
 11
-57.999999999999929
 21
105.00003000000009
 31
0.0
  0
LINE
  5
7985
  8
0
  6
CONTINUOUS
 62
     7
 10
-62.000029999999917
 20
105.00003000000009
 30
0.0
 11
-57.999999999999929
 21
105.00003000000009
 31
0.0
  0
LINE
  5
7986
  8
0
  6
CONTINUOUS
 62
     7
 10
-73.284609999999986
 20
93.591620000000106
 30
0.0
 11
-73.104699999999923
 21
93.597899999999981
 31
0.0
  0
LINE
  5
7987
  8
0
  6
CONTINUOUS
 62
     7
 10
-113.90004999999999
 20
73.099980000000102
 30
0.0
 11
-106.66986
 21
71.938710000000071
 31
0.0
  0
LINE
  5
7988
  8
0
  6
CONTINUOUS
 62
     7
 10
-74.000029999999882
 20
-61.689259999999912
 30
0.0
 11
-69.999999999999915
 21
-61.689259999999912
 31
0.0
  0
LINE
  5
7989
  8
0
  6
CONTINUOUS
 62
     7
 10
-74.000029999999882
 20
-31.764229999999909
 30
0.0
 11
-69.999999999999915
 21
-31.764229999999909
 31
0.0
  0
LINE
  5
798A
  8
0
  6
CONTINUOUS
 62
     7
 10
-74.000029999999882
 20
55.910750000000071
 30
0.0
 11
-69.999999999999915
 21
55.910750000000071
 31
0.0
  0
LINE
  5
798B
  8
0
  6
CONTINUOUS
 62
     7
 10
-89.112149999999986
 20
49.037050000000079
 30
0.0
 11
-93.532899999999984
 21
6.4331400000000079
 31
0.0
  0
LINE
  5
798C
  8
0
  6
CENTER
 62
     7
 10
-54.403039999999969
 20
-95.459400999999929
 30
0.0
 11
-80.647059999999755
 21
-95.459400999999929
 31
0.0
  0
LINE
  5
798D
  8
0
  6
CONTINUOUS
 62
     7
 10
-197.00002999999981
 20
-88.380230999999924
 30
0.0
 11
-78.736509999999782
 21
-88.380230999999924
 31
0.0
  0
LINE
  5
798E
  8
0
  6
CONTINUOUS
 62
     7
 10
-89.763089999999906
 20
-129.73199199999991
 30
0.0
 11
-69.0
 21
-117.7444119999999
 31
0.0
  0
LINE
  5
798F
  8
0
  6
CONTINUOUS
 62
     7
 10
-197.00002999999981
 20
51.204439999999998
 30
0.0
 11
-90.006529999999984
 21
51.204439999999998
 31
0.0
  0
LINE
  5
7990
  8
0
  6
CONTINUOUS
 62
     7
 10
-77.000029999999981
 20
-114.9172029999999
 30
0.0
 11
-77.000029999999981
 21
-64.689259999999919
 31
0.0
  0
LINE
  5
7991
  8
0
  6
CONTINUOUS
 62
     7
 10
-77.000029999999981
 20
-28.764229999999909
 30
0.0
 11
-77.000029999999981
 21
58.91075
 31
0.0
  0
LINE
  5
7992
  8
0
  6
CONTINUOUS
 62
     7
 10
-186.99996999999979
 20
-108.41777499999991
 30
0.0
 11
-78.736509999999782
 21
-108.41777499999991
 31
0.0
  0
LINE
  5
7993
  8
0
  6
CONTINUOUS
 62
     7
 10
-62.000029999999917
 20
-117.4999889999999
 30
0.0
 11
-62.000029999999917
 21
0.0
 31
0.0
  0
LINE
  5
7994
  8
0
  6
CONTINUOUS
 62
     7
 10
-62.000029999999917
 20
0.0
 30
0.0
 11
-62.000029999999917
 21
117.5
 31
0.0
  0
LINE
  5
7995
  8
0
  6
CONTINUOUS
 62
     7
 10
-74.104729999999805
 20
117.07729999999999
 30
0.0
 11
-61.999999999999929
 21
117.5
 31
0.0
  0
LINE
  5
7996
  8
0
  6
CONTINUOUS
 62
     7
 10
-74.715449999999905
 20
-94.429699999999926
 30
0.0
 11
-72.895320000000027
 21
-94.366138999999947
 31
0.0
  0
LINE
  5
7997
  8
0
  6
CONTINUOUS
 62
     7
 10
-69.999999999999915
 20
0.0
 30
0.0
 11
-69.999999999999915
 21
90.599730000000079
 31
0.0
  0
LINE
  5
7998
  8
0
  6
CONTINUOUS
 62
     7
 10
-62.000029999999917
 20
-104.9999819999999
 30
0.0
 11
-57.999999999999929
 21
-104.9999819999999
 31
0.0
  0
LINE
  5
7999
  8
0
  6
CONTINUOUS
 62
     7
 10
-69.999999999999915
 20
-91.367962999999904
 30
0.0
 11
-69.999999999999915
 21
0.0
 31
0.0
  0
LINE
  5
799A
  8
0
  6
CENTER
 62
     7
 10
-53.178099999999972
 20
95.459409999999991
 30
0.0
 11
-81.432009999999934
 21
95.459409999999991
 31
0.0
  0
LINE
  5
799B
  8
0
  6
CONTINUOUS
 62
     7
 10
-73.895289999999932
 20
-117.9153869999999
 30
0.0
 11
-61.999999999999929
 21
-117.49999699999989
 31
0.0
  0
LINE
  5
799C
  8
0
  6
CONTINUOUS
 62
     7
 10
-175.0000299999999
 20
-127.4999819999999
 30
0.0
 11
-89.763089999999906
 21
-129.73198799999989
 31
0.0
  0
LINE
  5
799D
  8
0
  6
CONTINUOUS
 62
     7
 10
-175.0000299999999
 20
71.5
 30
0.0
 11
-115.8941599999999
 21
73.047750000000022
 31
0.0
  0
LINE
  5
799E
  8
0
  6
CONTINUOUS
 62
     7
 10
-112.48947
 20
74.510469999999984
 30
0.0
 11
-76.999970000000019
 21
109.9999700000001
 31
0.0
  0
LINE
  5
799F
  8
0
  6
CONTINUOUS
 62
     7
 10
-77.000029999999981
 20
58.91075
 30
0.0
 11
-77.000029999999981
 21
114.07914
 31
0.0
  0
ARC
  5
79A0
  8
0
  6
CONTINUOUS
 62
     7
 10
-194.00002999999981
 20
52.302660000000003
 30
0.0
 40
3.0
 50
90.000003000000945
 51
180.00000999999941
  0
ARC
  5
79A1
  8
0
  6
CONTINUOUS
 62
     7
 10
-200.00002999999981
 20
49.601859999999988
 30
0.0
 40
3.0
 50
272.0000000000004
 51
0.0
  0
ARC
  5
79A2
  8
0
  6
CONTINUOUS
 62
     7
 10
-183.00002999999981
 20
69.219419999999985
 30
0.0
 40
2.0
 50
91.999998000000545
 51
180.00000999999941
  0
ARC
  5
79A3
  8
0
  6
CONTINUOUS
 62
     7
 10
-186.99996999999979
 20
57.30265
 30
0.0
 40
2.0
 50
270.0
 51
0.0
  0
ARC
  5
79A4
  8
0
  6
CONTINUOUS
 62
     7
 10
-183.00002999999981
 20
-125.2194029999999
 30
0.0
 40
2.0
 50
179.99999000000059
 51
268.00000999999872
  0
ARC
  5
79A5
  8
0
  6
CONTINUOUS
 62
     7
 10
-186.99996999999979
 20
-110.41777499999991
 30
0.0
 40
2.0
 50
0.0
 51
90.000003000000945
  0
ARC
  5
79A6
  8
0
  6
CONTINUOUS
 62
     7
 10
-186.99996999999979
 20
36.332110000000092
 30
0.0
 40
2.0
 50
0.0
 51
90.000003000000945
  0
ARC
  5
79A7
  8
0
  6
CONTINUOUS
 62
     7
 10
-195.00002999999981
 20
36.332110000000092
 30
0.0
 40
2.0
 50
90.000003000000945
 51
180.00000999999941
  0
ARC
  5
79A8
  8
0
  6
CONTINUOUS
 62
     7
 10
-200.00002999999981
 20
-105.60181899999991
 30
0.0
 40
3.0
 50
0.0
 51
87.999999999999588
  0
ARC
  5
79A9
  8
0
  6
CONTINUOUS
 62
     7
 10
-194.00002999999981
 20
-105.41777499999991
 30
0.0
 40
3.0
 50
179.99999000000059
 51
270.0
  0
ARC
  5
79AA
  8
0
  6
CONTINUOUS
 62
     7
 10
-116.0250799999999
 20
78.046019999999999
 30
0.0
 40
5.0
 50
271.49999999999949
 51
315.0
  0
ARC
  5
79AB
  8
0
  6
CONTINUOUS
 62
     7
 10
-73.0
 20
90.599730000000079
 30
0.0
 40
3.0
 50
0.0
 51
91.999998000000545
  0
ARC
  5
79AC
  8
0
  6
CONTINUOUS
 62
     7
 10
-74.000029999999882
 20
114.07914
 30
0.0
 40
3.0
 50
91.999998000000545
 51
180.00000999999941
  0
ARC
  5
79AD
  8
0
  6
CONTINUOUS
 62
     7
 10
-74.000029999999882
 20
58.91075
 30
0.0
 40
3.0
 50
179.99999000000059
 51
270.0
  0
ARC
  5
79AE
  8
0
  6
CONTINUOUS
 62
     7
 10
-73.0
 20
-91.367962999999904
 30
0.0
 40
3.0
 50
272.0000000000004
 51
0.0
  0
ARC
  5
79AF
  8
0
  6
CONTINUOUS
 62
     7
 10
-74.000029999999882
 20
-28.764229999999909
 30
0.0
 40
3.0
 50
179.99999000000059
 51
270.0
  0
ARC
  5
79B0
  8
0
  6
CONTINUOUS
 62
     7
 10
-74.000029999999882
 20
-64.689259999999919
 30
0.0
 40
3.0
 50
90.000003000000945
 51
180.00000999999941
  0
ARC
  5
79B1
  8
0
  6
CONTINUOUS
 62
     7
 10
-53.746519999999933
 20
2.304770000000075
 30
0.0
 40
40.0
 50
174.0759799999995
 51
234.4553400000012
  0
ARC
  5
79B2
  8
0
  6
CONTINUOUS
 62
     7
 10
-110.00003
 20
51.204439999999998
 30
0.0
 40
21.0
 50
354.07597999999962
 51
80.87552500000011
  0
ARC
  5
79B3
  8
0
  6
CONTINUOUS
 62
     7
 10
-74.000029999999882
 20
-114.9172029999999
 30
0.0
 40
3.0
 50
179.99999000000059
 51
271.99999000000128
  0
ENDBLK
  5
79B5
  8
0
  0
BLOCK
  8
0
  2
*U11
 70
     1
 10
0.0
 20
0.0
 30
0.0
  3
*U11
  1

  0
TEXT
  5
84A4
  8
0
 62
     0
 10
5.1211371559201648
 20
5.9826223594979657
 30
0.0
 40
15.0
  1
ＶＸ０８－００３ＥＭ～ＶＸ０８－０３０ＥＭ
 41
0.7400000000000003
  0
ENDBLK
  5
84A6
  8
0
  0
ENDSEC
  0
SECTION
  2
ENTITIES
  0
LINE
  5
7272
  8
0
  6
AM_ISO08W050
 10
144.29516950721441
 20
807.4744588366716
 30
0.0
 11
691.73307310266875
 21
807.4744588366716
 31
0.0
  0
LINE
  5
728F
  8
0
  6
CONTINUOUS
 10
683.82023310266868
 20
791.47451883667145
 30
0.0
 11
683.82023310266868
 21
823.4744588366716
 31
0.0
  0
LINE
  5
72BB
  8
0
  6
CONTINUOUS
 10
447.3203231026701
 20
733.97448883667141
 30
0.0
 11
447.3203231026701
 21
880.97445883667115
 31
0.0
  0
ARC
  5
72E6
  8
0
  6
CONTINUOUS
 10
489.82020310266898
 20
716.55337883667141
 30
0.0
 40
3.0
 50
180.000010000001
 51
270.0
  0
ARC
  5
72EC
  8
0
  6
CONTINUOUS
 10
489.82020310266898
 20
898.39559883667164
 30
0.0
 40
3.0
 50
90.00000299999769
 51
180.000010000001
  0
ARC
  5
7309
  8
0
 10
169.2202531026698
 20
721.97708483667157
 30
0.0
 40
2.399999999999999
 50
180.0
 51
199.99999999999761
  0
ARC
  5
730A
  8
0
 10
173.81471710266979
 20
709.35389983667164
 30
0.0
 40
2.399999999999999
 50
199.99999999999761
 51
270.0
  0
LINE
  5
730B
  8
0
 10
171.5594541026698
 20
708.53305183667135
 30
0.0
 11
166.96499110266981
 21
721.15623683667138
 31
0.0
  0
LINE
  5
730C
  8
0
 10
239.82025310266991
 20
706.95389983667155
 30
0.0
 11
173.81471710266979
 21
706.95389983667155
 31
0.0
  0
LINE
  5
730D
  8
0
 10
239.82025310266991
 20
907.99501783667165
 30
0.0
 11
239.82025310266991
 21
706.95389983667155
 31
0.0
  0
LINE
  5
730E
  8
0
 10
171.5594541026698
 20
906.41586583667163
 30
0.0
 11
166.96499110266981
 21
893.79268083667159
 31
0.0
  0
ARC
  5
730F
  8
0
 10
173.81471710266979
 20
905.59501783667156
 30
0.0
 40
2.399999999999999
 50
90.0
 51
160.00000000000239
  0
ARC
  5
7310
  8
0
 10
169.2202531026698
 20
892.97183283667164
 30
0.0
 40
2.399999999999999
 50
160.00000000000239
 51
180.0
  0
LINE
  5
7311
  8
0
 10
172.13421810266991
 20
907.30847183667163
 30
0.0
 11
172.13421810266991
 21
706.95389983667155
 31
0.0
  0
LINE
  5
7312
  8
0
 10
166.82025310266991
 20
892.97183283667164
 30
0.0
 11
166.82025310266991
 21
722.19501783667135
 31
0.0
  0
LINE
  5
7313
  8
0
 10
239.82025310266991
 20
907.99501783667165
 30
0.0
 11
173.81471710266979
 21
907.99501783667165
 31
0.0
  0
LINE
  5
7314
  8
0
 10
373.82025310266988
 20
705.4744588366716
 30
0.0
 11
373.82025310266988
 21
702.4744588366716
 31
0.0
  0
LINE
  5
7315
  8
0
 10
306.82025310266988
 20
705.4744588366716
 30
0.0
 11
306.82025310266988
 21
702.4744588366716
 31
0.0
  0
LINE
  5
7316
  8
0
 10
383.57037810266991
 20
704.10344383667143
 30
0.0
 11
294.75225910266988
 21
662.68743483667163
 31
0.0
  0
LINE
  5
7317
  8
0
 10
385.21837310266989
 20
700.56947883667146
 30
0.0
 11
383.57037810266991
 21
704.10344383667143
 31
0.0
  0
LINE
  5
7318
  8
0
 10
306.42025510266978
 20
702.4744588366716
 30
0.0
 11
376.16335510266993
 21
702.4744588366716
 31
0.0
  0
LINE
  5
7319
  8
0
 10
296.40045210266987
 20
659.15246283667125
 30
0.0
 11
294.75225910266988
 21
662.68743483667163
 31
0.0
  0
LINE
  5
731A
  8
0
 10
303.9534571026698
 20
659.51846783667145
 30
0.0
 11
303.63205510266982
 21
660.20745983667166
 31
0.0
  0
LINE
  5
731B
  8
0
 10
380.24535510266981
 20
675.38845983667159
 30
0.0
 11
380.24535510266981
 21
695.76246883667136
 31
0.0
  0
LINE
  5
731C
  8
0
 10
297.86784710266983
 20
658.6234608366716
 30
0.0
 11
384.69335210266991
 21
699.11046383667144
 31
0.0
  0
LINE
  5
731D
  8
0
 10
302.82025710266993
 20
666.44946483667161
 30
0.0
 11
302.82025710266993
 21
698.87446783667144
 31
0.0
  0
LINE
  5
731E
  8
0
  6
AM_ISO08W050
 10
297.64405610266988
 20
682.4744588366716
 30
0.0
 11
306.23435710266978
 21
682.4744588366716
 31
0.0
  0
LINE
  5
731F
  8
0
 10
300.82025710266993
 20
694.07446483667161
 30
0.0
 11
300.82025710266993
 21
670.87446783667156
 31
0.0
  0
LINE
  5
7320
  8
0
 10
300.82025710266993
 20
694.07446483667161
 30
0.0
 11
301.82025710266993
 21
694.07446483667161
 31
0.0
  0
LINE
  5
7321
  8
0
 10
300.82025710266993
 20
670.87446783667156
 30
0.0
 11
301.82025710266993
 21
670.87446783667156
 31
0.0
  0
ARC
  5
7322
  8
0
 10
306.42025510266978
 20
698.87446783667144
 30
0.0
 40
3.5999979999999998
 50
90.000061000000898
 51
179.99998200000081
  0
ARC
  5
7323
  8
0
 10
384.22135310266992
 20
700.10446383667158
 30
0.0
 40
1.100006
 50
294.99982600000448
 51
24.99951399999285
  0
ARC
  5
7324
  8
0
 10
297.39735610267002
 20
659.6174638366715
 30
0.0
 40
1.0999959999999971
 50
204.99980300000141
 51
295.00019499999559
  0
ARC
  5
7325
  8
0
 10
372.64535710266989
 20
675.38845983667159
 30
0.0
 40
7.5999979999999967
 50
288.90001599999658
 51
0.0000179999992061
  0
ARC
  5
7326
  8
0
 10
307.21615810267002
 20
661.03946083667165
 30
0.0
 40
3.5999979999999998
 50
204.9991569999998
 51
269.09402099999909
  0
ARC
  5
7327
  8
0
 10
310.32265610267012
 20
857.41545283667165
 30
0.0
 40
200.0
 50
269.09405200000299
 51
288.9000030000019
  0
ARC
  5
7328
  8
0
 10
302.72575510266972
 20
659.78546383667162
 30
0.0
 40
0.9999979999999998
 50
24.999268000004911
 51
114.9993579999945
  0
ARC
  5
7329
  8
0
 10
382.24535510266981
 20
695.76246883667136
 30
0.0
 40
2.0
 50
115.00014999999451
 51
179.99998200000081
  0
ARC
  5
732A
  8
0
 10
376.16335510266993
 20
699.87446783667144
 30
0.0
 40
2.600006
 50
40.686130000000617
 51
90.0
  0
ARC
  5
732B
  8
0
 10
301.82025710266993
 20
695.07446483667161
 30
0.0
 40
1.0
 50
269.99894299999522
 51
0.0000179999992061
  0
ARC
  5
732C
  8
0
 10
301.82025710266993
 20
669.87446783667156
 30
0.0
 40
1.0
 50
0.0000179999992061
 51
90.0
  0
ARC
  5
732D
  8
0
 10
248.26389710267
 20
725.07377883667164
 30
0.0
 40
2.0
 50
189.99999999999861
 51
270.0
  0
LINE
  5
732E
  8
0
 10
246.29428210266991
 20
724.72648283667161
 30
0.0
 11
243.32025310266991
 21
741.59303683667156
 31
0.0
  0
LINE
  5
732F
  8
0
 10
243.32025310266991
 20
741.59303683667156
 30
0.0
 11
244.3819921026699
 21
741.59303683667156
 31
0.0
  0
LINE
  5
7330
  8
0
 10
441.78439410266992
 20
893.64676583667165
 30
0.0
 11
442.32025310266982
 21
893.64676583667165
 31
0.0
  0
LINE
  5
7331
  8
0
 10
442.04478510266978
 20
895.20902283667135
 30
0.0
 11
442.32025310266982
 21
895.20902283667135
 31
0.0
  0
LINE
  5
7332
  8
0
 10
443.99845210266977
 20
719.47460983667145
 30
0.0
 11
444.32025310266982
 21
719.47460983667145
 31
0.0
  0
LINE
  5
7333
  8
0
 10
440.14085810266982
 20
724.32247283667164
 30
0.0
 11
442.32025310266982
 21
724.32247283667164
 31
0.0
  0
LINE
  5
7334
  8
0
 10
441.1469411026697
 20
736.42804283667158
 30
0.0
 11
442.32025310266982
 21
736.42804283667158
 31
0.0
  0
LINE
  5
7335
  8
0
  6
AM_ISO08W050
 10
340.32025310266988
 20
699.81849383667156
 30
0.0
 11
340.32025310266988
 21
709.00020983667139
 31
0.0
  0
ARC
  5
7336
  8
0
 10
438.56313310266989
 20
896.48270683667158
 30
0.0
 40
2.0
 50
9.9999999999986073
 51
90.0
  0
ARC
  5
7337
  8
0
 10
438.62915010267
 20
900.02350583667135
 30
0.0
 40
2.0
 50
9.9999999999986073
 51
90.0
  0
ARC
  5
7338
  8
0
 10
438.71506810266999
 20
902.57524283667146
 30
0.0
 40
2.0
 50
9.9999999999986073
 51
90.0
  0
ARC
  5
7339
  8
0
 10
438.74381710266982
 20
903.9744588366716
 30
0.0
 40
2.0
 50
9.9999999999986073
 51
90.0
  0
LINE
  5
733A
  8
0
 10
447.32025610266999
 20
892.47445883667149
 30
0.0
 11
444.32025610266999
 21
895.4744588366716
 31
0.0
  0
LINE
  5
733B
  8
0
 10
442.27344910266982
 20
895.4744588366716
 30
0.0
 11
444.32025310266982
 21
895.4744588366716
 31
0.0
  0
LINE
  5
733C
  8
0
 10
447.32025310266982
 20
722.4744588366716
 30
0.0
 11
444.32025310266982
 21
719.4744588366716
 31
0.0
  0
LINE
  5
733D
  8
0
 10
444.32025310266982
 20
719.4744588366716
 30
0.0
 11
444.32025310266982
 21
745.09484483667165
 31
0.0
  0
LINE
  5
733E
  8
0
 10
447.32025310266982
 20
722.4744588366716
 30
0.0
 11
447.32025310266982
 21
892.47445883667149
 31
0.0
  0
CIRCLE
  5
733F
  8
0
 10
340.32025310266988
 20
807.4744588366716
 30
0.0
 40
11.0
  0
LINE
  5
7340
  8
0
 10
247.60637310266989
 20
905.97445883667149
 30
0.0
 11
299.32025310266988
 21
905.97445883667149
 31
0.0
  0
LINE
  5
7341
  8
0
 10
379.32025310266988
 20
898.4827068366717
 30
0.0
 11
379.32025310266988
 21
903.9744588366716
 31
0.0
  0
LINE
  5
7342
  8
0
 10
301.32025310266988
 20
898.4827068366717
 30
0.0
 11
301.32025310266988
 21
903.9744588366716
 31
0.0
  0
ARC
  5
7343
  8
0
 10
299.32025310266988
 20
903.9744588366716
 30
0.0
 40
2.0
 50
0.0
 51
90.0
  0
ARC
  5
7344
  8
0
 10
381.32025310266988
 20
903.9744588366716
 30
0.0
 40
2.0
 50
90.0
 51
180.0
  0
LINE
  5
7345
  8
0
 10
381.32025310266988
 20
905.97445883667149
 30
0.0
 11
438.74381710266982
 21
905.97445883667149
 31
0.0
  0
LINE
  5
7346
  8
0
 10
438.71506810266999
 20
904.57524283667158
 30
0.0
 11
381.32025310266988
 21
904.57524283667158
 31
0.0
  0
LINE
  5
7347
  8
0
 10
442.32025310266982
 20
893.64676583667165
 30
0.0
 11
440.68468410266979
 21
902.92253883667161
 31
0.0
  0
LINE
  5
7348
  8
0
 10
442.32025310266982
 20
895.20902283667135
 30
0.0
 11
440.71343210266951
 21
904.32175483667152
 31
0.0
  0
LINE
  5
7349
  8
0
 10
243.32025310266991
 20
891.1842048366716
 30
0.0
 11
245.63675810266989
 21
904.32175483667152
 31
0.0
  0
ARC
  5
734A
  8
0
 10
247.60637310266989
 20
903.9744588366716
 30
0.0
 40
2.0
 50
90.0
 51
170.00000000000139
  0
LINE
  5
734B
  8
0
 10
243.32025310266991
 20
889.5251438366713
 30
0.0
 11
245.6825751026698
 21
902.92253883667161
 31
0.0
  0
ARC
  5
734C
  8
0
 10
247.65219110266989
 20
902.57524283667146
 30
0.0
 40
2.0
 50
90.0
 51
170.00000000000139
  0
ARC
  5
734D
  8
0
 10
299.32025310266988
 20
902.57524283667146
 30
0.0
 40
2.0
 50
0.0
 51
90.0
  0
ARC
  5
734E
  8
0
 10
381.32025310266988
 20
902.57524283667146
 30
0.0
 40
2.0
 50
90.0
 51
180.0
  0
LINE
  5
734F
  8
0
 10
299.32025310266988
 20
904.57524283667158
 30
0.0
 11
247.65219110266989
 21
904.57524283667158
 31
0.0
  0
LINE
  5
7350
  8
0
 10
438.62915010267
 20
902.02350583667146
 30
0.0
 11
381.32025310266988
 21
902.02350583667146
 31
0.0
  0
LINE
  5
7351
  8
0
 10
442.1914731026697
 20
891.33810783667161
 30
0.0
 11
440.5987651026698
 21
900.3708028366716
 31
0.0
  0
LINE
  5
7352
  8
0
 10
243.32025310266991
 20
886.30435283667146
 30
0.0
 11
245.80054810266989
 21
900.3708028366716
 31
0.0
  0
ARC
  5
7353
  8
0
 10
247.7701631026699
 20
900.02350583667135
 30
0.0
 40
2.0
 50
90.0
 51
170.00000000000139
  0
ARC
  5
7354
  8
0
 10
299.32025310266988
 20
900.02350583667135
 30
0.0
 40
2.0
 50
0.0
 51
90.0
  0
ARC
  5
7355
  8
0
 10
381.32025310266988
 20
900.02350583667135
 30
0.0
 40
2.0
 50
90.0
 51
180.0
  0
LINE
  5
7356
  8
0
 10
299.32025310266988
 20
902.02350583667146
 30
0.0
 11
247.7701631026699
 21
902.02350583667146
 31
0.0
  0
LINE
  5
7357
  8
0
 10
438.56313310266989
 20
898.4827068366717
 30
0.0
 11
247.93167210266989
 21
898.4827068366717
 31
0.0
  0
LINE
  5
7358
  8
0
 10
441.50111810266992
 20
891.33810783667161
 30
0.0
 11
440.5327491026697
 21
896.83000283667161
 31
0.0
  0
LINE
  5
7359
  8
0
 10
243.32025310266991
 20
881.84759283667165
 30
0.0
 11
245.96205610266989
 21
896.83000283667161
 31
0.0
  0
ARC
  5
735A
  8
0
 10
247.93167210266989
 20
896.48270683667158
 30
0.0
 40
2.0
 50
90.0
 51
170.00000000000139
  0
LINE
  5
735B
  8
0
 10
372.3766091026697
 20
891.87513883667145
 30
0.0
 11
248.26389710267
 21
891.87513883667145
 31
0.0
  0
LINE
  5
735C
  8
0
 10
377.32025310266988
 20
873.35588083667164
 30
0.0
 11
374.34622410266991
 21
890.22243483667148
 31
0.0
  0
ARC
  5
735D
  8
0
 10
372.3766091026697
 20
889.87513883667145
 30
0.0
 40
2.0
 50
9.9999999999986073
 51
90.0
  0
LINE
  5
735E
  8
0
 10
243.32025310266991
 20
873.35588083667164
 30
0.0
 11
246.29428210266991
 21
890.22243483667148
 31
0.0
  0
ARC
  5
735F
  8
0
 10
248.26389710267
 20
889.87513883667145
 30
0.0
 40
2.0
 50
90.0
 51
170.00000000000139
  0
LINE
  5
7360
  8
0
 10
372.04634510266999
 20
886.47309483667163
 30
0.0
 11
248.5941611026698
 21
886.47309483667163
 31
0.0
  0
LINE
  5
7361
  8
0
 10
377.09920210266989
 20
867.3344588366715
 30
0.0
 11
374.01596110266979
 21
884.82039183667166
 31
0.0
  0
ARC
  5
7362
  8
0
 10
372.04634510266999
 20
884.47309483667163
 30
0.0
 40
2.0
 50
9.9999999999986073
 51
90.0
  0
LINE
  5
7363
  8
0
 10
243.59724710266991
 20
867.6517268366714
 30
0.0
 11
246.62454510266991
 21
884.82039183667166
 31
0.0
  0
ARC
  5
7364
  8
0
 10
248.5941611026698
 20
884.47309483667163
 30
0.0
 40
2.0
 50
90.0
 51
170.00000000000139
  0
LINE
  5
7365
  8
0
 10
442.32025310266982
 20
812.50461083667142
 30
0.0
 11
442.32025310266982
 21
815.45230283667161
 31
0.0
  0
LINE
  5
7366
  8
0
 10
442.32025310266982
 20
822.50408683667149
 30
0.0
 11
442.32025310266982
 21
825.46556583667166
 31
0.0
  0
LINE
  5
7367
  8
0
 10
442.32025310266982
 20
833.49626683667134
 30
0.0
 11
442.32025310266982
 21
836.48889383667142
 31
0.0
  0
LINE
  5
7368
  8
0
 10
442.32025310266982
 20
844.4790618366718
 30
0.0
 11
442.32025310266982
 21
847.52476783667146
 31
0.0
  0
LINE
  5
7369
  8
0
 10
442.32025310266982
 20
855.44894083667157
 30
0.0
 11
442.32025310266982
 21
858.57985383667165
 31
0.0
  0
LINE
  5
736A
  8
0
 10
442.32025310266982
 20
864.40741683667136
 30
0.0
 11
442.32025310266982
 21
867.6517268366714
 31
0.0
  0
LINE
  5
736B
  8
0
 10
392.32025310266988
 20
881.84759283667165
 30
0.0
 11
375.82293510266987
 21
881.84759283667165
 31
0.0
  0
LINE
  5
736C
  8
0
 10
424.10703010266991
 20
886.6925608366713
 30
0.0
 11
408.32025310266988
 21
886.6925608366713
 31
0.0
  0
LINE
  5
736D
  8
0
 10
392.32025310266988
 20
881.84759283667165
 30
0.0
 11
408.32025310266988
 21
886.6925608366713
 31
0.0
  0
LINE
  5
736E
  8
0
 10
408.32025310266988
 20
886.6925608366713
 30
0.0
 11
408.32025310266988
 21
883.32724583667164
 31
0.0
  0
LINE
  5
736F
  8
0
 10
392.32025310266988
 20
881.84759283667165
 30
0.0
 11
392.32025310266988
 21
867.6517268366714
 31
0.0
  0
LINE
  5
7370
  8
0
 10
427.82025310266988
 20
870.5404208366715
 30
0.0
 11
427.82025310266988
 21
889.3381078366715
 31
0.0
  0
ARC
  5
7371
  8
0
 10
429.82025310266982
 20
889.3381078366715
 30
0.0
 40
2.0
 50
90.0
 51
180.0
  0
LINE
  5
7372
  8
0
 10
427.82025310266988
 20
874.93051883667147
 30
0.0
 11
408.32025310266988
 21
874.93051883667147
 31
0.0
  0
LINE
  5
7373
  8
0
 10
422.4202591026696
 20
883.32724583667164
 30
0.0
 11
408.32025310266988
 21
883.32724583667164
 31
0.0
  0
LINE
  5
7374
  8
0
 10
408.32025310266988
 20
874.93051883667147
 30
0.0
 11
408.32025310266988
 21
867.6517268366714
 31
0.0
  0
ARC
  5
7375
  8
0
  6
CONTINUOUS
 10
425.02005210266952
 20
878.95772483667145
 30
0.0
 40
2.6003989999999999
 50
179.99998200000081
 51
269.99997799999522
  0
ARC
  5
7376
  8
0
  6
CONTINUOUS
 10
425.02005210266952
 20
884.25771283667143
 30
0.0
 40
2.600403
 50
90.0
 51
179.99998200000081
  0
LINE
  5
7377
  8
0
  6
CONTINUOUS
 10
427.82025310266988
 20
881.67374383667129
 30
0.0
 11
426.3202531026696
 21
880.80771883667148
 31
0.0
  0
LINE
  5
7378
  8
0
  6
CONTINUOUS
 10
427.82025310266988
 20
882.67374383667141
 30
0.0
 11
426.3202531026696
 21
881.80771883667137
 31
0.0
  0
LINE
  5
7379
  8
0
  6
CONTINUOUS
 10
427.82025310266988
 20
887.70771883667135
 30
0.0
 11
427.82025310266988
 21
875.50771883667164
 31
0.0
  0
LINE
  5
737A
  8
0
  6
CONTINUOUS
 10
426.3202531026696
 20
887.70771883667135
 30
0.0
 11
427.82025310266988
 21
887.70771883667135
 31
0.0
  0
LINE
  5
737B
  8
0
  6
CONTINUOUS
 10
426.3202531026696
 20
875.50771883667164
 30
0.0
 11
427.82025310266988
 21
875.50771883667164
 31
0.0
  0
LINE
  5
737C
  8
0
  6
CONTINUOUS
 10
422.4202591026696
 20
884.25771283667143
 30
0.0
 11
422.4202591026696
 21
878.95772483667145
 31
0.0
  0
LINE
  5
737D
  8
0
  6
CONTINUOUS
 10
426.3202531026696
 20
887.70771883667135
 30
0.0
 11
426.3202531026696
 21
875.50771883667164
 31
0.0
  0
LINE
  5
737E
  8
0
  6
CONTINUOUS
 10
426.3202531026696
 20
876.35771883667132
 30
0.0
 11
425.02005210266952
 21
876.35771883667132
 31
0.0
  0
LINE
  5
737F
  8
0
  6
CONTINUOUS
 10
426.3202531026696
 20
886.85771883667155
 30
0.0
 11
425.02005210266952
 21
886.85771883667155
 31
0.0
  0
LINE
  5
7380
  8
0
 10
447.32025310266982
 20
891.33810783667161
 30
0.0
 11
429.82025310266982
 21
891.33810783667161
 31
0.0
  0
LINE
  5
7381
  8
0
 10
447.32025310266982
 20
869.5404208366715
 30
0.0
 11
426.82025310266982
 21
869.5404208366715
 31
0.0
  0
ARC
  5
7382
  8
0
 10
426.82025310266982
 20
870.5404208366715
 30
0.0
 40
1.0
 50
270.0
 51
0.0
  0
LINE
  5
7383
  8
0
 10
447.32025310266982
 20
883.2141028366716
 30
0.0
 11
429.82025310266982
 21
883.2141028366716
 31
0.0
  0
LINE
  5
7384
  8
0
 10
239.82025310266991
 20
891.4744588366716
 30
0.0
 11
243.32025310266991
 21
891.4744588366716
 31
0.0
  0
ARC
  5
7385
  8
0
 10
443.99845210266977
 20
717.47445883667137
 30
0.0
 40
2.0
 50
90.0
 51
170.00000000000139
  0
ARC
  5
7386
  8
0
 10
380.06289510266981
 20
712.4808018366715
 30
0.0
 40
1.9936590000000001
 50
90.075931000003507
 51
178.17025399999861
  0
LINE
  5
7387
  8
0
 10
380.06025310266989
 20
714.4744588366716
 30
0.0
 11
439.76041910266991
 21
714.4744588366716
 31
0.0
  0
LINE
  5
7388
  8
0
 10
377.82025310266988
 20
705.4744588366716
 30
0.0
 11
378.43628210266991
 21
723.07377883667164
 31
0.0
  0
LINE
  5
7389
  8
0
 10
442.0288371026698
 20
717.82175483667118
 30
0.0
 11
441.73003410266989
 21
716.12716283667169
 31
0.0
  0
ARC
  5
738A
  8
0
 10
439.76041910266991
 20
716.4744588366716
 30
0.0
 40
2.0
 50
270.0
 51
350.00000000000142
  0
LINE
  5
738B
  8
0
 10
243.8976031026699
 20
722.4744588366716
 30
0.0
 11
251.1144821026698
 21
709.9744588366716
 31
0.0
  0
LINE
  5
738C
  8
0
 10
252.84653210266981
 20
708.97445883667137
 30
0.0
 11
300.76522410267
 21
708.97445883667137
 31
0.0
  0
LINE
  5
738D
  8
0
 10
302.82025310266988
 20
705.4744588366716
 30
0.0
 11
302.76394110266989
 21
707.04607383667144
 31
0.0
  0
ARC
  5
738E
  8
0
 10
242.16555210266989
 20
721.47445883667137
 30
0.0
 40
2.0
 50
29.999999999991651
 51
90.0
  0
ARC
  5
738F
  8
0
 10
252.84653210266981
 20
710.9744588366716
 30
0.0
 40
2.0
 50
209.9999999999917
 51
270.0
  0
ARC
  5
7390
  8
0
 10
300.76522410267
 20
706.9744588366716
 30
0.0
 40
2.0
 50
2.0520649999985339
 51
90.0
  0
LINE
  5
7391
  8
0
 10
302.82025310266988
 20
705.4744588366716
 30
0.0
 11
377.82025310266988
 21
705.4744588366716
 31
0.0
  0
LINE
  5
7392
  8
0
 10
251.84653210266981
 20
709.24240783667165
 30
0.0
 11
251.84653210266981
 21
723.07377883667164
 31
0.0
  0
LINE
  5
7393
  8
0
 10
438.28733710266999
 20
723.07377883667164
 30
0.0
 11
248.26389710267
 21
723.07377883667164
 31
0.0
  0
LINE
  5
7394
  8
0
 10
438.06655110266979
 20
728.47582283667145
 30
0.0
 11
248.37311010266981
 21
728.47582283667145
 31
0.0
  0
LINE
  5
7395
  8
0
 10
442.32025310266982
 20
743.08222483667134
 30
0.0
 11
408.32025310266988
 21
743.08222483667134
 31
0.0
  0
LINE
  5
7396
  8
0
 10
442.32025310266982
 20
743.08222483667134
 30
0.0
 11
440.03616610266988
 21
730.12852583667143
 31
0.0
  0
ARC
  5
7397
  8
0
 10
438.06655110266979
 20
730.47582283667145
 30
0.0
 40
2.0
 50
270.0
 51
350.00000000000142
  0
LINE
  5
7398
  8
0
 10
442.32025310266982
 20
736.42804283667158
 30
0.0
 11
440.2569521026698
 21
724.72648283667161
 31
0.0
  0
ARC
  5
7399
  8
0
 10
438.28733710266999
 20
725.07377883667164
 30
0.0
 40
2.0
 50
270.0
 51
350.00000000000142
  0
LINE
  5
739A
  8
0
 10
247.06299110267
 20
723.4744588366716
 30
0.0
 11
239.82025310266991
 21
723.4744588366716
 31
0.0
  0
LINE
  5
739B
  8
0
 10
442.32025310266982
 20
724.32247283667164
 30
0.0
 11
440.8751991026698
 21
716.12716283667169
 31
0.0
  0
ARC
  5
739C
  8
0
 10
438.90558310266982
 20
716.4744588366716
 30
0.0
 40
2.0
 50
270.0
 51
350.00000000000142
  0
LINE
  5
739D
  8
0
 10
377.32025310266988
 20
759.31445883667141
 30
0.0
 11
377.32025310266988
 21
756.61445883667136
 31
0.0
  0
LINE
  5
739E
  8
0
 10
447.32025310266982
 20
745.26482183667144
 30
0.0
 11
429.82025310266982
 21
745.26482183667144
 31
0.0
  0
LINE
  5
739F
  8
0
 10
447.32025310266982
 20
757.57246083667144
 30
0.0
 11
429.82025310266982
 21
757.57246083667144
 31
0.0
  0
LINE
  5
73A0
  8
0
 10
447.32025310266982
 20
767.75175283667136
 30
0.0
 11
442.32025310266982
 21
767.75175283667136
 31
0.0
  0
LINE
  5
73A1
  8
0
 10
427.82025310266988
 20
766.75175283667136
 30
0.0
 11
427.82025310266988
 21
747.26482183667167
 31
0.0
  0
ARC
  5
73A2
  8
0
 10
426.82025310266982
 20
766.75175283667136
 30
0.0
 40
1.0
 50
0.0
 51
42.252324000004279
  0
ARC
  5
73A3
  8
0
 10
429.82025310266982
 20
747.26482183667167
 30
0.0
 40
2.0
 50
180.0
 51
270.0
  0
LINE
  5
73A4
  8
0
 10
392.32025310266988
 20
864.40741683667136
 30
0.0
 11
392.32025310266988
 21
858.57985383667165
 31
0.0
  0
LINE
  5
73A5
  8
0
 10
408.32025310266988
 20
864.40741683667136
 30
0.0
 11
408.32025310266988
 21
858.57985383667165
 31
0.0
  0
LINE
  5
73A6
  8
0
 10
392.32025310266988
 20
855.44894083667157
 30
0.0
 11
392.32025310266988
 21
847.52476783667146
 31
0.0
  0
LINE
  5
73A7
  8
0
 10
392.32025310266988
 20
844.4790618366718
 30
0.0
 11
392.32025310266988
 21
836.48889383667142
 31
0.0
  0
LINE
  5
73A8
  8
0
 10
392.32025310266988
 20
833.49626683667134
 30
0.0
 11
392.32025310266988
 21
825.46556583667166
 31
0.0
  0
LINE
  5
73A9
  8
0
 10
392.32025310266988
 20
822.50408683667149
 30
0.0
 11
392.32025310266988
 21
815.45230283667161
 31
0.0
  0
LINE
  5
73AA
  8
0
 10
392.32025310266988
 20
812.63445883667157
 30
0.0
 11
392.32025310266988
 21
802.44430683667156
 31
0.0
  0
LINE
  5
73AB
  8
0
 10
408.32025310266988
 20
812.63445883667157
 30
0.0
 11
408.32025310266988
 21
802.44430683667156
 31
0.0
  0
LINE
  5
73AC
  8
0
 10
408.32025310266988
 20
822.50408683667149
 30
0.0
 11
408.32025310266988
 21
815.45230283667161
 31
0.0
  0
LINE
  5
73AD
  8
0
 10
408.32025310266988
 20
833.49626683667134
 30
0.0
 11
408.32025310266988
 21
825.46556583667166
 31
0.0
  0
LINE
  5
73AE
  8
0
 10
408.32025310266988
 20
844.4790618366718
 30
0.0
 11
408.32025310266988
 21
836.48889383667142
 31
0.0
  0
LINE
  5
73AF
  8
0
 10
408.32025310266988
 20
855.44894083667157
 30
0.0
 11
408.32025310266988
 21
847.52476783667146
 31
0.0
  0
LINE
  5
73B0
  8
0
 10
392.32025310266988
 20
799.4966148366716
 30
0.0
 11
392.32025310266988
 21
792.4448308366716
 31
0.0
  0
LINE
  5
73B1
  8
0
 10
408.32025310266988
 20
799.4966148366716
 30
0.0
 11
408.32025310266988
 21
792.4448308366716
 31
0.0
  0
LINE
  5
73B2
  8
0
 10
408.32025310266988
 20
789.48335183667143
 30
0.0
 11
408.32025310266988
 21
781.45265083667164
 31
0.0
  0
LINE
  5
73B3
  8
0
 10
392.32025310266988
 20
789.48335183667143
 30
0.0
 11
392.32025310266988
 21
781.45265083667164
 31
0.0
  0
LINE
  5
73B4
  8
0
 10
392.32025310266988
 20
778.46002383667144
 30
0.0
 11
392.32025310266988
 21
770.46985583667163
 31
0.0
  0
LINE
  5
73B5
  8
0
 10
408.32025310266988
 20
778.46002383667144
 30
0.0
 11
408.32025310266988
 21
770.46985583667163
 31
0.0
  0
LINE
  5
73B6
  8
0
 10
422.86964810266983
 20
751.45366283667136
 30
0.0
 11
408.3202521026696
 21
751.45366283667136
 31
0.0
  0
LINE
  5
73B7
  8
0
 10
427.82025310266988
 20
762.86601283667164
 30
0.0
 11
408.3202521026696
 21
762.86601283667164
 31
0.0
  0
LINE
  5
73B8
  8
0
 10
392.32025310266988
 20
767.42414983667163
 30
0.0
 11
392.32025310266988
 21
747.42414983667163
 31
0.0
  0
LINE
  5
73B9
  8
0
 10
444.32025310266982
 20
891.33810783667161
 30
0.0
 11
444.32025310266982
 21
895.4744588366716
 31
0.0
  0
LINE
  5
73BA
  8
0
 10
442.32025310266982
 20
721.27271483667164
 30
0.0
 11
441.4129531026698
 21
716.12716283667169
 31
0.0
  0
ARC
  5
73BB
  8
0
 10
439.44333810266983
 20
716.4744588366716
 30
0.0
 40
2.0
 50
270.0
 51
350.00000000000142
  0
LINE
  5
73BC
  8
0
 10
408.32025310266988
 20
767.42414983667163
 30
0.0
 11
408.32025310266988
 21
762.86601283667164
 31
0.0
  0
LINE
  5
73BD
  8
0
 10
444.32025310266982
 20
767.75175283667136
 30
0.0
 11
444.32025310266982
 21
869.5404208366715
 31
0.0
  0
LINE
  5
73BE
  8
0
 10
243.32025310266991
 20
747.61445883667147
 30
0.0
 11
246.40349510266989
 21
730.12852583667143
 31
0.0
  0
ARC
  5
73BF
  8
0
 10
248.37311010266981
 20
730.47582283667145
 30
0.0
 40
2.0
 50
189.99999999999861
 51
270.0
  0
LINE
  5
73C0
  8
0
 10
393.02565010266977
 20
756.16875283667162
 30
0.0
 11
408.32025310266988
 21
751.45366283667136
 31
0.0
  0
LINE
  5
73C1
  8
0
 10
408.32025310266988
 20
762.86601283667164
 30
0.0
 11
393.28431210267001
 21
762.32526183667164
 31
0.0
  0
LINE
  5
73C2
  8
0
 10
408.32025310266988
 20
751.45366283667136
 30
0.0
 11
408.32025310266988
 21
743.08222483667134
 31
0.0
  0
ARC
  5
73C3
  8
0
 10
393.32025310266988
 20
761.3259078366716
 30
0.0
 40
1.0
 50
92.059691000003568
 51
180.0
  0
ARC
  5
73C4
  8
0
 10
393.32025310266988
 20
757.12437283667168
 30
0.0
 40
1.0
 50
180.0
 51
252.8662750000021
  0
LINE
  5
73C5
  8
0
 10
408.32025310266988
 20
883.32724583667164
 30
0.0
 11
393.01979410267012
 21
878.50737983667148
 31
0.0
  0
LINE
  5
73C6
  8
0
 10
393.36880810267002
 20
874.20369883667172
 30
0.0
 11
408.32025310266988
 21
874.93051883667147
 31
0.0
  0
ARC
  5
73C7
  8
0
 10
393.32025310266988
 20
877.55358483667146
 30
0.0
 40
1.0
 50
107.485179
 51
180.0
  0
ARC
  5
73C8
  8
0
 10
393.32025310266988
 20
875.20251983667163
 30
0.0
 40
1.0
 50
180.0
 51
270.0
  0
ARC
  5
73C9
  8
0
  6
CONTINUOUS
 10
425.02005210266952
 20
752.91579783667157
 30
0.0
 40
2.6003989999999999
 50
179.99998200000081
 51
269.99997799999522
  0
ARC
  5
73CA
  8
0
  6
CONTINUOUS
 10
425.02005210266952
 20
758.21578583667144
 30
0.0
 40
2.600403
 50
90.0
 51
179.99998200000081
  0
LINE
  5
73CB
  8
0
  6
CONTINUOUS
 10
427.82025310266988
 20
755.63181683667165
 30
0.0
 11
426.3202531026696
 21
754.76579183667161
 31
0.0
  0
LINE
  5
73CC
  8
0
  6
CONTINUOUS
 10
427.82025310266988
 20
756.63181683667165
 30
0.0
 11
426.3202531026696
 21
755.76579183667138
 31
0.0
  0
LINE
  5
73CD
  8
0
  6
CONTINUOUS
 10
427.82025310266988
 20
761.66579183667159
 30
0.0
 11
427.82025310266988
 21
749.46579183667143
 31
0.0
  0
LINE
  5
73CE
  8
0
  6
CONTINUOUS
 10
426.3202531026696
 20
761.66579183667159
 30
0.0
 11
427.82025310266988
 21
761.66579183667159
 31
0.0
  0
LINE
  5
73CF
  8
0
  6
CONTINUOUS
 10
426.3202531026696
 20
749.46579183667143
 30
0.0
 11
427.82025310266988
 21
749.46579183667143
 31
0.0
  0
LINE
  5
73D0
  8
0
  6
CONTINUOUS
 10
422.4202591026696
 20
758.21578583667144
 30
0.0
 11
422.4202591026696
 21
752.91579783667157
 31
0.0
  0
LINE
  5
73D1
  8
0
  6
CONTINUOUS
 10
426.3202531026696
 20
761.66579183667159
 30
0.0
 11
426.3202531026696
 21
749.46579183667143
 31
0.0
  0
LINE
  5
73D2
  8
0
  6
CONTINUOUS
 10
426.3202531026696
 20
750.31579183667145
 30
0.0
 11
425.02005210266952
 21
750.31579183667145
 31
0.0
  0
LINE
  5
73D3
  8
0
  6
CONTINUOUS
 10
426.3202531026696
 20
760.81579183667179
 30
0.0
 11
425.02005210266952
 21
760.81579183667179
 31
0.0
  0
LINE
  5
73D4
  8
0
 10
442.32025310266982
 20
867.6517268366714
 30
0.0
 11
243.32025310266991
 21
867.6517268366714
 31
0.0
  0
LINE
  5
73D5
  8
0
 10
442.32025310266982
 20
864.40741683667136
 30
0.0
 11
243.32025310266991
 21
864.40741683667136
 31
0.0
  0
LINE
  5
73D6
  8
0
 10
442.32025310266982
 20
858.57985383667165
 30
0.0
 11
243.32025310266991
 21
858.57985383667165
 31
0.0
  0
LINE
  5
73D7
  8
0
 10
442.32025310266982
 20
855.44894083667157
 30
0.0
 11
243.32025310266991
 21
855.44894083667157
 31
0.0
  0
LINE
  5
73D8
  8
0
 10
442.32025310266982
 20
847.52476783667146
 30
0.0
 11
243.32025310266991
 21
847.52476783667146
 31
0.0
  0
LINE
  5
73D9
  8
0
 10
442.32025310266982
 20
844.4790618366718
 30
0.0
 11
243.32025310266991
 21
844.4790618366718
 31
0.0
  0
LINE
  5
73DA
  8
0
 10
442.32025310266982
 20
836.48889383667142
 30
0.0
 11
243.32025310266991
 21
836.48889383667142
 31
0.0
  0
LINE
  5
73DB
  8
0
 10
442.32025310266982
 20
833.49626683667134
 30
0.0
 11
243.32025310266991
 21
833.49626683667134
 31
0.0
  0
LINE
  5
73DC
  8
0
 10
442.32025310266982
 20
825.46556583667166
 30
0.0
 11
243.32025310266991
 21
825.46556583667166
 31
0.0
  0
LINE
  5
73DD
  8
0
 10
442.32025310266982
 20
822.50408683667149
 30
0.0
 11
243.32025310266991
 21
822.50408683667149
 31
0.0
  0
LINE
  5
73DE
  8
0
 10
442.32025310266982
 20
815.45230283667161
 30
0.0
 11
347.89349610266993
 21
815.45230283667161
 31
0.0
  0
LINE
  5
73DF
  8
0
 10
442.32025310266982
 20
812.50461083667142
 30
0.0
 11
354.7059001026696
 21
812.50461083667142
 31
0.0
  0
LINE
  5
73E0
  8
0
 10
440.24133210266979
 20
866.9744588366716
 30
0.0
 11
440.24133210266979
 21
864.97445883667149
 31
0.0
  0
LINE
  5
73E1
  8
0
 10
245.39917410266989
 20
864.97445883667149
 30
0.0
 11
440.24133210266979
 21
864.97445883667149
 31
0.0
  0
LINE
  5
73E2
  8
0
 10
245.39917410266989
 20
866.9744588366716
 30
0.0
 11
440.24133210266979
 21
866.9744588366716
 31
0.0
  0
LINE
  5
73E3
  8
0
 10
245.39917410266989
 20
855.97445883667149
 30
0.0
 11
440.24133210266979
 21
855.97445883667149
 31
0.0
  0
LINE
  5
73E4
  8
0
 10
245.39917410266989
 20
857.9744588366716
 30
0.0
 11
440.24133210266979
 21
857.9744588366716
 31
0.0
  0
LINE
  5
73E5
  8
0
 10
245.39917410266989
 20
844.9744588366716
 30
0.0
 11
440.24133210266979
 21
844.9744588366716
 31
0.0
  0
LINE
  5
73E6
  8
0
 10
245.39917410266989
 20
846.97445883667149
 30
0.0
 11
440.24133210266979
 21
846.97445883667149
 31
0.0
  0
LINE
  5
73E7
  8
0
 10
245.39917410266989
 20
833.9744588366716
 30
0.0
 11
440.24133210266979
 21
833.9744588366716
 31
0.0
  0
LINE
  5
73E8
  8
0
 10
245.39917410266989
 20
835.9744588366716
 30
0.0
 11
440.24133210266979
 21
835.9744588366716
 31
0.0
  0
LINE
  5
73E9
  8
0
 10
245.39917410266989
 20
822.97445883667149
 30
0.0
 11
440.24133210266979
 21
822.97445883667149
 31
0.0
  0
LINE
  5
73EA
  8
0
 10
245.39917410266989
 20
824.9744588366716
 30
0.0
 11
440.24133210266979
 21
824.9744588366716
 31
0.0
  0
LINE
  5
73EB
  8
0
 10
354.09523010266969
 20
812.97445883667149
 30
0.0
 11
440.24133210266979
 21
812.97445883667149
 31
0.0
  0
LINE
  5
73EC
  8
0
 10
348.36699110266989
 20
814.97445883667149
 30
0.0
 11
440.24133210266979
 21
814.97445883667149
 31
0.0
  0
LINE
  5
73ED
  8
0
 10
440.24133210266979
 20
866.9744588366716
 30
0.0
 11
442.32025310266982
 21
867.6517268366714
 31
0.0
  0
LINE
  5
73EE
  8
0
 10
440.24133210266979
 20
864.97445883667149
 30
0.0
 11
442.32025310266982
 21
864.40741683667136
 31
0.0
  0
LINE
  5
73EF
  8
0
 10
440.24133210266979
 20
857.9744588366716
 30
0.0
 11
442.32025310266982
 21
858.57985383667165
 31
0.0
  0
LINE
  5
73F0
  8
0
 10
440.24133210266979
 20
855.97445883667149
 30
0.0
 11
442.32025310266982
 21
855.44894083667157
 31
0.0
  0
LINE
  5
73F1
  8
0
 10
440.24133210266979
 20
846.97445883667149
 30
0.0
 11
442.32025310266982
 21
847.52476783667146
 31
0.0
  0
LINE
  5
73F2
  8
0
 10
440.24133210266979
 20
844.9744588366716
 30
0.0
 11
442.32025310266982
 21
844.4790618366718
 31
0.0
  0
LINE
  5
73F3
  8
0
 10
440.24133210266979
 20
835.9744588366716
 30
0.0
 11
442.32025310266982
 21
836.48889383667142
 31
0.0
  0
LINE
  5
73F4
  8
0
 10
440.24133210266979
 20
833.9744588366716
 30
0.0
 11
442.32025310266982
 21
833.49626683667134
 31
0.0
  0
LINE
  5
73F5
  8
0
 10
440.24133210266979
 20
824.9744588366716
 30
0.0
 11
442.32025310266982
 21
825.46556583667166
 31
0.0
  0
LINE
  5
73F6
  8
0
 10
440.24133210266979
 20
822.97445883667149
 30
0.0
 11
442.32025310266982
 21
822.50408683667149
 31
0.0
  0
LINE
  5
73F7
  8
0
 10
440.24133210266979
 20
814.97445883667149
 30
0.0
 11
442.32025310266982
 21
815.45230283667161
 31
0.0
  0
LINE
  5
73F8
  8
0
 10
440.24133210266979
 20
812.97445883667149
 30
0.0
 11
442.32025310266982
 21
812.50461083667142
 31
0.0
  0
LINE
  5
73F9
  8
0
 10
440.24133210266979
 20
857.9744588366716
 30
0.0
 11
440.24133210266979
 21
855.97445883667149
 31
0.0
  0
LINE
  5
73FA
  8
0
 10
440.24133210266979
 20
846.97445883667149
 30
0.0
 11
440.24133210266979
 21
844.9744588366716
 31
0.0
  0
LINE
  5
73FB
  8
0
 10
440.24133210266979
 20
835.9744588366716
 30
0.0
 11
440.24133210266979
 21
833.9744588366716
 31
0.0
  0
LINE
  5
73FC
  8
0
 10
440.24133210266979
 20
824.9744588366716
 30
0.0
 11
440.24133210266979
 21
822.97445883667149
 31
0.0
  0
LINE
  5
73FD
  8
0
 10
440.24133210266979
 20
814.97445883667149
 30
0.0
 11
440.24133210266979
 21
812.97445883667149
 31
0.0
  0
ARC
  5
73FE
  8
0
 10
354.09523010266969
 20
809.9744588366716
 30
0.0
 40
3.0
 50
90.0
 51
190.2865610000006
  0
ARC
  5
73FF
  8
0
 10
354.7059001026696
 20
809.03461083667162
 30
0.0
 40
3.4700000000000002
 50
90.0
 51
186.1896490000004
  0
LINE
  5
7400
  8
0
 10
260.39917410266992
 20
814.97445883667149
 30
0.0
 11
260.39917410266992
 21
812.97445883667149
 31
0.0
  0
LINE
  5
7401
  8
0
 10
245.39917410266989
 20
824.9744588366716
 30
0.0
 11
245.39917410266989
 21
822.97445883667149
 31
0.0
  0
LINE
  5
7402
  8
0
 10
245.39917410266989
 20
835.9744588366716
 30
0.0
 11
245.39917410266989
 21
833.9744588366716
 31
0.0
  0
LINE
  5
7403
  8
0
 10
245.39917410266989
 20
846.97445883667149
 30
0.0
 11
245.39917410266989
 21
844.9744588366716
 31
0.0
  0
LINE
  5
7404
  8
0
 10
245.39917410266989
 20
857.9744588366716
 30
0.0
 11
245.39917410266989
 21
855.97445883667149
 31
0.0
  0
LINE
  5
7405
  8
0
 10
260.39917410266992
 20
812.97445883667149
 30
0.0
 11
258.32025310266988
 21
812.50461083667142
 31
0.0
  0
LINE
  5
7406
  8
0
 10
260.39917410266992
 20
814.97445883667149
 30
0.0
 11
258.32025310266988
 21
815.45230283667161
 31
0.0
  0
LINE
  5
7407
  8
0
 10
245.39917410266989
 20
822.97445883667149
 30
0.0
 11
243.32025310266991
 21
822.50408683667149
 31
0.0
  0
LINE
  5
7408
  8
0
 10
245.39917410266989
 20
824.9744588366716
 30
0.0
 11
243.32025310266991
 21
825.46556583667166
 31
0.0
  0
LINE
  5
7409
  8
0
 10
245.39917410266989
 20
833.9744588366716
 30
0.0
 11
243.32025310266991
 21
833.49626683667134
 31
0.0
  0
LINE
  5
740A
  8
0
 10
245.39917410266989
 20
835.9744588366716
 30
0.0
 11
243.32025310266991
 21
836.48889383667142
 31
0.0
  0
LINE
  5
740B
  8
0
 10
245.39917410266989
 20
844.9744588366716
 30
0.0
 11
243.32025310266991
 21
844.4790618366718
 31
0.0
  0
LINE
  5
740C
  8
0
 10
245.39917410266989
 20
846.97445883667149
 30
0.0
 11
243.32025310266991
 21
847.52476783667146
 31
0.0
  0
LINE
  5
740D
  8
0
 10
245.39917410266989
 20
855.97445883667149
 30
0.0
 11
243.32025310266991
 21
855.44894083667157
 31
0.0
  0
LINE
  5
740E
  8
0
 10
245.39917410266989
 20
857.9744588366716
 30
0.0
 11
243.32025310266991
 21
858.57985383667165
 31
0.0
  0
LINE
  5
740F
  8
0
 10
245.39917410266989
 20
864.97445883667149
 30
0.0
 11
243.32025310266991
 21
864.40741683667136
 31
0.0
  0
LINE
  5
7410
  8
0
 10
245.39917410266989
 20
866.9744588366716
 30
0.0
 11
243.32025310266991
 21
867.6517268366714
 31
0.0
  0
LINE
  5
7411
  8
0
 10
245.39917410266989
 20
866.9744588366716
 30
0.0
 11
245.39917410266989
 21
864.97445883667149
 31
0.0
  0
LINE
  5
7412
  8
0
 10
243.32025310266991
 20
864.40741683667136
 30
0.0
 11
243.32025310266991
 21
867.6517268366714
 31
0.0
  0
LINE
  5
7413
  8
0
 10
243.32025310266991
 20
855.44894083667157
 30
0.0
 11
243.32025310266991
 21
858.57985383667165
 31
0.0
  0
LINE
  5
7414
  8
0
 10
243.32025310266991
 20
844.4790618366718
 30
0.0
 11
243.32025310266991
 21
847.52476783667146
 31
0.0
  0
LINE
  5
7415
  8
0
 10
243.32025310266991
 20
833.49626683667134
 30
0.0
 11
243.32025310266991
 21
836.48889383667142
 31
0.0
  0
LINE
  5
7416
  8
0
 10
243.32025310266991
 20
822.50408683667149
 30
0.0
 11
243.32025310266991
 21
825.46556583667166
 31
0.0
  0
LINE
  5
7417
  8
0
 10
258.32025310266988
 20
812.50461083667142
 30
0.0
 11
258.32025310266988
 21
815.45230283667161
 31
0.0
  0
LINE
  5
7418
  8
0
 10
258.32025310266988
 20
815.45230283667161
 30
0.0
 11
332.74701010266978
 21
815.45230283667161
 31
0.0
  0
LINE
  5
7419
  8
0
 10
258.32025310266988
 20
812.50461083667142
 30
0.0
 11
325.93460610266999
 21
812.50461083667142
 31
0.0
  0
LINE
  5
741A
  8
0
 10
326.54527610267007
 20
812.97445883667149
 30
0.0
 11
260.39917410266992
 21
812.97445883667149
 31
0.0
  0
LINE
  5
741B
  8
0
 10
332.27351510266988
 20
814.97445883667149
 30
0.0
 11
260.39917410266992
 21
814.97445883667149
 31
0.0
  0
ARC
  5
741C
  8
0
 10
326.54527610267007
 20
809.9744588366716
 30
0.0
 40
3.0
 50
349.71343899999943
 51
90.0
  0
ARC
  5
741D
  8
0
 10
325.93460610266999
 20
809.03461083667162
 30
0.0
 40
3.4700000000000002
 50
353.81035099999951
 51
90.0
  0
LINE
  5
741E
  8
0
 10
442.32025310266982
 20
767.42414983667163
 30
0.0
 11
243.32025310266991
 21
767.42414983667163
 31
0.0
  0
LINE
  5
741F
  8
0
 10
442.32025310266982
 20
770.46985583667163
 30
0.0
 11
243.32025310266991
 21
770.46985583667163
 31
0.0
  0
LINE
  5
7420
  8
0
 10
442.32025310266982
 20
778.46002383667144
 30
0.0
 11
243.32025310266991
 21
778.46002383667144
 31
0.0
  0
LINE
  5
7421
  8
0
 10
442.32025310266982
 20
781.45265083667164
 30
0.0
 11
243.32025310266991
 21
781.45265083667164
 31
0.0
  0
LINE
  5
7422
  8
0
 10
442.32025310266982
 20
789.48335183667143
 30
0.0
 11
243.32025310266991
 21
789.48335183667143
 31
0.0
  0
LINE
  5
7423
  8
0
 10
442.32025310266982
 20
792.4448308366716
 30
0.0
 11
243.32025310266991
 21
792.4448308366716
 31
0.0
  0
LINE
  5
7424
  8
0
 10
245.39917410266989
 20
769.9744588366716
 30
0.0
 11
440.24133210266979
 21
769.9744588366716
 31
0.0
  0
LINE
  5
7425
  8
0
 10
245.39917410266989
 20
767.9744588366716
 30
0.0
 11
440.24133210266979
 21
767.9744588366716
 31
0.0
  0
LINE
  5
7426
  8
0
 10
245.39917410266989
 20
780.9744588366716
 30
0.0
 11
440.24133210266979
 21
780.9744588366716
 31
0.0
  0
LINE
  5
7427
  8
0
 10
245.39917410266989
 20
778.9744588366716
 30
0.0
 11
440.24133210266979
 21
778.9744588366716
 31
0.0
  0
LINE
  5
7428
  8
0
 10
245.39917410266989
 20
791.97445883667149
 30
0.0
 11
440.24133210266979
 21
791.97445883667149
 31
0.0
  0
LINE
  5
7429
  8
0
 10
245.39917410266989
 20
789.9744588366716
 30
0.0
 11
440.24133210266979
 21
789.9744588366716
 31
0.0
  0
LINE
  5
742A
  8
0
 10
258.32025310266988
 20
799.4966148366716
 30
0.0
 11
332.74701010266978
 21
799.4966148366716
 31
0.0
  0
LINE
  5
742B
  8
0
 10
258.32025310266988
 20
802.44430683667156
 30
0.0
 11
325.93460610266999
 21
802.44430683667156
 31
0.0
  0
LINE
  5
742C
  8
0
 10
326.54527610267007
 20
801.9744588366716
 30
0.0
 11
260.39917410266992
 21
801.9744588366716
 31
0.0
  0
LINE
  5
742D
  8
0
 10
332.27351510266988
 20
799.97445883667149
 30
0.0
 11
260.39917410266992
 21
799.97445883667149
 31
0.0
  0
LINE
  5
742E
  8
0
 10
258.32025310266988
 20
802.44430683667156
 30
0.0
 11
258.32025310266988
 21
799.4966148366716
 31
0.0
  0
LINE
  5
742F
  8
0
 10
243.32025310266991
 20
792.4448308366716
 30
0.0
 11
243.32025310266991
 21
789.48335183667143
 31
0.0
  0
LINE
  5
7430
  8
0
 10
243.32025310266991
 20
781.45265083667164
 30
0.0
 11
243.32025310266991
 21
778.46002383667144
 31
0.0
  0
LINE
  5
7431
  8
0
 10
243.32025310266991
 20
770.46985583667163
 30
0.0
 11
243.32025310266991
 21
767.42414983667163
 31
0.0
  0
LINE
  5
7432
  8
0
 10
245.39917410266989
 20
767.9744588366716
 30
0.0
 11
243.32025310266991
 21
767.42414983667163
 31
0.0
  0
LINE
  5
7433
  8
0
 10
245.39917410266989
 20
769.9744588366716
 30
0.0
 11
243.32025310266991
 21
770.46985583667163
 31
0.0
  0
LINE
  5
7434
  8
0
 10
245.39917410266989
 20
778.9744588366716
 30
0.0
 11
243.32025310266991
 21
778.46002383667144
 31
0.0
  0
LINE
  5
7435
  8
0
 10
245.39917410266989
 20
780.9744588366716
 30
0.0
 11
243.32025310266991
 21
781.45265083667164
 31
0.0
  0
LINE
  5
7436
  8
0
 10
245.39917410266989
 20
789.9744588366716
 30
0.0
 11
243.32025310266991
 21
789.48335183667143
 31
0.0
  0
LINE
  5
7437
  8
0
 10
245.39917410266989
 20
791.97445883667149
 30
0.0
 11
243.32025310266991
 21
792.4448308366716
 31
0.0
  0
LINE
  5
7438
  8
0
 10
260.39917410266992
 20
799.97445883667149
 30
0.0
 11
258.32025310266988
 21
799.4966148366716
 31
0.0
  0
LINE
  5
7439
  8
0
 10
260.39917410266992
 20
801.9744588366716
 30
0.0
 11
258.32025310266988
 21
802.44430683667156
 31
0.0
  0
LINE
  5
743A
  8
0
 10
245.39917410266989
 20
767.9744588366716
 30
0.0
 11
245.39917410266989
 21
769.9744588366716
 31
0.0
  0
LINE
  5
743B
  8
0
 10
245.39917410266989
 20
778.9744588366716
 30
0.0
 11
245.39917410266989
 21
780.9744588366716
 31
0.0
  0
LINE
  5
743C
  8
0
 10
245.39917410266989
 20
789.9744588366716
 30
0.0
 11
245.39917410266989
 21
791.97445883667149
 31
0.0
  0
LINE
  5
743D
  8
0
 10
260.39917410266992
 20
799.97445883667149
 30
0.0
 11
260.39917410266992
 21
801.9744588366716
 31
0.0
  0
ARC
  5
743E
  8
0
 10
326.54527610267007
 20
804.97445883667149
 30
0.0
 40
3.0
 50
270.0
 51
10.286561000000651
  0
ARC
  5
743F
  8
0
 10
325.93460610266999
 20
805.91430683667147
 30
0.0
 40
3.4700000000000002
 50
270.0
 51
6.1896490000005366
  0
LINE
  5
7440
  8
0
 10
442.32025310266982
 20
799.4966148366716
 30
0.0
 11
347.89349610266993
 21
799.4966148366716
 31
0.0
  0
LINE
  5
7441
  8
0
 10
442.32025310266982
 20
802.44430683667156
 30
0.0
 11
354.7059001026696
 21
802.44430683667156
 31
0.0
  0
LINE
  5
7442
  8
0
 10
354.09523010266969
 20
801.9744588366716
 30
0.0
 11
440.24133210266979
 21
801.9744588366716
 31
0.0
  0
LINE
  5
7443
  8
0
 10
348.36699110266989
 20
799.97445883667149
 30
0.0
 11
440.24133210266979
 21
799.97445883667149
 31
0.0
  0
ARC
  5
7444
  8
0
 10
354.09523010266969
 20
804.97445883667149
 30
0.0
 40
3.0
 50
169.71343899999931
 51
270.0
  0
ARC
  5
7445
  8
0
 10
354.7059001026696
 20
805.91430683667147
 30
0.0
 40
3.4700000000000002
 50
173.8103509999994
 51
270.0
  0
LINE
  5
7446
  8
0
 10
440.24133210266979
 20
799.97445883667149
 30
0.0
 11
440.24133210266979
 21
801.9744588366716
 31
0.0
  0
LINE
  5
7447
  8
0
 10
440.24133210266979
 20
789.9744588366716
 30
0.0
 11
440.24133210266979
 21
791.97445883667149
 31
0.0
  0
LINE
  5
7448
  8
0
 10
440.24133210266979
 20
778.9744588366716
 30
0.0
 11
440.24133210266979
 21
780.9744588366716
 31
0.0
  0
LINE
  5
7449
  8
0
 10
440.24133210266979
 20
767.9744588366716
 30
0.0
 11
440.24133210266979
 21
769.9744588366716
 31
0.0
  0
LINE
  5
744A
  8
0
 10
440.24133210266979
 20
801.9744588366716
 30
0.0
 11
442.32025310266982
 21
802.44430683667156
 31
0.0
  0
LINE
  5
744B
  8
0
 10
440.24133210266979
 20
799.97445883667149
 30
0.0
 11
442.32025310266982
 21
799.4966148366716
 31
0.0
  0
LINE
  5
744C
  8
0
 10
440.24133210266979
 20
791.97445883667149
 30
0.0
 11
442.32025310266982
 21
792.4448308366716
 31
0.0
  0
LINE
  5
744D
  8
0
 10
440.24133210266979
 20
789.9744588366716
 30
0.0
 11
442.32025310266982
 21
789.48335183667143
 31
0.0
  0
LINE
  5
744E
  8
0
 10
440.24133210266979
 20
780.9744588366716
 30
0.0
 11
442.32025310266982
 21
781.45265083667164
 31
0.0
  0
LINE
  5
744F
  8
0
 10
440.24133210266979
 20
778.9744588366716
 30
0.0
 11
442.32025310266982
 21
778.46002383667144
 31
0.0
  0
LINE
  5
7450
  8
0
 10
440.24133210266979
 20
769.9744588366716
 30
0.0
 11
442.32025310266982
 21
770.46985583667163
 31
0.0
  0
LINE
  5
7451
  8
0
 10
440.24133210266979
 20
767.9744588366716
 30
0.0
 11
442.32025310266982
 21
767.42414983667163
 31
0.0
  0
LINE
  5
7452
  8
0
 10
442.32025310266982
 20
770.46985583667163
 30
0.0
 11
442.32025310266982
 21
767.42414983667163
 31
0.0
  0
LINE
  5
7453
  8
0
 10
442.32025310266982
 20
781.45265083667164
 30
0.0
 11
442.32025310266982
 21
778.46002383667144
 31
0.0
  0
LINE
  5
7454
  8
0
 10
442.32025310266982
 20
792.4448308366716
 30
0.0
 11
442.32025310266982
 21
789.48335183667143
 31
0.0
  0
LINE
  5
7455
  8
0
 10
442.32025310266982
 20
802.44430683667156
 30
0.0
 11
442.32025310266982
 21
799.4966148366716
 31
0.0
  0
LINE
  5
7456
  8
0
 10
375.24133210266979
 20
758.97445883667137
 30
0.0
 11
377.32025310266988
 21
759.46985583667163
 31
0.0
  0
LINE
  5
7457
  8
0
 10
377.32025310266988
 20
759.46985583667163
 30
0.0
 11
243.32025310266991
 21
759.46985583667163
 31
0.0
  0
LINE
  5
7458
  8
0
 10
245.39917410266989
 20
758.97445883667137
 30
0.0
 11
375.24133210266979
 21
758.97445883667137
 31
0.0
  0
LINE
  5
7459
  8
0
 10
375.24133210266979
 20
756.9744588366716
 30
0.0
 11
375.24133210266979
 21
758.97445883667137
 31
0.0
  0
LINE
  5
745A
  8
0
 10
377.32025310266988
 20
756.42414983667163
 30
0.0
 11
243.32025310266991
 21
756.42414983667163
 31
0.0
  0
LINE
  5
745B
  8
0
 10
245.39917410266989
 20
756.9744588366716
 30
0.0
 11
375.24133210266979
 21
756.9744588366716
 31
0.0
  0
LINE
  5
745C
  8
0
 10
375.24133210266979
 20
756.9744588366716
 30
0.0
 11
377.32025310266988
 21
756.42414983667163
 31
0.0
  0
LINE
  5
745D
  8
0
 10
377.32025310266988
 20
750.46985583667163
 30
0.0
 11
243.32025310266991
 21
750.46985583667163
 31
0.0
  0
LINE
  5
745E
  8
0
 10
245.39917410266989
 20
749.97445883667149
 30
0.0
 11
375.24133210266979
 21
749.97445883667149
 31
0.0
  0
LINE
  5
745F
  8
0
 10
377.32025310266988
 20
747.42414983667163
 30
0.0
 11
243.3538101026698
 21
747.42414983667163
 31
0.0
  0
LINE
  5
7460
  8
0
 10
245.39917410266989
 20
747.9744588366716
 30
0.0
 11
375.24133210266979
 21
747.9744588366716
 31
0.0
  0
LINE
  5
7461
  8
0
 10
375.24133210266979
 20
747.9744588366716
 30
0.0
 11
377.32025310266988
 21
747.42414983667163
 31
0.0
  0
LINE
  5
7462
  8
0
 10
377.32025310266988
 20
750.46985583667163
 30
0.0
 11
377.32025310266988
 21
747.42414983667163
 31
0.0
  0
LINE
  5
7463
  8
0
 10
375.24133210266979
 20
747.9744588366716
 30
0.0
 11
375.24133210266979
 21
749.97445883667149
 31
0.0
  0
LINE
  5
7464
  8
0
 10
375.24133210266979
 20
749.97445883667149
 30
0.0
 11
377.32025310266988
 21
750.46985583667163
 31
0.0
  0
LINE
  5
7465
  8
0
 10
377.32025310266988
 20
747.42414983667163
 30
0.0
 11
392.32025310266988
 21
747.42414983667163
 31
0.0
  0
LINE
  5
7466
  8
0
 10
392.32025310266988
 20
747.42414983667163
 30
0.0
 11
408.32025310266988
 21
743.08222483667134
 31
0.0
  0
LINE
  5
7467
  8
0
 10
243.32025310266991
 20
759.46985583667163
 30
0.0
 11
243.32025310266991
 21
756.42414983667163
 31
0.0
  0
LINE
  5
7468
  8
0
 10
243.32025310266991
 20
750.46985583667163
 30
0.0
 11
243.32025310266991
 21
747.42414983667163
 31
0.0
  0
LINE
  5
7469
  8
0
 10
245.39917410266989
 20
756.9744588366716
 30
0.0
 11
245.39917410266989
 21
758.97445883667137
 31
0.0
  0
LINE
  5
746A
  8
0
 10
245.39917410266989
 20
758.97445883667137
 30
0.0
 11
243.32025310266991
 21
759.46985583667163
 31
0.0
  0
LINE
  5
746B
  8
0
 10
245.39917410266989
 20
756.9744588366716
 30
0.0
 11
243.32025310266991
 21
756.42414983667163
 31
0.0
  0
LINE
  5
746C
  8
0
 10
245.39917410266989
 20
749.97445883667149
 30
0.0
 11
243.32025310266991
 21
750.46985583667163
 31
0.0
  0
LINE
  5
746D
  8
0
 10
245.39917410266989
 20
747.9744588366716
 30
0.0
 11
245.39917410266989
 21
749.97445883667149
 31
0.0
  0
LINE
  5
746E
  8
0
 10
245.39917410266989
 20
747.9744588366716
 30
0.0
 11
243.32025310266991
 21
747.42414983667163
 31
0.0
  0
LINE
  5
746F
  8
0
 10
239.82025310266991
 20
815.11822983667162
 30
0.0
 11
246.32025310266991
 21
815.11822983667162
 31
0.0
  0
LINE
  5
7470
  8
0
 10
239.82025310266991
 20
815.45230783667159
 30
0.0
 11
247.00025310266989
 21
815.45230783667159
 31
0.0
  0
LINE
  5
7471
  8
0
 10
248.32025310266991
 20
813.11822983667173
 30
0.0
 11
248.32025310266991
 21
807.47446283667136
 31
0.0
  0
LINE
  5
7472
  8
0
 10
250.00025310266989
 20
818.45230783667171
 30
0.0
 11
250.00025310266989
 21
807.47446283667136
 31
0.0
  0
ARC
  5
7473
  8
0
 10
247.00025310266989
 20
818.45230783667171
 30
0.0
 40
3.0
 50
270.0
 51
0.0
  0
LINE
  5
7474
  8
0
 10
239.82025310266991
 20
799.83069483667168
 30
0.0
 11
246.32025310266991
 21
799.83069483667168
 31
0.0
  0
LINE
  5
7475
  8
0
 10
239.82025310266991
 20
799.49661683667148
 30
0.0
 11
247.00025310266989
 21
799.49661683667148
 31
0.0
  0
LINE
  5
7476
  8
0
 10
248.32025310266991
 20
801.83069483667168
 30
0.0
 11
248.32025310266991
 21
807.47446283667136
 31
0.0
  0
LINE
  5
7477
  8
0
 10
250.00025310266989
 20
796.49661683667136
 30
0.0
 11
250.00025310266989
 21
807.47446283667136
 31
0.0
  0
ARC
  5
7478
  8
0
 10
247.00025310266989
 20
796.49661683667136
 30
0.0
 40
3.0
 50
359.99999799999722
 51
89.999997999997177
  0
LINE
  5
7618
  8
0
 10
447.3203231026701
 20
721.97447383667134
 30
0.0
 11
447.3203231026701
 21
892.97447383667111
 31
0.0
  0
LINE
  5
7619
  8
0
 10
447.32032310266987
 20
721.97447383667134
 30
0.0
 11
483.82020310266881
 21
721.97447383667134
 31
0.0
  0
LINE
  5
761A
  8
0
 10
447.32032310266987
 20
892.97447383667088
 30
0.0
 11
483.82020310266881
 21
892.97447383667088
 31
0.0
  0
ARC
  5
761E
  8
0
 10
483.82020310266881
 20
895.97447383667065
 30
0.0
 40
3.0
 50
270.0
 51
0.0
1001
GENIUS_GENODEF_13
1002
{
1000
HIER
1070
     0
1002
}
1002
{
1000
MANEDIT
1070
     0
1002
}
1002
{
1000
NOSEL
1070
     0
1002
}
1002
{
1000
BEHIND
1070
     0
1002
}
1002
{
1000
OTHER
1070
     0
1002
}
1002
{
1000
REACTOR
1002
}
1001
GENIUS_GENOBJ-N-FIL_13
1002
{
1000
OWNER
1000
GEN
1002
}
  0
ARC
  5
761F
  8
0
 10
483.82020310266881
 20
718.97447383667134
 30
0.0
 40
3.0
 50
0.0
 51
90.0
1001
GENIUS_GENOBJ-N-FIL_13
1002
{
1000
OWNER
1000
GEN
1002
}
1001
GENIUS_GENODEF_13
1002
{
1000
HIER
1070
     0
1002
}
1002
{
1000
MANEDIT
1070
     0
1002
}
1002
{
1000
NOSEL
1070
     0
1002
}
1002
{
1000
BEHIND
1070
     0
1002
}
1002
{
1000
OTHER
1070
     0
1002
}
1002
{
1000
REACTOR
1002
}
  0
LINE
  5
7620
  8
0
 10
486.82020310266881
 20
883.2141028366716
 30
0.0
 11
447.3203231026701
 21
883.2141028366716
 31
0.0
  0
LINE
  5
7621
  8
0
 10
486.82020310266881
 20
869.5404208366715
 30
0.0
 11
447.3203231026701
 21
869.5404208366715
 31
0.0
  0
LINE
  5
7622
  8
0
 10
486.82020310266881
 20
757.57246083667144
 30
0.0
 11
447.3203231026701
 21
757.57246083667144
 31
0.0
  0
LINE
  5
7623
  8
0
 10
486.82020310266881
 20
767.75175283667136
 30
0.0
 11
447.3203231026701
 21
767.75175283667136
 31
0.0
  0
LINE
  5
7624
  8
0
 10
486.82020310266881
 20
745.26482183667144
 30
0.0
 11
447.3203231026701
 21
745.26482183667144
 31
0.0
  0
LINE
  5
787B
  8
0
  6
CONTINUOUS
 62
     7
 10
508.82014310266862
 20
707.97442883667156
 30
0.0
 11
508.82014310266862
 21
906.97439883667175
 31
0.0
  0
LINE
  5
787C
  8
0
  6
CONTINUOUS
 62
     7
 10
498.82014310266879
 20
742.40221883667164
 30
0.0
 11
498.82014310266879
 21
795.46821740780319
 31
0.0
  0
LINE
  5
787D
  8
0
  6
CONTINUOUS
 62
     7
 10
501.7154731026688
 20
708.22253883667145
 30
0.0
 11
508.82008310266872
 21
707.97442883667156
 31
0.0
  0
LINE
  5
787E
  8
0
  6
CONTINUOUS
 62
     7
 10
486.82014310266891
 20
716.55331883667145
 30
0.0
 11
486.82014310266891
 21
898.39553883667156
 31
0.0
  0
LINE
  5
787F
  8
0
  6
CONTINUOUS
 62
     7
 10
486.82014310266891
 20
739.40221883667164
 30
0.0
 11
495.82014310266879
 21
739.40221883667164
 31
0.0
  0
LINE
  5
7880
  8
0
  6
CONTINUOUS
 62
     7
 10
486.82014310266891
 20
750.15685883667163
 30
0.0
 11
498.82014310266879
 21
750.15685883667163
 31
0.0
  0
LINE
  5
7881
  8
0
  6
CONTINUOUS
 62
     7
 10
486.82014310266891
 20
875.54665883667167
 30
0.0
 11
495.82014310266879
 21
875.54665883667167
 31
0.0
  0
LINE
  5
7882
  8
0
  6
CONTINUOUS
 62
     7
 10
486.82014310266891
 20
864.79201883667145
 30
0.0
 11
498.82014310266879
 21
864.79201883667145
 31
0.0
  0
LINE
  5
7883
  8
0
  6
CONTINUOUS
 62
     7
 10
489.82014310266879
 20
724.58440883667163
 30
0.0
 11
495.82014310266879
 21
724.58440883667163
 31
0.0
  0
LINE
  5
7884
  8
0
  6
CONTINUOUS
 62
     7
 10
498.82014310266879
 20
711.22069883667143
 30
0.0
 11
498.82014310266879
 21
721.58440883667163
 31
0.0
  0
LINE
  5
7885
  8
0
  6
CONTINUOUS
 62
     7
 10
489.82014310266879
 20
713.55331883667145
 30
0.0
 11
495.8573731026687
 21
713.55331883667145
 31
0.0
  0
LINE
  5
7886
  8
0
  6
CONTINUOUS
 62
     7
 10
489.82014310266879
 20
901.39553883667145
 30
0.0
 11
495.8573731026687
 21
901.39553883667145
 31
0.0
  0
LINE
  5
7887
  8
0
  6
CONTINUOUS
 62
     7
 10
498.82014310266879
 20
903.72817883667165
 30
0.0
 11
498.82014310266879
 21
893.36446883667168
 31
0.0
  0
LINE
  5
7888
  8
0
  6
CONTINUOUS
 62
     7
 10
489.82014310266879
 20
890.36446883667156
 30
0.0
 11
495.82014310266879
 21
890.36446883667156
 31
0.0
  0
LINE
  5
7889
  8
0
  6
CONTINUOUS
 62
     7
 10
501.7154731026688
 20
906.72634883667138
 30
0.0
 11
508.82014310266862
 21
906.97439883667175
 31
0.0
  0
LINE
  5
788A
  8
0
  6
CONTINUOUS
 62
     7
 10
638.82020310266876
 20
802.4743988366713
 30
0.0
 11
683.82023310266868
 21
802.4743988366713
 31
0.0
  0
LINE
  5
788B
  8
0
  6
CONTINUOUS
 62
     7
 10
638.82020310266876
 20
812.47439883667164
 30
0.0
 11
683.82023310266868
 21
812.47439883667164
 31
0.0
  0
LINE
  5
788C
  8
0
  6
CONTINUOUS
 62
     7
 10
638.82020310266876
 20
812.47439883667164
 30
0.0
 11
638.82020310266876
 21
802.4743988366713
 31
0.0
  0
LINE
  5
788D
  8
0
  6
CONTINUOUS
 62
     7
 10
621.82020310266898
 20
702.47439883667141
 30
0.0
 11
625.82020310266876
 21
702.47439883667141
 31
0.0
  0
LINE
  5
788E
  8
0
  6
CONTINUOUS
 62
     7
 10
606.82020310266876
 20
693.39529883667115
 30
0.0
 11
606.82020310266876
 21
921.55355883667164
 31
0.0
  0
LINE
  5
788F
  8
0
  6
CENTER
 62
     7
 10
631.3021731026688
 20
712.01501883667129
 30
0.0
 11
600.21620310266871
 21
712.01501883667129
 31
0.0
  0
LINE
  5
7890
  8
0
  6
CONTINUOUS
 62
     7
 10
508.82020310266859
 20
906.97445883667149
 30
0.0
 11
597.51796310266866
 21
910.07180883667172
 31
0.0
  0
LINE
  5
7891
  8
0
  6
CENTER
 62
     7
 10
631.3021731026688
 20
902.93386883667131
 30
0.0
 11
600.21620310266871
 21
902.93386883667131
 31
0.0
  0
LINE
  5
7892
  8
0
  6
CONTINUOUS
 62
     7
 10
613.82020310266876
 20
716.87469883667143
 30
0.0
 11
613.82020310266876
 21
898.07418883667174
 31
0.0
  0
LINE
  5
7893
  8
0
  6
CONTINUOUS
 62
     7
 10
621.82020310266898
 20
689.97442883667145
 30
0.0
 11
621.82020310266898
 21
924.9744588366716
 31
0.0
  0
LINE
  5
7894
  8
0
  6
CONTINUOUS
 62
     7
 10
609.82020310266876
 20
863.38515883667174
 30
0.0
 11
613.82020310266876
 21
863.38515883667174
 31
0.0
  0
LINE
  5
7895
  8
0
  6
CONTINUOUS
 62
     7
 10
610.53566310266888
 20
901.06606883667155
 30
0.0
 11
610.71547310266874
 21
901.07235883667147
 31
0.0
  0
LINE
  5
7896
  8
0
  6
CONTINUOUS
 62
     7
 10
625.82020310266876
 20
702.47439883667141
 30
0.0
 11
625.82020310266876
 21
912.4744588366716
 31
0.0
  0
LINE
  5
7897
  8
0
  6
CONTINUOUS
 62
     7
 10
609.82020310266876
 20
751.56368883667164
 30
0.0
 11
613.82020310266876
 21
751.56368883667164
 31
0.0
  0
LINE
  5
7898
  8
0
  6
CONTINUOUS
 62
     7
 10
683.82023310266868
 20
791.4744588366716
 30
0.0
 11
683.82023310266868
 21
823.4744588366716
 31
0.0
  0
LINE
  5
7899
  8
0
  6
CONTINUOUS
 62
     7
 10
683.82023310266868
 20
791.4744588366716
 30
0.0
 11
625.82020310266876
 21
791.4744588366716
 31
0.0
  0
LINE
  5
789A
  8
0
  6
CONTINUOUS
 62
     7
 10
609.71550310266866
 20
690.3971288366713
 30
0.0
 11
621.82017310266872
 21
689.97442883667145
 31
0.0
  0
LINE
  5
789B
  8
0
  6
CONTINUOUS
 62
     7
 10
683.82023310266868
 20
823.4744588366716
 30
0.0
 11
625.82020310266876
 21
823.4744588366716
 31
0.0
  0
LINE
  5
789C
  8
0
  6
CONTINUOUS
 62
     7
 10
610.53563310266873
 20
713.88280883667176
 30
0.0
 11
610.71550310266866
 21
713.87652883667135
 31
0.0
  0
LINE
  5
789D
  8
0
  6
CONTINUOUS
 62
     7
 10
508.82020310266859
 20
707.97442883667156
 30
0.0
 11
597.51796310266866
 21
704.87704883667163
 31
0.0
  0
LINE
  5
789E
  8
0
  6
CONTINUOUS
 62
     7
 10
600.87901310266875
 20
703.41561883667146
 30
0.0
 11
606.82023310266879
 21
697.4743988366713
 31
0.0
  0
ARC
  5
78A1
  8
0
  6
CONTINUOUS
 62
     7
 10
495.82014310266879
 20
742.40221883667164
 30
0.0
 40
3.0
 50
270.0
 51
0.0
  0
ARC
  5
78A2
  8
0
  6
CONTINUOUS
 62
     7
 10
495.82014310266879
 20
872.54665883667155
 30
0.0
 40
3.0
 50
0.0
 51
90.00000299999769
  0
ARC
  5
78A3
  8
0
  6
CONTINUOUS
 62
     7
 10
495.82014310266879
 20
721.58440883667163
 30
0.0
 40
3.0
 50
0.0
 51
90.00000299999769
  0
ARC
  5
78A4
  8
0
  6
CONTINUOUS
 62
     7
 10
501.82014310266879
 20
711.22069883667143
 30
0.0
 40
3.0
 50
180.000010000001
 51
267.99999999999619
  0
ARC
  5
78A5
  8
0
  6
CONTINUOUS
 62
     7
 10
489.82014310266879
 20
727.58440883667163
 30
0.0
 40
3.0
 50
180.000010000001
 51
270.0
  0
ARC
  5
78A7
  8
0
  6
CONTINUOUS
 62
     7
 10
495.8573731026687
 20
710.55331883667145
 30
0.0
 40
3.0
 50
6.3862994000022004
 51
90.00000299999769
  0
ARC
  5
78A8
  8
0
  6
CONTINUOUS
 62
     7
 10
495.8573731026687
 20
904.39553883667145
 30
0.0
 40
3.0
 50
270.0
 51
353.61370000000329
  0
ARC
  5
78A9
  8
0
  6
CONTINUOUS
 62
     7
 10
489.82014310266879
 20
887.36446883667179
 30
0.0
 40
3.0
 50
90.00000299999769
 51
180.000010000001
  0
ARC
  5
78AA
  8
0
  6
CONTINUOUS
 62
     7
 10
501.82014310266879
 20
903.72817883667165
 30
0.0
 40
3.0
 50
91.999998000000545
 51
180.000010000001
  0
ARC
  5
78AB
  8
0
  6
CONTINUOUS
 62
     7
 10
495.82014310266879
 20
893.36446883667168
 30
0.0
 40
3.0
 50
270.0
 51
0.0
  0
ARC
  5
78AD
  8
0
  6
CONTINUOUS
 62
     7
 10
638.82020310266876
 20
807.47439883667164
 30
0.0
 40
5.0
 50
90.00000299999769
 51
270.0
  0
ARC
  5
78AE
  8
0
  6
CONTINUOUS
 62
     7
 10
597.34346310266869
 20
915.0687588366718
 30
0.0
 40
5.0
 50
272.00000000000369
 51
315.0
  0
ARC
  5
78AF
  8
0
  6
CONTINUOUS
 62
     7
 10
609.82020310266876
 20
693.39529883667115
 30
0.0
 40
3.0
 50
179.999989999999
 51
268.00000999999861
  0
ARC
  5
78B0
  8
0
  6
CONTINUOUS
 62
     7
 10
609.82020310266876
 20
866.38515883667139
 30
0.0
 40
3.0
 50
179.999989999999
 51
270.0
  0
ARC
  5
78B1
  8
0
  6
CONTINUOUS
 62
     7
 10
609.82020310266876
 20
748.56368883667164
 30
0.0
 40
3.0
 50
90.00000299999769
 51
180.000010000001
  0
ARC
  5
78B2
  8
0
  6
CONTINUOUS
 62
     7
 10
610.82020310266876
 20
898.07418883667174
 30
0.0
 40
3.0
 50
0.0
 51
91.999998000000545
  0
ARC
  5
78B3
  8
0
  6
CONTINUOUS
 62
     7
 10
610.82020310266876
 20
716.87469883667143
 30
0.0
 40
3.0
 50
267.99999999999619
 51
0.0
  0
ARC
  5
78B4
  8
0
  6
CONTINUOUS
 62
     7
 10
597.34346310266869
 20
699.88006883667163
 30
0.0
 40
5.0
 50
45.000001000003799
 51
87.999999999996248
  0
POLYLINE
  5
78B5
  8
0
  6
CONTINUOUS
 62
     7
 66
     1
 10
0.0
 20
0.0
 30
0.0
  0
VERTEX
  5
78B6
  8
0
  6
CONTINUOUS
 62
     7
 10
599.48631310266865
 20
910.14052883667159
 30
0.0
 42
0.079826728
  0
VERTEX
  5
78B7
  8
0
  6
CONTINUOUS
 62
     7
 10
573.6444831026688
 20
843.23408883667173
 30
0.0
 42
0.10414858
  0
VERTEX
  5
78B8
  8
0
  6
CONTINUOUS
 62
     7
 10
573.64455310266874
 20
771.71435883667164
 30
0.0
 42
0.079826255
  0
VERTEX
  5
78B9
  8
0
  6
CONTINUOUS
 62
     7
 10
599.48631310266865
 20
704.80828883667164
 30
0.0
  0
SEQEND
  5
78BA
  8
0
 62
     7
  0
LINE
  5
78CE
  8
0
  6
CONTINUOUS
 62
     7
 10
600.87901310266875
 20
911.53332883667144
 30
0.0
 11
606.82020310266876
 21
917.47454883667115
 31
0.0
  0
LINE
  5
78CF
  8
0
  6
CENTER
 62
     7
 10
631.3021731026688
 20
902.93395883667131
 30
0.0
 11
600.21620310266871
 21
902.93395883667131
 31
0.0
  0
LINE
  5
78D0
  8
0
  6
CONTINUOUS
 62
     7
 10
609.71553310266847
 20
924.55181883667137
 30
0.0
 11
621.82020310266898
 21
924.97454883667137
 31
0.0
  0
LINE
  5
78D1
  8
0
  6
CONTINUOUS
 62
     7
 10
610.53566310266888
 20
901.06615883667155
 30
0.0
 11
610.71547310266874
 21
901.07244883667147
 31
0.0
  0
LINE
  5
78D2
  8
0
  6
CONTINUOUS
 62
     7
 10
621.82020310266898
 20
912.47454883667137
 30
0.0
 11
625.82020310266876
 21
912.47454883667137
 31
0.0
  0
ARC
  5
78D3
  8
0
  6
CONTINUOUS
 62
     7
 10
597.34346310266869
 20
915.06884883667158
 30
0.0
 40
5.0
 50
272.00000000000369
 51
315.0
  0
ARC
  5
78D4
  8
0
  6
CONTINUOUS
 62
     7
 10
609.82020310266876
 20
921.55364883667164
 30
0.0
 40
3.0
 50
91.999998000000545
 51
180.000010000001
  0
ARC
  5
78D5
  8
0
  6
CONTINUOUS
 62
     7
 10
610.82020310266876
 20
898.07427883667128
 30
0.0
 40
3.0
 50
0.0
 51
91.999998000000545
  0
LINE
  5
7C3F
  8
AM_0
 10
493.82032109829169
 20
425.69489474467969
 30
0.0
 11
447.32023310266828
 21
425.69489474467969
 31
0.0
  0
LINE
  5
7C40
  8
AM_0
 10
493.82025310266931
 20
595.694894744679
 30
0.0
 11
447.32023310266828
 21
595.69489474467969
 31
0.0
  0
LINE
  5
7C41
  8
0
  6
AM_ISO08W050
 10
526.39841456008276
 20
538.69486674467998
 30
0.0
 11
691.08256068504716
 21
538.69486674467998
 31
0.0
  0
LINE
  5
7C42
  8
AM_0
 10
508.82030310266862
 20
540.88019874468091
 30
0.0
 11
508.82183310266879
 21
540.88019874468091
 31
0.0
  0
LINE
  5
7C43
  8
AM_0
 10
508.82024310266883
 20
411.19491111927118
 30
0.0
 11
508.82024310266883
 21
610.19490174468069
 31
0.0
  0
LINE
  5
7C44
  8
0
  6
AM_ISO08W050
 10
156.0469756734978
 20
510.6948947446798
 30
0.0
 11
542.31490642829215
 21
510.6948947446798
 31
0.0
  0
LINE
  5
7C46
  8
AM_0
 10
500.75049109829132
 20
609.91306074467991
 30
0.0
 11
508.82031109829211
 21
610.19488074468018
 31
0.0
  0
LINE
  5
7C47
  8
AM_0
 10
498.82032109829157
 20
607.91428074468013
 30
0.0
 11
498.82032109829157
 21
413.47550931588711
 31
0.0
  0
ARC
  5
7C48
  8
AM_0
 10
493.82032109829169
 20
420.6948947446798
 30
0.0
 40
5.0
 50
0.0
 51
90.0
1001
GENIUS_GENODEF_13
1002
{
1000
HIER
1070
     0
1002
}
1002
{
1000
MANEDIT
1070
     0
1002
}
1002
{
1000
NOSEL
1070
     0
1002
}
1002
{
1000
BEHIND
1070
     0
1002
}
1002
{
1000
OTHER
1070
     0
1002
}
1002
{
1000
REACTOR
1002
}
1001
GENIUS_GENOBJ-N-FIL_13
1002
{
1000
OWNER
1000
GEN
1002
}
  0
LINE
  5
7C49
  8
AM_0
 10
447.32023310266828
 20
471.22020774467978
 30
0.0
 11
498.82025310266908
 21
471.22020774467978
 31
0.0
  0
LINE
  5
7C4A
  8
AM_0
 10
447.32023310266828
 20
550.16956074467998
 30
0.0
 11
498.82025310266908
 21
550.16956074467998
 31
0.0
  0
LINE
  5
7C4B
  8
AM_0
 10
447.32023310266828
 20
572.27491074467957
 30
0.0
 11
498.82025310266908
 21
572.27491074467957
 31
0.0
  0
ARC
  5
7C4C
  8
AM_0
 10
500.82033109829172
 20
607.91428074468013
 30
0.0
 40
2.00000007
 50
91.999997999994051
 51
180.000010000001
  0
LINE
  5
7C4D
  8
AM_0
 10
498.82025310266908
 20
600.69489474467991
 30
0.0
 11
498.82025310266908
 21
607.91430174468076
 31
0.0
  0
LINE
  5
7C4E
  8
AM_0
 10
447.32023310266828
 20
449.11487874468003
 30
0.0
 11
498.82025310266908
 21
449.11487874468003
 31
0.0
  0
LINE
  5
7C4F
  8
AM_0
 10
487.82024310266883
 20
607.69488174467983
 30
0.0
 11
498.82025310267022
 21
607.69488174467983
 31
0.0
  0
LINE
  5
7C50
  8
AM_0
 10
487.82024310266883
 20
595.694894744679
 30
0.0
 11
487.82024310266883
 21
607.69488174467983
 31
0.0
  0
LINE
  5
7C51
  8
AM_0
 10
488.76663811340433
 20
607.69488174467983
 30
0.0
 11
490.0156731026712
 21
612.35631994468019
 31
0.0
  0
LINE
  5
7C52
  8
AM_0
 10
504.24675569713509
 20
610.03515978644873
 30
0.0
 11
503.58416310267017
 21
612.5078799446801
 31
0.0
  0
LINE
  5
7C53
  8
AM_0
 10
490.69403310267018
 20
613.05528994468023
 30
0.0
 11
496.82024310267047
 21
614.89491994468028
 31
0.0
  0
LINE
  5
7C54
  8
AM_0
 10
496.82024310267047
 20
614.89491994468028
 30
0.0
 11
502.88549310266927
 21
613.21272994467927
 31
0.0
  0
CIRCLE
  5
7C55
  8
AM_0
 10
496.82024310267047
 20
624.89487994468016
 30
0.0
 40
9.9999992999999971
  0
ARC
  5
7C56
  8
AM_0
 10
496.82024310267047
 20
624.89487994468016
 30
0.0
 40
16.299997799999989
 50
304.10956999998768
 51
235.8904199999873
  0
ARC
  5
7C57
  8
AM_0
 10
485.9892531026702
 20
608.92053994467983
 30
0.0
 40
3.0
 50
345.00000000000563
 51
55.861737000009299
  0
ARC
  5
7C58
  8
AM_0
 10
490.98161310267022
 20
612.0975099446797
 30
0.0
 40
1.0000000199999941
 50
106.71442000000459
 51
164.99999000001131
  0
ARC
  5
7C59
  8
AM_0
 10
502.6182831026702
 20
612.24909994467987
 30
0.0
 40
1.0000000199999941
 50
14.999999999994451
 51
74.498793000023696
  0
ARC
  5
7C5A
  8
AM_0
 10
507.65123310267097
 20
608.92053994467983
 30
0.0
 40
3.0
 50
124.1382629999907
 51
157.73743008351781
  0
ARC
  5
7C5B
  8
0
 10
493.82025310266931
 20
600.69489474467878
 30
0.0
 40
5.0
 50
270.0
 51
0.0000000000130276
1001
GENIUS_GENOBJ-N-FIL_13
1002
{
1000
OWNER
1000
GEN
1002
}
1001
GENIUS_GENODEF_13
1002
{
1000
HIER
1070
     0
1002
}
1002
{
1000
MANEDIT
1070
     0
1002
}
1002
{
1000
NOSEL
1070
     0
1002
}
1002
{
1000
BEHIND
1070
     0
1002
}
1002
{
1000
OTHER
1070
     0
1002
}
1002
{
1000
REACTOR
1002
}
  0
LINE
  5
7C5C
  8
AM_0
 10
500.75051822690477
 20
411.47672779727509
 30
0.0
 11
508.82024310266883
 21
411.19491111927118
 31
0.0
  0
ARC
  5
7C5D
  8
AM_0
 10
500.82032109829191
 20
413.47550931588711
 30
0.0
 40
2.0
 50
180.0
 51
267.99988883628168
1001
GENIUS_GENOBJ-N-FIL_13
1002
{
1000
OWNER
1000
GEN
1002
}
1001
GENIUS_GENODEF_13
1002
{
1000
HIER
1070
     0
1002
}
1002
{
1000
MANEDIT
1070
     0
1002
}
1002
{
1000
NOSEL
1070
     0
1002
}
1002
{
1000
BEHIND
1070
     0
1002
}
1002
{
1000
OTHER
1070
     0
1002
}
1002
{
1000
REACTOR
1002
}
  0
LINE
  5
7C5E
  8
AM_0
 10
683.82023310266868
 20
522.69492324467979
 30
0.0
 11
625.82024310266866
 21
522.69492324467979
 31
0.0
  0
LINE
  5
7C5F
  8
AM_0
 10
683.82023310266868
 20
557.6948942446802
 30
0.0
 11
638.82020310266864
 21
557.6948942446802
 31
0.0
  0
LINE
  5
7C60
  8
AM_0
 10
683.82023310266868
 20
554.69489424468009
 30
0.0
 11
625.82024310266866
 21
554.69489424468009
 31
0.0
  0
LINE
  5
7C61
  8
AM_0
 10
683.82023310266868
 20
522.69492324467979
 30
0.0
 11
683.82023310266868
 21
557.6948942446802
 31
0.0
  0
LINE
  5
7C62
  8
AM_0
 10
638.82020310266864
 20
554.69489424468009
 30
0.0
 11
638.82020310266864
 21
557.6948942446802
 31
0.0
  0
LINE
  5
7C63
  8
AM_0
 10
606.82022310266859
 20
597.60565224468019
 30
0.0
 11
606.82022310266859
 21
652.77403224468026
 31
0.0
  0
LINE
  5
7C64
  8
AM_0
 10
571.33073310266877
 20
613.2053822446801
 30
0.0
 11
606.82022310266859
 21
648.69490224467995
 31
0.0
  0
LINE
  5
7C65
  8
AM_0
 10
508.82024310266883
 20
610.19494224467985
 30
0.0
 11
567.92606310266865
 21
611.74264224468016
 31
0.0
  0
LINE
  5
7C66
  8
AM_0
 10
508.82024310266883
 20
411.02978523715069
 30
0.0
 11
594.0571731026688
 21
408.35999925220972
 31
0.0
  0
LINE
  5
7C67
  8
AM_0
 10
609.92495310266861
 20
420.77951724467988
 30
0.0
 11
621.8201931026689
 21
421.19490624468023
 31
0.0
  0
LINE
  5
7C68
  8
AM_0
 10
613.82024310266866
 20
447.32692524468041
 30
0.0
 11
613.82024310266866
 21
538.69491024467993
 31
0.0
  0
LINE
  5
7C69
  8
AM_0
 10
621.82022310266905
 20
433.69490724467983
 30
0.0
 11
625.82024310266866
 21
433.69490724467983
 31
0.0
  0
LINE
  5
7C6A
  8
AM_0
 10
613.82024310266866
 20
538.69491024467993
 30
0.0
 11
613.82024310266866
 21
629.29462224468023
 31
0.0
  0
LINE
  5
7C6B
  8
AM_0
 10
609.10478310266876
 20
444.2651882446803
 30
0.0
 11
610.92494310266898
 21
444.32875824467988
 31
0.0
  0
LINE
  5
7C6C
  8
AM_0
 10
609.71552310266873
 20
655.77223224468025
 30
0.0
 11
621.82022310266905
 21
656.1949322446801
 31
0.0
  0
LINE
  5
7C6D
  8
AM_0
 10
621.82022310266905
 20
538.69491024467993
 30
0.0
 11
621.82022310266905
 21
656.1949322446801
 31
0.0
  0
LINE
  5
7C6E
  8
AM_0
 10
621.82022310266905
 20
421.19490624468023
 30
0.0
 11
621.82022310266905
 21
538.69491024467993
 31
0.0
  0
LINE
  5
7C6F
  8
AM_0
 10
508.82024310266883
 20
430.27712124467979
 30
0.0
 11
605.08373310266882
 21
430.27712124467979
 31
0.0
  0
LINE
  5
7C70
  8
AM_0
 10
606.82022310266859
 20
423.7776842446799
 30
0.0
 11
606.82022310266859
 21
474.0056372446802
 31
0.0
  0
LINE
  5
7C71
  8
AM_0
 10
606.82022310266859
 20
509.9306582446801
 30
0.0
 11
606.82022310266859
 21
597.60565224468019
 31
0.0
  0
LINE
  5
7C72
  8
AM_0
 10
508.82024310266883
 20
589.89934224467822
 30
0.0
 11
593.81369310266859
 21
589.89934224468016
 31
0.0
  0
LINE
  5
7C73
  8
AM_0
 10
594.70811310266879
 20
587.73193224468014
 30
0.0
 11
590.28737310266865
 21
545.12806224467965
 31
0.0
  0
LINE
  5
7C74
  8
AM_0
 10
594.0571731026688
 20
408.35999925220972
 30
0.0
 11
614.82023310266879
 21
420.95046024467979
 31
0.0
  0
LINE
  5
7C75
  8
AM_0
 10
508.82024310266883
 20
450.31465824468012
 30
0.0
 11
605.08373310266882
 21
450.31465824468012
 31
0.0
  0
LINE
  5
7C76
  8
AM_0
 10
609.82022310266871
 20
594.60565224467996
 30
0.0
 11
613.82024310266866
 21
594.60565224467996
 31
0.0
  0
LINE
  5
7C77
  8
AM_0
 10
609.82022310266871
 20
506.9306582446801
 30
0.0
 11
613.82024310266866
 21
506.9306582446801
 31
0.0
  0
LINE
  5
7C78
  8
AM_0
 10
609.82022310266871
 20
477.00563724467992
 30
0.0
 11
613.82024310266866
 21
477.00563724467992
 31
0.0
  0
LINE
  5
7C79
  8
AM_0
 10
569.9201931026688
 20
611.79487224468016
 30
0.0
 11
577.15040310266875
 21
610.63363224467992
 31
0.0
  0
LINE
  5
7C7A
  8
AM_0
 10
610.5356931026688
 20
632.28655224467968
 30
0.0
 11
610.71554310266868
 21
632.29279224467984
 31
0.0
  0
LINE
  5
7C7B
  8
AM_0
 10
621.82022310266905
 20
643.69492224468013
 30
0.0
 11
625.82024310266866
 21
643.69492224468013
 31
0.0
  0
LINE
  5
7C7C
  8
AM_0
 10
625.82024310266866
 20
433.69490724467983
 30
0.0
 11
625.82024310266866
 21
643.69492224468013
 31
0.0
  0
ARC
  5
7C7D
  8
AM_0
 10
609.82022310266871
 20
423.7776842446799
 30
0.0
 40
3.0
 50
179.999989999999
 51
271.99999000000139
  0
ARC
  5
7C7E
  8
AM_0
 10
573.82022310266859
 20
589.89934224468016
 30
0.0
 40
21.000000600000011
 50
354.07597999999319
 51
80.875524999997154
  0
ARC
  5
7C7F
  8
AM_0
 10
630.07370310266867
 20
540.99967224467969
 30
0.0
 40
40.000001999999967
 50
174.07597999999311
 51
234.45533999999759
  0
ARC
  5
7C80
  8
AM_0
 10
609.82022310266871
 20
474.0056372446802
 30
0.0
 40
3.0
 50
90.00000299999769
 51
180.000010000001
  0
ARC
  5
7C81
  8
AM_0
 10
609.82022310266871
 20
509.9306582446801
 30
0.0
 40
3.0
 50
179.999989999999
 51
270.0
  0
ARC
  5
7C82
  8
AM_0
 10
610.82024310266888
 20
447.32692524468041
 30
0.0
 40
3.0
 50
271.99999999999721
 51
0.0
  0
ARC
  5
7C83
  8
AM_0
 10
609.82022310266871
 20
597.60565224468019
 30
0.0
 40
3.0
 50
179.999989999999
 51
270.0
  0
ARC
  5
7C84
  8
AM_0
 10
609.82022310266871
 20
652.77403224468026
 30
0.0
 40
3.0
 50
91.999998000000545
 51
180.000010000001
  0
ARC
  5
7C85
  8
AM_0
 10
610.82024310266888
 20
629.29462224468023
 30
0.0
 40
3.0
 50
0.0
 51
91.999998000000545
  0
ARC
  5
7C86
  8
AM_0
 10
567.79520310266855
 20
616.7409122446802
 30
0.0
 40
5.0000000999999976
 50
271.50000000000267
 51
314.99999999999079
  0
ARC
  5
7C8A
  8
AM_0
  6
CONTINUOUS
 10
168.82023310266851
 20
411.49489474467981
 30
0.0
 40
2.0
 50
180.0
 51
270.0
  0
LINE
  5
7C8B
  8
AM_0
  6
CONTINUOUS
 10
168.82023310266851
 20
409.4948947446797
 30
0.0
 11
239.8202331026686
 21
409.4948947446797
 31
0.0
  0
LINE
  5
7C8C
  8
AM_0
  6
CONTINUOUS
 10
239.8202331026686
 20
611.49489474467975
 30
0.0
 11
239.8202331026686
 21
409.4948947446797
 31
0.0
  0
ARC
  5
7C8D
  8
AM_0
  6
CONTINUOUS
 10
169.22023310266849
 20
596.47170974467974
 30
0.0
 40
2.399999999999999
 50
160.00000000000239
 51
180.0
  0
ARC
  5
7C8E
  8
AM_0
  6
CONTINUOUS
 10
173.8146971026685
 20
609.09489474467989
 30
0.0
 40
2.399999999999999
 50
90.0
 51
160.00000000000239
  0
LINE
  5
7C8F
  8
AM_0
  6
CONTINUOUS
 10
171.55943410266849
 20
609.91574274467973
 30
0.0
 11
166.9649711026685
 21
597.29255874467992
 31
0.0
  0
LINE
  5
7C90
  8
AM_0
 10
172.13419810266859
 20
610.80834874467973
 30
0.0
 11
172.13419810266859
 21
409.4948947446797
 31
0.0
  0
LINE
  5
7C91
  8
AM_0
  6
CONTINUOUS
 10
166.8202331026686
 20
596.47170974467974
 30
0.0
 11
166.8202331026686
 21
411.49489474467981
 31
0.0
  0
LINE
  5
7C92
  8
AM_0
  6
CONTINUOUS
 10
239.8202331026686
 20
611.49489474467975
 30
0.0
 11
173.8146971026685
 21
611.49489474467975
 31
0.0
  0
ARC
  5
7C93
  8
AM_0
  6
CONTINUOUS
 10
340.32023310266862
 20
-48.155081255320042
 30
0.0
 40
600.59997599999986
 50
86.033759999997386
 51
93.836910000000643
  0
ARC
  5
7C94
  8
AM_0
  6
CONTINUOUS
 10
300.5048381026686
 20
545.51129374467985
 30
0.0
 40
5.5999980000000003
 50
93.837062000000643
 51
179.99998200000081
  0
ARC
  5
7C95
  8
AM_0
  6
CONTINUOUS
 10
302.5686381026685
 20
545.64609674467977
 30
0.0
 40
5.5999980000000003
 50
93.638055999997619
 51
179.99998200000081
  0
ARC
  5
7C96
  8
AM_0
  6
CONTINUOUS
 10
293.3968361026686
 20
510.6948947446798
 30
0.0
 40
15.000002
 50
310.58999199999721
 51
49.409702000001012
  0
ARC
  5
7C97
  8
AM_0
  6
CONTINUOUS
 10
340.32023310266862
 20
-48.155081255320042
 30
0.0
 40
596.09997599999986
 50
86.443289999999465
 51
93.315089000003056
  0
ARC
  5
7C98
  8
AM_0
  6
CONTINUOUS
 10
296.3561811026687
 20
510.6948947446798
 30
0.0
 40
14.0
 50
317.10021800000243
 51
42.899781999997558
  0
ARC
  5
7C99
  8
AM_0
  6
CONTINUOUS
 10
308.51643610266871
 20
521.99481474467984
 30
0.0
 40
2.6000000000000001
 50
180.0
 51
222.8997819999976
  0
LINE
  5
7C9A
  8
AM_0
  6
CONTINUOUS
 10
302.4577381026686
 20
543.35349474467989
 30
0.0
 11
302.4577381026686
 21
523.60439474467967
 31
0.0
  0
LINE
  5
7C9B
  8
AM_0
  6
CONTINUOUS
 10
305.91643610266863
 20
521.99481474467984
 30
0.0
 11
305.91643610266863
 21
540.27719274467984
 31
0.0
  0
ARC
  5
7C9C
  8
AM_0
  6
CONTINUOUS
 10
306.05773610266863
 20
543.35349474467989
 30
0.0
 40
3.5999979999999998
 50
93.315005000002998
 51
179.99998200000081
  0
ARC
  5
7C9D
  8
AM_0
  6
CONTINUOUS
 10
304.4577381026686
 20
523.60439474467967
 30
0.0
 40
1.999997
 50
179.99998200000081
 51
229.4100490000053
  0
LINE
  5
7C9E
  8
AM_0
  6
CONTINUOUS
 10
294.90483510266853
 20
545.51129474467984
 30
0.0
 11
294.90483510266853
 21
475.87849074467982
 31
0.0
  0
LINE
  5
7C9F
  8
AM_0
  6
CONTINUOUS
 10
296.9686361026686
 20
545.64609874467965
 30
0.0
 11
296.9686361026686
 21
475.74369074467972
 31
0.0
  0
LINE
  5
7CA0
  8
AM_0
  6
CONTINUOUS
 10
305.91643610266863
 20
478.1626987446798
 30
0.0
 11
305.91643610266863
 21
499.39497474467981
 31
0.0
  0
LINE
  5
7CA1
  8
AM_0
  6
CONTINUOUS
 10
302.4577381026686
 20
478.0321557446797
 30
0.0
 11
302.4577381026686
 21
497.78539874467981
 31
0.0
  0
ARC
  5
7CA2
  8
AM_0
  6
CONTINUOUS
 10
308.51643610266871
 20
499.39497474467981
 30
0.0
 40
2.6000000000000001
 50
137.1002180000024
 51
180.0
  0
ARC
  5
7CA3
  8
AM_0
  6
CONTINUOUS
 10
304.4577381026686
 20
497.78539874467981
 30
0.0
 40
2.0
 50
130.59005900000079
 51
179.99998200000081
  0
ARC
  5
7CA4
  8
AM_0
  6
CONTINUOUS
 10
340.32023310266862
 20
1069.5448707446801
 30
0.0
 40
596.09997599999986
 50
266.6850579999973
 51
273.55700699999932
  0
ARC
  5
7CA5
  8
AM_0
  6
CONTINUOUS
 10
306.05773610266863
 20
478.03629874467993
 30
0.0
 40
3.6000009999999998
 50
180.00007799999869
 51
266.68501400000298
  0
ARC
  5
7CA6
  8
AM_0
  6
CONTINUOUS
 10
340.32023310266862
 20
1069.5448707446801
 30
0.0
 40
600.59997599999986
 50
266.16305400000141
 51
273.96601299999787
  0
ARC
  5
7CA7
  8
AM_0
  6
CONTINUOUS
 10
300.5048381026686
 20
475.87849574467981
 30
0.0
 40
5.600000999999998
 50
180.00005699999531
 51
266.1630369999973
  0
ARC
  5
7CA8
  8
AM_0
  6
CONTINUOUS
 10
302.5686381026685
 20
475.74369574467971
 30
0.0
 40
5.5999989999999968
 50
180.00005699999531
 51
266.36204099999878
  0
ARC
  5
7CA9
  8
AM_0
  6
CONTINUOUS
 10
381.61433910266851
 20
547.41489574467982
 30
0.0
 40
3.5999989999999982
 50
0.0000179999992061
 51
86.033744000000837
  0
LINE
  5
7CAA
  8
AM_0
  6
CONTINUOUS
 10
376.79733710266862
 20
477.39039774467972
 30
0.0
 11
376.79733710266862
 21
543.99939974467998
 31
0.0
  0
LINE
  5
7CAB
  8
AM_0
  6
CONTINUOUS
 10
380.11433910266851
 20
477.5871977446796
 30
0.0
 11
380.11433910266851
 21
543.80691174467984
 31
0.0
  0
ARC
  5
7CAC
  8
AM_0
  6
CONTINUOUS
 10
377.11433910266851
 20
543.80259874467993
 30
0.0
 40
3.0000029999999982
 50
0.0000179999992061
 51
86.4432529999997
  0
ARC
  5
7CAD
  8
AM_0
  6
CONTINUOUS
 10
373.79733710266862
 20
543.99939874467975
 30
0.0
 40
2.9999989999999999
 50
0.0000179999992061
 51
86.764376000000055
  0
LINE
  5
7CAE
  8
AM_0
  6
CONTINUOUS
 10
385.21432910266861
 20
473.96421374467968
 30
0.0
 11
385.21432910266861
 21
547.42275674467965
 31
0.0
  0
ARC
  5
7CAF
  8
AM_0
  6
CONTINUOUS
 10
373.79733710266862
 20
477.39039774467972
 30
0.0
 40
3.0
 50
273.23604299999818
 51
0.0000179999992061
  0
ARC
  5
7CB0
  8
AM_0
  6
CONTINUOUS
 10
381.61433910266851
 20
473.97469474467971
 30
0.0
 40
3.6000059999999978
 50
273.96599899999779
 51
0.0000179999992061
  0
ARC
  5
7CB1
  8
AM_0
  6
CONTINUOUS
 10
377.11433910266851
 20
477.5871977446796
 30
0.0
 40
3.0
 50
273.55702100000269
 51
0.0000179999992061
  0
LINE
  5
7CB2
  8
AM_0
  6
CONTINUOUS
 10
392.27710910266848
 20
559.87989474467975
 30
0.0
 11
392.27710910266848
 21
539.51489474467985
 31
0.0
  0
LINE
  5
7CB3
  8
AM_0
  6
CONTINUOUS
 10
408.32023210266863
 20
559.87989474467975
 30
0.0
 11
408.32023210266863
 21
539.51489474467985
 31
0.0
  0
LINE
  5
7CB4
  8
AM_0
  6
CONTINUOUS
 10
422.86962810266829
 20
454.67409874467961
 30
0.0
 11
408.32023210266863
 21
454.67409874467961
 31
0.0
  0
LINE
  5
7CB5
  8
AM_0
  6
CONTINUOUS
 10
427.82023310266851
 20
466.0864487446799
 30
0.0
 11
408.32023210266863
 21
466.0864487446799
 31
0.0
  0
LINE
  5
7CB6
  8
AM_0
  6
CONTINUOUS
 10
393.02563010266852
 20
459.3891887446797
 30
0.0
 11
408.32023310266862
 21
454.67409874467961
 31
0.0
  0
LINE
  5
7CB7
  8
AM_0
  6
CONTINUOUS
 10
408.32023310266862
 20
466.0864487446799
 30
0.0
 11
393.28429210266859
 21
465.5456977446799
 31
0.0
  0
ARC
  5
7CB8
  8
AM_0
  6
CONTINUOUS
 10
393.32023310266862
 20
464.54634374467992
 30
0.0
 40
1.0
 50
92.059690999997088
 51
180.0
  0
ARC
  5
7CB9
  8
AM_0
  6
CONTINUOUS
 10
393.32023310266862
 20
460.34480874467988
 30
0.0
 40
1.0
 50
180.0
 51
252.8662750000021
  0
LINE
  5
7CBA
  8
AM_0
  6
CONTINUOUS
 10
408.32023310266862
 20
586.54768174467972
 30
0.0
 11
393.01977410266858
 21
581.7278157446799
 31
0.0
  0
ARC
  5
7CBB
  8
AM_0
  6
CONTINUOUS
 10
393.32023310266862
 20
580.77402074467989
 30
0.0
 40
1.0
 50
107.485179
 51
180.0
  0
ARC
  5
7CBC
  8
AM_0
  6
CONTINUOUS
 10
393.32023310266862
 20
578.42295574467971
 30
0.0
 40
1.0
 50
180.0
 51
270.0
  0
LINE
  5
7CBD
  8
AM_0
  6
CONTINUOUS
 10
393.36878810266847
 20
577.42413474467992
 30
0.0
 11
408.32023310266862
 21
578.15095474467967
 31
0.0
  0
LINE
  5
7CBE
  8
AM_0
  6
CONTINUOUS
 10
427.82023310266851
 20
578.15095474467967
 30
0.0
 11
408.32023310266862
 21
578.15095474467967
 31
0.0
  0
LINE
  5
7CBF
  8
AM_0
  6
CONTINUOUS
 10
351.32023310266862
 20
608.98138774467998
 30
0.0
 11
438.7674181026685
 21
608.98138774467998
 31
0.0
  0
ARC
  5
7CC0
  8
AM_0
  6
CONTINUOUS
 10
262.58447810266858
 20
606.98138774467975
 30
0.0
 40
2.0
 50
90.0
 51
156.10179999999909
  0
ARC
  5
7CC1
  8
AM_0
  6
CONTINUOUS
 10
438.7674181026685
 20
606.98138774467975
 30
0.0
 40
2.0
 50
10.000001999998901
 51
90.0
  0
LINE
  5
7CC2
  8
AM_0
  6
CONTINUOUS
 10
442.32023310266851
 20
598.34991174467973
 30
0.0
 11
440.73703310266859
 21
607.32868474467989
 31
0.0
  0
LINE
  5
7CC3
  8
AM_0
  6
CONTINUOUS
 10
442.05942510266863
 20
598.34991174467973
 30
0.0
 11
442.32023310266851
 21
598.34991174467973
 31
0.0
  0
ARC
  5
7CC4
  8
AM_0
  6
CONTINUOUS
 10
247.65144810266861
 20
605.79161374467992
 30
0.0
 40
2.0
 50
90.0
 51
169.99999800000111
  0
LINE
  5
7CC5
  8
AM_0
  6
CONTINUOUS
 10
243.3202331026686
 20
592.74561074467988
 30
0.0
 11
245.68183310266849
 21
606.13891074467995
 31
0.0
  0
ARC
  5
7CC6
  8
AM_0
  6
CONTINUOUS
 10
438.7163991026685
 20
605.79161374467992
 30
0.0
 40
2.0
 50
10.000001999998901
 51
90.0
  0
LINE
  5
7CC7
  8
AM_0
  6
CONTINUOUS
 10
442.32023310266851
 20
596.87079374467999
 30
0.0
 11
440.68601410266848
 21
606.13891074467995
 31
0.0
  0
LINE
  5
7CC8
  8
AM_0
  6
CONTINUOUS
 10
243.3202331026686
 20
592.74561074467988
 30
0.0
 11
243.8881391026685
 21
592.74561074467988
 31
0.0
  0
LINE
  5
7CC9
  8
AM_0
  6
CONTINUOUS
 10
441.78426210266849
 20
596.87079374467999
 30
0.0
 11
442.32023310266851
 21
596.87079374467999
 31
0.0
  0
ARC
  5
7CCA
  8
AM_0
  6
CONTINUOUS
 10
438.63054410266852
 20
603.23887974467971
 30
0.0
 40
2.0
 50
10.00000100000252
 51
90.0
  0
ARC
  5
7CCB
  8
AM_0
  6
CONTINUOUS
 10
247.76923910266851
 20
603.23887974467971
 30
0.0
 40
2.0
 50
90.0
 51
169.9999989999975
  0
LINE
  5
7CCC
  8
AM_0
  6
CONTINUOUS
 10
243.3202331026686
 20
589.5248547446796
 30
0.0
 11
245.7996231026687
 21
603.58617574467974
 31
0.0
  0
ARC
  5
7CCD
  8
AM_0
  6
CONTINUOUS
 10
247.9503801026685
 20
599.27369474467991
 30
0.0
 40
2.0
 50
90.0
 51
170.00000000000139
  0
LINE
  5
7CCE
  8
AM_0
  6
CONTINUOUS
 10
243.3202331026686
 20
584.53236974467973
 30
0.0
 11
245.98076410266859
 21
599.62099074467972
 31
0.0
  0
ARC
  5
7CCF
  8
AM_0
  6
CONTINUOUS
 10
248.23160810266859
 20
593.69626674467975
 30
0.0
 40
2.0
 50
90.0
 51
170.00000000000139
  0
LINE
  5
7CD0
  8
AM_0
  6
CONTINUOUS
 10
243.3202331026686
 20
577.36001774467991
 30
0.0
 11
246.2619921026685
 21
594.04356374467989
 31
0.0
  0
ARC
  5
7CD1
  8
AM_0
  6
CONTINUOUS
 10
248.32687210266849
 20
587.69559974467973
 30
0.0
 40
2.0
 50
90.0
 51
169.9999989999975
  0
LINE
  5
7CD2
  8
AM_0
  6
CONTINUOUS
 10
243.3202331026686
 20
570.81908174467992
 30
0.0
 11
246.3572561026686
 21
588.04289574467975
 31
0.0
  0
LINE
  5
7CD3
  8
AM_0
  6
CONTINUOUS
 10
442.19197410266861
 20
594.55854374467992
 30
0.0
 11
440.60015910266861
 21
603.58617574467974
 31
0.0
  0
LINE
  5
7CD4
  8
AM_0
  6
CONTINUOUS
 10
243.3202331026686
 20
589.5248547446796
 30
0.0
 11
244.2005431026686
 21
589.5248547446796
 31
0.0
  0
ARC
  5
7CD5
  8
AM_0
  6
CONTINUOUS
 10
438.50116610266849
 20
599.27369474467991
 30
0.0
 40
2.0
 50
9.9999999999986073
 51
90.0
  0
LINE
  5
7CD6
  8
AM_0
  6
CONTINUOUS
 10
441.36342810266859
 20
594.55854374467992
 30
0.0
 11
440.47078210266852
 21
599.62099074467972
 31
0.0
  0
ARC
  5
7CD7
  8
AM_0
  6
CONTINUOUS
 10
373.70925110266847
 20
593.69626674467975
 30
0.0
 40
2.0
 50
5.5986529999986434
 51
90.0
  0
ARC
  5
7CD8
  8
AM_0
  6
CONTINUOUS
 10
373.70729610266869
 20
587.69559974467973
 30
0.0
 40
2.0
 50
5.4290190000020546
 51
90.0
  0
LINE
  5
7CD9
  8
AM_0
  6
CONTINUOUS
 10
444.32023310266851
 20
470.97218874467961
 30
0.0
 11
444.32023310266851
 21
572.76082774467977
 31
0.0
  0
LINE
  5
7CDA
  8
AM_0
  6
CONTINUOUS
 10
444.32023310266851
 20
594.55854374467992
 30
0.0
 11
444.32023310266851
 21
598.69489474467991
 31
0.0
  0
LINE
  5
7CDB
  8
AM_0
  6
CONTINUOUS
 10
392.27710910266848
 20
584.53236974467973
 30
0.0
 11
408.32023210266863
 21
589.13223174467998
 31
0.0
  0
LINE
  5
7CDC
  8
AM_0
  6
CONTINUOUS
 10
376.61714810266858
 20
584.53236974467973
 30
0.0
 11
392.27710910266848
 21
584.53236974467973
 31
0.0
  0
LINE
  5
7CDD
  8
AM_0
  6
CONTINUOUS
 10
408.32023210266863
 20
589.13223174467998
 30
0.0
 11
423.01351610266852
 21
589.13223174467998
 31
0.0
  0
ARC
  5
7CDE
  8
AM_0
  6
CONTINUOUS
 10
425.02003210266849
 20
582.17816074467987
 30
0.0
 40
2.6003989999999999
 50
179.9999819999943
 51
269.99997799999522
  0
ARC
  5
7CDF
  8
AM_0
  6
CONTINUOUS
 10
425.02003210266849
 20
587.47814874467974
 30
0.0
 40
2.600403
 50
90.0
 51
179.9999819999943
  0
LINE
  5
7CE0
  8
AM_0
  6
CONTINUOUS
 10
427.82023310266851
 20
584.89417974467972
 30
0.0
 11
426.32023310266828
 21
584.02815474467991
 31
0.0
  0
LINE
  5
7CE1
  8
AM_0
  6
CONTINUOUS
 10
427.82023310266851
 20
585.89417974467972
 30
0.0
 11
426.32023310266828
 21
585.02815474467968
 31
0.0
  0
LINE
  5
7CE2
  8
AM_0
  6
CONTINUOUS
 10
427.82023310266851
 20
590.92815474467989
 30
0.0
 11
427.82023310266851
 21
578.72815474467996
 31
0.0
  0
LINE
  5
7CE3
  8
AM_0
  6
CONTINUOUS
 10
426.32023310266828
 20
590.92815474467989
 30
0.0
 11
427.82023310266851
 21
590.92815474467989
 31
0.0
  0
LINE
  5
7CE4
  8
AM_0
  6
CONTINUOUS
 10
426.32023310266828
 20
578.72815474467996
 30
0.0
 11
427.82023310266851
 21
578.72815474467996
 31
0.0
  0
LINE
  5
7CE5
  8
AM_0
  6
CONTINUOUS
 10
422.42023910266829
 20
587.47814874467974
 30
0.0
 11
422.42023910266829
 21
582.17816074467987
 31
0.0
  0
LINE
  5
7CE6
  8
AM_0
  6
CONTINUOUS
 10
426.32023310266828
 20
590.92815474467989
 30
0.0
 11
426.32023310266828
 21
578.72815474467996
 31
0.0
  0
LINE
  5
7CE7
  8
AM_0
  6
CONTINUOUS
 10
426.32023310266828
 20
579.57815474467975
 30
0.0
 11
425.02003210266849
 21
579.57815474467975
 31
0.0
  0
LINE
  5
7CE8
  8
AM_0
  6
CONTINUOUS
 10
426.32023310266828
 20
590.07815474467998
 30
0.0
 11
425.02003210266821
 21
590.07815474467998
 31
0.0
  0
ARC
  5
7CE9
  8
AM_0
  6
CONTINUOUS
 10
425.02003210266849
 20
456.13623374467988
 30
0.0
 40
2.6003989999999999
 50
179.9999819999943
 51
269.99997799999522
  0
ARC
  5
7CEA
  8
AM_0
  6
CONTINUOUS
 10
425.02003210266849
 20
461.43622174467993
 30
0.0
 40
2.600403
 50
90.0
 51
179.9999819999943
  0
LINE
  5
7CEB
  8
AM_0
  6
CONTINUOUS
 10
427.82023310266851
 20
458.85225274467967
 30
0.0
 11
426.32023310266828
 21
457.98622774467992
 31
0.0
  0
LINE
  5
7CEC
  8
AM_0
  6
CONTINUOUS
 10
427.82023310266851
 20
459.85225274467979
 30
0.0
 11
426.32023310266828
 21
458.98622774467981
 31
0.0
  0
LINE
  5
7CED
  8
AM_0
  6
CONTINUOUS
 10
427.82023310266851
 20
464.88622774468001
 30
0.0
 11
427.82023310266851
 21
452.6862277446798
 31
0.0
  0
LINE
  5
7CEE
  8
AM_0
  6
CONTINUOUS
 10
426.32023310266828
 20
464.88622774468001
 30
0.0
 11
427.82023310266851
 21
464.88622774468001
 31
0.0
  0
LINE
  5
7CEF
  8
AM_0
  6
CONTINUOUS
 10
426.32023310266828
 20
452.6862277446798
 30
0.0
 11
427.82023310266851
 21
452.6862277446798
 31
0.0
  0
LINE
  5
7CF0
  8
AM_0
  6
CONTINUOUS
 10
422.42023910266829
 20
461.43622174467993
 30
0.0
 11
422.42023910266829
 21
456.13623374467988
 31
0.0
  0
LINE
  5
7CF1
  8
AM_0
  6
CONTINUOUS
 10
426.32023310266828
 20
464.88622774468001
 30
0.0
 11
426.32023310266828
 21
452.6862277446798
 31
0.0
  0
LINE
  5
7CF2
  8
AM_0
  6
CONTINUOUS
 10
426.32023310266828
 20
453.53622774467982
 30
0.0
 11
425.02003210266849
 21
453.53622774467982
 31
0.0
  0
LINE
  5
7CF3
  8
AM_0
  6
CONTINUOUS
 10
426.32023310266828
 20
464.03622774467982
 30
0.0
 11
425.02003210266821
 21
464.03622774467982
 31
0.0
  0
LINE
  5
7CF4
  8
AM_0
  6
CONTINUOUS
 10
442.25940310266861
 20
598.69489474467991
 30
0.0
 11
444.32023310266851
 21
598.69489474467991
 31
0.0
  0
LINE
  5
7CF5
  8
AM_0
  6
CONTINUOUS
 10
247.9503801026685
 20
601.27369474467991
 30
0.0
 11
438.50116610266849
 21
601.27369474467991
 31
0.0
  0
LINE
  5
7CF6
  8
AM_0
  6
CONTINUOUS
 10
247.76923910266851
 20
605.23887974467971
 30
0.0
 11
438.63054410266852
 21
605.23887974467971
 31
0.0
  0
LINE
  5
7CF7
  8
AM_0
  6
CONTINUOUS
 10
247.65144810266861
 20
607.79161374467969
 30
0.0
 11
438.7163991026685
 21
607.79161374467969
 31
0.0
  0
LINE
  5
7CF8
  8
AM_0
  6
CONTINUOUS
 10
239.8202331026686
 20
604.19489474467969
 30
0.0
 11
245.33905110266861
 21
604.19489474467969
 31
0.0
  0
LINE
  5
7CF9
  8
AM_0
  6
CONTINUOUS
 10
262.58447810266858
 20
608.98138774467998
 30
0.0
 11
329.32023310266862
 21
608.98138774467998
 31
0.0
  0
LINE
  5
7CFA
  8
AM_0
  6
CONTINUOUS
 10
408.32023210266863
 20
567.85489474467965
 30
0.0
 11
408.32023210266863
 21
562.50989474467974
 31
0.0
  0
LINE
  5
7CFB
  8
AM_0
  6
CONTINUOUS
 10
392.27710910266848
 20
567.85489474467965
 30
0.0
 11
392.27710910266848
 21
562.50989474467974
 31
0.0
  0
LINE
  5
7CFC
  8
AM_0
  6
CONTINUOUS
 10
408.32023210266863
 20
578.15095474467967
 30
0.0
 11
408.32023210266863
 21
570.55489474467959
 31
0.0
  0
LINE
  5
7CFD
  8
AM_0
  6
CONTINUOUS
 10
408.32023210266863
 20
586.54768174467972
 30
0.0
 11
422.42023910266829
 21
586.54768174467972
 31
0.0
  0
LINE
  5
7CFE
  8
AM_0
  6
CONTINUOUS
 10
243.3202331026686
 20
570.81908174467992
 30
0.0
 11
377.32023310266862
 21
570.81908174467992
 31
0.0
  0
LINE
  5
7CFF
  8
AM_0
  6
CONTINUOUS
 10
376.64260610266859
 20
577.36001774467991
 30
0.0
 11
377.32023310266862
 21
577.36001774467991
 31
0.0
  0
LINE
  5
7D00
  8
AM_0
  6
CONTINUOUS
 10
248.32687210266849
 20
589.69559974467973
 30
0.0
 11
373.70729610266869
 21
589.69559974467973
 31
0.0
  0
LINE
  5
7D01
  8
AM_0
  6
CONTINUOUS
 10
243.3202331026686
 20
577.36001774467991
 30
0.0
 11
244.47357610266849
 21
577.36001774467991
 31
0.0
  0
LINE
  5
7D02
  8
AM_0
  6
CONTINUOUS
 10
248.23160810266859
 20
595.69626674467986
 30
0.0
 11
373.70925110266847
 21
595.69626674467986
 31
0.0
  0
LINE
  5
7D03
  8
AM_0
  6
CONTINUOUS
 10
444.32023310266851
 20
572.76082774467977
 30
0.0
 11
447.32023310266828
 21
571.02877674467959
 31
0.0
  0
ARC
  5
7D04
  8
AM_0
  6
CONTINUOUS
 10
426.82023310266828
 20
573.76082774467966
 30
0.0
 40
1.0
 50
270.0
 51
0.0
  0
ARC
  5
7D05
  8
AM_0
  6
CONTINUOUS
 10
429.82023310266851
 20
592.55854374467992
 30
0.0
 40
2.0
 50
90.0
 51
180.0
  0
ARC
  5
7D06
  8
AM_0
  6
CONTINUOUS
 10
429.82023310266851
 20
588.43453874467968
 30
0.0
 40
2.0
 50
180.0
 51
270.0
  0
ARC
  5
7D07
  8
AM_0
  6
CONTINUOUS
 10
429.82023310266851
 20
584.43453874467991
 30
0.0
 40
2.0
 50
90.0
 51
180.0
  0
LINE
  5
7D08
  8
AM_0
  6
CONTINUOUS
 10
429.82023310266851
 20
594.55854374467992
 30
0.0
 11
447.32023310266828
 21
594.55854374467992
 31
0.0
  0
LINE
  5
7D09
  8
AM_0
  6
CONTINUOUS
 10
427.82023310266851
 20
572.76082774467977
 30
0.0
 11
444.32023310266851
 21
572.76082774467977
 31
0.0
  0
LINE
  5
7D0A
  8
AM_0
  6
CONTINUOUS
 10
429.82023310266851
 20
586.43453874467991
 30
0.0
 11
447.32023310266828
 21
586.43453874467991
 31
0.0
  0
LINE
  5
7D0B
  8
AM_0
  6
CONTINUOUS
 10
427.82023310266851
 20
573.76082774467966
 30
0.0
 11
427.82023310266851
 21
592.55854374467992
 31
0.0
  0
LINE
  5
7D0C
  8
AM_0
  6
CONTINUOUS
 10
243.3202331026686
 20
426.6948947446798
 30
0.0
 11
239.8202331026686
 21
426.6948947446798
 31
0.0
  0
LINE
  5
7D0D
  8
AM_0
  6
CONTINUOUS
 10
243.3202331026686
 20
476.33610574467991
 30
0.0
 11
247.9276091026685
 21
469.9044997446797
 31
0.0
  0
LINE
  5
7D0E
  8
AM_0
  6
CONTINUOUS
 10
247.9276091026685
 20
469.9044997446797
 30
0.0
 11
248.7834091026686
 21
472.53141974467979
 31
0.0
  0
LINE
  5
7D0F
  8
AM_0
  6
CONTINUOUS
 10
243.3202331026686
 20
476.33610574467991
 30
0.0
 11
248.7834091026686
 21
472.53141974467979
 31
0.0
  0
LINE
  5
7D10
  8
AM_0
  6
CONTINUOUS
 10
248.7834091026686
 20
472.53141974467979
 30
0.0
 11
249.99533910266851
 21
471.97545974467971
 31
0.0
  0
LINE
  5
7D11
  8
AM_0
  6
CONTINUOUS
 10
239.8202331026686
 20
469.9044997446797
 30
0.0
 11
247.9276091026685
 21
469.9044997446797
 31
0.0
  0
LINE
  5
7D12
  8
AM_0
  6
CONTINUOUS
 10
239.8202331026686
 20
476.33610574467991
 30
0.0
 11
243.3202331026686
 21
476.33610574467991
 31
0.0
  0
LINE
  5
7D13
  8
AM_0
  6
CONTINUOUS
 10
243.3202331026686
 20
453.76271974467983
 30
0.0
 11
243.3202331026686
 21
450.56982574467969
 31
0.0
  0
LINE
  5
7D14
  8
AM_0
  6
CONTINUOUS
 10
245.0802331026685
 20
453.19428574467969
 30
0.0
 11
245.0802331026685
 21
451.1955037446798
 31
0.0
  0
LINE
  5
7D15
  8
AM_0
  6
CONTINUOUS
 10
260.0802331026685
 20
462.1948947446798
 30
0.0
 11
260.0802331026685
 21
460.19550374467968
 31
0.0
  0
LINE
  5
7D16
  8
AM_0
  6
CONTINUOUS
 10
258.32023310266862
 20
462.65643674467981
 30
0.0
 11
258.32023310266862
 21
459.58870174467978
 31
0.0
  0
LINE
  5
7D17
  8
AM_0
  6
CONTINUOUS
 10
258.32023310266862
 20
462.65643674467981
 30
0.0
 11
340.32023310266862
 21
462.65643674467981
 31
0.0
  0
LINE
  5
7D18
  8
AM_0
  6
CONTINUOUS
 10
258.32023310266862
 20
459.58870174467978
 30
0.0
 11
340.32023310266862
 21
459.58870174467978
 31
0.0
  0
LINE
  5
7D19
  8
AM_0
  6
CONTINUOUS
 10
243.3202331026686
 20
450.56982574467969
 30
0.0
 11
340.32023310266862
 21
450.56982574467969
 31
0.0
  0
LINE
  5
7D1A
  8
AM_0
  6
CONTINUOUS
 10
243.3202331026686
 20
453.76271974467983
 30
0.0
 11
340.32023310266862
 21
453.76271974467983
 31
0.0
  0
LINE
  5
7D1B
  8
AM_0
  6
CONTINUOUS
 10
245.0802331026685
 20
453.19428574467969
 30
0.0
 11
340.32023310266862
 21
453.19428574467969
 31
0.0
  0
LINE
  5
7D1C
  8
AM_0
  6
CONTINUOUS
 10
245.0802331026685
 20
451.1955037446798
 30
0.0
 11
340.32023310266862
 21
451.1955037446798
 31
0.0
  0
LINE
  5
7D1D
  8
AM_0
  6
CONTINUOUS
 10
245.0802331026685
 20
453.19428574467969
 30
0.0
 11
243.3202331026686
 21
453.76271974467983
 31
0.0
  0
LINE
  5
7D1E
  8
AM_0
  6
CONTINUOUS
 10
245.0802331026685
 20
451.1955037446798
 30
0.0
 11
243.3202331026686
 21
450.56982574467969
 31
0.0
  0
LINE
  5
7D1F
  8
AM_0
  6
CONTINUOUS
 10
248.26349910266859
 20
459.93681574467968
 30
0.0
 11
249.4445901026686
 21
459.69940674467972
 31
0.0
  0
LINE
  5
7D20
  8
AM_0
  6
CONTINUOUS
 10
260.0802331026685
 20
462.1948947446798
 30
0.0
 11
340.32023310266862
 21
462.1948947446798
 31
0.0
  0
LINE
  5
7D21
  8
AM_0
  6
CONTINUOUS
 10
260.0802331026685
 20
460.19550374467968
 30
0.0
 11
340.32023310266862
 21
460.19550374467968
 31
0.0
  0
LINE
  5
7D22
  8
AM_0
  6
CONTINUOUS
 10
260.0802331026685
 20
462.1948947446798
 30
0.0
 11
258.32023310266862
 21
462.65643674467981
 31
0.0
  0
LINE
  5
7D23
  8
AM_0
  6
CONTINUOUS
 10
260.0802331026685
 20
460.19550374467968
 30
0.0
 11
258.32023310266862
 21
459.58870174467978
 31
0.0
  0
LINE
  5
7D24
  8
AM_0
  6
CONTINUOUS
 10
377.32023310266862
 20
462.65643674467981
 30
0.0
 11
340.32023310266862
 21
462.65643674467981
 31
0.0
  0
LINE
  5
7D25
  8
AM_0
  6
CONTINUOUS
 10
377.32023310266862
 20
459.58870174467978
 30
0.0
 11
340.32023310266862
 21
459.58870174467978
 31
0.0
  0
LINE
  5
7D26
  8
AM_0
  6
CONTINUOUS
 10
375.56023310266869
 20
462.1948947446798
 30
0.0
 11
340.32023310266862
 21
462.1948947446798
 31
0.0
  0
LINE
  5
7D27
  8
AM_0
  6
CONTINUOUS
 10
375.56023310266869
 20
460.19550374467968
 30
0.0
 11
340.32023310266862
 21
460.19550374467968
 31
0.0
  0
LINE
  5
7D28
  8
AM_0
  6
CONTINUOUS
 10
375.56023310266869
 20
460.19550374467968
 30
0.0
 11
377.32023310266862
 21
459.58870174467978
 31
0.0
  0
LINE
  5
7D29
  8
AM_0
  6
CONTINUOUS
 10
375.56023310266869
 20
462.1948947446798
 30
0.0
 11
377.32023310266862
 21
462.65643674467981
 31
0.0
  0
LINE
  5
7D2A
  8
AM_0
  6
CONTINUOUS
 10
377.32023310266862
 20
462.65643674467981
 30
0.0
 11
377.32023310266862
 21
459.58870174467978
 31
0.0
  0
LINE
  5
7D2B
  8
AM_0
  6
CONTINUOUS
 10
375.56023310266869
 20
462.1948947446798
 30
0.0
 11
375.56023310266869
 21
460.19550374467968
 31
0.0
  0
LINE
  5
7D2C
  8
AM_0
  6
CONTINUOUS
 10
377.32023310266862
 20
453.76271974467983
 30
0.0
 11
340.32023310266862
 21
453.76271974467983
 31
0.0
  0
LINE
  5
7D2D
  8
AM_0
  6
CONTINUOUS
 10
375.56023310266869
 20
453.19428574467969
 30
0.0
 11
340.32023310266862
 21
453.19428574467969
 31
0.0
  0
LINE
  5
7D2E
  8
AM_0
  6
CONTINUOUS
 10
375.56023310266869
 20
451.1955037446798
 30
0.0
 11
340.32023310266862
 21
451.1955037446798
 31
0.0
  0
LINE
  5
7D2F
  8
AM_0
  6
CONTINUOUS
 10
375.56023310266869
 20
451.1955037446798
 30
0.0
 11
377.32023310266862
 21
450.56982574467969
 31
0.0
  0
LINE
  5
7D30
  8
AM_0
  6
CONTINUOUS
 10
375.56023310266869
 20
453.19428574467969
 30
0.0
 11
377.32023310266862
 21
453.76271974467983
 31
0.0
  0
LINE
  5
7D31
  8
AM_0
  6
CONTINUOUS
 10
375.56023310266869
 20
453.19428574467969
 30
0.0
 11
375.56023310266869
 21
451.1955037446798
 31
0.0
  0
LINE
  5
7D32
  8
AM_0
  6
CONTINUOUS
 10
377.32023310266862
 20
453.76271974467983
 30
0.0
 11
377.32023310266862
 21
450.56982574467969
 31
0.0
  0
LINE
  5
7D33
  8
AM_0
  6
CONTINUOUS
 10
243.3202331026686
 20
450.56982574467969
 30
0.0
 11
244.91297510266861
 21
433.27063874467979
 31
0.0
  0
LINE
  5
7D34
  8
AM_0
  6
CONTINUOUS
 10
243.3202331026686
 20
444.02977174467992
 30
0.0
 11
243.92237810266869
 21
444.02977174467992
 31
0.0
  0
LINE
  5
7D35
  8
AM_0
  6
CONTINUOUS
 10
243.3202331026686
 20
436.85741974467987
 30
0.0
 11
244.0030101026685
 21
436.85741974467987
 31
0.0
  0
LINE
  5
7D36
  8
AM_0
  6
CONTINUOUS
 10
243.3202331026686
 20
431.86493474467989
 30
0.0
 11
243.84474610266849
 21
431.86493474467989
 31
0.0
  0
LINE
  5
7D37
  8
AM_0
  6
CONTINUOUS
 10
243.3202331026686
 20
428.64417874467989
 30
0.0
 11
243.68017510266861
 21
428.64417874467989
 31
0.0
  0
LINE
  5
7D38
  8
AM_0
  6
CONTINUOUS
 10
243.27345610266869
 20
427.07459774467969
 30
0.0
 11
243.50384710266849
 21
427.07459774467969
 31
0.0
  0
LINE
  5
7D39
  8
AM_0
  6
CONTINUOUS
 10
243.3202331026686
 20
444.02977174467992
 30
0.0
 11
244.9078851026685
 21
427.35199774467981
 31
0.0
  0
LINE
  5
7D3A
  8
AM_0
  6
CONTINUOUS
 10
243.3202331026686
 20
436.85741974467987
 30
0.0
 11
244.89206610266859
 21
421.89620874467971
 31
0.0
  0
LINE
  5
7D3B
  8
AM_0
  6
CONTINUOUS
 10
243.3202331026686
 20
431.86493474467989
 30
0.0
 11
244.88154410266861
 21
417.89434374467987
 31
0.0
  0
LINE
  5
7D3C
  8
AM_0
  6
CONTINUOUS
 10
243.3202331026686
 20
428.64417874467989
 30
0.0
 11
244.87345210266861
 21
415.36685074467982
 31
0.0
  0
LINE
  5
7D3D
  8
AM_0
  6
CONTINUOUS
 10
243.27345610266869
 20
427.07459774467969
 30
0.0
 11
244.8639721026685
 21
414.1638637446797
 31
0.0
  0
ARC
  5
7D3E
  8
AM_0
  6
CONTINUOUS
 10
246.90455110266851
 20
433.45400374467988
 30
0.0
 40
2.0
 50
185.2604109999985
 51
270.0
  0
ARC
  5
7D3F
  8
AM_0
  6
CONTINUOUS
 10
246.89888310266861
 20
427.5415327446799
 30
0.0
 40
2.0
 50
185.4379219999999
 51
270.0
  0
ARC
  5
7D40
  8
AM_0
  6
CONTINUOUS
 10
246.88111910266861
 20
422.10517974467967
 30
0.0
 40
2.0
 50
185.99752600000051
 51
270.0
  0
ARC
  5
7D41
  8
AM_0
  6
CONTINUOUS
 10
246.86917010266859
 20
418.11647474467981
 30
0.0
 40
2.0
 50
186.37674200000069
 51
270.0
  0
ARC
  5
7D42
  8
AM_0
  6
CONTINUOUS
 10
246.85990610266859
 20
415.5992317446798
 30
0.0
 40
2.0
 50
186.67229399999829
 51
270.0
  0
ARC
  5
7D43
  8
AM_0
  6
CONTINUOUS
 10
246.84896610266861
 20
414.40840174467979
 30
0.0
 40
2.0
 50
187.0230689999963
 51
270.0
  0
LINE
  5
7D44
  8
AM_0
  6
CONTINUOUS
 10
249.99533910266851
 20
471.97545974467971
 30
0.0
 11
249.99533910266851
 21
459.58870174467978
 31
0.0
  0
LINE
  5
7D45
  8
AM_0
  6
CONTINUOUS
 10
247.9276091026685
 20
469.9044997446797
 30
0.0
 11
247.9276091026685
 21
460.0043327446798
 31
0.0
  0
LINE
  5
7D46
  8
AM_0
  6
CONTINUOUS
 10
239.8202331026686
 20
459.58870174467978
 30
0.0
 11
249.99533910266851
 21
459.58870174467978
 31
0.0
  0
LINE
  5
7D47
  8
AM_0
  6
CONTINUOUS
 10
239.8202331026686
 20
460.0043327446798
 30
0.0
 11
247.9276091026685
 21
460.0043327446798
 31
0.0
  0
LINE
  5
7D48
  8
AM_0
  6
CONTINUOUS
 10
442.32023310266851
 20
525.87489474467975
 30
0.0
 11
440.56023310266858
 21
526.42489474467982
 31
0.0
  0
LINE
  5
7D49
  8
AM_0
  6
CONTINUOUS
 10
442.32023310266851
 20
528.51489474467985
 30
0.0
 11
442.32023310266851
 21
525.87489474467975
 31
0.0
  0
LINE
  5
7D4A
  8
AM_0
  6
CONTINUOUS
 10
440.56023310266858
 20
528.02489474467984
 30
0.0
 11
442.32023310266851
 21
528.51489474467985
 31
0.0
  0
LINE
  5
7D4B
  8
AM_0
  6
CONTINUOUS
 10
440.56023310266858
 20
528.02489474467984
 30
0.0
 11
440.56023310266858
 21
526.42489474467982
 31
0.0
  0
LINE
  5
7D4C
  8
AM_0
  6
CONTINUOUS
 10
442.32023310266851
 20
514.87489474467975
 30
0.0
 11
440.56023310266858
 21
515.42489474467982
 31
0.0
  0
LINE
  5
7D4D
  8
AM_0
  6
CONTINUOUS
 10
442.32023310266851
 20
517.51489474467985
 30
0.0
 11
442.32023310266851
 21
514.87489474467975
 31
0.0
  0
LINE
  5
7D4E
  8
AM_0
  6
CONTINUOUS
 10
440.56023310266858
 20
517.02489474467995
 30
0.0
 11
442.32023310266851
 21
517.51489474467985
 31
0.0
  0
LINE
  5
7D4F
  8
AM_0
  6
CONTINUOUS
 10
440.56023310266858
 20
517.02489474467995
 30
0.0
 11
440.56023310266858
 21
515.42489474467982
 31
0.0
  0
LINE
  5
7D50
  8
AM_0
  6
CONTINUOUS
 10
442.32023310266851
 20
503.87489474467981
 30
0.0
 11
440.56023310266858
 21
504.4248947446797
 31
0.0
  0
LINE
  5
7D51
  8
AM_0
  6
CONTINUOUS
 10
442.32023310266851
 20
506.51489474467979
 30
0.0
 11
442.32023310266851
 21
503.87489474467981
 31
0.0
  0
LINE
  5
7D52
  8
AM_0
  6
CONTINUOUS
 10
440.56023310266858
 20
506.02489474467973
 30
0.0
 11
442.32023310266851
 21
506.51489474467979
 31
0.0
  0
LINE
  5
7D53
  8
AM_0
  6
CONTINUOUS
 10
440.56023310266858
 20
506.02489474467973
 30
0.0
 11
440.56023310266858
 21
504.4248947446797
 31
0.0
  0
LINE
  5
7D54
  8
AM_0
  6
CONTINUOUS
 10
442.32023310266851
 20
492.87489474467981
 30
0.0
 11
440.56023310266858
 21
493.42489474467982
 31
0.0
  0
LINE
  5
7D55
  8
AM_0
  6
CONTINUOUS
 10
442.32023310266851
 20
495.51489474467968
 30
0.0
 11
442.32023310266851
 21
492.87489474467981
 31
0.0
  0
LINE
  5
7D56
  8
AM_0
  6
CONTINUOUS
 10
440.56023310266858
 20
495.0248947446799
 30
0.0
 11
442.32023310266851
 21
495.51489474467968
 31
0.0
  0
LINE
  5
7D57
  8
AM_0
  6
CONTINUOUS
 10
440.56023310266858
 20
495.0248947446799
 30
0.0
 11
440.56023310266858
 21
493.42489474467982
 31
0.0
  0
LINE
  5
7D58
  8
AM_0
  6
CONTINUOUS
 10
441.73190210266858
 20
424.18561474467992
 30
0.0
 11
440.70027310266858
 21
415.3668537446797
 31
0.0
  0
LINE
  5
7D59
  8
AM_0
  6
CONTINUOUS
 10
440.66501610266857
 20
417.89404774467988
 30
0.0
 11
441.71997310266858
 21
427.32103474467988
 31
0.0
  0
LINE
  5
7D5A
  8
AM_0
  6
CONTINUOUS
 10
440.6920861026685
 20
421.89490374467971
 30
0.0
 11
441.7909981026686
 21
432.28907774467967
 31
0.0
  0
LINE
  5
7D5B
  8
AM_0
  6
CONTINUOUS
 10
441.84193910266839
 20
438.82569774467993
 30
0.0
 11
440.71665810266848
 21
427.34641374467981
 31
0.0
  0
LINE
  5
7D5C
  8
AM_0
  6
CONTINUOUS
 10
441.88310610266848
 20
446.23543974467981
 30
0.0
 11
440.65038910266861
 21
433.26477874467992
 31
0.0
  0
LINE
  5
7D5D
  8
AM_0
  6
CONTINUOUS
 10
441.7920251026685
 20
423.0492867446797
 30
0.0
 11
440.71999210266853
 21
414.1687087446798
 31
0.0
  0
LINE
  5
7D5E
  8
AM_0
  6
CONTINUOUS
 10
440.56023310266858
 20
484.0248947446799
 30
0.0
 11
440.56023310266858
 21
482.42489474467988
 31
0.0
  0
LINE
  5
7D5F
  8
AM_0
  6
CONTINUOUS
 10
440.56023310266858
 20
484.0248947446799
 30
0.0
 11
442.32023310266851
 21
484.51489474467979
 31
0.0
  0
LINE
  5
7D60
  8
AM_0
  6
CONTINUOUS
 10
442.32023310266851
 20
484.51489474467979
 30
0.0
 11
442.32023310266851
 21
481.87489474467981
 31
0.0
  0
LINE
  5
7D61
  8
AM_0
  6
CONTINUOUS
 10
442.32023310266851
 20
481.87489474467981
 30
0.0
 11
440.56023310266858
 21
482.42489474467988
 31
0.0
  0
LINE
  5
7D62
  8
AM_0
  6
CONTINUOUS
 10
440.56023310266858
 20
539.02489474467984
 30
0.0
 11
440.56023310266858
 21
537.42489474467982
 31
0.0
  0
LINE
  5
7D63
  8
AM_0
  6
CONTINUOUS
 10
440.56023310266858
 20
539.02489474467984
 30
0.0
 11
442.32023310266851
 21
539.51489474467985
 31
0.0
  0
LINE
  5
7D64
  8
AM_0
  6
CONTINUOUS
 10
442.32023310266851
 20
539.51489474467985
 30
0.0
 11
442.32023310266851
 21
536.87489474467998
 31
0.0
  0
LINE
  5
7D65
  8
AM_0
  6
CONTINUOUS
 10
442.32023310266851
 20
536.87489474467998
 30
0.0
 11
440.56023310266858
 21
537.42489474467982
 31
0.0
  0
LINE
  5
7D66
  8
AM_0
  6
CONTINUOUS
 10
392.27710910266848
 20
536.87489474467998
 30
0.0
 11
392.27710910266848
 21
528.51489474467985
 31
0.0
  0
LINE
  5
7D67
  8
AM_0
  6
CONTINUOUS
 10
408.32023210266863
 20
536.87489474467998
 30
0.0
 11
408.32023210266863
 21
528.51489474467985
 31
0.0
  0
LINE
  5
7D68
  8
AM_0
  6
CONTINUOUS
 10
408.32023210266863
 20
525.87489474467975
 30
0.0
 11
408.32023210266863
 21
517.51489474467985
 31
0.0
  0
LINE
  5
7D69
  8
AM_0
  6
CONTINUOUS
 10
392.27710910266848
 20
525.87489474467975
 30
0.0
 11
392.27710910266848
 21
517.51489474467985
 31
0.0
  0
LINE
  5
7D6A
  8
AM_0
  6
CONTINUOUS
 10
392.27710910266848
 20
514.87489474467975
 30
0.0
 11
392.27710910266848
 21
506.51489474467979
 31
0.0
  0
LINE
  5
7D6B
  8
AM_0
  6
CONTINUOUS
 10
408.32023210266863
 20
514.87489474467975
 30
0.0
 11
408.32023210266863
 21
506.51489474467979
 31
0.0
  0
LINE
  5
7D6C
  8
AM_0
  6
CONTINUOUS
 10
408.32023210266863
 20
503.87489474467981
 30
0.0
 11
408.32023210266863
 21
495.51489474467968
 31
0.0
  0
LINE
  5
7D6D
  8
AM_0
  6
CONTINUOUS
 10
392.27710910266848
 20
503.87489474467981
 30
0.0
 11
392.27710910266848
 21
495.51489474467968
 31
0.0
  0
LINE
  5
7D6E
  8
AM_0
  6
CONTINUOUS
 10
392.27710910266848
 20
492.87489474467981
 30
0.0
 11
392.27710910266848
 21
484.51489474467979
 31
0.0
  0
LINE
  5
7D6F
  8
AM_0
  6
CONTINUOUS
 10
408.32023210266863
 20
492.87489474467981
 30
0.0
 11
408.32023210266863
 21
484.51489474467979
 31
0.0
  0
LINE
  5
7D70
  8
AM_0
  6
CONTINUOUS
 10
408.32023210266863
 20
481.87489474467981
 30
0.0
 11
408.32023210266863
 21
466.0864487446799
 31
0.0
  0
LINE
  5
7D71
  8
AM_0
  6
CONTINUOUS
 10
392.27710910266848
 20
481.87489474467981
 30
0.0
 11
392.27710910266848
 21
450.56982574467969
 31
0.0
  0
LINE
  5
7D72
  8
AM_0
  6
CONTINUOUS
 10
441.88310610266848
 20
446.23543974467981
 30
0.0
 11
408.32023210266863
 21
446.23543974467981
 31
0.0
  0
LINE
  5
7D73
  8
AM_0
  6
CONTINUOUS
 10
441.84193910266839
 20
438.82569774467993
 30
0.0
 11
441.1788931026685
 21
438.82569774467993
 31
0.0
  0
ARC
  5
7D74
  8
AM_0
  6
CONTINUOUS
 10
438.65936110266853
 20
433.45400374467988
 30
0.0
 40
2.0
 50
270.0
 51
354.57098099999791
  0
ARC
  5
7D75
  8
AM_0
  6
CONTINUOUS
 10
438.7261991026686
 20
427.5415327446799
 30
0.0
 40
2.0
 50
270.0
 51
354.40134700000141
  0
ARC
  5
7D76
  8
AM_0
  6
CONTINUOUS
 10
438.70317110266848
 20
422.10517974467967
 30
0.0
 40
2.0
 50
270.0
 51
353.96488600000072
  0
ARC
  5
7D77
  8
AM_0
  6
CONTINUOUS
 10
438.67742310266863
 20
418.11647474467981
 30
0.0
 40
2.0
 50
270.0
 51
353.61470099999991
  0
ARC
  5
7D78
  8
AM_0
  6
CONTINUOUS
 10
438.71381910266859
 20
415.5992317446798
 30
0.0
 40
2.0
 50
270.0
 51
353.32779999999769
  0
ARC
  5
7D79
  8
AM_0
  6
CONTINUOUS
 10
438.73440810266851
 20
414.40840174467979
 30
0.0
 40
2.0
 50
270.0
 51
353.11676000000102
  0
LINE
  5
7D7A
  8
AM_0
  6
CONTINUOUS
 10
441.7909981026686
 20
432.28907774467967
 30
0.0
 11
441.20117310266852
 21
432.28907774467967
 31
0.0
  0
LINE
  5
7D7B
  8
AM_0
  6
CONTINUOUS
 10
441.71997310266858
 20
427.32103474467988
 30
0.0
 11
441.26575810266849
 21
427.32103474467988
 31
0.0
  0
LINE
  5
7D7C
  8
AM_0
  6
CONTINUOUS
 10
441.73190210266858
 20
424.18561474467992
 30
0.0
 11
441.3690941026685
 21
424.18561474467992
 31
0.0
  0
LINE
  5
7D7D
  8
AM_0
  6
CONTINUOUS
 10
441.7920251026685
 20
423.0492867446797
 30
0.0
 11
441.59897310266859
 21
423.0492867446797
 31
0.0
  0
LINE
  5
7D7E
  8
AM_0
  6
CONTINUOUS
 10
444.32023310266851
 20
470.97218874467961
 30
0.0
 11
427.82023310266851
 21
470.97218874467961
 31
0.0
  0
LINE
  5
7D7F
  8
AM_0
  6
CONTINUOUS
 10
447.32023310266828
 20
460.79289674467981
 30
0.0
 11
429.82023310266851
 21
460.79289674467981
 31
0.0
  0
LINE
  5
7D80
  8
AM_0
  6
CONTINUOUS
 10
447.32023310266828
 20
448.50561574467969
 30
0.0
 11
429.82023310266851
 21
448.50561574467969
 31
0.0
  0
LINE
  5
7D81
  8
AM_0
  6
CONTINUOUS
 10
427.82023310266851
 20
469.97218874467978
 30
0.0
 11
427.82023310266851
 21
450.5056157446798
 31
0.0
  0
LINE
  5
7D82
  8
AM_0
  6
CONTINUOUS
 10
444.32023310266851
 20
470.97218874467961
 30
0.0
 11
447.32023310266828
 21
472.7042397446798
 31
0.0
  0
ARC
  5
7D83
  8
AM_0
  6
CONTINUOUS
 10
429.82023310266851
 20
462.79289674467981
 30
0.0
 40
2.0
 50
180.0
 51
270.0
  0
ARC
  5
7D84
  8
AM_0
  6
CONTINUOUS
 10
429.82023310266851
 20
450.5056157446798
 30
0.0
 40
2.0
 50
180.0
 51
270.0
  0
ARC
  5
7D85
  8
AM_0
  6
CONTINUOUS
 10
429.82023310266851
 20
458.79289674467981
 30
0.0
 40
2.0
 50
90.0
 51
180.0
  0
LINE
  5
7D86
  8
AM_0
  6
CONTINUOUS
 10
408.32023210266863
 20
454.67409874467961
 30
0.0
 11
408.32023210266863
 21
446.23543974467981
 31
0.0
  0
LINE
  5
7D87
  8
AM_0
  6
CONTINUOUS
 10
392.27710910266848
 20
450.56982574467969
 30
0.0
 11
408.32023210266863
 21
446.23543974467981
 31
0.0
  0
ARC
  5
7D88
  8
AM_0
  6
CONTINUOUS
 10
426.82023310266828
 20
469.97218874467978
 30
0.0
 40
1.0
 50
0.0
 51
90.0
  0
LINE
  5
7D89
  8
AM_0
  6
CONTINUOUS
 10
392.27710910266848
 20
450.56982574467969
 30
0.0
 11
340.32023310266862
 21
450.56982574467969
 31
0.0
  0
LINE
  5
7D8A
  8
AM_0
  6
CONTINUOUS
 10
438.73440810266851
 20
412.40840174467968
 30
0.0
 11
246.84896610266861
 21
412.40840174467968
 31
0.0
  0
LINE
  5
7D8B
  8
AM_0
  6
CONTINUOUS
 10
438.71381910266859
 20
413.59923174467968
 30
0.0
 11
246.85990610266859
 21
413.59923174467968
 31
0.0
  0
LINE
  5
7D8C
  8
AM_0
  6
CONTINUOUS
 10
438.67742310266863
 20
416.11647474467981
 30
0.0
 11
246.86917010266859
 21
416.11647474467981
 31
0.0
  0
LINE
  5
7D8D
  8
AM_0
  6
CONTINUOUS
 10
438.70317110266848
 20
420.10517974467979
 30
0.0
 11
246.88111910266861
 21
420.10517974467979
 31
0.0
  0
LINE
  5
7D8E
  8
AM_0
  6
CONTINUOUS
 10
438.7261991026686
 20
425.54153274467961
 30
0.0
 11
246.89888310266861
 21
425.54153274467961
 31
0.0
  0
LINE
  5
7D8F
  8
AM_0
  6
CONTINUOUS
 10
438.65936110266853
 20
431.4540037446796
 30
0.0
 11
246.90455110266851
 21
431.4540037446796
 31
0.0
  0
LINE
  5
7D90
  8
AM_0
  6
CONTINUOUS
 10
392.27710910266848
 20
584.53236974467973
 30
0.0
 11
392.27710910266848
 21
570.55489474467959
 31
0.0
  0
LINE
  5
7D91
  8
AM_0
  6
CONTINUOUS
 10
408.32023210266863
 20
589.13223174467998
 30
0.0
 11
408.32023210266863
 21
586.54768174467972
 31
0.0
  0
LINE
  5
7D92
  8
AM_0
  6
CONTINUOUS
 10
385.21432910266861
 20
539.51489474467985
 30
0.0
 11
442.32023310266851
 21
539.51489474467985
 31
0.0
  0
LINE
  5
7D93
  8
AM_0
  6
CONTINUOUS
 10
385.21432910266861
 20
539.02489474467984
 30
0.0
 11
440.56023310266858
 21
539.02489474467984
 31
0.0
  0
LINE
  5
7D94
  8
AM_0
  6
CONTINUOUS
 10
385.21432910266861
 20
537.42489474467982
 30
0.0
 11
440.56023310266858
 21
537.42489474467982
 31
0.0
  0
LINE
  5
7D95
  8
AM_0
  6
CONTINUOUS
 10
385.21432910266861
 20
536.87489474467998
 30
0.0
 11
442.32023310266851
 21
536.87489474467998
 31
0.0
  0
LINE
  5
7D96
  8
AM_0
  6
CONTINUOUS
 10
385.21432910266861
 20
484.51489474467979
 30
0.0
 11
442.32023310266851
 21
484.51489474467979
 31
0.0
  0
LINE
  5
7D97
  8
AM_0
  6
CONTINUOUS
 10
385.21432910266861
 20
484.0248947446799
 30
0.0
 11
440.56023310266858
 21
484.0248947446799
 31
0.0
  0
LINE
  5
7D98
  8
AM_0
  6
CONTINUOUS
 10
385.21432910266861
 20
482.42489474467988
 30
0.0
 11
440.56023310266858
 21
482.42489474467988
 31
0.0
  0
LINE
  5
7D99
  8
AM_0
  6
CONTINUOUS
 10
385.21432910266861
 20
481.87489474467981
 30
0.0
 11
442.32023310266851
 21
481.87489474467981
 31
0.0
  0
LINE
  5
7D9A
  8
AM_0
  6
CONTINUOUS
 10
385.21432910266861
 20
514.87489474467975
 30
0.0
 11
442.32023310266851
 21
514.87489474467975
 31
0.0
  0
LINE
  5
7D9B
  8
AM_0
  6
CONTINUOUS
 10
385.21432910266861
 20
515.42489474467982
 30
0.0
 11
440.56023310266858
 21
515.42489474467982
 31
0.0
  0
LINE
  5
7D9C
  8
AM_0
  6
CONTINUOUS
 10
385.21432910266861
 20
495.51489474467968
 30
0.0
 11
442.32023310266851
 21
495.51489474467968
 31
0.0
  0
LINE
  5
7D9D
  8
AM_0
  6
CONTINUOUS
 10
385.21432910266861
 20
495.0248947446799
 30
0.0
 11
440.56023310266858
 21
495.0248947446799
 31
0.0
  0
LINE
  5
7D9E
  8
AM_0
  6
CONTINUOUS
 10
385.21432910266861
 20
493.42489474467982
 30
0.0
 11
440.56023310266858
 21
493.42489474467982
 31
0.0
  0
LINE
  5
7D9F
  8
AM_0
  6
CONTINUOUS
 10
385.21432910266861
 20
492.87489474467981
 30
0.0
 11
442.32023310266851
 21
492.87489474467981
 31
0.0
  0
LINE
  5
7DA0
  8
AM_0
  6
CONTINUOUS
 10
385.21432910266861
 20
506.51489474467979
 30
0.0
 11
442.32023310266851
 21
506.51489474467979
 31
0.0
  0
LINE
  5
7DA1
  8
AM_0
  6
CONTINUOUS
 10
385.21432910266861
 20
506.02489474467973
 30
0.0
 11
440.56023310266858
 21
506.02489474467973
 31
0.0
  0
LINE
  5
7DA2
  8
AM_0
  6
CONTINUOUS
 10
385.21432910266861
 20
504.4248947446797
 30
0.0
 11
440.56023310266858
 21
504.4248947446797
 31
0.0
  0
LINE
  5
7DA3
  8
AM_0
  6
CONTINUOUS
 10
385.21432910266861
 20
503.87489474467981
 30
0.0
 11
442.32023310266851
 21
503.87489474467981
 31
0.0
  0
LINE
  5
7DA4
  8
AM_0
  6
CONTINUOUS
 10
385.21432910266861
 20
528.51489474467985
 30
0.0
 11
442.32023310266851
 21
528.51489474467985
 31
0.0
  0
LINE
  5
7DA5
  8
AM_0
  6
CONTINUOUS
 10
385.21432910266861
 20
528.02489474467984
 30
0.0
 11
440.56023310266858
 21
528.02489474467984
 31
0.0
  0
LINE
  5
7DA6
  8
AM_0
  6
CONTINUOUS
 10
385.21432910266861
 20
526.42489474467982
 30
0.0
 11
440.56023310266858
 21
526.42489474467982
 31
0.0
  0
LINE
  5
7DA7
  8
AM_0
  6
CONTINUOUS
 10
385.21432910266861
 20
525.87489474467975
 30
0.0
 11
442.32023310266851
 21
525.87489474467975
 31
0.0
  0
LINE
  5
7DA8
  8
AM_0
  6
CONTINUOUS
 10
385.21432910266861
 20
517.51489474467985
 30
0.0
 11
442.32023310266851
 21
517.51489474467985
 31
0.0
  0
LINE
  5
7DA9
  8
AM_0
  6
CONTINUOUS
 10
385.21432910266861
 20
517.02489474467995
 30
0.0
 11
440.56023310266858
 21
517.02489474467995
 31
0.0
  0
LINE
  5
7DAA
  8
AM_0
  6
CONTINUOUS
 10
444.32023310266851
 20
422.6948947446798
 30
0.0
 11
444.32023310266851
 21
448.50561574467969
 31
0.0
  0
LINE
  5
7DAB
  8
AM_0
  6
CONTINUOUS
 10
441.74924410266863
 20
422.6948947446798
 30
0.0
 11
444.32023310266851
 21
422.6948947446798
 31
0.0
  0
LINE
  5
7DAC
  8
AM_0
  6
CONTINUOUS
 10
442.32023310266851
 20
570.55489474467959
 30
0.0
 11
440.56023310266858
 21
569.99489474467975
 31
0.0
  0
LINE
  5
7DAD
  8
AM_0
  6
CONTINUOUS
 10
440.56023310266858
 20
568.39489474467996
 30
0.0
 11
442.32023310266851
 21
567.85489474467965
 31
0.0
  0
LINE
  5
7DAE
  8
AM_0
  6
CONTINUOUS
 10
442.32023310266851
 20
567.85489474467965
 30
0.0
 11
442.32023310266851
 21
570.55489474467959
 31
0.0
  0
LINE
  5
7DAF
  8
AM_0
  6
CONTINUOUS
 10
440.56023310266858
 20
568.39489474467996
 30
0.0
 11
440.56023310266858
 21
569.99489474467975
 31
0.0
  0
LINE
  5
7DB0
  8
AM_0
  6
CONTINUOUS
 10
442.32023310266851
 20
562.50989474467974
 30
0.0
 11
440.56023310266858
 21
561.96989474467966
 31
0.0
  0
LINE
  5
7DB1
  8
AM_0
  6
CONTINUOUS
 10
440.56023310266858
 20
560.36989474467975
 30
0.0
 11
442.32023310266851
 21
559.87989474467975
 31
0.0
  0
LINE
  5
7DB2
  8
AM_0
  6
CONTINUOUS
 10
440.56023310266858
 20
560.36989474467975
 30
0.0
 11
440.56023310266858
 21
561.96989474467966
 31
0.0
  0
LINE
  5
7DB3
  8
AM_0
  6
CONTINUOUS
 10
442.32023310266851
 20
559.87989474467975
 30
0.0
 11
442.32023310266851
 21
562.50989474467974
 31
0.0
  0
LINE
  5
7DB4
  8
AM_0
  6
CONTINUOUS
 10
377.32023310266862
 20
570.81908174467992
 30
0.0
 11
375.69832410266861
 21
587.88482474467992
 31
0.0
  0
LINE
  5
7DB5
  8
AM_0
  6
CONTINUOUS
 10
377.32023310266862
 20
577.36001774467991
 30
0.0
 11
375.69971010266852
 21
593.89138574467972
 31
0.0
  0
LINE
  5
7DB6
  8
AM_0
  6
CONTINUOUS
 10
244.5849121026686
 20
584.53236974467973
 30
0.0
 11
243.3202331026686
 21
584.53236974467973
 31
0.0
  0
LINE
  5
7DB7
  8
AM_0
  6
CONTINUOUS
 10
243.3202331026686
 20
570.55489474467959
 30
0.0
 11
245.0802331026685
 21
569.99489474467975
 31
0.0
  0
LINE
  5
7DB8
  8
AM_0
  6
CONTINUOUS
 10
245.0802331026685
 20
568.39489474467996
 30
0.0
 11
243.3202331026686
 21
567.85489474467965
 31
0.0
  0
LINE
  5
7DB9
  8
AM_0
  6
CONTINUOUS
 10
243.3202331026686
 20
562.50989474467974
 30
0.0
 11
245.0802331026685
 21
561.96989474467966
 31
0.0
  0
LINE
  5
7DBA
  8
AM_0
  6
CONTINUOUS
 10
245.0802331026685
 20
560.36989474467975
 30
0.0
 11
243.3202331026686
 21
559.87989474467975
 31
0.0
  0
LINE
  5
7DBB
  8
AM_0
  6
CONTINUOUS
 10
243.3202331026686
 20
567.85489474467965
 30
0.0
 11
243.3202331026686
 21
570.55489474467959
 31
0.0
  0
LINE
  5
7DBC
  8
AM_0
  6
CONTINUOUS
 10
245.0802331026685
 20
568.39489474467996
 30
0.0
 11
245.0802331026685
 21
569.99489474467975
 31
0.0
  0
LINE
  5
7DBD
  8
AM_0
  6
CONTINUOUS
 10
245.0802331026685
 20
560.36989474467975
 30
0.0
 11
245.0802331026685
 21
561.96989474467966
 31
0.0
  0
LINE
  5
7DBE
  8
AM_0
  6
CONTINUOUS
 10
243.3202331026686
 20
559.87989474467975
 30
0.0
 11
243.3202331026686
 21
562.50989474467974
 31
0.0
  0
LINE
  5
7DBF
  8
AM_0
  6
CONTINUOUS
 10
243.3202331026686
 20
549.41432974467978
 30
0.0
 11
296.48908210266859
 21
549.41432974467978
 31
0.0
  0
LINE
  5
7DC0
  8
AM_0
  6
CONTINUOUS
 10
251.6902331026686
 20
548.56255674467991
 30
0.0
 11
295.80911910266849
 21
548.56255674467991
 31
0.0
  0
LINE
  5
7DC1
  8
AM_0
  6
CONTINUOUS
 10
243.3202331026686
 20
549.41432974467978
 30
0.0
 11
251.6902331026686
 21
548.56255674467991
 31
0.0
  0
LINE
  5
7DC2
  8
AM_0
  6
CONTINUOUS
 10
249.99533910266851
 20
471.97545974467971
 30
0.0
 11
296.4890791026686
 21
471.97545974467971
 31
0.0
  0
LINE
  5
7DC3
  8
AM_0
  6
CONTINUOUS
 10
251.6902331026686
 20
472.82723274467992
 30
0.0
 11
295.80911610266861
 21
472.82723274467992
 31
0.0
  0
LINE
  5
7DC4
  8
AM_0
  6
CONTINUOUS
 10
243.3202331026686
 20
476.33610574467991
 30
0.0
 11
243.3202331026686
 21
549.41432974467978
 31
0.0
  0
LINE
  5
7DC5
  8
AM_0
  6
CONTINUOUS
 10
248.7834091026686
 20
472.53141974467979
 30
0.0
 11
251.6902331026686
 21
472.82723274467992
 31
0.0
  0
LINE
  5
7DC6
  8
AM_0
  6
CONTINUOUS
 10
251.6902331026686
 20
472.82723274467992
 30
0.0
 11
251.6902331026686
 21
548.56255674467991
 31
0.0
  0
LINE
  5
7DC7
  8
AM_0
  6
CONTINUOUS
 10
239.8202331026686
 20
594.31519174467974
 30
0.0
 11
243.59699210266859
 21
594.31519174467974
 31
0.0
  0
LINE
  5
7DC8
  8
AM_0
  6
CONTINUOUS
 10
329.32023310266862
 20
611.69489474467991
 30
0.0
 11
351.32023310266862
 21
611.69489474467991
 31
0.0
  0
LINE
  5
7DC9
  8
AM_0
  6
CONTINUOUS
 10
329.32023310266862
 20
611.69489474467991
 30
0.0
 11
329.32023310266862
 21
607.79161374467969
 31
0.0
  0
LINE
  5
7DCA
  8
AM_0
  6
CONTINUOUS
 10
351.32023310266862
 20
611.69489474467991
 30
0.0
 11
351.32023310266862
 21
607.79161374467969
 31
0.0
  0
LINE
  5
7DCB
  8
AM_0
  6
CONTINUOUS
 10
245.0802331026685
 20
568.39489474467996
 30
0.0
 11
440.56023310266858
 21
568.39489474467996
 31
0.0
  0
LINE
  5
7DCC
  8
AM_0
  6
CONTINUOUS
 10
245.0802331026685
 20
569.99489474467975
 30
0.0
 11
440.56023310266858
 21
569.99489474467975
 31
0.0
  0
LINE
  5
7DCD
  8
AM_0
  6
CONTINUOUS
 10
243.3202331026686
 20
567.85489474467965
 30
0.0
 11
442.32023310266851
 21
567.85489474467965
 31
0.0
  0
LINE
  5
7DCE
  8
AM_0
  6
CONTINUOUS
 10
243.3202331026686
 20
570.55489474467959
 30
0.0
 11
442.32023310266851
 21
570.55489474467959
 31
0.0
  0
LINE
  5
7DCF
  8
AM_0
  6
CONTINUOUS
 10
243.3202331026686
 20
559.87989474467975
 30
0.0
 11
442.32023310266851
 21
559.87989474467975
 31
0.0
  0
LINE
  5
7DD0
  8
AM_0
  6
CONTINUOUS
 10
243.3202331026686
 20
562.50989474467974
 30
0.0
 11
442.32023310266851
 21
562.50989474467974
 31
0.0
  0
LINE
  5
7DD1
  8
AM_0
  6
CONTINUOUS
 10
245.0802331026685
 20
560.36989474467975
 30
0.0
 11
440.56023310266858
 21
560.36989474467975
 31
0.0
  0
LINE
  5
7DD2
  8
AM_0
  6
CONTINUOUS
 10
245.0802331026685
 20
561.96989474467966
 30
0.0
 11
440.56023310266858
 21
561.96989474467966
 31
0.0
  0
LINE
  5
7DD3
  8
AM_0
  6
CONTINUOUS
 10
447.32023310266828
 20
425.69489474467969
 30
0.0
 11
444.32023310266851
 21
422.6948947446798
 31
0.0
  0
LINE
  5
7DD4
  8
AM_0
  6
CONTINUOUS
 10
447.32023310266828
 20
425.69489474467969
 30
0.0
 11
447.32023310266828
 21
595.69489474467969
 31
0.0
  0
LINE
  5
7DD5
  8
AM_0
  6
CONTINUOUS
 10
447.32023310266828
 20
595.69489474467969
 30
0.0
 11
444.32023310266851
 21
598.69489474467991
 31
0.0
  0
LINE
  5
7FC2
  8
0
  6
CENTER
 62
     0
 10
496.8202031026691
 20
816.83424383667136
 30
0.0
 11
496.8202031026691
 21
798.1147638366715
 31
0.0
  0
LINE
  5
7FC3
  8
0
  6
CONTINUOUS
 62
     0
 10
483.67018310266911
 20
804.25746383667138
 30
0.0
 11
509.97017310266898
 21
804.25746383667138
 31
0.0
  0
LINE
  5
7FC4
  8
0
  6
CONTINUOUS
 62
     0
 10
483.67018310266911
 20
810.55751383667166
 30
0.0
 11
509.97017310266898
 21
810.55751383667166
 31
0.0
  0
ARC
  5
7FC5
  8
0
  6
CONTINUOUS
 62
     0
 10
495.8202031026691
 20
819.36574383667175
 30
0.0
 40
3.0
 50
274.78019999998969
 51
0.0
  0
ARC
  5
7FC6
  8
0
  6
CONTINUOUS
 62
     0
 10
495.8202031026691
 20
795.44924383667114
 30
0.0
 40
3.0
 50
0.0
 51
85.219806000004908
  0
ARC
  5
7FC7
  8
0
  6
CONTINUOUS
 62
     0
 10
496.8202031026691
 20
807.40749383667128
 30
0.0
 40
9.0
 50
94.780192000005314
 51
159.51269999999991
  0
ARC
  5
7FC8
  8
0
  6
CONTINUOUS
 62
     0
 10
496.8202031026691
 20
807.40749383667128
 30
0.0
 40
8.0
 50
23.18801900000453
 51
156.811979999995
  0
ARC
  5
7FC9
  8
0
  6
CONTINUOUS
 62
     0
 10
483.67018310266911
 20
807.40749383667128
 30
0.0
 40
3.1499977000000001
 50
90.000002999984659
 51
270.0
  0
ARC
  5
7FCA
  8
0
  6
CONTINUOUS
 62
     0
 10
509.97017310266898
 20
807.40749383667128
 30
0.0
 40
3.1499977000000001
 50
270.0
 51
90.000002999984659
  0
ARC
  5
7FCB
  8
0
  6
CONTINUOUS
 62
     0
 10
496.8202031026691
 20
807.40749383667128
 30
0.0
 40
8.0
 50
203.188020000005
 51
336.81196999999543
  0
ARC
  5
7FCC
  8
0
  6
CONTINUOUS
 62
     0
 10
496.8202031026691
 20
807.40749383667128
 30
0.0
 40
9.0
 50
200.48730000000009
 51
265.2198000000102
  0
LINE
  5
7FCD
  8
0
  6
CONTINUOUS
 62
     7
 10
498.82014310266879
 20
819.3467702655397
 30
0.0
 11
498.82014310266879
 21
872.54665883667155
 31
0.0
  0
LINE
  5
812F
  8
0
  6
AM_ISO08W050
 10
864.86516676804479
 20
403.86814074468009
 30
0.0
 11
864.86516676804479
 21
662.38929674467965
 31
0.0
  0
LINE
  5
8130
  8
0
  6
AM_ISO08W050
 10
742.39119676804489
 20
538.69486674467998
 30
0.0
 11
990.38732576804478
 21
538.69486674467998
 31
0.0
  0
LINE
  5
8131
  8
AM_0
 10
737.8601567680447
 20
479.6448667446798
 30
0.0
 11
737.8601567680447
 21
541.74389674467966
 31
0.0
  0
LINE
  5
8132
  8
AM_0
 10
743.91212676804491
 20
549.66991674467988
 30
0.0
 11
746.93214676804473
 21
550.14292674467993
 31
0.0
  0
LINE
  5
8133
  8
AM_0
 10
743.91218676804465
 20
471.71892674468012
 30
0.0
 11
746.93214676804473
 21
471.24593674468002
 31
0.0
  0
LINE
  5
8134
  8
AM_0
 10
912.86516176804446
 20
538.69486674467998
 30
0.0
 11
912.86516176804446
 21
500.69488674467988
 31
0.0
  0
LINE
  5
8135
  8
AM_0
 10
982.36516176804469
 20
538.69486674467998
 30
0.0
 11
982.36516176804469
 21
568.69486674467998
 31
0.0
  0
LINE
  5
8136
  8
AM_0
 10
867.86516676804479
 20
619.20957674468013
 30
0.0
 11
867.86516676804479
 21
613.0191167446801
 31
0.0
  0
LINE
  5
8137
  8
AM_0
 10
861.86516676804524
 20
619.20957674468013
 30
0.0
 11
861.86516676804524
 21
613.0191167446801
 31
0.0
  0
LINE
  5
8138
  8
AM_0
 10
864.86516676804479
 20
421.19487774467979
 30
0.0
 11
894.8651667680449
 21
421.19487774467979
 31
0.0
  0
LINE
  5
8139
  8
AM_0
 10
982.36516176804469
 20
508.69488674467988
 30
0.0
 11
978.95030976804458
 21
443.5356067446798
 31
0.0
  0
LINE
  5
813A
  8
AM_0
 10
894.8651667680449
 20
421.19488474467983
 30
0.0
 11
960.02443276804479
 21
424.60974074467981
 31
0.0
  0
LINE
  5
813B
  8
AM_0
 10
894.8651667680449
 20
656.19486674467998
 30
0.0
 11
960.02443276804479
 21
652.78001674467976
 31
0.0
  0
LINE
  5
813C
  8
AM_0
 10
864.86516676804479
 20
656.19486674467998
 30
0.0
 11
894.8651667680449
 21
656.19486674467998
 31
0.0
  0
LINE
  5
813D
  8
AM_0
 10
950.03699076804469
 20
623.86671674467982
 30
0.0
 11
970.50660676804478
 21
644.33634674467999
 31
0.0
  0
LINE
  5
813E
  8
AM_0
 10
904.62596676804503
 20
572.79881674467993
 30
0.0
 11
933.85627376804473
 21
602.02911674467975
 31
0.0
  0
LINE
  5
813F
  8
AM_0
 10
898.96909676804466
 20
578.45567674467975
 30
0.0
 11
928.19940576804481
 21
607.68598674468012
 31
0.0
  0
LINE
  5
8140
  8
AM_0
 10
825.10435676804468
 20
572.79882674468013
 30
0.0
 11
795.87404676804465
 21
602.02914674467968
 31
0.0
  0
LINE
  5
8141
  8
AM_0
 10
781.25937676804494
 20
455.08909574467992
 30
0.0
 11
758.82339676804474
 21
432.6531297446798
 31
0.0
  0
LINE
  5
8142
  8
AM_0
 10
780.05250676804474
 20
623.50755674467985
 30
0.0
 11
758.92880676804475
 21
644.63123674467988
 31
0.0
  0
LINE
  5
8143
  8
AM_0
 10
747.36516676804479
 20
508.69488674467988
 30
0.0
 11
750.7800167680449
 21
443.5356067446798
 31
0.0
  0
LINE
  5
8144
  8
AM_0
 10
982.36516176804469
 20
538.69486674467998
 30
0.0
 11
982.36516176804469
 21
508.69486674467959
 31
0.0
  0
LINE
  5
8145
  8
AM_0
 10
982.36516376804479
 20
568.69488674467982
 30
0.0
 11
978.95030976804458
 21
633.85413674467998
 31
0.0
  0
LINE
  5
8146
  8
AM_0
 10
834.8651667680449
 20
656.19483674467972
 30
0.0
 11
769.70587676804473
 21
652.77998674467983
 31
0.0
  0
LINE
  5
8147
  8
AM_0
 10
834.86517676804465
 20
421.19488474467983
 30
0.0
 11
769.70590676804477
 21
424.60973374467989
 31
0.0
  0
LINE
  5
8148
  8
AM_0
 10
949.91861776804478
 20
453.64142574467979
 30
0.0
 11
970.16791176804475
 21
433.39213574467982
 31
0.0
  0
LINE
  5
8149
  8
AM_0
 10
747.36516676804479
 20
568.69488674467982
 30
0.0
 11
750.7800167680449
 21
633.85413674467998
 31
0.0
  0
LINE
  5
814A
  8
AM_0
 10
747.36516676804479
 20
538.69486674467998
 30
0.0
 11
747.36516676804479
 21
508.69486674467959
 31
0.0
  0
LINE
  5
814B
  8
AM_0
 10
864.86516676804479
 20
421.19487774467979
 30
0.0
 11
834.8651667680449
 21
421.19487774467979
 31
0.0
  0
LINE
  5
814C
  8
AM_0
 10
864.86516676804479
 20
656.19486674467998
 30
0.0
 11
834.8651667680449
 21
656.19486674467998
 31
0.0
  0
LINE
  5
814D
  8
AM_0
 10
747.36516676804479
 20
538.69486674467998
 30
0.0
 11
747.36516676804479
 21
568.69486674467998
 31
0.0
  0
LINE
  5
814E
  8
AM_0
 10
816.86516676804479
 20
538.69486674467998
 30
0.0
 11
816.86516676804479
 21
500.69488674467988
 31
0.0
  0
LINE
  5
814F
  8
AM_0
 10
811.86517676804465
 20
495.69488674467982
 30
0.0
 11
778.88842676804472
 21
495.69488674467982
 31
0.0
  0
LINE
  5
8150
  8
AM_0
 10
830.76121676804473
 20
578.45567674467975
 30
0.0
 11
801.53088676804487
 21
607.68600674467996
 31
0.0
  0
LINE
  5
8151
  8
AM_0
 10
917.86516176804469
 20
495.69488674467982
 30
0.0
 11
950.84190776804462
 21
495.69488674467982
 31
0.0
  0
LINE
  5
8153
  8
AM_0
 10
859.8651667680449
 20
549.69488674467982
 30
0.0
 11
869.86514676804472
 21
549.69488674467982
 31
0.0
  0
LINE
  5
8154
  8
AM_0
 10
859.8651667680449
 20
549.69488674467982
 30
0.0
 11
859.8651667680449
 21
557.69486674467976
 31
0.0
  0
LINE
  5
8155
  8
AM_0
 10
869.86514676804472
 20
549.69488674467982
 30
0.0
 11
869.86514676804472
 21
557.69486674467976
 31
0.0
  0
LINE
  5
8156
  8
AM_0
 10
859.8651667680449
 20
557.69486674467976
 30
0.0
 11
869.86514676804472
 21
557.69486674467976
 31
0.0
  0
ARC
  5
8157
  8
AM_0
 10
757.65515676804466
 20
424.54833174467979
 30
0.0
 40
122.221
 50
94.829540000001217
 51
97.425484000000822
  0
ARC
  5
8158
  8
AM_0
 10
757.65515676804466
 20
596.84087674467992
 30
0.0
 40
122.221
 50
262.57496000000208
 51
266.0027899999975
  0
ARC
  5
8159
  8
AM_0
 10
741.86018676804485
 20
479.6448667446798
 30
0.0
 40
4.0
 50
179.99997999999789
 51
269.99995000000149
  0
ARC
  5
815A
  8
AM_0
 10
741.86018676804485
 20
541.74389674467966
 30
0.0
 40
4.0
 50
89.999988999997555
 51
179.99997999999789
  0
ARC
  5
815B
  8
AM_0
 10
744.92720676804447
 20
477.6329067446797
 30
0.0
 40
6.0
 50
187.26796999999829
 51
269.99995999999589
  0
ARC
  5
815C
  8
AM_0
 10
759.42418676804448
 20
541.92690674467997
 30
0.0
 40
71.776702999999983
 50
259.9759600000005
 51
261.92998999999992
  0
ARC
  5
815D
  8
AM_0
 10
744.92720676804447
 20
543.7559467446797
 30
0.0
 40
6.0
 50
98.439062999998285
 51
172.73197000000229
  0
ARC
  5
815E
  8
AM_0
 10
759.42418676804448
 20
479.46194674467972
 30
0.0
 40
71.776702999999983
 50
99.671987999996361
 51
100.0239900000028
  0
ARC
  5
815F
  8
AM_0
 10
870.8651667680449
 20
619.20957674468013
 30
0.0
 40
3.0
 50
90.00000299999769
 51
180.000010000001
  0
ARC
  5
8160
  8
AM_0
 10
895.4335667680449
 20
581.99120674467974
 30
0.0
 40
5.0
 50
234.77685999999909
 51
315.0
  0
ARC
  5
8161
  8
AM_0
 10
958.97771876804461
 20
444.58232074467992
 30
0.0
 40
20.0
 50
272.99999999999892
 51
357.00000000000108
  0
ARC
  5
8162
  8
AM_0
 10
958.97771876804461
 20
632.80744674468008
 30
0.0
 40
20.0
 50
3.0000000999988461
 51
86.999998999997004
  0
ARC
  5
8163
  8
AM_0
 10
858.86516676804501
 20
613.0191167446801
 30
0.0
 40
3.0
 50
273.35581999999692
 51
0.0
  0
ARC
  5
8164
  8
AM_0
 10
908.16148676804505
 20
569.26328674467982
 30
0.0
 40
5.0
 50
135.0
 51
215.22315000000219
  0
ARC
  5
8165
  8
AM_0
 10
864.86516676804479
 20
510.69488674467971
 30
0.0
 40
93.499999999999986
 50
162.14679000000021
 51
183.00788
  0
ARC
  5
8166
  8
AM_0
 10
864.86516676804479
 20
510.69488674467971
 30
0.0
 40
99.500000000000014
 50
93.355818000003936
 51
121.1614999999983
  0
ARC
  5
8167
  8
AM_0
 10
858.86516676804501
 20
619.20957674468013
 30
0.0
 40
3.0
 50
0.0
 51
90.00000299999769
  0
ARC
  5
8168
  8
AM_0
 10
870.8651667680449
 20
613.0191167446801
 30
0.0
 40
3.0
 50
179.999989999999
 51
266.64419000000072
  0
ARC
  5
8169
  8
AM_0
 10
864.86516676804479
 20
510.69488674467971
 30
0.0
 40
99.500000000000014
 50
242.8856600000008
 51
297.11435000000102
  0
ARC
  5
816A
  8
AM_0
 10
864.86516676804479
 20
538.69486674467998
 30
0.0
 40
135.0
 50
38.368393000000047
 51
52.256346000001919
  0
CIRCLE
  5
816B
  8
AM_0
 10
960.32458076804483
 20
634.15427674467992
 30
0.0
 40
7.5
  0
ARC
  5
816C
  8
AM_0
 10
937.39179576804474
 20
598.49358674467976
 30
0.0
 40
5.0
 50
39.505817999999088
 51
135.0
  0
ARC
  5
816D
  8
AM_0
 10
924.66388276804469
 20
611.22152674467975
 30
0.0
 40
5.0
 50
315.0
 51
50.494182000000933
  0
CIRCLE
  5
816E
  8
AM_0
 10
864.86516676804479
 20
538.69486674467998
 30
0.0
 40
105.0
  0
CIRCLE
  5
816F
  8
AM_0
 10
769.40576676804471
 20
634.15427674467992
 30
0.0
 40
7.5
  0
CIRCLE
  5
8170
  8
AM_0
 10
769.40576676804471
 20
443.23546574468003
 30
0.0
 40
7.5
  0
CIRCLE
  5
8171
  8
AM_0
 10
864.86516676804479
 20
538.69486674467998
 30
0.0
 40
99.0
  0
ARC
  5
8172
  8
AM_0
 10
864.86516676804479
 20
538.69486674467998
 30
0.0
 40
135.0
 50
126.180529999999
 51
142.2563499999998
  0
ARC
  5
8173
  8
AM_0
 10
864.86516676804479
 20
538.69486674467998
 30
0.0
 40
135.0
 50
218.36838999999779
 51
232.25634999999991
  0
ARC
  5
8174
  8
AM_0
 10
770.75261676804473
 20
632.80744674468008
 30
0.0
 40
20.0
 50
92.999999000001679
 51
176.99999000000031
  0
ARC
  5
8175
  8
AM_0
 10
864.86516676804479
 20
538.69486674467998
 30
0.0
 40
135.0
 50
306.6062899999971
 51
322.25634999999988
  0
CIRCLE
  5
8176
  8
AM_0
 10
960.32458076804483
 20
443.23546574468003
 30
0.0
 40
7.5
  0
ARC
  5
8177
  8
AM_0
 10
770.75261676804473
 20
444.58232074467992
 30
0.0
 40
20.0
 50
183.00000999999969
 51
267.00000000000102
  0
ARC
  5
8178
  8
AM_0
 10
778.88842676804472
 20
500.69488674467988
 30
0.0
 40
5.0
 50
203.84446999999949
 51
270.0
  0
ARC
  5
8179
  8
AM_0
 10
834.29675676804459
 20
581.99120674467974
 30
0.0
 40
5.0
 50
225.0
 51
305.22315000000231
  0
ARC
  5
817A
  8
AM_0
 10
864.86516676804479
 20
510.69488674467971
 30
0.0
 40
99.500000000000014
 50
58.838493999999237
 51
86.644179999996624
  0
ARC
  5
817B
  8
AM_0
 10
864.86516676804479
 20
510.69488674467971
 30
0.0
 40
99.500000000000014
 50
29.730243000000019
 51
54.136312000000359
  0
ARC
  5
817C
  8
AM_0
 10
864.86516676804479
 20
510.69488674467971
 30
0.0
 40
93.499999999999986
 50
356.99212
 51
17.85321299999983
  0
ARC
  5
817D
  8
AM_0
 10
792.33853676804472
 20
598.49358674467976
 30
0.0
 40
5.0
 50
45.000001000003799
 51
140.49417999999881
  0
ARC
  5
817E
  8
AM_0
 10
864.86516676804479
 20
538.69486674467998
 30
0.0
 40
48.0
 50
54.776849999997779
 51
125.2231400000008
  0
ARC
  5
817F
  8
AM_0
 10
864.86516676804479
 20
538.69486674467998
 30
0.0
 40
48.0
 50
0.0
 51
35.2231520000025
  0
ARC
  5
8180
  8
AM_0
 10
864.86516676804479
 20
538.69486674467998
 30
0.0
 40
89.0
 50
0.4282278600016867
 51
13.875763999998069
  0
CIRCLE
  5
8181
  8
AM_0
 10
864.86516676804479
 20
538.69486674467998
 30
0.0
 40
29.0
  0
ARC
  5
8182
  8
AM_0
 10
864.86516676804479
 20
538.69486674467998
 30
0.0
 40
48.0
 50
144.7768400000017
 51
180.000010000001
  0
ARC
  5
8183
  8
AM_0
 10
950.84190776804462
 20
500.69488674467988
 30
0.0
 40
5.0
 50
270.0
 51
336.15553000000051
  0
ARC
  5
8184
  8
AM_0
 10
805.06643676804492
 20
611.22152674467975
 30
0.0
 40
5.0
 50
129.50582000000111
 51
225.0
  0
ARC
  5
8185
  8
AM_0
 10
917.86516176804469
 20
500.69488674467988
 30
0.0
 40
5.0
 50
179.999989999999
 51
270.0
  0
ARC
  5
8186
  8
AM_0
 10
864.86516676804479
 20
510.69488674467971
 30
0.0
 40
99.500000000000014
 50
125.86368999999679
 51
150.2697600000005
  0
ARC
  5
8187
  8
AM_0
 10
811.86517676804465
 20
500.69488674467988
 30
0.0
 40
5.0
 50
270.0
 51
0.0
  0
ARC
  5
8188
  8
AM_0
 10
821.56884676804486
 20
569.26328674467982
 30
0.0
 40
5.0
 50
324.77684999999781
 51
45.000001000003799
  0
ARC
  5
8189
  8
AM_0
 10
864.86516676804479
 20
538.69486674467998
 30
0.0
 40
89.0
 50
166.12422999999799
 51
179.57177000000021
  0
ARC
  5
818A
  8
AM_0
 10
864.86516676804479
 20
538.69486674467998
 30
0.0
 40
16.0
 50
108.2099599999986
 51
71.790051999998809
  0
CIRCLE
  5
818B
  8
AM_0
 10
864.86516676804479
 20
538.69486674467998
 30
0.0
 40
4.0
  0
ARC
  5
818C
  8
AM_0
 10
864.86516676804479
 20
538.69486674467998
 30
0.0
 40
16.0
 50
108.2099599999986
 51
71.790051999998809
  0
CIRCLE
  5
818D
  8
AM_0
 10
864.86516676804479
 20
538.69486674467998
 30
0.0
 40
4.0
  0
CIRCLE
  5
818E
  8
AM_0
 10
864.86516676804479
 20
538.69486674467998
 30
0.0
 40
2.75
  0
CIRCLE
  5
818F
  8
AM_0
 10
864.86516676804479
 20
538.69486674467998
 30
0.0
 40
4.0
  0
CIRCLE
  5
8190
  8
AM_0
 10
864.86516676804479
 20
538.69486674467998
 30
0.0
 40
2.75
  0
CIRCLE
  5
8191
  8
AM_0
 10
864.86516676804479
 20
538.69486674467998
 30
0.0
 40
2.75
  0
TEXT
  5
8432
  8
0
  6
CONTINUOUS
 62
     0
 10
726.46061778477019
 20
818.675080635119
 30
0.0
 40
15.0
  1
VX15-040EMF~VX15-050EMF
  0
ENDSEC
  0
EOF
