  0
SECTION
  2
HEADER
  9
$ACADVER
  1
AC1009
  9
$INSBASE
 10
0.0
 20
0.0
 30
0.0
  9
$EXTMIN
 10
113.9056799948798
 20
389.81460910470508
 30
-0.000000000000013
  9
$EXTMAX
 10
1115.077745239252
 20
1030.077291083207
 30
0.0000000000000023
  9
$LIMMIN
 10
-2.7186596955807532
 20
0.0935949875579354
  9
$LIMMAX
 10
1419.781340304419
 20
925.09359498755794
  9
$ORTHOMODE
 70
     1
  9
$REGENMODE
 70
     1
  9
$FILLMODE
 70
     1
  9
$QTEXTMODE
 70
     0
  9
$MIRRTEXT
 70
     0
  9
$DRAGMODE
 70
     2
  9
$LTSCALE
 40
1.0
  9
$OSMODE
 70
   551
  9
$ATTMODE
 70
     1
  9
$TEXTSIZE
 40
2.5
  9
$TRACEWID
 40
1.0
  9
$TEXTSTYLE
  7
STANDARD
  9
$CLAYER
  8
0
  9
$CELTYPE
  6
BYLAYER
  9
$CECOLOR
 62
   256
  9
$DIMSCALE
 40
1.0
  9
$DIMASZ
 40
2.0
  9
$DIMEXO
 40
1.0
  9
$DIMDLI
 40
8.0
  9
$DIMRND
 40
0.0
  9
$DIMDLE
 40
0.0
  9
$DIMEXE
 40
1.0
  9
$DIMTP
 40
-0.025
  9
$DIMTM
 40
0.043
  9
$DIMTXT
 40
2.5
  9
$DIMCEN
 40
0.0
  9
$DIMTSZ
 40
0.0
  9
$DIMTOL
 70
     0
  9
$DIMLIM
 70
     0
  9
$DIMTIH
 70
     0
  9
$DIMTOH
 70
     0
  9
$DIMSE1
 70
     0
  9
$DIMSE2
 70
     0
  9
$DIMTAD
 70
     3
  9
$DIMZIN
 70
     8
  9
$DIMBLK
  1

  9
$DIMASO
 70
     1
  9
$DIMSHO
 70
     1
  9
$DIMPOST
  1

  9
$DIMAPOST
  1
"
  9
$DIMALT
 70
     0
  9
$DIMALTD
 70
     2
  9
$DIMALTF
 40
0.0393701
  9
$DIMLFAC
 40
1.0
  9
$DIMTOFL
 70
     1
  9
$DIMTVP
 40
0.0
  9
$DIMTIX
 70
     0
  9
$DIMSOXD
 70
     0
  9
$DIMSAH
 70
     0
  9
$DIMBLK1
  1

  9
$DIMBLK2
  1

  9
$DIMSTYLE
  2
AM_JIS
  9
$DIMCLRD
 70
     2
  9
$DIMCLRE
 70
     2
  9
$DIMCLRT
 70
     4
  9
$DIMTFAC
 40
0.71
  9
$DIMGAP
 40
1.5
  9
$LUNITS
 70
     2
  9
$LUPREC
 70
     2
  9
$SKETCHINC
 40
1.0
  9
$FILLETRAD
 40
0.0
  9
$AUNITS
 70
     0
  9
$AUPREC
 70
     0
  9
$MENU
  1
.
  9
$ELEVATION
 40
0.0
  9
$PELEVATION
 40
0.0
  9
$THICKNESS
 40
0.0
  9
$LIMCHECK
 70
     0
  9
$BLIPMODE
 70
     0
  9
$CHAMFERA
 40
2.5
  9
$CHAMFERB
 40
2.5
  9
$SKPOLY
 70
     0
  9
$TDCREATE
 40
2456829.3841110538
  9
$TDUPDATE
 40
2458540.6609128471
  9
$TDINDWG
 40
0.3058727315
  9
$TDUSRTIMER
 40
0.3058721412
  9
$USRTIMER
 70
     1
  9
$ANGBASE
 50
0.0
  9
$ANGDIR
 70
     0
  9
$PDMODE
 70
     0
  9
$PDSIZE
 40
0.0
  9
$PLINEWID
 40
0.0
  9
$COORDS
 70
     1
  9
$SPLFRAME
 70
     0
  9
$SPLINETYPE
 70
     6
  9
$SPLINESEGS
 70
     8
  9
$ATTDIA
 70
     1
  9
$ATTREQ
 70
     1
  9
$HANDLING
 70
     1
  9
$HANDSEED
  5
85D2
  9
$SURFTAB1
 70
     6
  9
$SURFTAB2
 70
     6
  9
$SURFTYPE
 70
     6
  9
$SURFU
 70
     6
  9
$SURFV
 70
     6
  9
$UCSNAME
  2

  9
$UCSORG
 10
0.0
 20
0.0
 30
0.0
  9
$UCSXDIR
 10
1.0
 20
0.0
 30
0.0
  9
$UCSYDIR
 10
0.0
 20
1.0
 30
0.0
  9
$PUCSNAME
  2

  9
$PUCSORG
 10
0.0
 20
0.0
 30
0.0
  9
$PUCSXDIR
 10
1.0
 20
0.0
 30
0.0
  9
$PUCSYDIR
 10
0.0
 20
1.0
 30
0.0
  9
$USERI1
 70
     0
  9
$USERI2
 70
     0
  9
$USERI3
 70
     0
  9
$USERI4
 70
     0
  9
$USERI5
 70
     0
  9
$USERR1
 40
0.0
  9
$USERR2
 40
0.0
  9
$USERR3
 40
0.0
  9
$USERR4
 40
0.0
  9
$USERR5
 40
0.0
  9
$WORLDVIEW
 70
     1
  9
$SHADEDGE
 70
     3
  9
$SHADEDIF
 70
    70
  9
$TILEMODE
 70
     1
  9
$MAXACTVP
 70
    64
  9
$PLIMCHECK
 70
     0
  9
$PEXTMIN
 10
1.0000000000000000E+020
 20
1.0000000000000000E+020
 30
1.0000000000000000E+020
  9
$PEXTMAX
 10
-1.0000000000000000E+020
 20
-1.0000000000000000E+020
 30
-1.0000000000000000E+020
  9
$PLIMMIN
 10
0.0
 20
0.0
  9
$PLIMMAX
 10
420.0
 20
297.0
  9
$UNITMODE
 70
     0
  9
$VISRETAIN
 70
     1
  9
$PLINEGEN
 70
     0
  9
$PSLTSCALE
 70
     1
  0
ENDSEC
  0
SECTION
  2
TABLES
  0
TABLE
  2
VPORT
 70
     1
  0
VPORT
  2
*ACTIVE
 70
     0
 10
0.0
 20
0.0
 11
1.0
 21
1.0
 12
614.49171261706624
 22
709.94595009395596
 13
0.0
 23
0.0
 14
12.5
 24
12.5
 15
50.0
 25
50.0
 16
0.0
 26
0.0
 36
1.0
 17
0.0
 27
0.0
 37
0.0
 40
644.65807796462423
 41
1.757159221076747
 42
50.0
 43
0.0
 44
0.0
 50
0.0
 51
0.0
 71
    16
 72
  1000
 73
     1
 74
     3
 75
     0
 76
     0
 77
     0
 78
     0
  0
ENDTAB
  0
TABLE
  2
LTYPE
 70
    24
  0
LTYPE
  2
CONTINUOUS
 70
     0
  3
Solid line
 72
    65
 73
     0
 40
0.0
  0
LTYPE
  2
CENTER
 70
     0
  3
Center ____ _ ____ _ ____ _ ____ _ ____ _ ____
 72
    65
 73
     4
 40
50.799999999999997
 49
31.75
 49
-6.3499999999999979
 49
6.3499999999999979
 49
-6.3499999999999979
  0
LTYPE
  2
AM_ISO02W050
 70
     0
  3
__ __ __ __ __ __ __ __ __ __ __ __ __ __ __
 72
    65
 73
     2
 40
7.5
 49
6.0
 49
-1.5
  0
LTYPE
  2
AM_ISO08W050
 70
     0
  3
____ . ____ . ____ . ____ . ____ . ____ . ____
 72
    65
 73
     4
 40
18.0
 49
12.0
 49
-1.5
 49
3.0
 49
-1.5
  0
LTYPE
  2
AM_ISO09W050
 70
     0
  3
_____ . . _____ . . _____ . . ____ .. ____
 72
    65
 73
     6
 40
22.5
 49
12.0
 49
-1.5
 49
3.0
 49
-1.5
 49
3.0
 49
-1.5
  0
LTYPE
  2
AMCONSTR
 70
     0
  3
_______________________
 72
    65
 73
     2
 40
9999.0
 49
9999.0
 49
0.0
  0
LTYPE
  2
AM_ISO08W050X2
 70
     0
  3
__ . __ . __ . __ . __ . __
 72
    65
 73
     4
 40
9.0
 49
6.0
 49
-0.75
 49
1.5
 49
-0.75
  0
LTYPE
  2
AM_ISO02W050X2
 70
     0
  3
 _ _ _ _ _ _ _ _ _ _ _ _
 72
    65
 73
     2
 40
3.75
 49
3.0
 49
-0.75
  0
LTYPE
  2
AMZIGZAG
 70
     0
  3
/\/-/\/-/\/-/\/-/\/-/\/
 72
    65
 73
     2
 40
11.0001
 49
0.0001
 49
-11.0
  0
LTYPE
  2
ACANSTGBM
 70
     0
  3
__ . . __ . .
 72
    65
 73
     6
 40
9.0
 49
4.0
 49
-1.0
 49
1.0
 49
-1.0
 49
1.0
 49
-1.0
  0
LTYPE
  2
ACANSTGLM
 70
     0
  3
_ _ _ _ _
 72
    65
 73
     2
 40
3.0
 49
2.0
 49
-1.0
  0
LTYPE
  2
ACISOWELD
 70
     0
  3
_ _ _ _ _
 72
    65
 73
     2
 40
2.0
 49
2.0
 49
-1.0
  0
LTYPE
  2
ACISOTGB
 70
     0
  3
__ . . __ . .
 72
    65
 73
     6
 40
9.0
 49
4.0
 49
-1.0
 49
1.0
 49
-1.0
 49
1.0
 49
-1.0
  0
LTYPE
  2
ACISOTGL
 70
     0
  3
_ _ _ _ _
 72
    65
 73
     2
 40
3.0
 49
2.0
 49
-1.0
  0
LTYPE
  2
ACJISTGB
 70
     0
  3
__ . . __ . .
 72
    65
 73
     6
 40
9.0
 49
4.0
 49
-1.0
 49
1.0
 49
-1.0
 49
1.0
 49
-1.0
  0
LTYPE
  2
ACJISTGL
 70
     0
  3
_ _ _ _ _
 72
    65
 73
     2
 40
3.0
 49
2.0
 49
-1.0
  0
LTYPE
  2
HIDDEN
 70
     0
  3
Hidden __ __ __ __ __ __ __ __ __ __ __ __ __ _
 72
    65
 73
     2
 40
9.5249999999999968
 49
6.3499999999999979
 49
-3.174999999999998
  0
LTYPE
  2
PHANTOM2
 70
     0
  3
Phantom (.5x) ___ _ _ ___ _ _ ___ _ _ ___ _ _
 72
    65
 73
     6
 40
31.75
 49
15.875
 49
-3.174999999999998
 49
3.174999999999998
 49
-3.174999999999998
 49
3.174999999999998
 49
-3.174999999999998
  0
LTYPE
  2
CENTER2
 70
     0
  3
Center (.5x) ___ _ ___ _ ___ _ ___ _ ___ _ ___
 72
    65
 73
     4
 40
1.125
 49
0.75
 49
-0.125
 49
0.125
 49
-0.125
  0
LTYPE
  2
HIDDEN2
 70
     0
  3
Hidden (.5x) _ _ _ _ _ _ _ _ _ _ _ _ _ _ _ _ _
 72
    65
 73
     2
 40
0.1875
 49
0.125
 49
-0.0625
  0
LTYPE
  2
AMZIGZAG2
 70
     0
  3
/\/-/\/-/\/-/\/-/\/-/\/
 72
    65
 73
     2
 40
0.4401
 49
0.0001
 49
-0.4400000000000003
  0
LTYPE
  2
ACANSTGB
 70
     0
  3
__ . . __ . .
 72
    65
 73
     6
 40
0.35433070866
 49
0.15748031496
 49
-0.03937007874
 49
0.03937007874
 49
-0.03937007874
 49
0.03937007874
 49
-0.03937007874
  0
LTYPE
  2
ACANSTGL
 70
     0
  3
_ _ _ _ _
 72
    65
 73
     2
 40
0.11811023622
 49
0.07874015748
 49
-0.03937007874
  0
ENDTAB
  0
TABLE
  2
LAYER
 70
     5
  0
LAYER
  2
0
 70
     0
 62
     7
  6
CONTINUOUS
  0
LAYER
  2
DEFPOINTS
 70
     0
 62
     7
  6
CONTINUOUS
  0
LAYER
  2
AM_0
 70
     0
 62
     7
  6
CONTINUOUS
  0
LAYER
  2
AM_5
 70
     0
 62
     2
  6
CONTINUOUS
  0
LAYER
  2
AM_CL
 70
     0
 62
     1
  6
AMCONSTR
  0
ENDTAB
  0
TABLE
  2
STYLE
 70
     8
  0
STYLE
  2
STANDARD
 70
     0
 40
0.0
 41
0.7400000000000003
 50
0.0
 71
     0
 42
2.5
  3
txt.shx
  4
bigfont.shx
  0
STYLE
  2

 70
     1
 40
0.0
 41
1.0
 50
0.0
 71
     0
 42
2.5
  3
ltypeshp.shx
  4

  0
STYLE
  2
ACANSTS
 70
     0
 40
1.0
 41
1.0
 50
0.0
 71
     0
 42
2.5
  3
romans.shx
  4
bigfont.shx
  0
STYLE
  2
ACANSGDT
 70
     0
 40
0.0
 41
1.0
 50
0.0
 71
     0
 42
2.5
  3
amgdtans.shx
  4

  0
STYLE
  2
ACISOTS
 70
     0
 40
1.0
 41
1.0
 50
0.0
 71
     0
 42
2.5
  3
isocp.shx
  4
extfont.shx
  0
STYLE
  2
ACISOGDT
 70
     0
 40
0.0
 41
1.0
 50
0.0
 71
     0
 42
2.5
  3
amgdt.shx
  4

  0
STYLE
  2
ACJISGDT
 70
     0
 40
0.0
 41
1.0
 50
0.0
 71
     0
 42
2.5
  3
amgdt.shx
  4

  0
STYLE
  2
ACJISTS
 70
     0
 40
1.0
 41
1.0
 50
0.0
 71
     0
 42
2.5
  3
isocp.shx
  4
extfont.shx
  0
ENDTAB
  0
TABLE
  2
VIEW
 70
     6
  0
VIEW
  2
AM_VIEW1
 70
     0
 40
462.5
 10
486.11585987737283
 20
693.84359498755771
 41
977.66903914590773
 11
0.0
 21
0.0
 31
1.0
 12
0.0
 22
0.0
 32
0.0
 42
50.0
 43
0.0
 44
0.0
 50
0.0
 71
    16
  0
VIEW
  2
AM_VIEW2
 70
     0
 40
462.5
 10
930.94682073146555
 20
693.84359498755771
 41
977.66903914590773
 11
0.0
 21
0.0
 31
1.0
 12
0.0
 22
0.0
 32
0.0
 42
50.0
 43
0.0
 44
0.0
 50
0.0
 71
    16
  0
VIEW
  2
AM_VIEW3
 70
     0
 40
462.5
 10
486.11585987737283
 20
231.34359498755799
 41
977.66903914590773
 11
0.0
 21
0.0
 31
1.0
 12
0.0
 22
0.0
 32
0.0
 42
50.0
 43
0.0
 44
0.0
 50
0.0
 71
    16
  0
VIEW
  2
AM_VIEW4
 70
     0
 40
462.5
 10
930.94682073146555
 20
231.34359498755799
 41
977.66903914590773
 11
0.0
 21
0.0
 31
1.0
 12
0.0
 22
0.0
 32
0.0
 42
50.0
 43
0.0
 44
0.0
 50
0.0
 71
    16
  0
VIEW
  2
AM_VIEW5
 70
     0
 40
462.5
 10
708.53134030441925
 20
462.59359498755799
 41
977.66903914590773
 11
0.0
 21
0.0
 31
1.0
 12
0.0
 22
0.0
 32
0.0
 42
50.0
 43
0.0
 44
0.0
 50
0.0
 71
    16
  0
VIEW
  2
AM_VIEW6
 70
     0
 40
924.99075000000016
 10
708.53134030441925
 20
462.59359498755799
 41
1955.318524911032
 11
0.0
 21
0.0
 31
1.0
 12
0.0
 22
0.0
 32
0.0
 42
50.0
 43
0.0
 44
0.0
 50
0.0
 71
    16
  0
ENDTAB
  0
TABLE
  2
UCS
 70
     0
  0
ENDTAB
  0
TABLE
  2
APPID
 70
   162
  0
APPID
  2
ACAD
 70
     0
  0
APPID
  2
ACADANNOTATIVE
 70
     0
  0
APPID
  2
ACAD_MLEADERVER
 70
     0
  0
APPID
  2
MCAD_NO_VIS
 70
     0
  0
APPID
  2
ACAD_TEMP_GRAPHIC
 70
     0
  0
APPID
  2
AD_DRAW
 70
     0
  0
APPID
  2
ACATTRIBSERVICES
 70
     0
  0
APPID
  2
DESIGNERASSEMBLIES
 70
     0
  0
APPID
  2
ACADM_DIM_EDIT
 70
     0
  0
APPID
  2
AMDT_DM_ADJ
 70
     0
  0
APPID
  2
GENIUS_GENDIMSH_14
 70
     0
  0
APPID
  2
GEVID1057795304
 70
     0
  0
APPID
  2
GEVDC
 70
     0
  0
APPID
  2
GEVCON
 70
     0
  0
APPID
  2
GENIUS_GENBH_13
 70
     0
  0
APPID
  2
GENIUS_GENOENT_13
 70
     0
  0
APPID
  2
GENIUS_GENOBJ-NBEHI-BHF_13
 70
     0
  0
APPID
  2
GENIUS_GENOLIS_13
 70
     0
  0
APPID
  2
GENIUS_GENODEF_13
 70
     0
  0
APPID
  2
GENIUS_GENOREF_13
 70
     0
  0
APPID
  2
GENIUS_GENOBJ-NBEHI-BHB_13
 70
     0
  0
APPID
  2
GENIUS_GENOBJ-F-SCPASSM_13
 70
     0
  0
APPID
  2
GENIUS_GENDTOL_13
 70
     0
  0
APPID
  2
GENIUS_GENTRA_14
 70
     0
  0
APPID
  2
ASURF_PCURVE_APPNAME
 70
     0
  0
APPID
  2
GENIUS_GENCFG_13
 70
     0
  0
APPID
  2
GENIUS_GE3CFG0_13
 70
     0
  0
APPID
  2
GENIUS_GENCFG0_13
 70
     0
  0
APPID
  2
GENIUS_GENCFG1_13
 70
     0
  0
APPID
  2
GENIUS_GENCFG2_13
 70
     0
  0
APPID
  2
GENIUS_GENCFG3_13
 70
     0
  0
APPID
  2
GENIUS_GENCFG4_13
 70
     0
  0
APPID
  2
GENIUS_GEVCFG0_13
 70
     0
  0
APPID
  2
GENIUS_GENOBJ-N-TIT_13
 70
     0
  0
APPID
  2
GENIUS_GENTITLE_13
 70
     0
  0
APPID
  2
GENIUS_GENSCREG_15
 70
     0
  0
APPID
  2
GENIUS_GENOBJ-N-SDF_13
 70
     0
  0
APPID
  2
GENIUS_GENFIL_13
 70
     0
  0
APPID
  2
GENIUS_GENOBJ-N-CHA_13
 70
     0
  0
APPID
  2
GENIUS_GEFSH_13
 70
     0
  0
APPID
  2
GENIUS_GENOBJ-F-SHS_13
 70
     0
  0
APPID
  2
GENIUS_GENOBJ-N-CEN_13
 70
     0
  0
APPID
  2
GENIUS_GENREC_14
 70
     0
  0
APPID
  2
GENIUS_GENOBJ-N-REC_13
 70
     0
  0
APPID
  2
GENIUS_GENOBJ-N-HTC_13
 70
     0
  0
APPID
  2
GENIUS_GENHATCH_13
 70
     0
  0
APPID
  2
ACAD_PSEXT
 70
     0
  0
APPID
  2
ACAD_EXEMPT_FROM_CAD_STANDARDS
 70
     0
  0
APPID
  2
ACAECLAYERSTANDARD
 70
     0
  0
APPID
  2
GENIUS_GENCEN_19
 70
     0
  0
APPID
  2
ACAD_DSTYLE_DIMINSPECT
 70
     0
  0
APPID
  2
ACAD_DSTYLE_DIMANGULAR_EXT
 70
     0
  0
APPID
  2
ACADANNOPO
 70
     0
  0
APPID
  2
ACAD_NAV_VCDISPLAY
 70
     0
  0
APPID
  2
GENIUS_GENOBJ-N-FIL_13
 70
     0
  0
APPID
  2
ACAUTHENVIRON
 70
     0
  0
APPID
  2
ACDBDYNAMICBLOCKTRUENAME
 70
     0
  0
APPID
  2
ACDBDYNAMICBLOCKGUID
 70
     0
  0
APPID
  2
ACDBBLOCKREPETAG
 70
     0
  0
APPID
  2
ACAD_DSTYLE_DIMBREAK
 70
     0
  0
APPID
  2
ACAD_DSTYLE_DIMJAG
 70
     0
  0
APPID
  2
GENIUS_GENHINW_13
 70
     0
  0
APPID
  2
GENIUS_FIRSTVISTXT_14
 70
     0
  0
APPID
  2
GENIUS_GENOBJ-N-LEADER_13
 70
     0
  0
APPID
  2
DCO15
 70
     0
  0
APPID
  2
GENIUS_DUMCFG0_13
 70
     0
  0
APPID
  2
ACAD_DSTYLE_DIMTEXT_FILL
 70
     0
  0
APPID
  2
AMG_2DHIDE
 70
     0
  0
APPID
  2
GENIUS_GEFSHEP_13
 70
     0
  0
APPID
  2
GENIUS_GENOBJ-F-SHE_13
 70
     0
  0
APPID
  2
GENIUS_GEFSHE_13
 70
     0
  0
APPID
  2
ACAD_DIMASSOC_DIMLFAC
 70
     0
  0
APPID
  2
ACAD_DIMASSOC_CALC_DIMLFAC
 70
     0
  0
APPID
  2
ACAD_DIMASSOC_OVERRIDDEN_D
 70
     0
  0
APPID
  2
GENIUS_GENOBJ-F-SHSV_13
 70
     0
  0
APPID
  2
GENIUS_GEFWELD_13
 70
     0
  0
APPID
  2
GENIUS_GENOBJ-N-CRS_13
 70
     0
  0
APPID
  2
GENIUS_GENOBJ-N-RSBK_13
 70
     0
  0
APPID
  2
GENIUS_GENOBJ-N-LIB_13
 70
     0
  0
APPID
  2
GENIUS_GENSCALE_13
 70
     0
  0
APPID
  2
GENIUS_GENDREL_13
 70
     0
  0
APPID
  2
GEVPT
 70
     0
  0
APPID
  2
GEVIT
 70
     0
  0
APPID
  2
VCC
 70
     0
  0
APPID
  2
GENBH
 70
     0
  0
APPID
  2
GEVMK
 70
     0
  0
APPID
  2
GENIUS_GENOBJ-F-DESC_13
 70
     0
  0
APPID
  2
GENIUS_GEFDESC_14
 70
     0
  0
APPID
  2
GENIUS_GENOBJ-F-FEAT_13
 70
     0
  0
APPID
  2
GENIUS_GEFFEAT_14
 70
     0
  0
APPID
  2
GENIUS_GEFPARTINS_13
 70
     0
  0
APPID
  2
GENIUS_GENSCREG_13
 70
     0
  0
APPID
  2
GENIUS_GEFSHP_13
 70
     0
  0
APPID
  2
GEVID1025574798
 70
     0
  0
APPID
  2
GEVID1025574769
 70
     0
  0
APPID
  2
GEVID1025757451
 70
     0
  0
APPID
  2
GEVID1240528327
 70
     0
  0
APPID
  2
AMG_2DSTRUCT_BTR
 70
     0
  0
APPID
  2
ACADM_2DVIEW_IGN_NOTIFY
 70
     0
  0
APPID
  2
GEVID1240528328
 70
     0
  0
APPID
  2
GEVID1240528329
 70
     0
  0
APPID
  2
GEVRADREF
 70
     0
  0
APPID
  2
GEVID1240528330
 70
     0
  0
APPID
  2
GEVID1240528331
 70
     0
  0
APPID
  2
GEVID1240528332
 70
     0
  0
APPID
  2
GEVID1240791080
 70
     0
  0
APPID
  2
GEVID1240791081
 70
     0
  0
APPID
  2
GEVID1240791082
 70
     0
  0
APPID
  2
GEVID1240791083
 70
     0
  0
APPID
  2
GEVID1240791084
 70
     0
  0
APPID
  2
GEVID1240791085
 70
     0
  0
APPID
  2
GEVID1240791086
 70
     0
  0
APPID
  2
GEVID1240791087
 70
     0
  0
APPID
  2
GEVID1240791088
 70
     0
  0
APPID
  2
GEVID1240791089
 70
     0
  0
APPID
  2
GEVID1240791090
 70
     0
  0
APPID
  2
GEVID1240791091
 70
     0
  0
APPID
  2
GEVID1240791092
 70
     0
  0
APPID
  2
GEVID1240791093
 70
     0
  0
APPID
  2
GEVID1240791094
 70
     0
  0
APPID
  2
GEVID1240791095
 70
     0
  0
APPID
  2
GEVID1240791096
 70
     0
  0
APPID
  2
GEVID1240791097
 70
     0
  0
APPID
  2
GEVID1240791098
 70
     0
  0
APPID
  2
GEVID1240791099
 70
     0
  0
APPID
  2
GEVID1240791100
 70
     0
  0
APPID
  2
GEVID1240791101
 70
     0
  0
APPID
  2
GEVID1240791102
 70
     0
  0
APPID
  2
GEVID1240791103
 70
     0
  0
APPID
  2
GEVID1240791104
 70
     0
  0
APPID
  2
GEVID1240791105
 70
     0
  0
APPID
  2
GEVID1240875381
 70
     0
  0
APPID
  2
GEVID1240875382
 70
     0
  0
APPID
  2
GEVID1240875383
 70
     0
  0
APPID
  2
GEVID1240875384
 70
     0
  0
APPID
  2
GEVID1240875385
 70
     0
  0
APPID
  2
GEVID1240875386
 70
     0
  0
APPID
  2
GEVID1240875387
 70
     0
  0
APPID
  2
GEVID1240875388
 70
     0
  0
APPID
  2
GEVID1240875389
 70
     0
  0
APPID
  2
GEVID1240875390
 70
     0
  0
APPID
  2
GEVID1240875391
 70
     0
  0
APPID
  2
GEVID1240875392
 70
     0
  0
APPID
  2
GEVID1240875393
 70
     0
  0
APPID
  2
GEVID1240875394
 70
     0
  0
APPID
  2
GEVID1240875395
 70
     0
  0
APPID
  2
GEVID1240875396
 70
     0
  0
APPID
  2
GEVID1240875397
 70
     0
  0
APPID
  2
GEVID1240875398
 70
     0
  0
APPID
  2
GEVID1240875399
 70
     0
  0
APPID
  2
GEVID1240908996
 70
     0
  0
APPID
  2
GEVID1240908997
 70
     0
  0
APPID
  2
GEVID1240908998
 70
     0
  0
APPID
  2
GEVID1240908999
 70
     0
  0
APPID
  2
GEVID1240909000
 70
     0
  0
APPID
  2
GENIUS_GENOBJ-N-ZOO_13
 70
     0
  0
APPID
  2
GENIUS_GENZOO_17
 70
     0
  0
APPID
  2
ACAD_DSTYLE_DIMRADIAL_EXTENSION
 70
     0
  0
APPID
  2
GENIUS_GE3SECT_13
 70
     0
  0
APPID
  2
GEV_VCCNULL_SWITCH_OFF
 70
     0
  0
APPID
  2
ACAD_DSTYLE_DIMTALN
 70
     0
  0
APPID
  2
CONTENTBLOCKDESCRIPTION
 70
     0
  0
ENDTAB
  0
TABLE
  2
DIMSTYLE
 70
    22
  0
DIMSTYLE
  2
AM_ANSI
 70
     0
  3

  4
"
  5

  6

  7

 40
1.0
 41
2.5
 42
1.0
 43
10.0
 44
1.0
 45
0.0
 46
0.0
 47
0.1
 48
0.1
140
3.5
141
0.0
142
0.0
143
0.0393701
144
1.0
145
0.0
146
0.71
147
1.5
 71
     0
 72
     0
 73
     1
 74
     1
 75
     0
 76
     0
 77
     0
 78
     8
170
     0
171
     2
172
     0
173
     0
174
     0
175
     0
176
     2
177
     2
178
     4
  0
DIMSTYLE
  2
AM_ANSI$3
 70
     0
  3

  4
"
  5

  6

  7

 40
1.0
 41
2.5
 42
1.0
 43
10.0
 44
1.0
 45
0.0
 46
0.0
 47
0.1
 48
0.1
140
3.5
141
0.0
142
0.0
143
0.0393701
144
1.0
145
0.0
146
0.71
147
1.5
 71
     0
 72
     0
 73
     1
 74
     1
 75
     0
 76
     0
 77
     0
 78
     8
170
     0
171
     2
172
     0
173
     0
174
     0
175
     0
176
     2
177
     2
178
     4
  0
DIMSTYLE
  2
AM_ANSI$4
 70
     0
  3

  4
"
  5

  6

  7

 40
1.0
 41
2.5
 42
1.0
 43
10.0
 44
1.0
 45
0.0
 46
0.0
 47
0.1
 48
0.1
140
3.5
141
0.0
142
0.0
143
0.0393701
144
1.0
145
0.0
146
0.71
147
1.5
 71
     0
 72
     0
 73
     1
 74
     1
 75
     0
 76
     0
 77
     0
 78
     8
170
     0
171
     2
172
     0
173
     0
174
     0
175
     0
176
     2
177
     2
178
     4
  0
DIMSTYLE
  2
AM_ANSI$7
 70
     0
  3

  4
"
  5

  6

  7

 40
1.0
 41
2.5
 42
1.0
 43
10.0
 44
1.0
 45
0.0
 46
0.0
 47
0.1
 48
0.1
140
5.0
141
0.0
142
0.0
143
0.0393701
144
1.0
145
0.0
146
0.71
147
1.5
 71
     0
 72
     0
 73
     1
 74
     1
 75
     0
 76
     0
 77
     0
 78
     8
170
     0
171
     2
172
     0
173
     0
174
     0
175
     0
176
     2
177
     2
178
     4
  0
DIMSTYLE
  2
AM_ANSI$SF
 70
     0
  3

  4
"
  5

  6

  7

 40
1.0
 41
2.5
 42
1.0
 43
10.0
 44
1.0
 45
0.0
 46
0.0
 47
0.1
 48
0.1
140
3.5
141
0.0
142
0.0
143
0.0393701
144
1.0
145
0.0
146
0.71
147
1.5
 71
     0
 72
     0
 73
     1
 74
     1
 75
     1
 76
     1
 77
     0
 78
     8
170
     0
171
     2
172
     0
173
     0
174
     0
175
     0
176
     2
177
     2
178
     4
  0
DIMSTYLE
  2
AM_ANSI$SH
 70
     0
  3

  4
"
  5

  6
GENAXEH
  7

 40
1.0
 41
2.5
 42
1.0
 43
10.0
 44
1.0
 45
0.0
 46
0.0
 47
0.1
 48
0.1
140
3.5
141
0.0
142
0.0
143
0.0393701
144
1.0
145
0.0
146
0.71
147
1.5
 71
     0
 72
     0
 73
     1
 74
     1
 75
     1
 76
     1
 77
     0
 78
     8
170
     0
171
     2
172
     0
173
     1
174
     0
175
     0
176
     2
177
     2
178
     4
  0
DIMSTYLE
  2
AM_ISO
 70
     0
  3

  4
"
  5

  6

  7

 40
1.0
 41
2.5
 42
1.0
 43
10.0
 44
1.0
 45
0.0
 46
0.0
 47
0.1
 48
0.1
140
3.5
141
0.0
142
0.0
143
0.0393701
144
1.0
145
0.0
146
0.71
147
1.5
 71
     0
 72
     0
 73
     0
 74
     0
 75
     0
 76
     0
 77
     1
 78
     8
170
     0
171
     2
172
     1
173
     0
174
     0
175
     0
176
   256
177
   256
178
     2
  0
DIMSTYLE
  2
AM_ISO$3
 70
     0
  3

  4
"
  5

  6

  7

 40
1.0
 41
2.5
 42
1.0
 43
10.0
 44
1.0
 45
0.0
 46
0.0
 47
0.1
 48
0.1
140
3.5
141
0.0
142
0.0
143
0.0393701
144
1.0
145
0.0
146
0.71
147
1.5
 71
     0
 72
     0
 73
     0
 74
     1
 75
     0
 76
     0
 77
     1
 78
     8
170
     0
171
     2
172
     0
173
     0
174
     0
175
     0
176
   256
177
   256
178
     2
  0
DIMSTYLE
  2
AM_ISO$4
 70
     0
  3

  4
"
  5

  6

  7

 40
1.0
 41
2.5
 42
1.0
 43
10.0
 44
1.0
 45
0.0
 46
0.0
 47
0.1
 48
0.1
140
3.5
141
0.0
142
0.0
143
0.0393701
144
1.0
145
0.0
146
0.71
147
1.5
 71
     0
 72
     0
 73
     0
 74
     1
 75
     0
 76
     0
 77
     1
 78
     8
170
     0
171
     2
172
     0
173
     0
174
     0
175
     0
176
   256
177
   256
178
     2
  0
DIMSTYLE
  2
AM_ISO$6
 70
     0
  3

  4
"
  5

  6

  7

 40
1.0
 41
2.5
 42
1.0
 43
10.0
 44
1.0
 45
0.0
 46
0.0
 47
0.1
 48
0.1
140
3.5
141
0.0
142
0.0
143
0.0393701
144
1.0
145
0.0
146
0.71
147
1.5
 71
     0
 72
     0
 73
     0
 74
     0
 75
     0
 76
     0
 77
     0
 78
     8
170
     0
171
     2
172
     1
173
     0
174
     0
175
     0
176
   256
177
   256
178
     2
  0
DIMSTYLE
  2
AM_ISO$7
 70
     0
  3

  4
"
  5

  6

  7

 40
1.0
 41
2.5
 42
1.0
 43
10.0
 44
1.0
 45
0.0
 46
0.0
 47
0.1
 48
0.1
140
5.0
141
0.0
142
0.0
143
0.0393701
144
1.0
145
0.0
146
0.71
147
1.5
 71
     0
 72
     0
 73
     0
 74
     0
 75
     0
 76
     0
 77
     1
 78
     8
170
     0
171
     2
172
     1
173
     0
174
     0
175
     0
176
   256
177
   256
178
     2
  0
DIMSTYLE
  2
AM_ISO$SF
 70
     0
  3

  4
"
  5

  6

  7

 40
1.0
 41
2.5
 42
1.0
 43
10.0
 44
1.0
 45
0.0
 46
0.0
 47
0.1
 48
0.1
140
3.5
141
0.0
142
0.0
143
0.0393701
144
1.0
145
0.0
146
0.71
147
1.5
 71
     0
 72
     0
 73
     0
 74
     0
 75
     1
 76
     1
 77
     1
 78
     8
170
     0
171
     2
172
     1
173
     0
174
     0
175
     0
176
   256
177
   256
178
     2
  0
DIMSTYLE
  2
AM_ISO$SH
 70
     0
  3

  4
"
  5

  6
GENAXEH
  7

 40
1.0
 41
2.5
 42
1.0
 43
10.0
 44
1.0
 45
0.0
 46
0.0
 47
0.1
 48
0.1
140
3.5
141
0.0
142
0.0
143
0.0393701
144
2.0
145
0.0
146
0.71
147
1.5
 71
     0
 72
     0
 73
     0
 74
     0
 75
     1
 76
     1
 77
     1
 78
     8
170
     0
171
     2
172
     1
173
     1
174
     0
175
     0
176
   256
177
   256
178
     2
  0
DIMSTYLE
  2
AM_JIS
 70
     0
  3

  4
"
  5

  6

  7

 40
1.0
 41
2.0
 42
1.0
 43
8.0
 44
1.0
 45
0.0
 46
0.0
 47
0.1
 48
0.1
140
2.5
141
0.0
142
0.0
143
0.0393701
144
1.0
145
0.0
146
0.71
147
1.5
 71
     0
 72
     0
 73
     0
 74
     0
 75
     0
 76
     0
 77
     3
 78
     8
170
     0
171
     2
172
     1
173
     0
174
     0
175
     0
176
     2
177
     2
178
     4
  0
DIMSTYLE
  2
AM_JIS$3
 70
     0
  3

  4
"
  5

  6

  7

 40
1.0
 41
2.0
 42
1.0
 43
10.0
 44
1.0
 45
0.0
 46
0.0
 47
0.1
 48
0.1
140
2.5
141
0.0
142
0.0
143
0.0393701
144
1.0
145
0.0
146
0.71
147
1.5
 71
     0
 72
     0
 73
     0
 74
     1
 75
     0
 76
     0
 77
     3
 78
     8
170
     0
171
     2
172
     0
173
     0
174
     0
175
     0
176
     2
177
     2
178
     4
  0
DIMSTYLE
  2
AM_JIS$4
 70
     0
  3

  4
"
  5

  6

  7

 40
1.0
 41
2.0
 42
1.0
 43
10.0
 44
1.0
 45
0.0
 46
0.0
 47
0.1
 48
0.1
140
2.5
141
0.0
142
0.0
143
0.0393701
144
1.0
145
0.0
146
0.71
147
1.5
 71
     0
 72
     0
 73
     0
 74
     0
 75
     0
 76
     0
 77
     3
 78
     8
170
     0
171
     2
172
     0
173
     0
174
     0
175
     0
176
     2
177
     2
178
     4
  0
DIMSTYLE
  2
AM_JIS$6
 70
     0
  3

  4
"
  5

  6

  7

 40
1.0
 41
2.0
 42
1.0
 43
10.0
 44
1.0
 45
0.0
 46
0.0
 47
0.1
 48
0.1
140
2.5
141
0.0
142
0.0
143
0.0393701
144
1.0
145
0.0
146
0.71
147
1.5
 71
     0
 72
     0
 73
     0
 74
     0
 75
     0
 76
     0
 77
     0
 78
     8
170
     0
171
     2
172
     1
173
     0
174
     0
175
     0
176
     2
177
     2
178
     4
  0
DIMSTYLE
  2
AM_JIS$7
 70
     0
  3

  4
"
  5

  6
OPEN30
  7
OPEN30
 40
1.0
 41
2.0
 42
1.0
 43
10.0
 44
1.0
 45
0.0
 46
0.0
 47
0.1
 48
0.1
140
2.5
141
0.0
142
0.0
143
0.0393701
144
1.0
145
0.0
146
0.71
147
1.5
 71
     0
 72
     0
 73
     0
 74
     0
 75
     0
 76
     0
 77
     3
 78
     8
170
     0
171
     2
172
     1
173
     0
174
     0
175
     0
176
     2
177
     2
178
     4
  0
DIMSTYLE
  2
AM_JIS$SF
 70
     0
  3

  4
"
  5

  6

  7

 40
1.0
 41
2.0
 42
1.0
 43
10.0
 44
1.0
 45
0.0
 46
0.0
 47
0.1
 48
0.1
140
2.5
141
0.0
142
0.0
143
0.0393701
144
1.0
145
0.0
146
0.71
147
1.5
 71
     0
 72
     0
 73
     0
 74
     0
 75
     1
 76
     1
 77
     3
 78
     8
170
     0
171
     2
172
     1
173
     0
174
     0
175
     0
176
     2
177
     2
178
     4
  0
DIMSTYLE
  2
AM_JIS$SH
 70
     0
  3

  4
"
  5

  6
GENAXEH
  7

 40
1.0
 41
2.0
 42
1.0
 43
10.0
 44
1.0
 45
0.0
 46
0.0
 47
0.1
 48
0.1
140
2.5
141
0.0
142
0.0
143
0.0393701
144
2.0
145
0.0
146
0.71
147
1.5
 71
     0
 72
     0
 73
     0
 74
     0
 75
     1
 76
     1
 77
     3
 78
     8
170
     0
171
     2
172
     1
173
     1
174
     0
175
     0
176
     2
177
     2
178
     4
  0
DIMSTYLE
  2
AM_JIS$0
 70
     0
  3

  4
"
  5

  6

  7

 40
1.0
 41
2.0
 42
1.0
 43
8.0
 44
1.0
 45
0.0
 46
0.0
 47
0.1
 48
0.1
140
2.5
141
0.0
142
0.0
143
0.0393701
144
1.0
145
0.0
146
0.71
147
1.5
 71
     0
 72
     0
 73
     0
 74
     0
 75
     0
 76
     0
 77
     3
 78
     8
170
     0
171
     2
172
     1
173
     0
174
     0
175
     0
176
     2
177
     2
178
     4
  0
DIMSTYLE
  2
STANDARD
 70
     0
  3

  4

  5

  6

  7

 40
1.0
 41
0.18
 42
0.0625
 43
0.38
 44
0.18
 45
0.0
 46
0.0
 47
0.0
 48
0.0
140
0.18
141
0.09
142
0.0
143
25.399999999999999
144
1.0
145
0.0
146
1.0
147
0.09
 71
     0
 72
     0
 73
     1
 74
     1
 75
     0
 76
     0
 77
     0
 78
     0
170
     0
171
     2
172
     0
173
     0
174
     0
175
     0
176
     0
177
     0
178
     0
  0
ENDTAB
  0
ENDSEC
  0
SECTION
  2
BLOCKS
  0
BLOCK
  8
0
  2
$MODEL_SPACE
 70
     0
 10
0.0
 20
0.0
 30
0.0
  3
$MODEL_SPACE
  1

  0
ENDBLK
  5
77
  8
0
  0
BLOCK
 67
     1
  8
0
  2
$PAPER_SPACE
 70
     0
 10
0.0
 20
0.0
 30
0.0
  3
$PAPER_SPACE
  1

  0
ENDBLK
  5
73
 67
     1
  8
0
  0
BLOCK
  8
0
  2
GENAXEH
 70
     0
 10
0.0
 20
0.0
 30
0.0
  3
GENAXEH
  1

  0
LINE
  5
83E6
  8
0
 10
-1.0
 20
0.0
 30
0.0
 11
1.0
 21
0.0
 31
0.0
  0
ENDBLK
  5
83E7
  8
0
  0
BLOCK
  8
0
  2
_OPEN30
 70
     0
 10
0.0
 20
0.0
 30
0.0
  3
_OPEN30
  1

  0
LINE
  5
842D
  8
0
  6
BYBLOCK
 62
     0
 10
-1.0
 20
0.26794919
 30
0.0
 11
0.0
 21
0.0
 31
0.0
  0
LINE
  5
842E
  8
0
  6
BYBLOCK
 62
     0
 10
0.0
 20
0.0
 30
0.0
 11
-1.0
 21
-0.26794919
 31
0.0
  0
LINE
  5
842F
  8
0
  6
BYBLOCK
 62
     0
 10
0.0
 20
0.0
 30
0.0
 11
-1.0
 21
0.0
 31
0.0
  0
ENDBLK
  5
8430
  8
0
  0
BLOCK
  8
0
  2
_ACMFILLEDHALF
 70
     0
 10
0.0
 20
0.0
 30
0.0
  3
_ACMFILLEDHALF
  1

  0
TRACE
  5
8533
  8
0
  6
CONTINUOUS
 62
     0
 10
-0.8
 20
0.0
 30
0.0
 11
-1.0
 21
0.166666666
 31
0.0
 12
0.0
 22
0.0
 32
0.0
 13
0.0
 23
0.0
 33
0.0
  0
LINE
  5
8534
  8
0
  6
CONTINUOUS
 62
     0
 10
-1.0
 20
0.0
 30
0.0
 11
-0.8
 21
0.0
 31
0.0
  0
ENDBLK
  5
8535
  8
0
  0
BLOCK
  8
0
  2
*U7
 70
     1
 10
0.0
 20
0.0
 30
0.0
  3
*U7
  1

  0
TEXT
  5
85CF
  8
0
 62
     0
 10
5.1211371559201648
 20
5.9826223594979657
 30
0.0
 40
15.0
  1
ＶＸ０８－００３ＥＭ～ＶＸ０８－０３０ＥＭ
 41
0.7400000000000003
  0
ENDBLK
  5
85D1
  8
0
  0
ENDSEC
  0
SECTION
  2
ENTITIES
  0
LINE
  5
6089
  8
0
  6
AM_ISO08W050
 10
133.25546312545791
 20
527.8044310150201
 30
0.0
 11
455.67887138889239
 21
527.8044310150201
 31
0.0
  0
LINE
  5
608A
  8
0
  6
AM_ISO08W050
 10
446.1910576132305
 20
565.80443101501999
 30
0.0
 11
685.90568661480575
 21
565.80443101501999
 31
0.0
  0
LINE
  5
622D
  8
0
 10
421.96119861918328
 20
442.80443101501959
 30
0.0
 11
457.60084617387417
 21
441.55987095518481
 31
0.0
  0
ARC
  5
622F
  8
0
 10
457.46124861918298
 20
437.56230763201859
 30
0.0
 40
4.0
 50
0.0
 51
88.000006193419608
1001
GENIUS_GENODEF_13
1002
{
1000
HIER
1070
     0
1002
}
1002
{
1000
MANEDIT
1070
     0
1002
}
1002
{
1000
NOSEL
1070
     0
1002
}
1002
{
1000
BEHIND
1070
     0
1002
}
1002
{
1000
OTHER
1070
     0
1002
}
1002
{
1000
REACTOR
1002
}
1001
GENIUS_GENOBJ-N-FIL_13
1002
{
1000
OWNER
1000
GEN
1002
}
  0
LINE
  5
6231
  8
0
 10
421.96119861918328
 20
612.8044310150201
 30
0.0
 11
457.60084397241297
 21
614.04897134726889
 31
0.0
  0
ARC
  5
6235
  8
0
 10
457.46124861918298
 20
618.04653474731094
 30
0.0
 40
4.0
 50
271.99996225375321
 51
0.0
1001
GENIUS_GENOBJ-N-FIL_13
1002
{
1000
OWNER
1000
GEN
1002
}
1001
GENIUS_GENODEF_13
1002
{
1000
HIER
1070
     0
1002
}
1002
{
1000
MANEDIT
1070
     0
1002
}
1002
{
1000
NOSEL
1070
     0
1002
}
1002
{
1000
BEHIND
1070
     0
1002
}
1002
{
1000
OTHER
1070
     0
1002
}
1002
{
1000
REACTOR
1002
}
  0
ARC
  5
6F4E
  8
0
  6
CONTINUOUS
 10
143.46119861918339
 20
428.60443101502011
 30
0.0
 40
2.0
 50
180.0
 51
270.0
  0
LINE
  5
6F50
  8
0
  6
CONTINUOUS
 10
214.46119861918339
 20
628.60443101502005
 30
0.0
 11
214.46119861918339
 21
426.60443101502011
 31
0.0
  0
ARC
  5
6F51
  8
0
  6
CONTINUOUS
 10
143.86119861918331
 20
613.58124601502004
 30
0.0
 40
2.399999999999999
 50
160.0000000000035
 51
180.0
  0
ARC
  5
6F52
  8
0
  6
CONTINUOUS
 10
148.45566261918341
 20
626.20443101502008
 30
0.0
 40
2.399999999999999
 50
90.0
 51
160.0000000000035
  0
LINE
  5
6F53
  8
0
  6
CONTINUOUS
 10
146.2003996191834
 20
627.02527901502003
 30
0.0
 11
141.6059366191833
 21
614.40209501502011
 31
0.0
  0
LINE
  5
6F54
  8
0
 10
146.77516361918339
 20
627.91788501502015
 30
0.0
 11
146.77516361918339
 21
426.60443101502011
 31
0.0
  0
LINE
  5
6F55
  8
0
  6
CONTINUOUS
 10
141.46119861918339
 20
613.58124601502004
 30
0.0
 11
141.46119861918339
 21
428.60443101502011
 31
0.0
  0
LINE
  5
6F56
  8
0
  6
CONTINUOUS
 10
214.46119861918339
 20
628.60443101502005
 30
0.0
 11
148.45566261918341
 21
628.60443101502005
 31
0.0
  0
ARC
  5
6F57
  8
0
  6
CONTINUOUS
 10
314.96119861918339
 20
-31.04554498497988
 30
0.0
 40
600.59997599999986
 50
86.033759999997386
 51
93.836910000000643
  0
ARC
  5
6F58
  8
0
  6
CONTINUOUS
 10
275.14580361918343
 20
562.62083001502015
 30
0.0
 40
5.5999980000000003
 50
93.837062000000643
 51
179.99998200000081
  0
ARC
  5
6F59
  8
0
  6
CONTINUOUS
 10
277.20960361918333
 20
562.75563301501995
 30
0.0
 40
5.5999980000000003
 50
93.638055999997619
 51
179.99998200000081
  0
ARC
  5
6F5A
  8
0
  6
CONTINUOUS
 10
268.03780161918343
 20
527.8044310150201
 30
0.0
 40
15.000002
 50
310.58999199999971
 51
49.409702000001012
  0
ARC
  5
6F5B
  8
0
  6
CONTINUOUS
 10
314.96119861918339
 20
-31.04554498497988
 30
0.0
 40
596.09997599999986
 50
86.443289999999465
 51
93.315089000003056
  0
ARC
  5
6F5C
  8
0
  6
CONTINUOUS
 10
270.99714661918352
 20
527.8044310150201
 30
0.0
 40
14.0
 50
317.10021800000243
 51
42.899781999997558
  0
ARC
  5
6F5D
  8
0
  6
CONTINUOUS
 10
283.15740161918347
 20
539.10435101502003
 30
0.0
 40
2.6000000000000001
 50
180.0
 51
222.8997819999976
  0
LINE
  5
6F5E
  8
0
  6
CONTINUOUS
 10
277.09870361918342
 20
560.46303101501985
 30
0.0
 11
277.09870361918342
 21
540.71393101501985
 31
0.0
  0
LINE
  5
6F5F
  8
0
  6
CONTINUOUS
 10
280.55740161918351
 20
539.10435101502003
 30
0.0
 11
280.55740161918351
 21
557.38672901502014
 31
0.0
  0
ARC
  5
6F60
  8
0
  6
CONTINUOUS
 10
280.6987016191834
 20
560.46303101501985
 30
0.0
 40
3.5999979999999998
 50
93.315005000002998
 51
179.99998200000081
  0
ARC
  5
6F61
  8
0
  6
CONTINUOUS
 10
279.09870361918342
 20
540.71393101501985
 30
0.0
 40
1.999997
 50
179.99998200000081
 51
229.4100490000026
  0
LINE
  5
6F62
  8
0
  6
CONTINUOUS
 10
269.5458006191833
 20
562.62083101502003
 30
0.0
 11
269.5458006191833
 21
492.98802701501978
 31
0.0
  0
LINE
  5
6F63
  8
0
  6
CONTINUOUS
 10
271.60960161918331
 20
562.75563501501995
 30
0.0
 11
271.60960161918331
 21
492.8532270150198
 31
0.0
  0
LINE
  5
6F64
  8
0
  6
CONTINUOUS
 10
280.55740161918351
 20
495.27223501501999
 30
0.0
 11
280.55740161918351
 21
516.50451101502006
 31
0.0
  0
LINE
  5
6F65
  8
0
  6
CONTINUOUS
 10
277.09870361918342
 20
495.14169201502011
 30
0.0
 11
277.09870361918342
 21
514.89493501502011
 31
0.0
  0
ARC
  5
6F66
  8
0
  6
CONTINUOUS
 10
283.15740161918347
 20
516.50451101502006
 30
0.0
 40
2.6000000000000001
 50
137.1002180000024
 51
180.0
  0
ARC
  5
6F67
  8
0
  6
CONTINUOUS
 10
279.09870361918342
 20
514.89493501502011
 30
0.0
 40
2.0
 50
130.59005899999829
 51
179.99998200000081
  0
ARC
  5
6F68
  8
0
  6
CONTINUOUS
 10
314.96119861918339
 20
1086.6544070150201
 30
0.0
 40
596.09997599999986
 50
266.6850579999973
 51
273.55700699999932
  0
ARC
  5
6F69
  8
0
  6
CONTINUOUS
 10
280.6987016191834
 20
495.14583501502
 30
0.0
 40
3.6000009999999998
 50
180.00007799999869
 51
266.68501400000298
  0
ARC
  5
6F6A
  8
0
  6
CONTINUOUS
 10
314.96119861918339
 20
1086.6544070150201
 30
0.0
 40
600.59997599999986
 50
266.16305400000141
 51
273.96601299999787
  0
ARC
  5
6F6B
  8
0
  6
CONTINUOUS
 10
275.14580361918343
 20
492.98803201502022
 30
0.0
 40
5.600000999999998
 50
180.00005699999531
 51
266.1630369999973
  0
ARC
  5
6F6C
  8
0
  6
CONTINUOUS
 10
277.20960361918333
 20
492.85323201502013
 30
0.0
 40
5.5999989999999968
 50
180.00005699999531
 51
266.36204099999878
  0
ARC
  5
6F6D
  8
0
  6
CONTINUOUS
 10
356.25530461918328
 20
564.52443201502012
 30
0.0
 40
3.5999989999999982
 50
0.0000179999992061
 51
86.033744000000837
  0
LINE
  5
6F6E
  8
0
  6
CONTINUOUS
 10
351.43830261918328
 20
494.49993401502007
 30
0.0
 11
351.43830261918328
 21
561.10893601502005
 31
0.0
  0
LINE
  5
6F6F
  8
0
  6
CONTINUOUS
 10
354.75530461918328
 20
494.69673401502013
 30
0.0
 11
354.75530461918328
 21
560.91644801502002
 31
0.0
  0
ARC
  5
6F70
  8
0
  6
CONTINUOUS
 10
351.75530461918328
 20
560.91213501502011
 30
0.0
 40
3.0000029999999982
 50
0.0000179999992061
 51
86.4432529999997
  0
ARC
  5
6F71
  8
0
  6
CONTINUOUS
 10
348.4383026191835
 20
561.10893501502005
 30
0.0
 40
2.9999989999999999
 50
0.0000179999992061
 51
86.764376000000055
  0
LINE
  5
6F72
  8
0
  6
CONTINUOUS
 10
359.85529461918333
 20
491.0737500150201
 30
0.0
 11
359.85529461918333
 21
564.53229301501995
 31
0.0
  0
ARC
  5
6F73
  8
0
  6
CONTINUOUS
 10
348.4383026191835
 20
494.49993401502007
 30
0.0
 40
3.0
 50
273.23604299999818
 51
0.0000179999992061
  0
ARC
  5
6F74
  8
0
  6
CONTINUOUS
 10
356.25530461918328
 20
491.08423101502012
 30
0.0
 40
3.6000059999999978
 50
273.96599899999779
 51
0.0000179999992061
  0
ARC
  5
6F75
  8
0
  6
CONTINUOUS
 10
351.75530461918328
 20
494.69673401502013
 30
0.0
 40
3.0
 50
273.55702100000269
 51
0.0000179999992061
  0
LINE
  5
6F76
  8
0
  6
CONTINUOUS
 10
366.9180746191833
 20
576.98943101502005
 30
0.0
 11
366.9180746191833
 21
556.62443101502004
 31
0.0
  0
LINE
  5
6F77
  8
0
  6
CONTINUOUS
 10
382.96119761918328
 20
576.98943101502005
 30
0.0
 11
382.96119761918328
 21
556.62443101502004
 31
0.0
  0
LINE
  5
6F78
  8
0
  6
CONTINUOUS
 10
397.5105936191834
 20
471.78363501501991
 30
0.0
 11
382.96119761918328
 21
471.78363501501991
 31
0.0
  0
LINE
  5
6F79
  8
0
  6
CONTINUOUS
 10
402.46119861918328
 20
483.19598501502009
 30
0.0
 11
382.96119761918328
 21
483.19598501502009
 31
0.0
  0
LINE
  5
6F7A
  8
0
  6
CONTINUOUS
 10
367.6665956191834
 20
476.49872501502011
 30
0.0
 11
382.96119861918328
 21
471.78363501501991
 31
0.0
  0
LINE
  5
6F7B
  8
0
  6
CONTINUOUS
 10
382.96119861918328
 20
483.19598501502009
 30
0.0
 11
367.92525761918341
 21
482.65523401501991
 31
0.0
  0
ARC
  5
6F7C
  8
0
  6
CONTINUOUS
 10
367.96119861918328
 20
481.65588001501987
 30
0.0
 40
1.0
 50
92.059690999997088
 51
180.0
  0
ARC
  5
6F7D
  8
0
  6
CONTINUOUS
 10
367.96119861918328
 20
477.45434501502012
 30
0.0
 40
1.0
 50
180.0
 51
252.8662750000021
  0
LINE
  5
6F7E
  8
0
  6
CONTINUOUS
 10
382.96119861918328
 20
603.65721801502013
 30
0.0
 11
367.66073961918352
 21
598.83735201502009
 31
0.0
  0
ARC
  5
6F7F
  8
0
  6
CONTINUOUS
 10
367.96119861918328
 20
597.88355701501996
 30
0.0
 40
1.0
 50
107.485179
 51
180.0
  0
ARC
  5
6F80
  8
0
  6
CONTINUOUS
 10
367.96119861918328
 20
595.53249201502013
 30
0.0
 40
1.0
 50
180.0
 51
270.0
  0
LINE
  5
6F81
  8
0
  6
CONTINUOUS
 10
368.0097536191833
 20
594.5336710150201
 30
0.0
 11
382.96119861918328
 21
595.26049101501985
 31
0.0
  0
LINE
  5
6F82
  8
0
  6
CONTINUOUS
 10
402.46119861918328
 20
595.26049101501985
 30
0.0
 11
382.96119861918328
 21
595.26049101501985
 31
0.0
  0
LINE
  5
6F83
  8
0
  6
CONTINUOUS
 10
325.96119861918339
 20
626.09092401502005
 30
0.0
 11
413.40838361918333
 21
626.09092401502005
 31
0.0
  0
ARC
  5
6F84
  8
0
  6
CONTINUOUS
 10
237.22544361918341
 20
624.09092401502016
 30
0.0
 40
2.0
 50
90.0
 51
156.10180000000051
  0
ARC
  5
6F85
  8
0
  6
CONTINUOUS
 10
413.40838361918333
 20
624.09092401502016
 30
0.0
 40
2.0
 50
10.000001999998901
 51
90.0
  0
LINE
  5
6F86
  8
0
  6
CONTINUOUS
 10
416.96119861918328
 20
615.45944801502014
 30
0.0
 11
415.37799861918342
 21
624.43822101502019
 31
0.0
  0
LINE
  5
6F87
  8
0
  6
CONTINUOUS
 10
416.70039061918328
 20
615.45944801502014
 30
0.0
 11
416.96119861918328
 21
615.45944801502014
 31
0.0
  0
ARC
  5
6F88
  8
0
  6
CONTINUOUS
 10
222.29241361918349
 20
622.90115001502011
 30
0.0
 40
2.0
 50
90.0
 51
169.99999800000111
  0
LINE
  5
6F89
  8
0
  6
CONTINUOUS
 10
217.96119861918339
 20
609.85514701502007
 30
0.0
 11
220.3227986191834
 21
623.24844701502013
 31
0.0
  0
ARC
  5
6F8A
  8
0
  6
CONTINUOUS
 10
413.35736461918327
 20
622.90115001502011
 30
0.0
 40
2.0
 50
10.000001999998901
 51
90.0
  0
LINE
  5
6F8B
  8
0
  6
CONTINUOUS
 10
416.96119861918328
 20
613.98033001502017
 30
0.0
 11
415.32697961918342
 21
623.24844701502013
 31
0.0
  0
LINE
  5
6F8C
  8
0
  6
CONTINUOUS
 10
217.96119861918339
 20
609.85514701502007
 30
0.0
 11
218.52910461918341
 21
609.85514701502007
 31
0.0
  0
LINE
  5
6F8D
  8
0
  6
CONTINUOUS
 10
416.42522761918337
 20
613.98033001502017
 30
0.0
 11
416.96119861918328
 21
613.98033001502017
 31
0.0
  0
ARC
  5
6F8E
  8
0
  6
CONTINUOUS
 10
413.27150961918329
 20
620.34841601502012
 30
0.0
 40
2.0
 50
10.00000100000196
 51
90.0
  0
ARC
  5
6F8F
  8
0
  6
CONTINUOUS
 10
222.4102046191833
 20
620.34841601502012
 30
0.0
 40
2.0
 50
90.0
 51
169.9999989999979
  0
LINE
  5
6F90
  8
0
  6
CONTINUOUS
 10
217.96119861918339
 20
606.63439101502013
 30
0.0
 11
220.4405886191835
 21
620.69571201502004
 31
0.0
  0
ARC
  5
6F91
  8
0
  6
CONTINUOUS
 10
222.5913456191833
 20
616.38323101501987
 30
0.0
 40
2.0
 50
90.0
 51
170.00000000000139
  0
LINE
  5
6F92
  8
0
  6
CONTINUOUS
 10
217.96119861918339
 20
601.64190601502014
 30
0.0
 11
220.62172961918341
 21
616.73052701502013
 31
0.0
  0
ARC
  5
6F93
  8
0
  6
CONTINUOUS
 10
222.87257361918341
 20
610.80580301502016
 30
0.0
 40
2.0
 50
90.0
 51
170.00000000000139
  0
LINE
  5
6F94
  8
0
  6
CONTINUOUS
 10
217.96119861918339
 20
594.46955401502009
 30
0.0
 11
220.9029576191833
 21
611.15310001502007
 31
0.0
  0
ARC
  5
6F95
  8
0
  6
CONTINUOUS
 10
222.96783761918331
 20
604.80513601502003
 30
0.0
 40
2.0
 50
90.0
 51
169.9999989999979
  0
LINE
  5
6F96
  8
0
  6
CONTINUOUS
 10
217.96119861918339
 20
587.92861801501999
 30
0.0
 11
220.99822161918351
 21
605.15243201501994
 31
0.0
  0
LINE
  5
6F97
  8
0
  6
CONTINUOUS
 10
416.83293961918332
 20
611.66808001501988
 30
0.0
 11
415.24112461918321
 21
620.69571201502004
 31
0.0
  0
LINE
  5
6F98
  8
0
  6
CONTINUOUS
 10
217.96119861918339
 20
606.63439101502013
 30
0.0
 11
218.8415086191834
 21
606.63439101502013
 31
0.0
  0
ARC
  5
6F99
  8
0
  6
CONTINUOUS
 10
413.14213161918337
 20
616.38323101501987
 30
0.0
 40
2.0
 50
9.9999999999986073
 51
90.0
  0
LINE
  5
6F9A
  8
0
  6
CONTINUOUS
 10
416.0043936191833
 20
611.66808001501988
 30
0.0
 11
415.11174761918329
 21
616.73052701502013
 31
0.0
  0
ARC
  5
6F9B
  8
0
  6
CONTINUOUS
 10
348.35021661918341
 20
610.80580301502016
 30
0.0
 40
2.0
 50
5.5986529999989596
 51
90.0
  0
ARC
  5
6F9C
  8
0
  6
CONTINUOUS
 10
348.34826161918329
 20
604.80513601502003
 30
0.0
 40
2.0
 50
5.4290190000020546
 51
90.0
  0
LINE
  5
6F9D
  8
0
  6
CONTINUOUS
 10
418.96119861918328
 20
488.08172501501991
 30
0.0
 11
418.96119861918328
 21
589.87036401501985
 31
0.0
  0
LINE
  5
6F9E
  8
0
  6
CONTINUOUS
 10
418.96119861918328
 20
611.66808001501988
 30
0.0
 11
418.96119861918328
 21
615.80443101501999
 31
0.0
  0
LINE
  5
6F9F
  8
0
  6
CONTINUOUS
 10
366.9180746191833
 20
601.64190601502014
 30
0.0
 11
382.96119761918328
 21
606.24176801502006
 31
0.0
  0
LINE
  5
6FA0
  8
0
  6
CONTINUOUS
 10
351.2581136191834
 20
601.64190601502014
 30
0.0
 11
366.9180746191833
 21
601.64190601502014
 31
0.0
  0
LINE
  5
6FA1
  8
0
  6
CONTINUOUS
 10
382.96119761918328
 20
606.24176801502006
 30
0.0
 11
397.65448161918329
 21
606.24176801502006
 31
0.0
  0
ARC
  5
6FA2
  8
0
  6
CONTINUOUS
 10
399.66099761918338
 20
599.28769701501994
 30
0.0
 40
2.6003989999999999
 50
179.9999819999943
 51
269.99997799999852
  0
ARC
  5
6FA3
  8
0
  6
CONTINUOUS
 10
399.66099761918338
 20
604.58768501502016
 30
0.0
 40
2.600403
 50
90.0
 51
179.9999819999943
  0
LINE
  5
6FA4
  8
0
  6
CONTINUOUS
 10
402.46119861918328
 20
602.00371601502013
 30
0.0
 11
400.96119861918328
 21
601.13769101501987
 31
0.0
  0
LINE
  5
6FA5
  8
0
  6
CONTINUOUS
 10
402.46119861918328
 20
603.00371601502013
 30
0.0
 11
400.96119861918328
 21
602.1376910150201
 31
0.0
  0
LINE
  5
6FA6
  8
0
  6
CONTINUOUS
 10
402.46119861918328
 20
608.03769101502007
 30
0.0
 11
402.46119861918328
 21
595.83769101502014
 31
0.0
  0
LINE
  5
6FA7
  8
0
  6
CONTINUOUS
 10
400.96119861918328
 20
608.03769101502007
 30
0.0
 11
402.46119861918328
 21
608.03769101502007
 31
0.0
  0
LINE
  5
6FA8
  8
0
  6
CONTINUOUS
 10
400.96119861918328
 20
595.83769101502014
 30
0.0
 11
402.46119861918328
 21
595.83769101502014
 31
0.0
  0
LINE
  5
6FA9
  8
0
  6
CONTINUOUS
 10
397.06120461918329
 20
604.58768501502016
 30
0.0
 11
397.06120461918329
 21
599.28769701501994
 31
0.0
  0
LINE
  5
6FAA
  8
0
  6
CONTINUOUS
 10
400.96119861918328
 20
608.03769101502007
 30
0.0
 11
400.96119861918328
 21
595.83769101502014
 31
0.0
  0
LINE
  5
6FAB
  8
0
  6
CONTINUOUS
 10
400.96119861918328
 20
596.68769101502005
 30
0.0
 11
399.66099761918338
 21
596.68769101502005
 31
0.0
  0
LINE
  5
6FAC
  8
0
  6
CONTINUOUS
 10
400.96119861918328
 20
607.18769101502005
 30
0.0
 11
399.66099761918338
 21
607.18769101502005
 31
0.0
  0
ARC
  5
6FAD
  8
0
  6
CONTINUOUS
 10
399.66099761918338
 20
473.24577001502013
 30
0.0
 40
2.6003989999999999
 50
179.9999819999943
 51
269.99997799999852
  0
ARC
  5
6FAE
  8
0
  6
CONTINUOUS
 10
399.66099761918338
 20
478.54575801501989
 30
0.0
 40
2.600403
 50
90.0
 51
179.9999819999943
  0
LINE
  5
6FAF
  8
0
  6
CONTINUOUS
 10
402.46119861918328
 20
475.96178901502009
 30
0.0
 11
400.96119861918328
 21
475.09576401501999
 31
0.0
  0
LINE
  5
6FB0
  8
0
  6
CONTINUOUS
 10
402.46119861918328
 20
476.96178901501992
 30
0.0
 11
400.96119861918328
 21
476.09576401501988
 31
0.0
  0
LINE
  5
6FB1
  8
0
  6
CONTINUOUS
 10
402.46119861918328
 20
481.99576401502009
 30
0.0
 11
402.46119861918328
 21
469.7957640150201
 31
0.0
  0
LINE
  5
6FB2
  8
0
  6
CONTINUOUS
 10
400.96119861918328
 20
481.99576401502009
 30
0.0
 11
402.46119861918328
 21
481.99576401502009
 31
0.0
  0
LINE
  5
6FB3
  8
0
  6
CONTINUOUS
 10
400.96119861918328
 20
469.7957640150201
 30
0.0
 11
402.46119861918328
 21
469.7957640150201
 31
0.0
  0
LINE
  5
6FB4
  8
0
  6
CONTINUOUS
 10
397.06120461918329
 20
478.54575801501989
 30
0.0
 11
397.06120461918329
 21
473.24577001502013
 31
0.0
  0
LINE
  5
6FB5
  8
0
  6
CONTINUOUS
 10
400.96119861918328
 20
481.99576401502009
 30
0.0
 11
400.96119861918328
 21
469.7957640150201
 31
0.0
  0
LINE
  5
6FB6
  8
0
  6
CONTINUOUS
 10
400.96119861918328
 20
470.64576401501978
 30
0.0
 11
399.66099761918338
 21
470.64576401501978
 31
0.0
  0
LINE
  5
6FB7
  8
0
  6
CONTINUOUS
 10
400.96119861918328
 20
481.14576401502012
 30
0.0
 11
399.66099761918338
 21
481.14576401502012
 31
0.0
  0
LINE
  5
6FB8
  8
0
  6
CONTINUOUS
 10
416.90036861918333
 20
615.80443101501999
 30
0.0
 11
418.96119861918328
 21
615.80443101501999
 31
0.0
  0
LINE
  5
6FB9
  8
0
  6
CONTINUOUS
 10
222.5913456191833
 20
618.3832310150201
 30
0.0
 11
413.14213161918337
 21
618.3832310150201
 31
0.0
  0
LINE
  5
6FBA
  8
0
  6
CONTINUOUS
 10
222.4102046191833
 20
622.34841601502012
 30
0.0
 11
413.27150961918329
 21
622.34841601502012
 31
0.0
  0
LINE
  5
6FBB
  8
0
  6
CONTINUOUS
 10
222.29241361918349
 20
624.90115001502011
 30
0.0
 11
413.35736461918327
 21
624.90115001502011
 31
0.0
  0
LINE
  5
6FBC
  8
0
  6
CONTINUOUS
 10
214.46119861918339
 20
621.3044310150201
 30
0.0
 11
219.9800166191834
 21
621.3044310150201
 31
0.0
  0
LINE
  5
6FBD
  8
0
  6
CONTINUOUS
 10
237.22544361918341
 20
626.09092401502005
 30
0.0
 11
303.96119861918339
 21
626.09092401502005
 31
0.0
  0
LINE
  5
6FBE
  8
0
  6
CONTINUOUS
 10
382.96119761918328
 20
584.96443101502018
 30
0.0
 11
382.96119761918328
 21
579.61943101502015
 31
0.0
  0
LINE
  5
6FBF
  8
0
  6
CONTINUOUS
 10
366.9180746191833
 20
584.96443101502018
 30
0.0
 11
366.9180746191833
 21
579.61943101502015
 31
0.0
  0
LINE
  5
6FC0
  8
0
  6
CONTINUOUS
 10
382.96119761918328
 20
595.26049101501985
 30
0.0
 11
382.96119761918328
 21
587.66443101502011
 31
0.0
  0
LINE
  5
6FC1
  8
0
  6
CONTINUOUS
 10
382.96119761918328
 20
603.65721801502013
 30
0.0
 11
397.06120461918329
 21
603.65721801502013
 31
0.0
  0
LINE
  5
6FC2
  8
0
  6
CONTINUOUS
 10
217.96119861918339
 20
587.92861801501999
 30
0.0
 11
351.96119861918328
 21
587.92861801501999
 31
0.0
  0
LINE
  5
6FC3
  8
0
  6
CONTINUOUS
 10
351.28357161918348
 20
594.46955401502009
 30
0.0
 11
351.96119861918328
 21
594.46955401502009
 31
0.0
  0
LINE
  5
6FC4
  8
0
  6
CONTINUOUS
 10
222.96783761918331
 20
606.80513601501991
 30
0.0
 11
348.34826161918329
 21
606.80513601501991
 31
0.0
  0
LINE
  5
6FC5
  8
0
  6
CONTINUOUS
 10
217.96119861918339
 20
594.46955401502009
 30
0.0
 11
219.1145416191834
 21
594.46955401502009
 31
0.0
  0
LINE
  5
6FC6
  8
0
  6
CONTINUOUS
 10
222.87257361918341
 20
612.80580301502005
 30
0.0
 11
348.35021661918341
 21
612.80580301502005
 31
0.0
  0
LINE
  5
6FC7
  8
0
  6
CONTINUOUS
 10
418.96119861918328
 20
589.87036401501985
 30
0.0
 11
421.96119861918328
 21
588.13831301502012
 31
0.0
  0
ARC
  5
6FC8
  8
0
  6
CONTINUOUS
 10
401.46119861918328
 20
590.87036401501985
 30
0.0
 40
1.0
 50
270.0
 51
0.0
  0
ARC
  5
6FC9
  8
0
  6
CONTINUOUS
 10
404.46119861918328
 20
609.66808001502011
 30
0.0
 40
2.0
 50
90.0
 51
180.0
  0
ARC
  5
6FCA
  8
0
  6
CONTINUOUS
 10
404.46119861918328
 20
605.5440750150201
 30
0.0
 40
2.0
 50
180.0
 51
270.0
  0
ARC
  5
6FCB
  8
0
  6
CONTINUOUS
 10
404.46119861918328
 20
601.5440750150201
 30
0.0
 40
2.0
 50
90.0
 51
180.0
  0
LINE
  5
6FCC
  8
0
  6
CONTINUOUS
 10
404.46119861918328
 20
611.66808001501988
 30
0.0
 11
461.46124861918298
 21
611.66808001501988
 31
0.0
  0
LINE
  5
6FCD
  8
0
  6
CONTINUOUS
 10
402.46119861918328
 20
589.87036401501985
 30
0.0
 11
418.96119861918328
 21
589.87036401501985
 31
0.0
  0
LINE
  5
6FCE
  8
0
  6
CONTINUOUS
 10
404.46119861918328
 20
603.54407501501998
 30
0.0
 11
461.46124861918298
 21
603.54407501501998
 31
0.0
  0
LINE
  5
6FCF
  8
0
  6
CONTINUOUS
 10
402.46119861918328
 20
590.87036401501985
 30
0.0
 11
402.46119861918328
 21
609.66808001502011
 31
0.0
  0
LINE
  5
6FD0
  8
0
  6
CONTINUOUS
 10
217.96119861918339
 20
443.80443101502021
 30
0.0
 11
214.46119861918339
 21
443.80443101502021
 31
0.0
  0
LINE
  5
6FD1
  8
0
  6
CONTINUOUS
 10
217.96119861918339
 20
493.44564201501993
 30
0.0
 11
222.56857461918329
 21
487.01403601502011
 31
0.0
  0
LINE
  5
6FD2
  8
0
  6
CONTINUOUS
 10
222.56857461918329
 20
487.01403601502011
 30
0.0
 11
223.4243746191834
 21
489.64095601502021
 31
0.0
  0
LINE
  5
6FD3
  8
0
  6
CONTINUOUS
 10
217.96119861918339
 20
493.44564201501993
 30
0.0
 11
223.4243746191834
 21
489.64095601502021
 31
0.0
  0
LINE
  5
6FD4
  8
0
  6
CONTINUOUS
 10
223.4243746191834
 20
489.64095601502021
 30
0.0
 11
224.63630461918331
 21
489.08499601502012
 31
0.0
  0
LINE
  5
6FD5
  8
0
  6
CONTINUOUS
 10
214.46119861918339
 20
487.01403601502011
 30
0.0
 11
222.56857461918329
 21
487.01403601502011
 31
0.0
  0
LINE
  5
6FD6
  8
0
  6
CONTINUOUS
 10
214.46119861918339
 20
493.44564201501993
 30
0.0
 11
217.96119861918339
 21
493.44564201501993
 31
0.0
  0
LINE
  5
6FD7
  8
0
  6
CONTINUOUS
 10
217.96119861918339
 20
470.87225601501979
 30
0.0
 11
217.96119861918339
 21
467.6793620150201
 31
0.0
  0
LINE
  5
6FD8
  8
0
  6
CONTINUOUS
 10
219.72119861918341
 20
470.3038220150201
 30
0.0
 11
219.72119861918341
 21
468.30504001501993
 31
0.0
  0
LINE
  5
6FD9
  8
0
  6
CONTINUOUS
 10
234.72119861918341
 20
479.30443101501987
 30
0.0
 11
234.72119861918341
 21
477.3050400150201
 31
0.0
  0
LINE
  5
6FDA
  8
0
  6
CONTINUOUS
 10
232.96119861918339
 20
479.76597301502011
 30
0.0
 11
232.96119861918339
 21
476.6982380150198
 31
0.0
  0
LINE
  5
6FDB
  8
0
  6
CONTINUOUS
 10
232.96119861918339
 20
479.76597301502011
 30
0.0
 11
314.96119861918339
 21
479.76597301502011
 31
0.0
  0
LINE
  5
6FDC
  8
0
  6
CONTINUOUS
 10
232.96119861918339
 20
476.6982380150198
 30
0.0
 11
314.96119861918339
 21
476.6982380150198
 31
0.0
  0
LINE
  5
6FDD
  8
0
  6
CONTINUOUS
 10
217.96119861918339
 20
467.6793620150201
 30
0.0
 11
314.96119861918339
 21
467.6793620150201
 31
0.0
  0
LINE
  5
6FDE
  8
0
  6
CONTINUOUS
 10
217.96119861918339
 20
470.87225601501979
 30
0.0
 11
314.96119861918339
 21
470.87225601501979
 31
0.0
  0
LINE
  5
6FDF
  8
0
  6
CONTINUOUS
 10
219.72119861918341
 20
470.3038220150201
 30
0.0
 11
314.96119861918339
 21
470.3038220150201
 31
0.0
  0
LINE
  5
6FE0
  8
0
  6
CONTINUOUS
 10
219.72119861918341
 20
468.30504001501993
 30
0.0
 11
314.96119861918339
 21
468.30504001501993
 31
0.0
  0
LINE
  5
6FE1
  8
0
  6
CONTINUOUS
 10
219.72119861918341
 20
470.3038220150201
 30
0.0
 11
217.96119861918339
 21
470.87225601501979
 31
0.0
  0
LINE
  5
6FE2
  8
0
  6
CONTINUOUS
 10
219.72119861918341
 20
468.30504001501993
 30
0.0
 11
217.96119861918339
 21
467.6793620150201
 31
0.0
  0
LINE
  5
6FE3
  8
0
  6
CONTINUOUS
 10
222.90446461918339
 20
477.04635201501992
 30
0.0
 11
224.0855556191834
 21
476.80894301501979
 31
0.0
  0
LINE
  5
6FE4
  8
0
  6
CONTINUOUS
 10
234.72119861918341
 20
479.30443101501987
 30
0.0
 11
314.96119861918339
 21
479.30443101501987
 31
0.0
  0
LINE
  5
6FE5
  8
0
  6
CONTINUOUS
 10
234.72119861918341
 20
477.3050400150201
 30
0.0
 11
314.96119861918339
 21
477.3050400150201
 31
0.0
  0
LINE
  5
6FE6
  8
0
  6
CONTINUOUS
 10
234.72119861918341
 20
479.30443101501987
 30
0.0
 11
232.96119861918339
 21
479.76597301502011
 31
0.0
  0
LINE
  5
6FE7
  8
0
  6
CONTINUOUS
 10
234.72119861918341
 20
477.3050400150201
 30
0.0
 11
232.96119861918339
 21
476.6982380150198
 31
0.0
  0
LINE
  5
6FE8
  8
0
  6
CONTINUOUS
 10
351.96119861918328
 20
479.76597301502011
 30
0.0
 11
314.96119861918339
 21
479.76597301502011
 31
0.0
  0
LINE
  5
6FE9
  8
0
  6
CONTINUOUS
 10
351.96119861918328
 20
476.6982380150198
 30
0.0
 11
314.96119861918339
 21
476.6982380150198
 31
0.0
  0
LINE
  5
6FEA
  8
0
  6
CONTINUOUS
 10
350.20119861918329
 20
479.30443101501987
 30
0.0
 11
314.96119861918339
 21
479.30443101501987
 31
0.0
  0
LINE
  5
6FEB
  8
0
  6
CONTINUOUS
 10
350.20119861918329
 20
477.3050400150201
 30
0.0
 11
314.96119861918339
 21
477.3050400150201
 31
0.0
  0
LINE
  5
6FEC
  8
0
  6
CONTINUOUS
 10
350.20119861918329
 20
477.3050400150201
 30
0.0
 11
351.96119861918328
 21
476.6982380150198
 31
0.0
  0
LINE
  5
6FED
  8
0
  6
CONTINUOUS
 10
350.20119861918329
 20
479.30443101501987
 30
0.0
 11
351.96119861918328
 21
479.76597301502011
 31
0.0
  0
LINE
  5
6FEE
  8
0
  6
CONTINUOUS
 10
351.96119861918328
 20
479.76597301502011
 30
0.0
 11
351.96119861918328
 21
476.6982380150198
 31
0.0
  0
LINE
  5
6FEF
  8
0
  6
CONTINUOUS
 10
350.20119861918329
 20
479.30443101501987
 30
0.0
 11
350.20119861918329
 21
477.3050400150201
 31
0.0
  0
LINE
  5
6FF0
  8
0
  6
CONTINUOUS
 10
351.96119861918328
 20
470.87225601501979
 30
0.0
 11
314.96119861918339
 21
470.87225601501979
 31
0.0
  0
LINE
  5
6FF1
  8
0
  6
CONTINUOUS
 10
350.20119861918329
 20
470.3038220150201
 30
0.0
 11
314.96119861918339
 21
470.3038220150201
 31
0.0
  0
LINE
  5
6FF2
  8
0
  6
CONTINUOUS
 10
350.20119861918329
 20
468.30504001501993
 30
0.0
 11
314.96119861918339
 21
468.30504001501993
 31
0.0
  0
LINE
  5
6FF3
  8
0
  6
CONTINUOUS
 10
350.20119861918329
 20
468.30504001501993
 30
0.0
 11
351.96119861918328
 21
467.6793620150201
 31
0.0
  0
LINE
  5
6FF4
  8
0
  6
CONTINUOUS
 10
350.20119861918329
 20
470.3038220150201
 30
0.0
 11
351.96119861918328
 21
470.87225601501979
 31
0.0
  0
LINE
  5
6FF5
  8
0
  6
CONTINUOUS
 10
350.20119861918329
 20
470.3038220150201
 30
0.0
 11
350.20119861918329
 21
468.30504001501993
 31
0.0
  0
LINE
  5
6FF6
  8
0
  6
CONTINUOUS
 10
351.96119861918328
 20
470.87225601501979
 30
0.0
 11
351.96119861918328
 21
467.6793620150201
 31
0.0
  0
LINE
  5
6FF7
  8
0
  6
CONTINUOUS
 10
217.96119861918339
 20
467.6793620150201
 30
0.0
 11
219.55394061918341
 21
450.38017501501992
 31
0.0
  0
LINE
  5
6FF8
  8
0
  6
CONTINUOUS
 10
217.96119861918339
 20
461.13930801501988
 30
0.0
 11
218.56334361918351
 21
461.13930801501988
 31
0.0
  0
LINE
  5
6FF9
  8
0
  6
CONTINUOUS
 10
217.96119861918339
 20
453.96695601501989
 30
0.0
 11
218.64397561918341
 21
453.96695601501989
 31
0.0
  0
LINE
  5
6FFA
  8
0
  6
CONTINUOUS
 10
217.96119861918339
 20
448.9744710150199
 30
0.0
 11
218.48571161918329
 21
448.9744710150199
 31
0.0
  0
LINE
  5
6FFB
  8
0
  6
CONTINUOUS
 10
217.96119861918339
 20
445.75371501502008
 30
0.0
 11
218.32114061918341
 21
445.75371501502008
 31
0.0
  0
LINE
  5
6FFC
  8
0
  6
CONTINUOUS
 10
217.91442161918351
 20
444.18413401502011
 30
0.0
 11
218.14481261918331
 21
444.18413401502011
 31
0.0
  0
LINE
  5
6FFD
  8
0
  6
CONTINUOUS
 10
217.96119861918339
 20
461.13930801501988
 30
0.0
 11
219.5488506191833
 21
444.46153401502011
 31
0.0
  0
LINE
  5
6FFE
  8
0
  6
CONTINUOUS
 10
217.96119861918339
 20
453.96695601501989
 30
0.0
 11
219.53303161918339
 21
439.00574501502012
 31
0.0
  0
LINE
  5
6FFF
  8
0
  6
CONTINUOUS
 10
217.96119861918339
 20
448.9744710150199
 30
0.0
 11
219.52250961918341
 21
435.00388001501989
 31
0.0
  0
LINE
  5
7000
  8
0
  6
CONTINUOUS
 10
217.96119861918339
 20
445.75371501502008
 30
0.0
 11
219.5144176191834
 21
432.47638701502012
 31
0.0
  0
LINE
  5
7001
  8
0
  6
CONTINUOUS
 10
217.91442161918351
 20
444.18413401502011
 30
0.0
 11
219.50493761918341
 21
431.27340001502012
 31
0.0
  0
ARC
  5
7002
  8
0
  6
CONTINUOUS
 10
221.54551661918339
 20
450.5635400150199
 30
0.0
 40
2.0
 50
185.2604109999981
 51
270.0
  0
ARC
  5
7003
  8
0
  6
CONTINUOUS
 10
221.5398486191834
 20
444.65106901502003
 30
0.0
 40
2.0
 50
185.4379219999999
 51
270.0
  0
ARC
  5
7004
  8
0
  6
CONTINUOUS
 10
221.5220846191834
 20
439.21471601502009
 30
0.0
 40
2.0
 50
185.99752600000019
 51
270.0
  0
ARC
  5
7005
  8
0
  6
CONTINUOUS
 10
221.51013561918339
 20
435.22601101502022
 30
0.0
 40
2.0
 50
186.376742000001
 51
270.0
  0
ARC
  5
7006
  8
0
  6
CONTINUOUS
 10
221.50087161918341
 20
432.70876801501981
 30
0.0
 40
2.0
 50
186.67229399999829
 51
270.0
  0
ARC
  5
7007
  8
0
  6
CONTINUOUS
 10
221.48993161918341
 20
431.51793801501981
 30
0.0
 40
2.0
 50
187.02306899999661
 51
270.0
  0
LINE
  5
7008
  8
0
  6
CONTINUOUS
 10
224.63630461918331
 20
489.08499601502012
 30
0.0
 11
224.63630461918331
 21
476.6982380150198
 31
0.0
  0
LINE
  5
7009
  8
0
  6
CONTINUOUS
 10
222.56857461918329
 20
487.01403601502011
 30
0.0
 11
222.56857461918329
 21
477.1138690150201
 31
0.0
  0
LINE
  5
700A
  8
0
  6
CONTINUOUS
 10
214.46119861918339
 20
476.6982380150198
 30
0.0
 11
224.63630461918331
 21
476.6982380150198
 31
0.0
  0
LINE
  5
700B
  8
0
  6
CONTINUOUS
 10
214.46119861918339
 20
477.1138690150201
 30
0.0
 11
222.56857461918329
 21
477.1138690150201
 31
0.0
  0
LINE
  5
700C
  8
0
  6
CONTINUOUS
 10
416.96119861918328
 20
542.98443101502005
 30
0.0
 11
415.20119861918329
 21
543.53443101502012
 31
0.0
  0
LINE
  5
700D
  8
0
  6
CONTINUOUS
 10
416.96119861918328
 20
545.62443101502004
 30
0.0
 11
416.96119861918328
 21
542.98443101502005
 31
0.0
  0
LINE
  5
700E
  8
0
  6
CONTINUOUS
 10
415.20119861918329
 20
545.13443101502014
 30
0.0
 11
416.96119861918328
 21
545.62443101502004
 31
0.0
  0
LINE
  5
700F
  8
0
  6
CONTINUOUS
 10
415.20119861918329
 20
545.13443101502014
 30
0.0
 11
415.20119861918329
 21
543.53443101502012
 31
0.0
  0
LINE
  5
7010
  8
0
  6
CONTINUOUS
 10
416.96119861918328
 20
531.98443101502005
 30
0.0
 11
415.20119861918329
 21
532.53443101502
 31
0.0
  0
LINE
  5
7011
  8
0
  6
CONTINUOUS
 10
416.96119861918328
 20
534.62443101502004
 30
0.0
 11
416.96119861918328
 21
531.98443101502005
 31
0.0
  0
LINE
  5
7012
  8
0
  6
CONTINUOUS
 10
415.20119861918329
 20
534.13443101502014
 30
0.0
 11
416.96119861918328
 21
534.62443101502004
 31
0.0
  0
LINE
  5
7013
  8
0
  6
CONTINUOUS
 10
415.20119861918329
 20
534.13443101502014
 30
0.0
 11
415.20119861918329
 21
532.53443101502
 31
0.0
  0
LINE
  5
7014
  8
0
  6
CONTINUOUS
 10
416.96119861918328
 20
520.98443101502005
 30
0.0
 11
415.20119861918329
 21
521.53443101502012
 31
0.0
  0
LINE
  5
7015
  8
0
  6
CONTINUOUS
 10
416.96119861918328
 20
523.62443101502004
 30
0.0
 11
416.96119861918328
 21
520.98443101502005
 31
0.0
  0
LINE
  5
7016
  8
0
  6
CONTINUOUS
 10
415.20119861918329
 20
523.13443101502014
 30
0.0
 11
416.96119861918328
 21
523.62443101502004
 31
0.0
  0
LINE
  5
7017
  8
0
  6
CONTINUOUS
 10
415.20119861918329
 20
523.13443101502014
 30
0.0
 11
415.20119861918329
 21
521.53443101502012
 31
0.0
  0
LINE
  5
7018
  8
0
  6
CONTINUOUS
 10
416.96119861918328
 20
509.98443101502011
 30
0.0
 11
415.20119861918329
 21
510.53443101502012
 31
0.0
  0
LINE
  5
7019
  8
0
  6
CONTINUOUS
 10
416.96119861918328
 20
512.62443101502004
 30
0.0
 11
416.96119861918328
 21
509.98443101502011
 31
0.0
  0
LINE
  5
701A
  8
0
  6
CONTINUOUS
 10
415.20119861918329
 20
512.13443101502014
 30
0.0
 11
416.96119861918328
 21
512.62443101502004
 31
0.0
  0
LINE
  5
701B
  8
0
  6
CONTINUOUS
 10
415.20119861918329
 20
512.13443101502014
 30
0.0
 11
415.20119861918329
 21
510.53443101502012
 31
0.0
  0
LINE
  5
701C
  8
0
  6
CONTINUOUS
 10
416.3728676191833
 20
441.29515101501988
 30
0.0
 11
415.34123861918329
 21
432.47639001502012
 31
0.0
  0
LINE
  5
701D
  8
0
  6
CONTINUOUS
 10
415.30598161918329
 20
435.00358401502012
 30
0.0
 11
416.36093861918351
 21
444.43057101502012
 31
0.0
  0
LINE
  5
701E
  8
0
  6
CONTINUOUS
 10
415.33305161918332
 20
439.00444001502012
 30
0.0
 11
416.43196361918331
 21
449.39861401502009
 31
0.0
  0
LINE
  5
701F
  8
0
  6
CONTINUOUS
 10
416.48290461918327
 20
455.93523401502
 30
0.0
 11
415.3576236191833
 21
444.45595001502022
 31
0.0
  0
LINE
  5
7020
  8
0
  6
CONTINUOUS
 10
416.5240716191833
 20
463.34497601502022
 30
0.0
 11
415.29135461918321
 21
450.37431501501982
 31
0.0
  0
LINE
  5
7021
  8
0
  6
CONTINUOUS
 10
416.43299061918327
 20
440.15882301502012
 30
0.0
 11
415.3609576191833
 21
431.2782450150201
 31
0.0
  0
LINE
  5
7022
  8
0
  6
CONTINUOUS
 10
415.20119861918329
 20
501.13443101501991
 30
0.0
 11
415.20119861918329
 21
499.53443101501989
 31
0.0
  0
LINE
  5
7023
  8
0
  6
CONTINUOUS
 10
415.20119861918329
 20
501.13443101501991
 30
0.0
 11
416.96119861918328
 21
501.62443101502009
 31
0.0
  0
LINE
  5
7024
  8
0
  6
CONTINUOUS
 10
416.96119861918328
 20
501.62443101502009
 30
0.0
 11
416.96119861918328
 21
498.98443101502022
 31
0.0
  0
LINE
  5
7025
  8
0
  6
CONTINUOUS
 10
416.96119861918328
 20
498.98443101502022
 30
0.0
 11
415.20119861918329
 21
499.53443101501989
 31
0.0
  0
LINE
  5
7026
  8
0
  6
CONTINUOUS
 10
415.20119861918329
 20
556.13443101502014
 30
0.0
 11
415.20119861918329
 21
554.53443101502012
 31
0.0
  0
LINE
  5
7027
  8
0
  6
CONTINUOUS
 10
415.20119861918329
 20
556.13443101502014
 30
0.0
 11
416.96119861918328
 21
556.62443101502004
 31
0.0
  0
LINE
  5
7028
  8
0
  6
CONTINUOUS
 10
416.96119861918328
 20
556.62443101502004
 30
0.0
 11
416.96119861918328
 21
553.98443101502005
 31
0.0
  0
LINE
  5
7029
  8
0
  6
CONTINUOUS
 10
416.96119861918328
 20
553.98443101502005
 30
0.0
 11
415.20119861918329
 21
554.53443101502012
 31
0.0
  0
LINE
  5
702A
  8
0
  6
CONTINUOUS
 10
366.9180746191833
 20
553.98443101502005
 30
0.0
 11
366.9180746191833
 21
545.62443101502004
 31
0.0
  0
LINE
  5
702B
  8
0
  6
CONTINUOUS
 10
382.96119761918328
 20
553.98443101502005
 30
0.0
 11
382.96119761918328
 21
545.62443101502004
 31
0.0
  0
LINE
  5
702C
  8
0
  6
CONTINUOUS
 10
382.96119761918328
 20
542.98443101502005
 30
0.0
 11
382.96119761918328
 21
534.62443101502004
 31
0.0
  0
LINE
  5
702D
  8
0
  6
CONTINUOUS
 10
366.9180746191833
 20
542.98443101502005
 30
0.0
 11
366.9180746191833
 21
534.62443101502004
 31
0.0
  0
LINE
  5
702E
  8
0
  6
CONTINUOUS
 10
366.9180746191833
 20
531.98443101502005
 30
0.0
 11
366.9180746191833
 21
523.62443101502004
 31
0.0
  0
LINE
  5
702F
  8
0
  6
CONTINUOUS
 10
382.96119761918328
 20
531.98443101502005
 30
0.0
 11
382.96119761918328
 21
523.62443101502004
 31
0.0
  0
LINE
  5
7030
  8
0
  6
CONTINUOUS
 10
382.96119761918328
 20
520.98443101502005
 30
0.0
 11
382.96119761918328
 21
512.62443101502004
 31
0.0
  0
LINE
  5
7031
  8
0
  6
CONTINUOUS
 10
366.9180746191833
 20
520.98443101502005
 30
0.0
 11
366.9180746191833
 21
512.62443101502004
 31
0.0
  0
LINE
  5
7032
  8
0
  6
CONTINUOUS
 10
366.9180746191833
 20
509.98443101502011
 30
0.0
 11
366.9180746191833
 21
501.62443101502009
 31
0.0
  0
LINE
  5
7033
  8
0
  6
CONTINUOUS
 10
382.96119761918328
 20
509.98443101502011
 30
0.0
 11
382.96119761918328
 21
501.62443101502009
 31
0.0
  0
LINE
  5
7034
  8
0
  6
CONTINUOUS
 10
382.96119761918328
 20
498.98443101502022
 30
0.0
 11
382.96119761918328
 21
483.19598501502009
 31
0.0
  0
LINE
  5
7035
  8
0
  6
CONTINUOUS
 10
366.9180746191833
 20
498.98443101502022
 30
0.0
 11
366.9180746191833
 21
467.6793620150201
 31
0.0
  0
LINE
  5
7036
  8
0
  6
CONTINUOUS
 10
416.5240716191833
 20
463.34497601502022
 30
0.0
 11
382.96119761918328
 21
463.34497601502022
 31
0.0
  0
LINE
  5
7037
  8
0
  6
CONTINUOUS
 10
416.48290461918327
 20
455.93523401502
 30
0.0
 11
415.81985861918332
 21
455.93523401502
 31
0.0
  0
ARC
  5
7038
  8
0
  6
CONTINUOUS
 10
413.30032661918329
 20
450.5635400150199
 30
0.0
 40
2.0
 50
270.0
 51
354.57098099999791
  0
ARC
  5
7039
  8
0
  6
CONTINUOUS
 10
413.36716461918331
 20
444.65106901502003
 30
0.0
 40
2.0
 50
270.0
 51
354.40134700000101
  0
ARC
  5
703A
  8
0
  6
CONTINUOUS
 10
413.3441366191833
 20
439.21471601502009
 30
0.0
 40
2.0
 50
270.0
 51
353.96488600000038
  0
ARC
  5
703B
  8
0
  6
CONTINUOUS
 10
413.31838861918328
 20
435.22601101502022
 30
0.0
 40
2.0
 50
270.0
 51
353.61470099999991
  0
ARC
  5
703C
  8
0
  6
CONTINUOUS
 10
413.35478461918342
 20
432.70876801501981
 30
0.0
 40
2.0
 50
270.0
 51
353.32779999999809
  0
ARC
  5
703D
  8
0
  6
CONTINUOUS
 10
413.37537361918328
 20
431.51793801501981
 30
0.0
 40
2.0
 50
270.0
 51
353.11676000000142
  0
LINE
  5
703E
  8
0
  6
CONTINUOUS
 10
416.43196361918331
 20
449.39861401502009
 30
0.0
 11
415.84213861918329
 21
449.39861401502009
 31
0.0
  0
LINE
  5
703F
  8
0
  6
CONTINUOUS
 10
416.36093861918351
 20
444.43057101502012
 30
0.0
 11
415.90672361918331
 21
444.43057101502012
 31
0.0
  0
LINE
  5
7040
  8
0
  6
CONTINUOUS
 10
416.3728676191833
 20
441.29515101501988
 30
0.0
 11
416.01005961918332
 21
441.29515101501988
 31
0.0
  0
LINE
  5
7041
  8
0
  6
CONTINUOUS
 10
416.43299061918327
 20
440.15882301502012
 30
0.0
 11
416.23993861918331
 21
440.15882301502012
 31
0.0
  0
LINE
  5
7042
  8
0
  6
CONTINUOUS
 10
461.46124861918298
 20
488.08172501501991
 30
0.0
 11
421.96119861918328
 21
488.08172501502008
 31
0.0
  0
LINE
  5
7043
  8
0
  6
CONTINUOUS
 10
461.46124861918298
 20
477.90243301501999
 30
0.0
 11
404.46119861918328
 21
477.90243301502022
 31
0.0
  0
LINE
  5
7044
  8
0
  6
CONTINUOUS
 10
461.46124861918298
 20
465.6151520150201
 30
0.0
 11
404.46119861918328
 21
465.6151520150201
 31
0.0
  0
LINE
  5
7045
  8
0
  6
CONTINUOUS
 10
402.46119861918328
 20
487.0817250150198
 30
0.0
 11
402.46119861918328
 21
467.6151520150201
 31
0.0
  0
LINE
  5
7046
  8
0
  6
CONTINUOUS
 10
418.96119861918328
 20
488.08172501501991
 30
0.0
 11
421.96119861918328
 21
489.81377601501981
 31
0.0
  0
ARC
  5
7047
  8
0
  6
CONTINUOUS
 10
404.46119861918328
 20
479.90243301502011
 30
0.0
 40
2.0
 50
180.0
 51
270.0
  0
ARC
  5
7048
  8
0
  6
CONTINUOUS
 10
404.46119861918328
 20
467.6151520150201
 30
0.0
 40
2.0
 50
180.0
 51
270.0
  0
ARC
  5
7049
  8
0
  6
CONTINUOUS
 10
404.46119861918328
 20
475.90243301502011
 30
0.0
 40
2.0
 50
90.0
 51
180.0
  0
LINE
  5
704A
  8
0
  6
CONTINUOUS
 10
382.96119761918328
 20
471.78363501501991
 30
0.0
 11
382.96119761918328
 21
463.34497601502022
 31
0.0
  0
LINE
  5
704B
  8
0
  6
CONTINUOUS
 10
366.9180746191833
 20
467.6793620150201
 30
0.0
 11
382.96119761918328
 21
463.34497601502022
 31
0.0
  0
ARC
  5
704C
  8
0
  6
CONTINUOUS
 10
401.46119861918328
 20
487.0817250150198
 30
0.0
 40
1.0
 50
0.0
 51
90.0
  0
LINE
  5
704D
  8
0
  6
CONTINUOUS
 10
366.9180746191833
 20
467.6793620150201
 30
0.0
 11
314.96119861918339
 21
467.6793620150201
 31
0.0
  0
LINE
  5
704E
  8
0
  6
CONTINUOUS
 10
413.37537361918328
 20
429.51793801502009
 30
0.0
 11
221.48993161918341
 21
429.51793801502009
 31
0.0
  0
LINE
  5
704F
  8
0
  6
CONTINUOUS
 10
413.35478461918342
 20
430.70876801502021
 30
0.0
 11
221.50087161918341
 21
430.70876801502021
 31
0.0
  0
LINE
  5
7050
  8
0
  6
CONTINUOUS
 10
413.31838861918328
 20
433.22601101501988
 30
0.0
 11
221.51013561918339
 21
433.22601101501988
 31
0.0
  0
LINE
  5
7051
  8
0
  6
CONTINUOUS
 10
413.3441366191833
 20
437.2147160150198
 30
0.0
 11
221.5220846191834
 21
437.2147160150198
 31
0.0
  0
LINE
  5
7052
  8
0
  6
CONTINUOUS
 10
413.36716461918331
 20
442.65106901502008
 30
0.0
 11
221.5398486191834
 21
442.65106901502008
 31
0.0
  0
LINE
  5
7053
  8
0
  6
CONTINUOUS
 10
413.30032661918329
 20
448.56354001502001
 30
0.0
 11
221.54551661918339
 21
448.56354001502001
 31
0.0
  0
LINE
  5
7054
  8
0
  6
CONTINUOUS
 10
366.9180746191833
 20
601.64190601502014
 30
0.0
 11
366.9180746191833
 21
587.66443101502011
 31
0.0
  0
LINE
  5
7055
  8
0
  6
CONTINUOUS
 10
382.96119761918328
 20
606.24176801502006
 30
0.0
 11
382.96119761918328
 21
603.65721801502013
 31
0.0
  0
LINE
  5
7056
  8
0
  6
CONTINUOUS
 10
359.85529461918333
 20
556.62443101502004
 30
0.0
 11
416.96119861918328
 21
556.62443101502004
 31
0.0
  0
LINE
  5
7057
  8
0
  6
CONTINUOUS
 10
359.85529461918333
 20
556.13443101502014
 30
0.0
 11
415.20119861918329
 21
556.13443101502014
 31
0.0
  0
LINE
  5
7058
  8
0
  6
CONTINUOUS
 10
359.85529461918333
 20
554.53443101502012
 30
0.0
 11
415.20119861918329
 21
554.53443101502012
 31
0.0
  0
LINE
  5
7059
  8
0
  6
CONTINUOUS
 10
359.85529461918333
 20
553.98443101502005
 30
0.0
 11
416.96119861918328
 21
553.98443101502005
 31
0.0
  0
LINE
  5
705A
  8
0
  6
CONTINUOUS
 10
359.85529461918333
 20
501.62443101502009
 30
0.0
 11
416.96119861918328
 21
501.62443101502009
 31
0.0
  0
LINE
  5
705B
  8
0
  6
CONTINUOUS
 10
359.85529461918333
 20
501.13443101501991
 30
0.0
 11
415.20119861918329
 21
501.13443101501991
 31
0.0
  0
LINE
  5
705C
  8
0
  6
CONTINUOUS
 10
359.85529461918333
 20
499.53443101501989
 30
0.0
 11
415.20119861918329
 21
499.53443101501989
 31
0.0
  0
LINE
  5
705D
  8
0
  6
CONTINUOUS
 10
359.85529461918333
 20
498.98443101502022
 30
0.0
 11
416.96119861918328
 21
498.98443101502022
 31
0.0
  0
LINE
  5
705E
  8
0
  6
CONTINUOUS
 10
359.85529461918333
 20
531.98443101502005
 30
0.0
 11
416.96119861918328
 21
531.98443101502005
 31
0.0
  0
LINE
  5
705F
  8
0
  6
CONTINUOUS
 10
359.85529461918333
 20
532.53443101502
 30
0.0
 11
415.20119861918329
 21
532.53443101502
 31
0.0
  0
LINE
  5
7060
  8
0
  6
CONTINUOUS
 10
359.85529461918333
 20
512.62443101502004
 30
0.0
 11
416.96119861918328
 21
512.62443101502004
 31
0.0
  0
LINE
  5
7061
  8
0
  6
CONTINUOUS
 10
359.85529461918333
 20
512.13443101502014
 30
0.0
 11
415.20119861918329
 21
512.13443101502014
 31
0.0
  0
LINE
  5
7062
  8
0
  6
CONTINUOUS
 10
359.85529461918333
 20
510.53443101502012
 30
0.0
 11
415.20119861918329
 21
510.53443101502012
 31
0.0
  0
LINE
  5
7063
  8
0
  6
CONTINUOUS
 10
359.85529461918333
 20
509.98443101502011
 30
0.0
 11
416.96119861918328
 21
509.98443101502011
 31
0.0
  0
LINE
  5
7064
  8
0
  6
CONTINUOUS
 10
359.85529461918333
 20
523.62443101502004
 30
0.0
 11
416.96119861918328
 21
523.62443101502004
 31
0.0
  0
LINE
  5
7065
  8
0
  6
CONTINUOUS
 10
359.85529461918333
 20
523.13443101502014
 30
0.0
 11
415.20119861918329
 21
523.13443101502014
 31
0.0
  0
LINE
  5
7066
  8
0
  6
CONTINUOUS
 10
359.85529461918333
 20
521.53443101502012
 30
0.0
 11
415.20119861918329
 21
521.53443101502012
 31
0.0
  0
LINE
  5
7067
  8
0
  6
CONTINUOUS
 10
359.85529461918333
 20
520.98443101502005
 30
0.0
 11
416.96119861918328
 21
520.98443101502005
 31
0.0
  0
LINE
  5
7068
  8
0
  6
CONTINUOUS
 10
359.85529461918333
 20
545.62443101502004
 30
0.0
 11
416.96119861918328
 21
545.62443101502004
 31
0.0
  0
LINE
  5
7069
  8
0
  6
CONTINUOUS
 10
359.85529461918333
 20
545.13443101502014
 30
0.0
 11
415.20119861918329
 21
545.13443101502014
 31
0.0
  0
LINE
  5
706A
  8
0
  6
CONTINUOUS
 10
359.85529461918333
 20
543.53443101502012
 30
0.0
 11
415.20119861918329
 21
543.53443101502012
 31
0.0
  0
LINE
  5
706B
  8
0
  6
CONTINUOUS
 10
359.85529461918333
 20
542.98443101502005
 30
0.0
 11
416.96119861918328
 21
542.98443101502005
 31
0.0
  0
LINE
  5
706C
  8
0
  6
CONTINUOUS
 10
359.85529461918333
 20
534.62443101502004
 30
0.0
 11
416.96119861918328
 21
534.62443101502004
 31
0.0
  0
LINE
  5
706D
  8
0
  6
CONTINUOUS
 10
359.85529461918333
 20
534.13443101502014
 30
0.0
 11
415.20119861918329
 21
534.13443101502014
 31
0.0
  0
LINE
  5
706E
  8
0
  6
CONTINUOUS
 10
418.96119861918328
 20
439.80443101502021
 30
0.0
 11
418.96119861918328
 21
465.6151520150201
 31
0.0
  0
LINE
  5
706F
  8
0
  6
CONTINUOUS
 10
416.39020961918328
 20
439.80443101502021
 30
0.0
 11
418.96119861918328
 21
439.80443101502021
 31
0.0
  0
LINE
  5
7070
  8
0
  6
CONTINUOUS
 10
416.96119861918328
 20
587.66443101502011
 30
0.0
 11
415.20119861918329
 21
587.10443101502005
 31
0.0
  0
LINE
  5
7071
  8
0
  6
CONTINUOUS
 10
415.20119861918329
 20
585.50443101502015
 30
0.0
 11
416.96119861918328
 21
584.96443101502018
 31
0.0
  0
LINE
  5
7072
  8
0
  6
CONTINUOUS
 10
416.96119861918328
 20
584.96443101502018
 30
0.0
 11
416.96119861918328
 21
587.66443101502011
 31
0.0
  0
LINE
  5
7073
  8
0
  6
CONTINUOUS
 10
415.20119861918329
 20
585.50443101502015
 30
0.0
 11
415.20119861918329
 21
587.10443101502005
 31
0.0
  0
LINE
  5
7074
  8
0
  6
CONTINUOUS
 10
416.96119861918328
 20
579.61943101502015
 30
0.0
 11
415.20119861918329
 21
579.07943101501985
 31
0.0
  0
LINE
  5
7075
  8
0
  6
CONTINUOUS
 10
415.20119861918329
 20
577.47943101501994
 30
0.0
 11
416.96119861918328
 21
576.98943101502005
 31
0.0
  0
LINE
  5
7076
  8
0
  6
CONTINUOUS
 10
415.20119861918329
 20
577.47943101501994
 30
0.0
 11
415.20119861918329
 21
579.07943101501985
 31
0.0
  0
LINE
  5
7077
  8
0
  6
CONTINUOUS
 10
416.96119861918328
 20
576.98943101502005
 30
0.0
 11
416.96119861918328
 21
579.61943101502015
 31
0.0
  0
LINE
  5
7078
  8
0
  6
CONTINUOUS
 10
351.96119861918328
 20
587.92861801501999
 30
0.0
 11
350.33928961918338
 21
604.9943610150201
 31
0.0
  0
LINE
  5
7079
  8
0
  6
CONTINUOUS
 10
351.96119861918328
 20
594.46955401502009
 30
0.0
 11
350.3406756191834
 21
611.00092201502014
 31
0.0
  0
LINE
  5
707A
  8
0
  6
CONTINUOUS
 10
219.22587761918339
 20
601.64190601502014
 30
0.0
 11
217.96119861918339
 21
601.64190601502014
 31
0.0
  0
LINE
  5
707B
  8
0
  6
CONTINUOUS
 10
217.96119861918339
 20
587.66443101502011
 30
0.0
 11
219.72119861918341
 21
587.10443101502005
 31
0.0
  0
LINE
  5
707C
  8
0
  6
CONTINUOUS
 10
219.72119861918341
 20
585.50443101502015
 30
0.0
 11
217.96119861918339
 21
584.96443101502018
 31
0.0
  0
LINE
  5
707D
  8
0
  6
CONTINUOUS
 10
217.96119861918339
 20
579.61943101502015
 30
0.0
 11
219.72119861918341
 21
579.07943101501985
 31
0.0
  0
LINE
  5
707E
  8
0
  6
CONTINUOUS
 10
219.72119861918341
 20
577.47943101501994
 30
0.0
 11
217.96119861918339
 21
576.98943101502005
 31
0.0
  0
LINE
  5
707F
  8
0
  6
CONTINUOUS
 10
217.96119861918339
 20
584.96443101502018
 30
0.0
 11
217.96119861918339
 21
587.66443101502011
 31
0.0
  0
LINE
  5
7080
  8
0
  6
CONTINUOUS
 10
219.72119861918341
 20
585.50443101502015
 30
0.0
 11
219.72119861918341
 21
587.10443101502005
 31
0.0
  0
LINE
  5
7081
  8
0
  6
CONTINUOUS
 10
219.72119861918341
 20
577.47943101501994
 30
0.0
 11
219.72119861918341
 21
579.07943101501985
 31
0.0
  0
LINE
  5
7082
  8
0
  6
CONTINUOUS
 10
217.96119861918339
 20
576.98943101502005
 30
0.0
 11
217.96119861918339
 21
579.61943101502015
 31
0.0
  0
LINE
  5
7083
  8
0
  6
CONTINUOUS
 10
217.96119861918339
 20
566.52386601501985
 30
0.0
 11
271.13004761918342
 21
566.52386601501985
 31
0.0
  0
LINE
  5
7084
  8
0
  6
CONTINUOUS
 10
226.3311986191834
 20
565.6720930150201
 30
0.0
 11
270.45008461918337
 21
565.6720930150201
 31
0.0
  0
LINE
  5
7085
  8
0
  6
CONTINUOUS
 10
217.96119861918339
 20
566.52386601501985
 30
0.0
 11
226.3311986191834
 21
565.6720930150201
 31
0.0
  0
LINE
  5
7086
  8
0
  6
CONTINUOUS
 10
224.63630461918331
 20
489.08499601502012
 30
0.0
 11
271.13004461918342
 21
489.08499601502012
 31
0.0
  0
LINE
  5
7087
  8
0
  6
CONTINUOUS
 10
226.3311986191834
 20
489.93676901501988
 30
0.0
 11
270.45008161918338
 21
489.93676901501988
 31
0.0
  0
LINE
  5
7088
  8
0
  6
CONTINUOUS
 10
217.96119861918339
 20
493.44564201501993
 30
0.0
 11
217.96119861918339
 21
566.52386601501985
 31
0.0
  0
LINE
  5
7089
  8
0
  6
CONTINUOUS
 10
223.4243746191834
 20
489.64095601502021
 30
0.0
 11
226.3311986191834
 21
489.93676901501988
 31
0.0
  0
LINE
  5
708A
  8
0
  6
CONTINUOUS
 10
226.3311986191834
 20
489.93676901501988
 30
0.0
 11
226.3311986191834
 21
565.6720930150201
 31
0.0
  0
LINE
  5
708B
  8
0
  6
CONTINUOUS
 10
214.46119861918339
 20
611.42472801502015
 30
0.0
 11
218.23795761918339
 21
611.42472801502015
 31
0.0
  0
LINE
  5
708C
  8
0
  6
CONTINUOUS
 10
303.96119861918339
 20
628.80443101501987
 30
0.0
 11
325.96119861918339
 21
628.80443101501987
 31
0.0
  0
LINE
  5
708D
  8
0
  6
CONTINUOUS
 10
303.96119861918339
 20
628.80443101501987
 30
0.0
 11
303.96119861918339
 21
624.90115001502011
 31
0.0
  0
LINE
  5
708E
  8
0
  6
CONTINUOUS
 10
325.96119861918339
 20
628.80443101501987
 30
0.0
 11
325.96119861918339
 21
624.90115001502011
 31
0.0
  0
LINE
  5
708F
  8
0
  6
CONTINUOUS
 10
219.72119861918341
 20
585.50443101502015
 30
0.0
 11
415.20119861918329
 21
585.50443101502015
 31
0.0
  0
LINE
  5
7090
  8
0
  6
CONTINUOUS
 10
219.72119861918341
 20
587.10443101502005
 30
0.0
 11
415.20119861918329
 21
587.10443101502005
 31
0.0
  0
LINE
  5
7091
  8
0
  6
CONTINUOUS
 10
217.96119861918339
 20
584.96443101502018
 30
0.0
 11
416.96119861918328
 21
584.96443101502018
 31
0.0
  0
LINE
  5
7092
  8
0
  6
CONTINUOUS
 10
217.96119861918339
 20
587.66443101502011
 30
0.0
 11
416.96119861918328
 21
587.66443101502011
 31
0.0
  0
LINE
  5
7093
  8
0
  6
CONTINUOUS
 10
217.96119861918339
 20
576.98943101502005
 30
0.0
 11
416.96119861918328
 21
576.98943101502005
 31
0.0
  0
LINE
  5
7094
  8
0
  6
CONTINUOUS
 10
217.96119861918339
 20
579.61943101502015
 30
0.0
 11
416.96119861918328
 21
579.61943101502015
 31
0.0
  0
LINE
  5
7095
  8
0
  6
CONTINUOUS
 10
219.72119861918341
 20
577.47943101501994
 30
0.0
 11
415.20119861918329
 21
577.47943101501994
 31
0.0
  0
LINE
  5
7096
  8
0
  6
CONTINUOUS
 10
219.72119861918341
 20
579.07943101501985
 30
0.0
 11
415.20119861918329
 21
579.07943101501985
 31
0.0
  0
LINE
  5
7097
  8
0
  6
CONTINUOUS
 10
421.96119861918328
 20
442.8044310150201
 30
0.0
 11
418.96119861918328
 21
439.80443101502021
 31
0.0
  0
LINE
  5
7098
  8
0
  6
CONTINUOUS
 10
421.96119861918328
 20
442.8044310150201
 30
0.0
 11
421.96119861918328
 21
612.8044310150201
 31
0.0
  0
LINE
  5
7099
  8
0
  6
CONTINUOUS
 10
421.96119861918328
 20
612.8044310150201
 30
0.0
 11
418.96119861918328
 21
615.80443101501999
 31
0.0
  0
LINE
  5
7139
  8
0
  6
CONTINUOUS
 10
418.96119861918328
 20
488.08172501502008
 30
0.0
 11
402.46119861918328
 21
488.08172501501991
 31
0.0
  0
LINE
  5
713A
  8
0
  6
CONTINUOUS
 10
421.96119861918328
 20
589.87036401501985
 30
0.0
 11
461.46124861918298
 21
589.87036401501985
 31
0.0
  0
LINE
  5
7511
  8
0
  6
CONTINUOUS
 10
143.46119861918339
 20
426.60443101502011
 30
0.0
 11
214.46119861918339
 21
426.60443101502011
 31
0.0
  0
LINE
  5
7B12
  8
0
  6
AM_ISO08W050
 10
113.93616502373
 20
887.50201419889561
 30
0.0
 11
686.97522861918469
 21
887.50201419889561
 31
0.0
  0
ARC
  5
7BB4
  8
0
 10
143.8611886191843
 20
802.00464019889557
 30
0.0
 40
2.399999999999999
 50
180.0
 51
199.99999999999531
  0
ARC
  5
7BB5
  8
0
 10
148.45565261918429
 20
789.38145519889565
 30
0.0
 40
2.399999999999999
 50
199.99999999999531
 51
270.0
  0
LINE
  5
7BB6
  8
0
 10
146.20038961918431
 20
788.5606071988957
 30
0.0
 11
141.60592661918429
 21
801.18379219889573
 31
0.0
  0
LINE
  5
7BB7
  8
0
 10
214.4611886191843
 20
786.98145519889545
 30
0.0
 11
148.45565261918429
 21
786.98145519889545
 31
0.0
  0
LINE
  5
7BB8
  8
0
 10
214.4611886191843
 20
988.02257319889554
 30
0.0
 11
214.4611886191843
 21
786.98145519889545
 31
0.0
  0
LINE
  5
7BB9
  8
0
 10
146.20038961918431
 20
986.44342119889552
 30
0.0
 11
141.60592661918429
 21
973.82023619889549
 31
0.0
  0
ARC
  5
7BBA
  8
0
 10
148.45565261918429
 20
985.62257319889545
 30
0.0
 40
2.399999999999999
 50
90.0
 51
160.0000000000046
  0
ARC
  5
7BBB
  8
0
 10
143.8611886191843
 20
972.99938819889576
 30
0.0
 40
2.399999999999999
 50
160.0000000000046
 51
180.0
  0
LINE
  5
7BBC
  8
0
 10
146.77515361918441
 20
987.33602719889552
 30
0.0
 11
146.77515361918441
 21
786.98145519889545
 31
0.0
  0
LINE
  5
7BBD
  8
0
 10
141.4611886191843
 20
972.99938819889576
 30
0.0
 11
141.4611886191843
 21
802.2225731988957
 31
0.0
  0
LINE
  5
7BBE
  8
0
 10
214.4611886191843
 20
988.02257319889554
 30
0.0
 11
148.45565261918429
 21
988.02257319889554
 31
0.0
  0
LINE
  5
7BBF
  8
0
 10
348.46118861918433
 20
785.50201419889572
 30
0.0
 11
348.46118861918433
 21
782.50201419889572
 31
0.0
  0
LINE
  5
7BC0
  8
0
 10
281.46118861918433
 20
785.50201419889572
 30
0.0
 11
281.46118861918433
 21
782.50201419889572
 31
0.0
  0
LINE
  5
7BC1
  8
0
 10
358.21131361918441
 20
784.13099919889555
 30
0.0
 11
269.39319461918433
 21
742.71499019889552
 31
0.0
  0
LINE
  5
7BC2
  8
0
 10
359.85930861918439
 20
780.5970341988957
 30
0.0
 11
358.21131361918441
 21
784.13099919889555
 31
0.0
  0
LINE
  5
7BC3
  8
0
 10
281.06119061918417
 20
782.50201419889572
 30
0.0
 11
350.80429061918431
 21
782.50201419889572
 31
0.0
  0
LINE
  5
7BC4
  8
0
 10
271.04138761918432
 20
739.18001819889571
 30
0.0
 11
269.39319461918433
 21
742.71499019889552
 31
0.0
  0
LINE
  5
7BC5
  8
0
 10
278.5943926191843
 20
739.54602319889545
 30
0.0
 11
278.27299061918433
 21
740.23501519889555
 31
0.0
  0
LINE
  5
7BC6
  8
0
 10
354.88629061918431
 20
755.41601519889559
 30
0.0
 11
354.88629061918431
 21
775.79002419889571
 31
0.0
  0
LINE
  5
7BC7
  8
0
 10
272.50878261918422
 20
738.65101619889572
 30
0.0
 11
359.33428761918452
 21
779.13801919889568
 31
0.0
  0
LINE
  5
7BC8
  8
0
 10
277.46119261918432
 20
746.47702019889573
 30
0.0
 11
277.46119261918432
 21
778.90202319889545
 31
0.0
  0
LINE
  5
7BC9
  8
0
  6
AM_ISO08W050
 10
272.28499161918432
 20
762.50201419889572
 30
0.0
 11
280.87529261918428
 21
762.50201419889572
 31
0.0
  0
LINE
  5
7BCA
  8
0
 10
275.46119261918432
 20
774.10202019889573
 30
0.0
 11
275.46119261918432
 21
750.90202319889545
 31
0.0
  0
LINE
  5
7BCB
  8
0
 10
275.46119261918432
 20
774.10202019889573
 30
0.0
 11
276.46119261918432
 21
774.10202019889573
 31
0.0
  0
LINE
  5
7BCC
  8
0
 10
275.46119261918432
 20
750.90202319889545
 30
0.0
 11
276.46119261918432
 21
750.90202319889545
 31
0.0
  0
ARC
  5
7BCD
  8
0
 10
281.06119061918417
 20
778.90202319889545
 30
0.0
 40
3.5999979999999998
 50
90.000061000000898
 51
179.99998200000081
  0
ARC
  5
7BCE
  8
0
 10
358.86228861918443
 20
780.1320191988957
 30
0.0
 40
1.100006
 50
294.99982600000169
 51
24.999513999998751
  0
ARC
  5
7BCF
  8
0
 10
272.03829161918441
 20
739.64501919889574
 30
0.0
 40
1.0999959999999971
 50
204.99980300000141
 51
295.00019499999559
  0
ARC
  5
7BD0
  8
0
 10
347.28629261918428
 20
755.41601519889559
 30
0.0
 40
7.5999979999999967
 50
288.90001599999658
 51
0.0000179999992061
  0
ARC
  5
7BD1
  8
0
 10
281.8570936191843
 20
741.06701619889566
 30
0.0
 40
3.5999979999999998
 50
204.9991569999998
 51
269.09402099999909
  0
ARC
  5
7BD2
  8
0
 10
284.96359161918451
 20
937.44300819889577
 30
0.0
 40
200.0
 50
269.09405200000299
 51
288.9000030000019
  0
ARC
  5
7BD3
  8
0
 10
277.36669061918411
 20
739.81301919889552
 30
0.0
 40
0.9999979999999998
 50
24.999268000004911
 51
114.9993579999945
  0
ARC
  5
7BD4
  8
0
 10
356.88629061918431
 20
775.79002419889571
 30
0.0
 40
2.0
 50
115.00014999999451
 51
179.99998200000081
  0
ARC
  5
7BD5
  8
0
 10
350.80429061918431
 20
779.90202319889545
 30
0.0
 40
2.600006
 50
40.686130000000617
 51
90.0
  0
ARC
  5
7BD6
  8
0
 10
276.46119261918432
 20
775.10202019889573
 30
0.0
 40
1.0
 50
269.99894299999522
 51
0.0000179999992061
  0
ARC
  5
7BD7
  8
0
 10
276.46119261918432
 20
749.90202319889545
 30
0.0
 40
1.0
 50
0.0000179999992061
 51
90.0
  0
ARC
  5
7BD8
  8
0
 10
222.9048326191845
 20
805.10133419889576
 30
0.0
 40
2.0
 50
189.99999999999861
 51
270.0
  0
LINE
  5
7BD9
  8
0
 10
220.9352176191843
 20
804.75403819889573
 30
0.0
 11
217.9611886191843
 21
821.62059219889545
 31
0.0
  0
LINE
  5
7BDA
  8
0
 10
217.9611886191843
 20
821.62059219889545
 30
0.0
 11
219.02292761918429
 21
821.62059219889545
 31
0.0
  0
LINE
  5
7BDB
  8
0
 10
416.42532961918431
 20
973.67432119889577
 30
0.0
 11
416.96118861918433
 21
973.67432119889577
 31
0.0
  0
LINE
  5
7BDC
  8
0
 10
416.685720619184
 20
975.23657819889559
 30
0.0
 11
416.96118861918433
 21
975.23657819889559
 31
0.0
  0
LINE
  5
7BDD
  8
0
 10
418.63938761918411
 20
799.50201419889572
 30
0.0
 11
418.96118861918433
 21
799.50201419889572
 31
0.0
  0
LINE
  5
7BDE
  8
0
 10
414.78179361918433
 20
804.35002819889576
 30
0.0
 11
416.96118861918433
 21
804.35002819889576
 31
0.0
  0
LINE
  5
7BDF
  8
0
 10
415.78787661918398
 20
816.4555981988957
 30
0.0
 11
416.96118861918433
 21
816.4555981988957
 31
0.0
  0
LINE
  5
7BE0
  8
0
  6
AM_ISO08W050
 10
314.96118861918433
 20
779.84604919889546
 30
0.0
 11
314.96118861918433
 21
789.02776519889574
 31
0.0
  0
ARC
  5
7BE1
  8
0
 10
413.20406861918428
 20
976.51026219889559
 30
0.0
 40
2.0
 50
9.9999999999986073
 51
90.0
  0
ARC
  5
7BE2
  8
0
 10
413.27008561918427
 20
980.05106119889558
 30
0.0
 40
2.0
 50
9.9999999999986073
 51
90.0
  0
ARC
  5
7BE3
  8
0
 10
413.35600361918432
 20
982.60279819889547
 30
0.0
 40
2.0
 50
9.9999999999986073
 51
90.0
  0
ARC
  5
7BE4
  8
0
 10
413.38475261918421
 20
984.00201419889561
 30
0.0
 40
2.0
 50
9.9999999999986073
 51
90.0
  0
LINE
  5
7BE5
  8
0
 10
421.96119161918409
 20
972.50201419889584
 30
0.0
 11
418.96119161918432
 21
975.50201419889549
 31
0.0
  0
LINE
  5
7BE6
  8
0
 10
416.91438461918409
 20
975.50201419889549
 30
0.0
 11
418.96118861918433
 21
975.50201419889549
 31
0.0
  0
LINE
  5
7BE7
  8
0
 10
421.96118861918433
 20
802.50201419889572
 30
0.0
 11
418.96118861918433
 21
799.50201419889572
 31
0.0
  0
LINE
  5
7BE8
  8
0
 10
418.96118861918433
 20
799.50201419889572
 30
0.0
 11
418.96118861918433
 21
825.12240019889566
 31
0.0
  0
LINE
  5
7BE9
  8
0
 10
421.96118861918433
 20
802.50201419889572
 30
0.0
 11
421.96118861918433
 21
972.50201419889584
 31
0.0
  0
CIRCLE
  5
7BEA
  8
0
 10
314.96118861918433
 20
887.50201419889561
 30
0.0
 40
11.0
  0
LINE
  5
7BEB
  8
0
 10
222.24730861918431
 20
986.00201419889561
 30
0.0
 11
273.96118861918433
 21
986.00201419889561
 31
0.0
  0
LINE
  5
7BEC
  8
0
 10
353.96118861918433
 20
978.51026219889559
 30
0.0
 11
353.96118861918433
 21
984.00201419889561
 31
0.0
  0
LINE
  5
7BED
  8
0
 10
275.96118861918433
 20
978.51026219889559
 30
0.0
 11
275.96118861918433
 21
984.00201419889561
 31
0.0
  0
ARC
  5
7BEE
  8
0
 10
273.96118861918433
 20
984.00201419889561
 30
0.0
 40
2.0
 50
0.0
 51
90.0
  0
ARC
  5
7BEF
  8
0
 10
355.96118861918433
 20
984.00201419889561
 30
0.0
 40
2.0
 50
90.0
 51
180.0
  0
LINE
  5
7BF0
  8
0
 10
355.96118861918433
 20
986.00201419889561
 30
0.0
 11
413.38475261918421
 21
986.00201419889561
 31
0.0
  0
LINE
  5
7BF1
  8
0
 10
413.35600361918432
 20
984.60279819889547
 30
0.0
 11
355.96118861918433
 21
984.60279819889547
 31
0.0
  0
LINE
  5
7BF2
  8
0
 10
416.96118861918433
 20
973.67432119889577
 30
0.0
 11
415.32561961918429
 21
982.9500941988955
 31
0.0
  0
LINE
  5
7BF3
  8
0
 10
416.96118861918433
 20
975.23657819889559
 30
0.0
 11
415.35436761918419
 21
984.34931019889575
 31
0.0
  0
LINE
  5
7BF4
  8
0
 10
217.9611886191843
 20
971.21176019889549
 30
0.0
 11
220.2776936191843
 21
984.34931019889575
 31
0.0
  0
ARC
  5
7BF5
  8
0
 10
222.24730861918431
 20
984.00201419889561
 30
0.0
 40
2.0
 50
90.0
 51
170.00000000000139
  0
LINE
  5
7BF6
  8
0
 10
217.9611886191843
 20
969.55269919889554
 30
0.0
 11
220.3235106191843
 21
982.9500941988955
 31
0.0
  0
ARC
  5
7BF7
  8
0
 10
222.29312661918439
 20
982.60279819889547
 30
0.0
 40
2.0
 50
90.0
 51
170.00000000000139
  0
ARC
  5
7BF8
  8
0
 10
273.96118861918433
 20
982.60279819889547
 30
0.0
 40
2.0
 50
0.0
 51
90.0
  0
ARC
  5
7BF9
  8
0
 10
355.96118861918433
 20
982.60279819889547
 30
0.0
 40
2.0
 50
90.0
 51
180.0
  0
LINE
  5
7BFA
  8
0
 10
273.96118861918433
 20
984.60279819889547
 30
0.0
 11
222.29312661918439
 21
984.60279819889547
 31
0.0
  0
LINE
  5
7BFB
  8
0
 10
413.27008561918427
 20
982.05106119889558
 30
0.0
 11
355.96118861918433
 21
982.05106119889558
 31
0.0
  0
LINE
  5
7BFC
  8
0
 10
416.83240861918432
 20
971.3656631988955
 30
0.0
 11
415.23970061918442
 21
980.39835819889572
 31
0.0
  0
LINE
  5
7BFD
  8
0
 10
217.9611886191843
 20
966.33190819889546
 30
0.0
 11
220.4414836191844
 21
980.39835819889572
 31
0.0
  0
ARC
  5
7BFE
  8
0
 10
222.4110986191844
 20
980.05106119889558
 30
0.0
 40
2.0
 50
90.0
 51
170.00000000000139
  0
ARC
  5
7BFF
  8
0
 10
273.96118861918433
 20
980.05106119889558
 30
0.0
 40
2.0
 50
0.0
 51
90.0
  0
ARC
  5
7C00
  8
0
 10
355.96118861918433
 20
980.05106119889558
 30
0.0
 40
2.0
 50
90.0
 51
180.0
  0
LINE
  5
7C01
  8
0
 10
273.96118861918433
 20
982.05106119889558
 30
0.0
 11
222.4110986191844
 21
982.05106119889558
 31
0.0
  0
LINE
  5
7C02
  8
0
 10
413.20406861918428
 20
978.51026219889559
 30
0.0
 11
222.5726076191844
 21
978.51026219889559
 31
0.0
  0
LINE
  5
7C03
  8
0
 10
416.14205361918431
 20
971.3656631988955
 30
0.0
 11
415.1736846191842
 21
976.85755819889562
 31
0.0
  0
LINE
  5
7C04
  8
0
 10
217.9611886191843
 20
961.87514819889554
 30
0.0
 11
220.60299161918431
 21
976.85755819889562
 31
0.0
  0
ARC
  5
7C05
  8
0
 10
222.5726076191844
 20
976.51026219889559
 30
0.0
 40
2.0
 50
90.0
 51
170.00000000000139
  0
LINE
  5
7C06
  8
0
 10
347.01754461918409
 20
971.90269419889546
 30
0.0
 11
222.9048326191845
 21
971.90269419889546
 31
0.0
  0
LINE
  5
7C07
  8
0
 10
351.96118861918433
 20
953.38343619889542
 30
0.0
 11
348.9871596191843
 21
970.24999019889549
 31
0.0
  0
ARC
  5
7C08
  8
0
 10
347.01754461918409
 20
969.90269419889557
 30
0.0
 40
2.0
 50
9.9999999999986073
 51
90.0
  0
LINE
  5
7C09
  8
0
 10
217.9611886191843
 20
953.38343619889542
 30
0.0
 11
220.9352176191843
 21
970.24999019889549
 31
0.0
  0
ARC
  5
7C0A
  8
0
 10
222.9048326191845
 20
969.90269419889557
 30
0.0
 40
2.0
 50
90.0
 51
170.00000000000139
  0
LINE
  5
7C0B
  8
0
 10
346.68728061918432
 20
966.50065019889553
 30
0.0
 11
223.23509661918419
 21
966.50065019889553
 31
0.0
  0
LINE
  5
7C0C
  8
0
 10
351.74013761918428
 20
947.36201419889562
 30
0.0
 11
348.65689661918429
 21
964.84794719889555
 31
0.0
  0
ARC
  5
7C0D
  8
0
 10
346.68728061918432
 20
964.50065019889553
 30
0.0
 40
2.0
 50
9.9999999999986073
 51
90.0
  0
LINE
  5
7C0E
  8
0
 10
218.23818261918441
 20
947.67928219889575
 30
0.0
 11
221.26548061918439
 21
964.84794719889555
 31
0.0
  0
ARC
  5
7C0F
  8
0
 10
223.23509661918419
 20
964.50065019889553
 30
0.0
 40
2.0
 50
90.0
 51
170.00000000000139
  0
LINE
  5
7C10
  8
0
 10
416.96118861918433
 20
892.53216619889565
 30
0.0
 11
416.96118861918433
 21
895.47985819889561
 31
0.0
  0
LINE
  5
7C11
  8
0
 10
416.96118861918433
 20
902.5316421988955
 30
0.0
 11
416.96118861918433
 21
905.49312119889555
 31
0.0
  0
LINE
  5
7C12
  8
0
 10
416.96118861918433
 20
913.52382219889557
 30
0.0
 11
416.96118861918433
 21
916.51644919889554
 31
0.0
  0
LINE
  5
7C13
  8
0
 10
416.96118861918433
 20
924.50661719889547
 30
0.0
 11
416.96118861918433
 21
927.55232319889546
 31
0.0
  0
LINE
  5
7C14
  8
0
 10
416.96118861918433
 20
935.47649619889546
 30
0.0
 11
416.96118861918433
 21
938.60740919889554
 31
0.0
  0
LINE
  5
7C15
  8
0
 10
416.96118861918433
 20
944.43497219889559
 30
0.0
 11
416.96118861918433
 21
947.67928219889575
 31
0.0
  0
LINE
  5
7C16
  8
0
 10
366.96118861918433
 20
961.87514819889554
 30
0.0
 11
350.46387061918432
 21
961.87514819889554
 31
0.0
  0
LINE
  5
7C17
  8
0
 10
398.74796561918441
 20
966.72011619889554
 30
0.0
 11
382.96118861918433
 21
966.72011619889554
 31
0.0
  0
LINE
  5
7C18
  8
0
 10
366.96118861918433
 20
961.87514819889554
 30
0.0
 11
382.96118861918433
 21
966.72011619889554
 31
0.0
  0
LINE
  5
7C19
  8
0
 10
382.96118861918433
 20
966.72011619889554
 30
0.0
 11
382.96118861918433
 21
963.35480119889576
 31
0.0
  0
LINE
  5
7C1A
  8
0
 10
366.96118861918433
 20
961.87514819889554
 30
0.0
 11
366.96118861918433
 21
947.67928219889575
 31
0.0
  0
LINE
  5
7C1B
  8
0
 10
402.46118861918433
 20
950.56797619889562
 30
0.0
 11
402.46118861918433
 21
969.36566319889562
 31
0.0
  0
ARC
  5
7C1C
  8
0
 10
404.46118861918433
 20
969.36566319889562
 30
0.0
 40
2.0
 50
90.0
 51
180.0
  0
LINE
  5
7C1D
  8
0
 10
402.46118861918433
 20
954.95807419889582
 30
0.0
 11
382.96118861918433
 21
954.95807419889582
 31
0.0
  0
LINE
  5
7C1E
  8
0
 10
397.06119461918422
 20
963.35480119889576
 30
0.0
 11
382.96118861918433
 21
963.35480119889576
 31
0.0
  0
LINE
  5
7C1F
  8
0
 10
382.96118861918433
 20
954.95807419889582
 30
0.0
 11
382.96118861918433
 21
947.67928219889575
 31
0.0
  0
LINE
  5
7C21
  8
0
 10
421.96118861918433
 20
971.3656631988955
 30
0.0
 11
404.46118861918433
 21
971.3656631988955
 31
0.0
  0
LINE
  5
7C22
  8
0
 10
421.96118861918433
 20
949.56797619889585
 30
0.0
 11
401.46118861918421
 21
949.56797619889585
 31
0.0
  0
ARC
  5
7C23
  8
0
 10
401.46118861918421
 20
950.56797619889562
 30
0.0
 40
1.0
 50
270.0
 51
0.0
  0
LINE
  5
7C24
  8
0
 10
421.96118861918433
 20
963.24165819889549
 30
0.0
 11
404.46118861918433
 21
963.24165819889549
 31
0.0
  0
LINE
  5
7C25
  8
0
 10
214.4611886191843
 20
971.50201419889561
 30
0.0
 11
217.9611886191843
 21
971.50201419889561
 31
0.0
  0
ARC
  5
7C26
  8
0
 10
418.63938761918411
 20
797.50201419889572
 30
0.0
 40
2.0
 50
90.0
 51
170.00000000000139
  0
ARC
  5
7C27
  8
0
 10
354.70383061918432
 20
792.50835719889574
 30
0.0
 40
1.9936590000000001
 50
90.075931000003507
 51
178.17025399999861
  0
LINE
  5
7C28
  8
0
 10
354.70118861918428
 20
794.50201419889572
 30
0.0
 11
414.4013546191843
 21
794.50201419889572
 31
0.0
  0
LINE
  5
7C29
  8
0
 10
352.46118861918433
 20
785.50201419889572
 30
0.0
 11
353.07721761918441
 21
803.10133419889576
 31
0.0
  0
LINE
  5
7C2A
  8
0
 10
416.66977261918402
 20
797.84931019889575
 30
0.0
 11
416.37096961918428
 21
796.15471819889547
 31
0.0
  0
ARC
  5
7C2B
  8
0
 10
414.4013546191843
 20
796.50201419889572
 30
0.0
 40
2.0
 50
270.0
 51
350.00000000000142
  0
LINE
  5
7C2C
  8
0
 10
218.53853861918429
 20
802.50201419889572
 30
0.0
 11
225.75541761918419
 21
790.00201419889572
 31
0.0
  0
LINE
  5
7C2D
  8
0
 10
227.48746761918429
 20
789.00201419889572
 30
0.0
 11
275.40615961918439
 21
789.00201419889572
 31
0.0
  0
LINE
  5
7C2E
  8
0
 10
277.46118861918433
 20
785.50201419889572
 30
0.0
 11
277.40487661918439
 21
787.07362919889545
 31
0.0
  0
ARC
  5
7C2F
  8
0
 10
216.8064876191844
 20
801.50201419889572
 30
0.0
 40
2.0
 50
30.000000000000551
 51
90.0
  0
ARC
  5
7C30
  8
0
 10
227.48746761918429
 20
791.00201419889572
 30
0.0
 40
2.0
 50
210.00000000000051
 51
270.0
  0
ARC
  5
7C31
  8
0
 10
275.40615961918439
 20
787.00201419889572
 30
0.0
 40
2.0
 50
2.0520649999985339
 51
90.0
  0
LINE
  5
7C32
  8
0
 10
277.46118861918433
 20
785.50201419889572
 30
0.0
 11
352.46118861918433
 21
785.50201419889572
 31
0.0
  0
LINE
  5
7C33
  8
0
 10
226.48746761918429
 20
789.26996319889565
 30
0.0
 11
226.48746761918429
 21
803.10133419889576
 31
0.0
  0
LINE
  5
7C34
  8
0
 10
412.92827261918433
 20
803.10133419889576
 30
0.0
 11
222.9048326191845
 21
803.10133419889576
 31
0.0
  0
LINE
  5
7C35
  8
0
 10
412.70748661918429
 20
808.50337819889558
 30
0.0
 11
223.0140456191842
 21
808.50337819889558
 31
0.0
  0
LINE
  5
7C36
  8
0
 10
416.96118861918433
 20
823.10978019889569
 30
0.0
 11
382.96118861918433
 21
823.10978019889569
 31
0.0
  0
LINE
  5
7C37
  8
0
 10
416.96118861918433
 20
823.10978019889569
 30
0.0
 11
414.67710161918433
 21
810.15608119889566
 31
0.0
  0
ARC
  5
7C38
  8
0
 10
412.70748661918429
 20
810.50337819889569
 30
0.0
 40
2.0
 50
270.0
 51
350.00000000000142
  0
LINE
  5
7C39
  8
0
 10
416.96118861918433
 20
816.4555981988957
 30
0.0
 11
414.89788761918442
 21
804.75403819889573
 31
0.0
  0
ARC
  5
7C3A
  8
0
 10
412.92827261918433
 20
805.10133419889576
 30
0.0
 40
2.0
 50
270.0
 51
350.00000000000142
  0
LINE
  5
7C3B
  8
0
 10
221.7039266191845
 20
803.50201419889561
 30
0.0
 11
214.4611886191843
 21
803.50201419889561
 31
0.0
  0
LINE
  5
7C3C
  8
0
 10
416.96118861918433
 20
804.35002819889576
 30
0.0
 11
415.51613461918407
 21
796.15471819889547
 31
0.0
  0
ARC
  5
7C3D
  8
0
 10
413.54651861918433
 20
796.50201419889572
 30
0.0
 40
2.0
 50
270.0
 51
350.00000000000142
  0
LINE
  5
7C3E
  8
0
 10
351.96118861918433
 20
839.34201419889575
 30
0.0
 11
351.96118861918433
 21
836.64201419889571
 31
0.0
  0
LINE
  5
7C3F
  8
0
 10
421.96118861918433
 20
825.29237719889568
 30
0.0
 11
404.46118861918433
 21
825.29237719889568
 31
0.0
  0
LINE
  5
7C40
  8
0
 10
421.96118861918433
 20
837.60001619889545
 30
0.0
 11
404.46118861918433
 21
837.60001619889545
 31
0.0
  0
LINE
  5
7C41
  8
0
 10
421.96118861918433
 20
847.77930819889571
 30
0.0
 11
416.96118861918433
 21
847.77930819889571
 31
0.0
  0
LINE
  5
7C42
  8
0
 10
402.46118861918433
 20
846.77930819889559
 30
0.0
 11
402.46118861918433
 21
827.29237719889545
 31
0.0
  0
ARC
  5
7C43
  8
0
 10
401.46118861918421
 20
846.77930819889559
 30
0.0
 40
1.0
 50
0.0
 51
42.252324000004279
  0
ARC
  5
7C44
  8
0
 10
404.46118861918433
 20
827.29237719889545
 30
0.0
 40
2.0
 50
180.0
 51
270.0
  0
LINE
  5
7C45
  8
0
 10
366.96118861918433
 20
944.43497219889559
 30
0.0
 11
366.96118861918433
 21
938.60740919889554
 31
0.0
  0
LINE
  5
7C46
  8
0
 10
382.96118861918433
 20
944.43497219889559
 30
0.0
 11
382.96118861918433
 21
938.60740919889554
 31
0.0
  0
LINE
  5
7C47
  8
0
 10
366.96118861918433
 20
935.47649619889546
 30
0.0
 11
366.96118861918433
 21
927.55232319889546
 31
0.0
  0
LINE
  5
7C48
  8
0
 10
366.96118861918433
 20
924.50661719889547
 30
0.0
 11
366.96118861918433
 21
916.51644919889554
 31
0.0
  0
LINE
  5
7C49
  8
0
 10
366.96118861918433
 20
913.52382219889557
 30
0.0
 11
366.96118861918433
 21
905.49312119889555
 31
0.0
  0
LINE
  5
7C4A
  8
0
 10
366.96118861918433
 20
902.5316421988955
 30
0.0
 11
366.96118861918433
 21
895.47985819889561
 31
0.0
  0
LINE
  5
7C4B
  8
0
 10
366.96118861918433
 20
892.66201419889569
 30
0.0
 11
366.96118861918433
 21
882.47186219889568
 31
0.0
  0
LINE
  5
7C4C
  8
0
 10
382.96118861918433
 20
892.66201419889569
 30
0.0
 11
382.96118861918433
 21
882.47186219889568
 31
0.0
  0
LINE
  5
7C4D
  8
0
 10
382.96118861918433
 20
902.5316421988955
 30
0.0
 11
382.96118861918433
 21
895.47985819889561
 31
0.0
  0
LINE
  5
7C4E
  8
0
 10
382.96118861918433
 20
913.52382219889557
 30
0.0
 11
382.96118861918433
 21
905.49312119889555
 31
0.0
  0
LINE
  5
7C4F
  8
0
 10
382.96118861918433
 20
924.50661719889547
 30
0.0
 11
382.96118861918433
 21
916.51644919889554
 31
0.0
  0
LINE
  5
7C50
  8
0
 10
382.96118861918433
 20
935.47649619889546
 30
0.0
 11
382.96118861918433
 21
927.55232319889546
 31
0.0
  0
LINE
  5
7C51
  8
0
 10
366.96118861918433
 20
879.5241701988956
 30
0.0
 11
366.96118861918433
 21
872.47238619889572
 31
0.0
  0
LINE
  5
7C52
  8
0
 10
382.96118861918433
 20
879.5241701988956
 30
0.0
 11
382.96118861918433
 21
872.47238619889572
 31
0.0
  0
LINE
  5
7C53
  8
0
 10
382.96118861918433
 20
869.51090719889567
 30
0.0
 11
382.96118861918433
 21
861.48020619889564
 31
0.0
  0
LINE
  5
7C54
  8
0
 10
366.96118861918433
 20
869.51090719889567
 30
0.0
 11
366.96118861918433
 21
861.48020619889564
 31
0.0
  0
LINE
  5
7C55
  8
0
 10
366.96118861918433
 20
858.48757919889556
 30
0.0
 11
366.96118861918433
 21
850.49741119889575
 31
0.0
  0
LINE
  5
7C56
  8
0
 10
382.96118861918433
 20
858.48757919889556
 30
0.0
 11
382.96118861918433
 21
850.49741119889575
 31
0.0
  0
LINE
  5
7C57
  8
0
 10
397.51058361918427
 20
831.4812181988957
 30
0.0
 11
382.96118761918422
 21
831.4812181988957
 31
0.0
  0
LINE
  5
7C58
  8
0
 10
402.46118861918433
 20
842.89356819889554
 30
0.0
 11
382.96118761918422
 21
842.89356819889554
 31
0.0
  0
LINE
  5
7C59
  8
0
 10
366.96118861918433
 20
847.45170519889575
 30
0.0
 11
366.96118861918433
 21
827.45170519889575
 31
0.0
  0
LINE
  5
7C5A
  8
0
 10
418.96118861918433
 20
971.3656631988955
 30
0.0
 11
418.96118861918433
 21
975.50201419889549
 31
0.0
  0
LINE
  5
7C5B
  8
0
 10
416.96118861918433
 20
801.30027019889565
 30
0.0
 11
416.05388861918419
 21
796.15471819889547
 31
0.0
  0
ARC
  5
7C5C
  8
0
 10
414.08427361918399
 20
796.50201419889572
 30
0.0
 40
2.0
 50
270.0
 51
350.00000000000142
  0
LINE
  5
7C5D
  8
0
 10
382.96118861918433
 20
847.45170519889575
 30
0.0
 11
382.96118861918433
 21
842.89356819889554
 31
0.0
  0
LINE
  5
7C5E
  8
0
 10
418.96118861918433
 20
847.77930819889571
 30
0.0
 11
418.96118861918433
 21
949.56797619889585
 31
0.0
  0
LINE
  5
7C5F
  8
0
 10
217.9611886191843
 20
827.64201419889571
 30
0.0
 11
221.0444306191842
 21
810.15608119889566
 31
0.0
  0
ARC
  5
7C60
  8
0
 10
223.0140456191842
 20
810.50337819889569
 30
0.0
 40
2.0
 50
189.99999999999861
 51
270.0
  0
LINE
  5
7C61
  8
0
 10
367.66658561918427
 20
836.19630819889574
 30
0.0
 11
382.96118861918433
 21
831.4812181988957
 31
0.0
  0
LINE
  5
7C62
  8
0
 10
382.96118861918433
 20
842.89356819889554
 30
0.0
 11
367.92524761918452
 21
842.35281719889565
 31
0.0
  0
LINE
  5
7C63
  8
0
 10
382.96118861918433
 20
831.4812181988957
 30
0.0
 11
382.96118861918433
 21
823.10978019889569
 31
0.0
  0
ARC
  5
7C64
  8
0
 10
367.96118861918433
 20
841.35346319889572
 30
0.0
 40
1.0
 50
92.059691000003568
 51
180.0
  0
ARC
  5
7C65
  8
0
 10
367.96118861918433
 20
837.15192819889569
 30
0.0
 40
1.0
 50
180.0
 51
252.8662750000021
  0
LINE
  5
7C66
  8
0
 10
382.96118861918433
 20
963.35480119889576
 30
0.0
 11
367.66072961918451
 21
958.5349351988956
 31
0.0
  0
LINE
  5
7C67
  8
0
 10
368.00974361918429
 20
954.2312541988955
 30
0.0
 11
382.96118861918433
 21
954.95807419889582
 31
0.0
  0
ARC
  5
7C68
  8
0
 10
367.96118861918433
 20
957.58114019889547
 30
0.0
 40
1.0
 50
107.485179
 51
180.0
  0
ARC
  5
7C69
  8
0
 10
367.96118861918433
 20
955.23007519889552
 30
0.0
 40
1.0
 50
180.0
 51
270.0
  0
LINE
  5
7C6B
  8
0
 10
416.96118861918433
 20
947.67928219889575
 30
0.0
 11
217.9611886191843
 21
947.67928219889575
 31
0.0
  0
LINE
  5
7C6C
  8
0
 10
416.96118861918433
 20
944.43497219889559
 30
0.0
 11
217.9611886191843
 21
944.43497219889559
 31
0.0
  0
LINE
  5
7C6D
  8
0
 10
416.96118861918433
 20
938.60740919889554
 30
0.0
 11
217.9611886191843
 21
938.60740919889554
 31
0.0
  0
LINE
  5
7C6E
  8
0
 10
416.96118861918433
 20
935.47649619889546
 30
0.0
 11
217.9611886191843
 21
935.47649619889546
 31
0.0
  0
LINE
  5
7C6F
  8
0
 10
416.96118861918433
 20
927.55232319889546
 30
0.0
 11
217.9611886191843
 21
927.55232319889546
 31
0.0
  0
LINE
  5
7C70
  8
0
 10
416.96118861918433
 20
924.50661719889547
 30
0.0
 11
217.9611886191843
 21
924.50661719889547
 31
0.0
  0
LINE
  5
7C71
  8
0
 10
416.96118861918433
 20
916.51644919889554
 30
0.0
 11
217.9611886191843
 21
916.51644919889554
 31
0.0
  0
LINE
  5
7C72
  8
0
 10
416.96118861918433
 20
913.52382219889557
 30
0.0
 11
217.9611886191843
 21
913.52382219889557
 31
0.0
  0
LINE
  5
7C73
  8
0
 10
416.96118861918433
 20
905.49312119889555
 30
0.0
 11
217.9611886191843
 21
905.49312119889555
 31
0.0
  0
LINE
  5
7C74
  8
0
 10
416.96118861918433
 20
902.5316421988955
 30
0.0
 11
217.9611886191843
 21
902.5316421988955
 31
0.0
  0
LINE
  5
7C75
  8
0
 10
416.96118861918433
 20
895.47985819889561
 30
0.0
 11
322.53443161918437
 21
895.47985819889561
 31
0.0
  0
LINE
  5
7C76
  8
0
 10
416.96118861918433
 20
892.53216619889565
 30
0.0
 11
329.34683561918422
 21
892.53216619889565
 31
0.0
  0
LINE
  5
7C77
  8
0
 10
414.88226761918418
 20
947.00201419889549
 30
0.0
 11
414.88226761918418
 21
945.00201419889561
 31
0.0
  0
LINE
  5
7C78
  8
0
 10
220.04010961918439
 20
945.00201419889561
 30
0.0
 11
414.88226761918418
 21
945.00201419889561
 31
0.0
  0
LINE
  5
7C79
  8
0
 10
220.04010961918439
 20
947.00201419889549
 30
0.0
 11
414.88226761918418
 21
947.00201419889549
 31
0.0
  0
LINE
  5
7C7A
  8
0
 10
220.04010961918439
 20
936.00201419889561
 30
0.0
 11
414.88226761918418
 21
936.00201419889561
 31
0.0
  0
LINE
  5
7C7B
  8
0
 10
220.04010961918439
 20
938.00201419889549
 30
0.0
 11
414.88226761918418
 21
938.00201419889549
 31
0.0
  0
LINE
  5
7C7C
  8
0
 10
220.04010961918439
 20
925.00201419889561
 30
0.0
 11
414.88226761918418
 21
925.00201419889561
 31
0.0
  0
LINE
  5
7C7D
  8
0
 10
220.04010961918439
 20
927.00201419889584
 30
0.0
 11
414.88226761918418
 21
927.00201419889584
 31
0.0
  0
LINE
  5
7C7E
  8
0
 10
220.04010961918439
 20
914.00201419889549
 30
0.0
 11
414.88226761918418
 21
914.00201419889549
 31
0.0
  0
LINE
  5
7C7F
  8
0
 10
220.04010961918439
 20
916.00201419889561
 30
0.0
 11
414.88226761918418
 21
916.00201419889561
 31
0.0
  0
LINE
  5
7C80
  8
0
 10
220.04010961918439
 20
903.00201419889561
 30
0.0
 11
414.88226761918418
 21
903.00201419889561
 31
0.0
  0
LINE
  5
7C81
  8
0
 10
220.04010961918439
 20
905.00201419889549
 30
0.0
 11
414.88226761918418
 21
905.00201419889549
 31
0.0
  0
LINE
  5
7C82
  8
0
 10
328.73616561918408
 20
893.00201419889584
 30
0.0
 11
414.88226761918418
 21
893.00201419889584
 31
0.0
  0
LINE
  5
7C83
  8
0
 10
323.00792661918439
 20
895.00201419889572
 30
0.0
 11
414.88226761918418
 21
895.00201419889572
 31
0.0
  0
LINE
  5
7C84
  8
0
 10
414.88226761918418
 20
947.00201419889549
 30
0.0
 11
416.96118861918433
 21
947.67928219889575
 31
0.0
  0
LINE
  5
7C85
  8
0
 10
414.88226761918418
 20
945.00201419889561
 30
0.0
 11
416.96118861918433
 21
944.43497219889559
 31
0.0
  0
LINE
  5
7C86
  8
0
 10
414.88226761918418
 20
938.00201419889549
 30
0.0
 11
416.96118861918433
 21
938.60740919889554
 31
0.0
  0
LINE
  5
7C87
  8
0
 10
414.88226761918418
 20
936.00201419889561
 30
0.0
 11
416.96118861918433
 21
935.47649619889546
 31
0.0
  0
LINE
  5
7C88
  8
0
 10
414.88226761918418
 20
927.00201419889584
 30
0.0
 11
416.96118861918433
 21
927.55232319889546
 31
0.0
  0
LINE
  5
7C89
  8
0
 10
414.88226761918418
 20
925.00201419889561
 30
0.0
 11
416.96118861918433
 21
924.50661719889547
 31
0.0
  0
LINE
  5
7C8A
  8
0
 10
414.88226761918418
 20
916.00201419889561
 30
0.0
 11
416.96118861918433
 21
916.51644919889554
 31
0.0
  0
LINE
  5
7C8B
  8
0
 10
414.88226761918418
 20
914.00201419889549
 30
0.0
 11
416.96118861918433
 21
913.52382219889557
 31
0.0
  0
LINE
  5
7C8C
  8
0
 10
414.88226761918418
 20
905.00201419889549
 30
0.0
 11
416.96118861918433
 21
905.49312119889555
 31
0.0
  0
LINE
  5
7C8D
  8
0
 10
414.88226761918418
 20
903.00201419889561
 30
0.0
 11
416.96118861918433
 21
902.5316421988955
 31
0.0
  0
LINE
  5
7C8E
  8
0
 10
414.88226761918418
 20
895.00201419889572
 30
0.0
 11
416.96118861918433
 21
895.47985819889561
 31
0.0
  0
LINE
  5
7C8F
  8
0
 10
414.88226761918418
 20
893.00201419889584
 30
0.0
 11
416.96118861918433
 21
892.53216619889565
 31
0.0
  0
LINE
  5
7C90
  8
0
 10
414.88226761918418
 20
938.00201419889549
 30
0.0
 11
414.88226761918418
 21
936.00201419889561
 31
0.0
  0
LINE
  5
7C91
  8
0
 10
414.88226761918418
 20
927.00201419889584
 30
0.0
 11
414.88226761918418
 21
925.00201419889561
 31
0.0
  0
LINE
  5
7C92
  8
0
 10
414.88226761918418
 20
916.00201419889561
 30
0.0
 11
414.88226761918418
 21
914.00201419889549
 31
0.0
  0
LINE
  5
7C93
  8
0
 10
414.88226761918418
 20
905.00201419889549
 30
0.0
 11
414.88226761918418
 21
903.00201419889561
 31
0.0
  0
LINE
  5
7C94
  8
0
 10
414.88226761918418
 20
895.00201419889572
 30
0.0
 11
414.88226761918418
 21
893.00201419889584
 31
0.0
  0
ARC
  5
7C95
  8
0
 10
328.73616561918408
 20
890.00201419889572
 30
0.0
 40
3.0
 50
90.0
 51
190.2865610000006
  0
ARC
  5
7C96
  8
0
 10
329.34683561918422
 20
889.06216619889574
 30
0.0
 40
3.4700000000000002
 50
90.0
 51
186.1896490000004
  0
LINE
  5
7C97
  8
0
 10
235.04010961918439
 20
895.00201419889572
 30
0.0
 11
235.04010961918439
 21
893.00201419889584
 31
0.0
  0
LINE
  5
7C98
  8
0
 10
220.04010961918439
 20
905.00201419889549
 30
0.0
 11
220.04010961918439
 21
903.00201419889561
 31
0.0
  0
LINE
  5
7C99
  8
0
 10
220.04010961918439
 20
916.00201419889561
 30
0.0
 11
220.04010961918439
 21
914.00201419889549
 31
0.0
  0
LINE
  5
7C9A
  8
0
 10
220.04010961918439
 20
927.00201419889584
 30
0.0
 11
220.04010961918439
 21
925.00201419889561
 31
0.0
  0
LINE
  5
7C9B
  8
0
 10
220.04010961918439
 20
938.00201419889549
 30
0.0
 11
220.04010961918439
 21
936.00201419889561
 31
0.0
  0
LINE
  5
7C9C
  8
0
 10
235.04010961918439
 20
893.00201419889584
 30
0.0
 11
232.9611886191843
 21
892.53216619889565
 31
0.0
  0
LINE
  5
7C9D
  8
0
 10
235.04010961918439
 20
895.00201419889572
 30
0.0
 11
232.9611886191843
 21
895.47985819889561
 31
0.0
  0
LINE
  5
7C9E
  8
0
 10
220.04010961918439
 20
903.00201419889561
 30
0.0
 11
217.9611886191843
 21
902.5316421988955
 31
0.0
  0
LINE
  5
7C9F
  8
0
 10
220.04010961918439
 20
905.00201419889549
 30
0.0
 11
217.9611886191843
 21
905.49312119889555
 31
0.0
  0
LINE
  5
7CA0
  8
0
 10
220.04010961918439
 20
914.00201419889549
 30
0.0
 11
217.9611886191843
 21
913.52382219889557
 31
0.0
  0
LINE
  5
7CA1
  8
0
 10
220.04010961918439
 20
916.00201419889561
 30
0.0
 11
217.9611886191843
 21
916.51644919889554
 31
0.0
  0
LINE
  5
7CA2
  8
0
 10
220.04010961918439
 20
925.00201419889561
 30
0.0
 11
217.9611886191843
 21
924.50661719889547
 31
0.0
  0
LINE
  5
7CA3
  8
0
 10
220.04010961918439
 20
927.00201419889584
 30
0.0
 11
217.9611886191843
 21
927.55232319889546
 31
0.0
  0
LINE
  5
7CA4
  8
0
 10
220.04010961918439
 20
936.00201419889561
 30
0.0
 11
217.9611886191843
 21
935.47649619889546
 31
0.0
  0
LINE
  5
7CA5
  8
0
 10
220.04010961918439
 20
938.00201419889549
 30
0.0
 11
217.9611886191843
 21
938.60740919889554
 31
0.0
  0
LINE
  5
7CA6
  8
0
 10
220.04010961918439
 20
945.00201419889561
 30
0.0
 11
217.9611886191843
 21
944.43497219889559
 31
0.0
  0
LINE
  5
7CA7
  8
0
 10
220.04010961918439
 20
947.00201419889549
 30
0.0
 11
217.9611886191843
 21
947.67928219889575
 31
0.0
  0
LINE
  5
7CA8
  8
0
 10
220.04010961918439
 20
947.00201419889549
 30
0.0
 11
220.04010961918439
 21
945.00201419889561
 31
0.0
  0
LINE
  5
7CA9
  8
0
 10
217.9611886191843
 20
944.43497219889559
 30
0.0
 11
217.9611886191843
 21
947.67928219889575
 31
0.0
  0
LINE
  5
7CAA
  8
0
 10
217.9611886191843
 20
935.47649619889546
 30
0.0
 11
217.9611886191843
 21
938.60740919889554
 31
0.0
  0
LINE
  5
7CAB
  8
0
 10
217.9611886191843
 20
924.50661719889547
 30
0.0
 11
217.9611886191843
 21
927.55232319889546
 31
0.0
  0
LINE
  5
7CAC
  8
0
 10
217.9611886191843
 20
913.52382219889557
 30
0.0
 11
217.9611886191843
 21
916.51644919889554
 31
0.0
  0
LINE
  5
7CAD
  8
0
 10
217.9611886191843
 20
902.5316421988955
 30
0.0
 11
217.9611886191843
 21
905.49312119889555
 31
0.0
  0
LINE
  5
7CAE
  8
0
 10
232.9611886191843
 20
892.53216619889565
 30
0.0
 11
232.9611886191843
 21
895.47985819889561
 31
0.0
  0
LINE
  5
7CAF
  8
0
 10
232.9611886191843
 20
895.47985819889561
 30
0.0
 11
307.38794561918428
 21
895.47985819889561
 31
0.0
  0
LINE
  5
7CB0
  8
0
 10
232.9611886191843
 20
892.53216619889565
 30
0.0
 11
300.57554161918449
 21
892.53216619889565
 31
0.0
  0
LINE
  5
7CB1
  8
0
 10
301.18621161918452
 20
893.00201419889584
 30
0.0
 11
235.04010961918439
 21
893.00201419889584
 31
0.0
  0
LINE
  5
7CB2
  8
0
 10
306.91445061918432
 20
895.00201419889572
 30
0.0
 11
235.04010961918439
 21
895.00201419889572
 31
0.0
  0
ARC
  5
7CB3
  8
0
 10
301.18621161918452
 20
890.00201419889572
 30
0.0
 40
3.0
 50
349.71343899999943
 51
90.0
  0
ARC
  5
7CB4
  8
0
 10
300.57554161918449
 20
889.06216619889574
 30
0.0
 40
3.4700000000000002
 50
353.81035099999951
 51
90.0
  0
LINE
  5
7CB5
  8
0
 10
416.96118861918433
 20
847.45170519889575
 30
0.0
 11
217.9611886191843
 21
847.45170519889575
 31
0.0
  0
LINE
  5
7CB6
  8
0
 10
416.96118861918433
 20
850.49741119889575
 30
0.0
 11
217.9611886191843
 21
850.49741119889575
 31
0.0
  0
LINE
  5
7CB7
  8
0
 10
416.96118861918433
 20
858.48757919889556
 30
0.0
 11
217.9611886191843
 21
858.48757919889556
 31
0.0
  0
LINE
  5
7CB8
  8
0
 10
416.96118861918433
 20
861.48020619889564
 30
0.0
 11
217.9611886191843
 21
861.48020619889564
 31
0.0
  0
LINE
  5
7CB9
  8
0
 10
416.96118861918433
 20
869.51090719889567
 30
0.0
 11
217.9611886191843
 21
869.51090719889567
 31
0.0
  0
LINE
  5
7CBA
  8
0
 10
416.96118861918433
 20
872.47238619889572
 30
0.0
 11
217.9611886191843
 21
872.47238619889572
 31
0.0
  0
LINE
  5
7CBB
  8
0
 10
220.04010961918439
 20
850.00201419889561
 30
0.0
 11
414.88226761918418
 21
850.00201419889561
 31
0.0
  0
LINE
  5
7CBC
  8
0
 10
220.04010961918439
 20
848.00201419889572
 30
0.0
 11
414.88226761918418
 21
848.00201419889572
 31
0.0
  0
LINE
  5
7CBD
  8
0
 10
220.04010961918439
 20
861.00201419889572
 30
0.0
 11
414.88226761918418
 21
861.00201419889572
 31
0.0
  0
LINE
  5
7CBE
  8
0
 10
220.04010961918439
 20
859.00201419889561
 30
0.0
 11
414.88226761918418
 21
859.00201419889561
 31
0.0
  0
LINE
  5
7CBF
  8
0
 10
220.04010961918439
 20
872.00201419889572
 30
0.0
 11
414.88226761918418
 21
872.00201419889572
 31
0.0
  0
LINE
  5
7CC0
  8
0
 10
220.04010961918439
 20
870.00201419889572
 30
0.0
 11
414.88226761918418
 21
870.00201419889572
 31
0.0
  0
LINE
  5
7CC1
  8
0
 10
232.9611886191843
 20
879.5241701988956
 30
0.0
 11
307.38794561918428
 21
879.5241701988956
 31
0.0
  0
LINE
  5
7CC2
  8
0
 10
232.9611886191843
 20
882.47186219889568
 30
0.0
 11
300.57554161918449
 21
882.47186219889568
 31
0.0
  0
LINE
  5
7CC3
  8
0
 10
301.18621161918452
 20
882.00201419889572
 30
0.0
 11
235.04010961918439
 21
882.00201419889572
 31
0.0
  0
LINE
  5
7CC4
  8
0
 10
306.91445061918432
 20
880.00201419889572
 30
0.0
 11
235.04010961918439
 21
880.00201419889572
 31
0.0
  0
LINE
  5
7CC5
  8
0
 10
232.9611886191843
 20
882.47186219889568
 30
0.0
 11
232.9611886191843
 21
879.5241701988956
 31
0.0
  0
LINE
  5
7CC6
  8
0
 10
217.9611886191843
 20
872.47238619889572
 30
0.0
 11
217.9611886191843
 21
869.51090719889567
 31
0.0
  0
LINE
  5
7CC7
  8
0
 10
217.9611886191843
 20
861.48020619889564
 30
0.0
 11
217.9611886191843
 21
858.48757919889556
 31
0.0
  0
LINE
  5
7CC8
  8
0
 10
217.9611886191843
 20
850.49741119889575
 30
0.0
 11
217.9611886191843
 21
847.45170519889575
 31
0.0
  0
LINE
  5
7CC9
  8
0
 10
220.04010961918439
 20
848.00201419889572
 30
0.0
 11
217.9611886191843
 21
847.45170519889575
 31
0.0
  0
LINE
  5
7CCA
  8
0
 10
220.04010961918439
 20
850.00201419889561
 30
0.0
 11
217.9611886191843
 21
850.49741119889575
 31
0.0
  0
LINE
  5
7CCB
  8
0
 10
220.04010961918439
 20
859.00201419889561
 30
0.0
 11
217.9611886191843
 21
858.48757919889556
 31
0.0
  0
LINE
  5
7CCC
  8
0
 10
220.04010961918439
 20
861.00201419889572
 30
0.0
 11
217.9611886191843
 21
861.48020619889564
 31
0.0
  0
LINE
  5
7CCD
  8
0
 10
220.04010961918439
 20
870.00201419889572
 30
0.0
 11
217.9611886191843
 21
869.51090719889567
 31
0.0
  0
LINE
  5
7CCE
  8
0
 10
220.04010961918439
 20
872.00201419889572
 30
0.0
 11
217.9611886191843
 21
872.47238619889572
 31
0.0
  0
LINE
  5
7CCF
  8
0
 10
235.04010961918439
 20
880.00201419889572
 30
0.0
 11
232.9611886191843
 21
879.5241701988956
 31
0.0
  0
LINE
  5
7CD0
  8
0
 10
235.04010961918439
 20
882.00201419889572
 30
0.0
 11
232.9611886191843
 21
882.47186219889568
 31
0.0
  0
LINE
  5
7CD1
  8
0
 10
220.04010961918439
 20
848.00201419889572
 30
0.0
 11
220.04010961918439
 21
850.00201419889561
 31
0.0
  0
LINE
  5
7CD2
  8
0
 10
220.04010961918439
 20
859.00201419889561
 30
0.0
 11
220.04010961918439
 21
861.00201419889572
 31
0.0
  0
LINE
  5
7CD3
  8
0
 10
220.04010961918439
 20
870.00201419889572
 30
0.0
 11
220.04010961918439
 21
872.00201419889572
 31
0.0
  0
LINE
  5
7CD4
  8
0
 10
235.04010961918439
 20
880.00201419889572
 30
0.0
 11
235.04010961918439
 21
882.00201419889572
 31
0.0
  0
ARC
  5
7CD5
  8
0
 10
301.18621161918452
 20
885.00201419889584
 30
0.0
 40
3.0
 50
270.0
 51
10.286561000000651
  0
ARC
  5
7CD6
  8
0
 10
300.57554161918449
 20
885.94186219889571
 30
0.0
 40
3.4700000000000002
 50
270.0
 51
6.1896490000005366
  0
LINE
  5
7CD7
  8
0
 10
416.96118861918433
 20
879.5241701988956
 30
0.0
 11
322.53443161918437
 21
879.5241701988956
 31
0.0
  0
LINE
  5
7CD8
  8
0
 10
416.96118861918433
 20
882.47186219889568
 30
0.0
 11
329.34683561918422
 21
882.47186219889568
 31
0.0
  0
LINE
  5
7CD9
  8
0
 10
328.73616561918408
 20
882.00201419889572
 30
0.0
 11
414.88226761918418
 21
882.00201419889572
 31
0.0
  0
LINE
  5
7CDA
  8
0
 10
323.00792661918439
 20
880.00201419889572
 30
0.0
 11
414.88226761918418
 21
880.00201419889572
 31
0.0
  0
ARC
  5
7CDB
  8
0
 10
328.73616561918408
 20
885.00201419889584
 30
0.0
 40
3.0
 50
169.71343899999931
 51
270.0
  0
ARC
  5
7CDC
  8
0
 10
329.34683561918422
 20
885.94186219889571
 30
0.0
 40
3.4700000000000002
 50
173.8103509999994
 51
270.0
  0
LINE
  5
7CDD
  8
0
 10
414.88226761918418
 20
880.00201419889572
 30
0.0
 11
414.88226761918418
 21
882.00201419889572
 31
0.0
  0
LINE
  5
7CDE
  8
0
 10
414.88226761918418
 20
870.00201419889572
 30
0.0
 11
414.88226761918418
 21
872.00201419889572
 31
0.0
  0
LINE
  5
7CDF
  8
0
 10
414.88226761918418
 20
859.00201419889561
 30
0.0
 11
414.88226761918418
 21
861.00201419889572
 31
0.0
  0
LINE
  5
7CE0
  8
0
 10
414.88226761918418
 20
848.00201419889572
 30
0.0
 11
414.88226761918418
 21
850.00201419889561
 31
0.0
  0
LINE
  5
7CE1
  8
0
 10
414.88226761918418
 20
882.00201419889572
 30
0.0
 11
416.96118861918433
 21
882.47186219889568
 31
0.0
  0
LINE
  5
7CE2
  8
0
 10
414.88226761918418
 20
880.00201419889572
 30
0.0
 11
416.96118861918433
 21
879.5241701988956
 31
0.0
  0
LINE
  5
7CE3
  8
0
 10
414.88226761918418
 20
872.00201419889572
 30
0.0
 11
416.96118861918433
 21
872.47238619889572
 31
0.0
  0
LINE
  5
7CE4
  8
0
 10
414.88226761918418
 20
870.00201419889572
 30
0.0
 11
416.96118861918433
 21
869.51090719889567
 31
0.0
  0
LINE
  5
7CE5
  8
0
 10
414.88226761918418
 20
861.00201419889572
 30
0.0
 11
416.96118861918433
 21
861.48020619889564
 31
0.0
  0
LINE
  5
7CE6
  8
0
 10
414.88226761918418
 20
859.00201419889561
 30
0.0
 11
416.96118861918433
 21
858.48757919889556
 31
0.0
  0
LINE
  5
7CE7
  8
0
 10
414.88226761918418
 20
850.00201419889561
 30
0.0
 11
416.96118861918433
 21
850.49741119889575
 31
0.0
  0
LINE
  5
7CE8
  8
0
 10
414.88226761918418
 20
848.00201419889572
 30
0.0
 11
416.96118861918433
 21
847.45170519889575
 31
0.0
  0
LINE
  5
7CE9
  8
0
 10
416.96118861918433
 20
850.49741119889575
 30
0.0
 11
416.96118861918433
 21
847.45170519889575
 31
0.0
  0
LINE
  5
7CEA
  8
0
 10
416.96118861918433
 20
861.48020619889564
 30
0.0
 11
416.96118861918433
 21
858.48757919889556
 31
0.0
  0
LINE
  5
7CEB
  8
0
 10
416.96118861918433
 20
872.47238619889572
 30
0.0
 11
416.96118861918433
 21
869.51090719889567
 31
0.0
  0
LINE
  5
7CEC
  8
0
 10
416.96118861918433
 20
882.47186219889568
 30
0.0
 11
416.96118861918433
 21
879.5241701988956
 31
0.0
  0
LINE
  5
7CED
  8
0
 10
349.88226761918429
 20
839.00201419889572
 30
0.0
 11
351.96118861918433
 21
839.49741119889575
 31
0.0
  0
LINE
  5
7CEE
  8
0
 10
351.96118861918433
 20
839.49741119889575
 30
0.0
 11
217.9611886191843
 21
839.49741119889575
 31
0.0
  0
LINE
  5
7CEF
  8
0
 10
220.04010961918439
 20
839.00201419889572
 30
0.0
 11
349.88226761918429
 21
839.00201419889572
 31
0.0
  0
LINE
  5
7CF0
  8
0
 10
349.88226761918429
 20
837.00201419889572
 30
0.0
 11
349.88226761918429
 21
839.00201419889572
 31
0.0
  0
LINE
  5
7CF1
  8
0
 10
351.96118861918433
 20
836.45170519889575
 30
0.0
 11
217.9611886191843
 21
836.45170519889575
 31
0.0
  0
LINE
  5
7CF2
  8
0
 10
220.04010961918439
 20
837.00201419889572
 30
0.0
 11
349.88226761918429
 21
837.00201419889572
 31
0.0
  0
LINE
  5
7CF3
  8
0
 10
349.88226761918429
 20
837.00201419889572
 30
0.0
 11
351.96118861918433
 21
836.45170519889575
 31
0.0
  0
LINE
  5
7CF4
  8
0
 10
351.96118861918433
 20
830.49741119889575
 30
0.0
 11
217.9611886191843
 21
830.49741119889575
 31
0.0
  0
LINE
  5
7CF5
  8
0
 10
220.04010961918439
 20
830.00201419889572
 30
0.0
 11
349.88226761918429
 21
830.00201419889572
 31
0.0
  0
LINE
  5
7CF6
  8
0
 10
351.96118861918433
 20
827.45170519889575
 30
0.0
 11
217.9947456191843
 21
827.45170519889575
 31
0.0
  0
LINE
  5
7CF7
  8
0
 10
220.04010961918439
 20
828.00201419889572
 30
0.0
 11
349.88226761918429
 21
828.00201419889572
 31
0.0
  0
LINE
  5
7CF8
  8
0
 10
349.88226761918429
 20
828.00201419889572
 30
0.0
 11
351.96118861918433
 21
827.45170519889575
 31
0.0
  0
LINE
  5
7CF9
  8
0
 10
351.96118861918433
 20
830.49741119889575
 30
0.0
 11
351.96118861918433
 21
827.45170519889575
 31
0.0
  0
LINE
  5
7CFA
  8
0
 10
349.88226761918429
 20
828.00201419889572
 30
0.0
 11
349.88226761918429
 21
830.00201419889572
 31
0.0
  0
LINE
  5
7CFB
  8
0
 10
349.88226761918429
 20
830.00201419889572
 30
0.0
 11
351.96118861918433
 21
830.49741119889575
 31
0.0
  0
LINE
  5
7CFC
  8
0
 10
351.96118861918433
 20
827.45170519889575
 30
0.0
 11
366.96118861918433
 21
827.45170519889575
 31
0.0
  0
LINE
  5
7CFD
  8
0
 10
366.96118861918433
 20
827.45170519889575
 30
0.0
 11
382.96118861918433
 21
823.10978019889569
 31
0.0
  0
LINE
  5
7CFE
  8
0
 10
217.9611886191843
 20
839.49741119889575
 30
0.0
 11
217.9611886191843
 21
836.45170519889575
 31
0.0
  0
LINE
  5
7CFF
  8
0
 10
217.9611886191843
 20
830.49741119889575
 30
0.0
 11
217.9611886191843
 21
827.45170519889575
 31
0.0
  0
LINE
  5
7D00
  8
0
 10
220.04010961918439
 20
837.00201419889572
 30
0.0
 11
220.04010961918439
 21
839.00201419889572
 31
0.0
  0
LINE
  5
7D01
  8
0
 10
220.04010961918439
 20
839.00201419889572
 30
0.0
 11
217.9611886191843
 21
839.49741119889575
 31
0.0
  0
LINE
  5
7D02
  8
0
 10
220.04010961918439
 20
837.00201419889572
 30
0.0
 11
217.9611886191843
 21
836.45170519889575
 31
0.0
  0
LINE
  5
7D03
  8
0
 10
220.04010961918439
 20
830.00201419889572
 30
0.0
 11
217.9611886191843
 21
830.49741119889575
 31
0.0
  0
LINE
  5
7D04
  8
0
 10
220.04010961918439
 20
828.00201419889572
 30
0.0
 11
220.04010961918439
 21
830.00201419889572
 31
0.0
  0
LINE
  5
7D05
  8
0
 10
220.04010961918439
 20
828.00201419889572
 30
0.0
 11
217.9611886191843
 21
827.45170519889575
 31
0.0
  0
LINE
  5
7D06
  8
0
 10
214.4611886191843
 20
895.14578519889574
 30
0.0
 11
220.9611886191843
 21
895.14578519889574
 31
0.0
  0
LINE
  5
7D07
  8
0
 10
214.4611886191843
 20
895.47986319889571
 30
0.0
 11
221.64118861918439
 21
895.47986319889571
 31
0.0
  0
LINE
  5
7D08
  8
0
 10
222.9611886191843
 20
893.14578519889574
 30
0.0
 11
222.9611886191843
 21
887.5020181988956
 31
0.0
  0
LINE
  5
7D09
  8
0
 10
224.64118861918439
 20
898.4798631988956
 30
0.0
 11
224.64118861918439
 21
887.5020181988956
 31
0.0
  0
ARC
  5
7D0A
  8
0
 10
221.64118861918439
 20
898.4798631988956
 30
0.0
 40
3.0
 50
270.0
 51
0.0
  0
LINE
  5
7D0B
  8
0
 10
214.4611886191843
 20
879.85825019889558
 30
0.0
 11
220.9611886191843
 21
879.85825019889558
 31
0.0
  0
LINE
  5
7D0C
  8
0
 10
214.4611886191843
 20
879.5241721988956
 30
0.0
 11
221.64118861918439
 21
879.5241721988956
 31
0.0
  0
LINE
  5
7D0D
  8
0
 10
222.9611886191843
 20
881.85825019889558
 30
0.0
 11
222.9611886191843
 21
887.5020181988956
 31
0.0
  0
LINE
  5
7D0E
  8
0
 10
224.64118861918439
 20
876.52417219889571
 30
0.0
 11
224.64118861918439
 21
887.5020181988956
 31
0.0
  0
ARC
  5
7D0F
  8
0
 10
221.64118861918439
 20
876.52417219889571
 30
0.0
 40
3.0
 50
359.99999799999722
 51
89.999997999997177
  0
ARC
  5
7D11
  8
0
  6
CONTINUOUS
 10
399.66098761918443
 20
958.98528019889545
 30
0.0
 40
2.6003989999999999
 50
179.99998200000081
 51
269.99997799999852
  0
ARC
  5
7D12
  8
0
  6
CONTINUOUS
 10
399.66098761918443
 20
964.28526819889555
 30
0.0
 40
2.600403
 50
90.0
 51
179.99998200000081
  0
LINE
  5
7D13
  8
0
  6
CONTINUOUS
 10
402.46118861918433
 20
961.70129919889553
 30
0.0
 11
400.96118861918433
 21
960.83527419889549
 31
0.0
  0
LINE
  5
7D14
  8
0
  6
CONTINUOUS
 10
402.46118861918433
 20
962.70129919889553
 30
0.0
 11
400.96118861918433
 21
961.83527419889549
 31
0.0
  0
LINE
  5
7D15
  8
0
  6
CONTINUOUS
 10
402.46118861918433
 20
967.73527419889558
 30
0.0
 11
402.46118861918433
 21
955.53527419889542
 31
0.0
  0
LINE
  5
7D16
  8
0
  6
CONTINUOUS
 10
400.96118861918433
 20
967.73527419889558
 30
0.0
 11
402.46118861918433
 21
967.73527419889558
 31
0.0
  0
LINE
  5
7D17
  8
0
  6
CONTINUOUS
 10
400.96118861918433
 20
955.53527419889542
 30
0.0
 11
402.46118861918433
 21
955.53527419889542
 31
0.0
  0
LINE
  5
7D18
  8
0
  6
CONTINUOUS
 10
397.06119461918428
 20
964.28526819889555
 30
0.0
 11
397.06119461918428
 21
958.98528019889545
 31
0.0
  0
LINE
  5
7D19
  8
0
  6
CONTINUOUS
 10
400.96118861918433
 20
967.73527419889558
 30
0.0
 11
400.96118861918433
 21
955.53527419889542
 31
0.0
  0
LINE
  5
7D1A
  8
0
  6
CONTINUOUS
 10
400.96118861918433
 20
956.38527419889556
 30
0.0
 11
399.66098761918443
 21
956.38527419889556
 31
0.0
  0
LINE
  5
7D1B
  8
0
  6
CONTINUOUS
 10
400.96118861918433
 20
966.88527419889544
 30
0.0
 11
399.66098761918443
 21
966.88527419889544
 31
0.0
  0
ARC
  5
7D1C
  8
0
  6
CONTINUOUS
 10
399.66098761918443
 20
832.94335319889569
 30
0.0
 40
2.6003989999999999
 50
179.99998200000081
 51
269.99997799999852
  0
ARC
  5
7D1D
  8
0
  6
CONTINUOUS
 10
399.66098761918443
 20
838.24334119889568
 30
0.0
 40
2.600403
 50
90.0
 51
179.99998200000081
  0
LINE
  5
7D1E
  8
0
  6
CONTINUOUS
 10
402.46118861918433
 20
835.65937219889554
 30
0.0
 11
400.96118861918433
 21
834.79334719889573
 31
0.0
  0
LINE
  5
7D1F
  8
0
  6
CONTINUOUS
 10
402.46118861918433
 20
836.65937219889565
 30
0.0
 11
400.96118861918433
 21
835.79334719889573
 31
0.0
  0
LINE
  5
7D20
  8
0
  6
CONTINUOUS
 10
402.46118861918433
 20
841.69334719889559
 30
0.0
 11
402.46118861918433
 21
829.49334719889544
 31
0.0
  0
LINE
  5
7D21
  8
0
  6
CONTINUOUS
 10
400.96118861918433
 20
841.69334719889559
 30
0.0
 11
402.46118861918433
 21
841.69334719889559
 31
0.0
  0
LINE
  5
7D22
  8
0
  6
CONTINUOUS
 10
400.96118861918433
 20
829.49334719889544
 30
0.0
 11
402.46118861918433
 21
829.49334719889544
 31
0.0
  0
LINE
  5
7D23
  8
0
  6
CONTINUOUS
 10
397.06119461918428
 20
838.24334119889568
 30
0.0
 11
397.06119461918428
 21
832.94335319889569
 31
0.0
  0
LINE
  5
7D24
  8
0
  6
CONTINUOUS
 10
400.96118861918433
 20
841.69334719889559
 30
0.0
 11
400.96118861918433
 21
829.49334719889544
 31
0.0
  0
LINE
  5
7D25
  8
0
  6
CONTINUOUS
 10
400.96118861918433
 20
830.34334719889557
 30
0.0
 11
399.66098761918443
 21
830.34334719889557
 31
0.0
  0
LINE
  5
7D26
  8
0
  6
CONTINUOUS
 10
400.96118861918433
 20
840.84334719889546
 30
0.0
 11
399.66098761918443
 21
840.84334719889546
 31
0.0
  0
LINE
  5
7E98
  8
0
  6
CONTINUOUS
 62
     0
 10
457.60073861918431
 20
802.34473419889548
 30
0.0
 11
421.96118861918421
 21
803.58925433832405
 31
0.0
  0
LINE
  5
7E99
  8
0
  6
CONTINUOUS
 62
     0
 10
457.60079861918399
 20
972.65924419889495
 30
0.0
 11
421.96118861918421
 21
971.41464893676743
 31
0.0
  0
ARC
  5
7E9E
  8
0
  6
CONTINUOUS
 62
     0
 10
457.46121861918408
 20
798.34717419889557
 30
0.0
 40
4.0
 50
0.0
 51
87.999999999996248
  0
ARC
  5
7E9F
  8
0
  6
CONTINUOUS
 62
     0
 10
457.46121861918408
 20
976.65680419889554
 30
0.0
 40
4.0
 50
272.00000000000369
 51
0.0
  0
LINE
  5
7EA1
  8
0
  6
CONTINUOUS
 10
421.96118861918433
 20
963.24165819889549
 30
0.0
 11
461.46119861918328
 21
963.24165819889549
 31
0.0
  0
LINE
  5
7EA2
  8
0
  6
CONTINUOUS
 10
421.96118861918433
 20
949.56797619889585
 30
0.0
 11
461.46119861918328
 21
949.56797619889585
 31
0.0
  0
LINE
  5
7EA3
  8
0
  6
CONTINUOUS
 10
421.96118861918433
 20
825.29237719889568
 30
0.0
 11
461.46119861918328
 21
825.29237719889568
 31
0.0
  0
LINE
  5
7EA4
  8
0
  6
CONTINUOUS
 10
421.96118861918433
 20
837.60001619889545
 30
0.0
 11
461.46119861918328
 21
837.60001619889545
 31
0.0
  0
LINE
  5
7EA5
  8
0
  6
CONTINUOUS
 10
421.96118861918433
 20
847.77930819889571
 30
0.0
 11
461.46119861918328
 21
847.77930819889571
 31
0.0
  0
LINE
  5
8076
  8
0
  6
CONTINUOUS
 62
     7
 10
477.39142861918327
 20
1016.245794198896
 30
0.0
 11
488.46119861918322
 21
1016.632384198896
 31
0.0
  0
LINE
  5
8077
  8
0
  6
CONTINUOUS
 62
     7
 10
461.46119861918328
 20
773.3940441988957
 30
0.0
 11
461.46119861918328
 21
883.50201419889549
 31
0.0
  0
LINE
  5
8078
  8
0
  6
CONTINUOUS
 62
     7
 10
475.46112861918328
 20
751.29223419889547
 30
0.0
 11
475.46112861918328
 21
877.96258419889568
 31
0.0
  0
LINE
  5
8079
  8
0
  6
CONTINUOUS
 62
     7
 10
463.94025861918351
 20
1004.580994198896
 30
0.0
 11
472.98212861918341
 21
1006.175354198895
 31
0.0
  0
LINE
  5
807A
  8
0
  6
CONTINUOUS
 62
     7
 10
478.30408861918329
 20
1026.7076441988961
 30
0.0
 11
488.46119861918322
 21
1027.239934198896
 31
0.0
  0
LINE
  5
807B
  8
0
  6
CONTINUOUS
 62
     7
 10
478.29120861918358
 20
748.29706419889567
 30
0.0
 11
488.46119861918322
 21
747.76410419889555
 31
0.0
  0
LINE
  5
807C
  8
0
  6
CONTINUOUS
 62
     7
 10
488.46119861918322
 20
747.7640441988957
 30
0.0
 11
488.46119861918322
 21
883.50201419889549
 31
0.0
  0
LINE
  5
807D
  8
0
  6
CONTINUOUS
 62
     7
 10
475.46112861918328
 20
809.93622419889573
 30
0.0
 11
488.46119861918322
 21
809.93622419889573
 31
0.0
  0
LINE
  5
807E
  8
0
  6
CONTINUOUS
 62
     7
 10
475.46112861918328
 20
835.93750419889557
 30
0.0
 11
488.46119861918322
 21
835.93750419889557
 31
0.0
  0
LINE
  5
807F
  8
0
  6
CONTINUOUS
 62
     7
 10
475.46112861918328
 20
939.06653419889585
 30
0.0
 11
488.46119861918322
 21
939.06653419889585
 31
0.0
  0
LINE
  5
8080
  8
0
  6
CONTINUOUS
 62
     7
 10
475.46112861918328
 20
965.06781419889558
 30
0.0
 11
488.46119861918322
 21
965.06781419889558
 31
0.0
  0
LINE
  5
8081
  8
0
  6
CONTINUOUS
 62
     7
 10
477.39142861918327
 20
758.75824419889545
 30
0.0
 11
488.4612586191833
 21
758.37164419889586
 31
0.0
  0
LINE
  5
8082
  8
0
  6
CONTINUOUS
 62
     7
 10
463.94019861918338
 20
770.42303419889572
 30
0.0
 11
472.98212861918341
 21
768.82867419889567
 31
0.0
  0
LINE
  5
8083
  8
0
  6
CENTER
 62
     7
 10
472.4612586191833
 20
870.79364419889589
 30
0.0
 11
472.4612586191833
 21
902.1069341988956
 31
0.0
  0
LINE
  5
8084
  8
0
  6
CONTINUOUS
 62
     7
 10
455.96125861918352
 20
883.50201419889549
 30
0.0
 11
488.9612586191833
 21
883.50201419889549
 31
0.0
  0
LINE
  5
8085
  8
0
  6
CONTINUOUS
 62
     7
 10
455.96125861918352
 20
891.50195419889553
 30
0.0
 11
488.9612586191833
 21
891.50195419889553
 31
0.0
  0
LINE
  5
8086
  8
0
  6
CONTINUOUS
 62
     7
 10
488.46119861918322
 20
891.50195419889553
 30
0.0
 11
488.46119861918322
 21
1027.2399941988949
 31
0.0
  0
LINE
  5
8087
  8
0
  6
CONTINUOUS
 62
     7
 10
475.46112861918328
 20
897.04144419889587
 30
0.0
 11
475.46112861918328
 21
1023.711794198896
 31
0.0
  0
LINE
  5
8088
  8
0
  6
CONTINUOUS
 62
     7
 10
461.46119861918328
 20
891.50195419889553
 30
0.0
 11
461.46119861918328
 21
1001.643194198895
 31
0.0
  0
LINE
  5
8089
  8
0
  6
CONTINUOUS
 62
     7
 10
544.14869861918305
 20
960.40411419889563
 30
0.0
 11
586.46119861918328
 21
960.40411419889563
 31
0.0
  0
LINE
  5
808A
  8
0
  6
CONTINUOUS
 62
     7
 10
488.46119861918322
 20
965.06781419889558
 30
0.0
 11
540.25696861918334
 21
965.06781419889558
 31
0.0
  0
LINE
  5
808B
  8
0
  6
CONTINUOUS
 62
     7
 10
488.46119861918322
 20
1027.2399941988949
 30
0.0
 11
589.39472861918318
 21
1029.475714198896
 31
0.0
  0
LINE
  5
808C
  8
0
  6
CONTINUOUS
 62
     7
 10
488.46119861918322
 20
1016.632384198896
 30
0.0
 11
586.46125861918324
 21
1020.0545641988959
 31
0.0
  0
LINE
  5
808D
  8
0
  6
CONTINUOUS
 62
     7
 10
488.46119861918322
 20
939.06653419889585
 30
0.0
 11
586.46119861918328
 21
939.06653419889585
 31
0.0
  0
LINE
  5
808E
  8
0
  6
CONTINUOUS
 62
     7
 10
544.14869861918305
 20
814.5999141988957
 30
0.0
 11
586.46119861918328
 21
814.5999141988957
 31
0.0
  0
LINE
  5
808F
  8
0
  6
CONTINUOUS
 62
     7
 10
610.46119861918328
 20
908.50201419889549
 30
0.0
 11
680.46119861918339
 21
908.50201419889549
 31
0.0
  0
LINE
  5
8090
  8
0
  6
CONTINUOUS
 62
     7
 10
610.46119861918328
 20
866.50201419889549
 30
0.0
 11
680.46119861918339
 21
866.50201419889549
 31
0.0
  0
LINE
  5
8091
  8
0
  6
CONTINUOUS
 62
     7
 10
608.46119861918316
 20
910.00201419889584
 30
0.0
 11
610.46119861918328
 21
910.00201419889584
 31
0.0
  0
LINE
  5
8092
  8
0
  6
CONTINUOUS
 62
     7
 10
608.46119861918316
 20
865.00201419889572
 30
0.0
 11
610.46119861918328
 21
865.00201419889572
 31
0.0
  0
LINE
  5
8093
  8
0
  6
CONTINUOUS
 62
     7
 10
610.46119861918328
 20
865.00201419889572
 30
0.0
 11
610.46119861918328
 21
910.00201419889584
 31
0.0
  0
LINE
  5
8094
  8
0
  6
CONTINUOUS
 62
     7
 10
680.46119861918339
 20
866.50201419889549
 30
0.0
 11
680.46119861918339
 21
908.50201419889549
 31
0.0
  0
LINE
  5
8095
  8
0
  6
CONTINUOUS
 62
     7
 10
624.46119861918316
 20
893.50201419889572
 30
0.0
 11
624.46119861918316
 21
881.50201419889584
 31
0.0
  0
LINE
  5
8096
  8
0
  6
CONTINUOUS
 62
     7
 10
624.46119861918316
 20
893.50201419889572
 30
0.0
 11
680.46119861918339
 21
893.50201419889572
 31
0.0
  0
LINE
  5
8097
  8
0
  6
CONTINUOUS
 62
     7
 10
488.46119861918322
 20
758.37164419889586
 30
0.0
 11
586.46119861918328
 21
754.94940419889565
 31
0.0
  0
LINE
  5
8098
  8
0
  6
CONTINUOUS
 62
     7
 10
488.46119861918322
 20
747.7640441988957
 30
0.0
 11
589.39478861918315
 21
745.52838419889588
 31
0.0
  0
LINE
  5
8099
  8
0
  6
CONTINUOUS
 62
     7
 10
488.46119861918322
 20
809.93622419889573
 30
0.0
 11
540.25696861918334
 21
809.93622419889573
 31
0.0
  0
LINE
  5
809A
  8
0
  6
CONTINUOUS
 62
     7
 10
624.46119861918316
 20
881.50201419889584
 30
0.0
 11
680.46119861918339
 21
881.50201419889584
 31
0.0
  0
LINE
  5
809B
  8
0
  6
CONTINUOUS
 62
     7
 10
576.32978861918332
 20
814.5999141988957
 30
0.0
 11
586.46112861918311
 21
807.0418741988957
 31
0.0
  0
LINE
  5
809C
  8
0
  6
CONTINUOUS
 62
     7
 10
584.31385861918352
 20
790.49835419889587
 30
0.0
 11
551.81104861918368
 21
809.93622419889573
 31
0.0
  0
LINE
  5
809D
  8
0
  6
CONTINUOUS
 62
     7
 10
584.02741861918332
 20
784.25543419889573
 30
0.0
 11
542.60895861918334
 21
809.0252141988957
 31
0.0
  0
LINE
  5
809E
  8
0
  6
CONTINUOUS
 62
     7
 10
589.35645861918351
 20
745.52948419889572
 30
0.0
 11
604.46119861918316
 21
745.00201419889572
 31
0.0
  0
LINE
  5
809F
  8
0
  6
CONTINUOUS
 62
     7
 10
586.46119861918328
 20
748.51105419889586
 30
0.0
 11
586.46119861918328
 21
1026.4763841988961
 31
0.0
  0
LINE
  5
80A0
  8
0
  6
CONTINUOUS
 62
     7
 10
604.46119861918316
 20
745.00201419889572
 30
0.0
 11
604.46119861918316
 21
1030.002014198895
 31
0.0
  0
LINE
  5
80A1
  8
0
  6
CONTINUOUS
 62
     7
 10
589.35639861918332
 20
1029.4746141988951
 30
0.0
 11
604.46119861918316
 21
1030.0020741988949
 31
0.0
  0
LINE
  5
80A2
  8
0
  6
CONTINUOUS
 62
     7
 10
594.46119861918328
 20
776.54474419889561
 30
0.0
 11
594.46119861918328
 21
998.45929419889546
 31
0.0
  0
LINE
  5
80A3
  8
0
  6
CONTINUOUS
 62
     7
 10
608.46119861918316
 20
767.50201419889561
 30
0.0
 11
608.46119861918316
 21
1007.502014198895
 31
0.0
  0
LINE
  5
80A4
  8
0
  6
CONTINUOUS
 62
     7
 10
604.46119861918316
 20
1007.502014198895
 30
0.0
 11
608.46119861918316
 21
1007.502014198895
 31
0.0
  0
LINE
  5
80A5
  8
0
  6
CONTINUOUS
 62
     7
 10
604.46119861918316
 20
767.50201419889561
 30
0.0
 11
608.46119861918316
 21
767.50201419889561
 31
0.0
  0
LINE
  5
80A6
  8
0
  6
CONTINUOUS
 62
     7
 10
584.02747861918328
 20
990.74859419889549
 30
0.0
 11
542.60895861918334
 21
965.9788241988955
 31
0.0
  0
LINE
  5
80A7
  8
0
  6
CONTINUOUS
 62
     7
 10
584.31379861918344
 20
984.50567419889546
 30
0.0
 11
551.81104861918368
 21
965.06781419889558
 31
0.0
  0
LINE
  5
80A8
  8
0
  6
CONTINUOUS
 62
     7
 10
576.32978861918332
 20
960.40411419889563
 30
0.0
 11
586.46119861918328
 21
967.96222419889546
 31
0.0
  0
LINE
  5
80A9
  8
0
  6
CONTINUOUS
 62
     7
 10
488.46119861918322
 20
835.93750419889557
 30
0.0
 11
586.46119861918328
 21
835.93750419889557
 31
0.0
  0
ARC
  5
80AA
  8
0
  6
CONTINUOUS
 62
     7
 10
477.46119861918328
 20
1014.247014198896
 30
0.0
 40
2.0
 50
91.999998000000545
 51
180.000010000001
  0
ARC
  5
80AB
  8
0
  6
CONTINUOUS
 62
     7
 10
464.46119861918322
 20
1001.626584198896
 30
0.0
 40
3.0
 50
99.999999999998593
 51
180.000010000001
  0
ARC
  5
80AC
  8
0
  6
CONTINUOUS
 62
     7
 10
472.46119861918322
 20
1009.1297641988961
 30
0.0
 40
3.0
 50
280.00001000000123
 51
0.0
  0
ARC
  5
80AE
  8
0
  6
CONTINUOUS
 62
     7
 10
478.46112861918289
 20
1023.711794198896
 30
0.0
 40
3.0
 50
92.999999000001679
 51
180.000010000001
  0
ARC
  5
80AF
  8
0
  6
CONTINUOUS
 62
     7
 10
477.46119861918328
 20
760.75708419889588
 30
0.0
 40
2.0
 50
179.999989999999
 51
268.00000999999861
  0
ARC
  5
80B0
  8
0
  6
CONTINUOUS
 62
     7
 10
464.46119861918322
 20
773.37744419889566
 30
0.0
 40
3.0
 50
179.999989999999
 51
260.00000000000142
  0
ARC
  5
80B1
  8
0
  6
CONTINUOUS
 62
     7
 10
472.46119861918322
 20
765.87427419889571
 30
0.0
 40
3.0
 50
0.0
 51
79.999998000001099
  0
ARC
  5
80B3
  8
0
  6
CONTINUOUS
 62
     7
 10
478.46112861918289
 20
751.29223419889547
 30
0.0
 40
3.0
 50
180.000010000001
 51
266.99999000000031
  0
ARC
  5
80B4
  8
0
  6
CONTINUOUS
 62
     7
 10
472.4612586191833
 20
887.50201419889561
 30
0.0
 40
10.0
 50
23.57803699999776
 51
156.42196000000089
  0
ARC
  5
80B5
  8
0
  6
CONTINUOUS
 62
     7
 10
455.96125861918352
 20
887.50201419889561
 30
0.0
 40
3.9999962
 50
90.00000299999769
 51
270.0
  0
ARC
  5
80B6
  8
0
  6
CONTINUOUS
 62
     7
 10
488.9612586191833
 20
887.50201419889561
 30
0.0
 40
3.9999962
 50
270.0
 51
90.00000299999769
  0
ARC
  5
80B7
  8
0
  6
CONTINUOUS
 62
     7
 10
472.4612586191833
 20
887.50201419889561
 30
0.0
 40
10.0
 50
203.57826999999861
 51
336.4217200000013
  0
ARC
  5
80B8
  8
0
  6
CONTINUOUS
 62
     7
 10
624.46119861918316
 20
887.50201419889561
 30
0.0
 40
6.0000037999999991
 50
90.00000299999769
 51
270.0
  0
ARC
  5
80B9
  8
0
  6
CONTINUOUS
 62
     7
 10
544.14869861918305
 20
963.40411419889597
 30
0.0
 40
3.0
 50
120.8809700000043
 51
270.0
  0
ARC
  5
80BA
  8
0
  6
CONTINUOUS
 62
     7
 10
540.25696861918334
 20
968.06781419889558
 30
0.0
 40
3.0
 50
270.0
 51
300.88098000000019
  0
ARC
  5
80BB
  8
0
  6
CONTINUOUS
 62
     7
 10
544.14869861918305
 20
811.5999141988957
 30
0.0
 40
3.0
 50
90.00000299999769
 51
239.11901999999989
  0
ARC
  5
80BC
  8
0
  6
CONTINUOUS
 62
     7
 10
540.25696861918334
 20
806.93622419889562
 30
0.0
 40
3.0
 50
59.11902300000196
 51
90.00000299999769
  0
ARC
  5
80BD
  8
0
  6
CONTINUOUS
 62
     7
 10
589.46119861918316
 20
748.5276541988959
 30
0.0
 40
3.0
 50
179.999989999999
 51
268.00000999999861
  0
ARC
  5
80BE
  8
0
  6
CONTINUOUS
 62
     7
 10
591.46119861918316
 20
821.36761419889569
 30
0.0
 40
5.0
 50
90.00000299999769
 51
180.000010000001
  0
ARC
  5
80BF
  8
0
  6
CONTINUOUS
 62
     7
 10
581.46119861918328
 20
779.96423419889561
 30
0.0
 40
5.0
 50
0.0
 51
59.11901699999779
  0
ARC
  5
80C0
  8
0
  6
CONTINUOUS
 62
     7
 10
589.46119861918316
 20
1026.4763841988961
 30
0.0
 40
3.0
 50
91.999998000000545
 51
180.000010000001
  0
ARC
  5
80C1
  8
0
  6
CONTINUOUS
 62
     7
 10
591.46119861918316
 20
953.63641419889575
 30
0.0
 40
5.0
 50
179.999989999999
 51
270.0
  0
ARC
  5
80C2
  8
0
  6
CONTINUOUS
 62
     7
 10
589.46119861918316
 20
998.45929419889546
 30
0.0
 40
5.0
 50
0.0
 51
91.999998000000545
  0
ARC
  5
80C3
  8
0
  6
CONTINUOUS
 62
     7
 10
581.46119861918328
 20
995.03979419889527
 30
0.0
 40
5.0
 50
300.88098000000019
 51
0.0
  0
ARC
  5
80C4
  8
0
  6
CONTINUOUS
 62
     7
 10
589.46119861918316
 20
776.54474419889561
 30
0.0
 40
5.0
 50
267.99999999999619
 51
0.0
  0
POLYLINE
  5
80C5
  8
0
  6
CONTINUOUS
 62
     7
 66
     1
 10
0.0
 20
0.0
 30
0.0
  0
VERTEX
  5
80C6
  8
0
  6
CONTINUOUS
 62
     7
 10
565.3254386191835
 20
939.06653419889585
 30
0.0
 42
0.030646372
  0
VERTEX
  5
80C7
  8
0
  6
CONTINUOUS
 62
     7
 10
560.91590861918337
 20
904.78312419889596
 30
0.0
 42
0.064801293
  0
VERTEX
  5
80C8
  8
0
  6
CONTINUOUS
 62
     7
 10
565.3254386191835
 20
835.93747419889576
 30
0.0
  0
SEQEND
  5
80C9
  8
0
 62
     7
  0
POLYLINE
  5
80CA
  8
0
  6
CONTINUOUS
 62
     7
 66
     1
 10
0.0
 20
0.0
 30
0.0
  0
VERTEX
  5
80CB
  8
0
  6
CONTINUOUS
 62
     7
 10
578.80229861918315
 20
787.38003419889606
 30
0.0
 42
0.0052467582
  0
VERTEX
  5
80CC
  8
0
  6
CONTINUOUS
 62
     7
 10
581.22251861918323
 20
780.97020419889554
 30
0.0
 42
0.0052066449
  0
VERTEX
  5
80CD
  8
0
  6
CONTINUOUS
 62
     7
 10
583.77619861918322
 20
774.61237419889585
 30
0.0
 42
0.0051740769
  0
VERTEX
  5
80CE
  8
0
  6
CONTINUOUS
 62
     7
 10
586.46119861918328
 20
768.30914419889575
 30
0.0
  0
SEQEND
  5
80CF
  8
0
 62
     7
  0
POLYLINE
  5
80D0
  8
0
  6
CONTINUOUS
 62
     7
 66
     1
 10
0.0
 20
0.0
 30
0.0
  0
VERTEX
  5
80D1
  8
0
  6
CONTINUOUS
 62
     7
 10
586.46119861918328
 20
1006.694884198895
 30
0.0
  0
VERTEX
  5
80D2
  8
0
  6
CONTINUOUS
 62
     7
 10
578.80236861918331
 20
987.62419419889557
 30
0.0
 42
-1.0
  0
SEQEND
  5
80D3
  8
0
 62
     7
  0
LINE
  5
8178
  8
AM_0
 10
488.46124861918332
 20
397.80443252261978
 30
0.0
 11
488.46124861918332
 21
657.80442601502011
 31
0.0
  0
LINE
  5
8179
  8
AM_0
 10
477.39139861918329
 20
657.41782601502007
 30
0.0
 11
488.46114861918278
 21
657.80442601502011
 31
0.0
  0
LINE
  5
817A
  8
AM_0
 10
461.46129861918268
 20
413.69716510899212
 30
0.0
 11
461.46129861918268
 21
626.42377601502005
 31
0.0
  0
ARC
  5
817B
  8
AM_0
 10
457.46129861918291
 20
437.56230763201847
 30
0.0
 40
4.0
 50
0.0
 51
88.000006193419608
1001
GENIUS_GENODEF_13
1002
{
1000
HIER
1070
     0
1002
}
1002
{
1000
MANEDIT
1070
     0
1002
}
1002
{
1000
NOSEL
1070
     0
1002
}
1002
{
1000
BEHIND
1070
     0
1002
}
1002
{
1000
OTHER
1070
     0
1002
}
1002
{
1000
REACTOR
1002
}
1001
GENIUS_GENOBJ-N-FIL_13
1002
{
1000
OWNER
1000
GEN
1002
}
  0
LINE
  5
817C
  8
AM_0
 10
463.94029861918312
 20
644.88347601502062
 30
0.0
 11
472.98214861918359
 21
646.4778260150199
 31
0.0
  0
LINE
  5
817D
  8
AM_0
 10
461.46129861918268
 20
626.42377601502005
 30
0.0
 11
461.46129861918268
 21
655.80442601502011
 31
0.0
  0
ARC
  5
817E
  8
AM_0
 10
457.46129861918291
 20
618.04653474731094
 30
0.0
 40
4.0
 50
271.99996225375321
 51
0.0
1001
GENIUS_GENOBJ-N-FIL_13
1002
{
1000
OWNER
1000
GEN
1002
}
1001
GENIUS_GENODEF_13
1002
{
1000
HIER
1070
     0
1002
}
1002
{
1000
MANEDIT
1070
     0
1002
}
1002
{
1000
NOSEL
1070
     0
1002
}
1002
{
1000
BEHIND
1070
     0
1002
}
1002
{
1000
OTHER
1070
     0
1002
}
1002
{
1000
REACTOR
1002
}
  0
LINE
  5
817F
  8
AM_0
 10
462.13834861918309
 20
657.30442601502011
 30
0.0
 11
476.79379861918397
 21
657.30442601502011
 31
0.0
  0
LINE
  5
8180
  8
AM_0
 10
464.6440986191833
 20
664.30442601502011
 30
0.0
 11
480.27829861918292
 21
664.30442601502011
 31
0.0
  0
LINE
  5
8181
  8
AM_0
 10
482.38409861918308
 20
657.59212601502043
 30
0.0
 11
480.74894861918477
 21
663.69452601502007
 31
0.0
  0
LINE
  5
8182
  8
AM_0
 10
462.46124861918321
 20
657.30437601502024
 30
0.0
 11
464.1734486191832
 21
663.69452601502007
 31
0.0
  0
LINE
  5
8183
  8
AM_0
 10
464.95784861918372
 20
664.41907601502021
 30
0.0
 11
472.46129861918291
 21
665.80437601502024
 31
0.0
  0
LINE
  5
8184
  8
AM_0
 10
472.46124861918332
 20
665.80442601502011
 30
0.0
 11
479.96464861918372
 21
664.41907601502021
 31
0.0
  0
LINE
  5
8185
  8
AM_0
 10
475.46124861918321
 20
512.79265101502006
 30
0.0
 11
488.46124861918332
 21
512.79265101502006
 31
0.0
  0
LINE
  5
8186
  8
AM_0
 10
475.46124861918321
 20
542.81621101502003
 30
0.0
 11
488.46124861918332
 21
542.81621101502003
 31
0.0
  0
LINE
  5
8187
  8
AM_0
 10
475.46124861918321
 20
632.12872601502022
 30
0.0
 11
488.46124861918332
 21
632.12872601502022
 31
0.0
  0
LINE
  5
8188
  8
AM_0
 10
475.46124861918321
 20
650.38772601502023
 30
0.0
 11
488.46124861918332
 21
650.38772601502023
 31
0.0
  0
ARC
  5
8189
  8
AM_0
 10
477.4612486191831
 20
655.4191260150202
 30
0.0
 40
2.0000000500000001
 50
91.999997999994051
 51
180.0
  0
ARC
  5
818A
  8
AM_0
 10
464.46124861918321
 20
641.92902601501999
 30
0.0
 40
3.0000000500000001
 50
100.000000000005
 51
180.000010000001
  0
ARC
  5
818B
  8
AM_0
 10
472.46124861918332
 20
649.43217601501988
 30
0.0
 40
3.0000000500000001
 50
280.000000000005
 51
0.0
  0
ARC
  5
818C
  8
AM_0
 10
463.46124861918332
 20
655.80442601502011
 30
0.0
 40
2.0000000500000001
 50
131.4096200000055
 51
180.000010000001
  0
CIRCLE
  5
818D
  8
AM_0
 10
472.46124861918332
 20
678.30442601502011
 30
0.0
 40
12.5
  0
ARC
  5
818E
  8
AM_0
 10
472.46124861918332
 20
678.30442601502011
 30
0.0
 40
20.500000500000009
 50
304.61363999998792
 51
235.3863500000021
  0
ARC
  5
818F
  8
AM_0
 10
486.37814861918332
 20
658.14092601502023
 30
0.0
 40
4.000000049999997
 50
124.6136499999979
 51
187.86822000001541
  0
ARC
  5
8190
  8
AM_0
 10
458.54424861918289
 20
658.14092601502023
 30
0.0
 40
4.000000049999997
 50
347.9293300000017
 51
55.386359000034062
  0
ARC
  5
8191
  8
AM_0
 10
465.13939861918288
 20
663.43567601502025
 30
0.0
 40
1.0
 50
100.4607199999833
 51
164.99998999998439
  0
ARC
  5
8192
  8
AM_0
 10
479.78314861918318
 20
663.43567601502025
 30
0.0
 40
1.0
 50
14.999999999994451
 51
79.539281000009595
  0
LINE
  5
8193
  8
AM_0
 10
477.39139861918329
 20
398.19103601502007
 30
0.0
 11
488.46124861918332
 21
397.80443252261978
 31
0.0
  0
LINE
  5
8194
  8
AM_0
 10
475.46124856918311
 20
655.4191260150202
 30
0.0
 11
475.46124861918321
 21
400.18973601502017
 31
0.0
  0
LINE
  5
8195
  8
AM_0
 10
463.94029861918312
 20
410.72538601501992
 30
0.0
 11
472.98214861918359
 21
409.13103601502019
 31
0.0
  0
LINE
  5
8196
  8
AM_0
 10
475.46124861918321
 20
405.22113601502008
 30
0.0
 11
488.46124861918332
 21
405.22113601502008
 31
0.0
  0
ARC
  5
8197
  8
AM_0
 10
477.4612486191831
 20
400.18973601502017
 30
0.0
 40
2.0000000500000001
 50
179.999989999999
 51
268.00000200000591
  0
ARC
  5
8198
  8
AM_0
 10
464.46124861918321
 20
413.67983601502021
 30
0.0
 40
3.0000000500000001
 50
179.6690368492057
 51
259.999999999995
  0
ARC
  5
8199
  8
AM_0
 10
472.46124861918332
 20
406.17668601502032
 30
0.0
 40
3.0000000500000001
 50
0.0
 51
79.999999999994984
  0
LINE
  5
819A
  8
AM_0
 10
624.46119861918316
 20
589.80443101501999
 30
0.0
 11
680.46119861918339
 21
589.80443101501999
 31
0.0
  0
LINE
  5
819B
  8
AM_0
 10
624.46119861918316
 20
589.80443101501999
 30
0.0
 11
624.46119861918316
 21
586.80443101501999
 31
0.0
  0
LINE
  5
819C
  8
AM_0
 10
680.46119861918339
 20
544.80443101501999
 30
0.0
 11
680.46119861918339
 21
589.80443101501999
 31
0.0
  0
LINE
  5
819D
  8
AM_0
 10
610.46119861918339
 20
543.30443101501999
 30
0.0
 11
610.46119861918339
 21
588.30443101501965
 31
0.0
  0
LINE
  5
819E
  8
AM_0
 10
610.46119861918339
 20
544.80443101501999
 30
0.0
 11
680.46119861918339
 21
544.80443101501999
 31
0.0
  0
LINE
  5
819F
  8
AM_0
 10
610.46119861918339
 20
586.80443101501999
 30
0.0
 11
680.46119861918339
 21
586.80443101501999
 31
0.0
  0
LINE
  5
81A0
  8
AM_0
 10
548.18984861918295
 20
396.24037101502
 30
0.0
 11
594.46124861918349
 21
422.9552160150202
 31
0.0
  0
LINE
  5
81A1
  8
AM_0
 10
488.46124861918332
 20
657.80445601502015
 30
0.0
 11
558.34949861918335
 21
659.63450601502007
 31
0.0
  0
LINE
  5
81A2
  8
AM_0
 10
586.46124861918315
 20
425.78245601501982
 30
0.0
 11
586.46124861918315
 21
474.29756101501999
 31
0.0
  0
LINE
  5
81A3
  8
AM_0
 10
488.4612486191831
 20
406.08714101501988
 30
0.0
 11
565.24489861918323
 21
406.08714101501988
 31
0.0
  0
LINE
  5
81A4
  8
AM_0
 10
488.4612486191831
 20
420.54396101501982
 30
0.0
 11
590.28474861918323
 21
420.54396101501982
 31
0.0
  0
LINE
  5
81A5
  8
AM_0
 10
589.56594861918313
 20
422.78425601501982
 30
0.0
 11
604.46124861918349
 21
423.30442601502011
 31
0.0
  0
LINE
  5
81A6
  8
AM_0
 10
608.46124861918315
 20
565.80443101501999
 30
0.0
 11
608.46124861918315
 21
445.80442601502011
 31
0.0
  0
LINE
  5
81A7
  8
AM_0
 10
488.46124861918332
 20
517.82341101502004
 30
0.0
 11
594.46119861918305
 21
517.82341101502004
 31
0.0
  0
LINE
  5
81A8
  8
AM_0
 10
586.46124861918315
 20
587.29127601502
 30
0.0
 11
586.46124861918315
 21
704.77875601502012
 31
0.0
  0
LINE
  5
81A9
  8
AM_0
 10
604.46119861918305
 20
423.30442601502011
 30
0.0
 11
604.46119861918305
 21
708.30440601502005
 31
0.0
  0
LINE
  5
81AA
  8
AM_0
 10
589.3565486191834
 20
707.77700601502033
 30
0.0
 11
604.46124861918349
 21
708.30445601502015
 31
0.0
  0
LINE
  5
81AB
  8
AM_0
 10
561.66894861918286
 20
655.67980601501995
 30
0.0
 11
560.34354861918325
 21
659.68680601502001
 31
0.0
  0
LINE
  5
81AC
  8
AM_0
 10
585.32674861918338
 20
584.15739601502003
 30
0.0
 11
569.07379861918287
 21
633.29341601501994
 31
0.0
  0
LINE
  5
81AD
  8
AM_0
 10
488.46124861918332
 20
635.06493101501974
 30
0.0
 11
537.5227486191834
 21
635.06493101501974
 31
0.0
  0
LINE
  5
81AE
  8
AM_0
 10
488.4612486191831
 20
649.52171601502005
 30
0.0
 11
551.37179861918332
 21
649.52171601502005
 31
0.0
  0
LINE
  5
81AF
  8
AM_0
 10
594.46119861918305
 20
565.80443101501999
 30
0.0
 11
594.46119861918305
 21
676.76175601502018
 31
0.0
  0
LINE
  5
81B0
  8
AM_0
 10
608.46124861918315
 20
565.80443101501999
 30
0.0
 11
608.46124861918315
 21
685.80440601502005
 31
0.0
  0
LINE
  5
81B1
  8
AM_0
 10
488.46119861918328
 20
397.80444101502019
 30
0.0
 11
548.18979861918331
 21
396.24040101501998
 31
0.0
  0
LINE
  5
81B2
  8
AM_0
 10
604.46119861918305
 20
445.80442601502011
 30
0.0
 11
608.46124861918315
 21
445.80442601502011
 31
0.0
  0
LINE
  5
81B3
  8
AM_0
 10
594.46119861918305
 20
565.80443101501999
 30
0.0
 11
594.46119861918305
 21
454.84712101502021
 31
0.0
  0
LINE
  5
81B4
  8
AM_0
 10
488.46124861918332
 20
537.78541601502013
 30
0.0
 11
594.46119861918305
 21
537.78541601502013
 31
0.0
  0
LINE
  5
81B5
  8
AM_0
 10
590.07379861918332
 20
580.72758601501994
 30
0.0
 11
594.46119861918305
 21
580.72758601501994
 31
0.0
  0
LINE
  5
81B6
  8
AM_0
 10
604.46119861918305
 20
685.80440601502005
 30
0.0
 11
608.46124861918315
 21
685.80440601502005
 31
0.0
  0
LINE
  5
81B7
  8
AM_0
 10
561.75409861918331
 20
661.09725601501998
 30
0.0
 11
584.99684861918331
 21
684.33990601502012
 31
0.0
  0
LINE
  5
81B8
  8
AM_0
 10
516.46124861918315
 20
464.44246101502
 30
0.0
 11
586.46124861918315
 21
464.44246101502
 31
0.0
  0
LINE
  5
81B9
  8
AM_0
 10
516.46124861918315
 20
445.00016601502023
 30
0.0
 11
586.46124861918315
 21
445.00016601502023
 31
0.0
  0
LINE
  5
81BA
  8
AM_0
 10
516.46124861918315
 20
446.84681601502018
 30
0.0
 11
516.46124861918315
 21
462.94682101501991
 31
0.0
  0
LINE
  5
81BB
  8
AM_0
 10
539.96124861918315
 20
633.29335101502022
 30
0.0
 11
567.41429861918311
 21
633.29335101502022
 31
0.0
  0
LINE
  5
81BC
  8
AM_0
 10
570.4039986191832
 20
634.28572101502004
 30
0.0
 11
586.46124861918315
 21
646.26454601501985
 31
0.0
  0
LINE
  5
81BD
  8
AM_0
 10
584.02754861918322
 20
669.05105601502021
 30
0.0
 11
546.96864861918311
 21
646.88844601501978
 31
0.0
  0
LINE
  5
81BE
  8
AM_0
 10
584.31394861918295
 20
662.80805601502016
 30
0.0
 11
542.55589861918349
 21
637.83522101502024
 31
0.0
  0
LINE
  5
81BF
  8
AM_0
 10
608.46124861918315
 20
543.30443101501999
 30
0.0
 11
610.46119861918339
 21
543.30443101501999
 31
0.0
  0
LINE
  5
81C0
  8
AM_0
 10
608.46124861918315
 20
588.30443101501965
 30
0.0
 11
610.46119861918339
 21
588.30443101501965
 31
0.0
  0
ARC
  5
81C1
  8
AM_0
 10
558.21854861918348
 20
664.63280601502004
 30
0.0
 40
5.0
 50
271.50000000000267
 51
315.00000000000921
  0
ARC
  5
81C2
  8
AM_0
 10
590.07379861918332
 20
585.72758601501994
 30
0.0
 40
5.0
 50
198.30292000000651
 51
270.0
  0
ARC
  5
81C3
  8
AM_0
 10
589.46119861918305
 20
704.77875601502012
 30
0.0
 40
3.0000000500000001
 50
91.999997999994051
 51
180.000010000001
  0
ARC
  5
81C4
  8
AM_0
 10
589.46119861918305
 20
425.78245601501982
 30
0.0
 40
3.0000000500000001
 50
179.999989999999
 51
271.9999899999948
  0
ARC
  5
81C5
  8
AM_0
 10
581.46124861918315
 20
687.87550601502016
 30
0.0
 40
5.0
 50
315.00000000000921
 51
0.0
  0
ARC
  5
81C6
  8
AM_0
 10
589.46119861918305
 20
676.76175601502018
 30
0.0
 40
5.0
 50
0.0
 51
91.999997999994051
  0
ARC
  5
81C7
  8
AM_0
 10
591.46124861918315
 20
474.29756101501999
 30
0.0
 40
5.0
 50
90.00000299999769
 51
180.000010000001
  0
ARC
  5
81C8
  8
AM_0
 10
589.46119861918305
 20
454.84712101502021
 30
0.0
 40
5.0
 50
267.99999999999619
 51
0.0
  0
ARC
  5
81C9
  8
AM_0
 10
516.46124861918315
 20
454.72129601502007
 30
0.0
 40
9.7211409999999994
 50
90.00000299999769
 51
270.0
  0
ARC
  5
81CA
  8
AM_0
 10
567.41429861918311
 20
638.29335101502022
 30
0.0
 40
5.0
 50
270.0
 51
306.72320999998919
  0
ARC
  5
81CB
  8
AM_0
 10
539.96124861918315
 20
638.29335101502022
 30
0.0
 40
5.0
 50
229.7633299999992
 51
270.0
  0
ARC
  5
81CC
  8
AM_0
 10
518.66104861918313
 20
659.5995560150202
 30
0.0
 40
30.946884499999999
 50
307.5523099999902
 51
335.59613000000491
  0
ARC
  5
81CD
  8
AM_0
 10
581.46124861918315
 20
673.34225601502021
 30
0.0
 40
5.0
 50
300.8809799999911
 51
0.0
  0
LINE
  5
8263
  8
AM_0
 10
932.24403061529586
 20
581.80443101501999
 30
0.0
 11
944.24403061529597
 21
581.80443101501999
 31
0.0
  0
LINE
  5
8264
  8
AM_0
 10
944.24403061529597
 20
589.80443101501999
 30
0.0
 11
944.24403061529597
 21
581.80443101501999
 31
0.0
  0
LINE
  5
8265
  8
AM_0
 10
932.24403061529586
 20
589.80443101501999
 30
0.0
 11
932.24403061529586
 21
581.80443101501999
 31
0.0
  0
LINE
  5
8266
  8
AM_0
 10
932.24403061529586
 20
589.80443101501999
 30
0.0
 11
944.24403061529597
 21
589.80443101501999
 31
0.0
  0
LINE
  5
8267
  8
AM_0
 10
863.58475561529599
 20
412.6329210150198
 30
0.0
 11
860.46543061529587
 21
424.27446101501988
 31
0.0
  0
LINE
  5
8268
  8
AM_0
 10
1000.655805615296
 20
405.56187601502012
 30
0.0
 11
989.80857561529547
 21
408.4683810150201
 31
0.0
  0
LINE
  5
8269
  8
AM_0
 10
875.8322256152959
 20
405.56185601502023
 30
0.0
 11
886.67942061529584
 21
408.46836601501991
 31
0.0
  0
LINE
  5
826A
  8
AM_0
 10
1012.903270615296
 20
412.6329210150198
 30
0.0
 11
1016.022595615296
 21
424.27446101501988
 31
0.0
  0
LINE
  5
826B
  8
AM_0
 10
1043.766520615296
 20
537.80443101501976
 30
0.0
 11
1008.244060615296
 21
537.80443101501976
 31
0.0
  0
LINE
  5
826C
  8
0
  6
AM_ISO08W050
 10
1069.7159758697219
 20
697.27638664274855
 30
0.0
 11
1046.4107124220191
 21
673.97110113953579
 31
0.0
  0
LINE
  5
826D
  8
AM_0
 10
1078.241175615296
 20
687.47635601501975
 30
0.0
 11
1080.7440156152959
 21
615.80446101502014
 31
0.0
  0
LINE
  5
826E
  8
AM_0
 10
1059.915860615296
 20
705.80160601501973
 30
0.0
 11
988.24406061529589
 21
708.30445601502015
 31
0.0
  0
LINE
  5
826F
  8
AM_0
 10
988.24406061529589
 20
708.30440601502005
 30
0.0
 11
938.24406061529589
 21
708.30440601502005
 31
0.0
  0
LINE
  5
8270
  8
AM_0
 10
1080.744030615296
 20
615.80443101501999
 30
0.0
 11
1080.744030615296
 21
565.80443101501999
 31
0.0
  0
LINE
  5
8271
  8
AM_0
 10
888.24406061529589
 20
708.30440601502005
 30
0.0
 11
938.24406061529589
 21
708.30440601502005
 31
0.0
  0
LINE
  5
8272
  8
AM_0
 10
832.72153561529603
 20
537.80443101501976
 30
0.0
 11
868.24406061529555
 21
537.80443101501976
 31
0.0
  0
LINE
  5
8273
  8
AM_0
 10
934.74403061529586
 20
673.46935601502003
 30
0.0
 11
934.74403061529586
 21
654.51965601501979
 31
0.0
  0
LINE
  5
8274
  8
AM_0
 10
941.74403061529586
 20
673.46935601502003
 30
0.0
 11
941.74403061529586
 21
654.51965601501979
 31
0.0
  0
LINE
  5
8275
  8
AM_0
 10
1010.747965615296
 20
645.3794110150202
 30
0.0
 11
981.55399561529555
 21
616.18544101501993
 31
0.0
  0
LINE
  5
8276
  8
AM_0
 10
876.24402561529575
 20
565.80443101501999
 30
0.0
 11
876.24402561529575
 21
545.80443101501976
 31
0.0
  0
LINE
  5
8277
  8
AM_0
 10
988.24406061529589
 20
423.30442601502011
 30
0.0
 11
938.24406061529589
 21
423.30442601502011
 31
0.0
  0
LINE
  5
8278
  8
AM_0
 10
816.57221061529594
 20
705.80165601501983
 30
0.0
 11
888.24406061529589
 21
708.30445601502015
 31
0.0
  0
LINE
  5
8279
  8
AM_0
 10
798.24687061529573
 20
687.47625601502034
 30
0.0
 11
795.74402061529599
 21
615.80440101501995
 31
0.0
  0
LINE
  5
827A
  8
0
  6
AM_ISO08W050
 10
1069.9948690331321
 20
434.05358853807161
 30
0.0
 11
1045.543919810842
 21
458.50454114142588
 31
0.0
  0
LINE
  5
827B
  8
AM_0
 10
1080.744030615296
 20
515.80443101501999
 30
0.0
 11
1080.744030615296
 21
565.80443101501999
 31
0.0
  0
LINE
  5
827C
  8
AM_0
 10
1078.2411906152961
 20
444.13261601501978
 30
0.0
 11
1080.744030615296
 21
515.80443101501999
 31
0.0
  0
LINE
  5
827D
  8
AM_0
 10
1059.9158456152959
 20
425.80726601502022
 30
0.0
 11
988.24403061529586
 21
423.30442601502011
 31
0.0
  0
LINE
  5
827E
  8
AM_0
 10
798.24687061529573
 20
444.13261601501978
 30
0.0
 11
795.74402061529599
 21
515.80446101502014
 31
0.0
  0
LINE
  5
827F
  8
AM_0
 10
816.57221061529594
 20
425.80726601502022
 30
0.0
 11
888.24406061529589
 21
423.30445601501992
 31
0.0
  0
LINE
  5
8280
  8
AM_0
 10
888.24406061529589
 20
423.30442601502011
 30
0.0
 11
938.24406061529589
 21
423.30442601502011
 31
0.0
  0
LINE
  5
8281
  8
AM_0
 10
795.74402061529599
 20
615.80443101501999
 30
0.0
 11
795.74402061529599
 21
515.80443101501999
 31
0.0
  0
LINE
  5
8282
  8
0
  6
AM_ISO08W050
 10
807.51502500790866
 20
435.0753992472201
 30
0.0
 11
829.70321231017078
 21
457.2635833347702
 31
0.0
  0
LINE
  5
8283
  8
0
  6
AM_ISO08W050
 10
806.9458133817418
 20
697.10266414748037
 30
0.0
 11
830.70805352252103
 21
673.34042743913653
 31
0.0
  0
LINE
  5
8284
  8
AM_0
 10
858.66904561529589
 20
638.30836601502017
 30
0.0
 11
887.86301561529558
 21
609.11439601501991
 31
0.0
  0
LINE
  5
8285
  8
0
  6
AM_ISO08W050
 10
790.05302096845935
 20
565.80443101501999
 30
0.0
 11
1086.1587329694901
 21
565.80443101501999
 31
0.0
  0
LINE
  5
8286
  8
AM_0
 10
1017.819040615296
 20
638.30833601502002
 30
0.0
 11
988.62507061529595
 21
609.11436601501998
 31
0.0
  0
LINE
  5
8287
  8
AM_0
 10
865.74012061529572
 20
645.3794110150202
 30
0.0
 11
894.93409061529576
 21
616.18544101501993
 31
0.0
  0
LINE
  5
8288
  8
AM_0
 10
1000.244030615296
 20
565.80443101501999
 30
0.0
 11
1000.244030615296
 21
545.80443101501976
 31
0.0
  0
LINE
  5
8289
  8
0
  6
AM_ISO08W050
 10
938.24406061529589
 20
713.45719703088446
 30
0.0
 11
938.24406061529589
 21
389.83483601502002
 31
0.0
  0
ARC
  5
828A
  8
AM_0
 10
938.24406061529589
 20
565.80443101501999
 30
0.0
 40
20.9999985
 50
106.6015499999925
 51
73.398451999991579
  0
CIRCLE
  5
828B
  8
0
  6
AM_ISO08W050
 10
938.24406061529589
 20
565.80443101501999
 30
0.0
 40
5.0
  0
ARC
  5
828C
  8
AM_0
 10
1003.244060615296
 20
415.22111601502002
 30
0.0
 40
10.0
 50
255.0000000000056
 51
345.00000000000563
  0
ARC
  5
828D
  8
AM_0
 10
938.24406061529589
 20
527.80443101501999
 30
0.0
 40
130.0
 50
246.63104000000291
 51
293.368959999997
  0
ARC
  5
828E
  8
AM_0
 10
946.74403061529597
 20
654.51965601501979
 30
0.0
 40
5.0
 50
179.999989999999
 51
266.16235999999441
  0
ARC
  5
828F
  8
AM_0
 10
873.24406061529589
 20
415.22111601502002
 30
0.0
 40
10.0
 50
195.0000100000029
 51
284.99999999999437
  0
ARC
  5
8290
  8
AM_0
 10
1043.766520615296
 20
542.80443101501976
 30
0.0
 40
5.0
 50
270.0
 51
347.70394999999132
  0
ARC
  5
8291
  8
AM_0
 10
832.72153561529603
 20
542.80443101501976
 30
0.0
 40
5.0
 50
192.2960399999989
 51
270.0
  0
ARC
  5
8292
  8
0
  6
AM_ISO08W050
 10
938.24406061528623
 20
565.80443101500953
 30
0.0
 40
170.0000050000142
 50
38.991545983649083
 51
51.014604000000709
  0
ARC
  5
8293
  8
AM_0
 10
1059.2527756152961
 20
686.81320601502023
 30
0.0
 40
19.000000499999999
 50
2.000000000003725
 51
88.000000000009294
  0
CIRCLE
  5
8294
  8
AM_0
 10
1058.452175615296
 20
686.0126060150202
 30
0.0
 40
9.5
  0
ARC
  5
8295
  8
0
  6
AM_ISO08W050
 10
938.24406061529271
 20
565.80443101501714
 30
0.0
 40
170.00000499999581
 50
218.54277431075971
 51
231.01461
  0
ARC
  5
8296
  8
AM_0
 10
938.24406061529589
 20
527.80443101501999
 30
0.0
 40
122.0
 50
60.143059999996296
 51
86.162372000003458
  0
ARC
  5
8297
  8
AM_0
 10
938.24406061529589
 20
527.80443101501999
 30
0.0
 40
122.0
 50
124.67318000000169
 51
157.42801999999091
  0
ARC
  5
8298
  8
AM_0
 10
1007.212445615296
 20
648.91496601502024
 30
0.0
 40
5.0
 50
314.99999999999079
 51
50.312775000004699
  0
ARC
  5
8299
  8
AM_0
 10
929.74403061529597
 20
654.51965601501979
 30
0.0
 40
5.0
 50
273.83763000000238
 51
0.0
  0
ARC
  5
829A
  8
AM_0
 10
929.74403061529597
 20
673.46935601502003
 30
0.0
 40
5.0
 50
0.0
 51
94.514060999993376
  0
ARC
  5
829B
  8
AM_0
 10
946.74403061529597
 20
673.46935601502003
 30
0.0
 40
5.0
 50
85.485944000000956
 51
180.000010000001
  0
ARC
  5
829C
  8
AM_0
 10
938.24406061529589
 20
527.80443101501999
 30
0.0
 40
122.0
 50
22.571981999999579
 51
55.326819999998243
  0
ARC
  5
829D
  8
AM_0
 10
978.01844561529595
 20
619.72099601501998
 30
0.0
 40
5.0
 50
233.58368000000169
 51
314.99999999999079
  0
ARC
  5
829E
  8
AM_0
 10
1021.354565615296
 20
634.77281601502011
 30
0.0
 40
5.0
 50
39.687224000006218
 51
134.99999999999079
  0
ARC
  5
829F
  8
AM_0
 10
938.24406061529589
 20
565.80443101501999
 30
0.0
 40
61.999994999999998
 50
142.1149900000031
 51
180.000010000001
  0
ARC
  5
82A0
  8
AM_0
 10
938.24406061529589
 20
565.80443101501999
 30
0.0
 40
61.999994999999998
 50
53.583681000004447
 51
126.41631999999829
  0
CIRCLE
  5
82A1
  8
AM_0
 10
1058.452175615296
 20
445.59629601502007
 30
0.0
 40
9.5
  0
ARC
  5
82A2
  8
AM_0
 10
1059.2527756152961
 20
444.79570101501992
 30
0.0
 40
19.000000499999999
 50
271.99999999999068
 51
357.99999999999642
  0
ARC
  5
82A3
  8
AM_0
 10
817.23530061529596
 20
444.79570101501992
 30
0.0
 40
19.000000499999999
 50
182.00000000000369
 51
267.99999999999619
  0
ARC
  5
82A4
  8
AM_0
 10
1008.244060615296
 20
545.80443101501976
 30
0.0
 40
8.0
 50
179.999989999999
 51
270.0
  0
CIRCLE
  5
82A5
  8
AM_0
 10
818.03586561529573
 20
445.59629601502007
 30
0.0
 40
9.5
  0
CIRCLE
  5
82A6
  8
AM_0
 10
818.03586561529573
 20
686.0126060150202
 30
0.0
 40
9.5
  0
ARC
  5
82A7
  8
AM_0
 10
817.23530061529596
 20
686.81320601502023
 30
0.0
 40
19.000000499999999
 50
91.999997999994051
 51
177.99999999999619
  0
ARC
  5
82A8
  8
0
  6
AM_ISO08W050
 10
938.24406061529237
 20
565.80443101502362
 30
0.0
 40
170.00000499999501
 50
125.6391299063132
 51
141.01461
  0
ARC
  5
82A9
  8
AM_0
 10
938.24406061529589
 20
565.80443101501999
 30
0.0
 40
61.999994999999998
 50
0.0
 51
36.416318000000537
  0
ARC
  5
82AA
  8
AM_0
 10
898.46961561529577
 20
619.72099601501998
 30
0.0
 40
5.0
 50
225.00000000000921
 51
306.41631999999828
  0
ARC
  5
82AB
  8
AM_0
 10
884.32749561529545
 20
605.57884601502019
 30
0.0
 40
5.0
 50
323.58368000000172
 51
45.000001000013
  0
ARC
  5
82AC
  8
AM_0
 10
855.13349061529607
 20
634.77281601502011
 30
0.0
 40
5.0
 50
45.000001000013
 51
140.31278000000339
  0
ARC
  5
82AD
  8
AM_0
 10
869.27564561529607
 20
648.91496601502024
 30
0.0
 40
5.0
 50
129.6872199999965
 51
225.00000000000921
  0
CIRCLE
  5
82AE
  8
AM_0
 10
938.24406061529589
 20
565.80443101501999
 30
0.0
 40
46.999997
  0
ARC
  5
82AF
  8
AM_0
 10
992.16059561529596
 20
605.57884601502019
 30
0.0
 40
5.0
 50
134.99999999999079
 51
216.41631999999831
  0
ARC
  5
82B0
  8
0
  6
AM_ISO08W050
 10
938.2440606152943
 20
565.80443101502158
 30
0.0
 40
170.0000050000024
 50
306.28545220167109
 51
321.01461
  0
ARC
  5
82B1
  8
AM_0
 10
868.24406061529555
 20
545.80443101501976
 30
0.0
 40
8.0
 50
270.0
 51
0.0
  0
ARC
  5
82B2
  8
AM_0
 10
938.24406061529589
 20
527.8044310150209
 30
0.0
 40
122.0
 50
93.837626000003709
 51
119.8569400000037
  0
CIRCLE
  5
82B6
  8
AM_0
 10
938.24406061529589
 20
565.80443101501999
 30
0.0
 40
2.75000007
  0
CIRCLE
  5
82B7
  8
0
 10
938.24406061529589
 20
565.62687458128767
 30
0.0
 40
112.91154437468219
  0
CIRCLE
  5
82B8
  8
0
 10
938.24406061529589
 20
565.62687458128767
 30
0.0
 40
119.90988445334681
  0
TEXT
  5
856B
  8
0
  6
CONTINUOUS
 62
     0
 10
789.98044051460374
 20
878.53129457795944
 30
0.0
 40
15.0
  1
VX15-060EMF~VX15-100EMF
  0
ENDSEC
  0
EOF
