  0
SECTION
  2
HEADER
  9
$ACADVER
  1
AC1009
  9
$INSBASE
 10
0.0
 20
0.0
 30
0.0
  9
$EXTMIN
 10
172.52626641345341
 20
431.81997624181122
 30
-0.0015258207003583
  9
$EXTMAX
 10
1211.921941295439
 20
1214.985546923732
 30
0.0000000349246037
  9
$LIMMIN
 10
0.0186175848889434
 20
0.1428173666272414
  9
$LIMMAX
 10
1707.0186175848889
 20
1110.142817366627
  9
$ORTHOMODE
 70
     1
  9
$REGENMODE
 70
     1
  9
$FILLMODE
 70
     1
  9
$QTEXTMODE
 70
     0
  9
$MIRRTEXT
 70
     0
  9
$DRAGMODE
 70
     2
  9
$LTSCALE
 40
1.0
  9
$OSMODE
 70
   551
  9
$ATTMODE
 70
     1
  9
$TEXTSIZE
 40
2.5
  9
$TRACEWID
 40
1.0
  9
$TEXTSTYLE
  7
STANDARD
  9
$CLAYER
  8
0
  9
$CELTYPE
  6
BYLAYER
  9
$CECOLOR
 62
   256
  9
$DIMSCALE
 40
1.0
  9
$DIMASZ
 40
2.0
  9
$DIMEXO
 40
1.0
  9
$DIMDLI
 40
8.0
  9
$DIMRND
 40
0.0
  9
$DIMDLE
 40
0.0
  9
$DIMEXE
 40
1.0
  9
$DIMTP
 40
-0.025
  9
$DIMTM
 40
0.043
  9
$DIMTXT
 40
2.5
  9
$DIMCEN
 40
0.0
  9
$DIMTSZ
 40
0.0
  9
$DIMTOL
 70
     0
  9
$DIMLIM
 70
     0
  9
$DIMTIH
 70
     0
  9
$DIMTOH
 70
     0
  9
$DIMSE1
 70
     0
  9
$DIMSE2
 70
     0
  9
$DIMTAD
 70
     3
  9
$DIMZIN
 70
     8
  9
$DIMBLK
  1

  9
$DIMASO
 70
     1
  9
$DIMSHO
 70
     1
  9
$DIMPOST
  1

  9
$DIMAPOST
  1
"
  9
$DIMALT
 70
     0
  9
$DIMALTD
 70
     2
  9
$DIMALTF
 40
0.0393701
  9
$DIMLFAC
 40
1.0
  9
$DIMTOFL
 70
     1
  9
$DIMTVP
 40
0.0
  9
$DIMTIX
 70
     0
  9
$DIMSOXD
 70
     0
  9
$DIMSAH
 70
     0
  9
$DIMBLK1
  1

  9
$DIMBLK2
  1

  9
$DIMSTYLE
  2
AM_JIS
  9
$DIMCLRD
 70
     2
  9
$DIMCLRE
 70
     2
  9
$DIMCLRT
 70
     4
  9
$DIMTFAC
 40
0.71
  9
$DIMGAP
 40
1.5
  9
$LUNITS
 70
     2
  9
$LUPREC
 70
     2
  9
$SKETCHINC
 40
1.0
  9
$FILLETRAD
 40
0.0
  9
$AUNITS
 70
     0
  9
$AUPREC
 70
     0
  9
$MENU
  1
.
  9
$ELEVATION
 40
0.0
  9
$PELEVATION
 40
0.0
  9
$THICKNESS
 40
0.0
  9
$LIMCHECK
 70
     0
  9
$BLIPMODE
 70
     0
  9
$CHAMFERA
 40
3.0
  9
$CHAMFERB
 40
3.0
  9
$SKPOLY
 70
     0
  9
$TDCREATE
 40
2456829.3841110538
  9
$TDUPDATE
 40
2458543.5935138082
  9
$TDINDWG
 40
0.5930505208
  9
$TDUSRTIMER
 40
0.5930501157
  9
$USRTIMER
 70
     1
  9
$ANGBASE
 50
0.0
  9
$ANGDIR
 70
     0
  9
$PDMODE
 70
     0
  9
$PDSIZE
 40
0.0
  9
$PLINEWID
 40
0.0
  9
$COORDS
 70
     1
  9
$SPLFRAME
 70
     0
  9
$SPLINETYPE
 70
     6
  9
$SPLINESEGS
 70
     8
  9
$ATTDIA
 70
     1
  9
$ATTREQ
 70
     1
  9
$HANDLING
 70
     1
  9
$HANDSEED
  5
A5E4
  9
$SURFTAB1
 70
     6
  9
$SURFTAB2
 70
     6
  9
$SURFTYPE
 70
     6
  9
$SURFU
 70
     6
  9
$SURFV
 70
     6
  9
$UCSNAME
  2

  9
$UCSORG
 10
0.0
 20
0.0
 30
0.0
  9
$UCSXDIR
 10
1.0
 20
0.0
 30
0.0
  9
$UCSYDIR
 10
0.0
 20
1.0
 30
0.0
  9
$PUCSNAME
  2

  9
$PUCSORG
 10
0.0
 20
0.0
 30
0.0
  9
$PUCSXDIR
 10
1.0
 20
0.0
 30
0.0
  9
$PUCSYDIR
 10
0.0
 20
1.0
 30
0.0
  9
$USERI1
 70
     0
  9
$USERI2
 70
     0
  9
$USERI3
 70
     0
  9
$USERI4
 70
     0
  9
$USERI5
 70
     0
  9
$USERR1
 40
0.0
  9
$USERR2
 40
0.0
  9
$USERR3
 40
0.0
  9
$USERR4
 40
0.0
  9
$USERR5
 40
0.0
  9
$WORLDVIEW
 70
     1
  9
$SHADEDGE
 70
     3
  9
$SHADEDIF
 70
    70
  9
$TILEMODE
 70
     1
  9
$MAXACTVP
 70
    64
  9
$PLIMCHECK
 70
     0
  9
$PEXTMIN
 10
1.0000000000000000E+020
 20
1.0000000000000000E+020
 30
1.0000000000000000E+020
  9
$PEXTMAX
 10
-1.0000000000000000E+020
 20
-1.0000000000000000E+020
 30
-1.0000000000000000E+020
  9
$PLIMMIN
 10
0.0
 20
0.0
  9
$PLIMMAX
 10
420.0
 20
297.0
  9
$UNITMODE
 70
     0
  9
$VISRETAIN
 70
     1
  9
$PLINEGEN
 70
     0
  9
$PSLTSCALE
 70
     1
  0
ENDSEC
  0
SECTION
  2
TABLES
  0
TABLE
  2
VPORT
 70
     1
  0
VPORT
  2
*ACTIVE
 70
     0
 10
0.0
 20
0.0
 11
1.0
 21
1.0
 12
692.22410385444584
 22
823.40276158277197
 13
0.0
 23
0.0
 14
15.0
 24
15.0
 15
60.0
 25
60.0
 16
0.0
 26
0.0
 36
1.0
 17
0.0
 27
0.0
 37
0.0
 40
788.54199336394834
 41
1.7571592210767459
 42
50.0
 43
0.0
 44
0.0
 50
0.0
 51
0.0
 71
    16
 72
  1000
 73
     1
 74
     3
 75
     0
 76
     0
 77
     0
 78
     0
  0
ENDTAB
  0
TABLE
  2
LTYPE
 70
    23
  0
LTYPE
  2
CONTINUOUS
 70
     0
  3
Solid line
 72
    65
 73
     0
 40
0.0
  0
LTYPE
  2
CENTER
 70
     0
  3
Center ____ _ ____ _ ____ _ ____ _ ____ _ ____
 72
    65
 73
     4
 40
50.799999999999997
 49
31.75
 49
-6.349999999999997
 49
6.349999999999997
 49
-6.349999999999997
  0
LTYPE
  2
AM_ISO02W050
 70
     0
  3
__ __ __ __ __ __ __ __ __ __ __ __ __ __ __
 72
    65
 73
     2
 40
7.5
 49
6.0
 49
-1.5
  0
LTYPE
  2
AM_ISO08W050
 70
     0
  3
____ . ____ . ____ . ____ . ____ . ____ . ____
 72
    65
 73
     4
 40
18.0
 49
12.0
 49
-1.5
 49
3.0
 49
-1.5
  0
LTYPE
  2
AM_ISO09W050
 70
     0
  3
_____ . . _____ . . _____ . . ____ .. ____
 72
    65
 73
     6
 40
22.5
 49
12.0
 49
-1.5
 49
3.0
 49
-1.5
 49
3.0
 49
-1.5
  0
LTYPE
  2
AMCONSTR
 70
     0
  3
_______________________
 72
    65
 73
     2
 40
9999.0
 49
9999.0
 49
0.0
  0
LTYPE
  2
AM_ISO08W050X2
 70
     0
  3
__ . __ . __ . __ . __ . __
 72
    65
 73
     4
 40
9.0
 49
6.0
 49
-0.75
 49
1.5
 49
-0.75
  0
LTYPE
  2
AM_ISO02W050X2
 70
     0
  3
 _ _ _ _ _ _ _ _ _ _ _ _
 72
    65
 73
     2
 40
3.75
 49
3.0
 49
-0.75
  0
LTYPE
  2
AMZIGZAG
 70
     0
  3
/\/-/\/-/\/-/\/-/\/-/\/
 72
    65
 73
     2
 40
11.0001
 49
0.0001
 49
-11.0
  0
LTYPE
  2
ACANSTGBM
 70
     0
  3
__ . . __ . .
 72
    65
 73
     6
 40
9.0
 49
4.0
 49
-1.0
 49
1.0
 49
-1.0
 49
1.0
 49
-1.0
  0
LTYPE
  2
ACANSTGLM
 70
     0
  3
_ _ _ _ _
 72
    65
 73
     2
 40
3.0
 49
2.0
 49
-1.0
  0
LTYPE
  2
ACISOWELD
 70
     0
  3
_ _ _ _ _
 72
    65
 73
     2
 40
2.0
 49
2.0
 49
-1.0
  0
LTYPE
  2
ACISOTGB
 70
     0
  3
__ . . __ . .
 72
    65
 73
     6
 40
9.0
 49
4.0
 49
-1.0
 49
1.0
 49
-1.0
 49
1.0
 49
-1.0
  0
LTYPE
  2
ACISOTGL
 70
     0
  3
_ _ _ _ _
 72
    65
 73
     2
 40
3.0
 49
2.0
 49
-1.0
  0
LTYPE
  2
ACJISTGB
 70
     0
  3
__ . . __ . .
 72
    65
 73
     6
 40
9.0
 49
4.0
 49
-1.0
 49
1.0
 49
-1.0
 49
1.0
 49
-1.0
  0
LTYPE
  2
ACJISTGL
 70
     0
  3
_ _ _ _ _
 72
    65
 73
     2
 40
3.0
 49
2.0
 49
-1.0
  0
LTYPE
  2
HIDDEN
 70
     0
  3
Hidden __ __ __ __ __ __ __ __ __ __ __ __ __ _
 72
    65
 73
     2
 40
9.5249999999999968
 49
6.349999999999997
 49
-3.174999999999998
  0
LTYPE
  2
PHANTOM2
 70
     0
  3
Phantom (.5x) ___ _ _ ___ _ _ ___ _ _ ___ _ _
 72
    65
 73
     6
 40
31.75
 49
15.875
 49
-3.174999999999998
 49
3.174999999999998
 49
-3.174999999999998
 49
3.174999999999998
 49
-3.174999999999998
  0
LTYPE
  2
CENTER2
 70
     0
  3
Center (.5x) ___ _ ___ _ ___ _ ___ _ ___ _ ___
 72
    65
 73
     4
 40
1.125
 49
0.75
 49
-0.125
 49
0.125
 49
-0.125
  0
LTYPE
  2
HIDDEN2
 70
     0
  3
Hidden (.5x) _ _ _ _ _ _ _ _ _ _ _ _ _ _ _ _ _
 72
    65
 73
     2
 40
0.1875
 49
0.125
 49
-0.0625
  0
LTYPE
  2
AMZIGZAG2
 70
     0
  3
/\/-/\/-/\/-/\/-/\/-/\/
 72
    65
 73
     2
 40
0.4401
 49
0.0001
 49
-0.4400000000000003
  0
LTYPE
  2
ACANSTGB
 70
     0
  3
__ . . __ . .
 72
    65
 73
     6
 40
0.35433070866
 49
0.15748031496
 49
-0.03937007874
 49
0.03937007874
 49
-0.03937007874
 49
0.03937007874
 49
-0.03937007874
  0
LTYPE
  2
ACANSTGL
 70
     0
  3
_ _ _ _ _
 72
    65
 73
     2
 40
0.11811023622
 49
0.07874015748
 49
-0.03937007874
  0
ENDTAB
  0
TABLE
  2
LAYER
 70
     5
  0
LAYER
  2
0
 70
     0
 62
     7
  6
CONTINUOUS
  0
LAYER
  2
DEFPOINTS
 70
     0
 62
     7
  6
CONTINUOUS
  0
LAYER
  2
AM_0
 70
     0
 62
     7
  6
CONTINUOUS
  0
LAYER
  2
AM_5
 70
     0
 62
     2
  6
CONTINUOUS
  0
LAYER
  2
AM_CL
 70
     0
 62
     1
  6
AMCONSTR
  0
ENDTAB
  0
TABLE
  2
STYLE
 70
     9
  0
STYLE
  2
STANDARD
 70
     0
 40
0.0
 41
0.7400000000000003
 50
0.0
 71
     0
 42
2.5
  3
txt.shx
  4
bigfont.shx
  0
STYLE
  2
ANNOTATIVE
 70
     0
 40
0.0
 41
1.0
 50
0.0
 71
     0
 42
0.2
  3
txt
  4

  0
STYLE
  2

 70
     1
 40
0.0
 41
1.0
 50
0.0
 71
     0
 42
2.5
  3
ltypeshp.shx
  4

  0
STYLE
  2
ACANSTS
 70
     0
 40
1.0
 41
1.0
 50
0.0
 71
     0
 42
2.5
  3
romans.shx
  4
bigfont.shx
  0
STYLE
  2
ACANSGDT
 70
     0
 40
0.0
 41
1.0
 50
0.0
 71
     0
 42
2.5
  3
amgdt.shx
  4

  0
STYLE
  2
ACISOTS
 70
     0
 40
1.0
 41
1.0
 50
0.0
 71
     0
 42
2.5
  3
isocp.shx
  4
extfont.shx
  0
STYLE
  2
ACISOGDT
 70
     0
 40
0.0
 41
1.0
 50
0.0
 71
     0
 42
2.5
  3
amgdt.shx
  4

  0
STYLE
  2
ACJISGDT
 70
     0
 40
0.0
 41
1.0
 50
0.0
 71
     0
 42
2.5
  3
amgdt.shx
  4

  0
STYLE
  2
ACJISTS
 70
     0
 40
1.0
 41
1.0
 50
0.0
 71
     0
 42
2.5
  3
isocp.shx
  4
extfont.shx
  0
ENDTAB
  0
TABLE
  2
VIEW
 70
     6
  0
VIEW
  2
AM_VIEW1
 70
     0
 40
555.00000000000011
 10
586.62004107243342
 20
832.64281736662736
 41
1173.202846975089
 11
0.0
 21
0.0
 31
1.0
 12
0.0
 22
0.0
 32
0.0
 42
50.0
 43
0.0
 44
0.0
 50
0.0
 71
    16
  0
VIEW
  2
AM_VIEW2
 70
     0
 40
555.00000000000011
 10
1120.417194097344
 20
832.64281736662736
 41
1173.202846975089
 11
0.0
 21
0.0
 31
1.0
 12
0.0
 22
0.0
 32
0.0
 42
50.0
 43
0.0
 44
0.0
 50
0.0
 71
    16
  0
VIEW
  2
AM_VIEW3
 70
     0
 40
555.00000000000011
 10
586.62004107243342
 20
277.6428173666273
 41
1173.202846975089
 11
0.0
 21
0.0
 31
1.0
 12
0.0
 22
0.0
 32
0.0
 42
50.0
 43
0.0
 44
0.0
 50
0.0
 71
    16
  0
VIEW
  2
AM_VIEW4
 70
     0
 40
555.00000000000011
 10
1120.417194097344
 20
277.6428173666273
 41
1173.202846975089
 11
0.0
 21
0.0
 31
1.0
 12
0.0
 22
0.0
 32
0.0
 42
50.0
 43
0.0
 44
0.0
 50
0.0
 71
    16
  0
VIEW
  2
AM_VIEW5
 70
     0
 40
555.00000000000011
 10
853.51861758488894
 20
555.14281736662736
 41
1173.202846975089
 11
0.0
 21
0.0
 31
1.0
 12
0.0
 22
0.0
 32
0.0
 42
50.0
 43
0.0
 44
0.0
 50
0.0
 71
    16
  0
VIEW
  2
AM_VIEW6
 70
     0
 40
1109.9889000000001
 10
853.51861758488894
 20
555.14281736662724
 41
2346.3822298932391
 11
0.0
 21
0.0
 31
1.0
 12
0.0
 22
0.0
 32
0.0
 42
50.0
 43
0.0
 44
0.0
 50
0.0
 71
    16
  0
ENDTAB
  0
TABLE
  2
UCS
 70
     0
  0
ENDTAB
  0
TABLE
  2
APPID
 70
   162
  0
APPID
  2
ACAD
 70
     0
  0
APPID
  2
ACADANNOTATIVE
 70
     0
  0
APPID
  2
ACAD_MLEADERVER
 70
     0
  0
APPID
  2
MCAD_NO_VIS
 70
     0
  0
APPID
  2
ACAD_TEMP_GRAPHIC
 70
     0
  0
APPID
  2
AD_DRAW
 70
     0
  0
APPID
  2
ACATTRIBSERVICES
 70
     0
  0
APPID
  2
DESIGNERASSEMBLIES
 70
     0
  0
APPID
  2
ACADM_DIM_EDIT
 70
     0
  0
APPID
  2
AMDT_DM_ADJ
 70
     0
  0
APPID
  2
GENIUS_GENDIMSH_14
 70
     0
  0
APPID
  2
GEVID1057795304
 70
     0
  0
APPID
  2
GEVDC
 70
     0
  0
APPID
  2
GEVCON
 70
     0
  0
APPID
  2
GENIUS_GENBH_13
 70
     0
  0
APPID
  2
GENIUS_GENOENT_13
 70
     0
  0
APPID
  2
GENIUS_GENOBJ-NBEHI-BHF_13
 70
     0
  0
APPID
  2
GENIUS_GENOLIS_13
 70
     0
  0
APPID
  2
GENIUS_GENODEF_13
 70
     0
  0
APPID
  2
GENIUS_GENOREF_13
 70
     0
  0
APPID
  2
GENIUS_GENOBJ-NBEHI-BHB_13
 70
     0
  0
APPID
  2
GENIUS_GENOBJ-F-SCPASSM_13
 70
     0
  0
APPID
  2
GENIUS_GENDTOL_13
 70
     0
  0
APPID
  2
GENIUS_GENTRA_14
 70
     0
  0
APPID
  2
ASURF_PCURVE_APPNAME
 70
     0
  0
APPID
  2
GENIUS_GENCFG_13
 70
     0
  0
APPID
  2
GENIUS_GE3CFG0_13
 70
     0
  0
APPID
  2
GENIUS_GENCFG0_13
 70
     0
  0
APPID
  2
GENIUS_GENCFG1_13
 70
     0
  0
APPID
  2
GENIUS_GENCFG2_13
 70
     0
  0
APPID
  2
GENIUS_GENCFG3_13
 70
     0
  0
APPID
  2
GENIUS_GENCFG4_13
 70
     0
  0
APPID
  2
GENIUS_GEVCFG0_13
 70
     0
  0
APPID
  2
GENIUS_GENOBJ-N-TIT_13
 70
     0
  0
APPID
  2
GENIUS_GENTITLE_13
 70
     0
  0
APPID
  2
GENIUS_GENSCREG_15
 70
     0
  0
APPID
  2
GENIUS_GENOBJ-N-SDF_13
 70
     0
  0
APPID
  2
GENIUS_GENFIL_13
 70
     0
  0
APPID
  2
GENIUS_GENOBJ-N-CHA_13
 70
     0
  0
APPID
  2
GENIUS_GEFSH_13
 70
     0
  0
APPID
  2
GENIUS_GENOBJ-F-SHS_13
 70
     0
  0
APPID
  2
GENIUS_GENOBJ-N-CEN_13
 70
     0
  0
APPID
  2
GENIUS_GENREC_14
 70
     0
  0
APPID
  2
GENIUS_GENOBJ-N-REC_13
 70
     0
  0
APPID
  2
GENIUS_GENOBJ-N-HTC_13
 70
     0
  0
APPID
  2
GENIUS_GENHATCH_13
 70
     0
  0
APPID
  2
ACAD_PSEXT
 70
     0
  0
APPID
  2
ACAD_EXEMPT_FROM_CAD_STANDARDS
 70
     0
  0
APPID
  2
ACAECLAYERSTANDARD
 70
     0
  0
APPID
  2
GENIUS_GENCEN_19
 70
     0
  0
APPID
  2
ACAD_DSTYLE_DIMINSPECT
 70
     0
  0
APPID
  2
ACAD_DSTYLE_DIMANGULAR_EXT
 70
     0
  0
APPID
  2
ACADANNOPO
 70
     0
  0
APPID
  2
ACAD_NAV_VCDISPLAY
 70
     0
  0
APPID
  2
GENIUS_GENOBJ-N-FIL_13
 70
     0
  0
APPID
  2
ACAUTHENVIRON
 70
     0
  0
APPID
  2
ACDBDYNAMICBLOCKTRUENAME
 70
     0
  0
APPID
  2
ACDBDYNAMICBLOCKGUID
 70
     0
  0
APPID
  2
ACDBBLOCKREPETAG
 70
     0
  0
APPID
  2
ACAD_DSTYLE_DIMBREAK
 70
     0
  0
APPID
  2
ACAD_DSTYLE_DIMJAG
 70
     0
  0
APPID
  2
GENIUS_GENHINW_13
 70
     0
  0
APPID
  2
GENIUS_FIRSTVISTXT_14
 70
     0
  0
APPID
  2
GENIUS_GENOBJ-N-LEADER_13
 70
     0
  0
APPID
  2
ACAD_DSTYLE_DIMRADIAL_EXTENSION
 70
     0
  0
APPID
  2
DCO15
 70
     0
  0
APPID
  2
GENIUS_DUMCFG0_13
 70
     0
  0
APPID
  2
ACAD_DSTYLE_DIMTEXT_FILL
 70
     0
  0
APPID
  2
AMG_2DHIDE
 70
     0
  0
APPID
  2
GENIUS_GEFSHEP_13
 70
     0
  0
APPID
  2
GENIUS_GENOBJ-F-SHE_13
 70
     0
  0
APPID
  2
GENIUS_GEFSHE_13
 70
     0
  0
APPID
  2
ACAD_DIMASSOC_DIMLFAC
 70
     0
  0
APPID
  2
ACAD_DIMASSOC_CALC_DIMLFAC
 70
     0
  0
APPID
  2
ACAD_DIMASSOC_OVERRIDDEN_D
 70
     0
  0
APPID
  2
GENIUS_GENOBJ-F-SHSV_13
 70
     0
  0
APPID
  2
GENIUS_GEFWELD_13
 70
     0
  0
APPID
  2
GENIUS_GENOBJ-N-CRS_13
 70
     0
  0
APPID
  2
GENIUS_GENOBJ-N-RSBK_13
 70
     0
  0
APPID
  2
GENIUS_GENOBJ-N-LIB_13
 70
     0
  0
APPID
  2
GENIUS_GENSCALE_13
 70
     0
  0
APPID
  2
GENIUS_GENDREL_13
 70
     0
  0
APPID
  2
GEVPT
 70
     0
  0
APPID
  2
GEVIT
 70
     0
  0
APPID
  2
VCC
 70
     0
  0
APPID
  2
GENBH
 70
     0
  0
APPID
  2
GEVMK
 70
     0
  0
APPID
  2
GENIUS_GENOBJ-F-DESC_13
 70
     0
  0
APPID
  2
GENIUS_GEFDESC_14
 70
     0
  0
APPID
  2
GENIUS_GENOBJ-F-FEAT_13
 70
     0
  0
APPID
  2
GENIUS_GEFFEAT_14
 70
     0
  0
APPID
  2
GENIUS_GEFPARTINS_13
 70
     0
  0
APPID
  2
GENIUS_GENSCREG_13
 70
     0
  0
APPID
  2
GENIUS_GEFSHP_13
 70
     0
  0
APPID
  2
GEVID1025574798
 70
     0
  0
APPID
  2
GEVID1025574769
 70
     0
  0
APPID
  2
GEVID1025757451
 70
     0
  0
APPID
  2
GEVID1240528327
 70
     0
  0
APPID
  2
AMG_2DSTRUCT_BTR
 70
     0
  0
APPID
  2
ACADM_2DVIEW_IGN_NOTIFY
 70
     0
  0
APPID
  2
GEVID1240528328
 70
     0
  0
APPID
  2
GEVID1240528329
 70
     0
  0
APPID
  2
GEVRADREF
 70
     0
  0
APPID
  2
GEVID1240528330
 70
     0
  0
APPID
  2
GEVID1240528331
 70
     0
  0
APPID
  2
GEVID1240528332
 70
     0
  0
APPID
  2
GEVID1240791080
 70
     0
  0
APPID
  2
GEVID1240791081
 70
     0
  0
APPID
  2
GEVID1240791082
 70
     0
  0
APPID
  2
GEVID1240791083
 70
     0
  0
APPID
  2
GEVID1240791084
 70
     0
  0
APPID
  2
GEVID1240791085
 70
     0
  0
APPID
  2
GEVID1240791086
 70
     0
  0
APPID
  2
GEVID1240791087
 70
     0
  0
APPID
  2
GEVID1240791088
 70
     0
  0
APPID
  2
GEVID1240791089
 70
     0
  0
APPID
  2
GEVID1240791090
 70
     0
  0
APPID
  2
GEVID1240791091
 70
     0
  0
APPID
  2
GEVID1240791092
 70
     0
  0
APPID
  2
GEVID1240791093
 70
     0
  0
APPID
  2
GEVID1240791094
 70
     0
  0
APPID
  2
GEVID1240791095
 70
     0
  0
APPID
  2
GEVID1240791096
 70
     0
  0
APPID
  2
GEVID1240791097
 70
     0
  0
APPID
  2
GEVID1240791098
 70
     0
  0
APPID
  2
GEVID1240791099
 70
     0
  0
APPID
  2
GEVID1240791100
 70
     0
  0
APPID
  2
GEVID1240791101
 70
     0
  0
APPID
  2
GEVID1240791102
 70
     0
  0
APPID
  2
GEVID1240791103
 70
     0
  0
APPID
  2
GEVID1240791104
 70
     0
  0
APPID
  2
GEVID1240791105
 70
     0
  0
APPID
  2
GEVID1240875381
 70
     0
  0
APPID
  2
GEVID1240875382
 70
     0
  0
APPID
  2
GEVID1240875383
 70
     0
  0
APPID
  2
GEVID1240875384
 70
     0
  0
APPID
  2
GEVID1240875385
 70
     0
  0
APPID
  2
GEVID1240875386
 70
     0
  0
APPID
  2
GEVID1240875387
 70
     0
  0
APPID
  2
GEVID1240875388
 70
     0
  0
APPID
  2
GEVID1240875389
 70
     0
  0
APPID
  2
GEVID1240875390
 70
     0
  0
APPID
  2
GEVID1240875391
 70
     0
  0
APPID
  2
GEVID1240875392
 70
     0
  0
APPID
  2
GEVID1240875393
 70
     0
  0
APPID
  2
GEVID1240875394
 70
     0
  0
APPID
  2
GEVID1240875395
 70
     0
  0
APPID
  2
GEVID1240875396
 70
     0
  0
APPID
  2
GEVID1240875397
 70
     0
  0
APPID
  2
GEVID1240875398
 70
     0
  0
APPID
  2
GEVID1240875399
 70
     0
  0
APPID
  2
GEVID1240908996
 70
     0
  0
APPID
  2
GEVID1240908997
 70
     0
  0
APPID
  2
GEVID1240908998
 70
     0
  0
APPID
  2
GEVID1240908999
 70
     0
  0
APPID
  2
GEVID1240909000
 70
     0
  0
APPID
  2
GENIUS_GENOBJ-N-ZOO_13
 70
     0
  0
APPID
  2
GENIUS_GENZOO_17
 70
     0
  0
APPID
  2
GENIUS_GE3SECT_13
 70
     0
  0
APPID
  2
GEV_VCCNULL_SWITCH_OFF
 70
     0
  0
APPID
  2
ACAD_DSTYLE_DIMTALN
 70
     0
  0
APPID
  2
CONTENTBLOCKDESCRIPTION
 70
     0
  0
ENDTAB
  0
TABLE
  2
DIMSTYLE
 70
    23
  0
DIMSTYLE
  2
STANDARD
 70
     0
  3

  4

  5

  6

  7

 40
1.0
 41
0.18
 42
0.0625
 43
0.38
 44
0.18
 45
0.0
 46
0.0
 47
0.0
 48
0.0
140
0.18
141
0.09
142
0.0
143
25.399999999999999
144
1.0
145
0.0
146
1.0
147
0.09
 71
     0
 72
     0
 73
     1
 74
     1
 75
     0
 76
     0
 77
     0
 78
     0
170
     0
171
     2
172
     0
173
     0
174
     0
175
     0
176
     0
177
     0
178
     0
  0
DIMSTYLE
  2
ANNOTATIVE
 70
     0
  3

  4

  5

  6

  7

 40
1.0
 41
0.18
 42
0.0625
 43
0.38
 44
0.18
 45
0.0
 46
0.0
 47
0.0
 48
0.0
140
0.18
141
0.09
142
0.0
143
25.399999999999999
144
1.0
145
0.0
146
1.0
147
0.09
 71
     0
 72
     0
 73
     1
 74
     1
 75
     0
 76
     0
 77
     0
 78
     0
170
     0
171
     2
172
     0
173
     0
174
     0
175
     0
176
     0
177
     0
178
     0
  0
DIMSTYLE
  2
AM_ANSI
 70
     0
  3

  4
"
  5

  6

  7

 40
1.0
 41
2.5
 42
1.0
 43
10.0
 44
1.0
 45
0.0
 46
0.0
 47
0.1
 48
0.1
140
3.5
141
0.0
142
0.0
143
0.0393701
144
1.0
145
0.0
146
0.71
147
1.5
 71
     0
 72
     0
 73
     1
 74
     1
 75
     0
 76
     0
 77
     0
 78
     8
170
     0
171
     2
172
     0
173
     0
174
     0
175
     0
176
     2
177
     2
178
     4
  0
DIMSTYLE
  2
AM_ANSI$3
 70
     0
  3

  4
"
  5

  6

  7

 40
1.0
 41
2.5
 42
1.0
 43
10.0
 44
1.0
 45
0.0
 46
0.0
 47
0.1
 48
0.1
140
3.5
141
0.0
142
0.0
143
0.0393701
144
1.0
145
0.0
146
0.71
147
1.5
 71
     0
 72
     0
 73
     1
 74
     1
 75
     0
 76
     0
 77
     0
 78
     8
170
     0
171
     2
172
     0
173
     0
174
     0
175
     0
176
     2
177
     2
178
     4
  0
DIMSTYLE
  2
AM_ANSI$4
 70
     0
  3

  4
"
  5

  6

  7

 40
1.0
 41
2.5
 42
1.0
 43
10.0
 44
1.0
 45
0.0
 46
0.0
 47
0.1
 48
0.1
140
3.5
141
0.0
142
0.0
143
0.0393701
144
1.0
145
0.0
146
0.71
147
1.5
 71
     0
 72
     0
 73
     1
 74
     1
 75
     0
 76
     0
 77
     0
 78
     8
170
     0
171
     2
172
     0
173
     0
174
     0
175
     0
176
     2
177
     2
178
     4
  0
DIMSTYLE
  2
AM_ANSI$7
 70
     0
  3

  4
"
  5

  6

  7

 40
1.0
 41
2.5
 42
1.0
 43
10.0
 44
1.0
 45
0.0
 46
0.0
 47
0.1
 48
0.1
140
5.0
141
0.0
142
0.0
143
0.0393701
144
1.0
145
0.0
146
0.71
147
1.5
 71
     0
 72
     0
 73
     1
 74
     1
 75
     0
 76
     0
 77
     0
 78
     8
170
     0
171
     2
172
     0
173
     0
174
     0
175
     0
176
     2
177
     2
178
     4
  0
DIMSTYLE
  2
AM_ANSI$SF
 70
     0
  3

  4
"
  5

  6

  7

 40
1.0
 41
2.5
 42
1.0
 43
10.0
 44
1.0
 45
0.0
 46
0.0
 47
0.1
 48
0.1
140
3.5
141
0.0
142
0.0
143
0.0393701
144
1.0
145
0.0
146
0.71
147
1.5
 71
     0
 72
     0
 73
     1
 74
     1
 75
     1
 76
     1
 77
     0
 78
     8
170
     0
171
     2
172
     0
173
     0
174
     0
175
     0
176
     2
177
     2
178
     4
  0
DIMSTYLE
  2
AM_ANSI$SH
 70
     0
  3

  4
"
  5

  6

  7

 40
1.0
 41
2.5
 42
1.0
 43
10.0
 44
1.0
 45
0.0
 46
0.0
 47
0.1
 48
0.1
140
3.5
141
0.0
142
0.0
143
0.0393701
144
1.0
145
0.0
146
0.71
147
1.5
 71
     0
 72
     0
 73
     1
 74
     1
 75
     1
 76
     1
 77
     0
 78
     8
170
     0
171
     2
172
     0
173
     1
174
     0
175
     0
176
     2
177
     2
178
     4
  0
DIMSTYLE
  2
AM_ISO
 70
     0
  3

  4
"
  5

  6

  7

 40
1.0
 41
2.5
 42
1.0
 43
10.0
 44
1.0
 45
0.0
 46
0.0
 47
0.1
 48
0.1
140
3.5
141
0.0
142
0.0
143
0.0393701
144
1.0
145
0.0
146
0.71
147
1.5
 71
     0
 72
     0
 73
     0
 74
     0
 75
     0
 76
     0
 77
     1
 78
     8
170
     0
171
     2
172
     1
173
     0
174
     0
175
     0
176
   256
177
   256
178
     2
  0
DIMSTYLE
  2
AM_ISO$3
 70
     0
  3

  4
"
  5

  6

  7

 40
1.0
 41
2.5
 42
1.0
 43
10.0
 44
1.0
 45
0.0
 46
0.0
 47
0.1
 48
0.1
140
3.5
141
0.0
142
0.0
143
0.0393701
144
1.0
145
0.0
146
0.71
147
1.5
 71
     0
 72
     0
 73
     0
 74
     1
 75
     0
 76
     0
 77
     1
 78
     8
170
     0
171
     2
172
     0
173
     0
174
     0
175
     0
176
   256
177
   256
178
     2
  0
DIMSTYLE
  2
AM_ISO$4
 70
     0
  3

  4
"
  5

  6

  7

 40
1.0
 41
2.5
 42
1.0
 43
10.0
 44
1.0
 45
0.0
 46
0.0
 47
0.1
 48
0.1
140
3.5
141
0.0
142
0.0
143
0.0393701
144
1.0
145
0.0
146
0.71
147
1.5
 71
     0
 72
     0
 73
     0
 74
     1
 75
     0
 76
     0
 77
     1
 78
     8
170
     0
171
     2
172
     0
173
     0
174
     0
175
     0
176
   256
177
   256
178
     2
  0
DIMSTYLE
  2
AM_ISO$6
 70
     0
  3

  4
"
  5

  6

  7

 40
1.0
 41
2.5
 42
1.0
 43
10.0
 44
1.0
 45
0.0
 46
0.0
 47
0.1
 48
0.1
140
3.5
141
0.0
142
0.0
143
0.0393701
144
1.0
145
0.0
146
0.71
147
1.5
 71
     0
 72
     0
 73
     0
 74
     0
 75
     0
 76
     0
 77
     0
 78
     8
170
     0
171
     2
172
     1
173
     0
174
     0
175
     0
176
   256
177
   256
178
     2
  0
DIMSTYLE
  2
AM_ISO$7
 70
     0
  3

  4
"
  5

  6

  7

 40
1.0
 41
2.5
 42
1.0
 43
10.0
 44
1.0
 45
0.0
 46
0.0
 47
0.1
 48
0.1
140
5.0
141
0.0
142
0.0
143
0.0393701
144
1.0
145
0.0
146
0.71
147
1.5
 71
     0
 72
     0
 73
     0
 74
     0
 75
     0
 76
     0
 77
     1
 78
     8
170
     0
171
     2
172
     1
173
     0
174
     0
175
     0
176
   256
177
   256
178
     2
  0
DIMSTYLE
  2
AM_ISO$SF
 70
     0
  3

  4
"
  5

  6

  7

 40
1.0
 41
2.5
 42
1.0
 43
10.0
 44
1.0
 45
0.0
 46
0.0
 47
0.1
 48
0.1
140
3.5
141
0.0
142
0.0
143
0.0393701
144
1.0
145
0.0
146
0.71
147
1.5
 71
     0
 72
     0
 73
     0
 74
     0
 75
     1
 76
     1
 77
     1
 78
     8
170
     0
171
     2
172
     1
173
     0
174
     0
175
     0
176
   256
177
   256
178
     2
  0
DIMSTYLE
  2
AM_ISO$SH
 70
     0
  3

  4
"
  5

  6

  7

 40
1.0
 41
2.5
 42
1.0
 43
10.0
 44
1.0
 45
0.0
 46
0.0
 47
0.1
 48
0.1
140
3.5
141
0.0
142
0.0
143
0.0393701
144
2.0
145
0.0
146
0.71
147
1.5
 71
     0
 72
     0
 73
     0
 74
     0
 75
     1
 76
     1
 77
     1
 78
     8
170
     0
171
     2
172
     1
173
     1
174
     0
175
     0
176
   256
177
   256
178
     2
  0
DIMSTYLE
  2
AM_JIS
 70
     0
  3

  4
"
  5

  6

  7

 40
1.0
 41
2.0
 42
1.0
 43
8.0
 44
1.0
 45
0.0
 46
0.0
 47
0.1
 48
0.1
140
2.5
141
0.0
142
0.0
143
0.0393701
144
1.0
145
0.0
146
0.71
147
1.5
 71
     0
 72
     0
 73
     0
 74
     0
 75
     0
 76
     0
 77
     3
 78
     8
170
     0
171
     2
172
     1
173
     0
174
     0
175
     0
176
     2
177
     2
178
     4
  0
DIMSTYLE
  2
AM_JIS$3
 70
     0
  3

  4
"
  5

  6

  7

 40
1.0
 41
2.0
 42
1.0
 43
10.0
 44
1.0
 45
0.0
 46
0.0
 47
0.1
 48
0.1
140
2.5
141
0.0
142
0.0
143
0.0393701
144
1.0
145
0.0
146
0.71
147
1.5
 71
     0
 72
     0
 73
     0
 74
     1
 75
     0
 76
     0
 77
     3
 78
     8
170
     0
171
     2
172
     0
173
     0
174
     0
175
     0
176
     2
177
     2
178
     4
  0
DIMSTYLE
  2
AM_JIS$4
 70
     0
  3

  4
"
  5

  6

  7

 40
1.0
 41
2.0
 42
1.0
 43
10.0
 44
1.0
 45
0.0
 46
0.0
 47
0.1
 48
0.1
140
2.5
141
0.0
142
0.0
143
0.0393701
144
1.0
145
0.0
146
0.71
147
1.5
 71
     0
 72
     0
 73
     0
 74
     0
 75
     0
 76
     0
 77
     3
 78
     8
170
     0
171
     2
172
     0
173
     0
174
     0
175
     0
176
     2
177
     2
178
     4
  0
DIMSTYLE
  2
AM_JIS$6
 70
     0
  3

  4
"
  5

  6

  7

 40
1.0
 41
2.0
 42
1.0
 43
10.0
 44
1.0
 45
0.0
 46
0.0
 47
0.1
 48
0.1
140
2.5
141
0.0
142
0.0
143
0.0393701
144
1.0
145
0.0
146
0.71
147
1.5
 71
     0
 72
     0
 73
     0
 74
     0
 75
     0
 76
     0
 77
     0
 78
     8
170
     0
171
     2
172
     1
173
     0
174
     0
175
     0
176
     2
177
     2
178
     4
  0
DIMSTYLE
  2
AM_JIS$7
 70
     0
  3

  4
"
  5

  6

  7

 40
1.0
 41
2.0
 42
1.0
 43
10.0
 44
1.0
 45
0.0
 46
0.0
 47
0.1
 48
0.1
140
2.5
141
0.0
142
0.0
143
0.0393701
144
1.0
145
0.0
146
0.71
147
1.5
 71
     0
 72
     0
 73
     0
 74
     0
 75
     0
 76
     0
 77
     3
 78
     8
170
     0
171
     2
172
     1
173
     0
174
     0
175
     0
176
     2
177
     2
178
     4
  0
DIMSTYLE
  2
AM_JIS$SF
 70
     0
  3

  4
"
  5

  6

  7

 40
1.0
 41
2.0
 42
1.0
 43
10.0
 44
1.0
 45
0.0
 46
0.0
 47
0.1
 48
0.1
140
2.5
141
0.0
142
0.0
143
0.0393701
144
1.0
145
0.0
146
0.71
147
1.5
 71
     0
 72
     0
 73
     0
 74
     0
 75
     1
 76
     1
 77
     3
 78
     8
170
     0
171
     2
172
     1
173
     0
174
     0
175
     0
176
     2
177
     2
178
     4
  0
DIMSTYLE
  2
AM_JIS$SH
 70
     0
  3

  4
"
  5

  6

  7

 40
1.0
 41
2.0
 42
1.0
 43
10.0
 44
1.0
 45
0.0
 46
0.0
 47
0.1
 48
0.1
140
2.5
141
0.0
142
0.0
143
0.0393701
144
2.0
145
0.0
146
0.71
147
1.5
 71
     0
 72
     0
 73
     0
 74
     0
 75
     1
 76
     1
 77
     3
 78
     8
170
     0
171
     2
172
     1
173
     1
174
     0
175
     0
176
     2
177
     2
178
     4
  0
DIMSTYLE
  2
AM_JIS$0
 70
     0
  3

  4
"
  5

  6

  7

 40
1.0
 41
2.0
 42
1.0
 43
8.0
 44
1.0
 45
0.0
 46
0.0
 47
0.1
 48
0.1
140
2.5
141
0.0
142
0.0
143
0.0393701
144
1.0
145
0.0
146
0.71
147
1.5
 71
     0
 72
     0
 73
     0
 74
     0
 75
     0
 76
     0
 77
     3
 78
     8
170
     0
171
     2
172
     1
173
     0
174
     0
175
     0
176
     2
177
     2
178
     4
  0
ENDTAB
  0
ENDSEC
  0
SECTION
  2
BLOCKS
  0
BLOCK
  8
0
  2
$MODEL_SPACE
 70
     0
 10
0.0
 20
0.0
 30
0.0
  3
$MODEL_SPACE
  1

  0
ENDBLK
  5
A2E0
  8
0
  0
BLOCK
 67
     1
  8
0
  2
$PAPER_SPACE
 70
     0
 10
0.0
 20
0.0
 30
0.0
  3
$PAPER_SPACE
  1

  0
ENDBLK
  5
A2DC
 67
     1
  8
0
  0
BLOCK
  8
0
  2
GENAXEH
 70
     0
 10
0.0
 20
0.0
 30
0.0
  3
GENAXEH
  1

  0
LINE
  5
A0AB
  8
0
 10
-1.0
 20
0.0
 30
0.0
 11
1.0
 21
0.0
 31
0.0
  0
ENDBLK
  5
A0AC
  8
0
  0
BLOCK
  8
0
  2
_OPEN30
 70
     0
 10
0.0
 20
0.0
 30
0.0
  3
_OPEN30
  1

  0
LINE
  5
A0F2
  8
0
  6
BYBLOCK
 62
     0
 10
-1.0
 20
0.26794919
 30
0.0
 11
0.0
 21
0.0
 31
0.0
  0
LINE
  5
A0F3
  8
0
  6
BYBLOCK
 62
     0
 10
0.0
 20
0.0
 30
0.0
 11
-1.0
 21
-0.26794919
 31
0.0
  0
LINE
  5
A0F4
  8
0
  6
BYBLOCK
 62
     0
 10
0.0
 20
0.0
 30
0.0
 11
-1.0
 21
0.0
 31
0.0
  0
ENDBLK
  5
A0F5
  8
0
  0
BLOCK
  8
0
  2
_ACMFILLEDHALF
 70
     0
 10
0.0
 20
0.0
 30
0.0
  3
_ACMFILLEDHALF
  1

  0
TRACE
  5
A1CD
  8
0
  6
CONTINUOUS
 62
     0
 10
-0.8
 20
0.0
 30
0.0
 11
-1.0
 21
0.166666666
 31
0.0
 12
0.0
 22
0.0
 32
0.0
 13
0.0
 23
0.0
 33
0.0
  0
LINE
  5
A1CE
  8
0
  6
CONTINUOUS
 62
     0
 10
-1.0
 20
0.0
 30
0.0
 11
-0.8
 21
0.0
 31
0.0
  0
ENDBLK
  5
A1CF
  8
0
  0
BLOCK
  8
0
  2
*U5
 70
     1
 10
0.0
 20
0.0
 30
0.0
  3
*U5
  1

  0
TEXT
  5
A265
  8
0
 10
671.79812617104005
 20
384.72486953629863
 30
0.0
 40
15.0
  1
ＶＸ１５－１２０ＥＭＦ～２００ＥＭＦ
 41
0.7400000000000003
  0
ENDBLK
  5
A267
  8
0
  0
BLOCK
  8
0
  2
*U6
 70
     1
 10
0.0
 20
0.0
 30
0.0
  3
*U6
  1

  0
TEXT
  5
A26D
  8
0
 62
     0
 10
5.1211371559201639
 20
5.9826223594979648
 30
0.0
 40
15.0
  1
ＶＸ０８－００３ＥＭ～ＶＸ０８－０３０ＥＭ
 41
0.7400000000000003
  0
ENDBLK
  5
A26F
  8
0
  0
ENDSEC
  0
SECTION
  2
ENTITIES
  0
LINE
  5
7CF0
  8
0
  6
AM_ISO08W050
 10
531.62253992565684
 20
638.85763429805695
 30
0.0
 11
785.06125338246022
 21
638.85763429805695
 31
0.0
  0
LINE
  5
7CFA
  8
0
 10
779.63240338246021
 20
670.35763429805706
 30
0.0
 11
779.63240338246021
 21
611.35763429805672
 31
0.0
  0
LINE
  5
7D3F
  8
0
  6
CONTINUOUS
 62
     0
 10
476.1324033824601
 20
678.85762929805674
 30
0.0
 11
489.80685338245968
 21
679.33516429805672
 31
0.0
  0
LINE
  5
7D46
  8
0
 10
476.1324033824601
 20
508.85762929805679
 30
0.0
 11
489.80695338246051
 21
508.38012429805661
 31
0.0
  0
LINE
  5
7D4E
  8
0
  6
AM_ISO08W050
 10
182.99480463918371
 20
593.85762929805674
 30
0.0
 11
541.77509874254054
 21
593.85762929805674
 31
0.0
  0
ARC
  5
7D8C
  8
0
 10
489.6324033824605
 20
503.38314429805672
 30
0.0
 40
5.0
 50
0.0
 51
87.999999999996334
  0
ARC
  5
7D93
  8
0
  6
CONTINUOUS
 62
     0
 10
489.6324033824605
 20
684.33211429805692
 30
0.0
 40
5.0
 50
272.00000000000369
 51
0.0
  0
ARC
  5
8E58
  8
0
  6
CONTINUOUS
 10
197.6324033824601
 20
494.65762929805692
 30
0.0
 40
2.0
 50
180.0
 51
270.0
  0
LINE
  5
8E5A
  8
0
  6
CONTINUOUS
 10
268.6324033824601
 20
694.6576292980568
 30
0.0
 11
268.6324033824601
 21
492.65762929805652
 31
0.0
  0
ARC
  5
8E5B
  8
0
  6
CONTINUOUS
 10
198.0324033824601
 20
679.63444429805668
 30
0.0
 40
2.399999999999999
 50
160.0000000000035
 51
180.0
  0
ARC
  5
8E5C
  8
0
  6
CONTINUOUS
 10
202.62686738246009
 20
692.25762929805683
 30
0.0
 40
2.399999999999999
 50
90.0
 51
160.0000000000035
  0
LINE
  5
8E5D
  8
0
  6
CONTINUOUS
 10
200.37160438246011
 20
693.07847729805644
 30
0.0
 11
195.77714138246
 21
680.45529329805674
 31
0.0
  0
LINE
  5
8E5E
  8
0
 10
200.94636838246021
 20
693.97108329805667
 30
0.0
 11
200.94636838246021
 21
492.65762929805652
 31
0.0
  0
LINE
  5
8E5F
  8
0
  6
CONTINUOUS
 10
195.6324033824601
 20
679.63444429805668
 30
0.0
 11
195.6324033824601
 21
494.65762929805692
 31
0.0
  0
LINE
  5
8E60
  8
0
  6
CONTINUOUS
 10
268.6324033824601
 20
694.6576292980568
 30
0.0
 11
202.62686738246009
 21
694.6576292980568
 31
0.0
  0
ARC
  5
8E61
  8
0
  6
CONTINUOUS
 10
369.1324033824601
 20
35.007653298056773
 30
0.0
 40
600.59997599999986
 50
86.033759999997372
 51
93.836910000000643
  0
ARC
  5
8E62
  8
0
  6
CONTINUOUS
 10
329.31700838246007
 20
628.67402829805644
 30
0.0
 40
5.5999980000000003
 50
93.837062000000614
 51
179.99998200000081
  0
ARC
  5
8E63
  8
0
  6
CONTINUOUS
 10
331.38080838245997
 20
628.80883129805648
 30
0.0
 40
5.5999980000000003
 50
93.638055999997604
 51
179.99998200000081
  0
ARC
  5
8E64
  8
0
  6
CONTINUOUS
 10
322.20900638246007
 20
593.85762929805674
 30
0.0
 40
15.000002
 50
310.58999199999971
 51
49.409702000001012
  0
ARC
  5
8E65
  8
0
  6
CONTINUOUS
 10
369.1324033824601
 20
35.007653298056773
 30
0.0
 40
596.09997599999986
 50
86.44328999999945
 51
93.315089000003056
  0
ARC
  5
8E66
  8
0
  6
CONTINUOUS
 10
325.16835138246017
 20
593.85762929805674
 30
0.0
 40
14.0
 50
317.10021800000243
 51
42.899781999997558
  0
ARC
  5
8E67
  8
0
  6
CONTINUOUS
 10
337.32860638246018
 20
605.15754929805667
 30
0.0
 40
2.6000000000000001
 50
180.0
 51
222.8997819999976
  0
LINE
  5
8E68
  8
0
  6
CONTINUOUS
 10
331.26990838246007
 20
626.51622929805671
 30
0.0
 11
331.26990838246007
 21
606.76712929805672
 31
0.0
  0
LINE
  5
8E69
  8
0
  6
CONTINUOUS
 10
334.72860638246021
 20
605.15754929805667
 30
0.0
 11
334.72860638246021
 21
623.43992729805666
 31
0.0
  0
ARC
  5
8E6A
  8
0
  6
CONTINUOUS
 10
334.8699063824601
 20
626.51622929805671
 30
0.0
 40
3.5999979999999989
 50
93.315005000002984
 51
179.99998200000081
  0
ARC
  5
8E6B
  8
0
  6
CONTINUOUS
 10
333.26990838246007
 20
606.76712929805672
 30
0.0
 40
1.999997
 50
179.99998200000081
 51
229.4100490000026
  0
LINE
  5
8E6C
  8
0
  6
CONTINUOUS
 10
323.71700538246
 20
628.67402929805644
 30
0.0
 11
323.71700538246
 21
559.04122529805647
 31
0.0
  0
LINE
  5
8E6D
  8
0
  6
CONTINUOUS
 10
325.78080638246013
 20
628.80883329805647
 30
0.0
 11
325.78080638246013
 21
558.90642529805655
 31
0.0
  0
LINE
  5
8E6E
  8
0
  6
CONTINUOUS
 10
334.72860638246021
 20
561.32543329805674
 30
0.0
 11
334.72860638246021
 21
582.55770929805669
 31
0.0
  0
LINE
  5
8E6F
  8
0
  6
CONTINUOUS
 10
331.26990838246007
 20
561.19489029805675
 30
0.0
 11
331.26990838246007
 21
580.94813329805675
 31
0.0
  0
ARC
  5
8E70
  8
0
  6
CONTINUOUS
 10
337.32860638246018
 20
582.55770929805669
 30
0.0
 40
2.6000000000000001
 50
137.1002180000024
 51
180.0
  0
ARC
  5
8E71
  8
0
  6
CONTINUOUS
 10
333.26990838246007
 20
580.94813329805675
 30
0.0
 40
2.0
 50
130.59005899999829
 51
179.99998200000081
  0
ARC
  5
8E72
  8
0
  6
CONTINUOUS
 10
369.1324033824601
 20
1152.707605298056
 30
0.0
 40
596.09997599999986
 50
266.6850579999973
 51
273.5570069999992
  0
ARC
  5
8E73
  8
0
  6
CONTINUOUS
 10
334.8699063824601
 20
561.19903329805675
 30
0.0
 40
3.6000009999999989
 50
180.00007799999869
 51
266.68501400000298
  0
ARC
  5
8E74
  8
0
  6
CONTINUOUS
 10
369.1324033824601
 20
1152.707605298056
 30
0.0
 40
600.59997599999986
 50
266.16305400000141
 51
273.96601299999787
  0
ARC
  5
8E75
  8
0
  6
CONTINUOUS
 10
329.31700838246007
 20
559.04123029805646
 30
0.0
 40
5.600000999999998
 50
180.00005699999531
 51
266.1630369999973
  0
ARC
  5
8E76
  8
0
  6
CONTINUOUS
 10
331.38080838245997
 20
558.90643029805665
 30
0.0
 40
5.599998999999996
 50
180.00005699999531
 51
266.36204099999878
  0
ARC
  5
8E77
  8
0
  6
CONTINUOUS
 10
410.42650938245998
 20
630.57763029805665
 30
0.0
 40
3.5999989999999982
 50
0.0000179999992061
 51
86.033744000000837
  0
LINE
  5
8E78
  8
0
  6
CONTINUOUS
 10
405.60950738245998
 20
560.55313229805665
 30
0.0
 11
405.60950738245998
 21
627.16213429805669
 31
0.0
  0
LINE
  5
8E79
  8
0
  6
CONTINUOUS
 10
408.92650938245998
 20
560.74993229805671
 30
0.0
 11
408.92650938245998
 21
626.96964629805643
 31
0.0
  0
ARC
  5
8E7A
  8
0
  6
CONTINUOUS
 10
405.92650938245998
 20
626.96533329805675
 30
0.0
 40
3.0000029999999982
 50
0.0000179999992061
 51
86.4432529999997
  0
ARC
  5
8E7B
  8
0
  6
CONTINUOUS
 10
402.60950738246009
 20
627.16213329805669
 30
0.0
 40
2.999998999999999
 50
0.0000179999992061
 51
86.764376000000055
  0
LINE
  5
8E7C
  8
0
  6
CONTINUOUS
 10
414.02649938245997
 20
557.12694829805673
 30
0.0
 11
414.02649938245997
 21
630.58549129805635
 31
0.0
  0
ARC
  5
8E7D
  8
0
  6
CONTINUOUS
 10
402.60950738246009
 20
560.55313229805665
 30
0.0
 40
3.0
 50
273.23604299999818
 51
0.0000179999992061
  0
ARC
  5
8E7E
  8
0
  6
CONTINUOUS
 10
410.42650938245998
 20
557.13742929805665
 30
0.0
 40
3.6000059999999969
 50
273.96599899999779
 51
0.0000179999992061
  0
ARC
  5
8E7F
  8
0
  6
CONTINUOUS
 10
405.92650938245998
 20
560.74993229805671
 30
0.0
 40
3.0
 50
273.55702100000269
 51
0.0000179999992061
  0
LINE
  5
8E80
  8
0
  6
CONTINUOUS
 10
421.08927938246012
 20
643.04262929805645
 30
0.0
 11
421.08927938246012
 21
622.67762929805667
 31
0.0
  0
LINE
  5
8E81
  8
0
  6
CONTINUOUS
 10
437.1324023824601
 20
643.04262929805645
 30
0.0
 11
437.1324023824601
 21
622.67762929805667
 31
0.0
  0
LINE
  5
8E82
  8
0
  6
CONTINUOUS
 10
451.68179838245987
 20
537.83683329805672
 30
0.0
 11
437.1324023824601
 21
537.83683329805672
 31
0.0
  0
LINE
  5
8E83
  8
0
  6
CONTINUOUS
 10
456.63240338245981
 20
549.24918329805678
 30
0.0
 11
437.1324023824601
 21
549.24918329805678
 31
0.0
  0
LINE
  5
8E84
  8
0
  6
CONTINUOUS
 10
421.83780038245999
 20
542.55192329805675
 30
0.0
 11
437.1324033824601
 21
537.83683329805672
 31
0.0
  0
LINE
  5
8E85
  8
0
  6
CONTINUOUS
 10
437.1324033824601
 20
549.24918329805678
 30
0.0
 11
422.09646238246012
 21
548.70843229805666
 31
0.0
  0
ARC
  5
8E86
  8
0
  6
CONTINUOUS
 10
422.13240338245998
 20
547.70907829805674
 30
0.0
 40
1.0
 50
92.059690999997088
 51
180.0
  0
ARC
  5
8E87
  8
0
  6
CONTINUOUS
 10
422.13240338245998
 20
543.5075432980567
 30
0.0
 40
1.0
 50
180.0
 51
252.8662750000021
  0
LINE
  5
8E88
  8
0
  6
CONTINUOUS
 10
437.1324033824601
 20
669.71041629805677
 30
0.0
 11
421.83194438246022
 21
664.89055029805672
 31
0.0
  0
ARC
  5
8E89
  8
0
  6
CONTINUOUS
 10
422.13240338245998
 20
663.93675529805671
 30
0.0
 40
1.0
 50
107.485179
 51
180.0
  0
ARC
  5
8E8A
  8
0
  6
CONTINUOUS
 10
422.13240338245998
 20
661.58569029805665
 30
0.0
 40
1.0
 50
180.0
 51
270.0
  0
LINE
  5
8E8B
  8
0
  6
CONTINUOUS
 10
422.18095838245972
 20
660.58686929805674
 30
0.0
 11
437.1324033824601
 21
661.31368929805672
 31
0.0
  0
LINE
  5
8E8C
  8
0
  6
CONTINUOUS
 10
456.63240338245981
 20
661.31368929805672
 30
0.0
 11
437.1324033824601
 21
661.31368929805672
 31
0.0
  0
LINE
  5
8E8D
  8
0
  6
CONTINUOUS
 10
380.1324033824601
 20
692.14412229805669
 30
0.0
 11
467.5795883824598
 21
692.14412229805669
 31
0.0
  0
ARC
  5
8E8E
  8
0
  6
CONTINUOUS
 10
291.39664838246011
 20
690.1441222980568
 30
0.0
 40
2.0
 50
90.0
 51
156.10180000000051
  0
ARC
  5
8E8F
  8
0
  6
CONTINUOUS
 10
467.5795883824598
 20
690.1441222980568
 30
0.0
 40
2.0
 50
10.000001999998901
 51
90.0
  0
LINE
  5
8E90
  8
0
  6
CONTINUOUS
 10
471.1324033824601
 20
681.51264629805667
 30
0.0
 11
469.54920338246012
 21
690.49141929805683
 31
0.0
  0
LINE
  5
8E91
  8
0
  6
CONTINUOUS
 10
470.8715953824601
 20
681.51264629805667
 30
0.0
 11
471.1324033824601
 21
681.51264629805667
 31
0.0
  0
ARC
  5
8E92
  8
0
  6
CONTINUOUS
 10
276.4636183824602
 20
688.95434829805674
 30
0.0
 40
2.0
 50
90.0
 51
169.99999800000111
  0
LINE
  5
8E93
  8
0
  6
CONTINUOUS
 10
272.1324033824601
 20
675.9083452980567
 30
0.0
 11
274.49400338246011
 21
689.30164529805666
 31
0.0
  0
ARC
  5
8E94
  8
0
  6
CONTINUOUS
 10
467.52856938246009
 20
688.95434829805674
 30
0.0
 40
2.0
 50
10.000001999998901
 51
90.0
  0
LINE
  5
8E95
  8
0
  6
CONTINUOUS
 10
471.1324033824601
 20
680.03352829805669
 30
0.0
 11
469.49818438245973
 21
689.30164529805666
 31
0.0
  0
LINE
  5
8E96
  8
0
  6
CONTINUOUS
 10
272.1324033824601
 20
675.9083452980567
 30
0.0
 11
272.70030938246009
 21
675.9083452980567
 31
0.0
  0
LINE
  5
8E97
  8
0
  6
CONTINUOUS
 10
470.5964323824598
 20
680.03352829805669
 30
0.0
 11
471.1324033824601
 21
680.03352829805669
 31
0.0
  0
ARC
  5
8E98
  8
0
  6
CONTINUOUS
 10
467.44271438245988
 20
686.40161429805676
 30
0.0
 40
2.0
 50
10.00000100000196
 51
90.0
  0
ARC
  5
8E99
  8
0
  6
CONTINUOUS
 10
276.58140938245998
 20
686.40161429805676
 30
0.0
 40
2.0
 50
90.0
 51
169.9999989999979
  0
LINE
  5
8E9A
  8
0
  6
CONTINUOUS
 10
272.1324033824601
 20
672.68758929805665
 30
0.0
 11
274.61179338246018
 21
686.74891029805667
 31
0.0
  0
ARC
  5
8E9B
  8
0
  6
CONTINUOUS
 10
276.76255038246001
 20
682.43642929805674
 30
0.0
 40
2.0
 50
90.0
 51
170.00000000000139
  0
LINE
  5
8E9C
  8
0
  6
CONTINUOUS
 10
272.1324033824601
 20
667.69510429805644
 30
0.0
 11
274.79293438246009
 21
682.78372529805665
 31
0.0
  0
ARC
  5
8E9D
  8
0
  6
CONTINUOUS
 10
277.04377838246012
 20
676.85900129805668
 30
0.0
 40
2.0
 50
90.0
 51
170.00000000000139
  0
LINE
  5
8E9E
  8
0
  6
CONTINUOUS
 10
272.1324033824601
 20
660.52275229805673
 30
0.0
 11
275.07416238245997
 21
677.20629829805671
 31
0.0
  0
ARC
  5
8E9F
  8
0
  6
CONTINUOUS
 10
277.13904238245999
 20
670.85833429805643
 30
0.0
 40
2.0
 50
90.0
 51
169.9999989999979
  0
LINE
  5
8EA0
  8
0
  6
CONTINUOUS
 10
272.1324033824601
 20
653.98181629805674
 30
0.0
 11
275.16942638246019
 21
671.20563029805669
 31
0.0
  0
LINE
  5
8EA1
  8
0
  6
CONTINUOUS
 10
471.00414438245969
 20
677.72127829805675
 30
0.0
 11
469.41232938246009
 21
686.74891029805667
 31
0.0
  0
LINE
  5
8EA2
  8
0
  6
CONTINUOUS
 10
272.1324033824601
 20
672.68758929805665
 30
0.0
 11
273.01271338246011
 21
672.68758929805665
 31
0.0
  0
ARC
  5
8EA3
  8
0
  6
CONTINUOUS
 10
467.31333638245968
 20
682.43642929805674
 30
0.0
 40
2.0
 50
9.9999999999986073
 51
90.0
  0
LINE
  5
8EA4
  8
0
  6
CONTINUOUS
 10
470.17559838246012
 20
677.72127829805675
 30
0.0
 11
469.28295238246011
 21
682.78372529805665
 31
0.0
  0
ARC
  5
8EA5
  8
0
  6
CONTINUOUS
 10
402.52142138245972
 20
676.85900129805668
 30
0.0
 40
2.0
 50
5.5986529999989587
 51
90.0
  0
ARC
  5
8EA6
  8
0
  6
CONTINUOUS
 10
402.51946638246011
 20
670.85833429805643
 30
0.0
 40
2.0
 50
5.4290190000020546
 51
90.0
  0
LINE
  5
8EA7
  8
0
  6
CONTINUOUS
 10
473.13240338245981
 20
554.13492329805672
 30
0.0
 11
473.13240338245981
 21
655.92356229805648
 31
0.0
  0
LINE
  5
8EA8
  8
0
  6
CONTINUOUS
 10
473.13240338245981
 20
677.72127829805675
 30
0.0
 11
473.13240338245981
 21
681.85762929805674
 31
0.0
  0
LINE
  5
8EA9
  8
0
  6
CONTINUOUS
 10
421.08927938246012
 20
667.69510429805644
 30
0.0
 11
437.1324023824601
 21
672.29496629805669
 31
0.0
  0
LINE
  5
8EAA
  8
0
  6
CONTINUOUS
 10
405.42931838246011
 20
667.69510429805644
 30
0.0
 11
421.08927938246012
 21
667.69510429805644
 31
0.0
  0
LINE
  5
8EAB
  8
0
  6
CONTINUOUS
 10
437.1324023824601
 20
672.29496629805669
 30
0.0
 11
451.82568638245982
 21
672.29496629805669
 31
0.0
  0
ARC
  5
8EAC
  8
0
  6
CONTINUOUS
 10
453.83220238246003
 20
665.34089529805669
 30
0.0
 40
2.600398999999999
 50
179.9999819999943
 51
269.99997799999852
  0
ARC
  5
8EAD
  8
0
  6
CONTINUOUS
 10
453.83220238246003
 20
670.64088329805645
 30
0.0
 40
2.600403
 50
90.0
 51
179.9999819999943
  0
LINE
  5
8EAE
  8
0
  6
CONTINUOUS
 10
456.63240338245981
 20
668.05691429805677
 30
0.0
 11
455.1324033824601
 21
667.19088929805673
 31
0.0
  0
LINE
  5
8EAF
  8
0
  6
CONTINUOUS
 10
456.63240338245981
 20
669.05691429805665
 30
0.0
 11
455.1324033824601
 21
668.19088929805673
 31
0.0
  0
LINE
  5
8EB0
  8
0
  6
CONTINUOUS
 10
456.63240338245981
 20
674.0908892980566
 30
0.0
 11
456.63240338245981
 21
661.89088929805666
 31
0.0
  0
LINE
  5
8EB1
  8
0
  6
CONTINUOUS
 10
455.13240338245981
 20
674.0908892980566
 30
0.0
 11
456.63240338245981
 21
674.0908892980566
 31
0.0
  0
LINE
  5
8EB2
  8
0
  6
CONTINUOUS
 10
455.1324033824601
 20
661.89088929805666
 30
0.0
 11
456.63240338245981
 21
661.89088929805666
 31
0.0
  0
LINE
  5
8EB3
  8
0
  6
CONTINUOUS
 10
451.23240938245988
 20
670.64088329805645
 30
0.0
 11
451.23240938245988
 21
665.34089529805669
 31
0.0
  0
LINE
  5
8EB4
  8
0
  6
CONTINUOUS
 10
455.13240338245981
 20
674.0908892980566
 30
0.0
 11
455.1324033824601
 21
661.89088929805666
 31
0.0
  0
LINE
  5
8EB5
  8
0
  6
CONTINUOUS
 10
455.1324033824601
 20
662.74088929805646
 30
0.0
 11
453.83220238246003
 21
662.74088929805646
 31
0.0
  0
LINE
  5
8EB6
  8
0
  6
CONTINUOUS
 10
455.13240338245981
 20
673.24088929805669
 30
0.0
 11
453.83220238246003
 21
673.24088929805669
 31
0.0
  0
ARC
  5
8EB7
  8
0
  6
CONTINUOUS
 10
453.83220238246003
 20
539.29896829805671
 30
0.0
 40
2.600398999999999
 50
179.9999819999943
 51
269.99997799999852
  0
ARC
  5
8EB8
  8
0
  6
CONTINUOUS
 10
453.83220238246003
 20
544.59895629805669
 30
0.0
 40
2.600403
 50
90.0
 51
179.9999819999943
  0
LINE
  5
8EB9
  8
0
  6
CONTINUOUS
 10
456.63240338245981
 20
542.01498729805655
 30
0.0
 11
455.1324033824601
 21
541.14896229805663
 31
0.0
  0
LINE
  5
8EBA
  8
0
  6
CONTINUOUS
 10
456.63240338245981
 20
543.01498729805667
 30
0.0
 11
455.1324033824601
 21
542.14896229805663
 31
0.0
  0
LINE
  5
8EBB
  8
0
  6
CONTINUOUS
 10
456.63240338245981
 20
548.04896229805672
 30
0.0
 11
456.63240338245981
 21
535.84896229805668
 31
0.0
  0
LINE
  5
8EBC
  8
0
  6
CONTINUOUS
 10
455.13240338245981
 20
548.04896229805672
 30
0.0
 11
456.63240338245981
 21
548.04896229805672
 31
0.0
  0
LINE
  5
8EBD
  8
0
  6
CONTINUOUS
 10
455.1324033824601
 20
535.84896229805668
 30
0.0
 11
456.63240338245981
 21
535.84896229805668
 31
0.0
  0
LINE
  5
8EBE
  8
0
  6
CONTINUOUS
 10
451.23240938245988
 20
544.59895629805669
 30
0.0
 11
451.23240938245988
 21
539.29896829805671
 31
0.0
  0
LINE
  5
8EBF
  8
0
  6
CONTINUOUS
 10
455.13240338245981
 20
548.04896229805672
 30
0.0
 11
455.1324033824601
 21
535.84896229805668
 31
0.0
  0
LINE
  5
8EC0
  8
0
  6
CONTINUOUS
 10
455.1324033824601
 20
536.69896229805659
 30
0.0
 11
453.83220238246003
 21
536.69896229805659
 31
0.0
  0
LINE
  5
8EC1
  8
0
  6
CONTINUOUS
 10
455.13240338245981
 20
547.19896229805681
 30
0.0
 11
453.83220238246003
 21
547.19896229805681
 31
0.0
  0
LINE
  5
8EC2
  8
0
  6
CONTINUOUS
 10
471.07157338245969
 20
681.85762929805674
 30
0.0
 11
473.13240338245981
 21
681.85762929805674
 31
0.0
  0
LINE
  5
8EC3
  8
0
  6
CONTINUOUS
 10
276.76255038246001
 20
684.43642929805674
 30
0.0
 11
467.31333638245968
 21
684.43642929805674
 31
0.0
  0
LINE
  5
8EC4
  8
0
  6
CONTINUOUS
 10
276.58140938245998
 20
688.40161429805676
 30
0.0
 11
467.44271438245988
 21
688.40161429805676
 31
0.0
  0
LINE
  5
8EC5
  8
0
  6
CONTINUOUS
 10
276.4636183824602
 20
690.95434829805674
 30
0.0
 11
467.52856938246009
 21
690.95434829805674
 31
0.0
  0
LINE
  5
8EC6
  8
0
  6
CONTINUOUS
 10
268.6324033824601
 20
687.35762929805685
 30
0.0
 11
274.15122138246011
 21
687.35762929805685
 31
0.0
  0
LINE
  5
8EC7
  8
0
  6
CONTINUOUS
 10
291.39664838246011
 20
692.14412229805669
 30
0.0
 11
358.1324033824601
 21
692.14412229805669
 31
0.0
  0
LINE
  5
8EC8
  8
0
  6
CONTINUOUS
 10
437.1324023824601
 20
651.0176292980567
 30
0.0
 11
437.1324023824601
 21
645.67262929805645
 31
0.0
  0
LINE
  5
8EC9
  8
0
  6
CONTINUOUS
 10
421.08927938246012
 20
651.0176292980567
 30
0.0
 11
421.08927938246012
 21
645.67262929805645
 31
0.0
  0
LINE
  5
8ECA
  8
0
  6
CONTINUOUS
 10
437.1324023824601
 20
661.31368929805672
 30
0.0
 11
437.1324023824601
 21
653.71762929805675
 31
0.0
  0
LINE
  5
8ECB
  8
0
  6
CONTINUOUS
 10
437.1324023824601
 20
669.71041629805677
 30
0.0
 11
451.23240938245988
 21
669.71041629805677
 31
0.0
  0
LINE
  5
8ECC
  8
0
  6
CONTINUOUS
 10
272.1324033824601
 20
653.98181629805674
 30
0.0
 11
406.13240338245998
 21
653.98181629805674
 31
0.0
  0
LINE
  5
8ECD
  8
0
  6
CONTINUOUS
 10
405.45477638246018
 20
660.52275229805673
 30
0.0
 11
406.13240338245998
 21
660.52275229805673
 31
0.0
  0
LINE
  5
8ECE
  8
0
  6
CONTINUOUS
 10
277.13904238245999
 20
672.85833429805666
 30
0.0
 11
402.51946638246011
 21
672.85833429805666
 31
0.0
  0
LINE
  5
8ECF
  8
0
  6
CONTINUOUS
 10
272.1324033824601
 20
660.52275229805673
 30
0.0
 11
273.2857463824601
 21
660.52275229805673
 31
0.0
  0
LINE
  5
8ED0
  8
0
  6
CONTINUOUS
 10
277.04377838246012
 20
678.85900129805646
 30
0.0
 11
402.52142138245972
 21
678.85900129805646
 31
0.0
  0
LINE
  5
8ED1
  8
0
  6
CONTINUOUS
 10
473.13240338245981
 20
655.92356229805648
 30
0.0
 11
476.1324033824601
 21
654.19151129805675
 31
0.0
  0
ARC
  5
8ED2
  8
0
  6
CONTINUOUS
 10
455.63240338245993
 20
656.92356229805671
 30
0.0
 40
1.0
 50
270.0
 51
0.0
  0
ARC
  5
8ED3
  8
0
  6
CONTINUOUS
 10
458.6324033824601
 20
675.72127829805675
 30
0.0
 40
2.0
 50
90.0
 51
180.0
  0
ARC
  5
8ED4
  8
0
  6
CONTINUOUS
 10
458.6324033824601
 20
671.59727329805673
 30
0.0
 40
2.0
 50
180.0
 51
270.0
  0
ARC
  5
8ED5
  8
0
  6
CONTINUOUS
 10
458.6324033824601
 20
667.59727329805673
 30
0.0
 40
2.0
 50
90.0
 51
180.0
  0
LINE
  5
8ED6
  8
0
  6
CONTINUOUS
 10
458.6324033824601
 20
677.72127829805675
 30
0.0
 11
476.1324033824601
 21
677.72127829805675
 31
0.0
  0
LINE
  5
8ED7
  8
0
  6
CONTINUOUS
 10
456.63240338245981
 20
655.92356229805648
 30
0.0
 11
473.13240338245981
 21
655.92356229805648
 31
0.0
  0
LINE
  5
8ED8
  8
0
  6
CONTINUOUS
 10
458.6324033824601
 20
669.59727329805673
 30
0.0
 11
476.1324033824601
 21
669.59727329805673
 31
0.0
  0
LINE
  5
8ED9
  8
0
  6
CONTINUOUS
 10
456.63240338245981
 20
656.92356229805671
 30
0.0
 11
456.63240338245981
 21
675.72127829805675
 31
0.0
  0
LINE
  5
8EDA
  8
0
  6
CONTINUOUS
 10
272.1324033824601
 20
509.85762929805668
 30
0.0
 11
268.6324033824601
 21
509.85762929805668
 31
0.0
  0
LINE
  5
8EDB
  8
0
  6
CONTINUOUS
 10
272.1324033824601
 20
559.49884029805673
 30
0.0
 11
276.73977938245997
 21
553.06723429805675
 31
0.0
  0
LINE
  5
8EDC
  8
0
  6
CONTINUOUS
 10
276.73977938245997
 20
553.06723429805675
 30
0.0
 11
277.59557938246007
 21
555.69415429805645
 31
0.0
  0
LINE
  5
8EDD
  8
0
  6
CONTINUOUS
 10
272.1324033824601
 20
559.49884029805673
 30
0.0
 11
277.59557938246007
 21
555.69415429805645
 31
0.0
  0
LINE
  5
8EDE
  8
0
  6
CONTINUOUS
 10
277.59557938246007
 20
555.69415429805645
 30
0.0
 11
278.80750938246001
 21
555.13819429805665
 31
0.0
  0
LINE
  5
8EDF
  8
0
  6
CONTINUOUS
 10
268.6324033824601
 20
553.06723429805675
 30
0.0
 11
276.73977938245997
 21
553.06723429805675
 31
0.0
  0
LINE
  5
8EE0
  8
0
  6
CONTINUOUS
 10
268.6324033824601
 20
559.49884029805673
 30
0.0
 11
272.1324033824601
 21
559.49884029805673
 31
0.0
  0
LINE
  5
8EE1
  8
0
  6
CONTINUOUS
 10
272.1324033824601
 20
536.92545429805659
 30
0.0
 11
272.1324033824601
 21
533.7325602980568
 31
0.0
  0
LINE
  5
8EE2
  8
0
  6
CONTINUOUS
 10
273.89240338246009
 20
536.35702029805645
 30
0.0
 11
273.89240338246009
 21
534.35823829805645
 31
0.0
  0
LINE
  5
8EE3
  8
0
  6
CONTINUOUS
 10
288.8924033824602
 20
545.35762929805685
 30
0.0
 11
288.8924033824602
 21
543.35823829805645
 31
0.0
  0
LINE
  5
8EE4
  8
0
  6
CONTINUOUS
 10
287.13240338246021
 20
545.81917129805674
 30
0.0
 11
287.13240338246021
 21
542.75143629805655
 31
0.0
  0
LINE
  5
8EE5
  8
0
  6
CONTINUOUS
 10
287.13240338246021
 20
545.81917129805674
 30
0.0
 11
369.1324033824601
 21
545.81917129805674
 31
0.0
  0
LINE
  5
8EE6
  8
0
  6
CONTINUOUS
 10
287.13240338246021
 20
542.75143629805655
 30
0.0
 11
369.1324033824601
 21
542.75143629805655
 31
0.0
  0
LINE
  5
8EE7
  8
0
  6
CONTINUOUS
 10
272.1324033824601
 20
533.7325602980568
 30
0.0
 11
369.1324033824601
 21
533.7325602980568
 31
0.0
  0
LINE
  5
8EE8
  8
0
  6
CONTINUOUS
 10
272.1324033824601
 20
536.92545429805659
 30
0.0
 11
369.1324033824601
 21
536.92545429805659
 31
0.0
  0
LINE
  5
8EE9
  8
0
  6
CONTINUOUS
 10
273.89240338246009
 20
536.35702029805645
 30
0.0
 11
369.1324033824601
 21
536.35702029805645
 31
0.0
  0
LINE
  5
8EEA
  8
0
  6
CONTINUOUS
 10
273.89240338246009
 20
534.35823829805645
 30
0.0
 11
369.1324033824601
 21
534.35823829805645
 31
0.0
  0
LINE
  5
8EEB
  8
0
  6
CONTINUOUS
 10
273.89240338246009
 20
536.35702029805645
 30
0.0
 11
272.1324033824601
 21
536.92545429805659
 31
0.0
  0
LINE
  5
8EEC
  8
0
  6
CONTINUOUS
 10
273.89240338246009
 20
534.35823829805645
 30
0.0
 11
272.1324033824601
 21
533.7325602980568
 31
0.0
  0
LINE
  5
8EED
  8
0
  6
CONTINUOUS
 10
277.07566938246009
 20
543.09955029805656
 30
0.0
 11
278.25676038246007
 21
542.86214129805671
 31
0.0
  0
LINE
  5
8EEE
  8
0
  6
CONTINUOUS
 10
288.8924033824602
 20
545.35762929805685
 30
0.0
 11
369.1324033824601
 21
545.35762929805685
 31
0.0
  0
LINE
  5
8EEF
  8
0
  6
CONTINUOUS
 10
288.8924033824602
 20
543.35823829805645
 30
0.0
 11
369.1324033824601
 21
543.35823829805645
 31
0.0
  0
LINE
  5
8EF0
  8
0
  6
CONTINUOUS
 10
288.8924033824602
 20
545.35762929805685
 30
0.0
 11
287.13240338246021
 21
545.81917129805674
 31
0.0
  0
LINE
  5
8EF1
  8
0
  6
CONTINUOUS
 10
288.8924033824602
 20
543.35823829805645
 30
0.0
 11
287.13240338246021
 21
542.75143629805655
 31
0.0
  0
LINE
  5
8EF2
  8
0
  6
CONTINUOUS
 10
406.13240338245998
 20
545.81917129805674
 30
0.0
 11
369.1324033824601
 21
545.81917129805674
 31
0.0
  0
LINE
  5
8EF3
  8
0
  6
CONTINUOUS
 10
406.13240338245998
 20
542.75143629805655
 30
0.0
 11
369.1324033824601
 21
542.75143629805655
 31
0.0
  0
LINE
  5
8EF4
  8
0
  6
CONTINUOUS
 10
404.37240338245999
 20
545.35762929805685
 30
0.0
 11
369.1324033824601
 21
545.35762929805685
 31
0.0
  0
LINE
  5
8EF5
  8
0
  6
CONTINUOUS
 10
404.37240338245999
 20
543.35823829805645
 30
0.0
 11
369.1324033824601
 21
543.35823829805645
 31
0.0
  0
LINE
  5
8EF6
  8
0
  6
CONTINUOUS
 10
404.37240338245999
 20
543.35823829805645
 30
0.0
 11
406.13240338245998
 21
542.75143629805655
 31
0.0
  0
LINE
  5
8EF7
  8
0
  6
CONTINUOUS
 10
404.37240338245999
 20
545.35762929805685
 30
0.0
 11
406.13240338245998
 21
545.81917129805674
 31
0.0
  0
LINE
  5
8EF8
  8
0
  6
CONTINUOUS
 10
406.13240338245998
 20
545.81917129805674
 30
0.0
 11
406.13240338245998
 21
542.75143629805655
 31
0.0
  0
LINE
  5
8EF9
  8
0
  6
CONTINUOUS
 10
404.37240338245999
 20
545.35762929805685
 30
0.0
 11
404.37240338245999
 21
543.35823829805645
 31
0.0
  0
LINE
  5
8EFA
  8
0
  6
CONTINUOUS
 10
406.13240338245998
 20
536.92545429805659
 30
0.0
 11
369.1324033824601
 21
536.92545429805659
 31
0.0
  0
LINE
  5
8EFB
  8
0
  6
CONTINUOUS
 10
404.37240338245999
 20
536.35702029805645
 30
0.0
 11
369.1324033824601
 21
536.35702029805645
 31
0.0
  0
LINE
  5
8EFC
  8
0
  6
CONTINUOUS
 10
404.37240338245999
 20
534.35823829805645
 30
0.0
 11
369.1324033824601
 21
534.35823829805645
 31
0.0
  0
LINE
  5
8EFD
  8
0
  6
CONTINUOUS
 10
404.37240338245999
 20
534.35823829805645
 30
0.0
 11
406.13240338245998
 21
533.7325602980568
 31
0.0
  0
LINE
  5
8EFE
  8
0
  6
CONTINUOUS
 10
404.37240338245999
 20
536.35702029805645
 30
0.0
 11
406.13240338245998
 21
536.92545429805659
 31
0.0
  0
LINE
  5
8EFF
  8
0
  6
CONTINUOUS
 10
404.37240338245999
 20
536.35702029805645
 30
0.0
 11
404.37240338245999
 21
534.35823829805645
 31
0.0
  0
LINE
  5
8F00
  8
0
  6
CONTINUOUS
 10
406.13240338245998
 20
536.92545429805659
 30
0.0
 11
406.13240338245998
 21
533.7325602980568
 31
0.0
  0
LINE
  5
8F01
  8
0
  6
CONTINUOUS
 10
272.1324033824601
 20
533.7325602980568
 30
0.0
 11
273.72514538246008
 21
516.43337329805661
 31
0.0
  0
LINE
  5
8F02
  8
0
  6
CONTINUOUS
 10
272.1324033824601
 20
527.19250629805674
 30
0.0
 11
272.73454838246028
 21
527.19250629805674
 31
0.0
  0
LINE
  5
8F03
  8
0
  6
CONTINUOUS
 10
272.1324033824601
 20
520.0201542980567
 30
0.0
 11
272.81518038246008
 21
520.0201542980567
 31
0.0
  0
LINE
  5
8F04
  8
0
  6
CONTINUOUS
 10
272.1324033824601
 20
515.02766929805671
 30
0.0
 11
272.65691638246011
 21
515.02766929805671
 31
0.0
  0
LINE
  5
8F05
  8
0
  6
CONTINUOUS
 10
272.1324033824601
 20
511.80691329805671
 30
0.0
 11
272.49234538246009
 21
511.80691329805671
 31
0.0
  0
LINE
  5
8F06
  8
0
  6
CONTINUOUS
 10
272.08562638246019
 20
510.23733229805669
 30
0.0
 11
272.31601738246002
 21
510.23733229805669
 31
0.0
  0
LINE
  5
8F07
  8
0
  6
CONTINUOUS
 10
272.1324033824601
 20
527.19250629805674
 30
0.0
 11
273.72005538245998
 21
510.51473229805669
 31
0.0
  0
LINE
  5
8F08
  8
0
  6
CONTINUOUS
 10
272.1324033824601
 20
520.0201542980567
 30
0.0
 11
273.70423638246012
 21
505.0589432980567
 31
0.0
  0
LINE
  5
8F09
  8
0
  6
CONTINUOUS
 10
272.1324033824601
 20
515.02766929805671
 30
0.0
 11
273.69371438246009
 21
501.05707829805669
 31
0.0
  0
LINE
  5
8F0A
  8
0
  6
CONTINUOUS
 10
272.1324033824601
 20
511.80691329805671
 30
0.0
 11
273.68562238246011
 21
498.52958529805647
 31
0.0
  0
LINE
  5
8F0B
  8
0
  6
CONTINUOUS
 10
272.08562638246019
 20
510.23733229805669
 30
0.0
 11
273.67614238246011
 21
497.32659829805652
 31
0.0
  0
ARC
  5
8F0C
  8
0
  6
CONTINUOUS
 10
275.71672138246009
 20
516.61673829805659
 30
0.0
 40
2.0
 50
185.2604109999981
 51
270.0
  0
ARC
  5
8F0D
  8
0
  6
CONTINUOUS
 10
275.71105338246008
 20
510.70426729805672
 30
0.0
 40
2.0
 50
185.4379219999999
 51
270.0
  0
ARC
  5
8F0E
  8
0
  6
CONTINUOUS
 10
275.69328938246008
 20
505.26791429805672
 30
0.0
 40
2.0
 50
185.99752600000011
 51
270.0
  0
ARC
  5
8F0F
  8
0
  6
CONTINUOUS
 10
275.68134038246012
 20
501.27920929805668
 30
0.0
 40
2.0
 50
186.376742000001
 51
270.0
  0
ARC
  5
8F10
  8
0
  6
CONTINUOUS
 10
275.67207638246009
 20
498.76196629805668
 30
0.0
 40
2.0
 50
186.67229399999829
 51
270.0
  0
ARC
  5
8F11
  8
0
  6
CONTINUOUS
 10
275.66113638246009
 20
497.57113629805667
 30
0.0
 40
2.0
 50
187.02306899999661
 51
270.0
  0
LINE
  5
8F12
  8
0
  6
CONTINUOUS
 10
278.80750938246001
 20
555.13819429805665
 30
0.0
 11
278.80750938246001
 21
542.75143629805655
 31
0.0
  0
LINE
  5
8F13
  8
0
  6
CONTINUOUS
 10
276.73977938245997
 20
553.06723429805675
 30
0.0
 11
276.73977938245997
 21
543.16706729805685
 31
0.0
  0
LINE
  5
8F14
  8
0
  6
CONTINUOUS
 10
268.6324033824601
 20
542.75143629805655
 30
0.0
 11
278.80750938246001
 21
542.75143629805655
 31
0.0
  0
LINE
  5
8F15
  8
0
  6
CONTINUOUS
 10
268.6324033824601
 20
543.16706729805685
 30
0.0
 11
276.73977938245997
 21
543.16706729805685
 31
0.0
  0
LINE
  5
8F16
  8
0
  6
CONTINUOUS
 10
471.1324033824601
 20
609.03762929805646
 30
0.0
 11
469.37240338246011
 21
609.58762929805675
 31
0.0
  0
LINE
  5
8F17
  8
0
  6
CONTINUOUS
 10
471.1324033824601
 20
611.67762929805644
 30
0.0
 11
471.1324033824601
 21
609.03762929805646
 31
0.0
  0
LINE
  5
8F18
  8
0
  6
CONTINUOUS
 10
469.37240338246011
 20
611.18762929805644
 30
0.0
 11
471.1324033824601
 21
611.67762929805644
 31
0.0
  0
LINE
  5
8F19
  8
0
  6
CONTINUOUS
 10
469.37240338246011
 20
611.18762929805644
 30
0.0
 11
469.37240338246011
 21
609.58762929805675
 31
0.0
  0
LINE
  5
8F1A
  8
0
  6
CONTINUOUS
 10
471.1324033824601
 20
598.03762929805634
 30
0.0
 11
469.37240338246011
 21
598.58762929805675
 31
0.0
  0
LINE
  5
8F1B
  8
0
  6
CONTINUOUS
 10
471.1324033824601
 20
600.67762929805667
 30
0.0
 11
471.1324033824601
 21
598.03762929805634
 31
0.0
  0
LINE
  5
8F1C
  8
0
  6
CONTINUOUS
 10
469.37240338246011
 20
600.18762929805666
 30
0.0
 11
471.1324033824601
 21
600.67762929805667
 31
0.0
  0
LINE
  5
8F1D
  8
0
  6
CONTINUOUS
 10
469.37240338246011
 20
600.18762929805666
 30
0.0
 11
469.37240338246011
 21
598.58762929805675
 31
0.0
  0
LINE
  5
8F1E
  8
0
  6
CONTINUOUS
 10
471.1324033824601
 20
587.03762929805669
 30
0.0
 11
469.37240338246011
 21
587.58762929805675
 31
0.0
  0
LINE
  5
8F1F
  8
0
  6
CONTINUOUS
 10
471.1324033824601
 20
589.67762929805644
 30
0.0
 11
471.1324033824601
 21
587.03762929805669
 31
0.0
  0
LINE
  5
8F20
  8
0
  6
CONTINUOUS
 10
469.37240338246011
 20
589.18762929805644
 30
0.0
 11
471.1324033824601
 21
589.67762929805644
 31
0.0
  0
LINE
  5
8F21
  8
0
  6
CONTINUOUS
 10
469.37240338246011
 20
589.18762929805644
 30
0.0
 11
469.37240338246011
 21
587.58762929805675
 31
0.0
  0
LINE
  5
8F22
  8
0
  6
CONTINUOUS
 10
471.1324033824601
 20
576.03762929805646
 30
0.0
 11
469.37240338246011
 21
576.58762929805675
 31
0.0
  0
LINE
  5
8F23
  8
0
  6
CONTINUOUS
 10
471.1324033824601
 20
578.67762929805644
 30
0.0
 11
471.1324033824601
 21
576.03762929805646
 31
0.0
  0
LINE
  5
8F24
  8
0
  6
CONTINUOUS
 10
469.37240338246011
 20
578.18762929805644
 30
0.0
 11
471.1324033824601
 21
578.67762929805644
 31
0.0
  0
LINE
  5
8F25
  8
0
  6
CONTINUOUS
 10
469.37240338246011
 20
578.18762929805644
 30
0.0
 11
469.37240338246011
 21
576.58762929805675
 31
0.0
  0
LINE
  5
8F26
  8
0
  6
CONTINUOUS
 10
470.54407238246012
 20
507.34834929805669
 30
0.0
 11
469.51244338245988
 21
498.52958829805652
 31
0.0
  0
LINE
  5
8F27
  8
0
  6
CONTINUOUS
 10
469.4771863824601
 20
501.05678229805682
 30
0.0
 11
470.53214338245982
 21
510.48376929805659
 31
0.0
  0
LINE
  5
8F28
  8
0
  6
CONTINUOUS
 10
469.50425638246008
 20
505.05763829805647
 30
0.0
 11
470.60316838246013
 21
515.45181229805655
 31
0.0
  0
LINE
  5
8F29
  8
0
  6
CONTINUOUS
 10
470.65410938245981
 20
521.98843229805675
 30
0.0
 11
469.52882838246012
 21
510.50914829805669
 31
0.0
  0
LINE
  5
8F2A
  8
0
  6
CONTINUOUS
 10
470.69527638246012
 20
529.3981742980568
 30
0.0
 11
469.46255938245969
 21
516.42751329805674
 31
0.0
  0
LINE
  5
8F2B
  8
0
  6
CONTINUOUS
 10
470.60419538246009
 20
506.21202129805653
 30
0.0
 11
469.53216238245972
 21
497.33144329805668
 31
0.0
  0
LINE
  5
8F2C
  8
0
  6
CONTINUOUS
 10
469.37240338246011
 20
567.18762929805666
 30
0.0
 11
469.37240338246011
 21
565.58762929805675
 31
0.0
  0
LINE
  5
8F2D
  8
0
  6
CONTINUOUS
 10
469.37240338246011
 20
567.18762929805666
 30
0.0
 11
471.1324033824601
 21
567.67762929805667
 31
0.0
  0
LINE
  5
8F2E
  8
0
  6
CONTINUOUS
 10
471.1324033824601
 20
567.67762929805667
 30
0.0
 11
471.1324033824601
 21
565.03762929805634
 31
0.0
  0
LINE
  5
8F2F
  8
0
  6
CONTINUOUS
 10
471.1324033824601
 20
565.03762929805634
 30
0.0
 11
469.37240338246011
 21
565.58762929805675
 31
0.0
  0
LINE
  5
8F30
  8
0
  6
CONTINUOUS
 10
469.37240338246011
 20
622.18762929805644
 30
0.0
 11
469.37240338246011
 21
620.58762929805675
 31
0.0
  0
LINE
  5
8F31
  8
0
  6
CONTINUOUS
 10
469.37240338246011
 20
622.18762929805644
 30
0.0
 11
471.1324033824601
 21
622.67762929805667
 31
0.0
  0
LINE
  5
8F32
  8
0
  6
CONTINUOUS
 10
471.1324033824601
 20
622.67762929805667
 30
0.0
 11
471.1324033824601
 21
620.03762929805669
 31
0.0
  0
LINE
  5
8F33
  8
0
  6
CONTINUOUS
 10
471.1324033824601
 20
620.03762929805669
 30
0.0
 11
469.37240338246011
 21
620.58762929805675
 31
0.0
  0
LINE
  5
8F34
  8
0
  6
CONTINUOUS
 10
421.08927938246012
 20
620.03762929805669
 30
0.0
 11
421.08927938246012
 21
611.67762929805644
 31
0.0
  0
LINE
  5
8F35
  8
0
  6
CONTINUOUS
 10
437.1324023824601
 20
620.03762929805669
 30
0.0
 11
437.1324023824601
 21
611.67762929805644
 31
0.0
  0
LINE
  5
8F36
  8
0
  6
CONTINUOUS
 10
437.1324023824601
 20
609.03762929805646
 30
0.0
 11
437.1324023824601
 21
600.67762929805667
 31
0.0
  0
LINE
  5
8F37
  8
0
  6
CONTINUOUS
 10
421.08927938246012
 20
609.03762929805646
 30
0.0
 11
421.08927938246012
 21
600.67762929805667
 31
0.0
  0
LINE
  5
8F38
  8
0
  6
CONTINUOUS
 10
421.08927938246012
 20
598.03762929805634
 30
0.0
 11
421.08927938246012
 21
589.67762929805644
 31
0.0
  0
LINE
  5
8F39
  8
0
  6
CONTINUOUS
 10
437.1324023824601
 20
598.03762929805634
 30
0.0
 11
437.1324023824601
 21
589.67762929805644
 31
0.0
  0
LINE
  5
8F3A
  8
0
  6
CONTINUOUS
 10
437.1324023824601
 20
587.03762929805669
 30
0.0
 11
437.1324023824601
 21
578.67762929805644
 31
0.0
  0
LINE
  5
8F3B
  8
0
  6
CONTINUOUS
 10
421.08927938246012
 20
587.03762929805669
 30
0.0
 11
421.08927938246012
 21
578.67762929805644
 31
0.0
  0
LINE
  5
8F3C
  8
0
  6
CONTINUOUS
 10
421.08927938246012
 20
576.03762929805646
 30
0.0
 11
421.08927938246012
 21
567.67762929805667
 31
0.0
  0
LINE
  5
8F3D
  8
0
  6
CONTINUOUS
 10
437.1324023824601
 20
576.03762929805646
 30
0.0
 11
437.1324023824601
 21
567.67762929805667
 31
0.0
  0
LINE
  5
8F3E
  8
0
  6
CONTINUOUS
 10
437.1324023824601
 20
565.03762929805634
 30
0.0
 11
437.1324023824601
 21
549.24918329805678
 31
0.0
  0
LINE
  5
8F3F
  8
0
  6
CONTINUOUS
 10
421.08927938246012
 20
565.03762929805634
 30
0.0
 11
421.08927938246012
 21
533.7325602980568
 31
0.0
  0
LINE
  5
8F40
  8
0
  6
CONTINUOUS
 10
470.69527638246012
 20
529.3981742980568
 30
0.0
 11
437.1324023824601
 21
529.3981742980568
 31
0.0
  0
LINE
  5
8F41
  8
0
  6
CONTINUOUS
 10
470.65410938245981
 20
521.98843229805675
 30
0.0
 11
469.99106338245991
 21
521.98843229805675
 31
0.0
  0
ARC
  5
8F42
  8
0
  6
CONTINUOUS
 10
467.47153138245989
 20
516.61673829805659
 30
0.0
 40
2.0
 50
270.0
 51
354.57098099999791
  0
ARC
  5
8F43
  8
0
  6
CONTINUOUS
 10
467.53836938245968
 20
510.70426729805672
 30
0.0
 40
2.0
 50
270.0
 51
354.40134700000101
  0
ARC
  5
8F44
  8
0
  6
CONTINUOUS
 10
467.51534138246012
 20
505.26791429805672
 30
0.0
 40
2.0
 50
270.0
 51
353.96488600000038
  0
ARC
  5
8F45
  8
0
  6
CONTINUOUS
 10
467.4895933824601
 20
501.27920929805668
 30
0.0
 40
2.0
 50
270.0
 51
353.61470099999991
  0
ARC
  5
8F46
  8
0
  6
CONTINUOUS
 10
467.52598938246012
 20
498.76196629805668
 30
0.0
 40
2.0
 50
270.0
 51
353.32779999999809
  0
ARC
  5
8F47
  8
0
  6
CONTINUOUS
 10
467.54657838245981
 20
497.57113629805667
 30
0.0
 40
2.0
 50
270.0
 51
353.11676000000148
  0
LINE
  5
8F48
  8
0
  6
CONTINUOUS
 10
470.60316838246013
 20
515.45181229805655
 30
0.0
 11
470.01334338246011
 21
515.45181229805655
 31
0.0
  0
LINE
  5
8F49
  8
0
  6
CONTINUOUS
 10
470.53214338245982
 20
510.48376929805659
 30
0.0
 11
470.07792838246002
 21
510.48376929805659
 31
0.0
  0
LINE
  5
8F4A
  8
0
  6
CONTINUOUS
 10
470.54407238246012
 20
507.34834929805669
 30
0.0
 11
470.18126438246009
 21
507.34834929805669
 31
0.0
  0
LINE
  5
8F4B
  8
0
  6
CONTINUOUS
 10
470.60419538246009
 20
506.21202129805653
 30
0.0
 11
470.41114338246012
 21
506.21202129805653
 31
0.0
  0
LINE
  5
8F4C
  8
0
  6
CONTINUOUS
 10
473.13240338245981
 20
554.13492329805672
 30
0.0
 11
456.63240338245981
 21
554.13492329805672
 31
0.0
  0
LINE
  5
8F4D
  8
0
  6
CONTINUOUS
 10
476.1324033824601
 20
543.95563129805669
 30
0.0
 11
458.6324033824601
 21
543.95563129805669
 31
0.0
  0
LINE
  5
8F4E
  8
0
  6
CONTINUOUS
 10
476.1324033824601
 20
531.66835029805645
 30
0.0
 11
458.6324033824601
 21
531.66835029805645
 31
0.0
  0
LINE
  5
8F4F
  8
0
  6
CONTINUOUS
 10
456.63240338245981
 20
553.13492329805661
 30
0.0
 11
456.63240338245981
 21
533.66835029805679
 31
0.0
  0
LINE
  5
8F50
  8
0
  6
CONTINUOUS
 10
473.13240338245981
 20
554.13492329805672
 30
0.0
 11
476.1324033824601
 21
555.86697429805656
 31
0.0
  0
ARC
  5
8F51
  8
0
  6
CONTINUOUS
 10
458.6324033824601
 20
545.95563129805646
 30
0.0
 40
2.0
 50
180.0
 51
270.0
  0
ARC
  5
8F52
  8
0
  6
CONTINUOUS
 10
458.6324033824601
 20
533.66835029805679
 30
0.0
 40
2.0
 50
180.0
 51
270.0
  0
ARC
  5
8F53
  8
0
  6
CONTINUOUS
 10
458.6324033824601
 20
541.95563129805646
 30
0.0
 40
2.0
 50
90.0
 51
180.0
  0
LINE
  5
8F54
  8
0
  6
CONTINUOUS
 10
437.1324023824601
 20
537.83683329805672
 30
0.0
 11
437.1324023824601
 21
529.3981742980568
 31
0.0
  0
LINE
  5
8F55
  8
0
  6
CONTINUOUS
 10
421.08927938246012
 20
533.7325602980568
 30
0.0
 11
437.1324023824601
 21
529.3981742980568
 31
0.0
  0
ARC
  5
8F56
  8
0
  6
CONTINUOUS
 10
455.63240338245993
 20
553.13492329805661
 30
0.0
 40
1.0
 50
0.0
 51
90.0
  0
LINE
  5
8F57
  8
0
  6
CONTINUOUS
 10
421.08927938246012
 20
533.7325602980568
 30
0.0
 11
369.1324033824601
 21
533.7325602980568
 31
0.0
  0
LINE
  5
8F58
  8
0
  6
CONTINUOUS
 10
467.54657838245981
 20
495.57113629805667
 30
0.0
 11
275.66113638246009
 21
495.57113629805667
 31
0.0
  0
LINE
  5
8F59
  8
0
  6
CONTINUOUS
 10
467.52598938246012
 20
496.76196629805668
 30
0.0
 11
275.67207638246009
 21
496.76196629805668
 31
0.0
  0
LINE
  5
8F5A
  8
0
  6
CONTINUOUS
 10
467.4895933824601
 20
499.27920929805668
 30
0.0
 11
275.68134038246012
 21
499.27920929805668
 31
0.0
  0
LINE
  5
8F5B
  8
0
  6
CONTINUOUS
 10
467.51534138246012
 20
503.26791429805672
 30
0.0
 11
275.69328938246008
 21
503.26791429805672
 31
0.0
  0
LINE
  5
8F5C
  8
0
  6
CONTINUOUS
 10
467.53836938245968
 20
508.70426729805672
 30
0.0
 11
275.71105338246008
 21
508.70426729805672
 31
0.0
  0
LINE
  5
8F5D
  8
0
  6
CONTINUOUS
 10
467.47153138245989
 20
514.6167382980567
 30
0.0
 11
275.71672138246009
 21
514.6167382980567
 31
0.0
  0
LINE
  5
8F5E
  8
0
  6
CONTINUOUS
 10
421.08927938246012
 20
667.69510429805644
 30
0.0
 11
421.08927938246012
 21
653.71762929805675
 31
0.0
  0
LINE
  5
8F5F
  8
0
  6
CONTINUOUS
 10
437.1324023824601
 20
672.29496629805669
 30
0.0
 11
437.1324023824601
 21
669.71041629805677
 31
0.0
  0
LINE
  5
8F60
  8
0
  6
CONTINUOUS
 10
414.02649938245997
 20
622.67762929805667
 30
0.0
 11
471.1324033824601
 21
622.67762929805667
 31
0.0
  0
LINE
  5
8F61
  8
0
  6
CONTINUOUS
 10
414.02649938245997
 20
622.18762929805644
 30
0.0
 11
469.37240338246011
 21
622.18762929805644
 31
0.0
  0
LINE
  5
8F62
  8
0
  6
CONTINUOUS
 10
414.02649938245997
 20
620.58762929805675
 30
0.0
 11
469.37240338246011
 21
620.58762929805675
 31
0.0
  0
LINE
  5
8F63
  8
0
  6
CONTINUOUS
 10
414.02649938245997
 20
620.03762929805669
 30
0.0
 11
471.1324033824601
 21
620.03762929805669
 31
0.0
  0
LINE
  5
8F64
  8
0
  6
CONTINUOUS
 10
414.02649938245997
 20
567.67762929805667
 30
0.0
 11
471.1324033824601
 21
567.67762929805667
 31
0.0
  0
LINE
  5
8F65
  8
0
  6
CONTINUOUS
 10
414.02649938245997
 20
567.18762929805666
 30
0.0
 11
469.37240338246011
 21
567.18762929805666
 31
0.0
  0
LINE
  5
8F66
  8
0
  6
CONTINUOUS
 10
414.02649938245997
 20
565.58762929805675
 30
0.0
 11
469.37240338246011
 21
565.58762929805675
 31
0.0
  0
LINE
  5
8F67
  8
0
  6
CONTINUOUS
 10
414.02649938245997
 20
565.03762929805634
 30
0.0
 11
471.1324033824601
 21
565.03762929805634
 31
0.0
  0
LINE
  5
8F68
  8
0
  6
CONTINUOUS
 10
414.02649938245997
 20
598.03762929805634
 30
0.0
 11
471.1324033824601
 21
598.03762929805634
 31
0.0
  0
LINE
  5
8F69
  8
0
  6
CONTINUOUS
 10
414.02649938245997
 20
598.58762929805675
 30
0.0
 11
469.37240338246011
 21
598.58762929805675
 31
0.0
  0
LINE
  5
8F6A
  8
0
  6
CONTINUOUS
 10
414.02649938245997
 20
578.67762929805644
 30
0.0
 11
471.1324033824601
 21
578.67762929805644
 31
0.0
  0
LINE
  5
8F6B
  8
0
  6
CONTINUOUS
 10
414.02649938245997
 20
578.18762929805644
 30
0.0
 11
469.37240338246011
 21
578.18762929805644
 31
0.0
  0
LINE
  5
8F6C
  8
0
  6
CONTINUOUS
 10
414.02649938245997
 20
576.58762929805675
 30
0.0
 11
469.37240338246011
 21
576.58762929805675
 31
0.0
  0
LINE
  5
8F6D
  8
0
  6
CONTINUOUS
 10
414.02649938245997
 20
576.03762929805646
 30
0.0
 11
471.1324033824601
 21
576.03762929805646
 31
0.0
  0
LINE
  5
8F6E
  8
0
  6
CONTINUOUS
 10
414.02649938245997
 20
589.67762929805644
 30
0.0
 11
471.1324033824601
 21
589.67762929805644
 31
0.0
  0
LINE
  5
8F6F
  8
0
  6
CONTINUOUS
 10
414.02649938245997
 20
589.18762929805644
 30
0.0
 11
469.37240338246011
 21
589.18762929805644
 31
0.0
  0
LINE
  5
8F70
  8
0
  6
CONTINUOUS
 10
414.02649938245997
 20
587.58762929805675
 30
0.0
 11
469.37240338246011
 21
587.58762929805675
 31
0.0
  0
LINE
  5
8F71
  8
0
  6
CONTINUOUS
 10
414.02649938245997
 20
587.03762929805669
 30
0.0
 11
471.1324033824601
 21
587.03762929805669
 31
0.0
  0
LINE
  5
8F72
  8
0
  6
CONTINUOUS
 10
414.02649938245997
 20
611.67762929805644
 30
0.0
 11
471.1324033824601
 21
611.67762929805644
 31
0.0
  0
LINE
  5
8F73
  8
0
  6
CONTINUOUS
 10
414.02649938245997
 20
611.18762929805644
 30
0.0
 11
469.37240338246011
 21
611.18762929805644
 31
0.0
  0
LINE
  5
8F74
  8
0
  6
CONTINUOUS
 10
414.02649938245997
 20
609.58762929805675
 30
0.0
 11
469.37240338246011
 21
609.58762929805675
 31
0.0
  0
LINE
  5
8F75
  8
0
  6
CONTINUOUS
 10
414.02649938245997
 20
609.03762929805646
 30
0.0
 11
471.1324033824601
 21
609.03762929805646
 31
0.0
  0
LINE
  5
8F76
  8
0
  6
CONTINUOUS
 10
414.02649938245997
 20
600.67762929805667
 30
0.0
 11
471.1324033824601
 21
600.67762929805667
 31
0.0
  0
LINE
  5
8F77
  8
0
  6
CONTINUOUS
 10
414.02649938245997
 20
600.18762929805666
 30
0.0
 11
469.37240338246011
 21
600.18762929805666
 31
0.0
  0
LINE
  5
8F78
  8
0
  6
CONTINUOUS
 10
473.13240338245981
 20
505.85762929805668
 30
0.0
 11
473.13240338245981
 21
531.66835029805645
 31
0.0
  0
LINE
  5
8F79
  8
0
  6
CONTINUOUS
 10
470.56141438245987
 20
505.85762929805668
 30
0.0
 11
473.13240338245981
 21
505.85762929805668
 31
0.0
  0
LINE
  5
8F7A
  8
0
  6
CONTINUOUS
 10
471.1324033824601
 20
653.71762929805675
 30
0.0
 11
469.37240338246011
 21
653.15762929805669
 31
0.0
  0
LINE
  5
8F7B
  8
0
  6
CONTINUOUS
 10
469.37240338246011
 20
651.55762929805667
 30
0.0
 11
471.1324033824601
 21
651.0176292980567
 31
0.0
  0
LINE
  5
8F7C
  8
0
  6
CONTINUOUS
 10
471.1324033824601
 20
651.0176292980567
 30
0.0
 11
471.1324033824601
 21
653.71762929805675
 31
0.0
  0
LINE
  5
8F7D
  8
0
  6
CONTINUOUS
 10
469.37240338246011
 20
651.55762929805667
 30
0.0
 11
469.37240338246011
 21
653.15762929805669
 31
0.0
  0
LINE
  5
8F7E
  8
0
  6
CONTINUOUS
 10
471.1324033824601
 20
645.67262929805645
 30
0.0
 11
469.37240338246011
 21
645.13262929805671
 31
0.0
  0
LINE
  5
8F7F
  8
0
  6
CONTINUOUS
 10
469.37240338246011
 20
643.53262929805646
 30
0.0
 11
471.1324033824601
 21
643.04262929805645
 31
0.0
  0
LINE
  5
8F80
  8
0
  6
CONTINUOUS
 10
469.37240338246011
 20
643.53262929805646
 30
0.0
 11
469.37240338246011
 21
645.13262929805671
 31
0.0
  0
LINE
  5
8F81
  8
0
  6
CONTINUOUS
 10
471.1324033824601
 20
643.04262929805645
 30
0.0
 11
471.1324033824601
 21
645.67262929805645
 31
0.0
  0
LINE
  5
8F82
  8
0
  6
CONTINUOUS
 10
406.13240338245998
 20
653.98181629805674
 30
0.0
 11
404.51049438246002
 21
671.04755929805674
 31
0.0
  0
LINE
  5
8F83
  8
0
  6
CONTINUOUS
 10
406.13240338245998
 20
660.52275229805673
 30
0.0
 11
404.51188038245999
 21
677.05412029805677
 31
0.0
  0
LINE
  5
8F84
  8
0
  6
CONTINUOUS
 10
273.3970823824601
 20
667.69510429805644
 30
0.0
 11
272.1324033824601
 21
667.69510429805644
 31
0.0
  0
LINE
  5
8F85
  8
0
  6
CONTINUOUS
 10
272.1324033824601
 20
653.71762929805675
 30
0.0
 11
273.89240338246009
 21
653.15762929805669
 31
0.0
  0
LINE
  5
8F86
  8
0
  6
CONTINUOUS
 10
273.89240338246009
 20
651.55762929805667
 30
0.0
 11
272.1324033824601
 21
651.0176292980567
 31
0.0
  0
LINE
  5
8F87
  8
0
  6
CONTINUOUS
 10
272.1324033824601
 20
645.67262929805645
 30
0.0
 11
273.89240338246009
 21
645.13262929805671
 31
0.0
  0
LINE
  5
8F88
  8
0
  6
CONTINUOUS
 10
273.89240338246009
 20
643.53262929805646
 30
0.0
 11
272.1324033824601
 21
643.04262929805645
 31
0.0
  0
LINE
  5
8F89
  8
0
  6
CONTINUOUS
 10
272.1324033824601
 20
651.0176292980567
 30
0.0
 11
272.1324033824601
 21
653.71762929805675
 31
0.0
  0
LINE
  5
8F8A
  8
0
  6
CONTINUOUS
 10
273.89240338246009
 20
651.55762929805667
 30
0.0
 11
273.89240338246009
 21
653.15762929805669
 31
0.0
  0
LINE
  5
8F8B
  8
0
  6
CONTINUOUS
 10
273.89240338246009
 20
643.53262929805646
 30
0.0
 11
273.89240338246009
 21
645.13262929805671
 31
0.0
  0
LINE
  5
8F8C
  8
0
  6
CONTINUOUS
 10
272.1324033824601
 20
643.04262929805645
 30
0.0
 11
272.1324033824601
 21
645.67262929805645
 31
0.0
  0
LINE
  5
8F8D
  8
0
  6
CONTINUOUS
 10
272.1324033824601
 20
632.5770642980566
 30
0.0
 11
325.30125238246012
 21
632.5770642980566
 31
0.0
  0
LINE
  5
8F8E
  8
0
  6
CONTINUOUS
 10
280.5024033824601
 20
631.72529129805673
 30
0.0
 11
324.62128938246008
 21
631.72529129805673
 31
0.0
  0
LINE
  5
8F8F
  8
0
  6
CONTINUOUS
 10
272.1324033824601
 20
632.5770642980566
 30
0.0
 11
280.5024033824601
 21
631.72529129805673
 31
0.0
  0
LINE
  5
8F90
  8
0
  6
CONTINUOUS
 10
278.80750938246001
 20
555.13819429805665
 30
0.0
 11
325.30124938246013
 21
555.13819429805665
 31
0.0
  0
LINE
  5
8F91
  8
0
  6
CONTINUOUS
 10
280.5024033824601
 20
555.98996729805674
 30
0.0
 11
324.62128638246008
 21
555.98996729805674
 31
0.0
  0
LINE
  5
8F92
  8
0
  6
CONTINUOUS
 10
272.1324033824601
 20
559.49884029805673
 30
0.0
 11
272.1324033824601
 21
632.5770642980566
 31
0.0
  0
LINE
  5
8F93
  8
0
  6
CONTINUOUS
 10
277.59557938246007
 20
555.69415429805645
 30
0.0
 11
280.5024033824601
 21
555.98996729805674
 31
0.0
  0
LINE
  5
8F94
  8
0
  6
CONTINUOUS
 10
280.5024033824601
 20
555.98996729805674
 30
0.0
 11
280.5024033824601
 21
631.72529129805673
 31
0.0
  0
LINE
  5
8F95
  8
0
  6
CONTINUOUS
 10
268.6324033824601
 20
677.47792629805645
 30
0.0
 11
272.40916238246012
 21
677.47792629805645
 31
0.0
  0
LINE
  5
8F96
  8
0
  6
CONTINUOUS
 10
358.1324033824601
 20
694.85762929805685
 30
0.0
 11
380.1324033824601
 21
694.85762929805685
 31
0.0
  0
LINE
  5
8F97
  8
0
  6
CONTINUOUS
 10
358.1324033824601
 20
694.85762929805685
 30
0.0
 11
358.1324033824601
 21
690.95434829805674
 31
0.0
  0
LINE
  5
8F98
  8
0
  6
CONTINUOUS
 10
380.1324033824601
 20
694.85762929805685
 30
0.0
 11
380.1324033824601
 21
690.95434829805674
 31
0.0
  0
LINE
  5
8F99
  8
0
  6
CONTINUOUS
 10
273.89240338246009
 20
651.55762929805667
 30
0.0
 11
469.37240338246011
 21
651.55762929805667
 31
0.0
  0
LINE
  5
8F9A
  8
0
  6
CONTINUOUS
 10
273.89240338246009
 20
653.15762929805669
 30
0.0
 11
469.37240338246011
 21
653.15762929805669
 31
0.0
  0
LINE
  5
8F9B
  8
0
  6
CONTINUOUS
 10
272.1324033824601
 20
651.0176292980567
 30
0.0
 11
471.1324033824601
 21
651.0176292980567
 31
0.0
  0
LINE
  5
8F9C
  8
0
  6
CONTINUOUS
 10
272.1324033824601
 20
653.71762929805675
 30
0.0
 11
471.1324033824601
 21
653.71762929805675
 31
0.0
  0
LINE
  5
8F9D
  8
0
  6
CONTINUOUS
 10
272.1324033824601
 20
643.04262929805645
 30
0.0
 11
471.1324033824601
 21
643.04262929805645
 31
0.0
  0
LINE
  5
8F9E
  8
0
  6
CONTINUOUS
 10
272.1324033824601
 20
645.67262929805645
 30
0.0
 11
471.1324033824601
 21
645.67262929805645
 31
0.0
  0
LINE
  5
8F9F
  8
0
  6
CONTINUOUS
 10
273.89240338246009
 20
643.53262929805646
 30
0.0
 11
469.37240338246011
 21
643.53262929805646
 31
0.0
  0
LINE
  5
8FA0
  8
0
  6
CONTINUOUS
 10
273.89240338246009
 20
645.13262929805671
 30
0.0
 11
469.37240338246011
 21
645.13262929805671
 31
0.0
  0
LINE
  5
8FA1
  8
0
  6
CONTINUOUS
 10
476.1324033824601
 20
508.85762929805668
 30
0.0
 11
473.13240338245981
 21
505.85762929805668
 31
0.0
  0
LINE
  5
8FA2
  8
0
  6
CONTINUOUS
 10
476.1324033824601
 20
508.85762929805668
 30
0.0
 11
476.1324033824601
 21
678.85762929805674
 31
0.0
  0
LINE
  5
8FA3
  8
0
  6
CONTINUOUS
 10
476.1324033824601
 20
678.85762929805674
 30
0.0
 11
473.13240338245981
 21
681.85762929805674
 31
0.0
  0
LINE
  5
926A
  8
0
  6
CONTINUOUS
 10
197.6324033824601
 20
492.65762929805652
 30
0.0
 11
268.6324033824601
 21
492.65762929805652
 31
0.0
  0
LINE
  5
9843
  8
0
  6
AM_ISO08W050
 10
172.60736978700569
 20
1049.9484711688031
 30
0.0
 11
802.35078338246001
 21
1049.9484711688031
 31
0.0
  0
LINE
  5
984A
  8
0
  6
CONTINUOUS
 10
476.1324033824601
 20
976.44847116880317
 30
0.0
 11
476.1324033824601
 21
1123.4484711688031
 31
0.0
  0
LINE
  5
985A
  8
0
  6
CONTINUOUS
 10
544.63246338246029
 20
1182.9484711688031
 30
0.0
 11
544.63246338246029
 21
1054.9484711688031
 31
0.0
  0
LINE
  5
9889
  8
0
  6
CONTINUOUS
 10
544.63246338246029
 20
1044.9484711688031
 30
0.0
 11
544.63246338246029
 21
916.93103969820868
 31
0.0
  0
ARC
  5
98BF
  8
0
 10
198.03240338246019
 20
964.45109716880324
 30
0.0
 40
2.399999999999999
 50
180.0
 51
200.00000000000369
  0
ARC
  5
98C0
  8
0
 10
202.6268673824602
 20
951.8279121688031
 30
0.0
 40
2.399999999999999
 50
200.00000000000369
 51
270.0
  0
LINE
  5
98C1
  8
0
 10
200.37160438246019
 20
951.00706416880325
 30
0.0
 11
195.77714138246009
 21
963.6302491688034
 31
0.0
  0
LINE
  5
98C2
  8
0
 10
268.63240338246021
 20
949.42791216880323
 30
0.0
 11
202.6268673824602
 21
949.42791216880323
 31
0.0
  0
LINE
  5
98C3
  8
0
 10
268.63240338246021
 20
1150.4690301688031
 30
0.0
 11
268.63240338246021
 21
949.42791216880323
 31
0.0
  0
LINE
  5
98C4
  8
0
 10
200.37160438246019
 20
1148.8898781688031
 30
0.0
 11
195.77714138246009
 21
1136.2666931688029
 31
0.0
  0
ARC
  5
98C5
  8
0
 10
202.6268673824602
 20
1148.069030168803
 30
0.0
 40
2.399999999999999
 50
90.0
 51
159.99999999999631
  0
ARC
  5
98C6
  8
0
 10
198.03240338246019
 20
1135.4458451688031
 30
0.0
 40
2.399999999999999
 50
159.99999999999631
 51
180.0
  0
LINE
  5
98C7
  8
0
 10
200.94636838246029
 20
1149.782484168803
 30
0.0
 11
200.94636838246029
 21
949.42791216880323
 31
0.0
  0
LINE
  5
98C8
  8
0
 10
195.63240338246021
 20
1135.4458451688031
 30
0.0
 11
195.63240338246021
 21
964.66903016880315
 31
0.0
  0
LINE
  5
98C9
  8
0
 10
268.63240338246021
 20
1150.4690301688031
 30
0.0
 11
202.6268673824602
 21
1150.4690301688031
 31
0.0
  0
LINE
  5
98CA
  8
0
 10
402.63240338245998
 20
947.94847116880317
 30
0.0
 11
402.63240338245998
 21
944.94847116880317
 31
0.0
  0
LINE
  5
98CB
  8
0
 10
335.63240338246021
 20
947.94847116880317
 30
0.0
 11
335.63240338246021
 21
944.94847116880317
 31
0.0
  0
LINE
  5
98CC
  8
0
 10
412.38252838245972
 20
946.57745616880345
 30
0.0
 11
323.56440938246021
 21
905.16144716880331
 31
0.0
  0
LINE
  5
98CD
  8
0
 10
414.03052338246022
 20
943.04349116880326
 30
0.0
 11
412.38252838245972
 21
946.57745616880345
 31
0.0
  0
LINE
  5
98CE
  8
0
 10
335.23240538246012
 20
944.94847116880317
 30
0.0
 11
404.97550538246003
 21
944.94847116880317
 31
0.0
  0
LINE
  5
98CF
  8
0
 10
325.21260238246009
 20
901.62647516880315
 30
0.0
 11
323.56440938246021
 21
905.16144716880331
 31
0.0
  0
LINE
  5
98D0
  8
0
 10
332.76560738246019
 20
901.99248016880324
 30
0.0
 11
332.44420538246021
 21
902.68147216880311
 31
0.0
  0
LINE
  5
98D1
  8
0
 10
409.05750538246002
 20
917.86247216880327
 30
0.0
 11
409.05750538246002
 21
938.23648116880327
 31
0.0
  0
LINE
  5
98D2
  8
0
 10
326.67999738246027
 20
901.09747316880328
 30
0.0
 11
413.50550238245961
 21
941.58447616880335
 31
0.0
  0
LINE
  5
98D3
  8
0
 10
331.6324073824602
 20
908.92347716880329
 30
0.0
 11
331.6324073824602
 21
941.34848016880312
 31
0.0
  0
LINE
  5
98D4
  8
0
  6
AM_ISO08W050
 10
326.45620638246021
 20
924.94847116880328
 30
0.0
 11
335.04650738246028
 21
924.94847116880328
 31
0.0
  0
LINE
  5
98D5
  8
0
 10
329.6324073824602
 20
936.5484771688034
 30
0.0
 11
329.6324073824602
 21
913.34848016880323
 31
0.0
  0
LINE
  5
98D6
  8
0
 10
329.6324073824602
 20
936.5484771688034
 30
0.0
 11
330.6324073824602
 21
936.5484771688034
 31
0.0
  0
LINE
  5
98D7
  8
0
 10
329.6324073824602
 20
913.34848016880323
 30
0.0
 11
330.6324073824602
 21
913.34848016880323
 31
0.0
  0
ARC
  5
98D8
  8
0
 10
335.23240538246012
 20
941.34848016880312
 30
0.0
 40
3.5999979999999989
 50
90.000061000000898
 51
179.99998200000081
  0
ARC
  5
98D9
  8
0
 10
413.03350338246003
 20
942.57847616880326
 30
0.0
 40
1.100006
 50
294.99982600000448
 51
24.999514000004648
  0
ARC
  5
98DA
  8
0
 10
326.20950638246018
 20
902.09147616880318
 30
0.0
 40
1.0999959999999971
 50
204.99980300000141
 51
295.00019499999559
  0
ARC
  5
98DB
  8
0
 10
401.4575073824596
 20
917.86247216880327
 30
0.0
 40
7.5999979999999958
 50
288.90001599999869
 51
0.0000179999992061
  0
ARC
  5
98DC
  8
0
 10
336.02830838246012
 20
903.51347316880322
 30
0.0
 40
3.5999979999999989
 50
204.9991569999998
 51
269.0940209999992
  0
ARC
  5
98DD
  8
0
 10
339.13480638246023
 20
1099.8894651688031
 30
0.0
 40
200.0
 50
269.09405200000299
 51
288.9000030000019
  0
ARC
  5
98DE
  8
0
 10
331.53790538246022
 20
902.2594761688033
 30
0.0
 40
0.9999979999999998
 50
24.999268000004911
 51
114.9993579999971
  0
ARC
  5
98DF
  8
0
 10
411.05750538246002
 20
938.23648116880327
 30
0.0
 40
2.0
 50
115.00014999999451
 51
179.99998200000081
  0
ARC
  5
98E0
  8
0
 10
404.97550538246003
 20
942.34848016880312
 30
0.0
 40
2.600006
 50
40.686129999995678
 51
90.0
  0
ARC
  5
98E1
  8
0
 10
330.6324073824602
 20
937.5484771688034
 30
0.0
 40
1.0
 50
269.99894299999522
 51
0.0000179999992061
  0
ARC
  5
98E2
  8
0
 10
330.6324073824602
 20
912.34848016880323
 30
0.0
 40
1.0
 50
0.0000179999992061
 51
90.0
  0
ARC
  5
98E3
  8
0
 10
277.0760473824601
 20
967.5477911688032
 30
0.0
 40
2.0
 50
190.000000000005
 51
270.0
  0
LINE
  5
98E4
  8
0
 10
275.10643238246018
 20
967.20049516880317
 30
0.0
 11
272.1324033824601
 21
984.06704916880312
 31
0.0
  0
LINE
  5
98E5
  8
0
 10
272.1324033824601
 20
984.06704916880312
 30
0.0
 11
273.1941423824602
 21
984.06704916880312
 31
0.0
  0
LINE
  5
98E6
  8
0
 10
470.59654438246008
 20
1136.1207781688031
 30
0.0
 11
471.1324033824601
 21
1136.1207781688031
 31
0.0
  0
LINE
  5
98E7
  8
0
 10
470.85693538245971
 20
1137.683035168802
 30
0.0
 11
471.1324033824601
 21
1137.683035168802
 31
0.0
  0
LINE
  5
98E8
  8
0
 10
472.81060238245982
 20
961.94862216880335
 30
0.0
 11
473.13240338245998
 21
961.94862216880335
 31
0.0
  0
LINE
  5
98E9
  8
0
 10
468.9530083824601
 20
966.79648516880354
 30
0.0
 11
471.1324033824601
 21
966.79648516880354
 31
0.0
  0
LINE
  5
98EA
  8
0
 10
469.95909138246031
 20
978.90205516880314
 30
0.0
 11
471.1324033824601
 21
978.90205516880314
 31
0.0
  0
LINE
  5
98EB
  8
0
  6
AM_ISO08W050
 10
369.13240338246021
 20
942.29250616880313
 30
0.0
 11
369.13240338246021
 21
951.47422216880352
 31
0.0
  0
ARC
  5
98EC
  8
0
 10
467.37528338245988
 20
1138.9567191688029
 30
0.0
 40
2.0
 50
10.00000000000502
 51
90.0
  0
ARC
  5
98ED
  8
0
 10
467.4413003824597
 20
1142.497518168803
 30
0.0
 40
2.0
 50
10.00000000000502
 51
90.0
  0
ARC
  5
98EE
  8
0
 10
467.52721838246032
 20
1145.049255168803
 30
0.0
 40
2.0
 50
10.00000000000502
 51
90.0
  0
ARC
  5
98EF
  8
0
 10
467.55596738245958
 20
1146.4484711688031
 30
0.0
 40
2.0
 50
10.00000000000502
 51
90.0
  0
LINE
  5
98F0
  8
0
 10
476.13240638245998
 20
1134.9484711688031
 30
0.0
 11
473.13240638246032
 21
1137.9484711688031
 31
0.0
  0
LINE
  5
98F1
  8
0
 10
471.08559938245992
 20
1137.9484711688031
 30
0.0
 11
473.13240338245998
 21
1137.9484711688031
 31
0.0
  0
LINE
  5
98F2
  8
0
 10
476.1324033824601
 20
964.94847116880317
 30
0.0
 11
473.13240338245998
 21
961.94847116880317
 31
0.0
  0
LINE
  5
98F3
  8
0
 10
473.13240338245998
 20
961.94847116880317
 30
0.0
 11
473.13240338245998
 21
987.56885716880345
 31
0.0
  0
LINE
  5
98F4
  8
0
 10
476.1324033824601
 20
964.94847116880317
 30
0.0
 11
476.1324033824601
 21
1134.9484711688031
 31
0.0
  0
CIRCLE
  5
98F5
  8
0
 10
369.13240338246021
 20
1049.9484711688031
 30
0.0
 40
11.0
  0
LINE
  5
98F6
  8
0
 10
276.41852338246019
 20
1148.4484711688031
 30
0.0
 11
328.1324033824601
 21
1148.4484711688031
 31
0.0
  0
LINE
  5
98F7
  8
0
 10
408.13240338245981
 20
1140.956719168802
 30
0.0
 11
408.13240338245981
 21
1146.4484711688031
 31
0.0
  0
LINE
  5
98F8
  8
0
 10
330.1324033824601
 20
1140.956719168802
 30
0.0
 11
330.1324033824601
 21
1146.4484711688031
 31
0.0
  0
ARC
  5
98F9
  8
0
 10
328.1324033824601
 20
1146.4484711688031
 30
0.0
 40
2.0
 50
0.0
 51
90.0
  0
ARC
  5
98FA
  8
0
 10
410.13240338245998
 20
1146.4484711688031
 30
0.0
 40
2.0
 50
90.0
 51
180.0
  0
LINE
  5
98FB
  8
0
 10
410.13240338245998
 20
1148.4484711688031
 30
0.0
 11
467.55596738245958
 21
1148.4484711688031
 31
0.0
  0
LINE
  5
98FC
  8
0
 10
467.52721838246032
 20
1147.049255168803
 30
0.0
 11
410.13240338245998
 21
1147.049255168803
 31
0.0
  0
LINE
  5
98FD
  8
0
 10
471.1324033824601
 20
1136.1207781688031
 30
0.0
 11
469.49683438246012
 21
1145.396551168802
 31
0.0
  0
LINE
  5
98FE
  8
0
 10
471.1324033824601
 20
1137.683035168802
 30
0.0
 11
469.52558238246002
 21
1146.795767168803
 31
0.0
  0
LINE
  5
98FF
  8
0
 10
272.1324033824601
 20
1133.658217168803
 30
0.0
 11
274.44890838246027
 21
1146.795767168803
 31
0.0
  0
ARC
  5
9900
  8
0
 10
276.41852338246019
 20
1146.4484711688031
 30
0.0
 40
2.0
 50
90.0
 51
169.99999999999491
  0
LINE
  5
9901
  8
0
 10
272.1324033824601
 20
1131.999156168803
 30
0.0
 11
274.49472538246027
 21
1145.396551168802
 31
0.0
  0
ARC
  5
9902
  8
0
 10
276.46434138246019
 20
1145.049255168803
 30
0.0
 40
2.0
 50
90.0
 51
169.99999999999491
  0
ARC
  5
9903
  8
0
 10
328.1324033824601
 20
1145.049255168803
 30
0.0
 40
2.0
 50
0.0
 51
90.0
  0
ARC
  5
9904
  8
0
 10
410.13240338245998
 20
1145.049255168803
 30
0.0
 40
2.0
 50
90.0
 51
180.0
  0
LINE
  5
9905
  8
0
 10
328.1324033824601
 20
1147.049255168803
 30
0.0
 11
276.46434138246019
 21
1147.049255168803
 31
0.0
  0
LINE
  5
9906
  8
0
 10
467.4413003824597
 20
1144.497518168803
 30
0.0
 11
410.13240338245998
 21
1144.497518168803
 31
0.0
  0
LINE
  5
9907
  8
0
 10
471.00362338246009
 20
1133.812120168802
 30
0.0
 11
469.41091538246019
 21
1142.8448151688031
 31
0.0
  0
LINE
  5
9908
  8
0
 10
272.1324033824601
 20
1128.778365168803
 30
0.0
 11
274.61269838246028
 21
1142.8448151688031
 31
0.0
  0
ARC
  5
9909
  8
0
 10
276.58231338245997
 20
1142.497518168803
 30
0.0
 40
2.0
 50
90.0
 51
169.99999999999491
  0
ARC
  5
990A
  8
0
 10
328.1324033824601
 20
1142.497518168803
 30
0.0
 40
2.0
 50
0.0
 51
90.0
  0
ARC
  5
990B
  8
0
 10
410.13240338245998
 20
1142.497518168803
 30
0.0
 40
2.0
 50
90.0
 51
180.0
  0
LINE
  5
990C
  8
0
 10
328.1324033824601
 20
1144.497518168803
 30
0.0
 11
276.58231338245997
 21
1144.497518168803
 31
0.0
  0
LINE
  5
990D
  8
0
 10
467.37528338245988
 20
1140.956719168802
 30
0.0
 11
276.74382238246039
 21
1140.956719168802
 31
0.0
  0
LINE
  5
990E
  8
0
 10
470.31326838245991
 20
1133.812120168802
 30
0.0
 11
469.34489938246031
 21
1139.3040151688031
 31
0.0
  0
LINE
  5
990F
  8
0
 10
272.1324033824601
 20
1124.321605168803
 30
0.0
 11
274.77420638246019
 21
1139.3040151688031
 31
0.0
  0
ARC
  5
9910
  8
0
 10
276.74382238246039
 20
1138.9567191688029
 30
0.0
 40
2.0
 50
90.0
 51
169.99999999999491
  0
LINE
  5
9911
  8
0
 10
401.18875938245998
 20
1134.349151168803
 30
0.0
 11
277.0760473824601
 21
1134.349151168803
 31
0.0
  0
LINE
  5
9912
  8
0
 10
406.13240338245998
 20
1115.829893168803
 30
0.0
 11
403.15837438245961
 21
1132.6964471688029
 31
0.0
  0
ARC
  5
9913
  8
0
 10
401.18875938245998
 20
1132.349151168803
 30
0.0
 40
2.0
 50
10.00000000000502
 51
90.0
  0
LINE
  5
9914
  8
0
 10
272.1324033824601
 20
1115.829893168803
 30
0.0
 11
275.10643238246018
 21
1132.6964471688029
 31
0.0
  0
ARC
  5
9915
  8
0
 10
277.0760473824601
 20
1132.349151168803
 30
0.0
 40
2.0
 50
90.0
 51
169.99999999999491
  0
LINE
  5
9916
  8
0
 10
400.85849538245969
 20
1128.9471071688031
 30
0.0
 11
277.40631138246027
 21
1128.9471071688031
 31
0.0
  0
LINE
  5
9917
  8
0
 10
405.91135238245971
 20
1109.808471168803
 30
0.0
 11
402.82811138246012
 21
1127.2944041688031
 31
0.0
  0
ARC
  5
9918
  8
0
 10
400.85849538245969
 20
1126.9471071688031
 30
0.0
 40
2.0
 50
10.00000000000502
 51
90.0
  0
LINE
  5
9919
  8
0
 10
272.40939738246038
 20
1110.125739168803
 30
0.0
 11
275.43669538246019
 21
1127.2944041688031
 31
0.0
  0
ARC
  5
991A
  8
0
 10
277.40631138246027
 20
1126.9471071688031
 30
0.0
 40
2.0
 50
90.0
 51
169.99999999999491
  0
LINE
  5
991B
  8
0
 10
471.1324033824601
 20
1054.9786231688031
 30
0.0
 11
471.1324033824601
 21
1057.9263151688031
 31
0.0
  0
LINE
  5
991C
  8
0
 10
471.1324033824601
 20
1064.9780991688031
 30
0.0
 11
471.1324033824601
 21
1067.9395781688031
 31
0.0
  0
LINE
  5
991D
  8
0
 10
471.1324033824601
 20
1075.970279168803
 30
0.0
 11
471.1324033824601
 21
1078.9629061688031
 31
0.0
  0
LINE
  5
991E
  8
0
 10
471.1324033824601
 20
1086.953074168802
 30
0.0
 11
471.1324033824601
 21
1089.998780168803
 31
0.0
  0
LINE
  5
991F
  8
0
 10
471.1324033824601
 20
1097.9229531688029
 30
0.0
 11
471.1324033824601
 21
1101.0538661688031
 31
0.0
  0
LINE
  5
9920
  8
0
 10
471.1324033824601
 20
1106.881429168802
 30
0.0
 11
471.1324033824601
 21
1110.125739168803
 31
0.0
  0
LINE
  5
9921
  8
0
 10
421.1324033824601
 20
1124.321605168803
 30
0.0
 11
404.63508538245998
 21
1124.321605168803
 31
0.0
  0
LINE
  5
9922
  8
0
 10
452.91918038245979
 20
1129.1665731688031
 30
0.0
 11
437.13240338245981
 21
1129.1665731688031
 31
0.0
  0
LINE
  5
9923
  8
0
 10
421.1324033824601
 20
1124.321605168803
 30
0.0
 11
437.13240338245981
 21
1129.1665731688031
 31
0.0
  0
LINE
  5
9924
  8
0
 10
437.13240338245981
 20
1129.1665731688031
 30
0.0
 11
437.13240338245981
 21
1125.8012581688031
 31
0.0
  0
LINE
  5
9925
  8
0
 10
421.1324033824601
 20
1124.321605168803
 30
0.0
 11
421.1324033824601
 21
1110.125739168803
 31
0.0
  0
LINE
  5
9926
  8
0
 10
456.63240338245998
 20
1113.014433168803
 30
0.0
 11
456.63240338245998
 21
1131.812120168802
 31
0.0
  0
ARC
  5
9927
  8
0
 10
458.6324033824601
 20
1131.812120168802
 30
0.0
 40
2.0
 50
90.0
 51
180.0
  0
LINE
  5
9928
  8
0
 10
456.63240338245998
 20
1117.404531168803
 30
0.0
 11
437.13240338245981
 21
1117.404531168803
 31
0.0
  0
LINE
  5
9929
  8
0
 10
451.23240938246022
 20
1125.8012581688031
 30
0.0
 11
437.13240338245981
 21
1125.8012581688031
 31
0.0
  0
LINE
  5
992A
  8
0
 10
437.13240338245981
 20
1117.404531168803
 30
0.0
 11
437.13240338245981
 21
1110.125739168803
 31
0.0
  0
LINE
  5
992C
  8
0
 10
476.1324033824601
 20
1133.812120168802
 30
0.0
 11
458.6324033824601
 21
1133.812120168802
 31
0.0
  0
LINE
  5
992D
  8
0
 10
476.1324033824601
 20
1112.014433168803
 30
0.0
 11
455.63240338245993
 21
1112.014433168803
 31
0.0
  0
ARC
  5
992E
  8
0
 10
455.63240338245993
 20
1113.014433168803
 30
0.0
 40
1.0
 50
270.0
 51
0.0
  0
LINE
  5
992F
  8
0
 10
476.1324033824601
 20
1125.6881151688031
 30
0.0
 11
458.6324033824601
 21
1125.6881151688031
 31
0.0
  0
LINE
  5
9930
  8
0
 10
268.63240338246021
 20
1133.9484711688031
 30
0.0
 11
272.1324033824601
 21
1133.9484711688031
 31
0.0
  0
ARC
  5
9931
  8
0
 10
472.81060238245982
 20
959.94847116880328
 30
0.0
 40
2.0
 50
90.0
 51
169.99999999999491
  0
ARC
  5
9932
  8
0
 10
408.8750453824602
 20
954.9548141688033
 30
0.0
 40
1.9936590000000001
 50
90.075931000003493
 51
178.1702539999921
  0
LINE
  5
9933
  8
0
 10
408.87240338245999
 20
956.94847116880317
 30
0.0
 11
468.57256938246007
 21
956.94847116880317
 31
0.0
  0
LINE
  5
9934
  8
0
 10
406.63240338245998
 20
947.94847116880317
 30
0.0
 11
407.24843238246018
 21
965.5477911688032
 31
0.0
  0
LINE
  5
9935
  8
0
 10
470.84098738245979
 20
960.29576716880331
 30
0.0
 11
470.54218438246011
 21
958.60117516880314
 31
0.0
  0
ARC
  5
9936
  8
0
 10
468.57256938246007
 20
958.94847116880328
 30
0.0
 40
2.0
 50
270.0
 51
349.99999999999488
  0
LINE
  5
9937
  8
0
 10
272.70975338246018
 20
964.94847116880317
 30
0.0
 11
279.9266323824603
 21
952.44847116880317
 31
0.0
  0
LINE
  5
9938
  8
0
 10
281.65868238246043
 20
951.44847116880317
 30
0.0
 11
329.57737438246011
 21
951.44847116880317
 31
0.0
  0
LINE
  5
9939
  8
0
 10
331.63240338246021
 20
947.94847116880317
 30
0.0
 11
331.57609138246028
 21
949.52008616880312
 31
0.0
  0
ARC
  5
993A
  8
0
 10
270.97770238246028
 20
963.94847116880317
 30
0.0
 40
2.0
 50
30.000000000000551
 51
90.0
  0
ARC
  5
993B
  8
0
 10
281.65868238246043
 20
953.44847116880328
 30
0.0
 40
2.0
 50
210.0000000000004
 51
270.0
  0
ARC
  5
993C
  8
0
 10
329.57737438246011
 20
949.44847116880317
 30
0.0
 40
2.0
 50
2.052064999998533
 51
90.0
  0
LINE
  5
993D
  8
0
 10
331.63240338246021
 20
947.94847116880317
 30
0.0
 11
406.63240338245998
 21
947.94847116880317
 31
0.0
  0
LINE
  5
993E
  8
0
 10
280.65868238246043
 20
951.71642016880321
 30
0.0
 11
280.65868238246043
 21
965.5477911688032
 31
0.0
  0
LINE
  5
993F
  8
0
 10
467.0994873824597
 20
965.5477911688032
 30
0.0
 11
277.0760473824601
 21
965.5477911688032
 31
0.0
  0
LINE
  5
9940
  8
0
 10
466.87870138246012
 20
970.94983516880325
 30
0.0
 11
277.1852603824604
 21
970.94983516880325
 31
0.0
  0
LINE
  5
9941
  8
0
 10
471.1324033824601
 20
985.55623716880325
 30
0.0
 11
437.13240338245981
 21
985.55623716880325
 31
0.0
  0
LINE
  5
9942
  8
0
 10
471.1324033824601
 20
985.55623716880325
 30
0.0
 11
468.84831638245998
 21
972.60253816880322
 31
0.0
  0
ARC
  5
9943
  8
0
 10
466.87870138246012
 20
972.94983516880325
 30
0.0
 40
2.0
 50
270.0
 51
349.99999999999488
  0
LINE
  5
9944
  8
0
 10
471.1324033824601
 20
978.90205516880314
 30
0.0
 11
469.06910238246019
 21
967.20049516880317
 31
0.0
  0
ARC
  5
9945
  8
0
 10
467.0994873824597
 20
967.5477911688032
 30
0.0
 40
2.0
 50
270.0
 51
349.99999999999488
  0
LINE
  5
9946
  8
0
 10
275.87514138246007
 20
965.94847116880328
 30
0.0
 11
268.63240338246021
 21
965.94847116880328
 31
0.0
  0
LINE
  5
9947
  8
0
 10
471.1324033824601
 20
966.79648516880354
 30
0.0
 11
469.6873493824599
 21
958.60117516880314
 31
0.0
  0
ARC
  5
9948
  8
0
 10
467.7177333824601
 20
958.94847116880328
 30
0.0
 40
2.0
 50
270.0
 51
349.99999999999488
  0
LINE
  5
9949
  8
0
 10
406.13240338245998
 20
1001.788471168803
 30
0.0
 11
406.13240338245998
 21
999.08847116880315
 31
0.0
  0
LINE
  5
994A
  8
0
 10
476.1324033824601
 20
987.73883416880324
 30
0.0
 11
458.6324033824601
 21
987.73883416880324
 31
0.0
  0
LINE
  5
994B
  8
0
 10
476.1324033824601
 20
1000.046473168803
 30
0.0
 11
458.6324033824601
 21
1000.046473168803
 31
0.0
  0
LINE
  5
994C
  8
0
 10
476.1324033824601
 20
1010.225765168803
 30
0.0
 11
471.1324033824601
 21
1010.225765168803
 31
0.0
  0
LINE
  5
994D
  8
0
 10
456.63240338245998
 20
1009.225765168803
 30
0.0
 11
456.63240338245998
 21
989.73883416880312
 31
0.0
  0
ARC
  5
994E
  8
0
 10
455.63240338245993
 20
1009.225765168803
 30
0.0
 40
1.0
 50
0.0
 51
42.252324000004279
  0
ARC
  5
994F
  8
0
 10
458.6324033824601
 20
989.73883416880312
 30
0.0
 40
2.0
 50
180.0
 51
270.0
  0
LINE
  5
9950
  8
0
 10
421.1324033824601
 20
1106.881429168802
 30
0.0
 11
421.1324033824601
 21
1101.0538661688031
 31
0.0
  0
LINE
  5
9951
  8
0
 10
437.13240338245981
 20
1106.881429168802
 30
0.0
 11
437.13240338245981
 21
1101.0538661688031
 31
0.0
  0
LINE
  5
9952
  8
0
 10
421.1324033824601
 20
1097.9229531688029
 30
0.0
 11
421.1324033824601
 21
1089.998780168803
 31
0.0
  0
LINE
  5
9953
  8
0
 10
421.1324033824601
 20
1086.953074168802
 30
0.0
 11
421.1324033824601
 21
1078.9629061688031
 31
0.0
  0
LINE
  5
9954
  8
0
 10
421.1324033824601
 20
1075.970279168803
 30
0.0
 11
421.1324033824601
 21
1067.9395781688031
 31
0.0
  0
LINE
  5
9955
  8
0
 10
421.1324033824601
 20
1064.9780991688031
 30
0.0
 11
421.1324033824601
 21
1057.9263151688031
 31
0.0
  0
LINE
  5
9956
  8
0
 10
421.1324033824601
 20
1055.1084711688029
 30
0.0
 11
421.1324033824601
 21
1044.918319168803
 31
0.0
  0
LINE
  5
9957
  8
0
 10
437.13240338245981
 20
1055.1084711688029
 30
0.0
 11
437.13240338245981
 21
1044.918319168803
 31
0.0
  0
LINE
  5
9958
  8
0
 10
437.13240338245981
 20
1064.9780991688031
 30
0.0
 11
437.13240338245981
 21
1057.9263151688031
 31
0.0
  0
LINE
  5
9959
  8
0
 10
437.13240338245981
 20
1075.970279168803
 30
0.0
 11
437.13240338245981
 21
1067.9395781688031
 31
0.0
  0
LINE
  5
995A
  8
0
 10
437.13240338245981
 20
1086.953074168802
 30
0.0
 11
437.13240338245981
 21
1078.9629061688031
 31
0.0
  0
LINE
  5
995B
  8
0
 10
437.13240338245981
 20
1097.9229531688029
 30
0.0
 11
437.13240338245981
 21
1089.998780168803
 31
0.0
  0
LINE
  5
995C
  8
0
 10
421.1324033824601
 20
1041.970627168803
 30
0.0
 11
421.1324033824601
 21
1034.9188431688031
 31
0.0
  0
LINE
  5
995D
  8
0
 10
437.13240338245981
 20
1041.970627168803
 30
0.0
 11
437.13240338245981
 21
1034.9188431688031
 31
0.0
  0
LINE
  5
995E
  8
0
 10
437.13240338245981
 20
1031.957364168803
 30
0.0
 11
437.13240338245981
 21
1023.926663168803
 31
0.0
  0
LINE
  5
995F
  8
0
 10
421.1324033824601
 20
1031.957364168803
 30
0.0
 11
421.1324033824601
 21
1023.926663168803
 31
0.0
  0
LINE
  5
9960
  8
0
 10
421.1324033824601
 20
1020.934036168803
 30
0.0
 11
421.1324033824601
 21
1012.943868168803
 31
0.0
  0
LINE
  5
9961
  8
0
 10
437.13240338245981
 20
1020.934036168803
 30
0.0
 11
437.13240338245981
 21
1012.943868168803
 31
0.0
  0
LINE
  5
9962
  8
0
 10
451.68179838245987
 20
993.92767516880315
 30
0.0
 11
437.13240238246033
 21
993.92767516880315
 31
0.0
  0
LINE
  5
9963
  8
0
 10
456.63240338245998
 20
1005.340025168803
 30
0.0
 11
437.13240238246033
 21
1005.340025168803
 31
0.0
  0
LINE
  5
9964
  8
0
 10
421.1324033824601
 20
1009.898162168803
 30
0.0
 11
421.1324033824601
 21
989.89816216880308
 31
0.0
  0
LINE
  5
9965
  8
0
 10
473.13240338245998
 20
1133.812120168802
 30
0.0
 11
473.13240338245998
 21
1137.9484711688031
 31
0.0
  0
LINE
  5
9966
  8
0
 10
471.1324033824601
 20
963.7467271688032
 30
0.0
 11
470.22510338245991
 21
958.60117516880314
 31
0.0
  0
ARC
  5
9967
  8
0
 10
468.25548838245999
 20
958.94847116880328
 30
0.0
 40
2.0
 50
270.0
 51
349.99999999999488
  0
LINE
  5
9968
  8
0
 10
437.13240338245981
 20
1009.898162168803
 30
0.0
 11
437.13240338245981
 21
1005.340025168803
 31
0.0
  0
LINE
  5
9969
  8
0
 10
473.13240338245998
 20
1010.225765168803
 30
0.0
 11
473.13240338245998
 21
1112.014433168803
 31
0.0
  0
LINE
  5
996A
  8
0
 10
272.1324033824601
 20
990.08847116880315
 30
0.0
 11
275.21564538246031
 21
972.60253816880322
 31
0.0
  0
ARC
  5
996B
  8
0
 10
277.1852603824604
 20
972.94983516880325
 30
0.0
 40
2.0
 50
190.000000000005
 51
270.0
  0
LINE
  5
996C
  8
0
 10
421.8378003824597
 20
998.64276516880318
 30
0.0
 11
437.13240338245981
 21
993.92767516880315
 31
0.0
  0
LINE
  5
996D
  8
0
 10
437.13240338245981
 20
1005.340025168803
 30
0.0
 11
422.09646238245972
 21
1004.799274168803
 31
0.0
  0
LINE
  5
996E
  8
0
 10
437.13240338245981
 20
993.92767516880315
 30
0.0
 11
437.13240338245981
 21
985.55623716880325
 31
0.0
  0
ARC
  5
996F
  8
0
 10
422.13240338245998
 20
1003.7999201688031
 30
0.0
 40
1.0
 50
92.059691000003568
 51
180.0
  0
ARC
  5
9970
  8
0
 10
422.13240338245998
 20
999.59838516880325
 30
0.0
 40
1.0
 50
180.0
 51
252.86627500000029
  0
LINE
  5
9971
  8
0
 10
437.13240338245981
 20
1125.8012581688031
 30
0.0
 11
421.8319443824596
 21
1120.981392168803
 31
0.0
  0
LINE
  5
9972
  8
0
 10
422.18095838245972
 20
1116.6777111688029
 30
0.0
 11
437.13240338245981
 21
1117.404531168803
 31
0.0
  0
ARC
  5
9973
  8
0
 10
422.13240338245998
 20
1120.027597168802
 30
0.0
 40
1.0
 50
107.4851789999981
 51
180.0
  0
ARC
  5
9974
  8
0
 10
422.13240338245998
 20
1117.6765321688031
 30
0.0
 40
1.0
 50
180.0
 51
270.0
  0
LINE
  5
9976
  8
0
 10
471.1324033824601
 20
1110.125739168803
 30
0.0
 11
272.1324033824601
 21
1110.125739168803
 31
0.0
  0
LINE
  5
9977
  8
0
 10
471.1324033824601
 20
1106.881429168802
 30
0.0
 11
272.1324033824601
 21
1106.881429168802
 31
0.0
  0
LINE
  5
9978
  8
0
 10
471.1324033824601
 20
1101.0538661688031
 30
0.0
 11
272.1324033824601
 21
1101.0538661688031
 31
0.0
  0
LINE
  5
9979
  8
0
 10
471.1324033824601
 20
1097.9229531688029
 30
0.0
 11
272.1324033824601
 21
1097.9229531688029
 31
0.0
  0
LINE
  5
997A
  8
0
 10
471.1324033824601
 20
1089.998780168803
 30
0.0
 11
272.1324033824601
 21
1089.998780168803
 31
0.0
  0
LINE
  5
997B
  8
0
 10
471.1324033824601
 20
1086.953074168802
 30
0.0
 11
272.1324033824601
 21
1086.953074168802
 31
0.0
  0
LINE
  5
997C
  8
0
 10
471.1324033824601
 20
1078.9629061688031
 30
0.0
 11
272.1324033824601
 21
1078.9629061688031
 31
0.0
  0
LINE
  5
997D
  8
0
 10
471.1324033824601
 20
1075.970279168803
 30
0.0
 11
272.1324033824601
 21
1075.970279168803
 31
0.0
  0
LINE
  5
997E
  8
0
 10
471.1324033824601
 20
1067.9395781688031
 30
0.0
 11
272.1324033824601
 21
1067.9395781688031
 31
0.0
  0
LINE
  5
997F
  8
0
 10
471.1324033824601
 20
1064.9780991688031
 30
0.0
 11
272.1324033824601
 21
1064.9780991688031
 31
0.0
  0
LINE
  5
9980
  8
0
 10
471.1324033824601
 20
1057.9263151688031
 30
0.0
 11
376.70564638246009
 21
1057.9263151688031
 31
0.0
  0
LINE
  5
9981
  8
0
 10
471.1324033824601
 20
1054.9786231688031
 30
0.0
 11
383.51805038246039
 21
1054.9786231688031
 31
0.0
  0
LINE
  5
9982
  8
0
 10
469.05348238245989
 20
1109.4484711688031
 30
0.0
 11
469.05348238245989
 21
1107.4484711688031
 31
0.0
  0
LINE
  5
9983
  8
0
 10
274.21132438246019
 20
1107.4484711688031
 30
0.0
 11
469.05348238245989
 21
1107.4484711688031
 31
0.0
  0
LINE
  5
9984
  8
0
 10
274.21132438246019
 20
1109.4484711688031
 30
0.0
 11
469.05348238245989
 21
1109.4484711688031
 31
0.0
  0
LINE
  5
9985
  8
0
 10
274.21132438246019
 20
1098.4484711688031
 30
0.0
 11
469.05348238245989
 21
1098.4484711688031
 31
0.0
  0
LINE
  5
9986
  8
0
 10
274.21132438246019
 20
1100.4484711688031
 30
0.0
 11
469.05348238245989
 21
1100.4484711688031
 31
0.0
  0
LINE
  5
9987
  8
0
 10
274.21132438246019
 20
1087.4484711688031
 30
0.0
 11
469.05348238245989
 21
1087.4484711688031
 31
0.0
  0
LINE
  5
9988
  8
0
 10
274.21132438246019
 20
1089.4484711688031
 30
0.0
 11
469.05348238245989
 21
1089.4484711688031
 31
0.0
  0
LINE
  5
9989
  8
0
 10
274.21132438246019
 20
1076.4484711688031
 30
0.0
 11
469.05348238245989
 21
1076.4484711688031
 31
0.0
  0
LINE
  5
998A
  8
0
 10
274.21132438246019
 20
1078.4484711688031
 30
0.0
 11
469.05348238245989
 21
1078.4484711688031
 31
0.0
  0
LINE
  5
998B
  8
0
 10
274.21132438246019
 20
1065.4484711688031
 30
0.0
 11
469.05348238245989
 21
1065.4484711688031
 31
0.0
  0
LINE
  5
998C
  8
0
 10
274.21132438246019
 20
1067.4484711688031
 30
0.0
 11
469.05348238245989
 21
1067.4484711688031
 31
0.0
  0
LINE
  5
998D
  8
0
 10
382.90738038246008
 20
1055.4484711688031
 30
0.0
 11
469.05348238245989
 21
1055.4484711688031
 31
0.0
  0
LINE
  5
998E
  8
0
 10
377.17914138246022
 20
1057.4484711688031
 30
0.0
 11
469.05348238245989
 21
1057.4484711688031
 31
0.0
  0
LINE
  5
998F
  8
0
 10
469.05348238245989
 20
1109.4484711688031
 30
0.0
 11
471.1324033824601
 21
1110.125739168803
 31
0.0
  0
LINE
  5
9990
  8
0
 10
469.05348238245989
 20
1107.4484711688031
 30
0.0
 11
471.1324033824601
 21
1106.881429168802
 31
0.0
  0
LINE
  5
9991
  8
0
 10
469.05348238245989
 20
1100.4484711688031
 30
0.0
 11
471.1324033824601
 21
1101.0538661688031
 31
0.0
  0
LINE
  5
9992
  8
0
 10
469.05348238245989
 20
1098.4484711688031
 30
0.0
 11
471.1324033824601
 21
1097.9229531688029
 31
0.0
  0
LINE
  5
9993
  8
0
 10
469.05348238245989
 20
1089.4484711688031
 30
0.0
 11
471.1324033824601
 21
1089.998780168803
 31
0.0
  0
LINE
  5
9994
  8
0
 10
469.05348238245989
 20
1087.4484711688031
 30
0.0
 11
471.1324033824601
 21
1086.953074168802
 31
0.0
  0
LINE
  5
9995
  8
0
 10
469.05348238245989
 20
1078.4484711688031
 30
0.0
 11
471.1324033824601
 21
1078.9629061688031
 31
0.0
  0
LINE
  5
9996
  8
0
 10
469.05348238245989
 20
1076.4484711688031
 30
0.0
 11
471.1324033824601
 21
1075.970279168803
 31
0.0
  0
LINE
  5
9997
  8
0
 10
469.05348238245989
 20
1067.4484711688031
 30
0.0
 11
471.1324033824601
 21
1067.9395781688031
 31
0.0
  0
LINE
  5
9998
  8
0
 10
469.05348238245989
 20
1065.4484711688031
 30
0.0
 11
471.1324033824601
 21
1064.9780991688031
 31
0.0
  0
LINE
  5
9999
  8
0
 10
469.05348238245989
 20
1057.4484711688031
 30
0.0
 11
471.1324033824601
 21
1057.9263151688031
 31
0.0
  0
LINE
  5
999A
  8
0
 10
469.05348238245989
 20
1055.4484711688031
 30
0.0
 11
471.1324033824601
 21
1054.9786231688031
 31
0.0
  0
LINE
  5
999B
  8
0
 10
469.05348238245989
 20
1100.4484711688031
 30
0.0
 11
469.05348238245989
 21
1098.4484711688031
 31
0.0
  0
LINE
  5
999C
  8
0
 10
469.05348238245989
 20
1089.4484711688031
 30
0.0
 11
469.05348238245989
 21
1087.4484711688031
 31
0.0
  0
LINE
  5
999D
  8
0
 10
469.05348238245989
 20
1078.4484711688031
 30
0.0
 11
469.05348238245989
 21
1076.4484711688031
 31
0.0
  0
LINE
  5
999E
  8
0
 10
469.05348238245989
 20
1067.4484711688031
 30
0.0
 11
469.05348238245989
 21
1065.4484711688031
 31
0.0
  0
LINE
  5
999F
  8
0
 10
469.05348238245989
 20
1057.4484711688031
 30
0.0
 11
469.05348238245989
 21
1055.4484711688031
 31
0.0
  0
ARC
  5
99A0
  8
0
 10
382.90738038246008
 20
1052.4484711688031
 30
0.0
 40
3.0
 50
90.0
 51
190.28656100000819
  0
ARC
  5
99A1
  8
0
 10
383.51805038246039
 20
1051.5086231688031
 30
0.0
 40
3.4700000000000002
 50
90.0
 51
186.1896490000004
  0
LINE
  5
99A2
  8
0
 10
289.2113243824603
 20
1057.4484711688031
 30
0.0
 11
289.2113243824603
 21
1055.4484711688031
 31
0.0
  0
LINE
  5
99A3
  8
0
 10
274.21132438246019
 20
1067.4484711688031
 30
0.0
 11
274.21132438246019
 21
1065.4484711688031
 31
0.0
  0
LINE
  5
99A4
  8
0
 10
274.21132438246019
 20
1078.4484711688031
 30
0.0
 11
274.21132438246019
 21
1076.4484711688031
 31
0.0
  0
LINE
  5
99A5
  8
0
 10
274.21132438246019
 20
1089.4484711688031
 30
0.0
 11
274.21132438246019
 21
1087.4484711688031
 31
0.0
  0
LINE
  5
99A6
  8
0
 10
274.21132438246019
 20
1100.4484711688031
 30
0.0
 11
274.21132438246019
 21
1098.4484711688031
 31
0.0
  0
LINE
  5
99A7
  8
0
 10
289.2113243824603
 20
1055.4484711688031
 30
0.0
 11
287.13240338246021
 21
1054.9786231688031
 31
0.0
  0
LINE
  5
99A8
  8
0
 10
289.2113243824603
 20
1057.4484711688031
 30
0.0
 11
287.13240338246021
 21
1057.9263151688031
 31
0.0
  0
LINE
  5
99A9
  8
0
 10
274.21132438246019
 20
1065.4484711688031
 30
0.0
 11
272.1324033824601
 21
1064.9780991688031
 31
0.0
  0
LINE
  5
99AA
  8
0
 10
274.21132438246019
 20
1067.4484711688031
 30
0.0
 11
272.1324033824601
 21
1067.9395781688031
 31
0.0
  0
LINE
  5
99AB
  8
0
 10
274.21132438246019
 20
1076.4484711688031
 30
0.0
 11
272.1324033824601
 21
1075.970279168803
 31
0.0
  0
LINE
  5
99AC
  8
0
 10
274.21132438246019
 20
1078.4484711688031
 30
0.0
 11
272.1324033824601
 21
1078.9629061688031
 31
0.0
  0
LINE
  5
99AD
  8
0
 10
274.21132438246019
 20
1087.4484711688031
 30
0.0
 11
272.1324033824601
 21
1086.953074168802
 31
0.0
  0
LINE
  5
99AE
  8
0
 10
274.21132438246019
 20
1089.4484711688031
 30
0.0
 11
272.1324033824601
 21
1089.998780168803
 31
0.0
  0
LINE
  5
99AF
  8
0
 10
274.21132438246019
 20
1098.4484711688031
 30
0.0
 11
272.1324033824601
 21
1097.9229531688029
 31
0.0
  0
LINE
  5
99B0
  8
0
 10
274.21132438246019
 20
1100.4484711688031
 30
0.0
 11
272.1324033824601
 21
1101.0538661688031
 31
0.0
  0
LINE
  5
99B1
  8
0
 10
274.21132438246019
 20
1107.4484711688031
 30
0.0
 11
272.1324033824601
 21
1106.881429168802
 31
0.0
  0
LINE
  5
99B2
  8
0
 10
274.21132438246019
 20
1109.4484711688031
 30
0.0
 11
272.1324033824601
 21
1110.125739168803
 31
0.0
  0
LINE
  5
99B3
  8
0
 10
274.21132438246019
 20
1109.4484711688031
 30
0.0
 11
274.21132438246019
 21
1107.4484711688031
 31
0.0
  0
LINE
  5
99B4
  8
0
 10
272.1324033824601
 20
1106.881429168802
 30
0.0
 11
272.1324033824601
 21
1110.125739168803
 31
0.0
  0
LINE
  5
99B5
  8
0
 10
272.1324033824601
 20
1097.9229531688029
 30
0.0
 11
272.1324033824601
 21
1101.0538661688031
 31
0.0
  0
LINE
  5
99B6
  8
0
 10
272.1324033824601
 20
1086.953074168802
 30
0.0
 11
272.1324033824601
 21
1089.998780168803
 31
0.0
  0
LINE
  5
99B7
  8
0
 10
272.1324033824601
 20
1075.970279168803
 30
0.0
 11
272.1324033824601
 21
1078.9629061688031
 31
0.0
  0
LINE
  5
99B8
  8
0
 10
272.1324033824601
 20
1064.9780991688031
 30
0.0
 11
272.1324033824601
 21
1067.9395781688031
 31
0.0
  0
LINE
  5
99B9
  8
0
 10
287.13240338246021
 20
1054.9786231688031
 30
0.0
 11
287.13240338246021
 21
1057.9263151688031
 31
0.0
  0
LINE
  5
99BA
  8
0
 10
287.13240338246021
 20
1057.9263151688031
 30
0.0
 11
361.55916038246039
 21
1057.9263151688031
 31
0.0
  0
LINE
  5
99BB
  8
0
 10
287.13240338246021
 20
1054.9786231688031
 30
0.0
 11
354.74675638246009
 21
1054.9786231688031
 31
0.0
  0
LINE
  5
99BC
  8
0
 10
355.35742638246018
 20
1055.4484711688031
 30
0.0
 11
289.2113243824603
 21
1055.4484711688031
 31
0.0
  0
LINE
  5
99BD
  8
0
 10
361.08566538246021
 20
1057.4484711688031
 30
0.0
 11
289.2113243824603
 21
1057.4484711688031
 31
0.0
  0
ARC
  5
99BE
  8
0
 10
355.35742638246018
 20
1052.4484711688031
 30
0.0
 40
3.0
 50
349.71343899999181
 51
90.0
  0
ARC
  5
99BF
  8
0
 10
354.74675638246009
 20
1051.5086231688031
 30
0.0
 40
3.4700000000000002
 50
353.81035099999951
 51
90.0
  0
LINE
  5
99C0
  8
0
 10
471.1324033824601
 20
1009.898162168803
 30
0.0
 11
272.1324033824601
 21
1009.898162168803
 31
0.0
  0
LINE
  5
99C1
  8
0
 10
471.1324033824601
 20
1012.943868168803
 30
0.0
 11
272.1324033824601
 21
1012.943868168803
 31
0.0
  0
LINE
  5
99C2
  8
0
 10
471.1324033824601
 20
1020.934036168803
 30
0.0
 11
272.1324033824601
 21
1020.934036168803
 31
0.0
  0
LINE
  5
99C3
  8
0
 10
471.1324033824601
 20
1023.926663168803
 30
0.0
 11
272.1324033824601
 21
1023.926663168803
 31
0.0
  0
LINE
  5
99C4
  8
0
 10
471.1324033824601
 20
1031.957364168803
 30
0.0
 11
272.1324033824601
 21
1031.957364168803
 31
0.0
  0
LINE
  5
99C5
  8
0
 10
471.1324033824601
 20
1034.9188431688031
 30
0.0
 11
272.1324033824601
 21
1034.9188431688031
 31
0.0
  0
LINE
  5
99C6
  8
0
 10
274.21132438246019
 20
1012.4484711688031
 30
0.0
 11
469.05348238245989
 21
1012.4484711688031
 31
0.0
  0
LINE
  5
99C7
  8
0
 10
274.21132438246019
 20
1010.4484711688031
 30
0.0
 11
469.05348238245989
 21
1010.4484711688031
 31
0.0
  0
LINE
  5
99C8
  8
0
 10
274.21132438246019
 20
1023.4484711688031
 30
0.0
 11
469.05348238245989
 21
1023.4484711688031
 31
0.0
  0
LINE
  5
99C9
  8
0
 10
274.21132438246019
 20
1021.4484711688031
 30
0.0
 11
469.05348238245989
 21
1021.4484711688031
 31
0.0
  0
LINE
  5
99CA
  8
0
 10
274.21132438246019
 20
1034.4484711688031
 30
0.0
 11
469.05348238245989
 21
1034.4484711688031
 31
0.0
  0
LINE
  5
99CB
  8
0
 10
274.21132438246019
 20
1032.4484711688031
 30
0.0
 11
469.05348238245989
 21
1032.4484711688031
 31
0.0
  0
LINE
  5
99CC
  8
0
 10
287.13240338246021
 20
1041.970627168803
 30
0.0
 11
361.55916038246039
 21
1041.970627168803
 31
0.0
  0
LINE
  5
99CD
  8
0
 10
287.13240338246021
 20
1044.918319168803
 30
0.0
 11
354.74675638246009
 21
1044.918319168803
 31
0.0
  0
LINE
  5
99CE
  8
0
 10
355.35742638246018
 20
1044.4484711688031
 30
0.0
 11
289.2113243824603
 21
1044.4484711688031
 31
0.0
  0
LINE
  5
99CF
  8
0
 10
361.08566538246021
 20
1042.4484711688031
 30
0.0
 11
289.2113243824603
 21
1042.4484711688031
 31
0.0
  0
LINE
  5
99D0
  8
0
 10
287.13240338246021
 20
1044.918319168803
 30
0.0
 11
287.13240338246021
 21
1041.970627168803
 31
0.0
  0
LINE
  5
99D1
  8
0
 10
272.1324033824601
 20
1034.9188431688031
 30
0.0
 11
272.1324033824601
 21
1031.957364168803
 31
0.0
  0
LINE
  5
99D2
  8
0
 10
272.1324033824601
 20
1023.926663168803
 30
0.0
 11
272.1324033824601
 21
1020.934036168803
 31
0.0
  0
LINE
  5
99D3
  8
0
 10
272.1324033824601
 20
1012.943868168803
 30
0.0
 11
272.1324033824601
 21
1009.898162168803
 31
0.0
  0
LINE
  5
99D4
  8
0
 10
274.21132438246019
 20
1010.4484711688031
 30
0.0
 11
272.1324033824601
 21
1009.898162168803
 31
0.0
  0
LINE
  5
99D5
  8
0
 10
274.21132438246019
 20
1012.4484711688031
 30
0.0
 11
272.1324033824601
 21
1012.943868168803
 31
0.0
  0
LINE
  5
99D6
  8
0
 10
274.21132438246019
 20
1021.4484711688031
 30
0.0
 11
272.1324033824601
 21
1020.934036168803
 31
0.0
  0
LINE
  5
99D7
  8
0
 10
274.21132438246019
 20
1023.4484711688031
 30
0.0
 11
272.1324033824601
 21
1023.926663168803
 31
0.0
  0
LINE
  5
99D8
  8
0
 10
274.21132438246019
 20
1032.4484711688031
 30
0.0
 11
272.1324033824601
 21
1031.957364168803
 31
0.0
  0
LINE
  5
99D9
  8
0
 10
274.21132438246019
 20
1034.4484711688031
 30
0.0
 11
272.1324033824601
 21
1034.9188431688031
 31
0.0
  0
LINE
  5
99DA
  8
0
 10
289.2113243824603
 20
1042.4484711688031
 30
0.0
 11
287.13240338246021
 21
1041.970627168803
 31
0.0
  0
LINE
  5
99DB
  8
0
 10
289.2113243824603
 20
1044.4484711688031
 30
0.0
 11
287.13240338246021
 21
1044.918319168803
 31
0.0
  0
LINE
  5
99DC
  8
0
 10
274.21132438246019
 20
1010.4484711688031
 30
0.0
 11
274.21132438246019
 21
1012.4484711688031
 31
0.0
  0
LINE
  5
99DD
  8
0
 10
274.21132438246019
 20
1021.4484711688031
 30
0.0
 11
274.21132438246019
 21
1023.4484711688031
 31
0.0
  0
LINE
  5
99DE
  8
0
 10
274.21132438246019
 20
1032.4484711688031
 30
0.0
 11
274.21132438246019
 21
1034.4484711688031
 31
0.0
  0
LINE
  5
99DF
  8
0
 10
289.2113243824603
 20
1042.4484711688031
 30
0.0
 11
289.2113243824603
 21
1044.4484711688031
 31
0.0
  0
ARC
  5
99E0
  8
0
 10
355.35742638246018
 20
1047.4484711688031
 30
0.0
 40
3.0
 50
270.0
 51
10.28656100000822
  0
ARC
  5
99E1
  8
0
 10
354.74675638246009
 20
1048.388319168803
 30
0.0
 40
3.4700000000000002
 50
270.0
 51
6.1896490000005366
  0
LINE
  5
99E2
  8
0
 10
471.1324033824601
 20
1041.970627168803
 30
0.0
 11
376.70564638246009
 21
1041.970627168803
 31
0.0
  0
LINE
  5
99E3
  8
0
 10
471.1324033824601
 20
1044.918319168803
 30
0.0
 11
383.51805038246039
 21
1044.918319168803
 31
0.0
  0
LINE
  5
99E4
  8
0
 10
382.90738038246008
 20
1044.4484711688031
 30
0.0
 11
469.05348238245989
 21
1044.4484711688031
 31
0.0
  0
LINE
  5
99E5
  8
0
 10
377.17914138246022
 20
1042.4484711688031
 30
0.0
 11
469.05348238245989
 21
1042.4484711688031
 31
0.0
  0
ARC
  5
99E6
  8
0
 10
382.90738038246008
 20
1047.4484711688031
 30
0.0
 40
3.0
 50
169.71343899999181
 51
270.0
  0
ARC
  5
99E7
  8
0
 10
383.51805038246039
 20
1048.388319168803
 30
0.0
 40
3.4700000000000002
 50
173.8103509999994
 51
270.0
  0
LINE
  5
99E8
  8
0
 10
469.05348238245989
 20
1042.4484711688031
 30
0.0
 11
469.05348238245989
 21
1044.4484711688031
 31
0.0
  0
LINE
  5
99E9
  8
0
 10
469.05348238245989
 20
1032.4484711688031
 30
0.0
 11
469.05348238245989
 21
1034.4484711688031
 31
0.0
  0
LINE
  5
99EA
  8
0
 10
469.05348238245989
 20
1021.4484711688031
 30
0.0
 11
469.05348238245989
 21
1023.4484711688031
 31
0.0
  0
LINE
  5
99EB
  8
0
 10
469.05348238245989
 20
1010.4484711688031
 30
0.0
 11
469.05348238245989
 21
1012.4484711688031
 31
0.0
  0
LINE
  5
99EC
  8
0
 10
469.05348238245989
 20
1044.4484711688031
 30
0.0
 11
471.1324033824601
 21
1044.918319168803
 31
0.0
  0
LINE
  5
99ED
  8
0
 10
469.05348238245989
 20
1042.4484711688031
 30
0.0
 11
471.1324033824601
 21
1041.970627168803
 31
0.0
  0
LINE
  5
99EE
  8
0
 10
469.05348238245989
 20
1034.4484711688031
 30
0.0
 11
471.1324033824601
 21
1034.9188431688031
 31
0.0
  0
LINE
  5
99EF
  8
0
 10
469.05348238245989
 20
1032.4484711688031
 30
0.0
 11
471.1324033824601
 21
1031.957364168803
 31
0.0
  0
LINE
  5
99F0
  8
0
 10
469.05348238245989
 20
1023.4484711688031
 30
0.0
 11
471.1324033824601
 21
1023.926663168803
 31
0.0
  0
LINE
  5
99F1
  8
0
 10
469.05348238245989
 20
1021.4484711688031
 30
0.0
 11
471.1324033824601
 21
1020.934036168803
 31
0.0
  0
LINE
  5
99F2
  8
0
 10
469.05348238245989
 20
1012.4484711688031
 30
0.0
 11
471.1324033824601
 21
1012.943868168803
 31
0.0
  0
LINE
  5
99F3
  8
0
 10
469.05348238245989
 20
1010.4484711688031
 30
0.0
 11
471.1324033824601
 21
1009.898162168803
 31
0.0
  0
LINE
  5
99F4
  8
0
 10
471.1324033824601
 20
1012.943868168803
 30
0.0
 11
471.1324033824601
 21
1009.898162168803
 31
0.0
  0
LINE
  5
99F5
  8
0
 10
471.1324033824601
 20
1023.926663168803
 30
0.0
 11
471.1324033824601
 21
1020.934036168803
 31
0.0
  0
LINE
  5
99F6
  8
0
 10
471.1324033824601
 20
1034.9188431688031
 30
0.0
 11
471.1324033824601
 21
1031.957364168803
 31
0.0
  0
LINE
  5
99F7
  8
0
 10
471.1324033824601
 20
1044.918319168803
 30
0.0
 11
471.1324033824601
 21
1041.970627168803
 31
0.0
  0
LINE
  5
99F8
  8
0
 10
404.05348238245972
 20
1001.4484711688031
 30
0.0
 11
406.13240338245998
 21
1001.943868168803
 31
0.0
  0
LINE
  5
99F9
  8
0
 10
406.13240338245998
 20
1001.943868168803
 30
0.0
 11
272.1324033824601
 21
1001.943868168803
 31
0.0
  0
LINE
  5
99FA
  8
0
 10
274.21132438246019
 20
1001.4484711688031
 30
0.0
 11
404.05348238245972
 21
1001.4484711688031
 31
0.0
  0
LINE
  5
99FB
  8
0
 10
404.05348238245972
 20
999.44847116880317
 30
0.0
 11
404.05348238245972
 21
1001.4484711688031
 31
0.0
  0
LINE
  5
99FC
  8
0
 10
406.13240338245998
 20
998.89816216880308
 30
0.0
 11
272.1324033824601
 21
998.89816216880308
 31
0.0
  0
LINE
  5
99FD
  8
0
 10
274.21132438246019
 20
999.44847116880317
 30
0.0
 11
404.05348238245972
 21
999.44847116880317
 31
0.0
  0
LINE
  5
99FE
  8
0
 10
404.05348238245972
 20
999.44847116880317
 30
0.0
 11
406.13240338245998
 21
998.89816216880308
 31
0.0
  0
LINE
  5
99FF
  8
0
 10
406.13240338245998
 20
992.94386816880353
 30
0.0
 11
272.1324033824601
 21
992.94386816880353
 31
0.0
  0
LINE
  5
9A00
  8
0
 10
274.21132438246019
 20
992.44847116880317
 30
0.0
 11
404.05348238245972
 21
992.44847116880317
 31
0.0
  0
LINE
  5
9A01
  8
0
 10
406.13240338245998
 20
989.89816216880308
 30
0.0
 11
272.16596038246018
 21
989.89816216880308
 31
0.0
  0
LINE
  5
9A02
  8
0
 10
274.21132438246019
 20
990.44847116880328
 30
0.0
 11
404.05348238245972
 21
990.44847116880328
 31
0.0
  0
LINE
  5
9A03
  8
0
 10
404.05348238245972
 20
990.44847116880328
 30
0.0
 11
406.13240338245998
 21
989.89816216880308
 31
0.0
  0
LINE
  5
9A04
  8
0
 10
406.13240338245998
 20
992.94386816880353
 30
0.0
 11
406.13240338245998
 21
989.89816216880308
 31
0.0
  0
LINE
  5
9A05
  8
0
 10
404.05348238245972
 20
990.44847116880328
 30
0.0
 11
404.05348238245972
 21
992.44847116880317
 31
0.0
  0
LINE
  5
9A06
  8
0
 10
404.05348238245972
 20
992.44847116880317
 30
0.0
 11
406.13240338245998
 21
992.94386816880353
 31
0.0
  0
LINE
  5
9A07
  8
0
 10
406.13240338245998
 20
989.89816216880308
 30
0.0
 11
421.1324033824601
 21
989.89816216880308
 31
0.0
  0
LINE
  5
9A08
  8
0
 10
421.1324033824601
 20
989.89816216880308
 30
0.0
 11
437.13240338245981
 21
985.55623716880325
 31
0.0
  0
LINE
  5
9A09
  8
0
 10
272.1324033824601
 20
1001.943868168803
 30
0.0
 11
272.1324033824601
 21
998.89816216880308
 31
0.0
  0
LINE
  5
9A0A
  8
0
 10
272.1324033824601
 20
992.94386816880353
 30
0.0
 11
272.1324033824601
 21
989.89816216880308
 31
0.0
  0
LINE
  5
9A0B
  8
0
 10
274.21132438246019
 20
999.44847116880317
 30
0.0
 11
274.21132438246019
 21
1001.4484711688031
 31
0.0
  0
LINE
  5
9A0C
  8
0
 10
274.21132438246019
 20
1001.4484711688031
 30
0.0
 11
272.1324033824601
 21
1001.943868168803
 31
0.0
  0
LINE
  5
9A0D
  8
0
 10
274.21132438246019
 20
999.44847116880317
 30
0.0
 11
272.1324033824601
 21
998.89816216880308
 31
0.0
  0
LINE
  5
9A0E
  8
0
 10
274.21132438246019
 20
992.44847116880317
 30
0.0
 11
272.1324033824601
 21
992.94386816880353
 31
0.0
  0
LINE
  5
9A0F
  8
0
 10
274.21132438246019
 20
990.44847116880328
 30
0.0
 11
274.21132438246019
 21
992.44847116880317
 31
0.0
  0
LINE
  5
9A10
  8
0
 10
274.21132438246019
 20
990.44847116880328
 30
0.0
 11
272.1324033824601
 21
989.89816216880308
 31
0.0
  0
LINE
  5
9A11
  8
0
 10
268.63240338246021
 20
1057.5922421688031
 30
0.0
 11
275.13240338246021
 21
1057.5922421688031
 31
0.0
  0
LINE
  5
9A12
  8
0
 10
268.63240338246021
 20
1057.926320168802
 30
0.0
 11
275.81240338245999
 21
1057.926320168802
 31
0.0
  0
LINE
  5
9A13
  8
0
 10
277.13240338246021
 20
1055.5922421688031
 30
0.0
 11
277.13240338246021
 21
1049.948475168803
 31
0.0
  0
LINE
  5
9A14
  8
0
 10
278.8124033824601
 20
1060.926320168802
 30
0.0
 11
278.8124033824601
 21
1049.948475168803
 31
0.0
  0
ARC
  5
9A15
  8
0
 10
275.81240338245999
 20
1060.926320168802
 30
0.0
 40
3.0
 50
270.0
 51
0.0
  0
LINE
  5
9A16
  8
0
 10
268.63240338246021
 20
1042.3047071688029
 30
0.0
 11
275.13240338246021
 21
1042.3047071688029
 31
0.0
  0
LINE
  5
9A17
  8
0
 10
268.63240338246021
 20
1041.970629168803
 30
0.0
 11
275.81240338245999
 21
1041.970629168803
 31
0.0
  0
LINE
  5
9A18
  8
0
 10
277.13240338246021
 20
1044.3047071688029
 30
0.0
 11
277.13240338246021
 21
1049.948475168803
 31
0.0
  0
LINE
  5
9A19
  8
0
 10
278.8124033824601
 20
1038.970629168803
 30
0.0
 11
278.8124033824601
 21
1049.948475168803
 31
0.0
  0
ARC
  5
9A1A
  8
0
 10
275.81240338245999
 20
1038.970629168803
 30
0.0
 40
3.0
 50
359.99999799999722
 51
89.999997999997177
  0
ARC
  5
9A1B
  8
0
  6
CONTINUOUS
 10
453.83220238246003
 20
1121.431737168803
 30
0.0
 40
2.600398999999999
 50
179.99998200000081
 51
269.99997799999852
  0
ARC
  5
9A1C
  8
0
  6
CONTINUOUS
 10
453.83220238246003
 20
1126.731725168803
 30
0.0
 40
2.600403
 50
90.0
 51
179.99998200000081
  0
LINE
  5
9A1D
  8
0
  6
CONTINUOUS
 10
456.63240338245998
 20
1124.147756168803
 30
0.0
 11
455.1324033824601
 21
1123.2817311688029
 31
0.0
  0
LINE
  5
9A1E
  8
0
  6
CONTINUOUS
 10
456.63240338245998
 20
1125.147756168803
 30
0.0
 11
455.1324033824601
 21
1124.281731168802
 31
0.0
  0
LINE
  5
9A1F
  8
0
  6
CONTINUOUS
 10
456.63240338245998
 20
1130.181731168803
 30
0.0
 11
456.63240338245998
 21
1117.981731168803
 31
0.0
  0
LINE
  5
9A20
  8
0
  6
CONTINUOUS
 10
455.1324033824601
 20
1130.181731168803
 30
0.0
 11
456.63240338245998
 21
1130.181731168803
 31
0.0
  0
LINE
  5
9A21
  8
0
  6
CONTINUOUS
 10
455.1324033824601
 20
1117.981731168803
 30
0.0
 11
456.63240338245998
 21
1117.981731168803
 31
0.0
  0
LINE
  5
9A22
  8
0
  6
CONTINUOUS
 10
451.23240938245999
 20
1126.731725168803
 30
0.0
 11
451.23240938245999
 21
1121.431737168803
 31
0.0
  0
LINE
  5
9A23
  8
0
  6
CONTINUOUS
 10
455.1324033824601
 20
1130.181731168803
 30
0.0
 11
455.1324033824601
 21
1117.981731168803
 31
0.0
  0
LINE
  5
9A24
  8
0
  6
CONTINUOUS
 10
455.1324033824601
 20
1118.8317311688029
 30
0.0
 11
453.83220238246003
 21
1118.8317311688029
 31
0.0
  0
LINE
  5
9A25
  8
0
  6
CONTINUOUS
 10
455.1324033824601
 20
1129.3317311688029
 30
0.0
 11
453.83220238246003
 21
1129.3317311688029
 31
0.0
  0
ARC
  5
9A26
  8
0
  6
CONTINUOUS
 10
453.83220238246003
 20
995.38981016880325
 30
0.0
 40
2.600398999999999
 50
179.99998200000081
 51
269.99997799999852
  0
ARC
  5
9A27
  8
0
  6
CONTINUOUS
 10
453.83220238246003
 20
1000.689798168803
 30
0.0
 40
2.600403
 50
90.0
 51
179.99998200000081
  0
LINE
  5
9A28
  8
0
  6
CONTINUOUS
 10
456.63240338245998
 20
998.10582916880321
 30
0.0
 11
455.1324033824601
 21
997.2398041688034
 31
0.0
  0
LINE
  5
9A29
  8
0
  6
CONTINUOUS
 10
456.63240338245998
 20
999.10582916880321
 30
0.0
 11
455.1324033824601
 21
998.2398041688034
 31
0.0
  0
LINE
  5
9A2A
  8
0
  6
CONTINUOUS
 10
456.63240338245998
 20
1004.139804168803
 30
0.0
 11
456.63240338245998
 21
991.93980416880311
 31
0.0
  0
LINE
  5
9A2B
  8
0
  6
CONTINUOUS
 10
455.1324033824601
 20
1004.139804168803
 30
0.0
 11
456.63240338245998
 21
1004.139804168803
 31
0.0
  0
LINE
  5
9A2C
  8
0
  6
CONTINUOUS
 10
455.1324033824601
 20
991.93980416880311
 30
0.0
 11
456.63240338245998
 21
991.93980416880311
 31
0.0
  0
LINE
  5
9A2D
  8
0
  6
CONTINUOUS
 10
451.23240938245999
 20
1000.689798168803
 30
0.0
 11
451.23240938245999
 21
995.38981016880325
 31
0.0
  0
LINE
  5
9A2E
  8
0
  6
CONTINUOUS
 10
455.1324033824601
 20
1004.139804168803
 30
0.0
 11
455.1324033824601
 21
991.93980416880311
 31
0.0
  0
LINE
  5
9A2F
  8
0
  6
CONTINUOUS
 10
455.1324033824601
 20
992.78980416880324
 30
0.0
 11
453.83220238246003
 21
992.78980416880324
 31
0.0
  0
LINE
  5
9A30
  8
0
  6
CONTINUOUS
 10
455.1324033824601
 20
1003.289804168803
 30
0.0
 11
453.83220238246003
 21
1003.289804168803
 31
0.0
  0
LINE
  5
9BBF
  8
0
  6
CONTINUOUS
 62
     0
 10
476.1324033824601
 20
1133.9659021198661
 30
0.0
 11
489.306893382461
 21
1134.4259711688039
 31
0.0
  0
LINE
  5
9BC0
  8
0
  6
CONTINUOUS
 62
     0
 10
476.1324033824601
 20
965.93097985208954
 30
0.0
 11
489.306893382461
 21
965.47090116880406
 31
0.0
  0
LINE
  5
9BC1
  8
0
  6
CONTINUOUS
 62
     0
 10
544.63246338246029
 20
916.93103969820868
 30
0.0
 11
518.95795338246114
 21
917.82765116880364
 31
0.0
  0
LINE
  5
9BC2
  8
0
  6
CONTINUOUS
 62
     0
 10
544.13239338246115
 20
1182.948441168804
 30
0.0
 11
518.95789338246084
 21
1182.0693511688039
 31
0.0
  0
LINE
  5
9BC3
  8
0
  6
CONTINUOUS
 62
     0
 10
509.306893382461
 20
1161.7625211688039
 30
0.0
 11
498.95789338246118
 21
1161.4011311688041
 31
0.0
  0
LINE
  5
9BC4
  8
0
  6
CONTINUOUS
 62
     0
 10
509.30695338246107
 20
938.13447116880354
 30
0.0
 11
498.95789338246118
 21
938.49586116880357
 31
0.0
  0
LINE
  5
9BC5
  8
0
  6
CONTINUOUS
 62
     0
 10
494.13239338246109
 20
943.49281116880354
 30
0.0
 11
494.13239338246109
 21
1156.4041911688039
 31
0.0
  0
LINE
  5
9BC6
  8
0
  6
CENTER
 62
     0
 10
526.13245338246122
 20
1034.7682011688039
 30
0.0
 11
526.13245338246122
 21
1064.5030611688039
 31
0.0
  0
LINE
  5
9BC7
  8
0
  6
CONTINUOUS
 62
     0
 10
506.13245338246122
 20
1044.948501168803
 30
0.0
 11
546.13245338246111
 21
1044.948501168803
 31
0.0
  0
LINE
  5
9BC8
  8
0
  6
CONTINUOUS
 62
     0
 10
506.13245338246122
 20
1054.948501168803
 30
0.0
 11
546.13245338246111
 21
1054.948501168803
 31
0.0
  0
LINE
  5
9BC9
  8
0
  6
CONTINUOUS
 62
     0
 10
514.13239338246126
 20
922.8246011688035
 30
0.0
 11
514.13239338246126
 21
1039.412911168803
 31
0.0
  0
LINE
  5
9BCA
  8
0
  6
CONTINUOUS
 62
     0
 10
514.13239338246126
 20
1060.4840211688031
 30
0.0
 11
514.13239338246126
 21
1177.0724011688019
 31
0.0
  0
ARC
  5
9BCB
  8
0
  6
CONTINUOUS
 62
     0
 10
499.1323933824612
 20
943.49281116880354
 30
0.0
 40
5.0
 50
180.00001000000091
 51
267.99999999999648
  0
ARC
  5
9BCC
  8
0
  6
CONTINUOUS
 62
     0
 10
499.1323933824612
 20
1156.4041911688039
 30
0.0
 40
5.0
 50
91.999997999994264
 51
180.00001000000091
  0
ARC
  5
9BCD
  8
0
  6
CONTINUOUS
 62
     0
 10
526.13245338246122
 20
1049.948501168803
 30
0.0
 40
15.0
 50
148.2119799999972
 51
160.52876999999819
  0
ARC
  5
9BCE
  8
0
  6
CONTINUOUS
 62
     0
 10
526.13245338246122
 20
1049.948501168803
 30
0.0
 40
12.5
 50
23.57817999999623
 51
156.42182000000369
  0
ARC
  5
9BCF
  8
0
  6
CONTINUOUS
 62
     0
 10
506.13245338246122
 20
1049.948501168803
 30
0.0
 40
5.0
 50
90.000002999984659
 51
270.0
  0
ARC
  5
9BD0
  8
0
  6
CONTINUOUS
 62
     0
 10
546.13245338246111
 20
1049.948501168803
 30
0.0
 40
5.0
 50
270.0
 51
90.000002999984659
  0
ARC
  5
9BD1
  8
0
  6
CONTINUOUS
 62
     0
 10
526.13245338246122
 20
1049.948501168803
 30
0.0
 40
12.5
 50
203.57817999999611
 51
336.42182999999483
  0
ARC
  5
9BD2
  8
0
  6
CONTINUOUS
 62
     0
 10
526.13245338246122
 20
1049.948501168803
 30
0.0
 40
15.0
 50
199.47123000000161
 51
211.7880200000028
  0
ARC
  5
9BD3
  8
0
  6
CONTINUOUS
 62
     0
 10
519.13239338246115
 20
922.8246011688035
 30
0.0
 40
5.0
 50
180.00001000000091
 51
267.99999999999648
  0
ARC
  5
9BD4
  8
0
  6
CONTINUOUS
 62
     0
 10
519.13239338246115
 20
1177.0724011688019
 30
0.0
 40
5.0
 50
91.999997999994264
 51
180.00001000000091
  0
ARC
  5
9BD5
  8
0
  6
CONTINUOUS
 62
     0
 10
489.13239338246132
 20
960.47395116880364
 30
0.0
 40
5.0
 50
0.0
 51
87.999999999996447
  0
ARC
  5
9BD6
  8
0
  6
CONTINUOUS
 62
     0
 10
489.13239338246132
 20
1139.4229811688031
 30
0.0
 40
5.0
 50
272.00000000000352
 51
0.0
  0
ARC
  5
9BD7
  8
0
  6
CONTINUOUS
 62
     0
 10
509.13239338246137
 20
1166.7594711688021
 30
0.0
 40
5.0
 50
272.00000000000352
 51
0.0
  0
ARC
  5
9BD8
  8
0
  6
CONTINUOUS
 62
     0
 10
509.13239338246137
 20
933.1374611688035
 30
0.0
 40
5.0
 50
0.0
 51
87.999999999996447
  0
ARC
  5
9BD9
  8
0
  6
CONTINUOUS
 62
     0
 10
509.13239338246137
 20
1039.412911168803
 30
0.0
 40
5.0
 50
0.0
 51
31.788018000003131
  0
ARC
  5
9BDA
  8
0
  6
CONTINUOUS
 62
     0
 10
509.13239338246137
 20
1060.4840211688031
 30
0.0
 40
5.0
 50
328.21197999999731
 51
0.0
  0
LINE
  5
9BDD
  8
0
  6
CONTINUOUS
 62
     0
 10
476.1324033824601
 20
669.59727329805673
 30
0.0
 11
494.6324033824605
 21
669.59727329805673
 31
0.0
  0
LINE
  5
9BDE
  8
0
  6
CONTINUOUS
 62
     0
 10
476.1324033824601
 20
655.92356229805648
 30
0.0
 11
494.6324033824605
 21
655.92356229805648
 31
0.0
  0
LINE
  5
9BDF
  8
0
  6
CONTINUOUS
 62
     0
 10
476.1324033824601
 20
531.66835029805645
 30
0.0
 11
494.6324033824605
 21
531.66835029805645
 31
0.0
  0
LINE
  5
9BE0
  8
0
  6
CONTINUOUS
 62
     0
 10
476.1324033824601
 20
543.95563129805669
 30
0.0
 11
494.6324033824605
 21
543.95563129805669
 31
0.0
  0
LINE
  5
9BE1
  8
0
  6
CONTINUOUS
 62
     0
 10
476.1324033824601
 20
554.13492329805672
 30
0.0
 11
494.6324033824605
 21
554.13492329805672
 31
0.0
  0
LINE
  5
9BE2
  8
0
  6
CONTINUOUS
 62
     0
 10
476.1324033824601
 20
1125.6881151688031
 30
0.0
 11
494.13239338246109
 21
1125.6881151688031
 31
0.0
  0
LINE
  5
9BE3
  8
0
  6
CONTINUOUS
 62
     0
 10
476.1324033824601
 20
1112.014433168803
 30
0.0
 11
494.13239338246109
 21
1112.014433168803
 31
0.0
  0
LINE
  5
9BE4
  8
0
  6
CONTINUOUS
 62
     0
 10
475.63245338246111
 20
1000.046473168803
 30
0.0
 11
494.13239338246109
 21
1000.046473168803
 31
0.0
  0
LINE
  5
9BE5
  8
0
  6
CONTINUOUS
 62
     0
 10
475.63245338246111
 20
1010.225765168803
 30
0.0
 11
494.13239338246109
 21
1010.225765168803
 31
0.0
  0
LINE
  5
9BE6
  8
0
  6
CONTINUOUS
 62
     0
 10
475.63245338246111
 20
987.73883416880324
 30
0.0
 11
494.13239338246109
 21
987.73883416880324
 31
0.0
  0
LINE
  5
9E84
  8
AM_0
 10
544.63240338246021
 20
760.8576192980571
 30
0.0
 11
544.63240338246021
 21
445.85759429805671
 31
0.0
  0
LINE
  5
9E85
  8
AM_0
 10
510.65020338245972
 20
730.48161929805633
 30
0.0
 11
496.5969033824598
 21
711.50956929805693
 31
0.0
  0
LINE
  5
9E86
  8
AM_0
 10
513.63240338245998
 20
760.8576192980571
 30
0.0
 11
544.63240338246021
 21
760.8576192980571
 31
0.0
  0
LINE
  5
9E87
  8
AM_0
 10
511.63240338245959
 20
758.85766929805663
 30
0.0
 11
511.63240338245959
 21
733.45776929805709
 31
0.0
  0
LINE
  5
9E88
  8
AM_0
 10
516.56260338246034
 20
759.87736929805715
 30
0.0
 11
544.63240338246021
 21
760.8576192980571
 31
0.0
  0
LINE
  5
9E89
  8
AM_0
 10
514.63240338246032
 20
757.87866929805659
 30
0.0
 11
514.63240333825183
 21
448.83660491527081
 31
0.0
  0
ARC
  5
9E8A
  8
AM_0
 10
509.63240334106553
 20
458.06685708476039
 30
0.0
 40
5.0
 50
359.99999998253008
 51
44.09211319945431
1001
GENIUS_GENOBJ-N-FIL_13
1002
{
1000
OWNER
1000
GEN
1002
}
1001
GENIUS_GENODEF_13
1002
{
1000
HIER
1070
     0
1002
}
1002
{
1000
MANEDIT
1070
     0
1002
}
1002
{
1000
NOSEL
1070
     0
1002
}
1002
{
1000
BEHIND
1070
     0
1002
}
1002
{
1000
OTHER
1070
     0
1002
}
1002
{
1000
REACTOR
1002
}
  0
LINE
  5
9E8B
  8
AM_0
 10
494.6324033824601
 20
705.557319298057
 30
0.0
 11
494.6324033824601
 21
494.64507429805712
 31
0.0
  0
LINE
  5
9E8C
  8
AM_0
 10
494.6324033824601
 20
494.64507429805712
 30
0.0
 11
494.6324033824601
 21
484.7853342980568
 31
0.0
  0
LINE
  5
9E8D
  8
AM_0
 10
513.22351376006156
 20
461.54592678204699
 30
0.0
 11
497.45020338246007
 21
477.82720429805659
 31
0.0
  0
LINE
  5
9E8E
  8
AM_0
 10
513.65020338245972
 20
734.53161929805731
 30
0.0
 11
510.65020338245972
 21
730.48161929805633
 31
0.0
  0
LINE
  5
9E8F
  8
AM_0
 10
516.8383533824599
 20
769.8576192980571
 30
0.0
 11
536.42640338246031
 21
769.8576192980571
 31
0.0
  0
LINE
  5
9E90
  8
AM_0
 10
514.13240338245998
 20
760.8576192980571
 30
0.0
 11
516.38290338245974
 21
769.2565192980569
 31
0.0
  0
LINE
  5
9E91
  8
AM_0
 10
539.13245338245974
 20
760.8576192980571
 30
0.0
 11
536.88195338245976
 21
769.25656929805655
 31
0.0
  0
LINE
  5
9E92
  8
AM_0
 10
517.15435338246016
 20
769.97861929805674
 30
0.0
 11
526.63240338245976
 21
771.85766929805663
 31
0.0
  0
LINE
  5
9E93
  8
AM_0
 10
526.63240338245976
 20
771.85761929805676
 30
0.0
 11
536.11050338246014
 21
769.97861929805674
 31
0.0
  0
ARC
  5
9E94
  8
AM_0
 10
509.63240338245998
 20
737.50776929805693
 30
0.0
 40
5.0
 50
323.4711400000171
 51
0.0
  0
ARC
  5
9E95
  8
AM_0
 10
516.63240338245976
 20
757.87866929805659
 30
0.0
 40
2.0000000500000001
 50
91.999997999994051
 51
180.00001000000091
  0
ARC
  5
9E96
  8
AM_0
 10
513.63240338245998
 20
758.85766929805663
 30
0.0
 40
2.0000000500000001
 50
90.00000299999769
 51
180.00001000000091
  0
ARC
  5
9E97
  8
AM_0
 10
504.63240338246021
 20
484.7853342980568
 30
0.0
 40
10.0
 50
179.999989999999
 51
224.0922199999934
  0
ARC
  5
9E98
  8
AM_0
 10
506.63240338245981
 20
733.45776929805709
 30
0.0
 40
5.0
 50
323.4711400000171
 51
0.0
  0
ARC
  5
9E99
  8
AM_0
 10
504.63240338246021
 20
705.557319298057
 30
0.0
 40
10.0
 50
143.47114000002091
 51
180.00001000000091
  0
ARC
  5
9E9A
  8
AM_0
 10
489.63240338245998
 20
503.38314429805672
 30
0.0
 40
5.0
 50
0.0
 51
87.999999999996248
  0
CIRCLE
  5
9E9B
  8
AM_0
 10
526.63240338245976
 20
786.85761929805665
 30
0.0
 40
15.0
  0
ARC
  5
9E9C
  8
AM_0
 10
526.63240338245976
 20
786.85761929805665
 30
0.0
 40
25.000000499999999
 50
306.46672000001831
 51
233.5332899999853
  0
ARC
  5
9E9D
  8
AM_0
 10
517.34885338246022
 20
768.99771929805695
 30
0.0
 40
1.0
 50
101.21328999999881
 51
164.99998999998439
  0
ARC
  5
9E9E
  8
AM_0
 10
535.91605338246029
 20
768.99771929805695
 30
0.0
 40
1.0
 50
14.999999999994451
 51
78.786710000001207
  0
ARC
  5
9E9F
  8
AM_0
 10
508.20735338245993
 20
761.92731929805689
 30
0.0
 40
6.0
 50
349.7299499999861
 51
53.533291000004859
  0
ARC
  5
9EA0
  8
AM_0
 10
545.05740338246005
 20
761.92731929805689
 30
0.0
 40
6.0
 50
126.4667000000059
 51
190.2700599999915
  0
ARC
  5
9EA1
  8
AM_0
 10
489.63240338245998
 20
684.33211429805692
 30
0.0
 40
5.0
 50
272.00000000000369
 51
0.0
  0
LINE
  5
9EA3
  8
AM_0
 10
717.6324033824601
 20
670.35759929805647
 30
0.0
 11
717.6324033824601
 21
666.35762929805674
 31
0.0
  0
LINE
  5
9EA4
  8
AM_0
 10
717.6324033824601
 20
670.35759929805647
 30
0.0
 11
779.63240338246021
 21
670.35759929805647
 31
0.0
  0
LINE
  5
9EA5
  8
AM_0
 10
697.63240338246021
 20
611.35762929805674
 30
0.0
 11
779.63240338246021
 21
611.35762929805674
 31
0.0
  0
LINE
  5
9EA6
  8
AM_0
 10
779.63240338246021
 20
670.35759929805647
 30
0.0
 11
779.63240338246021
 21
611.35762929805674
 31
0.0
  0
LINE
  5
9EA7
  8
AM_0
 10
697.63240338246021
 20
666.35762929805674
 30
0.0
 11
779.63240338246021
 21
666.35762929805674
 31
0.0
  0
LINE
  5
9EA8
  8
AM_0
 10
697.63240338246021
 20
668.85762929805674
 30
0.0
 11
697.63240338246021
 21
608.85762929805674
 31
0.0
  0
LINE
  5
9EA9
  8
AM_0
 10
694.63240338246021
 20
608.85762929805674
 30
0.0
 11
697.63240338246021
 21
608.85762929805674
 31
0.0
  0
LINE
  5
9EAA
  8
AM_0
 10
694.63240338246021
 20
668.85762929805674
 30
0.0
 11
697.63240338246021
 21
668.85762929805674
 31
0.0
  0
LINE
  5
9EAB
  8
AM_0
 10
652.43025338246014
 20
753.03697929805685
 30
0.0
 11
651.35935338245963
 21
764.58457929805661
 31
0.0
  0
LINE
  5
9EAC
  8
AM_0
 10
656.28255338246015
 20
725.69912929805685
 30
0.0
 11
667.6324033824601
 21
734.02292929805662
 31
0.0
  0
LINE
  5
9EAD
  8
AM_0
 10
626.98195338246012
 20
736.22162929805665
 30
0.0
 11
665.2212033824602
 21
759.36402929805683
 31
0.0
  0
LINE
  5
9EAE
  8
AM_0
 10
629.5708033824601
 20
724.73113429805699
 30
0.0
 11
653.32565338246025
 21
724.73113429805699
 31
0.0
  0
LINE
  5
9EAF
  8
AM_0
 10
629.5615033824597
 20
726.50802929805695
 30
0.0
 11
665.13060338245998
 21
748.03447929805668
 31
0.0
  0
LINE
  5
9EB0
  8
AM_0
 10
624.5708033824601
 20
731.94402929805665
 30
0.0
 11
624.5708033824601
 21
729.73112929805654
 31
0.0
  0
LINE
  5
9EB1
  8
AM_0
 10
666.95900338246008
 20
596.36949929805644
 30
0.0
 11
655.05520338245992
 21
724.7311642980568
 31
0.0
  0
LINE
  5
9EB2
  8
AM_0
 10
667.6324033824601
 20
546.58369929805644
 30
0.0
 11
667.6324033824601
 21
478.85759429805682
 31
0.0
  0
LINE
  5
9EB3
  8
AM_0
 10
676.63240338245998
 20
763.20672929805664
 30
0.0
 11
676.63240338245998
 21
514.50847429805663
 31
0.0
  0
LINE
  5
9EB4
  8
AM_0
 10
516.63240338246032
 20
545.52840429805678
 30
0.0
 11
667.6324033824601
 21
545.52840429805678
 31
0.0
  0
LINE
  5
9EB5
  8
AM_0
 10
631.79852501564073
 20
444.51184026139032
 30
0.0
 11
681.63240338245998
 21
473.85760929805679
 31
0.0
  0
ARC
  5
9EB6
  8
AM_0
 10
626.72424910443942
 20
453.12878426590891
 30
0.0
 40
10.0
 50
268.0922691617846
 51
300.49263428054121
1001
GENIUS_GENOBJ-N-FIL_13
1002
{
1000
OWNER
1000
GEN
1002
}
1001
GENIUS_GENODEF_13
1002
{
1000
HIER
1070
     0
1002
}
1002
{
1000
MANEDIT
1070
     0
1002
}
1002
{
1000
NOSEL
1070
     0
1002
}
1002
{
1000
BEHIND
1070
     0
1002
}
1002
{
1000
OTHER
1070
     0
1002
}
1002
{
1000
REACTOR
1002
}
  0
LINE
  5
9EB7
  8
AM_0
 10
694.63240338246021
 20
778.85757929805675
 30
0.0
 11
694.63240338246021
 21
498.85762429805652
 31
0.0
  0
LINE
  5
9EB8
  8
AM_0
 10
689.63240338246021
 20
778.85757929805675
 30
0.0
 11
694.63240338246021
 21
778.85757929805675
 31
0.0
  0
LINE
  5
9EB9
  8
AM_0
 10
689.63240338246021
 20
498.85762429805652
 30
0.0
 11
694.63240338246021
 21
498.85762429805652
 31
0.0
  0
LINE
  5
9EBA
  8
AM_0
 10
689.63240338246021
 20
803.85757929805663
 30
0.0
 11
689.63240338246021
 21
473.85759429805688
 31
0.0
  0
LINE
  5
9EBB
  8
AM_0
 10
667.6324033824601
 20
798.26087929805681
 30
0.0
 11
667.6324033824601
 21
604.59422929805669
 31
0.0
  0
LINE
  5
9EBC
  8
AM_0
 10
589.63240338245998
 20
494.45866929805692
 30
0.0
 11
667.6324033824601
 21
494.45866929805692
 31
0.0
  0
LINE
  5
9EBD
  8
AM_0
 10
589.63240338245998
 20
519.10350429805658
 30
0.0
 11
667.6324033824601
 21
519.10350429805658
 31
0.0
  0
LINE
  5
9EBE
  8
AM_0
 10
544.63240338246021
 20
760.85757929805663
 30
0.0
 11
646.41385338245982
 21
763.5228292980571
 31
0.0
  0
LINE
  5
9EBF
  8
AM_0
 10
672.63240338245998
 20
473.85759429805688
 30
0.0
 11
689.63240338246021
 21
473.85759429805688
 31
0.0
  0
LINE
  5
9EC0
  8
AM_0
 10
672.45785338245969
 20
803.25787929805665
 30
0.0
 11
689.63235338246022
 21
803.85757929805663
 31
0.0
  0
LINE
  5
9EC1
  8
AM_0
 10
544.63240338246021
 20
760.85757929805663
 30
0.0
 11
544.63240338246021
 21
445.85760929805679
 31
0.0
  0
LINE
  5
9EC2
  8
AM_0
 10
653.22310338246029
 20
766.44837929805681
 30
0.0
 11
667.63235338246011
 21
780.85757929805663
 31
0.0
  0
LINE
  5
9EC3
  8
AM_0
 10
544.63240338246021
 20
445.85759429805682
 30
0.0
 11
626.39134877958361
 21
443.13432693328122
 31
0.0
  0
LINE
  5
9EC4
  8
AM_0
 10
584.63240338245998
 20
514.10350429805681
 30
0.0
 11
584.63240338245998
 21
499.4586692980568
 31
0.0
  0
LINE
  5
9EC5
  8
AM_0
 10
516.63240338246032
 20
647.32399929805661
 30
0.0
 11
662.23375338246012
 21
647.32399929805661
 31
0.0
  0
ARC
  5
9EC6
  8
AM_0
 10
662.6324033824601
 20
763.64172929805682
 30
0.0
 40
5.0
 50
301.18236000000519
 51
0.0
  0
ARC
  5
9EC7
  8
AM_0
 10
629.5708033824601
 20
731.94402929805665
 30
0.0
 40
5.0
 50
121.1823600000052
 51
180.00001000000091
  0
ARC
  5
9EC8
  8
AM_0
 10
629.5708033824601
 20
729.73112929805654
 30
0.0
 40
5.0
 50
179.999989999999
 51
270.0
  0
ARC
  5
9EC9
  8
AM_0
 10
653.32565338246025
 20
729.73112929805654
 30
0.0
 40
5.0
 50
270.0
 51
306.25554999999372
  0
ARC
  5
9ECA
  8
AM_0
 10
646.1520533824596
 20
773.51937929805683
 30
0.0
 40
10.0
 50
271.50000000000267
 51
314.99999999999079
  0
ARC
  5
9ECB
  8
AM_0
 10
674.92485338246013
 20
597.10823929805667
 30
0.0
 40
8.0
 50
185.2982400000015
 51
270.0
  0
ARC
  5
9ECC
  8
AM_0
 10
668.63240338245998
 20
763.20672929805664
 30
0.0
 40
8.0
 50
0.0
 51
90.00000299999769
  0
ARC
  5
9ECD
  8
AM_0
 10
668.63240338245998
 20
705.1942392980568
 30
0.0
 40
8.0
 50
0.0
 51
90.00000299999769
  0
ARC
  5
9ECE
  8
AM_0
 10
668.63240338245998
 20
514.50847429805663
 30
0.0
 40
8.0
 50
270.0
 51
0.0
  0
ARC
  5
9ECF
  8
AM_0
 10
668.63240338245998
 20
554.52095929805682
 30
0.0
 40
8.0
 50
270.0
 51
0.0
  0
ARC
  5
9ED0
  8
AM_0
 10
589.63240338245998
 20
514.10350429805681
 30
0.0
 40
5.0
 50
90.00000299999769
 51
180.00001000000091
  0
ARC
  5
9ED1
  8
AM_0
 10
672.63240338245998
 20
478.85759429805682
 30
0.0
 40
5.0
 50
179.999989999999
 51
270.0
  0
ARC
  5
9ED2
  8
AM_0
 10
672.63240338245998
 20
798.26087929805681
 30
0.0
 40
5.0
 50
91.999997999994051
 51
180.00001000000091
  0
ARC
  5
9ED3
  8
AM_0
 10
589.63240338245998
 20
499.4586692980568
 30
0.0
 40
5.0
 50
179.999989999999
 51
270.0
  0
LINE
  5
9ED4
  8
AM_0
 10
516.56260363501178
 20
446.8378232854111
 30
0.0
 11
544.63240338246021
 21
445.85759429805682
 31
0.0
  0
ARC
  5
9ED5
  8
AM_0
 10
516.63240333825183
 20
448.83660491466122
 30
0.0
 40
2.0
 50
179.99999998253
 51
267.99997965232188
1001
GENIUS_GENOBJ-N-FIL_13
1002
{
1000
OWNER
1000
GEN
1002
}
1001
GENIUS_GENODEF_13
1002
{
1000
HIER
1070
     0
1002
}
1002
{
1000
MANEDIT
1070
     0
1002
}
1002
{
1000
NOSEL
1070
     0
1002
}
1002
{
1000
BEHIND
1070
     0
1002
}
1002
{
1000
OTHER
1070
     0
1002
}
1002
{
1000
REACTOR
1002
}
  0
POINT
  5
9F6B
  8
AM_0
 10
1025.4030273213259
 20
638.85763429805695
 30
0.0
  0
POINT
  5
9F6C
  8
AM_0
 10
1025.4030273213259
 20
638.85763429805695
 30
0.0
  0
LINE
  5
9F6D
  8
AM_0
 10
1020.403027321326
 20
806.85753429805709
 30
0.0
 11
1020.403027321326
 21
803.85758429805753
 31
0.0
  0
LINE
  5
9F6E
  8
AM_0
 10
1030.4030273213259
 20
806.85753429805709
 30
0.0
 11
1030.4030273213259
 21
803.85758429805753
 31
0.0
  0
LINE
  5
9F6F
  8
AM_0
 10
1033.4030273213259
 20
660.35760429805714
 30
0.0
 11
1033.4030273213259
 21
670.35760429805714
 31
0.0
  0
LINE
  5
9F70
  8
AM_0
 10
1017.402997321326
 20
660.35760429805714
 30
0.0
 11
1017.402997321326
 21
670.35760429805714
 31
0.0
  0
LINE
  5
9F71
  8
AM_0
 10
1017.402997321326
 20
670.35760429805714
 30
0.0
 11
1033.4030273213259
 21
670.35760429805714
 31
0.0
  0
LINE
  5
9F72
  8
AM_0
 10
1017.402997321326
 20
660.35760429805714
 30
0.0
 11
1033.4030273213259
 21
660.35760429805714
 31
0.0
  0
LINE
  5
9F73
  8
AM_0
 10
970.40299732132553
 20
803.85758429805753
 30
0.0
 11
883.86416232132569
 21
799.32228429805696
 31
0.0
  0
LINE
  5
9F74
  8
AM_0
 10
860.40301232132629
 20
583.85763429805695
 30
0.0
 11
864.93831232132584
 21
497.31878429805693
 31
0.0
  0
LINE
  5
9F75
  8
AM_0
 10
1190.4030273213259
 20
583.85759929805715
 30
0.0
 11
1185.867722321326
 21
497.31881429805679
 31
0.0
  0
LINE
  5
9F76
  8
AM_0
 10
1190.4030273213259
 20
693.85760429805714
 30
0.0
 11
1185.867722321326
 21
780.3964342980571
 31
0.0
  0
LINE
  5
9F77
  8
AM_0
 10
1080.4030573213261
 20
473.85759929805693
 30
0.0
 11
1166.941862321326
 21
478.39290929805691
 31
0.0
  0
LINE
  5
9F78
  8
AM_0
 10
1080.4030573213261
 20
803.85758429805753
 30
0.0
 11
1166.9418473213259
 21
799.32228429805696
 31
0.0
  0
LINE
  5
9F79
  8
AM_0
 10
860.40306232132616
 20
693.85760429805714
 30
0.0
 11
864.93831232132584
 21
780.3964342980571
 31
0.0
  0
LINE
  5
9F7A
  8
0
  6
AM_ISO08W050
 10
900.30531455100629
 20
513.75985534609697
 30
0.0
 11
876.29270290760451
 21
489.74720031592898
 31
0.0
  0
LINE
  5
9F7B
  8
AM_0
 10
965.12919232132617
 20
690.64617929805718
 30
0.0
 11
931.69529232132618
 21
724.08004429805715
 31
0.0
  0
LINE
  5
9F7C
  8
AM_0
 10
973.61445232132564
 20
699.13143929805688
 30
0.0
 11
940.18058232132671
 21
732.56528429805712
 31
0.0
  0
LINE
  5
9F7D
  8
0
  6
AM_ISO08W050
 10
1150.648472052005
 20
764.10302264026461
 30
0.0
 11
1175.3644326828719
 21
788.81901674117353
 31
0.0
  0
LINE
  5
9F7E
  8
AM_0
 10
1085.6769223213259
 20
690.64620929805722
 30
0.0
 11
1119.1107623213261
 21
724.08004429805715
 31
0.0
  0
LINE
  5
9F7F
  8
AM_0
 10
1100.4030273213259
 20
638.85763429805695
 30
0.0
 11
1100.4030273213259
 21
628.85763429805695
 31
0.0
  0
LINE
  5
9F80
  8
0
  6
AM_ISO08W050
 10
1151.234746134355
 20
513.02590048502805
 30
0.0
 11
1174.539507462739
 21
489.7211391566438
 31
0.0
  0
LINE
  5
9F81
  8
AM_0
 10
950.40302732132614
 20
638.85763429805695
 30
0.0
 11
950.40302732132614
 21
628.85763429805695
 31
0.0
  0
LINE
  5
9F82
  8
AM_0
 10
1077.191662321326
 20
699.13146929805725
 30
0.0
 11
1110.6255023213259
 21
732.56528429805712
 31
0.0
  0
LINE
  5
9F83
  8
AM_0
 10
1190.4030123213261
 20
583.85763429805695
 30
0.0
 11
1190.4030123213261
 21
693.85763429805695
 31
0.0
  0
LINE
  5
9F84
  8
AM_0
 10
970.4030573213264
 20
473.85759929805693
 30
0.0
 11
883.86421232132614
 21
478.39290929805691
 31
0.0
  0
LINE
  5
9F85
  8
AM_0
 10
860.40306232132616
 20
583.85763429805695
 30
0.0
 11
860.40306232132616
 21
693.85763429805695
 31
0.0
  0
LINE
  5
9F86
  8
AM_0
 10
970.40302732132614
 20
803.85758429805753
 30
0.0
 11
1080.4030273213259
 21
803.85758429805753
 31
0.0
  0
LINE
  5
9F87
  8
AM_0
 10
970.40302732132614
 20
473.85759929805693
 30
0.0
 11
1080.4030273213259
 21
473.85759929805693
 31
0.0
  0
LINE
  5
9F88
  8
AM_0
 10
1152.008727321326
 20
623.85763429805706
 30
0.0
 11
1105.4030273213259
 21
623.85763429805706
 31
0.0
  0
LINE
  5
9F89
  8
AM_0
 10
898.79734232132557
 20
623.85763429805706
 30
0.0
 11
945.40302732132614
 21
623.85763429805706
 31
0.0
  0
LINE
  5
9F8A
  8
0
  6
AM_ISO08W050
 10
849.42131232132624
 20
638.85763429805695
 30
0.0
 11
1202.829602321325
 21
638.85763429805695
 31
0.0
  0
LINE
  5
9F8B
  8
AM_0
 10
1094.6032823213261
 20
445.35607429805691
 30
0.0
 11
1117.3781573213271
 21
461.30320429805693
 31
0.0
  0
LINE
  5
9F8C
  8
AM_0
 10
963.55601232132653
 20
443.0376092980573
 30
0.0
 11
1087.250042321326
 21
443.0376092980573
 31
0.0
  0
LINE
  5
9F8D
  8
0
  6
AM_ISO08W050
 10
1025.4030273213259
 20
431.83243929805712
 30
0.0
 11
1025.4030273213259
 21
818.31028429805679
 31
0.0
  0
LINE
  5
9F8E
  8
0
  6
AM_ISO08W050
 10
899.47741071320115
 20
764.78323598203235
 30
0.0
 11
876.08998846668112
 21
788.17061351291102
 31
0.0
  0
LINE
  5
9F8F
  8
AM_0
 10
956.20276732132629
 20
445.35605929805689
 30
0.0
 11
933.42792732132648
 21
461.30318929805691
 31
0.0
  0
ARC
  5
9F90
  8
AM_0
 10
1025.4030273213259
 20
806.85753429805709
 30
0.0
 40
5.0
 50
359.999989999999
 51
179.999989999999
  0
ARC
  5
9F91
  8
AM_0
 10
1025.4030273213259
 20
638.85763429805695
 30
0.0
 40
27.500000499999999
 50
106.91239000000481
 51
73.08759699998545
  0
CIRCLE
  5
9F92
  8
AM_0
 10
1025.4030273213259
 20
638.85763429805695
 30
0.0
 40
4.500000049999997
  0
CIRCLE
  5
9F93
  8
0
  6
AM_ISO08W050
 10
1025.4030273213259
 20
638.85763429805695
 30
0.0
 40
6.0
  0
ARC
  5
9F94
  8
AM_0
 10
1152.008727321326
 20
628.85763429805695
 30
0.0
 40
5.0
 50
270.0
 51
355.48384999999178
  0
ARC
  5
9F95
  8
AM_0
 10
884.91091232132635
 20
498.36547429805688
 30
0.0
 40
20.000000499999999
 50
183.00000999999341
 51
266.99999999999432
  0
ARC
  5
9F96
  8
AM_0
 10
1025.4030273213259
 20
638.85763429805695
 30
0.0
 40
75.0
 50
0.0
 51
37.096793000006002
  0
ARC
  5
9F97
  8
AM_0
 10
1165.8951423213259
 20
498.36547429805688
 30
0.0
 40
20.000000499999999
 50
273.00000000000568
 51
356.9999999999946
  0
ARC
  5
9F98
  8
AM_0
 10
884.91091232132635
 20
779.34973429805723
 30
0.0
 40
20.000000499999999
 50
92.999998999995185
 51
176.99999000000639
  0
ARC
  5
9F99
  8
AM_0
 10
1165.8951423213259
 20
779.34973429805723
 30
0.0
 40
20.000000499999999
 50
3.0000000999988461
 51
86.999999000009993
  0
ARC
  5
9F9A
  8
0
  6
AM_ISO08W050
 10
1025.4030273213259
 20
638.85763429805695
 30
0.0
 40
195.00000499999999
 50
218.1653200000016
 51
232.12885999999131
  0
ARC
  5
9F9B
  8
0
  6
AM_ISO08W050
 10
1025.4030273213291
 20
638.85763429805434
 30
0.0
 40
195.0000050000036
 50
125.73832458429111
 51
140.9156299999735
  0
CIRCLE
  5
9F9C
  8
AM_0
 10
1163.288862321326
 20
500.97179929805691
 30
0.0
 40
9.5
  0
ARC
  5
9F9D
  8
0
  6
AM_ISO08W050
 10
1025.4030273213259
 20
638.85763429805695
 30
0.0
 40
195.00000499999999
 50
39.367218999987593
 51
50.896189000002501
  0
CIRCLE
  5
9F9E
  8
AM_0
 10
887.51721232132638
 20
500.97179929805691
 30
0.0
 40
9.5
  0
ARC
  5
9F9F
  8
0
  6
AM_ISO08W050
 10
1025.4030273213209
 20
638.85763429806411
 30
0.0
 40
195.00000500000871
 50
305.9483152983492
 51
320.46633000000628
  0
CIRCLE
  5
9FA0
  8
AM_0
 10
887.51721232132638
 20
776.74338429805721
 30
0.0
 40
9.5
  0
CIRCLE
  5
9FA1
  8
AM_0
 10
1163.288862321326
 20
776.74338429805721
 30
0.0
 40
9.5
  0
ARC
  5
9FA2
  8
AM_0
 10
1105.4030273213259
 20
628.85763429805695
 30
0.0
 40
5.0
 50
179.999989999999
 51
270.0
  0
ARC
  5
9FA3
  8
AM_0
 10
945.40302732132614
 20
628.85763429805695
 30
0.0
 40
5.0
 50
270.0
 51
0.0
  0
ARC
  5
9FA4
  8
AM_0
 10
1122.6462823213251
 20
720.54452429805724
 30
0.0
 40
5.0
 50
40.031147999981712
 51
135.00000000000921
  0
ARC
  5
9FA5
  8
AM_0
 10
928.15976732132674
 20
720.54452429805724
 30
0.0
 40
5.0
 50
45.000000999994569
 51
139.96885000000219
  0
ARC
  5
9FA6
  8
AM_0
 10
1025.4030273213259
 20
638.85763429805695
 30
0.0
 40
60.0
 50
270.0
 51
90.000002999984659
  0
ARC
  5
9FA7
  8
AM_0
 10
961.59360732132643
 20
687.11068429805687
 30
0.0
 40
5.0
 50
322.90321000000722
 51
45.000000999994569
  0
ARC
  5
9FA8
  8
AM_0
 10
1025.4030273213259
 20
638.85763429805695
 30
0.0
 40
60.0
 50
90.000002999984659
 51
270.0
  0
ARC
  5
9FA9
  8
AM_0
 10
943.71613732132619
 20
736.10088429805694
 30
0.0
 40
5.0
 50
130.03114999999781
 51
224.99999999999079
  0
ARC
  5
9FAA
  8
AM_0
 10
898.79734232132557
 20
628.85763429805695
 30
0.0
 40
5.0
 50
184.5161599999995
 51
270.0
  0
ARC
  5
9FAB
  8
AM_0
 10
1089.212447321326
 20
687.11068429805687
 30
0.0
 40
5.0
 50
135.00000000000921
 51
217.0968000000199
  0
ARC
  5
9FAC
  8
AM_0
 10
1058.4030273213259
 20
545.52840929805711
 30
0.0
 40
102.81999500000001
 50
305.00000000001182
 51
317.98481999999228
  0
ARC
  5
9FAD
  8
AM_0
 10
1087.250042321326
 20
455.857614298057
 30
0.0
 40
12.82
 50
270.0
 51
305.00000000001182
  0
ARC
  5
9FAE
  8
AM_0
 10
963.55601232132653
 20
455.857614298057
 30
0.0
 40
12.82
 50
234.9999999999882
 51
270.0
  0
ARC
  5
9FAF
  8
AM_0
 10
992.4029973213261
 20
545.52840929805711
 30
0.0
 40
102.81999500000001
 50
222.0151800000076
 51
234.9999999999882
  0
ARC
  5
9FB0
  8
AM_0
 10
977.14994232132563
 20
702.6670192980572
 30
0.0
 40
5.0
 50
224.99999999999079
 51
307.09678999999278
  0
ARC
  5
9FB1
  8
AM_0
 10
1073.6561073213261
 20
702.6670192980572
 30
0.0
 40
5.0
 50
232.90321000000739
 51
315.00000000000921
  0
ARC
  5
9FB2
  8
AM_0
 10
1107.089947321326
 20
736.10088429805694
 30
0.0
 40
5.0
 50
315.00000000000921
 51
49.968850999986898
  0
ARC
  5
9FB3
  8
AM_0
 10
1025.4030273213259
 20
638.85763429805695
 30
0.0
 40
75.0
 50
142.90321000000739
 51
180.00001000000091
  0
ARC
  5
9FB4
  8
AM_0
 10
1025.4030273213259
 20
638.85763429805695
 30
0.0
 40
75.0
 50
52.903206000003003
 51
127.09678999999259
  0
CIRCLE
  5
9FB5
  8
0
 10
1025.4030273213259
 20
639.02916922483769
 30
0.0
 40
132.0919973525049
  0
CIRCLE
  5
9FB6
  8
0
 10
1025.4030273213259
 20
639.02916922483769
 30
0.0
 40
140.09481297078781
  0
TEXT
  5
A205
  8
0
  6
CONTINUOUS
 62
     0
 10
884.36740457422104
 20
1033.195212977548
 30
0.0
 40
15.0
  1
VX15-120EMF~VX15-200EMF
  0
LINE
  5
A47E
  8
0
  6
CONTINUOUS
 62
     7
 10
717.63246338246051
 20
1057.948411168803
 30
0.0
 11
779.63240338246044
 21
1057.948411168803
 31
0.0
  0
LINE
  5
A47F
  8
0
  6
CONTINUOUS
 62
     7
 10
544.63246338246029
 20
916.94841116880309
 30
0.0
 11
660.7892033824603
 21
912.89213116880296
 31
0.0
  0
LINE
  5
A480
  8
0
  6
CONTINUOUS
 62
     7
 10
656.28260338246025
 20
1136.7900211688029
 30
0.0
 11
667.63252338246025
 21
1145.1138111688031
 31
0.0
  0
LINE
  5
A481
  8
0
  6
CONTINUOUS
 62
     7
 10
664.15022338246047
 20
911.43077116880306
 30
0.0
 11
667.63252338246025
 21
907.94847116880328
 31
0.0
  0
LINE
  5
A482
  8
0
  6
CONTINUOUS
 62
     7
 10
717.63246338246051
 20
1041.948411168803
 30
0.0
 11
779.63240338246044
 21
1041.948411168803
 31
0.0
  0
LINE
  5
A483
  8
0
  6
CONTINUOUS
 62
     7
 10
697.63240338246067
 20
1079.9484711688031
 30
0.0
 11
697.63240338246067
 21
1019.9484711688031
 31
0.0
  0
LINE
  5
A484
  8
0
  6
CONTINUOUS
 62
     7
 10
694.63246338246017
 20
1079.9484711688031
 30
0.0
 11
697.63240338246067
 21
1079.9484711688031
 31
0.0
  0
LINE
  5
A485
  8
0
  6
CONTINUOUS
 62
     7
 10
717.63240338246055
 20
1057.948411168803
 30
0.0
 11
717.63240338246055
 21
1041.948411168803
 31
0.0
  0
LINE
  5
A486
  8
0
  6
CONTINUOUS
 62
     7
 10
779.63240338246044
 20
1077.4484711688031
 30
0.0
 11
779.63240338246044
 21
1022.4484711688031
 31
0.0
  0
LINE
  5
A487
  8
0
  6
CONTINUOUS
 62
     7
 10
697.63240338246067
 20
1022.4484711688031
 30
0.0
 11
779.63240338246044
 21
1022.4484711688031
 31
0.0
  0
LINE
  5
A488
  8
0
  6
CONTINUOUS
 62
     7
 10
697.63240338246067
 20
1077.4484711688031
 30
0.0
 11
779.63240338246044
 21
1077.4484711688031
 31
0.0
  0
LINE
  5
A489
  8
0
  6
CONTINUOUS
 62
     7
 10
656.28260338246025
 20
963.10679116880328
 30
0.0
 11
667.63252338246025
 21
954.78300116880325
 31
0.0
  0
LINE
  5
A48A
  8
0
  6
CONTINUOUS
 62
     7
 10
689.63246338246006
 20
909.94847116880328
 30
0.0
 11
694.63246338246017
 21
909.94847116880328
 31
0.0
  0
LINE
  5
A48B
  8
0
  6
CONTINUOUS
 62
     7
 10
626.9820133824602
 20
952.58439116880311
 30
0.0
 11
665.22126338246028
 21
929.4419411688034
 31
0.0
  0
LINE
  5
A48C
  8
0
  6
CONTINUOUS
 62
     7
 10
629.57087338246038
 20
964.07493116880357
 30
0.0
 11
653.32569338246049
 21
964.07493116880357
 31
0.0
  0
LINE
  5
A48D
  8
0
  6
CONTINUOUS
 62
     7
 10
629.56160338246025
 20
962.29802116880342
 30
0.0
 11
665.13069338246021
 21
940.77159116880307
 31
0.0
  0
LINE
  5
A48E
  8
0
  6
CONTINUOUS
 62
     7
 10
624.57087338246038
 20
956.86204116880344
 30
0.0
 11
624.57087338246038
 21
959.07493116880357
 31
0.0
  0
LINE
  5
A48F
  8
0
  6
CONTINUOUS
 62
     7
 10
544.63246338246029
 20
1182.948411168803
 30
0.0
 11
660.7892033824603
 21
1187.0047411688031
 31
0.0
  0
LINE
  5
A490
  8
0
  6
CONTINUOUS
 62
     7
 10
667.63246338246017
 20
1209.3517311688031
 30
0.0
 11
667.63246338246017
 21
890.54521116880346
 31
0.0
  0
LINE
  5
A491
  8
0
  6
CONTINUOUS
 62
     7
 10
694.63246338246017
 20
1019.9484711688031
 30
0.0
 11
697.63240338246067
 21
1019.9484711688031
 31
0.0
  0
LINE
  5
A492
  8
0
  6
CONTINUOUS
 62
     7
 10
664.15028338246032
 20
1188.4661111688031
 30
0.0
 11
667.63252338246025
 21
1191.9483411688029
 31
0.0
  0
LINE
  5
A493
  8
0
  6
CONTINUOUS
 62
     7
 10
672.45808338246025
 20
1214.3487411688029
 30
0.0
 11
689.63252338246002
 21
1214.9484711688031
 31
0.0
  0
LINE
  5
A494
  8
0
  6
CONTINUOUS
 62
     7
 10
672.45802338246017
 20
885.54820116880296
 30
0.0
 11
689.63252338246002
 21
884.94847116880328
 31
0.0
  0
LINE
  5
A495
  8
0
  6
CONTINUOUS
 62
     7
 10
689.63246338246006
 20
1214.9484711688031
 30
0.0
 11
689.63246338246006
 21
884.94841116880355
 31
0.0
  0
LINE
  5
A496
  8
0
  6
CONTINUOUS
 62
     7
 10
689.63246338246006
 20
1189.9484711688031
 30
0.0
 11
694.63246338246017
 21
1189.9484711688031
 31
0.0
  0
LINE
  5
A497
  8
0
  6
CONTINUOUS
 62
     7
 10
694.63246338246017
 20
1189.9484711688031
 30
0.0
 11
694.63246338246017
 21
909.94847116880328
 31
0.0
  0
LINE
  5
A498
  8
0
  6
CONTINUOUS
 62
     7
 10
676.63252338246025
 20
1174.2975911688029
 30
0.0
 11
676.63252338246025
 21
925.59935116880342
 31
0.0
  0
LINE
  5
A499
  8
0
  6
CONTINUOUS
 62
     7
 10
629.57087338246038
 20
1135.8220011688029
 30
0.0
 11
653.32569338246049
 21
1135.8220011688029
 31
0.0
  0
LINE
  5
A49A
  8
0
  6
CONTINUOUS
 62
     7
 10
624.57087338246038
 20
1143.0348311688031
 30
0.0
 11
624.57087338246038
 21
1140.8220011688029
 31
0.0
  0
LINE
  5
A49B
  8
0
  6
CONTINUOUS
 62
     7
 10
629.56160338246025
 20
1137.5988611688031
 30
0.0
 11
665.13069338246021
 21
1159.125351168803
 31
0.0
  0
LINE
  5
A49C
  8
0
  6
CONTINUOUS
 62
     7
 10
626.9819433824606
 20
1147.3125411688029
 30
0.0
 11
665.22126338246028
 21
1170.4549411688031
 31
0.0
  0
ARC
  5
A49D
  8
0
  6
CONTINUOUS
 62
     7
 10
653.32569338246049
 20
1140.8220011688029
 30
0.0
 40
5.0
 50
270.0
 51
306.25554999999889
  0
ARC
  5
A49E
  8
0
  6
CONTINUOUS
 62
     7
 10
660.61470338246045
 20
907.89524116880295
 30
0.0
 40
5.0
 50
45.000000999999187
 51
88.000000000002998
  0
ARC
  5
A49F
  8
0
  6
CONTINUOUS
 62
     7
 10
660.61470338246045
 20
1192.0016911688031
 30
0.0
 40
5.0
 50
271.99999999999699
 51
315.0000000000046
  0
ARC
  5
A4A0
  8
0
  6
CONTINUOUS
 62
     7
 10
672.63246338246029
 20
890.54521116880346
 30
0.0
 40
5.0
 50
179.999989999999
 51
268.00000999999878
  0
ARC
  5
A4A1
  8
0
  6
CONTINUOUS
 62
     7
 10
717.63246338246051
 20
1049.948411168803
 30
0.0
 40
8.0000113999999982
 50
90.00000299999769
 51
270.0
  0
ARC
  5
A4A2
  8
0
  6
CONTINUOUS
 62
     7
 10
629.57087338246038
 20
1143.0348311688031
 30
0.0
 40
5.0
 50
121.1823599999997
 51
180.000010000001
  0
ARC
  5
A4A3
  8
0
  6
CONTINUOUS
 62
     7
 10
662.63246338246017
 20
1174.732521168803
 30
0.0
 40
5.0
 50
301.18235999999968
 51
0.0
  0
ARC
  5
A4A4
  8
0
  6
CONTINUOUS
 62
     7
 10
629.57087338246038
 20
1140.8220011688029
 30
0.0
 40
5.0
 50
179.999989999999
 51
270.0
  0
ARC
  5
A4A5
  8
0
  6
CONTINUOUS
 62
     7
 10
629.57087338246038
 20
959.07493116880357
 30
0.0
 40
5.0
 50
90.00000299999769
 51
180.000010000001
  0
ARC
  5
A4A6
  8
0
  6
CONTINUOUS
 62
     7
 10
662.63246338246017
 20
925.16435116880348
 30
0.0
 40
5.0
 50
0.0
 51
58.817640999998339
  0
ARC
  5
A4A7
  8
0
  6
CONTINUOUS
 62
     7
 10
629.57087338246038
 20
956.86204116880344
 30
0.0
 40
5.0
 50
179.999989999999
 51
238.81764999999371
  0
ARC
  5
A4A8
  8
0
  6
CONTINUOUS
 62
     7
 10
668.63246338246029
 20
983.61180116880337
 30
0.0
 40
8.0
 50
270.0
 51
0.0
  0
ARC
  5
A4A9
  8
0
  6
CONTINUOUS
 62
     7
 10
653.32569338246049
 20
959.07493116880357
 30
0.0
 40
5.0
 50
53.744452999999368
 51
90.00000299999769
  0
ARC
  5
A4AA
  8
0
  6
CONTINUOUS
 62
     7
 10
668.63246338246029
 20
925.59935116880342
 30
0.0
 40
8.0
 50
270.0
 51
0.0
  0
ARC
  5
A4AB
  8
0
  6
CONTINUOUS
 62
     7
 10
672.63246338246029
 20
1209.3517311688031
 30
0.0
 40
5.0
 50
91.999998000000787
 51
180.000010000001
  0
ARC
  5
A4AC
  8
0
  6
CONTINUOUS
 62
     7
 10
668.63246338246029
 20
1116.2850811688029
 30
0.0
 40
8.0
 50
0.0
 51
90.00000299999769
  0
ARC
  5
A4AD
  8
0
  6
CONTINUOUS
 62
     7
 10
668.63246338246029
 20
1174.2975911688029
 30
0.0
 40
8.0
 50
0.0
 51
90.00000299999769
  0
POLYLINE
  5
A4AE
  8
0
  6
CONTINUOUS
 62
     7
 66
     1
 10
0.0
 20
0.0
 30
0.0
  0
VERTEX
  5
A4AF
  8
0
  6
CONTINUOUS
 62
     7
 10
657.71600338246026
 20
933.98417116880319
 30
0.0
 42
0.0020909347
  0
VERTEX
  5
A4B0
  8
0
  6
CONTINUOUS
 62
     7
 10
658.6818533824603
 20
926.94366116880337
 30
0.0
 42
0.0020881749
  0
VERTEX
  5
A4B1
  8
0
  6
CONTINUOUS
 62
     7
 10
659.70643338246009
 20
919.91204116880328
 30
0.0
 42
0.0020849591
  0
VERTEX
  5
A4B2
  8
0
  6
CONTINUOUS
 62
     7
 10
660.7892033824603
 20
912.89219116880327
 30
0.0
  0
SEQEND
  5
A4B3
  8
0
 62
     7
  0
POLYLINE
  5
A4B4
  8
0
  6
CONTINUOUS
 62
     7
 66
     1
 10
0.0
 20
0.0
 30
0.0
  0
VERTEX
  5
A4B5
  8
0
  6
CONTINUOUS
 62
     7
 10
655.53529338246017
 20
1136.3367211688039
 30
0.0
 42
0.01720808
  0
VERTEX
  5
A4B6
  8
0
  6
CONTINUOUS
 62
     7
 10
651.11902338246045
 20
1078.961531168803
 30
0.0
 42
0.0088311605
  0
VERTEX
  5
A4B7
  8
0
  6
CONTINUOUS
 62
     7
 10
650.40217338246032
 20
1049.9484711688031
 30
0.0
 42
0.025919753
  0
VERTEX
  5
A4B8
  8
0
  6
CONTINUOUS
 62
     7
 10
654.27100338246044
 20
963.98478116880347
 30
0.0
  0
SEQEND
  5
A4B9
  8
0
 62
     7
  0
POLYLINE
  5
A4BA
  8
0
  6
CONTINUOUS
 62
     7
 66
     1
 10
0.0
 20
0.0
 30
0.0
  0
VERTEX
  5
A4BB
  8
0
  6
CONTINUOUS
 62
     7
 10
662.75758338246021
 20
1187.0734711688031
 30
0.0
  0
VERTEX
  5
A4BC
  8
0
  6
CONTINUOUS
 62
     7
 10
659.52732338246017
 20
1167.0089611688029
 30
0.0
 42
-1.0
  0
SEQEND
  5
A4BD
  8
0
 62
     7
  0
ENDSEC
  0
EOF
