  0
SECTION
  2
HEADER
  9
$ACADVER
  1
AC1009
  9
$INSBASE
 10
0.0
 20
0.0
 30
0.0
  9
$EXTMIN
 10
113.0070676801619
 20
444.94135221246103
 30
-0.0000000000000053
  9
$EXTMAX
 10
1402.321337213443
 20
1228.4342144089901
 30
0.0000000000000099
  9
$LIMMIN
 10
-2.7186596955807532
 20
0.0935949875579354
  9
$LIMMAX
 10
1704.281340304419
 20
1110.0935949875579
  9
$ORTHOMODE
 70
     1
  9
$REGENMODE
 70
     1
  9
$FILLMODE
 70
     1
  9
$QTEXTMODE
 70
     0
  9
$MIRRTEXT
 70
     0
  9
$DRAGMODE
 70
     2
  9
$LTSCALE
 40
1.0
  9
$OSMODE
 70
   551
  9
$ATTMODE
 70
     1
  9
$TEXTSIZE
 40
2.5
  9
$TRACEWID
 40
1.0
  9
$TEXTSTYLE
  7
STANDARD
  9
$CLAYER
  8
0
  9
$CELTYPE
  6
BYLAYER
  9
$CECOLOR
 62
   256
  9
$DIMSCALE
 40
1.0
  9
$DIMASZ
 40
2.0
  9
$DIMEXO
 40
1.0
  9
$DIMDLI
 40
8.0
  9
$DIMRND
 40
0.0
  9
$DIMDLE
 40
0.0
  9
$DIMEXE
 40
1.0
  9
$DIMTP
 40
-0.025
  9
$DIMTM
 40
0.043
  9
$DIMTXT
 40
2.5
  9
$DIMCEN
 40
0.0
  9
$DIMTSZ
 40
0.0
  9
$DIMTOL
 70
     0
  9
$DIMLIM
 70
     0
  9
$DIMTIH
 70
     0
  9
$DIMTOH
 70
     0
  9
$DIMSE1
 70
     0
  9
$DIMSE2
 70
     0
  9
$DIMTAD
 70
     3
  9
$DIMZIN
 70
     8
  9
$DIMBLK
  1

  9
$DIMASO
 70
     1
  9
$DIMSHO
 70
     1
  9
$DIMPOST
  1

  9
$DIMAPOST
  1
"
  9
$DIMALT
 70
     0
  9
$DIMALTD
 70
     2
  9
$DIMALTF
 40
0.0393701
  9
$DIMLFAC
 40
1.0
  9
$DIMTOFL
 70
     1
  9
$DIMTVP
 40
0.0
  9
$DIMTIX
 70
     0
  9
$DIMSOXD
 70
     0
  9
$DIMSAH
 70
     0
  9
$DIMBLK1
  1

  9
$DIMBLK2
  1

  9
$DIMSTYLE
  2
AM_JIS
  9
$DIMCLRD
 70
     2
  9
$DIMCLRE
 70
     2
  9
$DIMCLRT
 70
     4
  9
$DIMTFAC
 40
0.71
  9
$DIMGAP
 40
1.5
  9
$LUNITS
 70
     2
  9
$LUPREC
 70
     2
  9
$SKETCHINC
 40
1.0
  9
$FILLETRAD
 40
0.0
  9
$AUNITS
 70
     0
  9
$AUPREC
 70
     0
  9
$MENU
  1
.
  9
$ELEVATION
 40
0.0
  9
$PELEVATION
 40
0.0
  9
$THICKNESS
 40
0.0
  9
$LIMCHECK
 70
     0
  9
$BLIPMODE
 70
     0
  9
$CHAMFERA
 40
3.0
  9
$CHAMFERB
 40
3.0
  9
$SKPOLY
 70
     0
  9
$TDCREATE
 40
2456829.3841110538
  9
$TDUPDATE
 40
2458540.662646817
  9
$TDINDWG
 40
0.5969326157
  9
$TDUSRTIMER
 40
0.5969322569
  9
$USRTIMER
 70
     1
  9
$ANGBASE
 50
0.0
  9
$ANGDIR
 70
     0
  9
$PDMODE
 70
     0
  9
$PDSIZE
 40
0.0
  9
$PLINEWID
 40
0.0
  9
$COORDS
 70
     1
  9
$SPLFRAME
 70
     0
  9
$SPLINETYPE
 70
     6
  9
$SPLINESEGS
 70
     8
  9
$ATTDIA
 70
     1
  9
$ATTREQ
 70
     1
  9
$HANDLING
 70
     1
  9
$HANDSEED
  5
99B7
  9
$SURFTAB1
 70
     6
  9
$SURFTAB2
 70
     6
  9
$SURFTYPE
 70
     6
  9
$SURFU
 70
     6
  9
$SURFV
 70
     6
  9
$UCSNAME
  2

  9
$UCSORG
 10
0.0
 20
0.0
 30
0.0
  9
$UCSXDIR
 10
1.0
 20
0.0
 30
0.0
  9
$UCSYDIR
 10
0.0
 20
1.0
 30
0.0
  9
$PUCSNAME
  2

  9
$PUCSORG
 10
0.0
 20
0.0
 30
0.0
  9
$PUCSXDIR
 10
1.0
 20
0.0
 30
0.0
  9
$PUCSYDIR
 10
0.0
 20
1.0
 30
0.0
  9
$USERI1
 70
     0
  9
$USERI2
 70
     0
  9
$USERI3
 70
     0
  9
$USERI4
 70
     0
  9
$USERI5
 70
     0
  9
$USERR1
 40
0.0
  9
$USERR2
 40
0.0
  9
$USERR3
 40
0.0
  9
$USERR4
 40
0.0
  9
$USERR5
 40
0.0
  9
$WORLDVIEW
 70
     1
  9
$SHADEDGE
 70
     3
  9
$SHADEDIF
 70
    70
  9
$TILEMODE
 70
     1
  9
$MAXACTVP
 70
    64
  9
$PLIMCHECK
 70
     0
  9
$PEXTMIN
 10
1.0000000000000000E+020
 20
1.0000000000000000E+020
 30
1.0000000000000000E+020
  9
$PEXTMAX
 10
-1.0000000000000000E+020
 20
-1.0000000000000000E+020
 30
-1.0000000000000000E+020
  9
$PLIMMIN
 10
0.0
 20
0.0
  9
$PLIMMAX
 10
420.0
 20
297.0
  9
$UNITMODE
 70
     0
  9
$VISRETAIN
 70
     1
  9
$PLINEGEN
 70
     0
  9
$PSLTSCALE
 70
     1
  0
ENDSEC
  0
SECTION
  2
TABLES
  0
TABLE
  2
VPORT
 70
     1
  0
VPORT
  2
*ACTIVE
 70
     0
 10
0.0
 20
0.0
 11
1.0
 21
1.0
 12
757.66420244680216
 22
836.68778331072576
 13
0.0
 23
0.0
 14
15.0
 24
15.0
 15
60.0
 25
60.0
 16
0.0
 26
0.0
 36
1.0
 17
0.0
 27
0.0
 37
0.0
 40
788.87153173105946
 41
1.7571592210767459
 42
50.0
 43
0.0
 44
0.0
 50
0.0
 51
0.0
 71
    16
 72
  1000
 73
     1
 74
     3
 75
     0
 76
     0
 77
     0
 78
     0
  0
ENDTAB
  0
TABLE
  2
LTYPE
 70
    25
  0
LTYPE
  2
CONTINUOUS
 70
     0
  3
Solid line
 72
    65
 73
     0
 40
0.0
  0
LTYPE
  2
CENTER
 70
     0
  3
Center ____ _ ____ _ ____ _ ____ _ ____ _ ____
 72
    65
 73
     4
 40
50.799999999999997
 49
31.75
 49
-6.3499999999999979
 49
6.3499999999999979
 49
-6.3499999999999979
  0
LTYPE
  2
AM_ISO02W050
 70
     0
  3
__ __ __ __ __ __ __ __ __ __ __ __ __ __ __
 72
    65
 73
     2
 40
7.5
 49
6.0
 49
-1.5
  0
LTYPE
  2
AM_ISO08W050
 70
     0
  3
____ . ____ . ____ . ____ . ____ . ____ . ____
 72
    65
 73
     4
 40
18.0
 49
12.0
 49
-1.5
 49
3.0
 49
-1.5
  0
LTYPE
  2
AM_ISO09W050
 70
     0
  3
_____ . . _____ . . _____ . . ____ .. ____
 72
    65
 73
     6
 40
22.5
 49
12.0
 49
-1.5
 49
3.0
 49
-1.5
 49
3.0
 49
-1.5
  0
LTYPE
  2
AMCONSTR
 70
     0
  3
_______________________
 72
    65
 73
     2
 40
9999.0
 49
9999.0
 49
0.0
  0
LTYPE
  2
AM_ISO08W050X2
 70
     0
  3
__ . __ . __ . __ . __ . __
 72
    65
 73
     4
 40
9.0
 49
6.0
 49
-0.75
 49
1.5
 49
-0.75
  0
LTYPE
  2
AM_ISO02W050X2
 70
     0
  3
 _ _ _ _ _ _ _ _ _ _ _ _
 72
    65
 73
     2
 40
3.75
 49
3.0
 49
-0.75
  0
LTYPE
  2
AMZIGZAG
 70
     0
  3
/\/-/\/-/\/-/\/-/\/-/\/
 72
    65
 73
     2
 40
11.0001
 49
0.0001
 49
-11.0
  0
LTYPE
  2
ACANSTGBM
 70
     0
  3
__ . . __ . .
 72
    65
 73
     6
 40
9.0
 49
4.0
 49
-1.0
 49
1.0
 49
-1.0
 49
1.0
 49
-1.0
  0
LTYPE
  2
ACANSTGLM
 70
     0
  3
_ _ _ _ _
 72
    65
 73
     2
 40
3.0
 49
2.0
 49
-1.0
  0
LTYPE
  2
ACISOWELD
 70
     0
  3
_ _ _ _ _
 72
    65
 73
     2
 40
2.0
 49
2.0
 49
-1.0
  0
LTYPE
  2
ACISOTGB
 70
     0
  3
__ . . __ . .
 72
    65
 73
     6
 40
9.0
 49
4.0
 49
-1.0
 49
1.0
 49
-1.0
 49
1.0
 49
-1.0
  0
LTYPE
  2
ACISOTGL
 70
     0
  3
_ _ _ _ _
 72
    65
 73
     2
 40
3.0
 49
2.0
 49
-1.0
  0
LTYPE
  2
ACJISTGB
 70
     0
  3
__ . . __ . .
 72
    65
 73
     6
 40
9.0
 49
4.0
 49
-1.0
 49
1.0
 49
-1.0
 49
1.0
 49
-1.0
  0
LTYPE
  2
ACJISTGL
 70
     0
  3
_ _ _ _ _
 72
    65
 73
     2
 40
3.0
 49
2.0
 49
-1.0
  0
LTYPE
  2
ACJISWELD
 70
     0
  3
_ _ _ _ _
 72
    65
 73
     2
 40
2.0
 49
2.0
 49
-1.0
  0
LTYPE
  2
HIDDEN
 70
     0
  3
Hidden __ __ __ __ __ __ __ __ __ __ __ __ __ _
 72
    65
 73
     2
 40
9.5249999999999968
 49
6.349999999999997
 49
-3.174999999999998
  0
LTYPE
  2
PHANTOM2
 70
     0
  3
Phantom (.5x) ___ _ _ ___ _ _ ___ _ _ ___ _ _
 72
    65
 73
     6
 40
31.75
 49
15.875
 49
-3.174999999999998
 49
3.174999999999998
 49
-3.174999999999998
 49
3.174999999999998
 49
-3.174999999999998
  0
LTYPE
  2
CENTER2
 70
     0
  3
Center (.5x) ___ _ ___ _ ___ _ ___ _ ___ _ ___
 72
    65
 73
     4
 40
1.125
 49
0.75
 49
-0.125
 49
0.125
 49
-0.125
  0
LTYPE
  2
HIDDEN2
 70
     0
  3
Hidden (.5x) _ _ _ _ _ _ _ _ _ _ _ _ _ _ _ _ _
 72
    65
 73
     2
 40
0.1875
 49
0.125
 49
-0.0625
  0
LTYPE
  2
AMZIGZAG2
 70
     0
  3
/\/-/\/-/\/-/\/-/\/-/\/
 72
    65
 73
     2
 40
0.4401
 49
0.0001
 49
-0.4400000000000003
  0
LTYPE
  2
ACANSTGB
 70
     0
  3
__ . . __ . .
 72
    65
 73
     6
 40
0.35433070866
 49
0.15748031496
 49
-0.03937007874
 49
0.03937007874
 49
-0.03937007874
 49
0.03937007874
 49
-0.03937007874
  0
LTYPE
  2
ACANSTGL
 70
     0
  3
_ _ _ _ _
 72
    65
 73
     2
 40
0.11811023622
 49
0.07874015748
 49
-0.03937007874
  0
ENDTAB
  0
TABLE
  2
LAYER
 70
     4
  0
LAYER
  2
0
 70
     0
 62
     7
  6
CONTINUOUS
  0
LAYER
  2
DEFPOINTS
 70
     0
 62
     7
  6
CONTINUOUS
  0
LAYER
  2
AM_CL
 70
     0
 62
     1
  6
AMCONSTR
  0
LAYER
  2
AM_5
 70
     0
 62
     2
  6
CONTINUOUS
  0
ENDTAB
  0
TABLE
  2
STYLE
 70
     8
  0
STYLE
  2
STANDARD
 70
     0
 40
0.0
 41
0.7400000000000003
 50
0.0
 71
     0
 42
2.5
  3
txt.shx
  4
bigfont.shx
  0
STYLE
  2

 70
     1
 40
0.0
 41
1.0
 50
0.0
 71
     0
 42
2.5
  3
ltypeshp.shx
  4

  0
STYLE
  2
ACANSTS
 70
     0
 40
1.0
 41
1.0
 50
0.0
 71
     0
 42
2.5
  3
romans.shx
  4
bigfont.shx
  0
STYLE
  2
ACANSGDT
 70
     0
 40
0.0
 41
1.0
 50
0.0
 71
     0
 42
2.5
  3
amgdtans.shx
  4

  0
STYLE
  2
ACISOTS
 70
     0
 40
1.0
 41
1.0
 50
0.0
 71
     0
 42
2.5
  3
isocp.shx
  4
extfont.shx
  0
STYLE
  2
ACISOGDT
 70
     0
 40
0.0
 41
1.0
 50
0.0
 71
     0
 42
2.5
  3
amgdt.shx
  4

  0
STYLE
  2
ACJISGDT
 70
     0
 40
0.0
 41
1.0
 50
0.0
 71
     0
 42
2.5
  3
amgdt.shx
  4

  0
STYLE
  2
ACJISTS
 70
     0
 40
1.0
 41
1.0
 50
0.0
 71
     0
 42
2.5
  3
isocp.shx
  4
extfont.shx
  0
ENDTAB
  0
TABLE
  2
VIEW
 70
     6
  0
VIEW
  2
AM_VIEW1
 70
     0
 40
555.00000000000011
 10
583.88276379196373
 20
832.59359498755816
 41
1173.202846975089
 11
0.0
 21
0.0
 31
1.0
 12
0.0
 22
0.0
 32
0.0
 42
50.0
 43
0.0
 44
0.0
 50
0.0
 71
    16
  0
VIEW
  2
AM_VIEW2
 70
     0
 40
555.00000000000011
 10
1117.6799168168741
 20
832.59359498755816
 41
1173.202846975089
 11
0.0
 21
0.0
 31
1.0
 12
0.0
 22
0.0
 32
0.0
 42
50.0
 43
0.0
 44
0.0
 50
0.0
 71
    16
  0
VIEW
  2
AM_VIEW3
 70
     0
 40
555.00000000000011
 10
583.88276379196373
 20
277.59359498755799
 41
1173.202846975089
 11
0.0
 21
0.0
 31
1.0
 12
0.0
 22
0.0
 32
0.0
 42
50.0
 43
0.0
 44
0.0
 50
0.0
 71
    16
  0
VIEW
  2
AM_VIEW4
 70
     0
 40
555.00000000000011
 10
1117.6799168168741
 20
277.59359498755799
 41
1173.202846975089
 11
0.0
 21
0.0
 31
1.0
 12
0.0
 22
0.0
 32
0.0
 42
50.0
 43
0.0
 44
0.0
 50
0.0
 71
    16
  0
VIEW
  2
AM_VIEW5
 70
     0
 40
555.00000000000011
 10
850.78134030441925
 20
555.09359498755794
 41
1173.202846975089
 11
0.0
 21
0.0
 31
1.0
 12
0.0
 22
0.0
 32
0.0
 42
50.0
 43
0.0
 44
0.0
 50
0.0
 71
    16
  0
VIEW
  2
AM_VIEW6
 70
     0
 40
1109.9889000000001
 10
850.78134030441925
 20
555.09359498755794
 41
2346.3822298932391
 11
0.0
 21
0.0
 31
1.0
 12
0.0
 22
0.0
 32
0.0
 42
50.0
 43
0.0
 44
0.0
 50
0.0
 71
    16
  0
ENDTAB
  0
TABLE
  2
UCS
 70
     0
  0
ENDTAB
  0
TABLE
  2
APPID
 70
   162
  0
APPID
  2
ACAD
 70
     0
  0
APPID
  2
ACADANNOTATIVE
 70
     0
  0
APPID
  2
ACAD_MLEADERVER
 70
     0
  0
APPID
  2
MCAD_NO_VIS
 70
     0
  0
APPID
  2
ACAD_TEMP_GRAPHIC
 70
     0
  0
APPID
  2
AD_DRAW
 70
     0
  0
APPID
  2
ACATTRIBSERVICES
 70
     0
  0
APPID
  2
DESIGNERASSEMBLIES
 70
     0
  0
APPID
  2
ACADM_DIM_EDIT
 70
     0
  0
APPID
  2
AMDT_DM_ADJ
 70
     0
  0
APPID
  2
GENIUS_GENDIMSH_14
 70
     0
  0
APPID
  2
GEVID1057795304
 70
     0
  0
APPID
  2
GEVDC
 70
     0
  0
APPID
  2
GEVCON
 70
     0
  0
APPID
  2
GENIUS_GENBH_13
 70
     0
  0
APPID
  2
GENIUS_GENOENT_13
 70
     0
  0
APPID
  2
GENIUS_GENOBJ-NBEHI-BHF_13
 70
     0
  0
APPID
  2
GENIUS_GENOLIS_13
 70
     0
  0
APPID
  2
GENIUS_GENODEF_13
 70
     0
  0
APPID
  2
GENIUS_GENOREF_13
 70
     0
  0
APPID
  2
GENIUS_GENOBJ-NBEHI-BHB_13
 70
     0
  0
APPID
  2
GENIUS_GENOBJ-F-SCPASSM_13
 70
     0
  0
APPID
  2
GENIUS_GENDTOL_13
 70
     0
  0
APPID
  2
GENIUS_GENTRA_14
 70
     0
  0
APPID
  2
ASURF_PCURVE_APPNAME
 70
     0
  0
APPID
  2
GENIUS_GENCFG_13
 70
     0
  0
APPID
  2
GENIUS_GE3CFG0_13
 70
     0
  0
APPID
  2
GENIUS_GENCFG0_13
 70
     0
  0
APPID
  2
GENIUS_GENCFG1_13
 70
     0
  0
APPID
  2
GENIUS_GENCFG2_13
 70
     0
  0
APPID
  2
GENIUS_GENCFG3_13
 70
     0
  0
APPID
  2
GENIUS_GENCFG4_13
 70
     0
  0
APPID
  2
GENIUS_GEVCFG0_13
 70
     0
  0
APPID
  2
GENIUS_GENOBJ-N-TIT_13
 70
     0
  0
APPID
  2
GENIUS_GENTITLE_13
 70
     0
  0
APPID
  2
GENIUS_GENSCREG_15
 70
     0
  0
APPID
  2
GENIUS_GENOBJ-N-SDF_13
 70
     0
  0
APPID
  2
GENIUS_GENFIL_13
 70
     0
  0
APPID
  2
GENIUS_GENOBJ-N-CHA_13
 70
     0
  0
APPID
  2
GENIUS_GEFSH_13
 70
     0
  0
APPID
  2
GENIUS_GENOBJ-F-SHS_13
 70
     0
  0
APPID
  2
GENIUS_GENOBJ-N-CEN_13
 70
     0
  0
APPID
  2
GENIUS_GENREC_14
 70
     0
  0
APPID
  2
GENIUS_GENOBJ-N-REC_13
 70
     0
  0
APPID
  2
GENIUS_GENOBJ-N-HTC_13
 70
     0
  0
APPID
  2
GENIUS_GENHATCH_13
 70
     0
  0
APPID
  2
ACAD_PSEXT
 70
     0
  0
APPID
  2
ACAD_EXEMPT_FROM_CAD_STANDARDS
 70
     0
  0
APPID
  2
ACAECLAYERSTANDARD
 70
     0
  0
APPID
  2
GENIUS_GENCEN_19
 70
     0
  0
APPID
  2
ACAD_DSTYLE_DIMINSPECT
 70
     0
  0
APPID
  2
ACAD_DSTYLE_DIMANGULAR_EXT
 70
     0
  0
APPID
  2
ACADANNOPO
 70
     0
  0
APPID
  2
ACAD_NAV_VCDISPLAY
 70
     0
  0
APPID
  2
GENIUS_GENOBJ-N-FIL_13
 70
     0
  0
APPID
  2
ACAUTHENVIRON
 70
     0
  0
APPID
  2
ACDBDYNAMICBLOCKTRUENAME
 70
     0
  0
APPID
  2
ACDBDYNAMICBLOCKGUID
 70
     0
  0
APPID
  2
ACDBBLOCKREPETAG
 70
     0
  0
APPID
  2
ACAD_DSTYLE_DIMBREAK
 70
     0
  0
APPID
  2
ACAD_DSTYLE_DIMJAG
 70
     0
  0
APPID
  2
GENIUS_GENHINW_13
 70
     0
  0
APPID
  2
GENIUS_FIRSTVISTXT_14
 70
     0
  0
APPID
  2
GENIUS_GENOBJ-N-LEADER_13
 70
     0
  0
APPID
  2
DCO15
 70
     0
  0
APPID
  2
GENIUS_DUMCFG0_13
 70
     0
  0
APPID
  2
ACAD_DSTYLE_DIMTEXT_FILL
 70
     0
  0
APPID
  2
AMG_2DHIDE
 70
     0
  0
APPID
  2
GENIUS_GEFSHEP_13
 70
     0
  0
APPID
  2
GENIUS_GENOBJ-F-SHE_13
 70
     0
  0
APPID
  2
GENIUS_GEFSHE_13
 70
     0
  0
APPID
  2
ACAD_DIMASSOC_DIMLFAC
 70
     0
  0
APPID
  2
ACAD_DIMASSOC_CALC_DIMLFAC
 70
     0
  0
APPID
  2
ACAD_DIMASSOC_OVERRIDDEN_D
 70
     0
  0
APPID
  2
GENIUS_GENOBJ-F-SHSV_13
 70
     0
  0
APPID
  2
GENIUS_GEFWELD_13
 70
     0
  0
APPID
  2
GENIUS_GENOBJ-N-CRS_13
 70
     0
  0
APPID
  2
GENIUS_GENOBJ-N-RSBK_13
 70
     0
  0
APPID
  2
GENIUS_GENOBJ-N-LIB_13
 70
     0
  0
APPID
  2
GENIUS_GENSCALE_13
 70
     0
  0
APPID
  2
GENIUS_GENDREL_13
 70
     0
  0
APPID
  2
GEVPT
 70
     0
  0
APPID
  2
GEVIT
 70
     0
  0
APPID
  2
VCC
 70
     0
  0
APPID
  2
GENBH
 70
     0
  0
APPID
  2
GEVMK
 70
     0
  0
APPID
  2
GENIUS_GENOBJ-F-DESC_13
 70
     0
  0
APPID
  2
GENIUS_GEFDESC_14
 70
     0
  0
APPID
  2
GENIUS_GENOBJ-F-FEAT_13
 70
     0
  0
APPID
  2
GENIUS_GEFFEAT_14
 70
     0
  0
APPID
  2
GENIUS_GEFPARTINS_13
 70
     0
  0
APPID
  2
GENIUS_GENSCREG_13
 70
     0
  0
APPID
  2
GENIUS_GEFSHP_13
 70
     0
  0
APPID
  2
GEVID1025574798
 70
     0
  0
APPID
  2
GEVID1025574769
 70
     0
  0
APPID
  2
GEVID1025757451
 70
     0
  0
APPID
  2
GEVID1240528327
 70
     0
  0
APPID
  2
AMG_2DSTRUCT_BTR
 70
     0
  0
APPID
  2
ACADM_2DVIEW_IGN_NOTIFY
 70
     0
  0
APPID
  2
GEVID1240528328
 70
     0
  0
APPID
  2
GEVID1240528329
 70
     0
  0
APPID
  2
GEVRADREF
 70
     0
  0
APPID
  2
GEVID1240528330
 70
     0
  0
APPID
  2
GEVID1240528331
 70
     0
  0
APPID
  2
GEVID1240528332
 70
     0
  0
APPID
  2
GEVID1240791080
 70
     0
  0
APPID
  2
GEVID1240791081
 70
     0
  0
APPID
  2
GEVID1240791082
 70
     0
  0
APPID
  2
GEVID1240791083
 70
     0
  0
APPID
  2
GEVID1240791084
 70
     0
  0
APPID
  2
GEVID1240791085
 70
     0
  0
APPID
  2
GEVID1240791086
 70
     0
  0
APPID
  2
GEVID1240791087
 70
     0
  0
APPID
  2
GEVID1240791088
 70
     0
  0
APPID
  2
GEVID1240791089
 70
     0
  0
APPID
  2
GEVID1240791090
 70
     0
  0
APPID
  2
GEVID1240791091
 70
     0
  0
APPID
  2
GEVID1240791092
 70
     0
  0
APPID
  2
GEVID1240791093
 70
     0
  0
APPID
  2
GEVID1240791094
 70
     0
  0
APPID
  2
GEVID1240791095
 70
     0
  0
APPID
  2
GEVID1240791096
 70
     0
  0
APPID
  2
GEVID1240791097
 70
     0
  0
APPID
  2
GEVID1240791098
 70
     0
  0
APPID
  2
GEVID1240791099
 70
     0
  0
APPID
  2
GEVID1240791100
 70
     0
  0
APPID
  2
GEVID1240791101
 70
     0
  0
APPID
  2
GEVID1240791102
 70
     0
  0
APPID
  2
GEVID1240791103
 70
     0
  0
APPID
  2
GEVID1240791104
 70
     0
  0
APPID
  2
GEVID1240791105
 70
     0
  0
APPID
  2
GEVID1240875381
 70
     0
  0
APPID
  2
GEVID1240875382
 70
     0
  0
APPID
  2
GEVID1240875383
 70
     0
  0
APPID
  2
GEVID1240875384
 70
     0
  0
APPID
  2
GEVID1240875385
 70
     0
  0
APPID
  2
GEVID1240875386
 70
     0
  0
APPID
  2
GEVID1240875387
 70
     0
  0
APPID
  2
GEVID1240875388
 70
     0
  0
APPID
  2
GEVID1240875389
 70
     0
  0
APPID
  2
GEVID1240875390
 70
     0
  0
APPID
  2
GEVID1240875391
 70
     0
  0
APPID
  2
GEVID1240875392
 70
     0
  0
APPID
  2
GEVID1240875393
 70
     0
  0
APPID
  2
GEVID1240875394
 70
     0
  0
APPID
  2
GEVID1240875395
 70
     0
  0
APPID
  2
GEVID1240875396
 70
     0
  0
APPID
  2
GEVID1240875397
 70
     0
  0
APPID
  2
GEVID1240875398
 70
     0
  0
APPID
  2
GEVID1240875399
 70
     0
  0
APPID
  2
GEVID1240908996
 70
     0
  0
APPID
  2
GEVID1240908997
 70
     0
  0
APPID
  2
GEVID1240908998
 70
     0
  0
APPID
  2
GEVID1240908999
 70
     0
  0
APPID
  2
GEVID1240909000
 70
     0
  0
APPID
  2
GENIUS_GENOBJ-N-ZOO_13
 70
     0
  0
APPID
  2
GENIUS_GENZOO_17
 70
     0
  0
APPID
  2
ACAD_DSTYLE_DIMRADIAL_EXTENSION
 70
     0
  0
APPID
  2
GENIUS_GE3SECT_13
 70
     0
  0
APPID
  2
GEV_VCCNULL_SWITCH_OFF
 70
     0
  0
APPID
  2
ACAD_DSTYLE_DIMTALN
 70
     0
  0
APPID
  2
CONTENTBLOCKDESCRIPTION
 70
     0
  0
ENDTAB
  0
TABLE
  2
DIMSTYLE
 70
    22
  0
DIMSTYLE
  2
AM_ANSI
 70
     0
  3

  4
"
  5

  6

  7

 40
1.0
 41
2.5
 42
1.0
 43
10.0
 44
1.0
 45
0.0
 46
0.0
 47
0.1
 48
0.1
140
3.5
141
0.0
142
0.0
143
0.0393701
144
1.0
145
0.0
146
0.71
147
1.5
 71
     0
 72
     0
 73
     1
 74
     1
 75
     0
 76
     0
 77
     0
 78
     8
170
     0
171
     2
172
     0
173
     0
174
     0
175
     0
176
     2
177
     2
178
     4
  0
DIMSTYLE
  2
AM_ANSI$3
 70
     0
  3

  4
"
  5

  6

  7

 40
1.0
 41
2.5
 42
1.0
 43
10.0
 44
1.0
 45
0.0
 46
0.0
 47
0.1
 48
0.1
140
3.5
141
0.0
142
0.0
143
0.0393701
144
1.0
145
0.0
146
0.71
147
1.5
 71
     0
 72
     0
 73
     1
 74
     1
 75
     0
 76
     0
 77
     0
 78
     8
170
     0
171
     2
172
     0
173
     0
174
     0
175
     0
176
     2
177
     2
178
     4
  0
DIMSTYLE
  2
AM_ANSI$4
 70
     0
  3

  4
"
  5

  6

  7

 40
1.0
 41
2.5
 42
1.0
 43
10.0
 44
1.0
 45
0.0
 46
0.0
 47
0.1
 48
0.1
140
3.5
141
0.0
142
0.0
143
0.0393701
144
1.0
145
0.0
146
0.71
147
1.5
 71
     0
 72
     0
 73
     1
 74
     1
 75
     0
 76
     0
 77
     0
 78
     8
170
     0
171
     2
172
     0
173
     0
174
     0
175
     0
176
     2
177
     2
178
     4
  0
DIMSTYLE
  2
AM_ANSI$7
 70
     0
  3

  4
"
  5

  6

  7

 40
1.0
 41
2.5
 42
1.0
 43
10.0
 44
1.0
 45
0.0
 46
0.0
 47
0.1
 48
0.1
140
5.0
141
0.0
142
0.0
143
0.0393701
144
1.0
145
0.0
146
0.71
147
1.5
 71
     0
 72
     0
 73
     1
 74
     1
 75
     0
 76
     0
 77
     0
 78
     8
170
     0
171
     2
172
     0
173
     0
174
     0
175
     0
176
     2
177
     2
178
     4
  0
DIMSTYLE
  2
AM_ANSI$SF
 70
     0
  3

  4
"
  5

  6

  7

 40
1.0
 41
2.5
 42
1.0
 43
10.0
 44
1.0
 45
0.0
 46
0.0
 47
0.1
 48
0.1
140
3.5
141
0.0
142
0.0
143
0.0393701
144
1.0
145
0.0
146
0.71
147
1.5
 71
     0
 72
     0
 73
     1
 74
     1
 75
     1
 76
     1
 77
     0
 78
     8
170
     0
171
     2
172
     0
173
     0
174
     0
175
     0
176
     2
177
     2
178
     4
  0
DIMSTYLE
  2
AM_ANSI$SH
 70
     0
  3

  4
"
  5

  6
GENAXEH
  7

 40
1.0
 41
2.5
 42
1.0
 43
10.0
 44
1.0
 45
0.0
 46
0.0
 47
0.1
 48
0.1
140
3.5
141
0.0
142
0.0
143
0.0393701
144
1.0
145
0.0
146
0.71
147
1.5
 71
     0
 72
     0
 73
     1
 74
     1
 75
     1
 76
     1
 77
     0
 78
     8
170
     0
171
     2
172
     0
173
     1
174
     0
175
     0
176
     2
177
     2
178
     4
  0
DIMSTYLE
  2
AM_ISO
 70
     0
  3

  4
"
  5

  6

  7

 40
1.0
 41
2.5
 42
1.0
 43
10.0
 44
1.0
 45
0.0
 46
0.0
 47
0.1
 48
0.1
140
3.5
141
0.0
142
0.0
143
0.0393701
144
1.0
145
0.0
146
0.71
147
1.5
 71
     0
 72
     0
 73
     0
 74
     0
 75
     0
 76
     0
 77
     1
 78
     8
170
     0
171
     2
172
     1
173
     0
174
     0
175
     0
176
   256
177
   256
178
     2
  0
DIMSTYLE
  2
AM_ISO$3
 70
     0
  3

  4
"
  5

  6

  7

 40
1.0
 41
2.5
 42
1.0
 43
10.0
 44
1.0
 45
0.0
 46
0.0
 47
0.1
 48
0.1
140
3.5
141
0.0
142
0.0
143
0.0393701
144
1.0
145
0.0
146
0.71
147
1.5
 71
     0
 72
     0
 73
     0
 74
     1
 75
     0
 76
     0
 77
     1
 78
     8
170
     0
171
     2
172
     0
173
     0
174
     0
175
     0
176
   256
177
   256
178
     2
  0
DIMSTYLE
  2
AM_ISO$4
 70
     0
  3

  4
"
  5

  6

  7

 40
1.0
 41
2.5
 42
1.0
 43
10.0
 44
1.0
 45
0.0
 46
0.0
 47
0.1
 48
0.1
140
3.5
141
0.0
142
0.0
143
0.0393701
144
1.0
145
0.0
146
0.71
147
1.5
 71
     0
 72
     0
 73
     0
 74
     1
 75
     0
 76
     0
 77
     1
 78
     8
170
     0
171
     2
172
     0
173
     0
174
     0
175
     0
176
   256
177
   256
178
     2
  0
DIMSTYLE
  2
AM_ISO$6
 70
     0
  3

  4
"
  5

  6

  7

 40
1.0
 41
2.5
 42
1.0
 43
10.0
 44
1.0
 45
0.0
 46
0.0
 47
0.1
 48
0.1
140
3.5
141
0.0
142
0.0
143
0.0393701
144
1.0
145
0.0
146
0.71
147
1.5
 71
     0
 72
     0
 73
     0
 74
     0
 75
     0
 76
     0
 77
     0
 78
     8
170
     0
171
     2
172
     1
173
     0
174
     0
175
     0
176
   256
177
   256
178
     2
  0
DIMSTYLE
  2
AM_ISO$7
 70
     0
  3

  4
"
  5

  6

  7

 40
1.0
 41
2.5
 42
1.0
 43
10.0
 44
1.0
 45
0.0
 46
0.0
 47
0.1
 48
0.1
140
5.0
141
0.0
142
0.0
143
0.0393701
144
1.0
145
0.0
146
0.71
147
1.5
 71
     0
 72
     0
 73
     0
 74
     0
 75
     0
 76
     0
 77
     1
 78
     8
170
     0
171
     2
172
     1
173
     0
174
     0
175
     0
176
   256
177
   256
178
     2
  0
DIMSTYLE
  2
AM_ISO$SF
 70
     0
  3

  4
"
  5

  6

  7

 40
1.0
 41
2.5
 42
1.0
 43
10.0
 44
1.0
 45
0.0
 46
0.0
 47
0.1
 48
0.1
140
3.5
141
0.0
142
0.0
143
0.0393701
144
1.0
145
0.0
146
0.71
147
1.5
 71
     0
 72
     0
 73
     0
 74
     0
 75
     1
 76
     1
 77
     1
 78
     8
170
     0
171
     2
172
     1
173
     0
174
     0
175
     0
176
   256
177
   256
178
     2
  0
DIMSTYLE
  2
AM_ISO$SH
 70
     0
  3

  4
"
  5

  6
GENAXEH
  7

 40
1.0
 41
2.5
 42
1.0
 43
10.0
 44
1.0
 45
0.0
 46
0.0
 47
0.1
 48
0.1
140
3.5
141
0.0
142
0.0
143
0.0393701
144
2.0
145
0.0
146
0.71
147
1.5
 71
     0
 72
     0
 73
     0
 74
     0
 75
     1
 76
     1
 77
     1
 78
     8
170
     0
171
     2
172
     1
173
     1
174
     0
175
     0
176
   256
177
   256
178
     2
  0
DIMSTYLE
  2
AM_JIS
 70
     0
  3

  4
"
  5

  6

  7

 40
1.0
 41
2.0
 42
1.0
 43
8.0
 44
1.0
 45
0.0
 46
0.0
 47
0.1
 48
0.1
140
2.5
141
0.0
142
0.0
143
0.0393701
144
1.0
145
0.0
146
0.71
147
1.5
 71
     0
 72
     0
 73
     0
 74
     0
 75
     0
 76
     0
 77
     3
 78
     8
170
     0
171
     2
172
     1
173
     0
174
     0
175
     0
176
     2
177
     2
178
     4
  0
DIMSTYLE
  2
AM_JIS$3
 70
     0
  3

  4
"
  5

  6

  7

 40
1.0
 41
2.0
 42
1.0
 43
10.0
 44
1.0
 45
0.0
 46
0.0
 47
0.1
 48
0.1
140
2.5
141
0.0
142
0.0
143
0.0393701
144
1.0
145
0.0
146
0.71
147
1.5
 71
     0
 72
     0
 73
     0
 74
     1
 75
     0
 76
     0
 77
     3
 78
     8
170
     0
171
     2
172
     0
173
     0
174
     0
175
     0
176
     2
177
     2
178
     4
  0
DIMSTYLE
  2
AM_JIS$4
 70
     0
  3

  4
"
  5

  6

  7

 40
1.0
 41
2.0
 42
1.0
 43
10.0
 44
1.0
 45
0.0
 46
0.0
 47
0.1
 48
0.1
140
2.5
141
0.0
142
0.0
143
0.0393701
144
1.0
145
0.0
146
0.71
147
1.5
 71
     0
 72
     0
 73
     0
 74
     0
 75
     0
 76
     0
 77
     3
 78
     8
170
     0
171
     2
172
     0
173
     0
174
     0
175
     0
176
     2
177
     2
178
     4
  0
DIMSTYLE
  2
AM_JIS$6
 70
     0
  3

  4
"
  5

  6

  7

 40
1.0
 41
2.0
 42
1.0
 43
10.0
 44
1.0
 45
0.0
 46
0.0
 47
0.1
 48
0.1
140
2.5
141
0.0
142
0.0
143
0.0393701
144
1.0
145
0.0
146
0.71
147
1.5
 71
     0
 72
     0
 73
     0
 74
     0
 75
     0
 76
     0
 77
     0
 78
     8
170
     0
171
     2
172
     1
173
     0
174
     0
175
     0
176
     2
177
     2
178
     4
  0
DIMSTYLE
  2
AM_JIS$7
 70
     0
  3

  4
"
  5

  6
OPEN30
  7
OPEN30
 40
1.0
 41
2.0
 42
1.0
 43
10.0
 44
1.0
 45
0.0
 46
0.0
 47
0.1
 48
0.1
140
2.5
141
0.0
142
0.0
143
0.0393701
144
1.0
145
0.0
146
0.71
147
1.5
 71
     0
 72
     0
 73
     0
 74
     0
 75
     0
 76
     0
 77
     3
 78
     8
170
     0
171
     2
172
     1
173
     0
174
     0
175
     0
176
     2
177
     2
178
     4
  0
DIMSTYLE
  2
AM_JIS$SF
 70
     0
  3

  4
"
  5

  6

  7

 40
1.0
 41
2.0
 42
1.0
 43
10.0
 44
1.0
 45
0.0
 46
0.0
 47
0.1
 48
0.1
140
2.5
141
0.0
142
0.0
143
0.0393701
144
1.0
145
0.0
146
0.71
147
1.5
 71
     0
 72
     0
 73
     0
 74
     0
 75
     1
 76
     1
 77
     3
 78
     8
170
     0
171
     2
172
     1
173
     0
174
     0
175
     0
176
     2
177
     2
178
     4
  0
DIMSTYLE
  2
AM_JIS$SH
 70
     0
  3

  4
"
  5

  6
GENAXEH
  7

 40
1.0
 41
2.0
 42
1.0
 43
10.0
 44
1.0
 45
0.0
 46
0.0
 47
0.1
 48
0.1
140
2.5
141
0.0
142
0.0
143
0.0393701
144
2.0
145
0.0
146
0.71
147
1.5
 71
     0
 72
     0
 73
     0
 74
     0
 75
     1
 76
     1
 77
     3
 78
     8
170
     0
171
     2
172
     1
173
     1
174
     0
175
     0
176
     2
177
     2
178
     4
  0
DIMSTYLE
  2
AM_JIS$0
 70
     0
  3

  4
"
  5

  6

  7

 40
1.0
 41
2.0
 42
1.0
 43
8.0
 44
1.0
 45
0.0
 46
0.0
 47
0.1
 48
0.1
140
2.5
141
0.0
142
0.0
143
0.0393701
144
1.0
145
0.0
146
0.71
147
1.5
 71
     0
 72
     0
 73
     0
 74
     0
 75
     0
 76
     0
 77
     3
 78
     8
170
     0
171
     2
172
     1
173
     0
174
     0
175
     0
176
     2
177
     2
178
     4
  0
DIMSTYLE
  2
STANDARD
 70
     0
  3

  4

  5

  6

  7

 40
1.0
 41
0.18
 42
0.0625
 43
0.38
 44
0.18
 45
0.0
 46
0.0
 47
0.0
 48
0.0
140
0.18
141
0.09
142
0.0
143
25.399999999999999
144
1.0
145
0.0
146
1.0
147
0.09
 71
     0
 72
     0
 73
     1
 74
     1
 75
     0
 76
     0
 77
     0
 78
     0
170
     0
171
     2
172
     0
173
     0
174
     0
175
     0
176
     0
177
     0
178
     0
  0
ENDTAB
  0
ENDSEC
  0
SECTION
  2
BLOCKS
  0
BLOCK
  8
0
  2
$MODEL_SPACE
 70
     0
 10
0.0
 20
0.0
 30
0.0
  3
$MODEL_SPACE
  1

  0
ENDBLK
  5
77
  8
0
  0
BLOCK
 67
     1
  8
0
  2
$PAPER_SPACE
 70
     0
 10
0.0
 20
0.0
 30
0.0
  3
$PAPER_SPACE
  1

  0
ENDBLK
  5
73
 67
     1
  8
0
  0
BLOCK
  8
0
  2
GENAXEH
 70
     0
 10
0.0
 20
0.0
 30
0.0
  3
GENAXEH
  1

  0
LINE
  5
97D8
  8
0
 10
-1.0
 20
0.0
 30
0.0
 11
1.0
 21
0.0
 31
0.0
  0
ENDBLK
  5
97D9
  8
0
  0
BLOCK
  8
0
  2
_OPEN30
 70
     0
 10
0.0
 20
0.0
 30
0.0
  3
_OPEN30
  1

  0
LINE
  5
981F
  8
0
  6
BYBLOCK
 62
     0
 10
-1.0
 20
0.26794919
 30
0.0
 11
0.0
 21
0.0
 31
0.0
  0
LINE
  5
9820
  8
0
  6
BYBLOCK
 62
     0
 10
0.0
 20
0.0
 30
0.0
 11
-1.0
 21
-0.26794919
 31
0.0
  0
LINE
  5
9821
  8
0
  6
BYBLOCK
 62
     0
 10
0.0
 20
0.0
 30
0.0
 11
-1.0
 21
0.0
 31
0.0
  0
ENDBLK
  5
9822
  8
0
  0
BLOCK
  8
0
  2
A$C49AF5D68
 70
     0
 10
0.0
 20
0.0
 30
0.0
  3
A$C49AF5D68
  1

  0
LINE
  5
960A
  8
0
  6
CONTINUOUS
 62
     7
 10
-313.99994000000009
 20
52.5
 30
0.0
 11
-313.99994000000009
 21
-142.50000000000011
 31
0.0
  0
LINE
  5
960B
  8
0
  6
CONTINUOUS
 62
     7
 10
-262.7940099999999
 20
130.9999599999999
 30
0.0
 11
-243.2059399999998
 21
130.9999599999999
 31
0.0
  0
LINE
  5
960C
  8
0
  6
CONTINUOUS
 62
     7
 10
-265.49999999999989
 20
122.0
 30
0.0
 11
-263.24950999999999
 21
130.39891999999989
 31
0.0
  0
LINE
  5
960D
  8
0
  6
CONTINUOUS
 62
     7
 10
-240.49999999999989
 20
122.0
 30
0.0
 11
-242.75049000000001
 21
130.39891999999989
 31
0.0
  0
LINE
  5
960E
  8
0
  6
CONTINUOUS
 62
     7
 10
-262.47802999999999
 20
131.12093999999991
 30
0.0
 11
-252.99999999999989
 21
132.99993000000001
 31
0.0
  0
LINE
  5
960F
  8
0
  6
CONTINUOUS
 62
     7
 10
-252.99994000000001
 20
132.99995999999999
 30
0.0
 11
-243.52190999999979
 21
131.12100000000001
 31
0.0
  0
LINE
  5
9610
  8
0
  6
CONTINUOUS
 62
     7
 10
-290.99999999999989
 20
67.983969999999999
 30
0.0
 11
-290.99999999999989
 21
-157.44251000000011
 31
0.0
  0
LINE
  5
9611
  8
0
  6
CONTINUOUS
 62
     7
 10
-267.07372999999978
 20
-177.26911999999999
 30
0.0
 11
-288.9262099999998
 21
-161.49679
 31
0.0
  0
LINE
  5
9612
  8
0
  6
CONTINUOUS
 62
     7
 10
-289.60163
 20
71.45216999999991
 30
0.0
 11
-269.39843999999982
 21
92.432429999999997
 31
0.0
  0
LINE
  5
9613
  8
0
  6
CONTINUOUS
 62
     7
 10
-313.99994000000009
 20
52.500029999999917
 30
0.0
 11
-295.82549999999981
 21
53.134669999999922
 31
0.0
  0
LINE
  5
9614
  8
0
  6
CONTINUOUS
 62
     7
 10
-311.99994000000009
 20
28.006159999999909
 30
0.0
 11
-290.99999999999989
 21
28.006159999999909
 31
0.0
  0
LINE
  5
9615
  8
0
  6
CONTINUOUS
 62
     7
 10
-265.0
 20
119.0209899999999
 30
0.0
 11
-265.0
 21
-190.02101999999999
 31
0.0
  0
LINE
  5
9616
  8
0
  6
CONTINUOUS
 62
     7
 10
-263.06976999999978
 20
121.0197699999997
 30
0.0
 11
-234.99994000000009
 21
122.0
 31
0.0
  0
LINE
  5
9617
  8
0
  6
CONTINUOUS
 62
     7
 10
-267.99993999999998
 20
120.0
 30
0.0
 11
-267.99993999999998
 21
95.900599999999983
 31
0.0
  0
LINE
  5
9618
  8
0
  6
CONTINUOUS
 62
     7
 10
-269.39843999999982
 20
92.432429999999997
 30
0.0
 11
-266.39843999999982
 21
95.547789999999921
 31
0.0
  0
LINE
  5
9619
  8
0
  6
CONTINUOUS
 62
     7
 10
-266.0
 20
121.9999599999999
 30
0.0
 11
-235.0
 21
121.9999599999999
 31
0.0
  0
LINE
  5
961A
  8
0
  6
CONTINUOUS
 62
     7
 10
-81.999999999999858
 20
27.5
 30
0.0
 11
0.0
 21
27.5
 31
0.0
  0
LINE
  5
961B
  8
0
  6
CONTINUOUS
 62
     7
 10
-314.0
 20
-142.50002000000009
 30
0.0
 11
-295.82549999999981
 21
-143.13468
 31
0.0
  0
LINE
  5
961C
  8
0
  6
CONTINUOUS
 62
     7
 10
-311.99994000000009
 20
-128.1952
 30
0.0
 11
-290.99999999999989
 21
-128.1952
 31
0.0
  0
LINE
  5
961D
  8
0
  6
CONTINUOUS
 62
     7
 10
-311.99994000000009
 20
-101.77582
 30
0.0
 11
-311.99994000000009
 21
-128.1952
 31
0.0
  0
LINE
  5
961E
  8
0
  6
CONTINUOUS
 62
     7
 10
-311.99994000000009
 20
38.195159999999987
 30
0.0
 11
-311.99994000000009
 21
11.775779999999999
 31
0.0
  0
LINE
  5
961F
  8
0
  6
CONTINUOUS
 62
     7
 10
-311.99994000000009
 20
38.195159999999987
 30
0.0
 11
-290.99999999999989
 21
38.195159999999987
 31
0.0
  0
LINE
  5
9620
  8
0
  6
CONTINUOUS
 62
     7
 10
-311.99994000000009
 20
11.775779999999999
 30
0.0
 11
-290.99999999999989
 21
11.775779999999999
 31
0.0
  0
LINE
  5
9621
  8
0
  6
CONTINUOUS
 62
     7
 10
-311.99994000000009
 20
-101.77582
 30
0.0
 11
-290.99999999999989
 21
-101.77582
 31
0.0
  0
LINE
  5
9622
  8
0
  6
CONTINUOUS
 62
     7
 10
-311.99994000000009
 20
-118.0062200000001
 30
0.0
 11
-290.99999999999989
 21
-118.0062200000001
 31
0.0
  0
LINE
  5
9623
  8
0
  6
CONTINUOUS
 62
     7
 10
-61.999999999999773
 20
31.499959999999991
 30
0.0
 11
0.0
 21
31.499959999999991
 31
0.0
  0
LINE
  5
9624
  8
0
  6
CONTINUOUS
 62
     7
 10
-262.99993999999998
 20
8.4663600000000656
 30
0.0
 11
-117.39868
 21
8.4663600000000656
 31
0.0
  0
LINE
  5
9625
  8
0
  6
CONTINUOUS
 62
     7
 10
-194.99999999999949
 20
-124.75411
 30
0.0
 11
-194.99999999999949
 21
-139.39895999999999
 31
0.0
  0
LINE
  5
9626
  8
0
  6
CONTINUOUS
 62
     7
 10
-235.0
 20
-193.00002000000001
 30
0.0
 11
-153.15667999999991
 21
-195.14316000000011
 31
0.0
  0
LINE
  5
9627
  8
0
  6
CONTINUOUS
 62
     7
 10
-126.4092399999998
 20
127.59071999999991
 30
0.0
 11
-111.99994000000009
 21
141.99995999999999
 31
0.0
  0
LINE
  5
9628
  8
0
  6
CONTINUOUS
 62
     7
 10
-235.0
 20
121.9999599999999
 30
0.0
 11
-235.0
 21
-193.00002000000001
 31
0.0
  0
LINE
  5
9629
  8
0
  6
CONTINUOUS
 62
     7
 10
-107.1744999999997
 20
164.4002899999999
 30
0.0
 11
-89.999940000000151
 21
165.00005999999979
 31
0.0
  0
LINE
  5
962A
  8
0
  6
CONTINUOUS
 62
     7
 10
-106.9999999999999
 20
-165.00002000000009
 30
0.0
 11
-90.0
 21
-165.00002000000009
 31
0.0
  0
LINE
  5
962B
  8
0
  6
CONTINUOUS
 62
     7
 10
-235.0
 20
121.9999599999999
 30
0.0
 11
-133.21851000000009
 21
124.66521999999991
 31
0.0
  0
LINE
  5
962C
  8
0
  6
CONTINUOUS
 62
     7
 10
-190.0
 20
-119.7541100000001
 30
0.0
 11
-112.0
 21
-119.7541100000001
 31
0.0
  0
LINE
  5
962D
  8
0
  6
CONTINUOUS
 62
     7
 10
-190.0
 20
-144.39895999999999
 30
0.0
 11
-112.0
 21
-144.39895999999999
 31
0.0
  0
LINE
  5
962E
  8
0
  6
CONTINUOUS
 62
     7
 10
-112.0
 20
159.4032499999999
 30
0.0
 11
-112.0
 21
-34.263370000000009
 31
0.0
  0
LINE
  5
962F
  8
0
  6
CONTINUOUS
 62
     7
 10
-90.0
 20
164.9999999999996
 30
0.0
 11
-90.0
 21
-165.00002000000009
 31
0.0
  0
LINE
  5
9630
  8
0
  6
CONTINUOUS
 62
     7
 10
-90.0
 20
-140.00000000000011
 30
0.0
 11
-85.0
 21
-140.00000000000011
 31
0.0
  0
LINE
  5
9631
  8
0
  6
CONTINUOUS
 62
     7
 10
-90.0
 20
139.99999999999969
 30
0.0
 11
-85.0
 21
139.99999999999969
 31
0.0
  0
LINE
  5
9632
  8
0
  6
CONTINUOUS
 62
     7
 10
-85.0
 20
139.99999999999969
 30
0.0
 11
-85.0
 21
-140.00000000000011
 31
0.0
  0
LINE
  5
9633
  8
0
  6
CONTINUOUS
 62
     7
 10
-147.89490000000001
 20
-193.8068300000001
 30
0.0
 11
-98.0
 21
-164.99999000000011
 31
0.0
  0
LINE
  5
9634
  8
0
  6
CONTINUOUS
 62
     7
 10
-262.99993999999998
 20
-93.329199999999986
 30
0.0
 11
-112.0
 21
-93.329199999999986
 31
0.0
  0
LINE
  5
9635
  8
0
  6
CONTINUOUS
 62
     7
 10
-102.99994000000009
 20
124.3491199999999
 30
0.0
 11
-102.99994000000009
 21
-124.34914000000001
 31
0.0
  0
LINE
  5
9636
  8
0
  6
CONTINUOUS
 62
     7
 10
-112.0
 20
-92.273900000000054
 30
0.0
 11
-112.0
 21
-160.00002000000009
 31
0.0
  0
LINE
  5
9637
  8
0
  6
CONTINUOUS
 62
     7
 10
-112.6733399999999
 20
-42.488100000000202
 30
0.0
 11
-124.57714999999961
 21
85.873529999999917
 31
0.0
  0
LINE
  5
9638
  8
0
  6
CONTINUOUS
 62
     7
 10
-155.06159
 20
93.086389999999767
 30
0.0
 11
-155.06159
 21
90.873529999999917
 31
0.0
  0
LINE
  5
9639
  8
0
  6
CONTINUOUS
 62
     7
 10
-150.0708600000001
 20
87.650389999999902
 30
0.0
 11
-114.50176999999989
 21
109.1768099999999
 31
0.0
  0
LINE
  5
963A
  8
0
  6
CONTINUOUS
 62
     7
 10
-150.06159
 20
85.873529999999917
 30
0.0
 11
-126.3067699999998
 21
85.873529999999917
 31
0.0
  0
LINE
  5
963B
  8
0
  6
CONTINUOUS
 62
     7
 10
-152.65044999999989
 20
97.364009999999993
 30
0.0
 11
-114.41119999999999
 21
120.50646
 31
0.0
  0
LINE
  5
963C
  8
0
  6
CONTINUOUS
 62
     7
 10
-123.34986000000011
 20
86.841639999999927
 30
0.0
 11
-112.0
 21
95.165429999999873
 31
0.0
  0
LINE
  5
963D
  8
0
  6
CONTINUOUS
 62
     7
 10
-127.2020899999999
 20
114.1793499999997
 30
0.0
 11
-128.27300999999991
 21
125.72695
 31
0.0
  0
LINE
  5
963E
  8
0
  6
CONTINUOUS
 62
     7
 10
-263.06983000000002
 20
-192.01981000000001
 30
0.0
 11
-234.99994000000009
 21
-193.00004000000001
 31
0.0
  0
LINE
  5
963F
  8
0
  6
CONTINUOUS
 62
     7
 10
-85.0
 20
30.0
 30
0.0
 11
-81.999999999999858
 21
30.0
 31
0.0
  0
LINE
  5
9640
  8
0
  6
CONTINUOUS
 62
     7
 10
-85.0
 20
-30.0
 30
0.0
 11
-81.999999999999858
 21
-30.0
 31
0.0
  0
LINE
  5
9641
  8
0
  6
CONTINUOUS
 62
     7
 10
-81.999999999999858
 20
30.0
 30
0.0
 11
-81.999999999999858
 21
-30.0
 31
0.0
  0
LINE
  5
9642
  8
0
  6
CONTINUOUS
 62
     7
 10
-61.999999999999773
 20
31.499959999999991
 30
0.0
 11
-61.999999999999773
 21
27.5
 31
0.0
  0
LINE
  5
9643
  8
0
  6
CONTINUOUS
 62
     7
 10
0.0
 20
31.499959999999991
 30
0.0
 11
0.0
 21
-27.5
 31
0.0
  0
LINE
  5
9644
  8
0
  6
CONTINUOUS
 62
     7
 10
-81.999999999999858
 20
-27.5
 30
0.0
 11
0.0
 21
-27.5
 31
0.0
  0
ARC
  5
9645
  8
0
  6
CONTINUOUS
 62
     7
 10
-296.0
 20
58.131589999999889
 30
0.0
 40
5.0
 50
271.9999999999971
 51
0.0
  0
ARC
  5
9646
  8
0
  6
CONTINUOUS
 62
     7
 10
-296.0
 20
-148.13164
 30
0.0
 40
5.0
 50
0.0
 51
88.000000000002899
  0
CIRCLE
  5
9647
  8
0
  6
CONTINUOUS
 62
     7
 10
-252.99994000000001
 20
147.99999999999969
 30
0.0
 40
15.0
  0
ARC
  5
9648
  8
0
  6
CONTINUOUS
 62
     7
 10
-252.99994000000001
 20
147.99999999999969
 30
0.0
 40
25.0
 50
306.46672000000018
 51
233.5332900000015
  0
ARC
  5
9649
  8
0
  6
CONTINUOUS
 62
     7
 10
-262.28356999999983
 20
130.14006999999989
 30
0.0
 40
1.0
 50
101.21328999999881
 51
164.99999000000179
  0
ARC
  5
964A
  8
0
  6
CONTINUOUS
 62
     7
 10
-243.71637000000001
 20
130.14006999999989
 30
0.0
 40
1.0
 50
15.000000000000741
 51
78.786710000001207
  0
ARC
  5
964B
  8
0
  6
CONTINUOUS
 62
     7
 10
-271.42498999999998
 20
123.06973000000001
 30
0.0
 40
6.0
 50
349.72994999999878
 51
53.533291000002919
  0
ARC
  5
964C
  8
0
  6
CONTINUOUS
 62
     7
 10
-234.5749499999998
 20
123.06973000000001
 30
0.0
 40
6.0
 50
126.46669999999671
 51
190.27005999999921
  0
ARC
  5
964D
  8
0
  6
CONTINUOUS
 62
     7
 10
-286.0
 20
-157.44251000000011
 30
0.0
 40
5.0
 50
179.999989999999
 51
234.17957000000149
  0
ARC
  5
964E
  8
0
  6
CONTINUOUS
 62
     7
 10
-266.0
 20
120.0
 30
0.0
 40
2.0
 50
90.00000299999769
 51
180.000010000001
  0
ARC
  5
964F
  8
0
  6
CONTINUOUS
 62
     7
 10
-286.0
 20
67.983969999999999
 30
0.0
 40
5.0
 50
136.08091999999979
 51
180.000010000001
  0
ARC
  5
9650
  8
0
  6
CONTINUOUS
 62
     7
 10
-262.99993999999998
 20
119.0209899999999
 30
0.0
 40
2.0
 50
91.999998000000545
 51
180.000010000001
  0
ARC
  5
9651
  8
0
  6
CONTINUOUS
 62
     7
 10
-272.99993999999998
 20
95.900599999999983
 30
0.0
 40
5.0
 50
316.08091999999988
 51
0.0
  0
ARC
  5
9652
  8
0
  6
CONTINUOUS
 62
     7
 10
-269.99999999999972
 20
99.015990000000002
 30
0.0
 40
5.0
 50
316.08091999999988
 51
0.0
  0
ARC
  5
9653
  8
0
  6
CONTINUOUS
 62
     7
 10
-190.0
 20
-139.39895999999999
 30
0.0
 40
5.0
 50
179.999989999999
 51
270.0
  0
ARC
  5
9654
  8
0
  6
CONTINUOUS
 62
     7
 10
-106.9999999999999
 20
159.4032499999999
 30
0.0
 40
5.0
 50
91.999998000000545
 51
180.000010000001
  0
ARC
  5
9655
  8
0
  6
CONTINUOUS
 62
     7
 10
-106.9999999999999
 20
-160.00002000000009
 30
0.0
 40
5.0
 50
179.999989999999
 51
270.0
  0
ARC
  5
9656
  8
0
  6
CONTINUOUS
 62
     7
 10
-190.0
 20
-124.75411
 30
0.0
 40
5.0
 50
90.00000299999769
 51
180.000010000001
  0
ARC
  5
9657
  8
0
  6
CONTINUOUS
 62
     7
 10
-111.0
 20
-84.336660000000023
 30
0.0
 40
8.0
 50
270.0
 51
0.0
  0
ARC
  5
9658
  8
0
  6
CONTINUOUS
 62
     7
 10
-111.0
 20
-124.34914000000001
 30
0.0
 40
8.0
 50
270.0
 51
0.0
  0
ARC
  5
9659
  8
0
  6
CONTINUOUS
 62
     7
 10
-111.0
 20
66.3366299999999
 30
0.0
 40
8.0
 50
0.0
 51
90.00000299999769
  0
ARC
  5
965A
  8
0
  6
CONTINUOUS
 62
     7
 10
-111.0
 20
124.3491199999999
 30
0.0
 40
8.0
 50
0.0
 51
90.00000299999769
  0
ARC
  5
965B
  8
0
  6
CONTINUOUS
 62
     7
 10
-104.70757999999999
 20
-41.749390000000012
 30
0.0
 40
8.0
 50
185.2982400000015
 51
270.0
  0
ARC
  5
965C
  8
0
  6
CONTINUOUS
 62
     7
 10
-133.48028999999991
 20
134.6617699999999
 30
0.0
 40
10.0
 50
271.50000000000267
 51
315.0
  0
ARC
  5
965D
  8
0
  6
CONTINUOUS
 62
     7
 10
-152.8948400000001
 20
-185.14658000000011
 30
0.0
 40
10.0
 50
268.49999999999721
 51
300.00000000000051
  0
ARC
  5
965E
  8
0
  6
CONTINUOUS
 62
     7
 10
-126.3067699999998
 20
90.873529999999917
 30
0.0
 40
5.0
 50
270.0
 51
306.25555000000082
  0
ARC
  5
965F
  8
0
  6
CONTINUOUS
 62
     7
 10
-150.06159
 20
90.873529999999917
 30
0.0
 40
5.0
 50
179.999989999999
 51
270.0
  0
ARC
  5
9660
  8
0
  6
CONTINUOUS
 62
     7
 10
-150.06159
 20
93.086389999999767
 30
0.0
 40
5.0
 50
121.182359999998
 51
180.000010000001
  0
ARC
  5
9661
  8
0
  6
CONTINUOUS
 62
     7
 10
-117.0
 20
124.7840799999999
 30
0.0
 40
5.0
 50
301.18235999999803
 51
0.0
  0
ARC
  5
9662
  8
0
  6
CONTINUOUS
 62
     7
 10
-269.99999999999972
 20
-181.32341
 30
0.0
 40
5.0
 50
0.0
 51
54.179553999999001
  0
ARC
  5
9663
  8
0
  6
CONTINUOUS
 62
     7
 10
-262.99993999999998
 20
-190.02101999999999
 30
0.0
 40
2.0
 50
179.999989999999
 51
268.00000999999861
  0
ENDBLK
  5
9665
  8
0
  0
BLOCK
  8
0
  2
_ACMFILLEDHALF
 70
     0
 10
0.0
 20
0.0
 30
0.0
  3
_ACMFILLEDHALF
  1

  0
TRACE
  5
991D
  8
0
  6
CONTINUOUS
 62
     0
 10
-0.8
 20
0.0
 30
0.0
 11
-1.0
 21
0.166666666
 31
0.0
 12
0.0
 22
0.0
 32
0.0
 13
0.0
 23
0.0
 33
0.0
  0
LINE
  5
991E
  8
0
  6
CONTINUOUS
 62
     0
 10
-1.0
 20
0.0
 30
0.0
 11
-0.8
 21
0.0
 31
0.0
  0
ENDBLK
  5
991F
  8
0
  0
BLOCK
  8
0
  2
*U8
 70
     1
 10
0.0
 20
0.0
 30
0.0
  3
*U8
  1

  0
TEXT
  5
99B4
  8
0
 62
     0
 10
5.1211371559201648
 20
5.9826223594979657
 30
0.0
 40
15.0
  1
ＶＸ０８－００３ＥＭ～ＶＸ０８－０３０ＥＭ
 41
0.7400000000000003
  0
ENDBLK
  5
99B6
  8
0
  0
ENDSEC
  0
SECTION
  2
ENTITIES
  0
LINE
  5
73CD
  8
0
  6
AM_ISO08W050
 10
467.74948938267329
 20
651.02884552737055
 30
0.0
 11
831.99198938267386
 21
651.02884552737055
 31
0.0
  0
LINE
  5
73DA
  8
0
 10
511.06318938267327
 20
703.52888052737012
 30
0.0
 11
511.06318938267327
 21
508.52884052737011
 31
0.0
  0
LINE
  5
7433
  8
0
 10
509.0631893826735
 20
506.52881052737092
 30
0.0
 11
511.063139382673
 21
508.52881052737013
 31
0.0
  0
LINE
  5
7434
  8
0
 10
416.06318938267327
 20
478.52884052737022
 30
0.0
 11
425.4733653399656
 21
478.52884052737022
 31
0.0
  0
LINE
  5
7435
  8
0
  6
AM_ISO08W050
 10
130.1134132896706
 20
563.52884052737022
 30
0.0
 11
493.9466393826732
 21
563.52884052737022
 31
0.0
  0
LINE
  5
7436
  8
0
 10
499.063139382673
 20
705.52883052737025
 30
0.0
 11
509.06313938267328
 21
705.52883052737025
 31
0.0
  0
LINE
  5
7437
  8
0
 10
498.06313938267351
 20
506.52884052737022
 30
0.0
 11
509.06313938267328
 21
506.52884052737022
 31
0.0
  0
LINE
  5
7438
  8
0
 10
496.0631893826735
 20
508.52884052737011
 30
0.0
 11
496.0631893826735
 21
702.52883052737025
 31
0.0
  0
LINE
  5
7439
  8
0
 10
416.06318938267327
 20
648.52887052737037
 30
0.0
 11
446.73475305303378
 21
649.59995248169332
 31
0.0
  0
LINE
  5
743A
  8
0
 10
445.76030843132821
 20
515.02884052737022
 30
0.0
 11
493.06313938267351
 21
515.02884052737022
 31
0.0
  0
ARC
  5
743B
  8
0
 10
445.76030843132821
 20
510.02884052737022
 30
0.0
 40
5.0
 50
90.0
 51
160.0000775154769
1001
GENIUS_GENODEF_13
1002
{
1000
HIER
1070
     0
1002
}
1002
{
1000
MANEDIT
1070
     0
1002
}
1002
{
1000
NOSEL
1070
     0
1002
}
1002
{
1000
BEHIND
1070
     0
1002
}
1002
{
1000
OTHER
1070
     0
1002
}
1002
{
1000
REACTOR
1002
}
1001
GENIUS_GENOBJ-N-FIL_13
1002
{
1000
OWNER
1000
GEN
1002
}
  0
LINE
  5
743C
  8
0
 10
509.0631893826735
 20
705.52883052737025
 30
0.0
 11
511.063139382673
 21
703.52883052737025
 31
0.0
  0
LINE
  5
743D
  8
0
 10
450.09578656176268
 20
651.06137095130202
 30
0.0
 11
494.59873938267327
 21
695.56428052737078
 31
0.0
  0
ARC
  5
743E
  8
0
 10
446.56025437362291
 20
654.59690657502665
 30
0.0
 40
5.0
 50
272.00001371234129
 51
314.99997216198648
1001
GENIUS_GENODEF_13
1002
{
1000
HIER
1070
     0
1002
}
1002
{
1000
MANEDIT
1070
     0
1002
}
1002
{
1000
NOSEL
1070
     0
1002
}
1002
{
1000
BEHIND
1070
     0
1002
}
1002
{
1000
OTHER
1070
     0
1002
}
1002
{
1000
REACTOR
1002
}
1001
GENIUS_GENOBJ-N-FIL_13
1002
{
1000
OWNER
1000
GEN
1002
}
  0
LINE
  5
743F
  8
0
 10
430.1718307574867
 20
481.81874616729527
 30
0.0
 11
441.06184301380722
 21
511.73893488744523
 31
0.0
  0
ARC
  5
7440
  8
0
 10
425.4733653399656
 20
483.52884052737011
 30
0.0
 40
5.0
 50
270.0
 51
340.00007751547702
1001
GENIUS_GENOBJ-N-FIL_13
1002
{
1000
OWNER
1000
GEN
1002
}
1001
GENIUS_GENODEF_13
1002
{
1000
HIER
1070
     0
1002
}
1002
{
1000
MANEDIT
1070
     0
1002
}
1002
{
1000
NOSEL
1070
     0
1002
}
1002
{
1000
BEHIND
1070
     0
1002
}
1002
{
1000
OTHER
1070
     0
1002
}
1002
{
1000
REACTOR
1002
}
  0
LINE
  5
7442
  8
0
 10
496.0631893826735
 20
689.22398052737014
 30
0.0
 11
511.06318938267327
 21
689.22398052737014
 31
0.0
  0
LINE
  5
7443
  8
0
 10
496.0631893826735
 20
679.03504052737048
 30
0.0
 11
511.06318938267327
 21
679.03504052737048
 31
0.0
  0
LINE
  5
7444
  8
0
 10
496.0631893826735
 20
662.80463052737025
 30
0.0
 11
511.06318938267327
 21
662.80463052737025
 31
0.0
  0
LINE
  5
7445
  8
0
 10
496.0631893826735
 20
549.25302552737026
 30
0.0
 11
511.06318938267327
 21
549.25302552737026
 31
0.0
  0
LINE
  5
7446
  8
0
 10
496.0631893826735
 20
533.02264552737006
 30
0.0
 11
511.06318938267327
 21
533.02264552737006
 31
0.0
  0
LINE
  5
7447
  8
0
 10
496.0631893826735
 20
522.83365052737065
 30
0.0
 11
511.06318938267327
 21
522.83365052737065
 31
0.0
  0
LINE
  5
744A
  8
0
 10
428.06318938267327
 20
542.57336052737048
 30
0.0
 11
428.06318938267327
 21
479.25183089120941
 31
0.0
  0
ARC
  5
7490
  8
0
 10
491.06318938267327
 20
699.09993052737059
 30
0.0
 40
5.0
 50
314.99999999999062
 51
0.0
  0
ARC
  5
7491
  8
0
 10
499.063139382673
 20
702.52883052737025
 30
0.0
 40
3.0000000500000001
 50
90.000002999984659
 51
180.000010000001
  0
ARC
  5
7492
  8
0
 10
493.06313938267351
 20
512.02884052737022
 30
0.0
 40
3.0000000500000001
 50
0.0
 51
90.000002999984659
  0
ARC
  5
7493
  8
0
 10
498.06313938267351
 20
508.52884052737011
 30
0.0
 40
2.0000000500000001
 50
179.999989999999
 51
270.0
  0
LINE
  5
74A7
  8
0
 10
442.6391603672937
 20
514.48629549624889
 30
0.0
 11
442.6391603672937
 21
649.45693025220714
 31
0.0
  0
ARC
  5
84A9
  8
0
  6
CONTINUOUS
 10
137.5631893826735
 20
464.32890052737048
 30
0.0
 40
2.0
 50
180.0
 51
270.0
  0
LINE
  5
84AA
  8
0
  6
CONTINUOUS
 10
137.5631893826735
 20
462.32887052737033
 30
0.0
 11
208.5631893826735
 21
462.32887052737033
 31
0.0
  0
LINE
  5
84AB
  8
0
  6
CONTINUOUS
 10
208.5631893826735
 20
664.32887052737021
 30
0.0
 11
208.5631893826735
 21
462.32887052737033
 31
0.0
  0
ARC
  5
84AC
  8
0
  6
CONTINUOUS
 10
137.96318938267351
 20
649.30568552737009
 30
0.0
 40
2.399999999999999
 50
160.0000000000035
 51
180.0
  0
ARC
  5
84AD
  8
0
  6
CONTINUOUS
 10
142.55765338267349
 20
661.92887052737024
 30
0.0
 40
2.399999999999999
 50
90.0
 51
160.0000000000035
  0
LINE
  5
84AE
  8
0
  6
CONTINUOUS
 10
140.30239038267351
 20
662.74971852737019
 30
0.0
 11
135.7079273826734
 21
650.12653452737027
 31
0.0
  0
LINE
  5
84AF
  8
0
  6
CONTINUOUS
 10
140.8771543826735
 20
663.64232452737042
 30
0.0
 11
140.8771543826735
 21
462.32887052737033
 31
0.0
  0
LINE
  5
84B0
  8
0
  6
CONTINUOUS
 10
135.5631893826735
 20
649.30568552737009
 30
0.0
 11
135.5631893826735
 21
464.32890052737048
 31
0.0
  0
LINE
  5
84B1
  8
0
  6
CONTINUOUS
 10
208.5631893826735
 20
664.32887052737021
 30
0.0
 11
142.55765338267349
 21
664.32887052737021
 31
0.0
  0
ARC
  5
84B2
  8
0
  6
CONTINUOUS
 10
309.0631893826735
 20
4.678894527370403
 30
0.0
 40
600.59997599999986
 50
86.033759999997386
 51
93.836910000000643
  0
ARC
  5
84B3
  8
0
  6
CONTINUOUS
 10
269.24779438267348
 20
598.34526952737042
 30
0.0
 40
5.5999980000000003
 50
93.837062000000643
 51
179.99998200000081
  0
ARC
  5
84B4
  8
0
  6
CONTINUOUS
 10
271.31159438267338
 20
598.48007252737023
 30
0.0
 40
5.5999980000000003
 50
93.638055999997619
 51
179.99998200000081
  0
ARC
  5
84B5
  8
0
  6
CONTINUOUS
 10
262.13979238267348
 20
563.52887052737015
 30
0.0
 40
15.000002
 50
310.58999199999971
 51
49.409702000001012
  0
ARC
  5
84B6
  8
0
  6
CONTINUOUS
 10
309.0631893826735
 20
4.678894527370403
 30
0.0
 40
596.09997599999986
 50
86.443289999999465
 51
93.315089000003056
  0
ARC
  5
84B7
  8
0
  6
CONTINUOUS
 10
265.09913738267358
 20
563.52887052737015
 30
0.0
 40
14.0
 50
317.10021800000243
 51
42.899781999997558
  0
ARC
  5
84B8
  8
0
  6
CONTINUOUS
 10
277.25939238267358
 20
574.82879052737007
 30
0.0
 40
2.6000000000000001
 50
180.0
 51
222.8997819999976
  0
LINE
  5
84B9
  8
0
  6
CONTINUOUS
 10
271.20069438267359
 20
596.18747052737024
 30
0.0
 11
271.20069438267359
 21
576.43837052737024
 31
0.0
  0
LINE
  5
84BA
  8
0
  6
CONTINUOUS
 10
274.65939238267362
 20
574.82879052737007
 30
0.0
 11
274.65939238267362
 21
593.11116852737041
 31
0.0
  0
ARC
  5
84BB
  8
0
  6
CONTINUOUS
 10
274.80069238267362
 20
596.18747052737024
 30
0.0
 40
3.5999979999999998
 50
93.315005000002998
 51
179.99998200000081
  0
ARC
  5
84BC
  8
0
  6
CONTINUOUS
 10
273.20069438267359
 20
576.43837052737024
 30
0.0
 40
1.999997
 50
179.99998200000081
 51
229.4100490000026
  0
LINE
  5
84BD
  8
0
  6
CONTINUOUS
 10
263.6477913826734
 20
598.34527052737019
 30
0.0
 11
263.6477913826734
 21
528.71246652737034
 31
0.0
  0
LINE
  5
84BE
  8
0
  6
CONTINUOUS
 10
265.71159238267347
 20
598.48007452737022
 30
0.0
 11
265.71159238267347
 21
528.5776665273703
 31
0.0
  0
LINE
  5
84BF
  8
0
  6
CONTINUOUS
 10
274.65939238267362
 20
530.99667452737037
 30
0.0
 11
274.65939238267362
 21
552.22895052737033
 31
0.0
  0
LINE
  5
84C0
  8
0
  6
CONTINUOUS
 10
271.20069438267359
 20
530.86613152737016
 30
0.0
 11
271.20069438267359
 21
550.61937452737016
 31
0.0
  0
ARC
  5
84C1
  8
0
  6
CONTINUOUS
 10
277.25939238267358
 20
552.22895052737033
 30
0.0
 40
2.6000000000000001
 50
137.1002180000024
 51
180.0
  0
ARC
  5
84C2
  8
0
  6
CONTINUOUS
 10
273.20069438267359
 20
550.61937452737016
 30
0.0
 40
2.0
 50
130.59005899999829
 51
179.99998200000081
  0
ARC
  5
84C3
  8
0
  6
CONTINUOUS
 10
309.0631893826735
 20
1122.3788465273699
 30
0.0
 40
596.09997599999986
 50
266.6850579999973
 51
273.55700699999932
  0
ARC
  5
84C4
  8
0
  6
CONTINUOUS
 10
274.80069238267362
 20
530.87027452737038
 30
0.0
 40
3.6000009999999998
 50
180.00007799999869
 51
266.68501400000298
  0
ARC
  5
84C5
  8
0
  6
CONTINUOUS
 10
309.0631893826735
 20
1122.3788465273699
 30
0.0
 40
600.59997599999986
 50
266.16305400000141
 51
273.96601299999787
  0
ARC
  5
84C6
  8
0
  6
CONTINUOUS
 10
269.24779438267348
 20
528.71247152737033
 30
0.0
 40
5.600000999999998
 50
180.00005699999531
 51
266.1630369999973
  0
ARC
  5
84C7
  8
0
  6
CONTINUOUS
 10
271.31159438267338
 20
528.5776715273704
 30
0.0
 40
5.5999989999999968
 50
180.00005699999531
 51
266.36204099999878
  0
ARC
  5
84C8
  8
0
  6
CONTINUOUS
 10
350.3572953826735
 20
600.24887152737017
 30
0.0
 40
3.5999989999999982
 50
0.0000179999992061
 51
86.033744000000837
  0
LINE
  5
84C9
  8
0
  6
CONTINUOUS
 10
345.54029338267372
 20
530.22437352737029
 30
0.0
 11
345.54029338267372
 21
596.83337552737021
 31
0.0
  0
LINE
  5
84CA
  8
0
  6
CONTINUOUS
 10
348.85729538267333
 20
530.42117352737034
 30
0.0
 11
348.85729538267333
 21
596.64088752737007
 31
0.0
  0
ARC
  5
84CB
  8
0
  6
CONTINUOUS
 10
345.8572953826735
 20
596.63657452737016
 30
0.0
 40
3.0000029999999982
 50
0.0000179999992061
 51
86.4432529999997
  0
ARC
  5
84CC
  8
0
  6
CONTINUOUS
 10
342.5402933826735
 20
596.83337452737021
 30
0.0
 40
2.9999989999999999
 50
0.0000179999992061
 51
86.764376000000055
  0
LINE
  5
84CD
  8
0
  6
CONTINUOUS
 10
353.95728538267349
 20
526.79818952737025
 30
0.0
 11
353.95728538267349
 21
600.25673252737022
 31
0.0
  0
ARC
  5
84CE
  8
0
  6
CONTINUOUS
 10
342.5402933826735
 20
530.22437352737029
 30
0.0
 40
3.0
 50
273.23604299999818
 51
0.0000179999992061
  0
ARC
  5
84CF
  8
0
  6
CONTINUOUS
 10
350.3572953826735
 20
526.80867052737005
 30
0.0
 40
3.6000059999999978
 50
273.96599899999779
 51
0.0000179999992061
  0
ARC
  5
84D0
  8
0
  6
CONTINUOUS
 10
345.8572953826735
 20
530.42117352737034
 30
0.0
 40
3.0
 50
273.55702100000269
 51
0.0000179999992061
  0
LINE
  5
84D1
  8
0
  6
CONTINUOUS
 10
361.02006538267352
 20
612.7138705273702
 30
0.0
 11
361.02006538267352
 21
592.3488705273702
 31
0.0
  0
LINE
  5
84D2
  8
0
  6
CONTINUOUS
 10
377.0631883826735
 20
612.7138705273702
 30
0.0
 11
377.0631883826735
 21
592.3488705273702
 31
0.0
  0
LINE
  5
84D3
  8
0
  6
CONTINUOUS
 10
391.6125843826735
 20
507.5080745273703
 30
0.0
 11
377.0631883826735
 21
507.5080745273703
 31
0.0
  0
LINE
  5
84D4
  8
0
  6
CONTINUOUS
 10
396.5631893826735
 20
518.92042452737041
 30
0.0
 11
377.0631883826735
 21
518.92042452737041
 31
0.0
  0
LINE
  5
84D5
  8
0
  6
CONTINUOUS
 10
361.76858638267328
 20
512.22316452737039
 30
0.0
 11
377.0631893826735
 21
507.5080745273703
 31
0.0
  0
LINE
  5
84D6
  8
0
  6
CONTINUOUS
 10
377.0631893826735
 20
518.92042452737041
 30
0.0
 11
362.02724838267352
 21
518.37967352737041
 31
0.0
  0
ARC
  5
84D7
  8
0
  6
CONTINUOUS
 10
362.0631893826735
 20
517.38031952737037
 30
0.0
 40
1.0
 50
92.059690999997088
 51
180.0
  0
ARC
  5
84D8
  8
0
  6
CONTINUOUS
 10
362.0631893826735
 20
513.17878452737034
 30
0.0
 40
1.0
 50
180.0
 51
252.8662750000021
  0
LINE
  5
84D9
  8
0
  6
CONTINUOUS
 10
377.0631893826735
 20
639.38165752737041
 30
0.0
 11
361.76273038267362
 21
634.56179152737025
 31
0.0
  0
ARC
  5
84DA
  8
0
  6
CONTINUOUS
 10
362.0631893826735
 20
633.60799652737023
 30
0.0
 40
1.0
 50
107.485179
 51
180.0
  0
ARC
  5
84DB
  8
0
  6
CONTINUOUS
 10
362.0631893826735
 20
631.25693152737017
 30
0.0
 40
1.0
 50
180.0
 51
270.0
  0
LINE
  5
84DC
  8
0
  6
CONTINUOUS
 10
362.11174438267352
 20
630.25811052737015
 30
0.0
 11
377.0631893826735
 21
630.98493052737024
 31
0.0
  0
LINE
  5
84DD
  8
0
  6
CONTINUOUS
 10
396.5631893826735
 20
630.98493052737024
 30
0.0
 11
377.0631893826735
 21
630.98493052737024
 31
0.0
  0
LINE
  5
84DE
  8
0
  6
CONTINUOUS
 10
320.0631893826735
 20
661.81536352737021
 30
0.0
 11
407.51037438267332
 21
661.81536352737021
 31
0.0
  0
ARC
  5
84DF
  8
0
  6
CONTINUOUS
 10
231.3274343826736
 20
659.81536352737021
 30
0.0
 40
2.0
 50
90.0
 51
156.10180000000051
  0
ARC
  5
84E0
  8
0
  6
CONTINUOUS
 10
407.51037438267332
 20
659.81536352737021
 30
0.0
 40
2.0
 50
10.000001999998901
 51
90.0
  0
LINE
  5
84E1
  8
0
  6
CONTINUOUS
 10
411.06318938267327
 20
651.18388752737042
 30
0.0
 11
409.4799893826733
 21
660.16266052737024
 31
0.0
  0
LINE
  5
84E2
  8
0
  6
CONTINUOUS
 10
410.8023813826735
 20
651.18388752737042
 30
0.0
 11
411.06318938267327
 21
651.18388752737042
 31
0.0
  0
ARC
  5
84E3
  8
0
  6
CONTINUOUS
 10
216.39440438267351
 20
658.62558952737015
 30
0.0
 40
2.0
 50
90.0
 51
169.99999800000111
  0
LINE
  5
84E4
  8
0
  6
CONTINUOUS
 10
212.0631893826735
 20
645.57958652737022
 30
0.0
 11
214.4247893826734
 21
658.97288652737041
 31
0.0
  0
ARC
  5
84E5
  8
0
  6
CONTINUOUS
 10
407.45935538267332
 20
658.62558952737015
 30
0.0
 40
2.0
 50
10.000001999998901
 51
90.0
  0
LINE
  5
84E6
  8
0
  6
CONTINUOUS
 10
411.06318938267327
 20
649.7047695273701
 30
0.0
 11
409.4289703826733
 21
658.97288652737041
 31
0.0
  0
LINE
  5
84E7
  8
0
  6
CONTINUOUS
 10
212.0631893826735
 20
645.57958652737022
 30
0.0
 11
212.63109538267349
 21
645.57958652737022
 31
0.0
  0
LINE
  5
84E8
  8
0
  6
CONTINUOUS
 10
410.52721838267331
 20
649.7047695273701
 30
0.0
 11
411.06318938267327
 21
649.7047695273701
 31
0.0
  0
ARC
  5
84E9
  8
0
  6
CONTINUOUS
 10
407.37350038267351
 20
656.07285552737039
 30
0.0
 40
2.0
 50
10.00000100000196
 51
90.0
  0
ARC
  5
84EA
  8
0
  6
CONTINUOUS
 10
216.5121953826735
 20
656.07285552737039
 30
0.0
 40
2.0
 50
90.0
 51
169.9999989999979
  0
LINE
  5
84EB
  8
0
  6
CONTINUOUS
 10
212.0631893826735
 20
642.35883052737006
 30
0.0
 11
214.54257938267361
 21
656.42015152737008
 31
0.0
  0
ARC
  5
84EC
  8
0
  6
CONTINUOUS
 10
216.69333638267349
 20
652.10767052737037
 30
0.0
 40
2.0
 50
90.0
 51
170.00000000000139
  0
LINE
  5
84ED
  8
0
  6
CONTINUOUS
 10
212.0631893826735
 20
637.36634552737041
 30
0.0
 11
214.72372038267349
 21
652.4549665273704
 31
0.0
  0
ARC
  5
84EE
  8
0
  6
CONTINUOUS
 10
216.97456438267349
 20
646.53024252737043
 30
0.0
 40
2.0
 50
90.0
 51
170.00000000000139
  0
LINE
  5
84EF
  8
0
  6
CONTINUOUS
 10
212.0631893826735
 20
630.19399352737025
 30
0.0
 11
215.0049483826734
 21
646.87753952737023
 31
0.0
  0
ARC
  5
84F0
  8
0
  6
CONTINUOUS
 10
217.06982838267339
 20
640.52957552737007
 30
0.0
 40
2.0
 50
90.0
 51
169.9999989999979
  0
LINE
  5
84F1
  8
0
  6
CONTINUOUS
 10
212.0631893826735
 20
623.65305752737038
 30
0.0
 11
215.10021238267359
 21
640.87687152736999
 31
0.0
  0
LINE
  5
84F2
  8
0
  6
CONTINUOUS
 10
410.93493038267349
 20
647.39251952737038
 30
0.0
 11
409.34311538267349
 21
656.42015152737008
 31
0.0
  0
LINE
  5
84F3
  8
0
  6
CONTINUOUS
 10
212.0631893826735
 20
642.35883052737006
 30
0.0
 11
212.94349938267351
 21
642.35883052737006
 31
0.0
  0
ARC
  5
84F4
  8
0
  6
CONTINUOUS
 10
407.24412238267331
 20
652.10767052737037
 30
0.0
 40
2.0
 50
9.9999999999986073
 51
90.0
  0
LINE
  5
84F5
  8
0
  6
CONTINUOUS
 10
410.1063843826733
 20
647.39251952737038
 30
0.0
 11
409.21373838267328
 21
652.4549665273704
 31
0.0
  0
ARC
  5
84F6
  8
0
  6
CONTINUOUS
 10
342.45220738267352
 20
646.53024252737043
 30
0.0
 40
2.0
 50
5.5986529999989596
 51
90.0
  0
ARC
  5
84F7
  8
0
  6
CONTINUOUS
 10
342.45025238267351
 20
640.52957552737007
 30
0.0
 40
2.0
 50
5.4290190000020546
 51
90.0
  0
LINE
  5
84F8
  8
0
  6
CONTINUOUS
 10
413.0631893826735
 20
523.80616452737036
 30
0.0
 11
413.0631893826735
 21
625.59480352737035
 31
0.0
  0
LINE
  5
84F9
  8
0
  6
CONTINUOUS
 10
413.0631893826735
 20
647.39251952737038
 30
0.0
 11
413.0631893826735
 21
651.52887052737037
 31
0.0
  0
LINE
  5
84FA
  8
0
  6
CONTINUOUS
 10
361.02006538267352
 20
637.36634552737041
 30
0.0
 11
377.0631883826735
 21
641.96620752737022
 31
0.0
  0
LINE
  5
84FB
  8
0
  6
CONTINUOUS
 10
345.36010438267351
 20
637.36634552737041
 30
0.0
 11
361.02006538267352
 21
637.36634552737041
 31
0.0
  0
LINE
  5
84FC
  8
0
  6
CONTINUOUS
 10
377.0631883826735
 20
641.96620752737022
 30
0.0
 11
391.75647238267351
 21
641.96620752737022
 31
0.0
  0
ARC
  5
84FD
  8
0
  6
CONTINUOUS
 10
393.76298838267348
 20
635.01213652737022
 30
0.0
 40
2.6003989999999999
 50
179.9999819999943
 51
269.99997799999852
  0
ARC
  5
84FE
  8
0
  6
CONTINUOUS
 10
393.76298838267348
 20
640.31212452737043
 30
0.0
 40
2.600403
 50
90.0
 51
179.9999819999943
  0
LINE
  5
84FF
  8
0
  6
CONTINUOUS
 10
396.5631893826735
 20
637.7281555273704
 30
0.0
 11
395.0631893826735
 21
636.86213052737037
 31
0.0
  0
LINE
  5
8500
  8
0
  6
CONTINUOUS
 10
396.5631893826735
 20
638.7281555273704
 30
0.0
 11
395.0631893826735
 21
637.86213052737025
 31
0.0
  0
LINE
  5
8501
  8
0
  6
CONTINUOUS
 10
396.5631893826735
 20
643.76213052737046
 30
0.0
 11
396.5631893826735
 21
631.56213052737041
 31
0.0
  0
LINE
  5
8502
  8
0
  6
CONTINUOUS
 10
395.06318938267327
 20
643.76213052737046
 30
0.0
 11
396.5631893826735
 21
643.76213052737046
 31
0.0
  0
LINE
  5
8503
  8
0
  6
CONTINUOUS
 10
395.0631893826735
 20
631.56213052737041
 30
0.0
 11
396.5631893826735
 21
631.56213052737041
 31
0.0
  0
LINE
  5
8504
  8
0
  6
CONTINUOUS
 10
391.16319538267351
 20
640.31212452737043
 30
0.0
 11
391.16319538267351
 21
635.01213652737022
 31
0.0
  0
LINE
  5
8505
  8
0
  6
CONTINUOUS
 10
395.06318938267327
 20
643.76213052737046
 30
0.0
 11
395.0631893826735
 21
631.56213052737041
 31
0.0
  0
LINE
  5
8506
  8
0
  6
CONTINUOUS
 10
395.0631893826735
 20
632.41213052737021
 30
0.0
 11
393.76298838267348
 21
632.41213052737021
 31
0.0
  0
LINE
  5
8507
  8
0
  6
CONTINUOUS
 10
395.06318938267327
 20
642.91213052737021
 30
0.0
 11
393.76298838267331
 21
642.91213052737021
 31
0.0
  0
ARC
  5
8508
  8
0
  6
CONTINUOUS
 10
393.76298838267348
 20
508.97020952737017
 30
0.0
 40
2.6003989999999999
 50
179.9999819999943
 51
269.99997799999852
  0
ARC
  5
8509
  8
0
  6
CONTINUOUS
 10
393.76298838267348
 20
514.27019752737033
 30
0.0
 40
2.600403
 50
90.0
 51
179.9999819999943
  0
LINE
  5
850A
  8
0
  6
CONTINUOUS
 10
396.5631893826735
 20
511.6862285273703
 30
0.0
 11
395.0631893826735
 21
510.82020352737032
 31
0.0
  0
LINE
  5
850B
  8
0
  6
CONTINUOUS
 10
396.5631893826735
 20
512.6862285273703
 30
0.0
 11
395.0631893826735
 21
511.82020352737032
 31
0.0
  0
LINE
  5
850C
  8
0
  6
CONTINUOUS
 10
396.5631893826735
 20
517.72020352737024
 30
0.0
 11
396.5631893826735
 21
505.52020352737031
 31
0.0
  0
LINE
  5
850D
  8
0
  6
CONTINUOUS
 10
395.06318938267327
 20
517.72020352737024
 30
0.0
 11
396.5631893826735
 21
517.72020352737024
 31
0.0
  0
LINE
  5
850E
  8
0
  6
CONTINUOUS
 10
395.0631893826735
 20
505.52020352737031
 30
0.0
 11
396.5631893826735
 21
505.52020352737031
 31
0.0
  0
LINE
  5
850F
  8
0
  6
CONTINUOUS
 10
391.16319538267351
 20
514.27019752737033
 30
0.0
 11
391.16319538267351
 21
508.97020952737017
 31
0.0
  0
LINE
  5
8510
  8
0
  6
CONTINUOUS
 10
395.06318938267327
 20
517.72020352737024
 30
0.0
 11
395.0631893826735
 21
505.52020352737031
 31
0.0
  0
LINE
  5
8511
  8
0
  6
CONTINUOUS
 10
395.0631893826735
 20
506.37020352737028
 30
0.0
 11
393.76298838267348
 21
506.37020352737028
 31
0.0
  0
LINE
  5
8512
  8
0
  6
CONTINUOUS
 10
395.06318938267327
 20
516.87020352737034
 30
0.0
 11
393.76298838267331
 21
516.87020352737034
 31
0.0
  0
LINE
  5
8513
  8
0
  6
CONTINUOUS
 10
411.00235938267349
 20
651.52887052737037
 30
0.0
 11
413.0631893826735
 21
651.52887052737037
 31
0.0
  0
LINE
  5
8514
  8
0
  6
CONTINUOUS
 10
216.69333638267349
 20
654.10767052737015
 30
0.0
 11
407.24412238267331
 21
654.10767052737015
 31
0.0
  0
LINE
  5
8515
  8
0
  6
CONTINUOUS
 10
216.5121953826735
 20
658.07285552737039
 30
0.0
 11
407.37350038267351
 21
658.07285552737039
 31
0.0
  0
LINE
  5
8516
  8
0
  6
CONTINUOUS
 10
216.39440438267351
 20
660.62558952737038
 30
0.0
 11
407.45935538267332
 21
660.62558952737038
 31
0.0
  0
LINE
  5
8517
  8
0
  6
CONTINUOUS
 10
208.5631893826735
 20
657.02887052737037
 30
0.0
 11
214.08200738267351
 21
657.02887052737037
 31
0.0
  0
LINE
  5
8518
  8
0
  6
CONTINUOUS
 10
231.3274343826736
 20
661.81536352737021
 30
0.0
 11
298.0631893826735
 21
661.81536352737021
 31
0.0
  0
LINE
  5
8519
  8
0
  6
CONTINUOUS
 10
377.0631883826735
 20
620.68887052737023
 30
0.0
 11
377.0631883826735
 21
615.34387052737043
 31
0.0
  0
LINE
  5
851A
  8
0
  6
CONTINUOUS
 10
361.02006538267352
 20
620.68887052737023
 30
0.0
 11
361.02006538267352
 21
615.34387052737043
 31
0.0
  0
LINE
  5
851B
  8
0
  6
CONTINUOUS
 10
377.0631883826735
 20
630.98493052737024
 30
0.0
 11
377.0631883826735
 21
623.38887052737016
 31
0.0
  0
LINE
  5
851C
  8
0
  6
CONTINUOUS
 10
377.0631883826735
 20
639.38165752737041
 30
0.0
 11
391.16319538267351
 21
639.38165752737041
 31
0.0
  0
LINE
  5
851D
  8
0
  6
CONTINUOUS
 10
212.0631893826735
 20
623.65305752737038
 30
0.0
 11
346.0631893826735
 21
623.65305752737038
 31
0.0
  0
LINE
  5
851E
  8
0
  6
CONTINUOUS
 10
345.38556238267358
 20
630.19399352737025
 30
0.0
 11
346.0631893826735
 21
630.19399352737025
 31
0.0
  0
LINE
  5
851F
  8
0
  6
CONTINUOUS
 10
217.06982838267339
 20
642.52957552737007
 30
0.0
 11
342.45025238267351
 21
642.52957552737007
 31
0.0
  0
LINE
  5
8520
  8
0
  6
CONTINUOUS
 10
212.0631893826735
 20
630.19399352737025
 30
0.0
 11
213.21653238267339
 21
630.19399352737025
 31
0.0
  0
LINE
  5
8521
  8
0
  6
CONTINUOUS
 10
216.97456438267349
 20
648.53024252737043
 30
0.0
 11
342.45220738267352
 21
648.53024252737043
 31
0.0
  0
LINE
  5
8522
  8
0
  6
CONTINUOUS
 10
413.0631893826735
 20
625.59480352737035
 30
0.0
 11
416.06318938267327
 21
623.86275252737016
 31
0.0
  0
ARC
  5
8523
  8
0
  6
CONTINUOUS
 10
395.5631893826735
 20
626.59480352737023
 30
0.0
 40
1.0
 50
270.0
 51
0.0
  0
ARC
  5
8524
  8
0
  6
CONTINUOUS
 10
398.5631893826735
 20
645.39251952737015
 30
0.0
 40
2.0
 50
90.0
 51
180.0
  0
ARC
  5
8525
  8
0
  6
CONTINUOUS
 10
398.5631893826735
 20
641.26851452737026
 30
0.0
 40
2.0
 50
180.0
 51
270.0
  0
ARC
  5
8526
  8
0
  6
CONTINUOUS
 10
398.5631893826735
 20
637.26851452737026
 30
0.0
 40
2.0
 50
90.0
 51
180.0
  0
LINE
  5
8527
  8
0
  6
CONTINUOUS
 10
398.5631893826735
 20
647.39251952737038
 30
0.0
 11
416.06318938267327
 21
647.39251952737038
 31
0.0
  0
LINE
  5
8528
  8
0
  6
CONTINUOUS
 10
396.5631893826735
 20
625.59480352737035
 30
0.0
 11
413.0631893826735
 21
625.59480352737035
 31
0.0
  0
LINE
  5
8529
  8
0
  6
CONTINUOUS
 10
398.5631893826735
 20
639.26851452737014
 30
0.0
 11
416.06318938267327
 21
639.26851452737014
 31
0.0
  0
LINE
  5
852A
  8
0
  6
CONTINUOUS
 10
396.5631893826735
 20
626.59480352737023
 30
0.0
 11
396.5631893826735
 21
645.39251952737015
 31
0.0
  0
LINE
  5
852B
  8
0
  6
CONTINUOUS
 10
212.0631893826735
 20
479.52887052737032
 30
0.0
 11
208.5631893826735
 21
479.52887052737032
 31
0.0
  0
LINE
  5
852C
  8
0
  6
CONTINUOUS
 10
212.0631893826735
 20
529.17008152737037
 30
0.0
 11
216.6705653826734
 21
522.73847552737016
 31
0.0
  0
LINE
  5
852D
  8
0
  6
CONTINUOUS
 10
216.6705653826734
 20
522.73847552737016
 30
0.0
 11
217.5263653826735
 21
525.36539552737031
 31
0.0
  0
LINE
  5
852E
  8
0
  6
CONTINUOUS
 10
212.0631893826735
 20
529.17008152737037
 30
0.0
 11
217.5263653826735
 21
525.36539552737031
 31
0.0
  0
LINE
  5
852F
  8
0
  6
CONTINUOUS
 10
217.5263653826735
 20
525.36539552737031
 30
0.0
 11
218.73829538267341
 21
524.80943552737017
 31
0.0
  0
LINE
  5
8530
  8
0
  6
CONTINUOUS
 10
208.5631893826735
 20
522.73847552737016
 30
0.0
 11
216.6705653826734
 21
522.73847552737016
 31
0.0
  0
LINE
  5
8531
  8
0
  6
CONTINUOUS
 10
208.5631893826735
 20
529.17008152737037
 30
0.0
 11
212.0631893826735
 21
529.17008152737037
 31
0.0
  0
LINE
  5
8532
  8
0
  6
CONTINUOUS
 10
212.0631893826735
 20
506.59669552737029
 30
0.0
 11
212.0631893826735
 21
503.40380152737021
 31
0.0
  0
LINE
  5
8533
  8
0
  6
CONTINUOUS
 10
213.82318938267349
 20
506.02826152737032
 30
0.0
 11
213.82318938267349
 21
504.02947952737043
 31
0.0
  0
LINE
  5
8534
  8
0
  6
CONTINUOUS
 10
228.82318938267349
 20
515.02887052737037
 30
0.0
 11
228.82318938267349
 21
513.02947952737031
 31
0.0
  0
LINE
  5
8535
  8
0
  6
CONTINUOUS
 10
227.0631893826735
 20
515.49041252737015
 30
0.0
 11
227.0631893826735
 21
512.4226775273703
 31
0.0
  0
LINE
  5
8536
  8
0
  6
CONTINUOUS
 10
227.0631893826735
 20
515.49041252737015
 30
0.0
 11
309.0631893826735
 21
515.49041252737015
 31
0.0
  0
LINE
  5
8537
  8
0
  6
CONTINUOUS
 10
227.0631893826735
 20
512.4226775273703
 30
0.0
 11
309.0631893826735
 21
512.4226775273703
 31
0.0
  0
LINE
  5
8538
  8
0
  6
CONTINUOUS
 10
212.0631893826735
 20
503.40380152737021
 30
0.0
 11
309.0631893826735
 21
503.40380152737021
 31
0.0
  0
LINE
  5
8539
  8
0
  6
CONTINUOUS
 10
212.0631893826735
 20
506.59669552737029
 30
0.0
 11
309.0631893826735
 21
506.59669552737029
 31
0.0
  0
LINE
  5
853A
  8
0
  6
CONTINUOUS
 10
213.82318938267349
 20
506.02826152737032
 30
0.0
 11
309.0631893826735
 21
506.02826152737032
 31
0.0
  0
LINE
  5
853B
  8
0
  6
CONTINUOUS
 10
213.82318938267349
 20
504.02947952737043
 30
0.0
 11
309.0631893826735
 21
504.02947952737043
 31
0.0
  0
LINE
  5
853C
  8
0
  6
CONTINUOUS
 10
213.82318938267349
 20
506.02826152737032
 30
0.0
 11
212.0631893826735
 21
506.59669552737029
 31
0.0
  0
LINE
  5
853D
  8
0
  6
CONTINUOUS
 10
213.82318938267349
 20
504.02947952737043
 30
0.0
 11
212.0631893826735
 21
503.40380152737021
 31
0.0
  0
LINE
  5
853E
  8
0
  6
CONTINUOUS
 10
217.00645538267349
 20
512.77079152737031
 30
0.0
 11
218.1875463826735
 21
512.53338252737035
 31
0.0
  0
LINE
  5
853F
  8
0
  6
CONTINUOUS
 10
228.82318938267349
 20
515.02887052737037
 30
0.0
 11
309.0631893826735
 21
515.02887052737037
 31
0.0
  0
LINE
  5
8540
  8
0
  6
CONTINUOUS
 10
228.82318938267349
 20
513.02947952737031
 30
0.0
 11
309.0631893826735
 21
513.02947952737031
 31
0.0
  0
LINE
  5
8541
  8
0
  6
CONTINUOUS
 10
228.82318938267349
 20
515.02887052737037
 30
0.0
 11
227.0631893826735
 21
515.49041252737015
 31
0.0
  0
LINE
  5
8542
  8
0
  6
CONTINUOUS
 10
228.82318938267349
 20
513.02947952737031
 30
0.0
 11
227.0631893826735
 21
512.4226775273703
 31
0.0
  0
LINE
  5
8543
  8
0
  6
CONTINUOUS
 10
346.0631893826735
 20
515.49041252737015
 30
0.0
 11
309.0631893826735
 21
515.49041252737015
 31
0.0
  0
LINE
  5
8544
  8
0
  6
CONTINUOUS
 10
346.0631893826735
 20
512.4226775273703
 30
0.0
 11
309.0631893826735
 21
512.4226775273703
 31
0.0
  0
LINE
  5
8545
  8
0
  6
CONTINUOUS
 10
344.30318938267351
 20
515.02887052737037
 30
0.0
 11
309.0631893826735
 21
515.02887052737037
 31
0.0
  0
LINE
  5
8546
  8
0
  6
CONTINUOUS
 10
344.30318938267351
 20
513.02947952737031
 30
0.0
 11
309.0631893826735
 21
513.02947952737031
 31
0.0
  0
LINE
  5
8547
  8
0
  6
CONTINUOUS
 10
344.30318938267351
 20
513.02947952737031
 30
0.0
 11
346.0631893826735
 21
512.4226775273703
 31
0.0
  0
LINE
  5
8548
  8
0
  6
CONTINUOUS
 10
344.30318938267351
 20
515.02887052737037
 30
0.0
 11
346.0631893826735
 21
515.49041252737015
 31
0.0
  0
LINE
  5
8549
  8
0
  6
CONTINUOUS
 10
346.0631893826735
 20
515.49041252737015
 30
0.0
 11
346.0631893826735
 21
512.4226775273703
 31
0.0
  0
LINE
  5
854A
  8
0
  6
CONTINUOUS
 10
344.30318938267351
 20
515.02887052737037
 30
0.0
 11
344.30318938267351
 21
513.02947952737031
 31
0.0
  0
LINE
  5
854B
  8
0
  6
CONTINUOUS
 10
346.0631893826735
 20
506.59669552737029
 30
0.0
 11
309.0631893826735
 21
506.59669552737029
 31
0.0
  0
LINE
  5
854C
  8
0
  6
CONTINUOUS
 10
344.30318938267351
 20
506.02826152737032
 30
0.0
 11
309.0631893826735
 21
506.02826152737032
 31
0.0
  0
LINE
  5
854D
  8
0
  6
CONTINUOUS
 10
344.30318938267351
 20
504.02947952737043
 30
0.0
 11
309.0631893826735
 21
504.02947952737043
 31
0.0
  0
LINE
  5
854E
  8
0
  6
CONTINUOUS
 10
344.30318938267351
 20
504.02947952737043
 30
0.0
 11
346.0631893826735
 21
503.40380152737021
 31
0.0
  0
LINE
  5
854F
  8
0
  6
CONTINUOUS
 10
344.30318938267351
 20
506.02826152737032
 30
0.0
 11
346.0631893826735
 21
506.59669552737029
 31
0.0
  0
LINE
  5
8550
  8
0
  6
CONTINUOUS
 10
344.30318938267351
 20
506.02826152737032
 30
0.0
 11
344.30318938267351
 21
504.02947952737043
 31
0.0
  0
LINE
  5
8551
  8
0
  6
CONTINUOUS
 10
346.0631893826735
 20
506.59669552737029
 30
0.0
 11
346.0631893826735
 21
503.40380152737021
 31
0.0
  0
LINE
  5
8552
  8
0
  6
CONTINUOUS
 10
212.0631893826735
 20
503.40380152737021
 30
0.0
 11
213.65593138267349
 21
486.1046145273703
 31
0.0
  0
LINE
  5
8553
  8
0
  6
CONTINUOUS
 10
212.0631893826735
 20
496.86374752737038
 30
0.0
 11
212.66533438267359
 21
496.86374752737038
 31
0.0
  0
LINE
  5
8554
  8
0
  6
CONTINUOUS
 10
212.0631893826735
 20
489.69139552737039
 30
0.0
 11
212.74596638267349
 21
489.69139552737039
 31
0.0
  0
LINE
  5
8555
  8
0
  6
CONTINUOUS
 10
212.0631893826735
 20
484.69891052737029
 30
0.0
 11
212.5877023826734
 21
484.69891052737029
 31
0.0
  0
LINE
  5
8556
  8
0
  6
CONTINUOUS
 10
212.0631893826735
 20
481.47815452737018
 30
0.0
 11
212.4231313826736
 21
481.47815452737018
 31
0.0
  0
LINE
  5
8557
  8
0
  6
CONTINUOUS
 10
212.01641238267359
 20
479.90857352737032
 30
0.0
 11
212.24680338267339
 21
479.90857352737032
 31
0.0
  0
LINE
  5
8558
  8
0
  6
CONTINUOUS
 10
212.0631893826735
 20
496.86374752737038
 30
0.0
 11
213.65084138267341
 21
480.18597352737032
 31
0.0
  0
LINE
  5
8559
  8
0
  6
CONTINUOUS
 10
212.0631893826735
 20
489.69139552737039
 30
0.0
 11
213.6350223826735
 21
474.73018452737023
 31
0.0
  0
LINE
  5
855A
  8
0
  6
CONTINUOUS
 10
212.0631893826735
 20
484.69891052737029
 30
0.0
 11
213.62450038267349
 21
470.72831952737039
 31
0.0
  0
LINE
  5
855B
  8
0
  6
CONTINUOUS
 10
212.0631893826735
 20
481.47815452737018
 30
0.0
 11
213.61640838267351
 21
468.2008265273704
 31
0.0
  0
LINE
  5
855C
  8
0
  6
CONTINUOUS
 10
212.01641238267359
 20
479.90857352737032
 30
0.0
 11
213.6069283826734
 21
466.99783952737027
 31
0.0
  0
ARC
  5
855D
  8
0
  6
CONTINUOUS
 10
215.64750738267341
 20
486.28797952737028
 30
0.0
 40
2.0
 50
185.2604109999981
 51
270.0
  0
ARC
  5
855E
  8
0
  6
CONTINUOUS
 10
215.6418393826736
 20
480.3755085273703
 30
0.0
 40
2.0
 50
185.4379219999999
 51
270.0
  0
ARC
  5
855F
  8
0
  6
CONTINUOUS
 10
215.62407538267351
 20
474.93915552737019
 30
0.0
 40
2.0
 50
185.99752600000019
 51
270.0
  0
ARC
  5
8560
  8
0
  6
CONTINUOUS
 10
215.61212638267349
 20
470.95045052737032
 30
0.0
 40
2.0
 50
186.376742000001
 51
270.0
  0
ARC
  5
8561
  8
0
  6
CONTINUOUS
 10
215.60286238267349
 20
468.43320752737043
 30
0.0
 40
2.0
 50
186.67229399999829
 51
270.0
  0
ARC
  5
8562
  8
0
  6
CONTINUOUS
 10
215.59192238267349
 20
467.24237752737042
 30
0.0
 40
2.0
 50
187.02306899999661
 51
270.0
  0
LINE
  5
8563
  8
0
  6
CONTINUOUS
 10
218.73829538267341
 20
524.80943552737017
 30
0.0
 11
218.73829538267341
 21
512.4226775273703
 31
0.0
  0
LINE
  5
8564
  8
0
  6
CONTINUOUS
 10
216.6705653826734
 20
522.73847552737016
 30
0.0
 11
216.6705653826734
 21
512.83830852737037
 31
0.0
  0
LINE
  5
8565
  8
0
  6
CONTINUOUS
 10
208.5631893826735
 20
512.4226775273703
 30
0.0
 11
218.73829538267341
 21
512.4226775273703
 31
0.0
  0
LINE
  5
8566
  8
0
  6
CONTINUOUS
 10
208.5631893826735
 20
512.83830852737037
 30
0.0
 11
216.6705653826734
 21
512.83830852737037
 31
0.0
  0
LINE
  5
8567
  8
0
  6
CONTINUOUS
 10
411.06318938267327
 20
578.70887052737021
 30
0.0
 11
409.30318938267351
 21
579.25887052737016
 31
0.0
  0
LINE
  5
8568
  8
0
  6
CONTINUOUS
 10
411.06318938267327
 20
581.3488705273702
 30
0.0
 11
411.06318938267327
 21
578.70887052737021
 31
0.0
  0
LINE
  5
8569
  8
0
  6
CONTINUOUS
 10
409.30318938267351
 20
580.85887052737041
 30
0.0
 11
411.06318938267327
 21
581.3488705273702
 31
0.0
  0
LINE
  5
856A
  8
0
  6
CONTINUOUS
 10
409.30318938267351
 20
580.85887052737041
 30
0.0
 11
409.30318938267351
 21
579.25887052737016
 31
0.0
  0
LINE
  5
856B
  8
0
  6
CONTINUOUS
 10
411.06318938267327
 20
567.70887052737021
 30
0.0
 11
409.30318938267351
 21
568.25887052737039
 31
0.0
  0
LINE
  5
856C
  8
0
  6
CONTINUOUS
 10
411.06318938267327
 20
570.34887052737008
 30
0.0
 11
411.06318938267327
 21
567.70887052737021
 31
0.0
  0
LINE
  5
856D
  8
0
  6
CONTINUOUS
 10
409.30318938267351
 20
569.85887052737041
 30
0.0
 11
411.06318938267327
 21
570.34887052737008
 31
0.0
  0
LINE
  5
856E
  8
0
  6
CONTINUOUS
 10
409.30318938267351
 20
569.85887052737041
 30
0.0
 11
409.30318938267351
 21
568.25887052737039
 31
0.0
  0
LINE
  5
856F
  8
0
  6
CONTINUOUS
 10
411.06318938267327
 20
556.70887052737032
 30
0.0
 11
409.30318938267351
 21
557.25887052737028
 31
0.0
  0
LINE
  5
8570
  8
0
  6
CONTINUOUS
 10
411.06318938267327
 20
559.34887052737031
 30
0.0
 11
411.06318938267327
 21
556.70887052737032
 31
0.0
  0
LINE
  5
8571
  8
0
  6
CONTINUOUS
 10
409.30318938267351
 20
558.8588705273703
 30
0.0
 11
411.06318938267327
 21
559.34887052737031
 31
0.0
  0
LINE
  5
8572
  8
0
  6
CONTINUOUS
 10
409.30318938267351
 20
558.8588705273703
 30
0.0
 11
409.30318938267351
 21
557.25887052737028
 31
0.0
  0
LINE
  5
8573
  8
0
  6
CONTINUOUS
 10
411.06318938267327
 20
545.70887052737032
 30
0.0
 11
409.30318938267351
 21
546.25887052737016
 31
0.0
  0
LINE
  5
8574
  8
0
  6
CONTINUOUS
 10
411.06318938267327
 20
548.3488705273702
 30
0.0
 11
411.06318938267327
 21
545.70887052737032
 31
0.0
  0
LINE
  5
8575
  8
0
  6
CONTINUOUS
 10
409.30318938267351
 20
547.85887052737041
 30
0.0
 11
411.06318938267327
 21
548.3488705273702
 31
0.0
  0
LINE
  5
8576
  8
0
  6
CONTINUOUS
 10
409.30318938267351
 20
547.85887052737041
 30
0.0
 11
409.30318938267351
 21
546.25887052737016
 31
0.0
  0
LINE
  5
8577
  8
0
  6
CONTINUOUS
 10
410.47485838267352
 20
477.01959052737038
 30
0.0
 11
409.44322938267328
 21
468.20082952737022
 31
0.0
  0
LINE
  5
8578
  8
0
  6
CONTINUOUS
 10
409.40797238267351
 20
470.7280235273704
 30
0.0
 11
410.46292938267351
 21
480.15501052737039
 31
0.0
  0
LINE
  5
8579
  8
0
  6
CONTINUOUS
 10
409.43504238267332
 20
474.72887952737028
 30
0.0
 11
410.5339543826733
 21
485.12305352737019
 31
0.0
  0
LINE
  5
857A
  8
0
  6
CONTINUOUS
 10
410.58489538267332
 20
491.65967352737039
 30
0.0
 11
409.45961438267329
 21
480.18038952737032
 31
0.0
  0
LINE
  5
857B
  8
0
  6
CONTINUOUS
 10
410.6260623826733
 20
499.06941552737032
 30
0.0
 11
409.39334538267332
 21
486.09875452737037
 31
0.0
  0
LINE
  5
857C
  8
0
  6
CONTINUOUS
 10
410.53498138267349
 20
475.88326252737022
 30
0.0
 11
409.46294838267329
 21
467.00268452737032
 31
0.0
  0
LINE
  5
857D
  8
0
  6
CONTINUOUS
 10
409.30318938267351
 20
536.8588705273703
 30
0.0
 11
409.30318938267351
 21
535.25887052737039
 31
0.0
  0
LINE
  5
857E
  8
0
  6
CONTINUOUS
 10
409.30318938267351
 20
536.8588705273703
 30
0.0
 11
411.06318938267327
 21
537.34887052737031
 31
0.0
  0
LINE
  5
857F
  8
0
  6
CONTINUOUS
 10
411.06318938267327
 20
537.34887052737031
 30
0.0
 11
411.06318938267327
 21
534.70887052737032
 31
0.0
  0
LINE
  5
8580
  8
0
  6
CONTINUOUS
 10
411.06318938267327
 20
534.70887052737032
 30
0.0
 11
409.30318938267351
 21
535.25887052737039
 31
0.0
  0
LINE
  5
8581
  8
0
  6
CONTINUOUS
 10
409.30318938267351
 20
591.85887052737041
 30
0.0
 11
409.30318938267351
 21
590.25887052737039
 31
0.0
  0
LINE
  5
8582
  8
0
  6
CONTINUOUS
 10
409.30318938267351
 20
591.85887052737041
 30
0.0
 11
411.06318938267327
 21
592.3488705273702
 31
0.0
  0
LINE
  5
8583
  8
0
  6
CONTINUOUS
 10
411.06318938267327
 20
592.3488705273702
 30
0.0
 11
411.06318938267327
 21
589.70887052736987
 31
0.0
  0
LINE
  5
8584
  8
0
  6
CONTINUOUS
 10
411.06318938267327
 20
589.70887052736987
 30
0.0
 11
409.30318938267351
 21
590.25887052737039
 31
0.0
  0
LINE
  5
8585
  8
0
  6
CONTINUOUS
 10
361.02006538267352
 20
589.70887052736987
 30
0.0
 11
361.02006538267352
 21
581.3488705273702
 31
0.0
  0
LINE
  5
8586
  8
0
  6
CONTINUOUS
 10
377.0631883826735
 20
589.70887052736987
 30
0.0
 11
377.0631883826735
 21
581.3488705273702
 31
0.0
  0
LINE
  5
8587
  8
0
  6
CONTINUOUS
 10
377.0631883826735
 20
578.70887052737021
 30
0.0
 11
377.0631883826735
 21
570.34887052737008
 31
0.0
  0
LINE
  5
8588
  8
0
  6
CONTINUOUS
 10
361.02006538267352
 20
578.70887052737021
 30
0.0
 11
361.02006538267352
 21
570.34887052737008
 31
0.0
  0
LINE
  5
8589
  8
0
  6
CONTINUOUS
 10
361.02006538267352
 20
567.70887052737021
 30
0.0
 11
361.02006538267352
 21
559.34887052737031
 31
0.0
  0
LINE
  5
858A
  8
0
  6
CONTINUOUS
 10
377.0631883826735
 20
567.70887052737021
 30
0.0
 11
377.0631883826735
 21
559.34887052737031
 31
0.0
  0
LINE
  5
858B
  8
0
  6
CONTINUOUS
 10
377.0631883826735
 20
556.70887052737032
 30
0.0
 11
377.0631883826735
 21
548.3488705273702
 31
0.0
  0
LINE
  5
858C
  8
0
  6
CONTINUOUS
 10
361.02006538267352
 20
556.70887052737032
 30
0.0
 11
361.02006538267352
 21
548.3488705273702
 31
0.0
  0
LINE
  5
858D
  8
0
  6
CONTINUOUS
 10
361.02006538267352
 20
545.70887052737032
 30
0.0
 11
361.02006538267352
 21
537.34887052737031
 31
0.0
  0
LINE
  5
858E
  8
0
  6
CONTINUOUS
 10
377.0631883826735
 20
545.70887052737032
 30
0.0
 11
377.0631883826735
 21
537.34887052737031
 31
0.0
  0
LINE
  5
858F
  8
0
  6
CONTINUOUS
 10
377.0631883826735
 20
534.70887052737032
 30
0.0
 11
377.0631883826735
 21
518.92042452737041
 31
0.0
  0
LINE
  5
8590
  8
0
  6
CONTINUOUS
 10
361.02006538267352
 20
534.70887052737032
 30
0.0
 11
361.02006538267352
 21
503.40380152737021
 31
0.0
  0
LINE
  5
8591
  8
0
  6
CONTINUOUS
 10
410.6260623826733
 20
499.06941552737032
 30
0.0
 11
377.0631883826735
 21
499.06941552737032
 31
0.0
  0
LINE
  5
8592
  8
0
  6
CONTINUOUS
 10
410.58489538267332
 20
491.65967352737039
 30
0.0
 11
409.92184938267309
 21
491.65967352737039
 31
0.0
  0
ARC
  5
8593
  8
0
  6
CONTINUOUS
 10
407.40231738267352
 20
486.28797952737028
 30
0.0
 40
2.0
 50
270.0
 51
354.57098099999791
  0
ARC
  5
8594
  8
0
  6
CONTINUOUS
 10
407.46915538267348
 20
480.3755085273703
 30
0.0
 40
2.0
 50
270.0
 51
354.40134700000101
  0
ARC
  5
8595
  8
0
  6
CONTINUOUS
 10
407.4461273826733
 20
474.93915552737019
 30
0.0
 40
2.0
 50
270.0
 51
353.96488600000038
  0
ARC
  5
8596
  8
0
  6
CONTINUOUS
 10
407.42037938267327
 20
470.95045052737032
 30
0.0
 40
2.0
 50
270.0
 51
353.61470099999991
  0
ARC
  5
8597
  8
0
  6
CONTINUOUS
 10
407.4567753826733
 20
468.43320752737043
 30
0.0
 40
2.0
 50
270.0
 51
353.32779999999809
  0
ARC
  5
8598
  8
0
  6
CONTINUOUS
 10
407.4773643826735
 20
467.24237752737042
 30
0.0
 40
2.0
 50
270.0
 51
353.11676000000142
  0
LINE
  5
8599
  8
0
  6
CONTINUOUS
 10
410.5339543826733
 20
485.12305352737019
 30
0.0
 11
409.94412938267351
 21
485.12305352737019
 31
0.0
  0
LINE
  5
859A
  8
0
  6
CONTINUOUS
 10
410.46292938267351
 20
480.15501052737039
 30
0.0
 11
410.0087143826733
 21
480.15501052737039
 31
0.0
  0
LINE
  5
859B
  8
0
  6
CONTINUOUS
 10
410.47485838267352
 20
477.01959052737038
 30
0.0
 11
410.11205038267332
 21
477.01959052737038
 31
0.0
  0
LINE
  5
859C
  8
0
  6
CONTINUOUS
 10
410.53498138267349
 20
475.88326252737022
 30
0.0
 11
410.34192938267353
 21
475.88326252737022
 31
0.0
  0
LINE
  5
859D
  8
0
  6
CONTINUOUS
 10
413.0631893826735
 20
523.80616452737036
 30
0.0
 11
396.5631893826735
 21
523.80616452737036
 31
0.0
  0
LINE
  5
859E
  8
0
  6
CONTINUOUS
 10
416.06318938267327
 20
513.62687252737032
 30
0.0
 11
398.5631893826735
 21
513.62687252737032
 31
0.0
  0
LINE
  5
859F
  8
0
  6
CONTINUOUS
 10
416.06318938267327
 20
501.33959152737032
 30
0.0
 11
398.5631893826735
 21
501.33959152737032
 31
0.0
  0
LINE
  5
85A0
  8
0
  6
CONTINUOUS
 10
396.5631893826735
 20
522.80616452737036
 30
0.0
 11
396.5631893826735
 21
503.33959152737032
 31
0.0
  0
LINE
  5
85A1
  8
0
  6
CONTINUOUS
 10
413.0631893826735
 20
523.80616452737036
 30
0.0
 11
416.06318938267327
 21
525.53821552737031
 31
0.0
  0
ARC
  5
85A2
  8
0
  6
CONTINUOUS
 10
398.5631893826735
 20
515.62687252737032
 30
0.0
 40
2.0
 50
180.0
 51
270.0
  0
ARC
  5
85A3
  8
0
  6
CONTINUOUS
 10
398.5631893826735
 20
503.33959152737032
 30
0.0
 40
2.0
 50
180.0
 51
270.0
  0
ARC
  5
85A4
  8
0
  6
CONTINUOUS
 10
398.5631893826735
 20
511.62687252737038
 30
0.0
 40
2.0
 50
90.0
 51
180.0
  0
LINE
  5
85A5
  8
0
  6
CONTINUOUS
 10
377.0631883826735
 20
507.5080745273703
 30
0.0
 11
377.0631883826735
 21
499.06941552737032
 31
0.0
  0
LINE
  5
85A6
  8
0
  6
CONTINUOUS
 10
361.02006538267352
 20
503.40380152737021
 30
0.0
 11
377.0631883826735
 21
499.06941552737032
 31
0.0
  0
ARC
  5
85A7
  8
0
  6
CONTINUOUS
 10
395.5631893826735
 20
522.80616452737036
 30
0.0
 40
1.0
 50
0.0
 51
90.0
  0
LINE
  5
85A8
  8
0
  6
CONTINUOUS
 10
361.02006538267352
 20
503.40380152737021
 30
0.0
 11
309.0631893826735
 21
503.40380152737021
 31
0.0
  0
LINE
  5
85A9
  8
0
  6
CONTINUOUS
 10
407.4773643826735
 20
465.24237752737019
 30
0.0
 11
215.59192238267349
 21
465.24237752737019
 31
0.0
  0
LINE
  5
85AA
  8
0
  6
CONTINUOUS
 10
407.4567753826733
 20
466.43320752737031
 30
0.0
 11
215.60286238267349
 21
466.43320752737031
 31
0.0
  0
LINE
  5
85AB
  8
0
  6
CONTINUOUS
 10
407.42037938267327
 20
468.95045052737038
 30
0.0
 11
215.61212638267349
 21
468.95045052737038
 31
0.0
  0
LINE
  5
85AC
  8
0
  6
CONTINUOUS
 10
407.4461273826733
 20
472.93915552737042
 30
0.0
 11
215.62407538267351
 21
472.93915552737042
 31
0.0
  0
LINE
  5
85AD
  8
0
  6
CONTINUOUS
 10
407.46915538267348
 20
478.37550852737019
 30
0.0
 11
215.6418393826736
 21
478.37550852737019
 31
0.0
  0
LINE
  5
85AE
  8
0
  6
CONTINUOUS
 10
407.40231738267352
 20
484.28797952737011
 30
0.0
 11
215.64750738267341
 21
484.28797952737011
 31
0.0
  0
LINE
  5
85AF
  8
0
  6
CONTINUOUS
 10
361.02006538267352
 20
637.36634552737041
 30
0.0
 11
361.02006538267352
 21
623.38887052737016
 31
0.0
  0
LINE
  5
85B0
  8
0
  6
CONTINUOUS
 10
377.0631883826735
 20
641.96620752737022
 30
0.0
 11
377.0631883826735
 21
639.38165752737041
 31
0.0
  0
LINE
  5
85B1
  8
0
  6
CONTINUOUS
 10
353.95728538267349
 20
592.3488705273702
 30
0.0
 11
411.06318938267327
 21
592.3488705273702
 31
0.0
  0
LINE
  5
85B2
  8
0
  6
CONTINUOUS
 10
353.95728538267349
 20
591.85887052737041
 30
0.0
 11
409.30318938267351
 21
591.85887052737041
 31
0.0
  0
LINE
  5
85B3
  8
0
  6
CONTINUOUS
 10
353.95728538267349
 20
590.25887052737039
 30
0.0
 11
409.30318938267351
 21
590.25887052737039
 31
0.0
  0
LINE
  5
85B4
  8
0
  6
CONTINUOUS
 10
353.95728538267349
 20
589.70887052736987
 30
0.0
 11
411.06318938267327
 21
589.70887052736987
 31
0.0
  0
LINE
  5
85B5
  8
0
  6
CONTINUOUS
 10
353.95728538267349
 20
537.34887052737031
 30
0.0
 11
411.06318938267327
 21
537.34887052737031
 31
0.0
  0
LINE
  5
85B6
  8
0
  6
CONTINUOUS
 10
353.95728538267349
 20
536.8588705273703
 30
0.0
 11
409.30318938267351
 21
536.8588705273703
 31
0.0
  0
LINE
  5
85B7
  8
0
  6
CONTINUOUS
 10
353.95728538267349
 20
535.25887052737039
 30
0.0
 11
409.30318938267351
 21
535.25887052737039
 31
0.0
  0
LINE
  5
85B8
  8
0
  6
CONTINUOUS
 10
353.95728538267349
 20
534.70887052737032
 30
0.0
 11
411.06318938267327
 21
534.70887052737032
 31
0.0
  0
LINE
  5
85B9
  8
0
  6
CONTINUOUS
 10
353.95728538267349
 20
567.70887052737021
 30
0.0
 11
411.06318938267327
 21
567.70887052737021
 31
0.0
  0
LINE
  5
85BA
  8
0
  6
CONTINUOUS
 10
353.95728538267349
 20
568.25887052737039
 30
0.0
 11
409.30318938267351
 21
568.25887052737039
 31
0.0
  0
LINE
  5
85BB
  8
0
  6
CONTINUOUS
 10
353.95728538267349
 20
548.3488705273702
 30
0.0
 11
411.06318938267327
 21
548.3488705273702
 31
0.0
  0
LINE
  5
85BC
  8
0
  6
CONTINUOUS
 10
353.95728538267349
 20
547.85887052737041
 30
0.0
 11
409.30318938267351
 21
547.85887052737041
 31
0.0
  0
LINE
  5
85BD
  8
0
  6
CONTINUOUS
 10
353.95728538267349
 20
546.25887052737016
 30
0.0
 11
409.30318938267351
 21
546.25887052737016
 31
0.0
  0
LINE
  5
85BE
  8
0
  6
CONTINUOUS
 10
353.95728538267349
 20
545.70887052737032
 30
0.0
 11
411.06318938267327
 21
545.70887052737032
 31
0.0
  0
LINE
  5
85BF
  8
0
  6
CONTINUOUS
 10
353.95728538267349
 20
559.34887052737031
 30
0.0
 11
411.06318938267327
 21
559.34887052737031
 31
0.0
  0
LINE
  5
85C0
  8
0
  6
CONTINUOUS
 10
353.95728538267349
 20
558.8588705273703
 30
0.0
 11
409.30318938267351
 21
558.8588705273703
 31
0.0
  0
LINE
  5
85C1
  8
0
  6
CONTINUOUS
 10
353.95728538267349
 20
557.25887052737028
 30
0.0
 11
409.30318938267351
 21
557.25887052737028
 31
0.0
  0
LINE
  5
85C2
  8
0
  6
CONTINUOUS
 10
353.95728538267349
 20
556.70887052737032
 30
0.0
 11
411.06318938267327
 21
556.70887052737032
 31
0.0
  0
LINE
  5
85C3
  8
0
  6
CONTINUOUS
 10
353.95728538267349
 20
581.3488705273702
 30
0.0
 11
411.06318938267327
 21
581.3488705273702
 31
0.0
  0
LINE
  5
85C4
  8
0
  6
CONTINUOUS
 10
353.95728538267349
 20
580.85887052737041
 30
0.0
 11
409.30318938267351
 21
580.85887052737041
 31
0.0
  0
LINE
  5
85C5
  8
0
  6
CONTINUOUS
 10
353.95728538267349
 20
579.25887052737016
 30
0.0
 11
409.30318938267351
 21
579.25887052737016
 31
0.0
  0
LINE
  5
85C6
  8
0
  6
CONTINUOUS
 10
353.95728538267349
 20
578.70887052737021
 30
0.0
 11
411.06318938267327
 21
578.70887052737021
 31
0.0
  0
LINE
  5
85C7
  8
0
  6
CONTINUOUS
 10
353.95728538267349
 20
570.34887052737008
 30
0.0
 11
411.06318938267327
 21
570.34887052737008
 31
0.0
  0
LINE
  5
85C8
  8
0
  6
CONTINUOUS
 10
353.95728538267349
 20
569.85887052737041
 30
0.0
 11
409.30318938267351
 21
569.85887052737041
 31
0.0
  0
LINE
  5
85C9
  8
0
  6
CONTINUOUS
 10
413.0631893826735
 20
475.52887052737032
 30
0.0
 11
413.0631893826735
 21
501.33959152737032
 31
0.0
  0
LINE
  5
85CA
  8
0
  6
CONTINUOUS
 10
410.49220038267327
 20
475.52887052737032
 30
0.0
 11
413.0631893826735
 21
475.52887052737032
 31
0.0
  0
LINE
  5
85CB
  8
0
  6
CONTINUOUS
 10
411.06318938267327
 20
623.38887052737016
 30
0.0
 11
409.30318938267351
 21
622.82887052737021
 31
0.0
  0
LINE
  5
85CC
  8
0
  6
CONTINUOUS
 10
409.30318938267351
 20
621.22887052737042
 30
0.0
 11
411.06318938267327
 21
620.68887052737023
 31
0.0
  0
LINE
  5
85CD
  8
0
  6
CONTINUOUS
 10
411.06318938267327
 20
620.68887052737023
 30
0.0
 11
411.06318938267327
 21
623.38887052737016
 31
0.0
  0
LINE
  5
85CE
  8
0
  6
CONTINUOUS
 10
409.30318938267351
 20
621.22887052737042
 30
0.0
 11
409.30318938267351
 21
622.82887052737021
 31
0.0
  0
LINE
  5
85CF
  8
0
  6
CONTINUOUS
 10
411.06318938267327
 20
615.34387052737043
 30
0.0
 11
409.30318938267351
 21
614.80387052737024
 31
0.0
  0
LINE
  5
85D0
  8
0
  6
CONTINUOUS
 10
409.30318938267351
 20
613.20387052737021
 30
0.0
 11
411.06318938267327
 21
612.7138705273702
 31
0.0
  0
LINE
  5
85D1
  8
0
  6
CONTINUOUS
 10
409.30318938267351
 20
613.20387052737021
 30
0.0
 11
409.30318938267351
 21
614.80387052737024
 31
0.0
  0
LINE
  5
85D2
  8
0
  6
CONTINUOUS
 10
411.06318938267327
 20
612.7138705273702
 30
0.0
 11
411.06318938267327
 21
615.34387052737043
 31
0.0
  0
LINE
  5
85D3
  8
0
  6
CONTINUOUS
 10
346.0631893826735
 20
623.65305752737038
 30
0.0
 11
344.4412803826736
 21
640.71880052737015
 31
0.0
  0
LINE
  5
85D4
  8
0
  6
CONTINUOUS
 10
346.0631893826735
 20
630.19399352737025
 30
0.0
 11
344.44266638267339
 21
646.72536152737041
 31
0.0
  0
LINE
  5
85D5
  8
0
  6
CONTINUOUS
 10
213.3278683826735
 20
637.36634552737041
 30
0.0
 11
212.0631893826735
 21
637.36634552737041
 31
0.0
  0
LINE
  5
85D6
  8
0
  6
CONTINUOUS
 10
212.0631893826735
 20
623.38887052737016
 30
0.0
 11
213.82318938267349
 21
622.82887052737021
 31
0.0
  0
LINE
  5
85D7
  8
0
  6
CONTINUOUS
 10
213.82318938267349
 20
621.22887052737042
 30
0.0
 11
212.0631893826735
 21
620.68887052737023
 31
0.0
  0
LINE
  5
85D8
  8
0
  6
CONTINUOUS
 10
212.0631893826735
 20
615.34387052737043
 30
0.0
 11
213.82318938267349
 21
614.80387052737024
 31
0.0
  0
LINE
  5
85D9
  8
0
  6
CONTINUOUS
 10
213.82318938267349
 20
613.20387052737021
 30
0.0
 11
212.0631893826735
 21
612.7138705273702
 31
0.0
  0
LINE
  5
85DA
  8
0
  6
CONTINUOUS
 10
212.0631893826735
 20
620.68887052737023
 30
0.0
 11
212.0631893826735
 21
623.38887052737016
 31
0.0
  0
LINE
  5
85DB
  8
0
  6
CONTINUOUS
 10
213.82318938267349
 20
621.22887052737042
 30
0.0
 11
213.82318938267349
 21
622.82887052737021
 31
0.0
  0
LINE
  5
85DC
  8
0
  6
CONTINUOUS
 10
213.82318938267349
 20
613.20387052737021
 30
0.0
 11
213.82318938267349
 21
614.80387052737024
 31
0.0
  0
LINE
  5
85DD
  8
0
  6
CONTINUOUS
 10
212.0631893826735
 20
612.7138705273702
 30
0.0
 11
212.0631893826735
 21
615.34387052737043
 31
0.0
  0
LINE
  5
85DE
  8
0
  6
CONTINUOUS
 10
212.0631893826735
 20
602.24830552737023
 30
0.0
 11
265.23203838267352
 21
602.24830552737023
 31
0.0
  0
LINE
  5
85DF
  8
0
  6
CONTINUOUS
 10
220.4331893826735
 20
601.39653252737025
 30
0.0
 11
264.55207538267348
 21
601.39653252737025
 31
0.0
  0
LINE
  5
85E0
  8
0
  6
CONTINUOUS
 10
212.0631893826735
 20
602.24830552737023
 30
0.0
 11
220.4331893826735
 21
601.39653252737025
 31
0.0
  0
LINE
  5
85E1
  8
0
  6
CONTINUOUS
 10
218.73829538267341
 20
524.80943552737017
 30
0.0
 11
265.23203538267347
 21
524.80943552737017
 31
0.0
  0
LINE
  5
85E2
  8
0
  6
CONTINUOUS
 10
220.4331893826735
 20
525.66120852737038
 30
0.0
 11
264.55207238267349
 21
525.66120852737038
 31
0.0
  0
LINE
  5
85E3
  8
0
  6
CONTINUOUS
 10
212.0631893826735
 20
529.17008152737037
 30
0.0
 11
212.0631893826735
 21
602.24830552737023
 31
0.0
  0
LINE
  5
85E4
  8
0
  6
CONTINUOUS
 10
217.5263653826735
 20
525.36539552737031
 30
0.0
 11
220.4331893826735
 21
525.66120852737038
 31
0.0
  0
LINE
  5
85E5
  8
0
  6
CONTINUOUS
 10
220.4331893826735
 20
525.66120852737038
 30
0.0
 11
220.4331893826735
 21
601.39653252737025
 31
0.0
  0
LINE
  5
85E6
  8
0
  6
CONTINUOUS
 10
208.5631893826735
 20
647.1491675273702
 30
0.0
 11
212.3399483826735
 21
647.1491675273702
 31
0.0
  0
LINE
  5
85E7
  8
0
  6
CONTINUOUS
 10
298.0631893826735
 20
664.52887052737037
 30
0.0
 11
320.0631893826735
 21
664.52887052737037
 31
0.0
  0
LINE
  5
85E8
  8
0
  6
CONTINUOUS
 10
298.0631893826735
 20
664.52887052737037
 30
0.0
 11
298.0631893826735
 21
660.62558952737038
 31
0.0
  0
LINE
  5
85E9
  8
0
  6
CONTINUOUS
 10
320.0631893826735
 20
664.52887052737037
 30
0.0
 11
320.0631893826735
 21
660.62558952737038
 31
0.0
  0
LINE
  5
85EA
  8
0
  6
CONTINUOUS
 10
213.82318938267349
 20
621.22887052737042
 30
0.0
 11
409.30318938267351
 21
621.22887052737042
 31
0.0
  0
LINE
  5
85EB
  8
0
  6
CONTINUOUS
 10
213.82318938267349
 20
622.82887052737021
 30
0.0
 11
409.30318938267351
 21
622.82887052737021
 31
0.0
  0
LINE
  5
85EC
  8
0
  6
CONTINUOUS
 10
212.0631893826735
 20
620.68887052737023
 30
0.0
 11
411.06318938267327
 21
620.68887052737023
 31
0.0
  0
LINE
  5
85ED
  8
0
  6
CONTINUOUS
 10
212.0631893826735
 20
623.38887052737016
 30
0.0
 11
411.06318938267327
 21
623.38887052737016
 31
0.0
  0
LINE
  5
85EE
  8
0
  6
CONTINUOUS
 10
212.0631893826735
 20
612.7138705273702
 30
0.0
 11
411.06318938267327
 21
612.7138705273702
 31
0.0
  0
LINE
  5
85EF
  8
0
  6
CONTINUOUS
 10
212.0631893826735
 20
615.34387052737043
 30
0.0
 11
411.06318938267327
 21
615.34387052737043
 31
0.0
  0
LINE
  5
85F0
  8
0
  6
CONTINUOUS
 10
213.82318938267349
 20
613.20387052737021
 30
0.0
 11
409.30318938267351
 21
613.20387052737021
 31
0.0
  0
LINE
  5
85F1
  8
0
  6
CONTINUOUS
 10
213.82318938267349
 20
614.80387052737024
 30
0.0
 11
409.30318938267351
 21
614.80387052737024
 31
0.0
  0
LINE
  5
85F2
  8
0
  6
CONTINUOUS
 10
416.06318938267327
 20
478.5288705273702
 30
0.0
 11
413.0631893826735
 21
475.52887052737032
 31
0.0
  0
LINE
  5
85F3
  8
0
  6
CONTINUOUS
 10
416.06318938267327
 20
478.5288705273702
 30
0.0
 11
416.06318938267327
 21
648.52887052737037
 31
0.0
  0
LINE
  5
85F4
  8
0
  6
CONTINUOUS
 10
416.06318938267327
 20
648.52887052737037
 30
0.0
 11
413.0631893826735
 21
651.52887052737037
 31
0.0
  0
LINE
  5
8F38
  8
0
  6
AM_ISO08W050
 10
113.038105787218
 20
1063.417962506034
 30
0.0
 11
835.68038938267216
 21
1063.417962506034
 31
0.0
  0
LINE
  5
8F3D
  8
0
  6
CONTINUOUS
 10
825.06313938267272
 20
1090.917962506034
 30
0.0
 11
825.06313938267272
 21
1035.917962506034
 31
0.0
  0
LINE
  5
8F48
  8
0
  6
CONTINUOUS
 10
590.06319938267211
 20
1196.417962506034
 30
0.0
 11
590.06319938267211
 21
1068.417962506034
 31
0.0
  0
LINE
  5
8F6D
  8
0
  6
CONTINUOUS
 10
590.06319938267211
 20
930.4179625060342
 30
0.0
 11
564.88869938267271
 21
931.2971125060343
 31
0.0
  0
LINE
  5
8F6E
  8
0
  6
CONTINUOUS
 10
590.06313938267272
 20
1196.417962506034
 30
0.0
 11
564.88863938267264
 21
1195.538812506034
 31
0.0
  0
LINE
  5
8F6F
  8
0
  6
CONTINUOUS
 10
555.23763938267234
 20
1175.441462506034
 30
0.0
 11
538.88863938267264
 21
1174.8705325060339
 31
0.0
  0
LINE
  5
8F70
  8
0
  6
CONTINUOUS
 10
555.23763938267234
 20
951.39440250603377
 30
0.0
 11
538.88863938267264
 21
951.96532250603377
 31
0.0
  0
LINE
  5
8F71
  8
0
  6
CONTINUOUS
 10
534.0631393826726
 20
956.96227250603386
 30
0.0
 11
534.0631393826726
 21
1169.873652506034
 31
0.0
  0
LINE
  5
8F72
  8
0
  6
CENTER
 10
572.06319938267222
 20
1048.237662506034
 30
0.0
 11
572.06319938267222
 21
1077.972522506034
 31
0.0
  0
LINE
  5
8F73
  8
0
  6
CONTINUOUS
 10
552.06319938267234
 20
1058.417962506034
 30
0.0
 11
592.06319938267256
 21
1058.417962506034
 31
0.0
  0
LINE
  5
8F74
  8
0
  6
CONTINUOUS
 10
552.06319938267234
 20
1068.417962506034
 30
0.0
 11
592.06319938267256
 21
1068.417962506034
 31
0.0
  0
LINE
  5
8F75
  8
0
  6
CONTINUOUS
 10
590.06319938267211
 20
1058.417962506034
 30
0.0
 11
590.06319938267211
 21
930.4179625060342
 31
0.0
  0
LINE
  5
8F76
  8
0
  6
CONTINUOUS
 10
560.06313938267238
 20
936.29406250603438
 30
0.0
 11
560.06313938267238
 21
1052.882372506034
 31
0.0
  0
LINE
  5
8F77
  8
0
  6
CONTINUOUS
 10
560.06313938267238
 20
1073.9534825060341
 30
0.0
 11
560.06313938267238
 21
1190.541862506034
 31
0.0
  0
LINE
  5
8F78
  8
0
  6
CONTINUOUS
 10
513.0631393826726
 20
990.41173250603379
 30
0.0
 11
534.0631393826726
 21
990.41173250603379
 31
0.0
  0
LINE
  5
8F79
  8
0
  6
CONTINUOUS
 10
513.0631393826726
 20
1006.642142506034
 30
0.0
 11
534.0631393826726
 21
1006.642142506034
 31
0.0
  0
LINE
  5
8F7A
  8
0
  6
CONTINUOUS
 10
513.0631393826726
 20
1120.193712506034
 30
0.0
 11
534.0631393826726
 21
1120.193712506034
 31
0.0
  0
LINE
  5
8F7B
  8
0
  6
CONTINUOUS
 10
513.0631393826726
 20
1146.613092506034
 30
0.0
 11
534.0631393826726
 21
1146.613092506034
 31
0.0
  0
LINE
  5
8F7C
  8
0
  6
CONTINUOUS
 10
513.0631393826726
 20
1146.613092506034
 30
0.0
 11
513.0631393826726
 21
1120.193712506034
 31
0.0
  0
LINE
  5
8F7D
  8
0
  6
CONTINUOUS
 10
513.0631393826726
 20
1006.642142506034
 30
0.0
 11
513.0631393826726
 21
980.22277250603474
 31
0.0
  0
LINE
  5
8F7E
  8
0
  6
CONTINUOUS
 10
513.0631393826726
 20
980.22277250603474
 30
0.0
 11
534.0631393826726
 21
980.22277250603474
 31
0.0
  0
LINE
  5
8F7F
  8
0
  6
CONTINUOUS
 10
511.06319938267251
 20
965.91790250603435
 30
0.0
 11
529.23769938267264
 21
965.28325250603427
 31
0.0
  0
LINE
  5
8F80
  8
0
  6
CONTINUOUS
 10
513.0631393826726
 20
1136.4241225060341
 30
0.0
 11
534.0631393826726
 21
1136.4241225060341
 31
0.0
  0
LINE
  5
8F81
  8
0
  6
CONTINUOUS
 10
511.0632593826723
 20
1160.917962506034
 30
0.0
 11
529.23775938267261
 21
1161.552602506034
 31
0.0
  0
LINE
  5
8F82
  8
0
  6
CONTINUOUS
 10
511.0632593826723
 20
1160.917962506034
 30
0.0
 11
511.0632593826723
 21
965.91796250603466
 31
0.0
  0
LINE
  5
8F87
  8
0
  6
CONTINUOUS
 10
496.06319938267262
 20
980.72277250603429
 30
0.0
 11
511.06319938267251
 21
980.72277250603429
 31
0.0
  0
LINE
  5
8F88
  8
0
  6
CONTINUOUS
 10
496.06319938267262
 20
990.91173250603435
 30
0.0
 11
511.06319938267251
 21
990.91173250603435
 31
0.0
  0
LINE
  5
8F89
  8
0
  6
CONTINUOUS
 10
496.06319938267262
 20
1007.142142506034
 30
0.0
 11
511.06319938267251
 21
1007.142142506034
 31
0.0
  0
LINE
  5
8F8A
  8
0
  6
CONTINUOUS
 10
496.06319938267262
 20
1120.693712506034
 30
0.0
 11
511.06319938267251
 21
1120.693712506034
 31
0.0
  0
LINE
  5
8F8B
  8
0
  6
CONTINUOUS
 10
496.06319938267262
 20
1136.9241225060341
 30
0.0
 11
511.06319938267251
 21
1136.9241225060341
 31
0.0
  0
LINE
  5
8F8C
  8
0
  6
CONTINUOUS
 10
496.06319938267262
 20
1147.113092506034
 30
0.0
 11
511.06319938267251
 21
1147.113092506034
 31
0.0
  0
LINE
  5
8F8D
  8
0
  6
CONTINUOUS
 10
509.06319938267251
 20
964.4179625060342
 30
0.0
 11
511.06319938267251
 21
966.41796250603466
 31
0.0
  0
LINE
  5
8F8E
  8
0
  6
CONTINUOUS
 10
499.0631393826726
 20
1163.4179025060339
 30
0.0
 11
509.0631393826726
 21
1163.4179025060339
 31
0.0
  0
LINE
  5
8F8F
  8
0
  6
CONTINUOUS
 10
498.06319938267251
 20
964.4179625060342
 30
0.0
 11
509.0631393826726
 21
964.4179625060342
 31
0.0
  0
LINE
  5
8F90
  8
0
  6
CONTINUOUS
 10
496.06319938267262
 20
966.41796250603466
 30
0.0
 11
496.06319938267262
 21
1160.417962506034
 31
0.0
  0
LINE
  5
8F91
  8
0
  6
CONTINUOUS
 10
509.06319938267251
 20
1163.417962506034
 30
0.0
 11
511.06319938267251
 21
1161.417962506034
 31
0.0
  0
LINE
  5
8F92
  8
0
  6
CONTINUOUS
 10
480.12569938267251
 20
1138.980462506034
 30
0.0
 11
494.59871938267253
 21
1153.4534825060341
 31
0.0
  0
LINE
  5
8F93
  8
0
  6
CONTINUOUS
 10
416.06318938267327
 20
989.91796250603386
 30
0.0
 11
416.06318938267327
 21
1136.917962506034
 31
0.0
  0
LINE
  5
8F9A
  8
0
  6
CONTINUOUS
 10
480.1257593826723
 20
987.8554625060342
 30
0.0
 11
494.59871938267253
 21
973.38243250603387
 31
0.0
  0
ARC
  5
8FC1
  8
0
  6
CONTINUOUS
 10
539.06313938267238
 20
956.96227250603386
 30
0.0
 40
5.0
 50
180.000010000001
 51
267.99999999999648
  0
ARC
  5
8FC2
  8
0
  6
CONTINUOUS
 10
539.06313938267238
 20
1169.873652506034
 30
0.0
 40
5.0
 50
91.999997999994306
 51
180.000010000001
  0
ARC
  5
8FC3
  8
0
  6
CONTINUOUS
 10
572.06319938267222
 20
1063.417962506034
 30
0.0
 40
15.0
 50
148.21198000000069
 51
160.5287699999993
  0
ARC
  5
8FC4
  8
0
  6
CONTINUOUS
 10
572.06319938267222
 20
1063.417962506034
 30
0.0
 40
12.5
 50
23.578179999997541
 51
156.42182000000241
  0
ARC
  5
8FC5
  8
0
  6
CONTINUOUS
 10
552.06319938267234
 20
1063.417962506034
 30
0.0
 40
5.0
 50
90.00000299999769
 51
270.0
  0
ARC
  5
8FC6
  8
0
  6
CONTINUOUS
 10
592.06319938267256
 20
1063.417962506034
 30
0.0
 40
5.0
 50
270.0
 51
90.00000299999769
  0
ARC
  5
8FC7
  8
0
  6
CONTINUOUS
 10
572.06319938267222
 20
1063.417962506034
 30
0.0
 40
12.5
 50
203.5781799999975
 51
336.42182999999483
  0
ARC
  5
8FC8
  8
0
  6
CONTINUOUS
 10
572.06319938267222
 20
1063.417962506034
 30
0.0
 40
15.0
 50
199.4712300000007
 51
211.78801999999931
  0
ARC
  5
8FC9
  8
0
  6
CONTINUOUS
 10
565.06313938267272
 20
936.29406250603438
 30
0.0
 40
5.0
 50
180.000010000001
 51
267.99999999999648
  0
ARC
  5
8FCA
  8
0
  6
CONTINUOUS
 10
565.06313938267272
 20
1190.541862506034
 30
0.0
 40
5.0
 50
91.999997999994306
 51
180.000010000001
  0
ARC
  5
8FCB
  8
0
  6
CONTINUOUS
 10
555.06313938267249
 20
1052.882372506034
 30
0.0
 40
5.0
 50
0.0
 51
31.788018000003131
  0
ARC
  5
8FCC
  8
0
  6
CONTINUOUS
 10
555.06313938267249
 20
1073.9534825060341
 30
0.0
 40
5.0
 50
328.21198000000072
 51
0.0
  0
ARC
  5
8FCD
  8
0
  6
CONTINUOUS
 10
529.06319938267256
 20
1166.5495525060339
 30
0.0
 40
5.0
 50
272.00000000000352
 51
0.0
  0
ARC
  5
8FCE
  8
0
  6
CONTINUOUS
 10
529.06319938267256
 20
960.28630250603419
 30
0.0
 40
5.0
 50
0.0
 51
87.999999999996476
  0
ARC
  5
8FCF
  8
0
  6
CONTINUOUS
 10
555.06313938267249
 20
946.39745250603426
 30
0.0
 40
5.0
 50
0.0
 51
87.999999999996476
  0
ARC
  5
8FD0
  8
0
  6
CONTINUOUS
 10
555.06313938267249
 20
1180.4384625060341
 30
0.0
 40
5.0
 50
272.00000000000352
 51
0.0
  0
ARC
  5
8FD1
  8
0
  6
CONTINUOUS
 10
491.06319938267251
 20
1156.989002506034
 30
0.0
 40
5.0
 50
315.0000000000046
 51
0.0
  0
ARC
  5
8FD2
  8
0
  6
CONTINUOUS
 10
499.0631393826726
 20
1160.417962506034
 30
0.0
 40
3.0
 50
90.00000299999769
 51
180.000010000001
  0
ARC
  5
8FD3
  8
0
  6
CONTINUOUS
 10
498.06319938267251
 20
966.41796250603466
 30
0.0
 40
2.0
 50
179.999989999999
 51
270.0
  0
ARC
  5
8FD4
  8
0
  6
CONTINUOUS
 10
491.06319938267251
 20
969.84691250603396
 30
0.0
 40
5.0
 50
0.0
 51
45.00000099999918
  0
POLYLINE
  5
8FDB
  8
0
  6
CONTINUOUS
 66
     1
 10
0.0
 20
0.0
 30
0.0
  0
VERTEX
  5
8FDC
  8
0
  6
CONTINUOUS
 10
480.1258193826722
 20
987.85540250603367
 30
0.0
 42
-0.1596124473007499
  0
VERTEX
  5
8FDD
  8
0
  6
CONTINUOUS
 10
444.55900410020479
 20
1034.0810925060341
 30
0.0
 42
-0.0654413168720544
  0
VERTEX
  5
8FDE
  8
0
  6
CONTINUOUS
 10
444.55900410020479
 20
1092.754842506045
 30
0.0
 42
-0.1601798227091995
  0
VERTEX
  5
8FDF
  8
0
  6
CONTINUOUS
 10
480.1257593826723
 20
1138.980462506034
 30
0.0
  0
SEQEND
  5
8FE0
  8
0
  0
ARC
  5
8FE1
  8
0
 10
137.96318938267351
 20
977.92058850603416
 30
0.0
 40
2.399999999999999
 50
180.0
 51
200.00000000000369
  0
ARC
  5
8FE2
  8
0
 10
142.55765338267349
 20
965.29740350603424
 30
0.0
 40
2.399999999999999
 50
200.00000000000369
 51
270.0
  0
LINE
  5
8FE3
  8
0
 10
140.30239038267351
 20
964.47655550603429
 30
0.0
 11
135.7079273826734
 21
977.09974050603398
 31
0.0
  0
LINE
  5
8FE4
  8
0
 10
208.5631893826735
 20
962.89740350603392
 30
0.0
 11
142.55765338267349
 21
962.89740350603392
 31
0.0
  0
LINE
  5
8FE5
  8
0
 10
208.5631893826735
 20
1163.938521506034
 30
0.0
 11
208.5631893826735
 21
962.89740350603392
 31
0.0
  0
LINE
  5
8FE6
  8
0
 10
140.30239038267351
 20
1162.359369506034
 30
0.0
 11
135.7079273826734
 21
1149.7361845060341
 31
0.0
  0
ARC
  5
8FE7
  8
0
 10
142.55765338267349
 20
1161.5385215060339
 30
0.0
 40
2.399999999999999
 50
90.0
 51
159.99999999999631
  0
ARC
  5
8FE8
  8
0
 10
137.96318938267351
 20
1148.915336506034
 30
0.0
 40
2.399999999999999
 50
159.99999999999631
 51
180.0
  0
LINE
  5
8FE9
  8
0
 10
140.8771543826735
 20
1163.2519755060339
 30
0.0
 11
140.8771543826735
 21
962.89740350603392
 31
0.0
  0
LINE
  5
8FEA
  8
0
 10
135.5631893826735
 20
1148.915336506034
 30
0.0
 11
135.5631893826735
 21
978.13852150603395
 31
0.0
  0
LINE
  5
8FEB
  8
0
 10
208.5631893826735
 20
1163.938521506034
 30
0.0
 11
142.55765338267349
 21
1163.938521506034
 31
0.0
  0
LINE
  5
8FEC
  8
0
 10
342.5631893826735
 20
961.41796250603443
 30
0.0
 11
342.5631893826735
 21
958.41796250603397
 31
0.0
  0
LINE
  5
8FED
  8
0
 10
275.5631893826735
 20
961.41796250603443
 30
0.0
 11
275.5631893826735
 21
958.41796250603397
 31
0.0
  0
LINE
  5
8FEE
  8
0
 10
352.31331438267352
 20
960.04694750603426
 30
0.0
 11
263.4951953826735
 21
918.63093850603423
 31
0.0
  0
LINE
  5
8FEF
  8
0
 10
353.96130938267362
 20
956.51298250603418
 30
0.0
 11
352.31331438267352
 21
960.04694750603426
 31
0.0
  0
LINE
  5
8FF0
  8
0
 10
275.1631913826734
 20
958.41796250603397
 30
0.0
 11
344.90629138267332
 21
958.41796250603397
 31
0.0
  0
LINE
  5
8FF1
  8
0
 10
265.14338838267349
 20
915.09596650603385
 30
0.0
 11
263.4951953826735
 21
918.63093850603423
 31
0.0
  0
LINE
  5
8FF2
  8
0
 10
272.69639338267348
 20
915.46197150603405
 30
0.0
 11
272.37499138267339
 21
916.15096350603415
 31
0.0
  0
LINE
  5
8FF3
  8
0
 10
348.98829138267331
 20
931.3319635060343
 30
0.0
 11
348.98829138267331
 21
951.70597250603419
 31
0.0
  0
LINE
  5
8FF4
  8
0
 10
266.61078338267362
 20
914.5669645060342
 30
0.0
 11
353.43628838267341
 21
955.05396750603381
 31
0.0
  0
LINE
  5
8FF5
  8
0
 10
271.56319338267349
 20
922.39296850603421
 30
0.0
 11
271.56319338267349
 21
954.81797150603393
 31
0.0
  0
LINE
  5
8FF6
  8
0
  6
AM_ISO08W050
 10
266.3869923826735
 20
938.4179625060342
 30
0.0
 11
274.97729338267351
 21
938.4179625060342
 31
0.0
  0
LINE
  5
8FF7
  8
0
 10
269.56319338267349
 20
950.01796850603432
 30
0.0
 11
269.56319338267349
 21
926.81797150603393
 31
0.0
  0
LINE
  5
8FF8
  8
0
 10
269.56319338267349
 20
950.01796850603432
 30
0.0
 11
270.56319338267349
 21
950.01796850603432
 31
0.0
  0
LINE
  5
8FF9
  8
0
 10
269.56319338267349
 20
926.81797150603393
 30
0.0
 11
270.56319338267349
 21
926.81797150603393
 31
0.0
  0
ARC
  5
8FFA
  8
0
 10
275.1631913826734
 20
954.81797150603393
 30
0.0
 40
3.5999979999999998
 50
90.000061000000898
 51
179.99998200000081
  0
ARC
  5
8FFB
  8
0
 10
352.96428938267371
 20
956.04796750603418
 30
0.0
 40
1.100006
 50
294.99982600000448
 51
24.999514000004648
  0
ARC
  5
8FFC
  8
0
 10
266.14029238267358
 20
915.56096750603399
 30
0.0
 40
1.0999959999999971
 50
204.99980300000141
 51
295.00019499999559
  0
ARC
  5
8FFD
  8
0
 10
341.38829338267351
 20
931.3319635060343
 30
0.0
 40
7.5999979999999967
 50
288.90001599999869
 51
0.0000179999992061
  0
ARC
  5
8FFE
  8
0
 10
275.9590943826733
 20
916.98296450603425
 30
0.0
 40
3.5999979999999998
 50
204.9991569999998
 51
269.0940209999992
  0
ARC
  5
8FFF
  8
0
 10
279.06559238267351
 20
1113.358956506034
 30
0.0
 40
200.0
 50
269.09405200000299
 51
288.9000030000019
  0
ARC
  5
9000
  8
0
 10
271.46869138267351
 20
915.72896750603422
 30
0.0
 40
0.9999979999999998
 50
24.999268000004911
 51
114.9993579999972
  0
ARC
  5
9001
  8
0
 10
350.98829138267342
 20
951.70597250603419
 30
0.0
 40
2.0
 50
115.00014999999451
 51
179.99998200000081
  0
ARC
  5
9002
  8
0
 10
344.90629138267332
 20
955.81797150603416
 30
0.0
 40
2.600006
 50
40.686129999995678
 51
90.0
  0
ARC
  5
9003
  8
0
 10
270.56319338267349
 20
951.01796850603455
 30
0.0
 40
1.0
 50
269.99894299999522
 51
0.0000179999992061
  0
ARC
  5
9004
  8
0
 10
270.56319338267349
 20
925.81797150603393
 30
0.0
 40
1.0
 50
0.0000179999992061
 51
90.0
  0
ARC
  5
9005
  8
0
 10
217.00683338267339
 20
981.01728250603435
 30
0.0
 40
2.0
 50
190.000000000005
 51
270.0
  0
LINE
  5
9006
  8
0
 10
215.0372183826735
 20
980.66998650603387
 30
0.0
 11
212.0631893826735
 21
997.53654050603416
 31
0.0
  0
LINE
  5
9007
  8
0
 10
212.0631893826735
 20
997.53654050603416
 30
0.0
 11
213.12492838267349
 21
997.53654050603416
 31
0.0
  0
LINE
  5
9008
  8
0
 10
410.52733038267331
 20
1149.590269506034
 30
0.0
 11
411.06318938267327
 21
1149.590269506034
 31
0.0
  0
LINE
  5
9009
  8
0
 10
410.78772138267328
 20
1151.1525265060341
 30
0.0
 11
411.06318938267327
 21
1151.1525265060341
 31
0.0
  0
LINE
  5
900A
  8
0
 10
412.74138838267328
 20
975.41811350603416
 30
0.0
 11
413.0631893826735
 21
975.41811350603416
 31
0.0
  0
LINE
  5
900B
  8
0
 10
408.88379438267327
 20
980.26597650603435
 30
0.0
 11
411.06318938267327
 21
980.26597650603435
 31
0.0
  0
LINE
  5
900C
  8
0
 10
409.88987738267372
 20
992.37154650603395
 30
0.0
 11
411.06318938267327
 21
992.37154650603395
 31
0.0
  0
LINE
  5
900D
  8
0
  6
AM_ISO08W050
 10
309.0631893826735
 20
955.76199750603416
 30
0.0
 11
309.0631893826735
 21
964.94371350603399
 31
0.0
  0
ARC
  5
900E
  8
0
 10
407.30606938267351
 20
1152.4262105060341
 30
0.0
 40
2.0
 50
10.00000000000502
 51
90.0
  0
ARC
  5
900F
  8
0
 10
407.37208638267327
 20
1155.9670095060339
 30
0.0
 40
2.0
 50
10.00000000000502
 51
90.0
  0
ARC
  5
9010
  8
0
 10
407.45800438267361
 20
1158.5187465060339
 30
0.0
 40
2.0
 50
10.00000000000502
 51
90.0
  0
ARC
  5
9011
  8
0
 10
407.48675338267333
 20
1159.917962506034
 30
0.0
 40
2.0
 50
10.00000000000502
 51
90.0
  0
LINE
  5
9012
  8
0
 10
416.06319238267361
 20
1148.417962506034
 30
0.0
 11
413.06319238267372
 21
1151.417962506034
 31
0.0
  0
LINE
  5
9013
  8
0
 10
411.01638538267309
 20
1151.417962506034
 30
0.0
 11
413.0631893826735
 21
1151.417962506034
 31
0.0
  0
LINE
  5
9014
  8
0
 10
416.06318938267327
 20
978.4179625060342
 30
0.0
 11
413.0631893826735
 21
975.41796250603397
 31
0.0
  0
LINE
  5
9015
  8
0
 10
413.0631893826735
 20
975.41796250603397
 30
0.0
 11
413.0631893826735
 21
1001.038348506034
 31
0.0
  0
LINE
  5
9016
  8
0
 10
416.06318938267327
 20
977.9179625060342
 30
0.0
 11
416.06318938267327
 21
1148.917962506034
 31
0.0
  0
CIRCLE
  5
9017
  8
0
 10
309.0631893826735
 20
1063.417962506034
 30
0.0
 40
11.0
  0
LINE
  5
9018
  8
0
 10
216.34930938267351
 20
1161.917962506034
 30
0.0
 11
268.0631893826735
 21
1161.917962506034
 31
0.0
  0
LINE
  5
9019
  8
0
 10
348.0631893826735
 20
1154.4262105060341
 30
0.0
 11
348.0631893826735
 21
1159.917962506034
 31
0.0
  0
LINE
  5
901A
  8
0
 10
270.0631893826735
 20
1154.4262105060341
 30
0.0
 11
270.0631893826735
 21
1159.917962506034
 31
0.0
  0
ARC
  5
901B
  8
0
 10
268.0631893826735
 20
1159.917962506034
 30
0.0
 40
2.0
 50
0.0
 51
90.0
  0
ARC
  5
901C
  8
0
 10
350.0631893826735
 20
1159.917962506034
 30
0.0
 40
2.0
 50
90.0
 51
180.0
  0
LINE
  5
901D
  8
0
 10
350.0631893826735
 20
1161.917962506034
 30
0.0
 11
407.48675338267333
 21
1161.917962506034
 31
0.0
  0
LINE
  5
901E
  8
0
 10
407.45800438267361
 20
1160.5187465060339
 30
0.0
 11
350.0631893826735
 21
1160.5187465060339
 31
0.0
  0
LINE
  5
901F
  8
0
 10
411.06318938267327
 20
1149.590269506034
 30
0.0
 11
409.4276203826733
 21
1158.866042506033
 31
0.0
  0
LINE
  5
9020
  8
0
 10
411.06318938267327
 20
1151.1525265060341
 30
0.0
 11
409.45636838267359
 21
1160.2652585060339
 31
0.0
  0
LINE
  5
9021
  8
0
 10
212.0631893826735
 20
1147.127708506034
 30
0.0
 11
214.37969438267351
 21
1160.2652585060339
 31
0.0
  0
ARC
  5
9022
  8
0
 10
216.34930938267351
 20
1159.917962506034
 30
0.0
 40
2.0
 50
90.0
 51
169.99999999999491
  0
LINE
  5
9023
  8
0
 10
212.0631893826735
 20
1145.4686475060339
 30
0.0
 11
214.42551138267339
 21
1158.866042506033
 31
0.0
  0
ARC
  5
9024
  8
0
 10
216.39512738267351
 20
1158.5187465060339
 30
0.0
 40
2.0
 50
90.0
 51
169.99999999999491
  0
ARC
  5
9025
  8
0
 10
268.0631893826735
 20
1158.5187465060339
 30
0.0
 40
2.0
 50
0.0
 51
90.0
  0
ARC
  5
9026
  8
0
 10
350.0631893826735
 20
1158.5187465060339
 30
0.0
 40
2.0
 50
90.0
 51
180.0
  0
LINE
  5
9027
  8
0
 10
268.0631893826735
 20
1160.5187465060339
 30
0.0
 11
216.39512738267351
 21
1160.5187465060339
 31
0.0
  0
LINE
  5
9028
  8
0
 10
407.37208638267327
 20
1157.9670095060339
 30
0.0
 11
350.0631893826735
 21
1157.9670095060339
 31
0.0
  0
LINE
  5
9029
  8
0
 10
410.93440938267332
 20
1147.2816115060341
 30
0.0
 11
409.34170138267342
 21
1156.314306506034
 31
0.0
  0
LINE
  5
902A
  8
0
 10
212.0631893826735
 20
1142.2478565060339
 30
0.0
 11
214.5434843826736
 21
1156.314306506034
 31
0.0
  0
ARC
  5
902B
  8
0
 10
216.51309938267329
 20
1155.9670095060339
 30
0.0
 40
2.0
 50
90.0
 51
169.99999999999491
  0
ARC
  5
902C
  8
0
 10
268.0631893826735
 20
1155.9670095060339
 30
0.0
 40
2.0
 50
0.0
 51
90.0
  0
ARC
  5
902D
  8
0
 10
350.0631893826735
 20
1155.9670095060339
 30
0.0
 40
2.0
 50
90.0
 51
180.0
  0
LINE
  5
902E
  8
0
 10
268.0631893826735
 20
1157.9670095060339
 30
0.0
 11
216.51309938267329
 21
1157.9670095060339
 31
0.0
  0
LINE
  5
902F
  8
0
 10
407.30606938267351
 20
1154.4262105060341
 30
0.0
 11
216.6746083826736
 21
1154.4262105060341
 31
0.0
  0
LINE
  5
9030
  8
0
 10
410.24405438267348
 20
1147.2816115060341
 30
0.0
 11
409.2756853826736
 21
1152.773506506034
 31
0.0
  0
LINE
  5
9031
  8
0
 10
212.0631893826735
 20
1137.7910965060339
 30
0.0
 11
214.70499238267351
 21
1152.773506506034
 31
0.0
  0
ARC
  5
9032
  8
0
 10
216.6746083826736
 20
1152.4262105060341
 30
0.0
 40
2.0
 50
90.0
 51
169.99999999999491
  0
LINE
  5
9033
  8
0
 10
341.11954538267349
 20
1147.8186425060339
 30
0.0
 11
217.00683338267339
 21
1147.8186425060339
 31
0.0
  0
LINE
  5
9034
  8
0
 10
346.0631893826735
 20
1129.2993845060339
 30
0.0
 11
343.08916038267353
 21
1146.1659385060341
 31
0.0
  0
ARC
  5
9035
  8
0
 10
341.11954538267349
 20
1145.8186425060339
 30
0.0
 40
2.0
 50
10.00000000000502
 51
90.0
  0
LINE
  5
9036
  8
0
 10
212.0631893826735
 20
1129.2993845060339
 30
0.0
 11
215.0372183826735
 21
1146.1659385060341
 31
0.0
  0
ARC
  5
9037
  8
0
 10
217.00683338267339
 20
1145.8186425060339
 30
0.0
 40
2.0
 50
90.0
 51
169.99999999999491
  0
LINE
  5
9038
  8
0
 10
340.78928138267338
 20
1142.416598506034
 30
0.0
 11
217.33709738267359
 21
1142.416598506034
 31
0.0
  0
LINE
  5
9039
  8
0
 10
345.84213838267351
 20
1123.2779625060341
 30
0.0
 11
342.75889738267352
 21
1140.763895506034
 31
0.0
  0
ARC
  5
903A
  8
0
 10
340.78928138267338
 20
1140.416598506034
 30
0.0
 40
2.0
 50
10.00000000000502
 51
90.0
  0
LINE
  5
903B
  8
0
 10
212.3401833826735
 20
1123.5952305060341
 30
0.0
 11
215.3674813826735
 21
1140.763895506034
 31
0.0
  0
ARC
  5
903C
  8
0
 10
217.33709738267359
 20
1140.416598506034
 30
0.0
 40
2.0
 50
90.0
 51
169.99999999999491
  0
LINE
  5
903D
  8
0
 10
411.06318938267327
 20
1068.448114506034
 30
0.0
 11
411.06318938267327
 21
1071.395806506034
 31
0.0
  0
LINE
  5
903E
  8
0
 10
411.06318938267327
 20
1078.447590506034
 30
0.0
 11
411.06318938267327
 21
1081.409069506034
 31
0.0
  0
LINE
  5
903F
  8
0
 10
411.06318938267327
 20
1089.4397705060339
 30
0.0
 11
411.06318938267327
 21
1092.432397506034
 31
0.0
  0
LINE
  5
9040
  8
0
 10
411.06318938267327
 20
1100.4225655060341
 30
0.0
 11
411.06318938267327
 21
1103.4682715060339
 31
0.0
  0
LINE
  5
9041
  8
0
 10
411.06318938267327
 20
1111.3924445060341
 30
0.0
 11
411.06318938267327
 21
1114.523357506034
 31
0.0
  0
LINE
  5
9042
  8
0
 10
411.06318938267327
 20
1120.3509205060341
 30
0.0
 11
411.06318938267327
 21
1123.5952305060341
 31
0.0
  0
LINE
  5
9043
  8
0
 10
361.0631893826735
 20
1137.7910965060339
 30
0.0
 11
344.56587138267349
 21
1137.7910965060339
 31
0.0
  0
LINE
  5
9044
  8
0
 10
392.84996638267341
 20
1142.636064506034
 30
0.0
 11
377.0631893826735
 21
1142.636064506034
 31
0.0
  0
LINE
  5
9045
  8
0
 10
361.0631893826735
 20
1137.7910965060339
 30
0.0
 11
377.0631893826735
 21
1142.636064506034
 31
0.0
  0
LINE
  5
9046
  8
0
 10
377.0631893826735
 20
1142.636064506034
 30
0.0
 11
377.0631893826735
 21
1139.270749506034
 31
0.0
  0
LINE
  5
9047
  8
0
 10
361.0631893826735
 20
1137.7910965060339
 30
0.0
 11
361.0631893826735
 21
1123.5952305060341
 31
0.0
  0
LINE
  5
9048
  8
0
 10
396.5631893826735
 20
1126.4839245060341
 30
0.0
 11
396.5631893826735
 21
1145.2816115060341
 31
0.0
  0
ARC
  5
9049
  8
0
 10
398.5631893826735
 20
1145.2816115060341
 30
0.0
 40
2.0
 50
90.0
 51
180.0
  0
LINE
  5
904A
  8
0
 10
396.5631893826735
 20
1130.874022506034
 30
0.0
 11
377.0631893826735
 21
1130.874022506034
 31
0.0
  0
LINE
  5
904B
  8
0
 10
391.16319538267362
 20
1139.270749506034
 30
0.0
 11
377.0631893826735
 21
1139.270749506034
 31
0.0
  0
LINE
  5
904C
  8
0
 10
377.0631893826735
 20
1130.874022506034
 30
0.0
 11
377.0631893826735
 21
1123.5952305060341
 31
0.0
  0
LINE
  5
904E
  8
0
 10
416.06318938267327
 20
1147.2816115060341
 30
0.0
 11
398.5631893826735
 21
1147.2816115060341
 31
0.0
  0
LINE
  5
904F
  8
0
 10
416.06318938267327
 20
1125.4839245060341
 30
0.0
 11
395.5631893826735
 21
1125.4839245060341
 31
0.0
  0
ARC
  5
9050
  8
0
 10
395.5631893826735
 20
1126.4839245060341
 30
0.0
 40
1.0
 50
270.0
 51
0.0
  0
LINE
  5
9051
  8
0
 10
416.06318938267327
 20
1139.157606506034
 30
0.0
 11
398.5631893826735
 21
1139.157606506034
 31
0.0
  0
LINE
  5
9052
  8
0
 10
208.5631893826735
 20
1147.417962506034
 30
0.0
 11
212.0631893826735
 21
1147.417962506034
 31
0.0
  0
ARC
  5
9053
  8
0
 10
412.74138838267328
 20
973.4179625060342
 30
0.0
 40
2.0
 50
90.0
 51
169.99999999999491
  0
ARC
  5
9054
  8
0
 10
348.80583138267372
 20
968.42430550603422
 30
0.0
 40
1.9936590000000001
 50
90.075931000003507
 51
178.1702539999921
  0
LINE
  5
9055
  8
0
 10
348.80318938267351
 20
970.4179625060342
 30
0.0
 11
408.50335538267331
 21
970.4179625060342
 31
0.0
  0
LINE
  5
9056
  8
0
 10
346.5631893826735
 20
961.41796250603443
 30
0.0
 11
347.17921838267353
 21
979.01728250603378
 31
0.0
  0
LINE
  5
9057
  8
0
 10
410.7717733826733
 20
973.76525850603423
 30
0.0
 11
410.47297038267328
 21
972.07066650603417
 31
0.0
  0
ARC
  5
9058
  8
0
 10
408.50335538267331
 20
972.4179625060342
 30
0.0
 40
2.0
 50
270.0
 51
349.99999999999488
  0
LINE
  5
9059
  8
0
 10
212.6405393826735
 20
978.4179625060342
 30
0.0
 11
219.85741838267359
 21
965.9179625060342
 31
0.0
  0
LINE
  5
905A
  8
0
 10
221.58946838267369
 20
964.91796250603386
 30
0.0
 11
269.5081603826734
 21
964.91796250603386
 31
0.0
  0
LINE
  5
905B
  8
0
 10
271.5631893826735
 20
961.41796250603443
 30
0.0
 11
271.50687738267328
 21
962.98957750603415
 31
0.0
  0
ARC
  5
905C
  8
0
 10
210.90848838267351
 20
977.41796250603386
 30
0.0
 40
2.0
 50
30.000000000000551
 51
90.0
  0
ARC
  5
905D
  8
0
 10
221.58946838267369
 20
966.9179625060342
 30
0.0
 40
2.0
 50
210.00000000000051
 51
270.0
  0
ARC
  5
905E
  8
0
 10
269.5081603826734
 20
962.91796250603397
 30
0.0
 40
2.0
 50
2.0520649999985339
 51
90.0
  0
LINE
  5
905F
  8
0
 10
271.5631893826735
 20
961.41796250603443
 30
0.0
 11
346.5631893826735
 21
961.41796250603443
 31
0.0
  0
LINE
  5
9060
  8
0
 10
220.58946838267369
 20
965.18591150603424
 30
0.0
 11
220.58946838267369
 21
979.01728250603378
 31
0.0
  0
LINE
  5
9061
  8
0
 10
407.03027338267327
 20
979.01728250603378
 30
0.0
 11
217.00683338267339
 21
979.01728250603378
 31
0.0
  0
LINE
  5
9062
  8
0
 10
406.8094873826733
 20
984.41932650603417
 30
0.0
 11
217.1160463826736
 21
984.41932650603417
 31
0.0
  0
LINE
  5
9063
  8
0
 10
411.06318938267327
 20
999.0257285060344
 30
0.0
 11
377.0631893826735
 21
999.0257285060344
 31
0.0
  0
LINE
  5
9064
  8
0
 10
411.06318938267327
 20
999.0257285060344
 30
0.0
 11
408.7791023826735
 21
986.07202950603391
 31
0.0
  0
ARC
  5
9065
  8
0
 10
406.8094873826733
 20
986.41932650603405
 30
0.0
 40
2.0
 50
270.0
 51
349.99999999999488
  0
LINE
  5
9066
  8
0
 10
411.06318938267327
 20
992.37154650603395
 30
0.0
 11
408.99988838267342
 21
980.66998650603387
 31
0.0
  0
ARC
  5
9067
  8
0
 10
407.03027338267327
 20
981.01728250603435
 30
0.0
 40
2.0
 50
270.0
 51
349.99999999999488
  0
LINE
  5
9068
  8
0
 10
215.80592738267339
 20
979.4179625060342
 30
0.0
 11
208.5631893826735
 21
979.4179625060342
 31
0.0
  0
LINE
  5
9069
  8
0
 10
411.06318938267327
 20
980.26597650603435
 30
0.0
 11
409.6181353826733
 21
972.07066650603417
 31
0.0
  0
ARC
  5
906A
  8
0
 10
407.64851938267333
 20
972.4179625060342
 30
0.0
 40
2.0
 50
270.0
 51
349.99999999999488
  0
LINE
  5
906B
  8
0
 10
346.0631893826735
 20
1015.257962506034
 30
0.0
 11
346.0631893826735
 21
1012.557962506034
 31
0.0
  0
LINE
  5
906C
  8
0
 10
416.06318938267327
 20
1001.208325506034
 30
0.0
 11
398.5631893826735
 21
1001.208325506034
 31
0.0
  0
LINE
  5
906D
  8
0
 10
416.06318938267327
 20
1013.515964506034
 30
0.0
 11
398.5631893826735
 21
1013.515964506034
 31
0.0
  0
LINE
  5
906E
  8
0
 10
416.06318938267327
 20
1023.695256506034
 30
0.0
 11
411.06318938267327
 21
1023.695256506034
 31
0.0
  0
LINE
  5
906F
  8
0
 10
396.5631893826735
 20
1022.695256506034
 30
0.0
 11
396.5631893826735
 21
1003.208325506034
 31
0.0
  0
ARC
  5
9070
  8
0
 10
395.5631893826735
 20
1022.695256506034
 30
0.0
 40
1.0
 50
0.0
 51
42.252324000004279
  0
ARC
  5
9071
  8
0
 10
398.5631893826735
 20
1003.208325506034
 30
0.0
 40
2.0
 50
180.0
 51
270.0
  0
LINE
  5
9072
  8
0
 10
361.0631893826735
 20
1120.3509205060341
 30
0.0
 11
361.0631893826735
 21
1114.523357506034
 31
0.0
  0
LINE
  5
9073
  8
0
 10
377.0631893826735
 20
1120.3509205060341
 30
0.0
 11
377.0631893826735
 21
1114.523357506034
 31
0.0
  0
LINE
  5
9074
  8
0
 10
361.0631893826735
 20
1111.3924445060341
 30
0.0
 11
361.0631893826735
 21
1103.4682715060339
 31
0.0
  0
LINE
  5
9075
  8
0
 10
361.0631893826735
 20
1100.4225655060341
 30
0.0
 11
361.0631893826735
 21
1092.432397506034
 31
0.0
  0
LINE
  5
9076
  8
0
 10
361.0631893826735
 20
1089.4397705060339
 30
0.0
 11
361.0631893826735
 21
1081.409069506034
 31
0.0
  0
LINE
  5
9077
  8
0
 10
361.0631893826735
 20
1078.447590506034
 30
0.0
 11
361.0631893826735
 21
1071.395806506034
 31
0.0
  0
LINE
  5
9078
  8
0
 10
361.0631893826735
 20
1068.5779625060341
 30
0.0
 11
361.0631893826735
 21
1058.3878105060339
 31
0.0
  0
LINE
  5
9079
  8
0
 10
377.0631893826735
 20
1068.5779625060341
 30
0.0
 11
377.0631893826735
 21
1058.3878105060339
 31
0.0
  0
LINE
  5
907A
  8
0
 10
377.0631893826735
 20
1078.447590506034
 30
0.0
 11
377.0631893826735
 21
1071.395806506034
 31
0.0
  0
LINE
  5
907B
  8
0
 10
377.0631893826735
 20
1089.4397705060339
 30
0.0
 11
377.0631893826735
 21
1081.409069506034
 31
0.0
  0
LINE
  5
907C
  8
0
 10
377.0631893826735
 20
1100.4225655060341
 30
0.0
 11
377.0631893826735
 21
1092.432397506034
 31
0.0
  0
LINE
  5
907D
  8
0
 10
377.0631893826735
 20
1111.3924445060341
 30
0.0
 11
377.0631893826735
 21
1103.4682715060339
 31
0.0
  0
LINE
  5
907E
  8
0
 10
361.0631893826735
 20
1055.440118506034
 30
0.0
 11
361.0631893826735
 21
1048.388334506034
 31
0.0
  0
LINE
  5
907F
  8
0
 10
377.0631893826735
 20
1055.440118506034
 30
0.0
 11
377.0631893826735
 21
1048.388334506034
 31
0.0
  0
LINE
  5
9080
  8
0
 10
377.0631893826735
 20
1045.4268555060339
 30
0.0
 11
377.0631893826735
 21
1037.396154506034
 31
0.0
  0
LINE
  5
9081
  8
0
 10
361.0631893826735
 20
1045.4268555060339
 30
0.0
 11
361.0631893826735
 21
1037.396154506034
 31
0.0
  0
LINE
  5
9082
  8
0
 10
361.0631893826735
 20
1034.4035275060339
 30
0.0
 11
361.0631893826735
 21
1026.4133595060341
 31
0.0
  0
LINE
  5
9083
  8
0
 10
377.0631893826735
 20
1034.4035275060339
 30
0.0
 11
377.0631893826735
 21
1026.4133595060341
 31
0.0
  0
LINE
  5
9084
  8
0
 10
391.6125843826735
 20
1007.397166506034
 30
0.0
 11
377.06318838267367
 21
1007.397166506034
 31
0.0
  0
LINE
  5
9085
  8
0
 10
396.5631893826735
 20
1018.809516506034
 30
0.0
 11
377.06318838267367
 21
1018.809516506034
 31
0.0
  0
LINE
  5
9086
  8
0
 10
361.0631893826735
 20
1023.367653506034
 30
0.0
 11
361.0631893826735
 21
1003.367653506034
 31
0.0
  0
LINE
  5
9087
  8
0
 10
413.0631893826735
 20
1147.2816115060341
 30
0.0
 11
413.0631893826735
 21
1151.417962506034
 31
0.0
  0
LINE
  5
9088
  8
0
 10
411.06318938267327
 20
977.21621850603378
 30
0.0
 11
410.15588938267331
 21
972.07066650603417
 31
0.0
  0
ARC
  5
9089
  8
0
 10
408.18627438267328
 20
972.4179625060342
 30
0.0
 40
2.0
 50
270.0
 51
349.99999999999488
  0
LINE
  5
908A
  8
0
 10
377.0631893826735
 20
1023.367653506034
 30
0.0
 11
377.0631893826735
 21
1018.809516506034
 31
0.0
  0
LINE
  5
908B
  8
0
 10
413.0631893826735
 20
1023.695256506034
 30
0.0
 11
413.0631893826735
 21
1125.4839245060341
 31
0.0
  0
LINE
  5
908C
  8
0
 10
212.0631893826735
 20
1003.557962506034
 30
0.0
 11
215.1464313826736
 21
986.07202950603391
 31
0.0
  0
ARC
  5
908D
  8
0
 10
217.1160463826736
 20
986.41932650603405
 30
0.0
 40
2.0
 50
190.000000000005
 51
270.0
  0
LINE
  5
908E
  8
0
 10
361.76858638267328
 20
1012.112256506034
 30
0.0
 11
377.0631893826735
 21
1007.397166506034
 31
0.0
  0
LINE
  5
908F
  8
0
 10
377.0631893826735
 20
1018.809516506034
 30
0.0
 11
362.02724838267341
 21
1018.268765506034
 31
0.0
  0
LINE
  5
9090
  8
0
 10
377.0631893826735
 20
1007.397166506034
 30
0.0
 11
377.0631893826735
 21
999.0257285060344
 31
0.0
  0
ARC
  5
9091
  8
0
 10
362.0631893826735
 20
1017.269411506034
 30
0.0
 40
1.0
 50
92.059691000003568
 51
180.0
  0
ARC
  5
9092
  8
0
 10
362.0631893826735
 20
1013.0678765060341
 30
0.0
 40
1.0
 50
180.0
 51
252.86627500000029
  0
LINE
  5
9093
  8
0
 10
377.0631893826735
 20
1139.270749506034
 30
0.0
 11
361.76273038267351
 21
1134.450883506034
 31
0.0
  0
LINE
  5
9094
  8
0
 10
362.11174438267329
 20
1130.1472025060341
 30
0.0
 11
377.0631893826735
 21
1130.874022506034
 31
0.0
  0
ARC
  5
9095
  8
0
 10
362.0631893826735
 20
1133.4970885060341
 30
0.0
 40
1.0
 50
107.4851789999981
 51
180.0
  0
ARC
  5
9096
  8
0
 10
362.0631893826735
 20
1131.146023506034
 30
0.0
 40
1.0
 50
180.0
 51
270.0
  0
LINE
  5
9098
  8
0
 10
411.06318938267327
 20
1123.5952305060341
 30
0.0
 11
212.0631893826735
 21
1123.5952305060341
 31
0.0
  0
LINE
  5
9099
  8
0
 10
411.06318938267327
 20
1120.3509205060341
 30
0.0
 11
212.0631893826735
 21
1120.3509205060341
 31
0.0
  0
LINE
  5
909A
  8
0
 10
411.06318938267327
 20
1114.523357506034
 30
0.0
 11
212.0631893826735
 21
1114.523357506034
 31
0.0
  0
LINE
  5
909B
  8
0
 10
411.06318938267327
 20
1111.3924445060341
 30
0.0
 11
212.0631893826735
 21
1111.3924445060341
 31
0.0
  0
LINE
  5
909C
  8
0
 10
411.06318938267327
 20
1103.4682715060339
 30
0.0
 11
212.0631893826735
 21
1103.4682715060339
 31
0.0
  0
LINE
  5
909D
  8
0
 10
411.06318938267327
 20
1100.4225655060341
 30
0.0
 11
212.0631893826735
 21
1100.4225655060341
 31
0.0
  0
LINE
  5
909E
  8
0
 10
411.06318938267327
 20
1092.432397506034
 30
0.0
 11
212.0631893826735
 21
1092.432397506034
 31
0.0
  0
LINE
  5
909F
  8
0
 10
411.06318938267327
 20
1089.4397705060339
 30
0.0
 11
212.0631893826735
 21
1089.4397705060339
 31
0.0
  0
LINE
  5
90A0
  8
0
 10
411.06318938267327
 20
1081.409069506034
 30
0.0
 11
212.0631893826735
 21
1081.409069506034
 31
0.0
  0
LINE
  5
90A1
  8
0
 10
411.06318938267327
 20
1078.447590506034
 30
0.0
 11
212.0631893826735
 21
1078.447590506034
 31
0.0
  0
LINE
  5
90A2
  8
0
 10
411.06318938267327
 20
1071.395806506034
 30
0.0
 11
316.63643238267332
 21
1071.395806506034
 31
0.0
  0
LINE
  5
90A3
  8
0
 10
411.06318938267327
 20
1068.448114506034
 30
0.0
 11
323.44883638267362
 21
1068.448114506034
 31
0.0
  0
LINE
  5
90A4
  8
0
 10
408.98426838267329
 20
1122.917962506034
 30
0.0
 11
408.98426838267329
 21
1120.917962506034
 31
0.0
  0
LINE
  5
90A5
  8
0
 10
214.14211038267351
 20
1120.917962506034
 30
0.0
 11
408.98426838267329
 21
1120.917962506034
 31
0.0
  0
LINE
  5
90A6
  8
0
 10
214.14211038267351
 20
1122.917962506034
 30
0.0
 11
408.98426838267329
 21
1122.917962506034
 31
0.0
  0
LINE
  5
90A7
  8
0
 10
214.14211038267351
 20
1111.917962506034
 30
0.0
 11
408.98426838267329
 21
1111.917962506034
 31
0.0
  0
LINE
  5
90A8
  8
0
 10
214.14211038267351
 20
1113.917962506034
 30
0.0
 11
408.98426838267329
 21
1113.917962506034
 31
0.0
  0
LINE
  5
90A9
  8
0
 10
214.14211038267351
 20
1100.917962506034
 30
0.0
 11
408.98426838267329
 21
1100.917962506034
 31
0.0
  0
LINE
  5
90AA
  8
0
 10
214.14211038267351
 20
1102.917962506034
 30
0.0
 11
408.98426838267329
 21
1102.917962506034
 31
0.0
  0
LINE
  5
90AB
  8
0
 10
214.14211038267351
 20
1089.917962506034
 30
0.0
 11
408.98426838267329
 21
1089.917962506034
 31
0.0
  0
LINE
  5
90AC
  8
0
 10
214.14211038267351
 20
1091.917962506034
 30
0.0
 11
408.98426838267329
 21
1091.917962506034
 31
0.0
  0
LINE
  5
90AD
  8
0
 10
214.14211038267351
 20
1078.917962506034
 30
0.0
 11
408.98426838267329
 21
1078.917962506034
 31
0.0
  0
LINE
  5
90AE
  8
0
 10
214.14211038267351
 20
1080.917962506034
 30
0.0
 11
408.98426838267329
 21
1080.917962506034
 31
0.0
  0
LINE
  5
90AF
  8
0
 10
322.83816638267348
 20
1068.917962506034
 30
0.0
 11
408.98426838267329
 21
1068.917962506034
 31
0.0
  0
LINE
  5
90B0
  8
0
 10
317.1099273826735
 20
1070.917962506034
 30
0.0
 11
408.98426838267329
 21
1070.917962506034
 31
0.0
  0
LINE
  5
90B1
  8
0
 10
408.98426838267329
 20
1122.917962506034
 30
0.0
 11
411.06318938267327
 21
1123.5952305060341
 31
0.0
  0
LINE
  5
90B2
  8
0
 10
408.98426838267329
 20
1120.917962506034
 30
0.0
 11
411.06318938267327
 21
1120.3509205060341
 31
0.0
  0
LINE
  5
90B3
  8
0
 10
408.98426838267329
 20
1113.917962506034
 30
0.0
 11
411.06318938267327
 21
1114.523357506034
 31
0.0
  0
LINE
  5
90B4
  8
0
 10
408.98426838267329
 20
1111.917962506034
 30
0.0
 11
411.06318938267327
 21
1111.3924445060341
 31
0.0
  0
LINE
  5
90B5
  8
0
 10
408.98426838267329
 20
1102.917962506034
 30
0.0
 11
411.06318938267327
 21
1103.4682715060339
 31
0.0
  0
LINE
  5
90B6
  8
0
 10
408.98426838267329
 20
1100.917962506034
 30
0.0
 11
411.06318938267327
 21
1100.4225655060341
 31
0.0
  0
LINE
  5
90B7
  8
0
 10
408.98426838267329
 20
1091.917962506034
 30
0.0
 11
411.06318938267327
 21
1092.432397506034
 31
0.0
  0
LINE
  5
90B8
  8
0
 10
408.98426838267329
 20
1089.917962506034
 30
0.0
 11
411.06318938267327
 21
1089.4397705060339
 31
0.0
  0
LINE
  5
90B9
  8
0
 10
408.98426838267329
 20
1080.917962506034
 30
0.0
 11
411.06318938267327
 21
1081.409069506034
 31
0.0
  0
LINE
  5
90BA
  8
0
 10
408.98426838267329
 20
1078.917962506034
 30
0.0
 11
411.06318938267327
 21
1078.447590506034
 31
0.0
  0
LINE
  5
90BB
  8
0
 10
408.98426838267329
 20
1070.917962506034
 30
0.0
 11
411.06318938267327
 21
1071.395806506034
 31
0.0
  0
LINE
  5
90BC
  8
0
 10
408.98426838267329
 20
1068.917962506034
 30
0.0
 11
411.06318938267327
 21
1068.448114506034
 31
0.0
  0
LINE
  5
90BD
  8
0
 10
408.98426838267329
 20
1113.917962506034
 30
0.0
 11
408.98426838267329
 21
1111.917962506034
 31
0.0
  0
LINE
  5
90BE
  8
0
 10
408.98426838267329
 20
1102.917962506034
 30
0.0
 11
408.98426838267329
 21
1100.917962506034
 31
0.0
  0
LINE
  5
90BF
  8
0
 10
408.98426838267329
 20
1091.917962506034
 30
0.0
 11
408.98426838267329
 21
1089.917962506034
 31
0.0
  0
LINE
  5
90C0
  8
0
 10
408.98426838267329
 20
1080.917962506034
 30
0.0
 11
408.98426838267329
 21
1078.917962506034
 31
0.0
  0
LINE
  5
90C1
  8
0
 10
408.98426838267329
 20
1070.917962506034
 30
0.0
 11
408.98426838267329
 21
1068.917962506034
 31
0.0
  0
ARC
  5
90C2
  8
0
 10
322.83816638267348
 20
1065.917962506034
 30
0.0
 40
3.0
 50
90.0
 51
190.28656100000819
  0
ARC
  5
90C3
  8
0
 10
323.44883638267362
 20
1064.978114506034
 30
0.0
 40
3.4700000000000002
 50
90.0
 51
186.1896490000004
  0
LINE
  5
90C4
  8
0
 10
229.14211038267351
 20
1070.917962506034
 30
0.0
 11
229.14211038267351
 21
1068.917962506034
 31
0.0
  0
LINE
  5
90C5
  8
0
 10
214.14211038267351
 20
1080.917962506034
 30
0.0
 11
214.14211038267351
 21
1078.917962506034
 31
0.0
  0
LINE
  5
90C6
  8
0
 10
214.14211038267351
 20
1091.917962506034
 30
0.0
 11
214.14211038267351
 21
1089.917962506034
 31
0.0
  0
LINE
  5
90C7
  8
0
 10
214.14211038267351
 20
1102.917962506034
 30
0.0
 11
214.14211038267351
 21
1100.917962506034
 31
0.0
  0
LINE
  5
90C8
  8
0
 10
214.14211038267351
 20
1113.917962506034
 30
0.0
 11
214.14211038267351
 21
1111.917962506034
 31
0.0
  0
LINE
  5
90C9
  8
0
 10
229.14211038267351
 20
1068.917962506034
 30
0.0
 11
227.0631893826735
 21
1068.448114506034
 31
0.0
  0
LINE
  5
90CA
  8
0
 10
229.14211038267351
 20
1070.917962506034
 30
0.0
 11
227.0631893826735
 21
1071.395806506034
 31
0.0
  0
LINE
  5
90CB
  8
0
 10
214.14211038267351
 20
1078.917962506034
 30
0.0
 11
212.0631893826735
 21
1078.447590506034
 31
0.0
  0
LINE
  5
90CC
  8
0
 10
214.14211038267351
 20
1080.917962506034
 30
0.0
 11
212.0631893826735
 21
1081.409069506034
 31
0.0
  0
LINE
  5
90CD
  8
0
 10
214.14211038267351
 20
1089.917962506034
 30
0.0
 11
212.0631893826735
 21
1089.4397705060339
 31
0.0
  0
LINE
  5
90CE
  8
0
 10
214.14211038267351
 20
1091.917962506034
 30
0.0
 11
212.0631893826735
 21
1092.432397506034
 31
0.0
  0
LINE
  5
90CF
  8
0
 10
214.14211038267351
 20
1100.917962506034
 30
0.0
 11
212.0631893826735
 21
1100.4225655060341
 31
0.0
  0
LINE
  5
90D0
  8
0
 10
214.14211038267351
 20
1102.917962506034
 30
0.0
 11
212.0631893826735
 21
1103.4682715060339
 31
0.0
  0
LINE
  5
90D1
  8
0
 10
214.14211038267351
 20
1111.917962506034
 30
0.0
 11
212.0631893826735
 21
1111.3924445060341
 31
0.0
  0
LINE
  5
90D2
  8
0
 10
214.14211038267351
 20
1113.917962506034
 30
0.0
 11
212.0631893826735
 21
1114.523357506034
 31
0.0
  0
LINE
  5
90D3
  8
0
 10
214.14211038267351
 20
1120.917962506034
 30
0.0
 11
212.0631893826735
 21
1120.3509205060341
 31
0.0
  0
LINE
  5
90D4
  8
0
 10
214.14211038267351
 20
1122.917962506034
 30
0.0
 11
212.0631893826735
 21
1123.5952305060341
 31
0.0
  0
LINE
  5
90D5
  8
0
 10
214.14211038267351
 20
1122.917962506034
 30
0.0
 11
214.14211038267351
 21
1120.917962506034
 31
0.0
  0
LINE
  5
90D6
  8
0
 10
212.0631893826735
 20
1120.3509205060341
 30
0.0
 11
212.0631893826735
 21
1123.5952305060341
 31
0.0
  0
LINE
  5
90D7
  8
0
 10
212.0631893826735
 20
1111.3924445060341
 30
0.0
 11
212.0631893826735
 21
1114.523357506034
 31
0.0
  0
LINE
  5
90D8
  8
0
 10
212.0631893826735
 20
1100.4225655060341
 30
0.0
 11
212.0631893826735
 21
1103.4682715060339
 31
0.0
  0
LINE
  5
90D9
  8
0
 10
212.0631893826735
 20
1089.4397705060339
 30
0.0
 11
212.0631893826735
 21
1092.432397506034
 31
0.0
  0
LINE
  5
90DA
  8
0
 10
212.0631893826735
 20
1078.447590506034
 30
0.0
 11
212.0631893826735
 21
1081.409069506034
 31
0.0
  0
LINE
  5
90DB
  8
0
 10
227.0631893826735
 20
1068.448114506034
 30
0.0
 11
227.0631893826735
 21
1071.395806506034
 31
0.0
  0
LINE
  5
90DC
  8
0
 10
227.0631893826735
 20
1071.395806506034
 30
0.0
 11
301.48994638267368
 21
1071.395806506034
 31
0.0
  0
LINE
  5
90DD
  8
0
 10
227.0631893826735
 20
1068.448114506034
 30
0.0
 11
294.67754238267338
 21
1068.448114506034
 31
0.0
  0
LINE
  5
90DE
  8
0
 10
295.28821238267352
 20
1068.917962506034
 30
0.0
 11
229.14211038267351
 21
1068.917962506034
 31
0.0
  0
LINE
  5
90DF
  8
0
 10
301.01645138267349
 20
1070.917962506034
 30
0.0
 11
229.14211038267351
 21
1070.917962506034
 31
0.0
  0
ARC
  5
90E0
  8
0
 10
295.28821238267352
 20
1065.917962506034
 30
0.0
 40
3.0
 50
349.71343899999181
 51
90.0
  0
ARC
  5
90E1
  8
0
 10
294.67754238267338
 20
1064.978114506034
 30
0.0
 40
3.4700000000000002
 50
353.81035099999951
 51
90.0
  0
LINE
  5
90E2
  8
0
 10
411.06318938267327
 20
1023.367653506034
 30
0.0
 11
212.0631893826735
 21
1023.367653506034
 31
0.0
  0
LINE
  5
90E3
  8
0
 10
411.06318938267327
 20
1026.4133595060341
 30
0.0
 11
212.0631893826735
 21
1026.4133595060341
 31
0.0
  0
LINE
  5
90E4
  8
0
 10
411.06318938267327
 20
1034.4035275060339
 30
0.0
 11
212.0631893826735
 21
1034.4035275060339
 31
0.0
  0
LINE
  5
90E5
  8
0
 10
411.06318938267327
 20
1037.396154506034
 30
0.0
 11
212.0631893826735
 21
1037.396154506034
 31
0.0
  0
LINE
  5
90E6
  8
0
 10
411.06318938267327
 20
1045.4268555060339
 30
0.0
 11
212.0631893826735
 21
1045.4268555060339
 31
0.0
  0
LINE
  5
90E7
  8
0
 10
411.06318938267327
 20
1048.388334506034
 30
0.0
 11
212.0631893826735
 21
1048.388334506034
 31
0.0
  0
LINE
  5
90E8
  8
0
 10
214.14211038267351
 20
1025.917962506034
 30
0.0
 11
408.98426838267329
 21
1025.917962506034
 31
0.0
  0
LINE
  5
90E9
  8
0
 10
214.14211038267351
 20
1023.917962506034
 30
0.0
 11
408.98426838267329
 21
1023.917962506034
 31
0.0
  0
LINE
  5
90EA
  8
0
 10
214.14211038267351
 20
1036.917962506034
 30
0.0
 11
408.98426838267329
 21
1036.917962506034
 31
0.0
  0
LINE
  5
90EB
  8
0
 10
214.14211038267351
 20
1034.917962506034
 30
0.0
 11
408.98426838267329
 21
1034.917962506034
 31
0.0
  0
LINE
  5
90EC
  8
0
 10
214.14211038267351
 20
1047.917962506034
 30
0.0
 11
408.98426838267329
 21
1047.917962506034
 31
0.0
  0
LINE
  5
90ED
  8
0
 10
214.14211038267351
 20
1045.917962506034
 30
0.0
 11
408.98426838267329
 21
1045.917962506034
 31
0.0
  0
LINE
  5
90EE
  8
0
 10
227.0631893826735
 20
1055.440118506034
 30
0.0
 11
301.48994638267368
 21
1055.440118506034
 31
0.0
  0
LINE
  5
90EF
  8
0
 10
227.0631893826735
 20
1058.3878105060339
 30
0.0
 11
294.67754238267338
 21
1058.3878105060339
 31
0.0
  0
LINE
  5
90F0
  8
0
 10
295.28821238267352
 20
1057.917962506034
 30
0.0
 11
229.14211038267351
 21
1057.917962506034
 31
0.0
  0
LINE
  5
90F1
  8
0
 10
301.01645138267349
 20
1055.917962506034
 30
0.0
 11
229.14211038267351
 21
1055.917962506034
 31
0.0
  0
LINE
  5
90F2
  8
0
 10
227.0631893826735
 20
1058.3878105060339
 30
0.0
 11
227.0631893826735
 21
1055.440118506034
 31
0.0
  0
LINE
  5
90F3
  8
0
 10
212.0631893826735
 20
1048.388334506034
 30
0.0
 11
212.0631893826735
 21
1045.4268555060339
 31
0.0
  0
LINE
  5
90F4
  8
0
 10
212.0631893826735
 20
1037.396154506034
 30
0.0
 11
212.0631893826735
 21
1034.4035275060339
 31
0.0
  0
LINE
  5
90F5
  8
0
 10
212.0631893826735
 20
1026.4133595060341
 30
0.0
 11
212.0631893826735
 21
1023.367653506034
 31
0.0
  0
LINE
  5
90F6
  8
0
 10
214.14211038267351
 20
1023.917962506034
 30
0.0
 11
212.0631893826735
 21
1023.367653506034
 31
0.0
  0
LINE
  5
90F7
  8
0
 10
214.14211038267351
 20
1025.917962506034
 30
0.0
 11
212.0631893826735
 21
1026.4133595060341
 31
0.0
  0
LINE
  5
90F8
  8
0
 10
214.14211038267351
 20
1034.917962506034
 30
0.0
 11
212.0631893826735
 21
1034.4035275060339
 31
0.0
  0
LINE
  5
90F9
  8
0
 10
214.14211038267351
 20
1036.917962506034
 30
0.0
 11
212.0631893826735
 21
1037.396154506034
 31
0.0
  0
LINE
  5
90FA
  8
0
 10
214.14211038267351
 20
1045.917962506034
 30
0.0
 11
212.0631893826735
 21
1045.4268555060339
 31
0.0
  0
LINE
  5
90FB
  8
0
 10
214.14211038267351
 20
1047.917962506034
 30
0.0
 11
212.0631893826735
 21
1048.388334506034
 31
0.0
  0
LINE
  5
90FC
  8
0
 10
229.14211038267351
 20
1055.917962506034
 30
0.0
 11
227.0631893826735
 21
1055.440118506034
 31
0.0
  0
LINE
  5
90FD
  8
0
 10
229.14211038267351
 20
1057.917962506034
 30
0.0
 11
227.0631893826735
 21
1058.3878105060339
 31
0.0
  0
LINE
  5
90FE
  8
0
 10
214.14211038267351
 20
1023.917962506034
 30
0.0
 11
214.14211038267351
 21
1025.917962506034
 31
0.0
  0
LINE
  5
90FF
  8
0
 10
214.14211038267351
 20
1034.917962506034
 30
0.0
 11
214.14211038267351
 21
1036.917962506034
 31
0.0
  0
LINE
  5
9100
  8
0
 10
214.14211038267351
 20
1045.917962506034
 30
0.0
 11
214.14211038267351
 21
1047.917962506034
 31
0.0
  0
LINE
  5
9101
  8
0
 10
229.14211038267351
 20
1055.917962506034
 30
0.0
 11
229.14211038267351
 21
1057.917962506034
 31
0.0
  0
ARC
  5
9102
  8
0
 10
295.28821238267352
 20
1060.917962506034
 30
0.0
 40
3.0
 50
270.0
 51
10.28656100000822
  0
ARC
  5
9103
  8
0
 10
294.67754238267338
 20
1061.857810506034
 30
0.0
 40
3.4700000000000002
 50
270.0
 51
6.1896490000005366
  0
LINE
  5
9104
  8
0
 10
411.06318938267327
 20
1055.440118506034
 30
0.0
 11
316.63643238267332
 21
1055.440118506034
 31
0.0
  0
LINE
  5
9105
  8
0
 10
411.06318938267327
 20
1058.3878105060339
 30
0.0
 11
323.44883638267362
 21
1058.3878105060339
 31
0.0
  0
LINE
  5
9106
  8
0
 10
322.83816638267348
 20
1057.917962506034
 30
0.0
 11
408.98426838267329
 21
1057.917962506034
 31
0.0
  0
LINE
  5
9107
  8
0
 10
317.1099273826735
 20
1055.917962506034
 30
0.0
 11
408.98426838267329
 21
1055.917962506034
 31
0.0
  0
ARC
  5
9108
  8
0
 10
322.83816638267348
 20
1060.917962506034
 30
0.0
 40
3.0
 50
169.71343899999181
 51
270.0
  0
ARC
  5
9109
  8
0
 10
323.44883638267362
 20
1061.857810506034
 30
0.0
 40
3.4700000000000002
 50
173.8103509999994
 51
270.0
  0
LINE
  5
910A
  8
0
 10
408.98426838267329
 20
1055.917962506034
 30
0.0
 11
408.98426838267329
 21
1057.917962506034
 31
0.0
  0
LINE
  5
910B
  8
0
 10
408.98426838267329
 20
1045.917962506034
 30
0.0
 11
408.98426838267329
 21
1047.917962506034
 31
0.0
  0
LINE
  5
910C
  8
0
 10
408.98426838267329
 20
1034.917962506034
 30
0.0
 11
408.98426838267329
 21
1036.917962506034
 31
0.0
  0
LINE
  5
910D
  8
0
 10
408.98426838267329
 20
1023.917962506034
 30
0.0
 11
408.98426838267329
 21
1025.917962506034
 31
0.0
  0
LINE
  5
910E
  8
0
 10
408.98426838267329
 20
1057.917962506034
 30
0.0
 11
411.06318938267327
 21
1058.3878105060339
 31
0.0
  0
LINE
  5
910F
  8
0
 10
408.98426838267329
 20
1055.917962506034
 30
0.0
 11
411.06318938267327
 21
1055.440118506034
 31
0.0
  0
LINE
  5
9110
  8
0
 10
408.98426838267329
 20
1047.917962506034
 30
0.0
 11
411.06318938267327
 21
1048.388334506034
 31
0.0
  0
LINE
  5
9111
  8
0
 10
408.98426838267329
 20
1045.917962506034
 30
0.0
 11
411.06318938267327
 21
1045.4268555060339
 31
0.0
  0
LINE
  5
9112
  8
0
 10
408.98426838267329
 20
1036.917962506034
 30
0.0
 11
411.06318938267327
 21
1037.396154506034
 31
0.0
  0
LINE
  5
9113
  8
0
 10
408.98426838267329
 20
1034.917962506034
 30
0.0
 11
411.06318938267327
 21
1034.4035275060339
 31
0.0
  0
LINE
  5
9114
  8
0
 10
408.98426838267329
 20
1025.917962506034
 30
0.0
 11
411.06318938267327
 21
1026.4133595060341
 31
0.0
  0
LINE
  5
9115
  8
0
 10
408.98426838267329
 20
1023.917962506034
 30
0.0
 11
411.06318938267327
 21
1023.367653506034
 31
0.0
  0
LINE
  5
9116
  8
0
 10
411.06318938267327
 20
1026.4133595060341
 30
0.0
 11
411.06318938267327
 21
1023.367653506034
 31
0.0
  0
LINE
  5
9117
  8
0
 10
411.06318938267327
 20
1037.396154506034
 30
0.0
 11
411.06318938267327
 21
1034.4035275060339
 31
0.0
  0
LINE
  5
9118
  8
0
 10
411.06318938267327
 20
1048.388334506034
 30
0.0
 11
411.06318938267327
 21
1045.4268555060339
 31
0.0
  0
LINE
  5
9119
  8
0
 10
411.06318938267327
 20
1058.3878105060339
 30
0.0
 11
411.06318938267327
 21
1055.440118506034
 31
0.0
  0
LINE
  5
911A
  8
0
 10
343.98426838267352
 20
1014.917962506034
 30
0.0
 11
346.0631893826735
 21
1015.413359506034
 31
0.0
  0
LINE
  5
911B
  8
0
 10
346.0631893826735
 20
1015.413359506034
 30
0.0
 11
212.0631893826735
 21
1015.413359506034
 31
0.0
  0
LINE
  5
911C
  8
0
 10
214.14211038267351
 20
1014.917962506034
 30
0.0
 11
343.98426838267352
 21
1014.917962506034
 31
0.0
  0
LINE
  5
911D
  8
0
 10
343.98426838267352
 20
1012.917962506034
 30
0.0
 11
343.98426838267352
 21
1014.917962506034
 31
0.0
  0
LINE
  5
911E
  8
0
 10
346.0631893826735
 20
1012.367653506034
 30
0.0
 11
212.0631893826735
 21
1012.367653506034
 31
0.0
  0
LINE
  5
911F
  8
0
 10
214.14211038267351
 20
1012.917962506034
 30
0.0
 11
343.98426838267352
 21
1012.917962506034
 31
0.0
  0
LINE
  5
9120
  8
0
 10
343.98426838267352
 20
1012.917962506034
 30
0.0
 11
346.0631893826735
 21
1012.367653506034
 31
0.0
  0
LINE
  5
9121
  8
0
 10
346.0631893826735
 20
1006.413359506034
 30
0.0
 11
212.0631893826735
 21
1006.413359506034
 31
0.0
  0
LINE
  5
9122
  8
0
 10
214.14211038267351
 20
1005.917962506034
 30
0.0
 11
343.98426838267352
 21
1005.917962506034
 31
0.0
  0
LINE
  5
9123
  8
0
 10
346.0631893826735
 20
1003.367653506034
 30
0.0
 11
212.0967463826735
 21
1003.367653506034
 31
0.0
  0
LINE
  5
9124
  8
0
 10
214.14211038267351
 20
1003.917962506034
 30
0.0
 11
343.98426838267352
 21
1003.917962506034
 31
0.0
  0
LINE
  5
9125
  8
0
 10
343.98426838267352
 20
1003.917962506034
 30
0.0
 11
346.0631893826735
 21
1003.367653506034
 31
0.0
  0
LINE
  5
9126
  8
0
 10
346.0631893826735
 20
1006.413359506034
 30
0.0
 11
346.0631893826735
 21
1003.367653506034
 31
0.0
  0
LINE
  5
9127
  8
0
 10
343.98426838267352
 20
1003.917962506034
 30
0.0
 11
343.98426838267352
 21
1005.917962506034
 31
0.0
  0
LINE
  5
9128
  8
0
 10
343.98426838267352
 20
1005.917962506034
 30
0.0
 11
346.0631893826735
 21
1006.413359506034
 31
0.0
  0
LINE
  5
9129
  8
0
 10
346.0631893826735
 20
1003.367653506034
 30
0.0
 11
361.0631893826735
 21
1003.367653506034
 31
0.0
  0
LINE
  5
912A
  8
0
 10
361.0631893826735
 20
1003.367653506034
 30
0.0
 11
377.0631893826735
 21
999.0257285060344
 31
0.0
  0
LINE
  5
912B
  8
0
 10
212.0631893826735
 20
1015.413359506034
 30
0.0
 11
212.0631893826735
 21
1012.367653506034
 31
0.0
  0
LINE
  5
912C
  8
0
 10
212.0631893826735
 20
1006.413359506034
 30
0.0
 11
212.0631893826735
 21
1003.367653506034
 31
0.0
  0
LINE
  5
912D
  8
0
 10
214.14211038267351
 20
1012.917962506034
 30
0.0
 11
214.14211038267351
 21
1014.917962506034
 31
0.0
  0
LINE
  5
912E
  8
0
 10
214.14211038267351
 20
1014.917962506034
 30
0.0
 11
212.0631893826735
 21
1015.413359506034
 31
0.0
  0
LINE
  5
912F
  8
0
 10
214.14211038267351
 20
1012.917962506034
 30
0.0
 11
212.0631893826735
 21
1012.367653506034
 31
0.0
  0
LINE
  5
9130
  8
0
 10
214.14211038267351
 20
1005.917962506034
 30
0.0
 11
212.0631893826735
 21
1006.413359506034
 31
0.0
  0
LINE
  5
9131
  8
0
 10
214.14211038267351
 20
1003.917962506034
 30
0.0
 11
214.14211038267351
 21
1005.917962506034
 31
0.0
  0
LINE
  5
9132
  8
0
 10
214.14211038267351
 20
1003.917962506034
 30
0.0
 11
212.0631893826735
 21
1003.367653506034
 31
0.0
  0
LINE
  5
9133
  8
0
 10
208.5631893826735
 20
1071.061733506034
 30
0.0
 11
215.0631893826735
 21
1071.061733506034
 31
0.0
  0
LINE
  5
9134
  8
0
 10
208.5631893826735
 20
1071.3958115060341
 30
0.0
 11
215.74318938267331
 21
1071.3958115060341
 31
0.0
  0
LINE
  5
9135
  8
0
 10
217.0631893826735
 20
1069.061733506034
 30
0.0
 11
217.0631893826735
 21
1063.417966506034
 31
0.0
  0
LINE
  5
9136
  8
0
 10
218.74318938267331
 20
1074.3958115060341
 30
0.0
 11
218.74318938267331
 21
1063.417966506034
 31
0.0
  0
ARC
  5
9137
  8
0
 10
215.74318938267331
 20
1074.3958115060341
 30
0.0
 40
3.0
 50
270.0
 51
0.0
  0
LINE
  5
9138
  8
0
 10
208.5631893826735
 20
1055.7741985060341
 30
0.0
 11
215.0631893826735
 21
1055.7741985060341
 31
0.0
  0
LINE
  5
9139
  8
0
 10
208.5631893826735
 20
1055.440120506034
 30
0.0
 11
215.74318938267331
 21
1055.440120506034
 31
0.0
  0
LINE
  5
913A
  8
0
 10
217.0631893826735
 20
1057.7741985060341
 30
0.0
 11
217.0631893826735
 21
1063.417966506034
 31
0.0
  0
LINE
  5
913B
  8
0
 10
218.74318938267331
 20
1052.440120506034
 30
0.0
 11
218.74318938267331
 21
1063.417966506034
 31
0.0
  0
ARC
  5
913C
  8
0
 10
215.74318938267331
 20
1052.440120506034
 30
0.0
 40
3.0
 50
359.99999799999722
 51
89.999997999997177
  0
ARC
  5
913D
  8
0
  6
CONTINUOUS
 10
393.76298838267348
 20
1134.9012285060339
 30
0.0
 40
2.6003989999999999
 50
179.99998200000081
 51
269.99997799999852
  0
ARC
  5
913E
  8
0
  6
CONTINUOUS
 10
393.76298838267348
 20
1140.2012165060339
 30
0.0
 40
2.600403
 50
90.0
 51
179.99998200000081
  0
LINE
  5
913F
  8
0
  6
CONTINUOUS
 10
396.5631893826735
 20
1137.6172475060339
 30
0.0
 11
395.0631893826735
 21
1136.7512225060341
 31
0.0
  0
LINE
  5
9140
  8
0
  6
CONTINUOUS
 10
396.5631893826735
 20
1138.6172475060339
 30
0.0
 11
395.0631893826735
 21
1137.7512225060341
 31
0.0
  0
LINE
  5
9141
  8
0
  6
CONTINUOUS
 10
396.5631893826735
 20
1143.6512225060339
 30
0.0
 11
396.5631893826735
 21
1131.4512225060339
 31
0.0
  0
LINE
  5
9142
  8
0
  6
CONTINUOUS
 10
395.0631893826735
 20
1143.6512225060339
 30
0.0
 11
396.5631893826735
 21
1143.6512225060339
 31
0.0
  0
LINE
  5
9143
  8
0
  6
CONTINUOUS
 10
395.0631893826735
 20
1131.4512225060339
 30
0.0
 11
396.5631893826735
 21
1131.4512225060339
 31
0.0
  0
LINE
  5
9144
  8
0
  6
CONTINUOUS
 10
391.16319538267351
 20
1140.2012165060339
 30
0.0
 11
391.16319538267351
 21
1134.9012285060339
 31
0.0
  0
LINE
  5
9145
  8
0
  6
CONTINUOUS
 10
395.0631893826735
 20
1143.6512225060339
 30
0.0
 11
395.0631893826735
 21
1131.4512225060339
 31
0.0
  0
LINE
  5
9146
  8
0
  6
CONTINUOUS
 10
395.0631893826735
 20
1132.301222506034
 30
0.0
 11
393.76298838267348
 21
1132.301222506034
 31
0.0
  0
LINE
  5
9147
  8
0
  6
CONTINUOUS
 10
395.0631893826735
 20
1142.801222506034
 30
0.0
 11
393.76298838267348
 21
1142.801222506034
 31
0.0
  0
ARC
  5
9148
  8
0
  6
CONTINUOUS
 10
393.76298838267348
 20
1008.8593015060339
 30
0.0
 40
2.6003989999999999
 50
179.99998200000081
 51
269.99997799999852
  0
ARC
  5
9149
  8
0
  6
CONTINUOUS
 10
393.76298838267348
 20
1014.159289506034
 30
0.0
 40
2.600403
 50
90.0
 51
179.99998200000081
  0
LINE
  5
914A
  8
0
  6
CONTINUOUS
 10
396.5631893826735
 20
1011.575320506034
 30
0.0
 11
395.0631893826735
 21
1010.709295506034
 31
0.0
  0
LINE
  5
914B
  8
0
  6
CONTINUOUS
 10
396.5631893826735
 20
1012.575320506034
 30
0.0
 11
395.0631893826735
 21
1011.709295506034
 31
0.0
  0
LINE
  5
914C
  8
0
  6
CONTINUOUS
 10
396.5631893826735
 20
1017.609295506034
 30
0.0
 11
396.5631893826735
 21
1005.409295506034
 31
0.0
  0
LINE
  5
914D
  8
0
  6
CONTINUOUS
 10
395.0631893826735
 20
1017.609295506034
 30
0.0
 11
396.5631893826735
 21
1017.609295506034
 31
0.0
  0
LINE
  5
914E
  8
0
  6
CONTINUOUS
 10
395.0631893826735
 20
1005.409295506034
 30
0.0
 11
396.5631893826735
 21
1005.409295506034
 31
0.0
  0
LINE
  5
914F
  8
0
  6
CONTINUOUS
 10
391.16319538267351
 20
1014.159289506034
 30
0.0
 11
391.16319538267351
 21
1008.8593015060339
 31
0.0
  0
LINE
  5
9150
  8
0
  6
CONTINUOUS
 10
395.0631893826735
 20
1017.609295506034
 30
0.0
 11
395.0631893826735
 21
1005.409295506034
 31
0.0
  0
LINE
  5
9151
  8
0
  6
CONTINUOUS
 10
395.0631893826735
 20
1006.2592955060341
 30
0.0
 11
393.76298838267348
 21
1006.2592955060341
 31
0.0
  0
LINE
  5
9152
  8
0
  6
CONTINUOUS
 10
395.0631893826735
 20
1016.7592955060341
 30
0.0
 11
393.76298838267348
 21
1016.7592955060341
 31
0.0
  0
LINE
  5
9332
  8
0
 10
416.06318938267327
 20
523.80616452737036
 30
0.0
 11
428.06318938267327
 21
523.80616452737036
 31
0.0
  0
LINE
  5
9333
  8
0
 10
416.06318938267327
 20
513.62687252737032
 30
0.0
 11
428.06318938267327
 21
513.62687252737032
 31
0.0
  0
LINE
  5
9335
  8
0
 10
416.06318938267327
 20
501.33959152737032
 30
0.0
 11
428.06318938267327
 21
501.33959152737032
 31
0.0
  0
LINE
  5
9336
  8
0
 10
416.06318938267327
 20
639.26851452737014
 30
0.0
 11
442.6391603672937
 21
639.26851452737014
 31
0.0
  0
LINE
  5
9337
  8
0
 10
416.06318938267327
 20
647.39251952737038
 30
0.0
 11
442.6391603672937
 21
647.39251952737038
 31
0.0
  0
LINE
  5
9338
  8
0
 10
416.06318938267327
 20
625.59480352737035
 30
0.0
 11
442.6391603672937
 21
625.59480352737035
 31
0.0
  0
LINE
  5
934A
  8
0
 10
416.06318938267327
 20
1148.917962506034
 30
0.0
 11
492.74084201542911
 21
1151.5956051387909
 31
0.0
  0
LINE
  5
934B
  8
0
 10
416.06318938267327
 20
977.9179625060342
 30
0.0
 11
492.74084096455658
 21
975.24031990997526
 31
0.0
  0
LINE
  5
9387
  8
0
 10
433.06318938267322
 20
977.32430942467442
 30
0.0
 11
433.06318938267322
 21
1149.5116155873941
 31
0.0
  0
LINE
  5
9388
  8
0
 10
416.06318938267327
 20
1147.2816115060341
 30
0.0
 11
433.06318938267322
 21
1147.2816115060341
 31
0.0
  0
LINE
  5
9389
  8
0
 10
416.06318938267327
 20
1139.157606506034
 30
0.0
 11
433.06318938267322
 21
1139.157606506034
 31
0.0
  0
LINE
  5
938B
  8
0
 10
416.06318938267327
 20
1125.4839245060341
 30
0.0
 11
433.06318938267322
 21
1125.4839245060341
 31
0.0
  0
LINE
  5
938C
  8
0
 10
416.06318938267327
 20
1023.695256506034
 30
0.0
 11
433.06318938267322
 21
1023.695256506034
 31
0.0
  0
LINE
  5
938D
  8
0
 10
416.06318938267327
 20
1013.515964506034
 30
0.0
 11
433.06318938267322
 21
1013.515964506034
 31
0.0
  0
LINE
  5
938E
  8
0
 10
416.06318938267327
 20
1001.208325506034
 30
0.0
 11
433.06318938267322
 21
1001.208325506034
 31
0.0
  0
LINE
  5
95C6
  8
0
  6
CONTINUOUS
 62
     7
 10
590.06319938267268
 20
1196.417962506034
 30
0.0
 11
590.06319938267268
 21
1068.417962506034
 31
0.0
  0
LINE
  5
95C7
  8
0
  6
CONTINUOUS
 62
     7
 10
590.06319938267268
 20
1058.417962506034
 30
0.0
 11
590.06319938267268
 21
930.41796250603397
 31
0.0
  0
LINE
  5
95C8
  8
0
  6
CONTINUOUS
 62
     7
 10
672.4127493826727
 20
1160.781972506034
 30
0.0
 11
710.65199938267278
 21
1183.924432506034
 31
0.0
  0
LINE
  5
95C9
  8
0
  6
CONTINUOUS
 62
     7
 10
675.00160938267265
 20
1149.291492506034
 30
0.0
 11
698.75642938267288
 21
1149.291492506034
 31
0.0
  0
LINE
  5
95CA
  8
0
  6
CONTINUOUS
 62
     7
 10
674.99233938267253
 20
1151.068352506034
 30
0.0
 11
710.56142938267271
 21
1172.5947825060341
 31
0.0
  0
LINE
  5
95CB
  8
0
  6
CONTINUOUS
 62
     7
 10
670.00160938267265
 20
1156.504322506034
 30
0.0
 11
670.00160938267265
 21
1154.291492506034
 31
0.0
  0
LINE
  5
95CC
  8
0
  6
CONTINUOUS
 62
     7
 10
722.0632593826723
 20
1187.7670825060341
 30
0.0
 11
722.0632593826723
 21
939.06884250603389
 31
0.0
  0
LINE
  5
95CD
  8
0
  6
CONTINUOUS
 62
     7
 10
740.06319938267268
 20
1203.417962506034
 30
0.0
 11
740.06319938267268
 21
923.41796250603443
 31
0.0
  0
LINE
  5
95CE
  8
0
  6
CONTINUOUS
 62
     7
 10
735.06319938267245
 20
1203.417962506034
 30
0.0
 11
740.06319938267268
 21
1203.417962506034
 31
0.0
  0
LINE
  5
95CF
  8
0
  6
CONTINUOUS
 62
     7
 10
735.06319938267245
 20
1228.417962506034
 30
0.0
 11
735.06319938267245
 21
898.41790250603378
 31
0.0
  0
LINE
  5
95D0
  8
0
  6
CONTINUOUS
 62
     7
 10
713.06319938267245
 20
1222.821222506034
 30
0.0
 11
713.06319938267245
 21
904.01470250603415
 31
0.0
  0
LINE
  5
95D1
  8
0
  6
CONTINUOUS
 62
     7
 10
717.88875938267256
 20
1227.8182325060341
 30
0.0
 11
735.06325938267219
 21
1228.417962506034
 31
0.0
  0
LINE
  5
95D2
  8
0
  6
CONTINUOUS
 62
     7
 10
709.58101938267271
 20
1201.935602506034
 30
0.0
 11
713.06325938267241
 21
1205.4179025060339
 31
0.0
  0
LINE
  5
95D3
  8
0
  6
CONTINUOUS
 62
     7
 10
590.06319938267268
 20
1196.417962506034
 30
0.0
 11
706.21993938267269
 21
1200.474232506034
 31
0.0
  0
LINE
  5
95D4
  8
0
  6
CONTINUOUS
 62
     7
 10
670.00160938267265
 20
970.33153250603391
 30
0.0
 11
670.00160938267265
 21
972.54442250603392
 31
0.0
  0
LINE
  5
95D5
  8
0
  6
CONTINUOUS
 62
     7
 10
674.99233938267253
 20
975.76751250603365
 30
0.0
 11
710.56142938267271
 21
954.24108250603422
 31
0.0
  0
LINE
  5
95D6
  8
0
  6
CONTINUOUS
 62
     7
 10
675.00160938267265
 20
977.54442250603415
 30
0.0
 11
698.75642938267288
 21
977.54442250603415
 31
0.0
  0
LINE
  5
95D7
  8
0
  6
CONTINUOUS
 62
     7
 10
672.4127493826727
 20
966.05388250603391
 30
0.0
 11
710.65199938267278
 21
942.91149250603394
 31
0.0
  0
LINE
  5
95D8
  8
0
  6
CONTINUOUS
 62
     7
 10
701.71333938267242
 20
976.57628250603398
 30
0.0
 11
713.06319938267245
 21
968.25255250603402
 31
0.0
  0
LINE
  5
95D9
  8
0
  6
CONTINUOUS
 62
     7
 10
743.06313938267272
 20
1090.917962506034
 30
0.0
 11
825.06313938267272
 21
1090.917962506034
 31
0.0
  0
LINE
  5
95DA
  8
0
  6
CONTINUOUS
 62
     7
 10
743.06313938267272
 20
1035.917962506034
 30
0.0
 11
825.06313938267272
 21
1035.917962506034
 31
0.0
  0
LINE
  5
95DC
  8
0
  6
CONTINUOUS
 62
     7
 10
763.0631393826726
 20
1071.417962506034
 30
0.0
 11
763.0631393826726
 21
1055.4179025060339
 31
0.0
  0
LINE
  5
95DD
  8
0
  6
CONTINUOUS
 62
     7
 10
740.06319938267268
 20
1093.417962506034
 30
0.0
 11
743.06313938267272
 21
1093.417962506034
 31
0.0
  0
LINE
  5
95DE
  8
0
  6
CONTINUOUS
 62
     7
 10
743.06313938267272
 20
1093.417962506034
 30
0.0
 11
743.06313938267272
 21
1033.417962506034
 31
0.0
  0
LINE
  5
95DF
  8
0
  6
CONTINUOUS
 62
     7
 10
763.06319938267291
 20
1055.4179025060339
 30
0.0
 11
825.06313938267272
 21
1055.4179025060339
 31
0.0
  0
LINE
  5
95E0
  8
0
  6
CONTINUOUS
 62
     7
 10
709.58095938267275
 20
924.90026250603432
 30
0.0
 11
713.06325938267241
 21
921.41796250603386
 31
0.0
  0
LINE
  5
95E1
  8
0
  6
CONTINUOUS
 62
     7
 10
701.71333938267242
 20
1150.2595725060339
 30
0.0
 11
713.06325938267241
 21
1158.583302506034
 31
0.0
  0
LINE
  5
95E2
  8
0
  6
CONTINUOUS
 62
     7
 10
590.06319938267268
 20
930.4179025060339
 30
0.0
 11
706.21993938267269
 21
926.36162250603388
 31
0.0
  0
LINE
  5
95E3
  8
0
  6
CONTINUOUS
 62
     7
 10
763.06319938267291
 20
1071.417962506034
 30
0.0
 11
825.06313938267272
 21
1071.417962506034
 31
0.0
  0
LINE
  5
95E4
  8
0
  6
CONTINUOUS
 62
     7
 10
717.88875938267256
 20
899.01769250603411
 30
0.0
 11
735.06325938267219
 21
898.41796250603443
 31
0.0
  0
LINE
  5
95E5
  8
0
  6
CONTINUOUS
 62
     7
 10
740.06319938267268
 20
1033.417962506034
 30
0.0
 11
743.06313938267272
 21
1033.417962506034
 31
0.0
  0
LINE
  5
95E6
  8
0
  6
CONTINUOUS
 62
     7
 10
735.06319938267245
 20
923.41796250603443
 30
0.0
 11
740.06319938267268
 21
923.41796250603443
 31
0.0
  0
ARC
  5
95E7
  8
0
  6
CONTINUOUS
 62
     7
 10
714.06319938267245
 20
1187.7670825060341
 30
0.0
 40
8.0
 50
0.0
 51
90.00000299999769
  0
ARC
  5
95E8
  8
0
  6
CONTINUOUS
 62
     7
 10
714.06319938267245
 20
1129.754572506034
 30
0.0
 40
8.0
 50
0.0
 51
90.00000299999769
  0
ARC
  5
95E9
  8
0
  6
CONTINUOUS
 62
     7
 10
718.06319938267245
 20
1222.821222506034
 30
0.0
 40
5.0
 50
91.999998000000787
 51
180.000010000001
  0
ARC
  5
95EA
  8
0
  6
CONTINUOUS
 62
     7
 10
714.06319938267245
 20
939.06884250603389
 30
0.0
 40
8.0
 50
270.0
 51
0.0
  0
ARC
  5
95EB
  8
0
  6
CONTINUOUS
 62
     7
 10
698.75642938267288
 20
972.54442250603392
 30
0.0
 40
5.0
 50
53.744452999999368
 51
90.00000299999769
  0
ARC
  5
95EC
  8
0
  6
CONTINUOUS
 62
     7
 10
675.00160938267265
 20
970.33153250603391
 30
0.0
 40
5.0
 50
179.999989999999
 51
238.81764999999371
  0
ARC
  5
95ED
  8
0
  6
CONTINUOUS
 62
     7
 10
708.06319938267268
 20
938.63384250603417
 30
0.0
 40
5.0
 50
0.0
 51
58.817640999998339
  0
ARC
  5
95EE
  8
0
  6
CONTINUOUS
 62
     7
 10
675.00160938267265
 20
972.54442250603392
 30
0.0
 40
5.0
 50
90.00000299999769
 51
180.000010000001
  0
ARC
  5
95EF
  8
0
  6
CONTINUOUS
 62
     7
 10
675.00160938267265
 20
1154.291492506034
 30
0.0
 40
5.0
 50
179.999989999999
 51
270.0
  0
ARC
  5
95F0
  8
0
  6
CONTINUOUS
 62
     7
 10
708.06319938267268
 20
1188.202012506034
 30
0.0
 40
5.0
 50
301.18235999999968
 51
0.0
  0
ARC
  5
95F1
  8
0
  6
CONTINUOUS
 62
     7
 10
675.00160938267265
 20
1156.504322506034
 30
0.0
 40
5.0
 50
121.1823599999997
 51
180.000010000001
  0
ARC
  5
95F2
  8
0
  6
CONTINUOUS
 62
     7
 10
763.06319938267291
 20
1063.4179025060339
 30
0.0
 40
8.0000113999999982
 50
90.00000299999769
 51
270.0
  0
ARC
  5
95F3
  8
0
  6
CONTINUOUS
 62
     7
 10
718.06319938267245
 20
904.01470250603415
 30
0.0
 40
5.0
 50
179.999989999999
 51
268.00000999999889
  0
ARC
  5
95F4
  8
0
  6
CONTINUOUS
 62
     7
 10
706.04543938267273
 20
1205.471182506034
 30
0.0
 40
5.0
 50
271.99999999999699
 51
315.0000000000046
  0
ARC
  5
95F5
  8
0
  6
CONTINUOUS
 62
     7
 10
706.04543938267273
 20
921.36473250603387
 30
0.0
 40
5.0
 50
45.00000099999918
 51
88.000000000002998
  0
ARC
  5
95F6
  8
0
  6
CONTINUOUS
 62
     7
 10
698.75642938267288
 20
1154.291492506034
 30
0.0
 40
5.0
 50
270.0
 51
306.25554999999889
  0
ARC
  5
95F7
  8
0
  6
CONTINUOUS
 62
     7
 10
714.06319938267245
 20
997.08129250603429
 30
0.0
 40
8.0
 50
270.0
 51
0.0
  0
POLYLINE
  5
95F8
  8
0
  6
CONTINUOUS
 62
     7
 66
     1
 10
0.0
 20
0.0
 30
0.0
  0
VERTEX
  5
95F9
  8
0
  6
CONTINUOUS
 62
     7
 10
700.96602938267245
 20
1149.8062125060339
 30
0.0
 42
0.01720808
  0
VERTEX
  5
95FA
  8
0
  6
CONTINUOUS
 62
     7
 10
696.54975938267273
 20
1092.431022506034
 30
0.0
 42
0.0088311605
  0
VERTEX
  5
95FB
  8
0
  6
CONTINUOUS
 62
     7
 10
695.83290938267294
 20
1063.417962506034
 30
0.0
 42
0.025919753
  0
VERTEX
  5
95FC
  8
0
  6
CONTINUOUS
 62
     7
 10
699.70173938267271
 20
977.45427250603393
 30
0.0
  0
SEQEND
  5
95FD
  8
0
 62
     7
  0
POLYLINE
  5
95FE
  8
0
  6
CONTINUOUS
 62
     7
 66
     1
 10
0.0
 20
0.0
 30
0.0
  0
VERTEX
  5
95FF
  8
0
  6
CONTINUOUS
 62
     7
 10
703.14673938267242
 20
947.45366250603377
 30
0.0
 42
0.0020909347
  0
VERTEX
  5
9600
  8
0
  6
CONTINUOUS
 62
     7
 10
704.1125893826727
 20
940.41315250603395
 30
0.0
 42
0.0020881749
  0
VERTEX
  5
9601
  8
0
  6
CONTINUOUS
 62
     7
 10
705.13716938267225
 20
933.38153250603398
 30
0.0
 42
0.0020849591
  0
VERTEX
  5
9602
  8
0
  6
CONTINUOUS
 62
     7
 10
706.21993938267269
 20
926.36168250603384
 30
0.0
  0
SEQEND
  5
9603
  8
0
 62
     7
  0
POLYLINE
  5
9604
  8
0
  6
CONTINUOUS
 62
     7
 66
     1
 10
0.0
 20
0.0
 30
0.0
  0
VERTEX
  5
9605
  8
0
  6
CONTINUOUS
 62
     7
 10
708.18831938267272
 20
1200.542962506034
 30
0.0
  0
VERTEX
  5
9606
  8
0
  6
CONTINUOUS
 62
     7
 10
704.95805938267267
 20
1180.478452506034
 30
0.0
 42
-1.0
  0
SEQEND
  5
9607
  8
0
 62
     7
  0
LINE
  5
9668
  8
0
  6
CONTINUOUS
 62
     7
 10
511.06319938267268
 20
703.52884552737032
 30
0.0
 11
511.06319938267268
 21
508.52884552737038
 31
0.0
  0
LINE
  5
9669
  8
0
  6
CONTINUOUS
 62
     7
 10
562.26912938267265
 20
782.02880552737031
 30
0.0
 11
581.85719938267266
 21
782.02880552737031
 31
0.0
  0
LINE
  5
966A
  8
0
  6
CONTINUOUS
 62
     7
 10
559.56313938267283
 20
773.02884552737032
 30
0.0
 11
561.81362938267262
 21
781.4277655273703
 31
0.0
  0
LINE
  5
966B
  8
0
  6
CONTINUOUS
 62
     7
 10
584.56313938267272
 20
773.02884552737032
 30
0.0
 11
582.3126493826727
 21
781.4277655273703
 31
0.0
  0
LINE
  5
966C
  8
0
  6
CONTINUOUS
 62
     7
 10
562.58510938267239
 20
782.14978552737045
 30
0.0
 11
572.06313938267272
 21
784.02877552737027
 31
0.0
  0
LINE
  5
966D
  8
0
  6
CONTINUOUS
 62
     7
 10
572.06319938267256
 20
784.02880552737031
 30
0.0
 11
581.5412293826729
 21
782.14984552737064
 31
0.0
  0
LINE
  5
966E
  8
0
  6
CONTINUOUS
 62
     7
 10
534.06313938267283
 20
719.01281552737032
 30
0.0
 11
534.06313938267283
 21
493.58633552737052
 31
0.0
  0
LINE
  5
966F
  8
0
  6
CONTINUOUS
 62
     7
 10
557.98940938267276
 20
473.75972552737051
 30
0.0
 11
536.13692938267275
 21
489.53205552737052
 31
0.0
  0
LINE
  5
9670
  8
0
  6
CONTINUOUS
 62
     7
 10
535.46150938267238
 20
722.48101552737035
 30
0.0
 11
555.66469938267289
 21
743.46127552737062
 31
0.0
  0
LINE
  5
9671
  8
0
  6
CONTINUOUS
 62
     7
 10
511.06319938267268
 20
703.52887552737025
 30
0.0
 11
529.23763938267291
 21
704.16351552737035
 31
0.0
  0
LINE
  5
9672
  8
0
  6
CONTINUOUS
 62
     7
 10
513.06319938267256
 20
679.03500552737023
 30
0.0
 11
534.06313938267283
 21
679.03500552737023
 31
0.0
  0
LINE
  5
9673
  8
0
  6
CONTINUOUS
 62
     7
 10
560.06313938267238
 20
770.04983552737031
 30
0.0
 11
560.06313938267238
 21
461.00782552737041
 31
0.0
  0
LINE
  5
9674
  8
0
  6
CONTINUOUS
 62
     7
 10
561.99336938267288
 20
772.04861552737032
 30
0.0
 11
590.06319938267268
 21
773.02884552737032
 31
0.0
  0
LINE
  5
9675
  8
0
  6
CONTINUOUS
 62
     7
 10
557.06319938267268
 20
771.02884552737055
 30
0.0
 11
557.06319938267268
 21
746.92944552737015
 31
0.0
  0
LINE
  5
9676
  8
0
  6
CONTINUOUS
 62
     7
 10
555.66469938267289
 20
743.46127552737062
 30
0.0
 11
558.66469938267289
 21
746.57663552737029
 31
0.0
  0
LINE
  5
9677
  8
0
  6
CONTINUOUS
 62
     7
 10
559.0631393826726
 20
773.02880552737031
 30
0.0
 11
590.06313938267272
 21
773.02880552737031
 31
0.0
  0
LINE
  5
9678
  8
0
  6
CONTINUOUS
 62
     7
 10
743.06313938267272
 20
678.52884552737055
 30
0.0
 11
825.06313938267272
 21
678.52884552737055
 31
0.0
  0
LINE
  5
9679
  8
0
  6
CONTINUOUS
 62
     7
 10
511.0631393826726
 20
508.5288255273702
 30
0.0
 11
529.23763938267291
 21
507.89416552737049
 31
0.0
  0
LINE
  5
967A
  8
0
  6
CONTINUOUS
 62
     7
 10
513.06319938267256
 20
522.83364552737055
 30
0.0
 11
534.06313938267283
 21
522.83364552737055
 31
0.0
  0
LINE
  5
967B
  8
0
  6
CONTINUOUS
 62
     7
 10
513.06319938267256
 20
549.25302552737026
 30
0.0
 11
513.06319938267256
 21
522.83364552737055
 31
0.0
  0
LINE
  5
967C
  8
0
  6
CONTINUOUS
 62
     7
 10
513.06319938267256
 20
689.22400552737031
 30
0.0
 11
513.06319938267256
 21
662.80462552737015
 31
0.0
  0
LINE
  5
967D
  8
0
  6
CONTINUOUS
 62
     7
 10
513.06319938267256
 20
689.22400552737031
 30
0.0
 11
534.06313938267283
 21
689.22400552737031
 31
0.0
  0
LINE
  5
967E
  8
0
  6
CONTINUOUS
 62
     7
 10
513.06319938267256
 20
662.80462552737015
 30
0.0
 11
534.06313938267283
 21
662.80462552737015
 31
0.0
  0
LINE
  5
967F
  8
0
  6
CONTINUOUS
 62
     7
 10
513.06319938267256
 20
549.25302552737026
 30
0.0
 11
534.06313938267283
 21
549.25302552737026
 31
0.0
  0
LINE
  5
9680
  8
0
  6
CONTINUOUS
 62
     7
 10
513.06319938267256
 20
533.02262552737034
 30
0.0
 11
534.06313938267283
 21
533.02262552737034
 31
0.0
  0
LINE
  5
9681
  8
0
  6
CONTINUOUS
 62
     7
 10
763.0631393826726
 20
682.52880552737054
 30
0.0
 11
825.06313938267272
 21
682.52880552737054
 31
0.0
  0
LINE
  5
9682
  8
0
  6
CONTINUOUS
 62
     7
 10
562.06319938267268
 20
659.49520552737044
 30
0.0
 11
707.6644593826727
 21
659.49520552737044
 31
0.0
  0
LINE
  5
9683
  8
0
  6
CONTINUOUS
 62
     7
 10
630.06313938267294
 20
526.27473552737035
 30
0.0
 11
630.06313938267294
 21
511.62988552737028
 31
0.0
  0
LINE
  5
9684
  8
0
  6
CONTINUOUS
 62
     7
 10
590.06313938267272
 20
458.0288255273702
 30
0.0
 11
671.90645938267267
 21
455.88568552737019
 31
0.0
  0
LINE
  5
9685
  8
0
  6
CONTINUOUS
 62
     7
 10
698.65389938267265
 20
778.61956552737036
 30
0.0
 11
713.06319938267245
 21
793.0288055273702
 31
0.0
  0
LINE
  5
9686
  8
0
  6
CONTINUOUS
 62
     7
 10
590.06313938267272
 20
773.02880552737031
 30
0.0
 11
590.06313938267272
 21
458.0288255273702
 31
0.0
  0
LINE
  5
9687
  8
0
  6
CONTINUOUS
 62
     7
 10
717.88863938267275
 20
815.42913552737025
 30
0.0
 11
735.06319938267245
 21
816.02890552737017
 31
0.0
  0
LINE
  5
9688
  8
0
  6
CONTINUOUS
 62
     7
 10
718.06313938267272
 20
486.02882552737037
 30
0.0
 11
735.06313938267272
 21
486.02882552737037
 31
0.0
  0
LINE
  5
9689
  8
0
  6
CONTINUOUS
 62
     7
 10
590.06313938267272
 20
773.02880552737031
 30
0.0
 11
691.84462938267245
 21
775.6940655273703
 31
0.0
  0
LINE
  5
968A
  8
0
  6
CONTINUOUS
 62
     7
 10
635.06313938267272
 20
531.27473552737035
 30
0.0
 11
713.0631393826726
 21
531.27473552737035
 31
0.0
  0
LINE
  5
968B
  8
0
  6
CONTINUOUS
 62
     7
 10
635.06313938267272
 20
506.62988552737039
 30
0.0
 11
713.0631393826726
 21
506.62988552737039
 31
0.0
  0
LINE
  5
968C
  8
0
  6
CONTINUOUS
 62
     7
 10
713.0631393826726
 20
810.43209552737028
 30
0.0
 11
713.0631393826726
 21
616.76547552737054
 31
0.0
  0
LINE
  5
968D
  8
0
  6
CONTINUOUS
 62
     7
 10
735.06313938267272
 20
816.02884552737021
 30
0.0
 11
735.06313938267272
 21
486.02882552737037
 31
0.0
  0
LINE
  5
968E
  8
0
  6
CONTINUOUS
 62
     7
 10
735.06313938267272
 20
511.02884552737021
 30
0.0
 11
740.06313938267272
 21
511.02884552737021
 31
0.0
  0
LINE
  5
968F
  8
0
  6
CONTINUOUS
 62
     7
 10
735.06313938267272
 20
791.02884552737032
 30
0.0
 11
740.06313938267272
 21
791.02884552737032
 31
0.0
  0
LINE
  5
9690
  8
0
  6
CONTINUOUS
 62
     7
 10
740.06313938267272
 20
791.02884552737032
 30
0.0
 11
740.06313938267272
 21
511.02884552737021
 31
0.0
  0
LINE
  5
9691
  8
0
  6
CONTINUOUS
 62
     7
 10
677.1682393826726
 20
457.22201552737022
 30
0.0
 11
727.06313938267272
 21
486.02885552737041
 31
0.0
  0
LINE
  5
9692
  8
0
  6
CONTINUOUS
 62
     7
 10
562.06319938267268
 20
557.69964552737054
 30
0.0
 11
713.0631393826726
 21
557.69964552737054
 31
0.0
  0
LINE
  5
9693
  8
0
  6
CONTINUOUS
 62
     7
 10
722.06319938267245
 20
775.37796552737029
 30
0.0
 11
722.06319938267245
 21
526.67970552737052
 31
0.0
  0
LINE
  5
9694
  8
0
  6
CONTINUOUS
 62
     7
 10
713.0631393826726
 20
558.75494552737052
 30
0.0
 11
713.0631393826726
 21
491.02882552737032
 31
0.0
  0
LINE
  5
9695
  8
0
  6
CONTINUOUS
 62
     7
 10
712.38979938267266
 20
608.54074552737018
 30
0.0
 11
700.48598938267321
 21
736.90237552737017
 31
0.0
  0
LINE
  5
9696
  8
0
  6
CONTINUOUS
 62
     7
 10
670.00154938267258
 20
744.11523552737015
 30
0.0
 11
670.00154938267258
 21
741.90237552737028
 31
0.0
  0
LINE
  5
9697
  8
0
  6
CONTINUOUS
 62
     7
 10
674.99227938267234
 20
738.67923552737034
 30
0.0
 11
710.56136938267275
 21
760.20565552737048
 31
0.0
  0
LINE
  5
9698
  8
0
  6
CONTINUOUS
 62
     7
 10
675.00154938267269
 20
736.90237552737017
 30
0.0
 11
698.75636938267291
 21
736.90237552737017
 31
0.0
  0
LINE
  5
9699
  8
0
  6
CONTINUOUS
 62
     7
 10
672.41268938267274
 20
748.39285552737033
 30
0.0
 11
710.65193938267271
 21
771.5353055273705
 31
0.0
  0
LINE
  5
969A
  8
0
  6
CONTINUOUS
 62
     7
 10
701.71327938267245
 20
737.87048552737031
 30
0.0
 11
713.0631393826726
 21
746.19427552737034
 31
0.0
  0
LINE
  5
969B
  8
0
  6
CONTINUOUS
 62
     7
 10
697.86104938267272
 20
765.20819552737032
 30
0.0
 11
696.79012938267272
 21
776.7557955273702
 31
0.0
  0
LINE
  5
969C
  8
0
  6
CONTINUOUS
 62
     7
 10
561.99330938267269
 20
459.00903552737049
 30
0.0
 11
590.06319938267268
 21
458.02880552737048
 31
0.0
  0
LINE
  5
969D
  8
0
  6
CONTINUOUS
 62
     7
 10
740.06313938267272
 20
681.02884552737055
 30
0.0
 11
743.06313938267272
 21
681.02884552737055
 31
0.0
  0
LINE
  5
969E
  8
0
  6
CONTINUOUS
 62
     7
 10
740.06313938267272
 20
621.02884552737055
 30
0.0
 11
743.06313938267272
 21
621.02884552737055
 31
0.0
  0
LINE
  5
969F
  8
0
  6
CONTINUOUS
 62
     7
 10
743.06313938267272
 20
681.02884552737055
 30
0.0
 11
743.06313938267272
 21
621.02884552737055
 31
0.0
  0
LINE
  5
96A0
  8
0
  6
CONTINUOUS
 62
     7
 10
763.0631393826726
 20
682.52880552737054
 30
0.0
 11
763.0631393826726
 21
678.52884552737055
 31
0.0
  0
LINE
  5
96A1
  8
0
  6
CONTINUOUS
 62
     7
 10
825.06313938267272
 20
682.52880552737054
 30
0.0
 11
825.06313938267272
 21
623.52884552737055
 31
0.0
  0
LINE
  5
96A2
  8
0
  6
CONTINUOUS
 62
     7
 10
743.06313938267272
 20
623.52884552737055
 30
0.0
 11
825.06313938267272
 21
623.52884552737055
 31
0.0
  0
ARC
  5
96A3
  8
0
  6
CONTINUOUS
 62
     7
 10
529.0631393826726
 20
709.16043552737028
 30
0.0
 40
5.0
 50
271.99999999999721
 51
0.0
  0
ARC
  5
96A4
  8
0
  6
CONTINUOUS
 62
     7
 10
529.0631393826726
 20
502.89720552737049
 30
0.0
 40
5.0
 50
0.0
 51
88.000000000002785
  0
CIRCLE
  5
96A5
  8
0
  6
CONTINUOUS
 62
     7
 10
572.06319938267256
 20
799.02884552737032
 30
0.0
 40
15.0
  0
ARC
  5
96A6
  8
0
  6
CONTINUOUS
 62
     7
 10
572.06319938267256
 20
799.02884552737032
 30
0.0
 40
25.0
 50
306.46672000000018
 51
233.53329000000349
  0
ARC
  5
96A7
  8
0
  6
CONTINUOUS
 62
     7
 10
562.77956938267289
 20
781.16891552737047
 30
0.0
 40
1.0
 50
101.21328999999881
 51
164.999990000005
  0
ARC
  5
96A8
  8
0
  6
CONTINUOUS
 62
     7
 10
581.34676938267273
 20
781.16891552737047
 30
0.0
 40
1.0
 50
15.000000000000741
 51
78.786710000001207
  0
ARC
  5
96A9
  8
0
  6
CONTINUOUS
 62
     7
 10
553.63814938267262
 20
774.09857552737049
 30
0.0
 40
6.0
 50
349.72994999999878
 51
53.533291000004859
  0
ARC
  5
96AA
  8
0
  6
CONTINUOUS
 62
     7
 10
590.48818938267266
 20
774.09857552737049
 30
0.0
 40
6.0
 50
126.46669999999671
 51
190.27005999999921
  0
ARC
  5
96AB
  8
0
  6
CONTINUOUS
 62
     7
 10
539.06313938267238
 20
493.58633552737052
 30
0.0
 40
5.0
 50
179.999989999999
 51
234.17957000000149
  0
ARC
  5
96AC
  8
0
  6
CONTINUOUS
 62
     7
 10
559.0631393826726
 20
771.02884552737055
 30
0.0
 40
2.0
 50
90.00000299999769
 51
180.000010000001
  0
ARC
  5
96AD
  8
0
  6
CONTINUOUS
 62
     7
 10
539.06313938267238
 20
719.01281552737032
 30
0.0
 40
5.0
 50
136.08091999999979
 51
180.000010000001
  0
ARC
  5
96AE
  8
0
  6
CONTINUOUS
 62
     7
 10
562.06319938267268
 20
770.04983552737031
 30
0.0
 40
2.0
 50
91.999998000000545
 51
180.000010000001
  0
ARC
  5
96AF
  8
0
  6
CONTINUOUS
 62
     7
 10
552.06319938267256
 20
746.92944552737015
 30
0.0
 40
5.0
 50
316.08091999999988
 51
0.0
  0
ARC
  5
96B0
  8
0
  6
CONTINUOUS
 62
     7
 10
555.06313938267294
 20
750.04483552737031
 30
0.0
 40
5.0
 50
316.08091999999988
 51
0.0
  0
ARC
  5
96B1
  8
0
  6
CONTINUOUS
 62
     7
 10
635.06313938267272
 20
511.62988552737028
 30
0.0
 40
5.0
 50
179.999989999999
 51
270.0
  0
ARC
  5
96B2
  8
0
  6
CONTINUOUS
 62
     7
 10
718.06313938267272
 20
810.43209552737028
 30
0.0
 40
5.0
 50
91.999998000000545
 51
180.000010000001
  0
ARC
  5
96B3
  8
0
  6
CONTINUOUS
 62
     7
 10
718.06313938267272
 20
491.02882552737032
 30
0.0
 40
5.0
 50
179.999989999999
 51
270.0
  0
ARC
  5
96B4
  8
0
  6
CONTINUOUS
 62
     7
 10
635.06313938267272
 20
526.27473552737035
 30
0.0
 40
5.0
 50
90.00000299999769
 51
180.000010000001
  0
ARC
  5
96B5
  8
0
  6
CONTINUOUS
 62
     7
 10
714.06313938267272
 20
566.6921855273705
 30
0.0
 40
8.0
 50
270.0
 51
0.0
  0
ARC
  5
96B6
  8
0
  6
CONTINUOUS
 62
     7
 10
714.06313938267272
 20
526.67970552737052
 30
0.0
 40
8.0
 50
270.0
 51
0.0
  0
ARC
  5
96B7
  8
0
  6
CONTINUOUS
 62
     7
 10
714.06313938267272
 20
717.36547552737034
 30
0.0
 40
8.0
 50
0.0
 51
90.00000299999769
  0
ARC
  5
96B8
  8
0
  6
CONTINUOUS
 62
     7
 10
714.06313938267272
 20
775.37796552737029
 30
0.0
 40
8.0
 50
0.0
 51
90.00000299999769
  0
ARC
  5
96B9
  8
0
  6
CONTINUOUS
 62
     7
 10
720.35555938267271
 20
609.27945552737026
 30
0.0
 40
8.0
 50
185.2982400000015
 51
270.0
  0
ARC
  5
96BA
  8
0
  6
CONTINUOUS
 62
     7
 10
691.58284938267275
 20
785.69061552737048
 30
0.0
 40
10.0
 50
271.50000000000267
 51
315.0
  0
ARC
  5
96BB
  8
0
  6
CONTINUOUS
 62
     7
 10
672.16829938267233
 20
465.88226552737018
 30
0.0
 40
10.0
 50
268.49999999999733
 51
300.00000000000051
  0
ARC
  5
96BC
  8
0
  6
CONTINUOUS
 62
     7
 10
698.75636938267291
 20
741.90237552737028
 30
0.0
 40
5.0
 50
270.0
 51
306.25554999999889
  0
ARC
  5
96BD
  8
0
  6
CONTINUOUS
 62
     7
 10
675.00154938267269
 20
741.90237552737028
 30
0.0
 40
5.0
 50
179.999989999999
 51
270.0
  0
ARC
  5
96BE
  8
0
  6
CONTINUOUS
 62
     7
 10
675.00154938267269
 20
744.11523552737015
 30
0.0
 40
5.0
 50
121.18235999999629
 51
180.000010000001
  0
ARC
  5
96BF
  8
0
  6
CONTINUOUS
 62
     7
 10
708.06313938267272
 20
775.81292552737034
 30
0.0
 40
5.0
 50
301.18235999999632
 51
0.0
  0
ARC
  5
96C0
  8
0
  6
CONTINUOUS
 62
     7
 10
555.06313938267294
 20
469.70543552737053
 30
0.0
 40
5.0
 50
0.0
 51
54.179554000000898
  0
ARC
  5
96C1
  8
0
  6
CONTINUOUS
 62
     7
 10
562.06319938267268
 20
461.00782552737041
 30
0.0
 40
2.0
 50
179.999989999999
 51
268.00000999999861
  0
LINE
  5
9713
  8
0
  6
AM_ISO08W050
 10
1402.2722238875419
 20
651.02884552737055
 30
0.0
 11
1055.1878008875431
 21
651.02884552737055
 31
0.0
  0
LINE
  5
9714
  8
0
  6
AM_ISO08W050
 10
1228.3408008875419
 20
445.02880552737048
 30
0.0
 11
1228.3408008875419
 21
831.28717552737055
 31
0.0
  0
LINE
  5
9715
  8
0
  6
CONTINUOUS
 62
     7
 10
1159.1405308875419
 20
457.52731552737038
 30
0.0
 11
1136.365630887542
 21
473.47445552737048
 31
0.0
  0
LINE
  5
9716
  8
0
  6
CONTINUOUS
 62
     7
 10
1103.8310808875431
 20
775.53854552737062
 30
0.0
 11
1077.8020308875421
 21
801.56756552737045
 31
0.0
  0
LINE
  5
9717
  8
0
  6
CONTINUOUS
 62
     7
 10
1166.493770887543
 20
455.20883552737052
 30
0.0
 11
1290.1878008875419
 21
455.20883552737052
 31
0.0
  0
LINE
  5
9718
  8
0
  6
CONTINUOUS
 62
     7
 10
1297.5410308875421
 20
457.52732552737018
 30
0.0
 11
1320.315900887543
 21
473.47445552737048
 31
0.0
  0
LINE
  5
971A
  8
0
  6
CONTINUOUS
 62
     7
 10
1101.735140887542
 20
636.02884552737055
 30
0.0
 11
1148.3408208875419
 21
636.02884552737055
 31
0.0
  0
LINE
  5
971B
  8
0
  6
CONTINUOUS
 62
     7
 10
1354.9464868875421
 20
636.02884552737055
 30
0.0
 11
1308.3407908875431
 21
636.02884552737055
 31
0.0
  0
LINE
  5
971C
  8
0
  6
CONTINUOUS
 62
     7
 10
1173.3408208875419
 20
486.02882552737037
 30
0.0
 11
1283.3407908875431
 21
486.02882552737037
 31
0.0
  0
LINE
  5
971D
  8
0
  6
CONTINUOUS
 62
     7
 10
1173.3408208875419
 20
816.02884552737021
 30
0.0
 11
1283.3407908875431
 21
816.02884552737021
 31
0.0
  0
LINE
  5
971E
  8
0
  6
CONTINUOUS
 62
     7
 10
1063.340820887543
 20
596.02884552737055
 30
0.0
 11
1063.340820887543
 21
706.02884552737032
 31
0.0
  0
LINE
  5
971F
  8
0
  6
CONTINUOUS
 62
     7
 10
1173.340790887542
 20
486.02882552737037
 30
0.0
 11
1086.801970887542
 21
490.56413552737052
 31
0.0
  0
LINE
  5
9720
  8
0
  6
CONTINUOUS
 62
     7
 10
1393.3407818875421
 20
596.02884552737055
 30
0.0
 11
1393.3407818875421
 21
706.02884552737032
 31
0.0
  0
LINE
  5
9721
  8
0
  6
CONTINUOUS
 62
     7
 10
1280.129410887542
 20
711.30270552737034
 30
0.0
 11
1313.5632508875419
 21
744.73654552737025
 31
0.0
  0
LINE
  5
9722
  8
0
  6
CONTINUOUS
 62
     7
 10
1153.340820887543
 20
651.02884552737055
 30
0.0
 11
1153.340820887543
 21
641.02884552737055
 31
0.0
  0
LINE
  5
9723
  8
0
  6
CONTINUOUS
 62
     7
 10
1353.621660887542
 20
525.74795552737032
 30
0.0
 11
1378.8432228875431
 21
500.52639552737031
 31
0.0
  0
LINE
  5
9724
  8
0
  6
CONTINUOUS
 62
     7
 10
1303.340790887542
 20
651.02884552737055
 30
0.0
 11
1303.340790887542
 21
641.02884552737055
 31
0.0
  0
LINE
  5
9725
  8
0
  6
CONTINUOUS
 62
     7
 10
1288.6146708875419
 20
702.8174455273703
 30
0.0
 11
1322.048510887543
 21
736.25128552737033
 31
0.0
  0
LINE
  5
9726
  8
0
  6
CONTINUOUS
 62
     7
 10
1352.6459108875431
 20
775.33395552737034
 30
0.0
 11
1378.1089468875421
 21
800.7969955273702
 31
0.0
  0
LINE
  5
9727
  8
0
  6
CONTINUOUS
 62
     7
 10
1176.552210887543
 20
711.30270552737034
 30
0.0
 11
1143.1183808875419
 21
744.73654552737025
 31
0.0
  0
LINE
  5
9728
  8
0
  6
CONTINUOUS
 62
     7
 10
1168.066920887542
 20
702.81741552737026
 30
0.0
 11
1134.633090887542
 21
736.25125552737029
 31
0.0
  0
LINE
  5
9729
  8
0
  6
CONTINUOUS
 62
     7
 10
1103.8790308875421
 20
526.56706552737046
 30
0.0
 11
1077.288360887542
 21
499.97642552737062
 31
0.0
  0
LINE
  5
972A
  8
0
  6
CONTINUOUS
 62
     7
 10
1063.340760887542
 20
706.02884552737032
 30
0.0
 11
1067.876070887542
 21
792.56762552737018
 31
0.0
  0
LINE
  5
972B
  8
0
  6
CONTINUOUS
 62
     7
 10
1283.340770887542
 20
816.02884552737021
 30
0.0
 11
1369.8796078875421
 21
811.49353552737057
 31
0.0
  0
LINE
  5
972C
  8
0
  6
CONTINUOUS
 62
     7
 10
1283.3408008875431
 20
486.02884552737021
 30
0.0
 11
1369.8796228875419
 21
490.5641455273705
 31
0.0
  0
LINE
  5
972D
  8
0
  6
CONTINUOUS
 62
     7
 10
1393.3407968875431
 20
706.0288055273702
 30
0.0
 11
1388.8054878875421
 21
792.56762552737018
 31
0.0
  0
LINE
  5
972E
  8
0
  6
CONTINUOUS
 62
     7
 10
1393.3407898875421
 20
596.02884552737055
 30
0.0
 11
1388.805480887542
 21
509.48999552737018
 31
0.0
  0
LINE
  5
972F
  8
0
  6
CONTINUOUS
 62
     7
 10
1063.340790887542
 20
596.02880552737042
 30
0.0
 11
1067.876100887542
 21
509.49002552737022
 31
0.0
  0
LINE
  5
9730
  8
0
  6
CONTINUOUS
 62
     7
 10
1173.340790887542
 20
816.02880552737054
 30
0.0
 11
1086.8020008875419
 21
811.49353552737057
 31
0.0
  0
LINE
  5
9731
  8
0
  6
CONTINUOUS
 62
     7
 10
1220.3407708875429
 20
672.52880552737054
 30
0.0
 11
1236.340790887542
 21
672.52880552737054
 31
0.0
  0
LINE
  5
9732
  8
0
  6
CONTINUOUS
 62
     7
 10
1220.3407708875429
 20
682.52880552737054
 30
0.0
 11
1236.340790887542
 21
682.52880552737054
 31
0.0
  0
LINE
  5
9733
  8
0
  6
CONTINUOUS
 62
     7
 10
1220.3407708875429
 20
672.52880552737054
 30
0.0
 11
1220.3407708875429
 21
682.52880552737054
 31
0.0
  0
LINE
  5
9734
  8
0
  6
CONTINUOUS
 62
     7
 10
1236.340790887542
 20
672.52880552737054
 30
0.0
 11
1236.340790887542
 21
682.52880552737054
 31
0.0
  0
LINE
  5
9735
  8
0
  6
CONTINUOUS
 62
     7
 10
1233.3408008875431
 20
819.02884552737032
 30
0.0
 11
1233.3408008875431
 21
816.02884552737021
 31
0.0
  0
LINE
  5
9736
  8
0
  6
CONTINUOUS
 62
     7
 10
1223.3408008875431
 20
819.02884552737032
 30
0.0
 11
1223.3408008875431
 21
816.02884552737021
 31
0.0
  0
ARC
  5
9737
  8
0
  6
CONTINUOUS
 62
     7
 10
1228.3408008875419
 20
651.02884552737055
 30
0.0
 40
75.0
 50
52.903206000003003
 51
127.0967899999965
  0
ARC
  5
9738
  8
0
  6
CONTINUOUS
 62
     7
 10
1228.3408008875419
 20
651.02884552737055
 30
0.0
 40
75.0
 50
142.90321000000219
 51
180.000010000001
  0
ARC
  5
9739
  8
0
  6
CONTINUOUS
 62
     7
 10
1310.0276908875419
 20
748.27206552737016
 30
0.0
 40
5.0
 50
314.9999999999954
 51
49.96885100000106
  0
ARC
  5
973A
  8
0
  6
CONTINUOUS
 62
     7
 10
1276.593860887542
 20
714.83822552737047
 30
0.0
 40
5.0
 50
232.90320999999309
 51
314.9999999999954
  0
ARC
  5
973B
  8
0
  6
CONTINUOUS
 62
     7
 10
1180.087710887542
 20
714.83822552737047
 30
0.0
 40
5.0
 50
225.0000000000046
 51
307.09678999999647
  0
ARC
  5
973C
  8
0
  6
CONTINUOUS
 62
     7
 10
1195.340790887542
 20
557.69964552737054
 30
0.0
 40
102.81999
 50
222.0151800000028
 51
235.00000000000259
  0
ARC
  5
973D
  8
0
  6
CONTINUOUS
 62
     7
 10
1166.493770887543
 20
468.02882552737032
 30
0.0
 40
12.82
 50
235.00000000000259
 51
270.0
  0
ARC
  5
973E
  8
0
  6
CONTINUOUS
 62
     7
 10
1290.1878008875419
 20
468.02882552737032
 30
0.0
 40
12.82
 50
270.0
 51
304.99999999999739
  0
ARC
  5
973F
  8
0
  6
CONTINUOUS
 62
     7
 10
1261.340790887542
 20
557.69964552737054
 30
0.0
 40
102.81999
 50
304.99999999999739
 51
317.98481999999723
  0
ARC
  5
9740
  8
0
  6
CONTINUOUS
 62
     7
 10
1292.1501908875421
 20
699.28189552737047
 30
0.0
 40
5.0
 50
134.9999999999954
 51
217.09680000000171
  0
CIRCLE
  5
9741
  8
0
  6
CONTINUOUS
 62
     7
 10
1228.3408008875419
 20
651.02884552737055
 30
0.0
 40
132.0
  0
ARC
  5
9742
  8
0
  6
CONTINUOUS
 62
     7
 10
1101.735140887542
 20
641.02884552737055
 30
0.0
 40
5.0
 50
184.5161599999995
 51
270.0
  0
ARC
  5
9743
  8
0
  6
CONTINUOUS
 62
     7
 10
1146.653900887542
 20
748.27206552737016
 30
0.0
 40
5.0
 50
130.03114999999781
 51
225.0000000000046
  0
ARC
  5
9744
  8
0
  6
CONTINUOUS
 62
     7
 10
1228.3408008875419
 20
651.02884552737055
 30
0.0
 40
60.0
 50
90.00000299999769
 51
270.0
  0
ARC
  5
9745
  8
0
  6
CONTINUOUS
 62
     7
 10
1164.5313708875419
 20
699.28189552737047
 30
0.0
 40
5.0
 50
322.90321000000222
 51
45.00000099999918
  0
ARC
  5
9746
  8
0
  6
CONTINUOUS
 62
     7
 10
1228.3408008875419
 20
651.02884552737055
 30
0.0
 40
60.0
 50
270.0
 51
90.00000299999769
  0
CIRCLE
  5
9747
  8
0
  6
CONTINUOUS
 62
     7
 10
1228.3408008875419
 20
651.02884552737055
 30
0.0
 40
140.0
  0
ARC
  5
9748
  8
0
  6
CONTINUOUS
 62
     7
 10
1131.097530887542
 20
732.7157255273703
 30
0.0
 40
5.0
 50
45.00000099999918
 51
139.96885000000219
  0
ARC
  5
9749
  8
0
  6
CONTINUOUS
 62
     7
 10
1325.5840308875429
 20
732.7157255273703
 30
0.0
 40
5.0
 50
40.031148000000073
 51
134.9999999999954
  0
ARC
  5
974A
  8
0
  6
CONTINUOUS
 62
     7
 10
1148.3408208875419
 20
641.02884552737055
 30
0.0
 40
5.0
 50
270.0
 51
0.0
  0
ARC
  5
974B
  8
0
  6
CONTINUOUS
 62
     7
 10
1308.3407908875431
 20
641.02884552737055
 30
0.0
 40
5.0
 50
179.999989999999
 51
270.0
  0
CIRCLE
  5
974C
  8
0
  6
CONTINUOUS
 62
     7
 10
1366.2266228875419
 20
788.91464552737034
 30
0.0
 40
9.5
  0
CIRCLE
  5
974D
  8
0
  6
CONTINUOUS
 62
     7
 10
1090.454990887542
 20
788.91464552737034
 30
0.0
 40
9.5
  0
ARC
  5
974E
  8
0
  6
CONTINUOUS
 62
     7
 10
1228.3408008875419
 20
651.02884552737055
 30
0.0
 40
195.0
 50
308.88015999999499
 51
320.46633000000111
  0
CIRCLE
  5
974F
  8
0
  6
CONTINUOUS
 62
     7
 10
1090.454990887542
 20
513.14302552737058
 30
0.0
 40
9.5
  0
ARC
  5
9750
  8
0
  6
CONTINUOUS
 62
     7
 10
1228.3408008875419
 20
651.02884552737055
 30
0.0
 40
195.0
 50
39.367218999997661
 51
50.896188999998408
  0
CIRCLE
  5
9751
  8
0
  6
CONTINUOUS
 62
     7
 10
1366.2266228875419
 20
513.14302552737058
 30
0.0
 40
9.5
  0
ARC
  5
9752
  8
0
  6
CONTINUOUS
 62
     7
 10
1228.3408008875419
 20
651.02884552737055
 30
0.0
 40
195.0
 50
128.2766199999964
 51
141.16334000000029
  0
ARC
  5
9753
  8
0
  6
CONTINUOUS
 62
     7
 10
1228.3408008875419
 20
651.02884552737055
 30
0.0
 40
195.0
 50
218.1653200000016
 51
231.41985999999619
  0
ARC
  5
9754
  8
0
  6
CONTINUOUS
 62
     7
 10
1368.8329008875421
 20
791.52093552737017
 30
0.0
 40
20.0
 50
3.0000000999988461
 51
86.999998999997004
  0
ARC
  5
9755
  8
0
  6
CONTINUOUS
 62
     7
 10
1087.848720887542
 20
791.52093552737017
 30
0.0
 40
20.0
 50
92.999998999995213
 51
176.99998999999991
  0
ARC
  5
9756
  8
0
  6
CONTINUOUS
 62
     7
 10
1368.8329008875421
 20
510.5367155273704
 30
0.0
 40
20.0
 50
273.0000000000054
 51
357.00000000000108
  0
ARC
  5
9757
  8
0
  6
CONTINUOUS
 62
     7
 10
1228.3408008875419
 20
651.02884552737055
 30
0.0
 40
75.0
 50
0.0
 51
37.096793000000808
  0
ARC
  5
9758
  8
0
  6
CONTINUOUS
 62
     7
 10
1087.848720887542
 20
510.5367155273704
 30
0.0
 40
20.0
 50
183.00001000000009
 51
266.9999999999946
  0
ARC
  5
9759
  8
0
  6
CONTINUOUS
 62
     7
 10
1354.9464868875421
 20
641.02884552737055
 30
0.0
 40
5.0
 50
270.0
 51
355.48384999999843
  0
CIRCLE
  5
975A
  8
0
  6
CONTINUOUS
 62
     7
 10
1228.3408008875419
 20
651.02884552737055
 30
0.0
 40
4.5
  0
CIRCLE
  5
975B
  8
0
  6
CONTINUOUS
 62
     7
 10
1228.3408008875419
 20
651.02884552737055
 30
0.0
 40
6.0
  0
ARC
  5
975C
  8
0
  6
CONTINUOUS
 62
     7
 10
1228.3408008875419
 20
651.02884552737055
 30
0.0
 40
27.5
 50
106.91239000000481
 51
73.087596999999832
  0
ARC
  5
975D
  8
0
  6
CONTINUOUS
 62
     7
 10
1228.3408008875419
 20
819.02884552737032
 30
0.0
 40
5.0
 50
359.999989999999
 51
179.999989999999
  0
TEXT
  5
9950
  8
0
  6
CONTINUOUS
 62
     0
 10
1027.070370489969
 20
1025.6356073034931
 30
0.0
 40
15.0
  1
VX15-240EMF~VX15-300EMF
  0
ENDSEC
  0
EOF
