  0
SECTION
  2
HEADER
  9
$ACADVER
  1
AC1009
  9
$INSBASE
 10
0.0
 20
0.0
 30
0.0
  9
$EXTMIN
 10
110.3297083251191
 20
376.55572106293522
 30
-0.0000000000000053
  9
$EXTMAX
 10
1039.4390903801309
 20
1008.405538608748
 30
0.0000000000000099
  9
$LIMMIN
 10
0.0000005999945643
 20
-0.0000005963913736
  9
$LIMMAX
 10
1422.5000005999941
 20
924.99999940360874
  9
$ORTHOMODE
 70
     1
  9
$REGENMODE
 70
     1
  9
$FILLMODE
 70
     1
  9
$QTEXTMODE
 70
     0
  9
$MIRRTEXT
 70
     0
  9
$DRAGMODE
 70
     2
  9
$LTSCALE
 40
1.0
  9
$OSMODE
 70
   551
  9
$ATTMODE
 70
     1
  9
$TEXTSIZE
 40
2.5
  9
$TRACEWID
 40
1.0
  9
$TEXTSTYLE
  7
STANDARD
  9
$CLAYER
  8
0
  9
$CELTYPE
  6
BYLAYER
  9
$CECOLOR
 62
   256
  9
$DIMSCALE
 40
1.0
  9
$DIMASZ
 40
2.0
  9
$DIMEXO
 40
1.0
  9
$DIMDLI
 40
8.0
  9
$DIMRND
 40
0.0
  9
$DIMDLE
 40
0.0
  9
$DIMEXE
 40
1.0
  9
$DIMTP
 40
-0.025
  9
$DIMTM
 40
0.043
  9
$DIMTXT
 40
2.5
  9
$DIMCEN
 40
0.0
  9
$DIMTSZ
 40
0.0
  9
$DIMTOL
 70
     0
  9
$DIMLIM
 70
     0
  9
$DIMTIH
 70
     0
  9
$DIMTOH
 70
     0
  9
$DIMSE1
 70
     0
  9
$DIMSE2
 70
     0
  9
$DIMTAD
 70
     3
  9
$DIMZIN
 70
     8
  9
$DIMBLK
  1

  9
$DIMASO
 70
     1
  9
$DIMSHO
 70
     1
  9
$DIMPOST
  1

  9
$DIMAPOST
  1
"
  9
$DIMALT
 70
     0
  9
$DIMALTD
 70
     2
  9
$DIMALTF
 40
0.0393701
  9
$DIMLFAC
 40
1.0
  9
$DIMTOFL
 70
     1
  9
$DIMTVP
 40
0.0
  9
$DIMTIX
 70
     0
  9
$DIMSOXD
 70
     0
  9
$DIMSAH
 70
     0
  9
$DIMBLK1
  1

  9
$DIMBLK2
  1

  9
$DIMSTYLE
  2
AM_JIS
  9
$DIMCLRD
 70
     2
  9
$DIMCLRE
 70
     2
  9
$DIMCLRT
 70
     4
  9
$DIMTFAC
 40
0.71
  9
$DIMGAP
 40
1.5
  9
$LUNITS
 70
     2
  9
$LUPREC
 70
     2
  9
$SKETCHINC
 40
1.0
  9
$FILLETRAD
 40
0.0
  9
$AUNITS
 70
     0
  9
$AUPREC
 70
     0
  9
$MENU
  1
.
  9
$ELEVATION
 40
0.0
  9
$PELEVATION
 40
0.0
  9
$THICKNESS
 40
0.0
  9
$LIMCHECK
 70
     0
  9
$BLIPMODE
 70
     0
  9
$CHAMFERA
 40
2.5
  9
$CHAMFERB
 40
2.5
  9
$SKPOLY
 70
     0
  9
$TDCREATE
 40
2456829.3841110538
  9
$TDUPDATE
 40
2458540.6638709842
  9
$TDINDWG
 40
0.6024918866
  9
$TDUSRTIMER
 40
0.6024912963
  9
$USRTIMER
 70
     1
  9
$ANGBASE
 50
0.0
  9
$ANGDIR
 70
     0
  9
$PDMODE
 70
     0
  9
$PDSIZE
 40
0.0
  9
$PLINEWID
 40
0.0
  9
$COORDS
 70
     1
  9
$SPLFRAME
 70
     0
  9
$SPLINETYPE
 70
     6
  9
$SPLINESEGS
 70
     8
  9
$ATTDIA
 70
     1
  9
$ATTREQ
 70
     1
  9
$HANDLING
 70
     1
  9
$HANDSEED
  5
A752
  9
$SURFTAB1
 70
     6
  9
$SURFTAB2
 70
     6
  9
$SURFTYPE
 70
     6
  9
$SURFU
 70
     6
  9
$SURFV
 70
     6
  9
$UCSNAME
  2

  9
$UCSORG
 10
0.0
 20
0.0
 30
0.0
  9
$UCSXDIR
 10
1.0
 20
0.0
 30
0.0
  9
$UCSYDIR
 10
0.0
 20
1.0
 30
0.0
  9
$PUCSNAME
  2

  9
$PUCSORG
 10
0.0
 20
0.0
 30
0.0
  9
$PUCSXDIR
 10
1.0
 20
0.0
 30
0.0
  9
$PUCSYDIR
 10
0.0
 20
1.0
 30
0.0
  9
$USERI1
 70
     0
  9
$USERI2
 70
     0
  9
$USERI3
 70
     0
  9
$USERI4
 70
     0
  9
$USERI5
 70
     0
  9
$USERR1
 40
0.0
  9
$USERR2
 40
0.0
  9
$USERR3
 40
0.0
  9
$USERR4
 40
0.0
  9
$USERR5
 40
0.0
  9
$WORLDVIEW
 70
     1
  9
$SHADEDGE
 70
     3
  9
$SHADEDIF
 70
    70
  9
$TILEMODE
 70
     1
  9
$MAXACTVP
 70
    64
  9
$PLIMCHECK
 70
     0
  9
$PEXTMIN
 10
1.0000000000000000E+020
 20
1.0000000000000000E+020
 30
1.0000000000000000E+020
  9
$PEXTMAX
 10
-1.0000000000000000E+020
 20
-1.0000000000000000E+020
 30
-1.0000000000000000E+020
  9
$PLIMMIN
 10
0.0
 20
0.0
  9
$PLIMMAX
 10
420.0
 20
297.0
  9
$UNITMODE
 70
     0
  9
$VISRETAIN
 70
     1
  9
$PLINEGEN
 70
     0
  9
$PSLTSCALE
 70
     1
  0
ENDSEC
  0
SECTION
  2
TABLES
  0
TABLE
  2
VPORT
 70
     1
  0
VPORT
  2
*ACTIVE
 70
     0
 10
0.0
 20
0.0
 11
1.0
 21
1.0
 12
574.88439935262488
 22
692.48062983584191
 13
0.0
 23
0.0
 14
12.5
 24
12.5
 15
50.0
 25
50.0
 16
0.0
 26
0.0
 36
1.0
 17
0.0
 27
0.0
 37
0.0
 40
636.18745931386252
 41
1.757159221076747
 42
50.0
 43
0.0
 44
0.0
 50
0.0
 51
0.0
 71
     0
 72
  1000
 73
     1
 74
     3
 75
     0
 76
     0
 77
     0
 78
     0
  0
ENDTAB
  0
TABLE
  2
LTYPE
 70
    24
  0
LTYPE
  2
CONTINUOUS
 70
     0
  3
Solid line
 72
    65
 73
     0
 40
0.0
  0
LTYPE
  2
CENTER
 70
     0
  3
Center ____ _ ____ _ ____ _ ____ _ ____ _ ____
 72
    65
 73
     4
 40
50.799999999999997
 49
31.75
 49
-6.3499999999999979
 49
6.3499999999999979
 49
-6.3499999999999979
  0
LTYPE
  2
AM_ISO02W050
 70
     0
  3
__ __ __ __ __ __ __ __ __ __ __ __ __ __ __
 72
    65
 73
     2
 40
7.5
 49
6.0
 49
-1.5
  0
LTYPE
  2
AM_ISO08W050
 70
     0
  3
____ . ____ . ____ . ____ . ____ . ____ . ____
 72
    65
 73
     4
 40
18.0
 49
12.0
 49
-1.5
 49
3.0
 49
-1.5
  0
LTYPE
  2
AM_ISO09W050
 70
     0
  3
_____ . . _____ . . _____ . . ____ .. ____
 72
    65
 73
     6
 40
22.5
 49
12.0
 49
-1.5
 49
3.0
 49
-1.5
 49
3.0
 49
-1.5
  0
LTYPE
  2
AMCONSTR
 70
     0
  3
_______________________
 72
    65
 73
     2
 40
9999.0
 49
9999.0
 49
0.0
  0
LTYPE
  2
AM_ISO08W050X2
 70
     0
  3
__ . __ . __ . __ . __ . __
 72
    65
 73
     4
 40
9.0
 49
6.0
 49
-0.75
 49
1.5
 49
-0.75
  0
LTYPE
  2
AM_ISO02W050X2
 70
     0
  3
 _ _ _ _ _ _ _ _ _ _ _ _
 72
    65
 73
     2
 40
3.75
 49
3.0
 49
-0.75
  0
LTYPE
  2
AMZIGZAG
 70
     0
  3
/\/-/\/-/\/-/\/-/\/-/\/
 72
    65
 73
     2
 40
11.0001
 49
0.0001
 49
-11.0
  0
LTYPE
  2
ACANSTGBM
 70
     0
  3
__ . . __ . .
 72
    65
 73
     6
 40
9.0
 49
4.0
 49
-1.0
 49
1.0
 49
-1.0
 49
1.0
 49
-1.0
  0
LTYPE
  2
ACANSTGLM
 70
     0
  3
_ _ _ _ _
 72
    65
 73
     2
 40
3.0
 49
2.0
 49
-1.0
  0
LTYPE
  2
ACISOWELD
 70
     0
  3
_ _ _ _ _
 72
    65
 73
     2
 40
2.0
 49
2.0
 49
-1.0
  0
LTYPE
  2
ACISOTGB
 70
     0
  3
__ . . __ . .
 72
    65
 73
     6
 40
9.0
 49
4.0
 49
-1.0
 49
1.0
 49
-1.0
 49
1.0
 49
-1.0
  0
LTYPE
  2
ACISOTGL
 70
     0
  3
_ _ _ _ _
 72
    65
 73
     2
 40
3.0
 49
2.0
 49
-1.0
  0
LTYPE
  2
ACJISTGB
 70
     0
  3
__ . . __ . .
 72
    65
 73
     6
 40
9.0
 49
4.0
 49
-1.0
 49
1.0
 49
-1.0
 49
1.0
 49
-1.0
  0
LTYPE
  2
ACJISTGL
 70
     0
  3
_ _ _ _ _
 72
    65
 73
     2
 40
3.0
 49
2.0
 49
-1.0
  0
LTYPE
  2
HIDDEN
 70
     0
  3
Hidden __ __ __ __ __ __ __ __ __ __ __ __ __ _
 72
    65
 73
     2
 40
9.5249999999999968
 49
6.3499999999999979
 49
-3.174999999999998
  0
LTYPE
  2
PHANTOM2
 70
     0
  3
Phantom (.5x) ___ _ _ ___ _ _ ___ _ _ ___ _ _
 72
    65
 73
     6
 40
31.75
 49
15.875
 49
-3.174999999999998
 49
3.174999999999998
 49
-3.174999999999998
 49
3.174999999999998
 49
-3.174999999999998
  0
LTYPE
  2
CENTER2
 70
     0
  3
Center (.5x) ___ _ ___ _ ___ _ ___ _ ___ _ ___
 72
    65
 73
     4
 40
1.125
 49
0.75
 49
-0.125
 49
0.125
 49
-0.125
  0
LTYPE
  2
HIDDEN2
 70
     0
  3
Hidden (.5x) _ _ _ _ _ _ _ _ _ _ _ _ _ _ _ _ _
 72
    65
 73
     2
 40
0.1875
 49
0.125
 49
-0.0625
  0
LTYPE
  2
AMZIGZAG2
 70
     0
  3
/\/-/\/-/\/-/\/-/\/-/\/
 72
    65
 73
     2
 40
0.4401
 49
0.0001
 49
-0.4400000000000003
  0
LTYPE
  2
ACANSTGB
 70
     0
  3
__ . . __ . .
 72
    65
 73
     6
 40
0.35433070866
 49
0.15748031496
 49
-0.03937007874
 49
0.03937007874
 49
-0.03937007874
 49
0.03937007874
 49
-0.03937007874
  0
LTYPE
  2
ACANSTGL
 70
     0
  3
_ _ _ _ _
 72
    65
 73
     2
 40
0.11811023622
 49
0.07874015748
 49
-0.03937007874
  0
ENDTAB
  0
TABLE
  2
LAYER
 70
     5
  0
LAYER
  2
0
 70
     0
 62
     7
  6
CONTINUOUS
  0
LAYER
  2
DEFPOINTS
 70
     0
 62
     7
  6
CONTINUOUS
  0
LAYER
  2
AM_0
 70
     0
 62
     7
  6
CONTINUOUS
  0
LAYER
  2
AM_5
 70
     0
 62
     2
  6
CONTINUOUS
  0
LAYER
  2
AM_CL
 70
     0
 62
     1
  6
AMCONSTR
  0
ENDTAB
  0
TABLE
  2
STYLE
 70
     8
  0
STYLE
  2
STANDARD
 70
     0
 40
0.0
 41
0.7400000000000003
 50
0.0
 71
     0
 42
2.5
  3
txt.shx
  4
bigfont.shx
  0
STYLE
  2

 70
     1
 40
0.0
 41
1.0
 50
0.0
 71
     0
 42
2.5
  3
ltypeshp.shx
  4

  0
STYLE
  2
ACANSTS
 70
     0
 40
1.0
 41
1.0
 50
0.0
 71
     0
 42
2.5
  3
romans.shx
  4
bigfont.shx
  0
STYLE
  2
ACANSGDT
 70
     0
 40
0.0
 41
1.0
 50
0.0
 71
     0
 42
2.5
  3
amgdtans.shx
  4

  0
STYLE
  2
ACISOTS
 70
     0
 40
1.0
 41
1.0
 50
0.0
 71
     0
 42
2.5
  3
isocp.shx
  4
extfont.shx
  0
STYLE
  2
ACISOGDT
 70
     0
 40
0.0
 41
1.0
 50
0.0
 71
     0
 42
2.5
  3
amgdt.shx
  4

  0
STYLE
  2
ACJISGDT
 70
     0
 40
0.0
 41
1.0
 50
0.0
 71
     0
 42
2.5
  3
amgdt.shx
  4

  0
STYLE
  2
ACJISTS
 70
     0
 40
1.0
 41
1.0
 50
0.0
 71
     0
 42
2.5
  3
isocp.shx
  4
extfont.shx
  0
ENDTAB
  0
TABLE
  2
VIEW
 70
     6
  0
VIEW
  2
AM_VIEW1
 70
     0
 40
462.5
 10
488.83452017294832
 20
693.74999940360874
 41
977.66903914590773
 11
0.0
 21
0.0
 31
1.0
 12
0.0
 22
0.0
 32
0.0
 42
50.0
 43
0.0
 44
0.0
 50
0.0
 71
     0
  0
VIEW
  2
AM_VIEW2
 70
     0
 40
462.5
 10
933.66548102704076
 20
693.74999940360874
 41
977.66903914590773
 11
0.0
 21
0.0
 31
1.0
 12
0.0
 22
0.0
 32
0.0
 42
50.0
 43
0.0
 44
0.0
 50
0.0
 71
     0
  0
VIEW
  2
AM_VIEW3
 70
     0
 40
462.5
 10
488.83452017294832
 20
231.24999940360871
 41
977.66903914590773
 11
0.0
 21
0.0
 31
1.0
 12
0.0
 22
0.0
 32
0.0
 42
50.0
 43
0.0
 44
0.0
 50
0.0
 71
     0
  0
VIEW
  2
AM_VIEW4
 70
     0
 40
462.5
 10
933.66548102704076
 20
231.24999940360871
 41
977.66903914590773
 11
0.0
 21
0.0
 31
1.0
 12
0.0
 22
0.0
 32
0.0
 42
50.0
 43
0.0
 44
0.0
 50
0.0
 71
     0
  0
VIEW
  2
AM_VIEW5
 70
     0
 40
462.5
 10
711.25000059999468
 20
462.49999940360868
 41
977.66903914590773
 11
0.0
 21
0.0
 31
1.0
 12
0.0
 22
0.0
 32
0.0
 42
50.0
 43
0.0
 44
0.0
 50
0.0
 71
     0
  0
VIEW
  2
AM_VIEW6
 70
     0
 40
924.99075000000016
 10
711.25000059999468
 20
462.49999940360868
 41
1955.318524911032
 11
0.0
 21
0.0
 31
1.0
 12
0.0
 22
0.0
 32
0.0
 42
50.0
 43
0.0
 44
0.0
 50
0.0
 71
     0
  0
ENDTAB
  0
TABLE
  2
UCS
 70
     0
  0
ENDTAB
  0
TABLE
  2
APPID
 70
   158
  0
APPID
  2
ACAD
 70
     0
  0
APPID
  2
ACADANNOTATIVE
 70
     0
  0
APPID
  2
ACAD_MLEADERVER
 70
     0
  0
APPID
  2
MCAD_NO_VIS
 70
     0
  0
APPID
  2
ACAD_TEMP_GRAPHIC
 70
     0
  0
APPID
  2
AD_DRAW
 70
     0
  0
APPID
  2
ACATTRIBSERVICES
 70
     0
  0
APPID
  2
DESIGNERASSEMBLIES
 70
     0
  0
APPID
  2
ACADM_DIM_EDIT
 70
     0
  0
APPID
  2
AMDT_DM_ADJ
 70
     0
  0
APPID
  2
GENIUS_GENDIMSH_14
 70
     0
  0
APPID
  2
GEVID1057795304
 70
     0
  0
APPID
  2
GEVDC
 70
     0
  0
APPID
  2
GEVCON
 70
     0
  0
APPID
  2
GENIUS_GENBH_13
 70
     0
  0
APPID
  2
GENIUS_GENOENT_13
 70
     0
  0
APPID
  2
GENIUS_GENOBJ-NBEHI-BHF_13
 70
     0
  0
APPID
  2
GENIUS_GENOLIS_13
 70
     0
  0
APPID
  2
GENIUS_GENODEF_13
 70
     0
  0
APPID
  2
GENIUS_GENOREF_13
 70
     0
  0
APPID
  2
GENIUS_GENOBJ-NBEHI-BHB_13
 70
     0
  0
APPID
  2
GENIUS_GENOBJ-F-SCPASSM_13
 70
     0
  0
APPID
  2
GENIUS_GENDTOL_13
 70
     0
  0
APPID
  2
GENIUS_GENTRA_14
 70
     0
  0
APPID
  2
ASURF_PCURVE_APPNAME
 70
     0
  0
APPID
  2
GENIUS_GENCFG_13
 70
     0
  0
APPID
  2
GENIUS_GE3CFG0_13
 70
     0
  0
APPID
  2
GENIUS_GENCFG0_13
 70
     0
  0
APPID
  2
GENIUS_GENCFG1_13
 70
     0
  0
APPID
  2
GENIUS_GENCFG2_13
 70
     0
  0
APPID
  2
GENIUS_GENCFG3_13
 70
     0
  0
APPID
  2
GENIUS_GENCFG4_13
 70
     0
  0
APPID
  2
GENIUS_GEVCFG0_13
 70
     0
  0
APPID
  2
GENIUS_GENOBJ-N-TIT_13
 70
     0
  0
APPID
  2
GENIUS_GENTITLE_13
 70
     0
  0
APPID
  2
GENIUS_GENSCREG_15
 70
     0
  0
APPID
  2
GENIUS_GENOBJ-N-SDF_13
 70
     0
  0
APPID
  2
GENIUS_GENFIL_13
 70
     0
  0
APPID
  2
GENIUS_GENOBJ-N-CHA_13
 70
     0
  0
APPID
  2
GENIUS_GEFSH_13
 70
     0
  0
APPID
  2
GENIUS_GENOBJ-F-SHS_13
 70
     0
  0
APPID
  2
GENIUS_GENOBJ-N-CEN_13
 70
     0
  0
APPID
  2
GENIUS_GENREC_14
 70
     0
  0
APPID
  2
GENIUS_GENOBJ-N-REC_13
 70
     0
  0
APPID
  2
GENIUS_GENOBJ-N-HTC_13
 70
     0
  0
APPID
  2
GENIUS_GENHATCH_13
 70
     0
  0
APPID
  2
ACAD_PSEXT
 70
     0
  0
APPID
  2
ACAD_EXEMPT_FROM_CAD_STANDARDS
 70
     0
  0
APPID
  2
ACAECLAYERSTANDARD
 70
     0
  0
APPID
  2
GENIUS_GENCEN_19
 70
     0
  0
APPID
  2
ACAD_DSTYLE_DIMINSPECT
 70
     0
  0
APPID
  2
ACAD_DSTYLE_DIMANGULAR_EXT
 70
     0
  0
APPID
  2
ACADANNOPO
 70
     0
  0
APPID
  2
ACAD_NAV_VCDISPLAY
 70
     0
  0
APPID
  2
GENIUS_GENOBJ-N-FIL_13
 70
     0
  0
APPID
  2
ACAD_DSTYLE_DIMBREAK
 70
     0
  0
APPID
  2
ACAD_DSTYLE_DIMJAG
 70
     0
  0
APPID
  2
ACAD_DSTYLE_DIMRADIAL_EXTENSION
 70
     0
  0
APPID
  2
GENIUS_GENHINW_13
 70
     0
  0
APPID
  2
GENIUS_FIRSTVISTXT_14
 70
     0
  0
APPID
  2
GENIUS_GENOBJ-N-LEADER_13
 70
     0
  0
APPID
  2
DCO15
 70
     0
  0
APPID
  2
GENIUS_DUMCFG0_13
 70
     0
  0
APPID
  2
ACAD_DSTYLE_DIMTEXT_FILL
 70
     0
  0
APPID
  2
AMG_2DHIDE
 70
     0
  0
APPID
  2
GENIUS_GEFSHEP_13
 70
     0
  0
APPID
  2
GENIUS_GENOBJ-F-SHE_13
 70
     0
  0
APPID
  2
GENIUS_GEFSHE_13
 70
     0
  0
APPID
  2
ACAD_DIMASSOC_DIMLFAC
 70
     0
  0
APPID
  2
ACAD_DIMASSOC_CALC_DIMLFAC
 70
     0
  0
APPID
  2
ACAD_DIMASSOC_OVERRIDDEN_D
 70
     0
  0
APPID
  2
GENIUS_GENOBJ-F-SHSV_13
 70
     0
  0
APPID
  2
GENIUS_GEFWELD_13
 70
     0
  0
APPID
  2
GENIUS_GENOBJ-N-CRS_13
 70
     0
  0
APPID
  2
GENIUS_GENOBJ-N-RSBK_13
 70
     0
  0
APPID
  2
GENIUS_GENOBJ-N-LIB_13
 70
     0
  0
APPID
  2
GENIUS_GENSCALE_13
 70
     0
  0
APPID
  2
GENIUS_GENDREL_13
 70
     0
  0
APPID
  2
GEVPT
 70
     0
  0
APPID
  2
GEVIT
 70
     0
  0
APPID
  2
VCC
 70
     0
  0
APPID
  2
GENBH
 70
     0
  0
APPID
  2
GEVMK
 70
     0
  0
APPID
  2
GENIUS_GENOBJ-F-DESC_13
 70
     0
  0
APPID
  2
GENIUS_GEFDESC_14
 70
     0
  0
APPID
  2
GENIUS_GENOBJ-F-FEAT_13
 70
     0
  0
APPID
  2
GENIUS_GEFFEAT_14
 70
     0
  0
APPID
  2
GENIUS_GEFPARTINS_13
 70
     0
  0
APPID
  2
GENIUS_GENSCREG_13
 70
     0
  0
APPID
  2
GENIUS_GEFSHP_13
 70
     0
  0
APPID
  2
GEVID1025574798
 70
     0
  0
APPID
  2
GEVID1025574769
 70
     0
  0
APPID
  2
GEVID1025757451
 70
     0
  0
APPID
  2
GEVID1240528327
 70
     0
  0
APPID
  2
AMG_2DSTRUCT_BTR
 70
     0
  0
APPID
  2
ACADM_2DVIEW_IGN_NOTIFY
 70
     0
  0
APPID
  2
GEVID1240528328
 70
     0
  0
APPID
  2
GEVID1240528329
 70
     0
  0
APPID
  2
GEVRADREF
 70
     0
  0
APPID
  2
GEVID1240528330
 70
     0
  0
APPID
  2
GEVID1240528331
 70
     0
  0
APPID
  2
GEVID1240528332
 70
     0
  0
APPID
  2
GEVID1240791080
 70
     0
  0
APPID
  2
GEVID1240791081
 70
     0
  0
APPID
  2
GEVID1240791082
 70
     0
  0
APPID
  2
GEVID1240791083
 70
     0
  0
APPID
  2
GEVID1240791084
 70
     0
  0
APPID
  2
GEVID1240791085
 70
     0
  0
APPID
  2
GEVID1240791086
 70
     0
  0
APPID
  2
GEVID1240791087
 70
     0
  0
APPID
  2
GEVID1240791088
 70
     0
  0
APPID
  2
GEVID1240791089
 70
     0
  0
APPID
  2
GEVID1240791090
 70
     0
  0
APPID
  2
GEVID1240791091
 70
     0
  0
APPID
  2
GEVID1240791092
 70
     0
  0
APPID
  2
GEVID1240791093
 70
     0
  0
APPID
  2
GEVID1240791094
 70
     0
  0
APPID
  2
GEVID1240791095
 70
     0
  0
APPID
  2
GEVID1240791096
 70
     0
  0
APPID
  2
GEVID1240791097
 70
     0
  0
APPID
  2
GEVID1240791098
 70
     0
  0
APPID
  2
GEVID1240791099
 70
     0
  0
APPID
  2
GEVID1240791100
 70
     0
  0
APPID
  2
GEVID1240791101
 70
     0
  0
APPID
  2
GEVID1240791102
 70
     0
  0
APPID
  2
GEVID1240791103
 70
     0
  0
APPID
  2
GEVID1240791104
 70
     0
  0
APPID
  2
GEVID1240791105
 70
     0
  0
APPID
  2
GEVID1240875381
 70
     0
  0
APPID
  2
GEVID1240875382
 70
     0
  0
APPID
  2
GEVID1240875383
 70
     0
  0
APPID
  2
GEVID1240875384
 70
     0
  0
APPID
  2
GEVID1240875385
 70
     0
  0
APPID
  2
GEVID1240875386
 70
     0
  0
APPID
  2
GEVID1240875387
 70
     0
  0
APPID
  2
GEVID1240875388
 70
     0
  0
APPID
  2
GEVID1240875389
 70
     0
  0
APPID
  2
GEVID1240875390
 70
     0
  0
APPID
  2
GEVID1240875391
 70
     0
  0
APPID
  2
GEVID1240875392
 70
     0
  0
APPID
  2
GEVID1240875393
 70
     0
  0
APPID
  2
GEVID1240875394
 70
     0
  0
APPID
  2
GEVID1240875395
 70
     0
  0
APPID
  2
GEVID1240875396
 70
     0
  0
APPID
  2
GEVID1240875397
 70
     0
  0
APPID
  2
GEVID1240875398
 70
     0
  0
APPID
  2
GEVID1240875399
 70
     0
  0
APPID
  2
GEVID1240908996
 70
     0
  0
APPID
  2
GEVID1240908997
 70
     0
  0
APPID
  2
GEVID1240908998
 70
     0
  0
APPID
  2
GEVID1240908999
 70
     0
  0
APPID
  2
GEVID1240909000
 70
     0
  0
APPID
  2
GENIUS_GENOBJ-N-ZOO_13
 70
     0
  0
APPID
  2
GENIUS_GENZOO_17
 70
     0
  0
APPID
  2
GENIUS_GE3SECT_13
 70
     0
  0
APPID
  2
GEV_VCCNULL_SWITCH_OFF
 70
     0
  0
APPID
  2
ACAD_DSTYLE_DIMTALN
 70
     0
  0
APPID
  2
CONTENTBLOCKDESCRIPTION
 70
     0
  0
ENDTAB
  0
TABLE
  2
DIMSTYLE
 70
    22
  0
DIMSTYLE
  2
AM_ANSI
 70
     0
  3

  4
"
  5

  6

  7

 40
1.0
 41
2.5
 42
1.0
 43
10.0
 44
1.0
 45
0.0
 46
0.0
 47
0.1
 48
0.1
140
3.5
141
0.0
142
0.0
143
0.0393701
144
1.0
145
0.0
146
0.71
147
1.5
 71
     0
 72
     0
 73
     1
 74
     1
 75
     0
 76
     0
 77
     0
 78
     8
170
     0
171
     2
172
     0
173
     0
174
     0
175
     0
176
     2
177
     2
178
     4
  0
DIMSTYLE
  2
AM_ANSI$3
 70
     0
  3

  4
"
  5

  6

  7

 40
1.0
 41
2.5
 42
1.0
 43
10.0
 44
1.0
 45
0.0
 46
0.0
 47
0.1
 48
0.1
140
3.5
141
0.0
142
0.0
143
0.0393701
144
1.0
145
0.0
146
0.71
147
1.5
 71
     0
 72
     0
 73
     1
 74
     1
 75
     0
 76
     0
 77
     0
 78
     8
170
     0
171
     2
172
     0
173
     0
174
     0
175
     0
176
     2
177
     2
178
     4
  0
DIMSTYLE
  2
AM_ANSI$4
 70
     0
  3

  4
"
  5

  6

  7

 40
1.0
 41
2.5
 42
1.0
 43
10.0
 44
1.0
 45
0.0
 46
0.0
 47
0.1
 48
0.1
140
3.5
141
0.0
142
0.0
143
0.0393701
144
1.0
145
0.0
146
0.71
147
1.5
 71
     0
 72
     0
 73
     1
 74
     1
 75
     0
 76
     0
 77
     0
 78
     8
170
     0
171
     2
172
     0
173
     0
174
     0
175
     0
176
     2
177
     2
178
     4
  0
DIMSTYLE
  2
AM_ANSI$7
 70
     0
  3

  4
"
  5

  6

  7

 40
1.0
 41
2.5
 42
1.0
 43
10.0
 44
1.0
 45
0.0
 46
0.0
 47
0.1
 48
0.1
140
5.0
141
0.0
142
0.0
143
0.0393701
144
1.0
145
0.0
146
0.71
147
1.5
 71
     0
 72
     0
 73
     1
 74
     1
 75
     0
 76
     0
 77
     0
 78
     8
170
     0
171
     2
172
     0
173
     0
174
     0
175
     0
176
     2
177
     2
178
     4
  0
DIMSTYLE
  2
AM_ANSI$SF
 70
     0
  3

  4
"
  5

  6

  7

 40
1.0
 41
2.5
 42
1.0
 43
10.0
 44
1.0
 45
0.0
 46
0.0
 47
0.1
 48
0.1
140
3.5
141
0.0
142
0.0
143
0.0393701
144
1.0
145
0.0
146
0.71
147
1.5
 71
     0
 72
     0
 73
     1
 74
     1
 75
     1
 76
     1
 77
     0
 78
     8
170
     0
171
     2
172
     0
173
     0
174
     0
175
     0
176
     2
177
     2
178
     4
  0
DIMSTYLE
  2
AM_ANSI$SH
 70
     0
  3

  4
"
  5

  6
GENAXEH
  7

 40
1.0
 41
2.5
 42
1.0
 43
10.0
 44
1.0
 45
0.0
 46
0.0
 47
0.1
 48
0.1
140
3.5
141
0.0
142
0.0
143
0.0393701
144
1.0
145
0.0
146
0.71
147
1.5
 71
     0
 72
     0
 73
     1
 74
     1
 75
     1
 76
     1
 77
     0
 78
     8
170
     0
171
     2
172
     0
173
     1
174
     0
175
     0
176
     2
177
     2
178
     4
  0
DIMSTYLE
  2
AM_ISO
 70
     0
  3

  4
"
  5

  6

  7

 40
1.0
 41
2.5
 42
1.0
 43
10.0
 44
1.0
 45
0.0
 46
0.0
 47
0.1
 48
0.1
140
3.5
141
0.0
142
0.0
143
0.0393701
144
1.0
145
0.0
146
0.71
147
1.5
 71
     0
 72
     0
 73
     0
 74
     0
 75
     0
 76
     0
 77
     1
 78
     8
170
     0
171
     2
172
     1
173
     0
174
     0
175
     0
176
   256
177
   256
178
     2
  0
DIMSTYLE
  2
AM_ISO$3
 70
     0
  3

  4
"
  5

  6

  7

 40
1.0
 41
2.5
 42
1.0
 43
10.0
 44
1.0
 45
0.0
 46
0.0
 47
0.1
 48
0.1
140
3.5
141
0.0
142
0.0
143
0.0393701
144
1.0
145
0.0
146
0.71
147
1.5
 71
     0
 72
     0
 73
     0
 74
     1
 75
     0
 76
     0
 77
     1
 78
     8
170
     0
171
     2
172
     0
173
     0
174
     0
175
     0
176
   256
177
   256
178
     2
  0
DIMSTYLE
  2
AM_ISO$4
 70
     0
  3

  4
"
  5

  6

  7

 40
1.0
 41
2.5
 42
1.0
 43
10.0
 44
1.0
 45
0.0
 46
0.0
 47
0.1
 48
0.1
140
3.5
141
0.0
142
0.0
143
0.0393701
144
1.0
145
0.0
146
0.71
147
1.5
 71
     0
 72
     0
 73
     0
 74
     1
 75
     0
 76
     0
 77
     1
 78
     8
170
     0
171
     2
172
     0
173
     0
174
     0
175
     0
176
   256
177
   256
178
     2
  0
DIMSTYLE
  2
AM_ISO$6
 70
     0
  3

  4
"
  5

  6

  7

 40
1.0
 41
2.5
 42
1.0
 43
10.0
 44
1.0
 45
0.0
 46
0.0
 47
0.1
 48
0.1
140
3.5
141
0.0
142
0.0
143
0.0393701
144
1.0
145
0.0
146
0.71
147
1.5
 71
     0
 72
     0
 73
     0
 74
     0
 75
     0
 76
     0
 77
     0
 78
     8
170
     0
171
     2
172
     1
173
     0
174
     0
175
     0
176
   256
177
   256
178
     2
  0
DIMSTYLE
  2
AM_ISO$7
 70
     0
  3

  4
"
  5

  6

  7

 40
1.0
 41
2.5
 42
1.0
 43
10.0
 44
1.0
 45
0.0
 46
0.0
 47
0.1
 48
0.1
140
5.0
141
0.0
142
0.0
143
0.0393701
144
1.0
145
0.0
146
0.71
147
1.5
 71
     0
 72
     0
 73
     0
 74
     0
 75
     0
 76
     0
 77
     1
 78
     8
170
     0
171
     2
172
     1
173
     0
174
     0
175
     0
176
   256
177
   256
178
     2
  0
DIMSTYLE
  2
AM_ISO$SF
 70
     0
  3

  4
"
  5

  6

  7

 40
1.0
 41
2.5
 42
1.0
 43
10.0
 44
1.0
 45
0.0
 46
0.0
 47
0.1
 48
0.1
140
3.5
141
0.0
142
0.0
143
0.0393701
144
1.0
145
0.0
146
0.71
147
1.5
 71
     0
 72
     0
 73
     0
 74
     0
 75
     1
 76
     1
 77
     1
 78
     8
170
     0
171
     2
172
     1
173
     0
174
     0
175
     0
176
   256
177
   256
178
     2
  0
DIMSTYLE
  2
AM_ISO$SH
 70
     0
  3

  4
"
  5

  6
GENAXEH
  7

 40
1.0
 41
2.5
 42
1.0
 43
10.0
 44
1.0
 45
0.0
 46
0.0
 47
0.1
 48
0.1
140
3.5
141
0.0
142
0.0
143
0.0393701
144
2.0
145
0.0
146
0.71
147
1.5
 71
     0
 72
     0
 73
     0
 74
     0
 75
     1
 76
     1
 77
     1
 78
     8
170
     0
171
     2
172
     1
173
     1
174
     0
175
     0
176
   256
177
   256
178
     2
  0
DIMSTYLE
  2
AM_JIS
 70
     0
  3

  4
"
  5

  6

  7

 40
1.0
 41
2.0
 42
1.0
 43
8.0
 44
1.0
 45
0.0
 46
0.0
 47
0.1
 48
0.1
140
2.5
141
0.0
142
0.0
143
0.0393701
144
1.0
145
0.0
146
0.71
147
1.5
 71
     0
 72
     0
 73
     0
 74
     0
 75
     0
 76
     0
 77
     3
 78
     8
170
     0
171
     2
172
     1
173
     0
174
     0
175
     0
176
     2
177
     2
178
     4
  0
DIMSTYLE
  2
AM_JIS$3
 70
     0
  3

  4
"
  5

  6

  7

 40
1.0
 41
2.0
 42
1.0
 43
10.0
 44
1.0
 45
0.0
 46
0.0
 47
0.1
 48
0.1
140
2.5
141
0.0
142
0.0
143
0.0393701
144
1.0
145
0.0
146
0.71
147
1.5
 71
     0
 72
     0
 73
     0
 74
     1
 75
     0
 76
     0
 77
     3
 78
     8
170
     0
171
     2
172
     0
173
     0
174
     0
175
     0
176
     2
177
     2
178
     4
  0
DIMSTYLE
  2
AM_JIS$4
 70
     0
  3

  4
"
  5

  6

  7

 40
1.0
 41
2.0
 42
1.0
 43
10.0
 44
1.0
 45
0.0
 46
0.0
 47
0.1
 48
0.1
140
2.5
141
0.0
142
0.0
143
0.0393701
144
1.0
145
0.0
146
0.71
147
1.5
 71
     0
 72
     0
 73
     0
 74
     0
 75
     0
 76
     0
 77
     3
 78
     8
170
     0
171
     2
172
     0
173
     0
174
     0
175
     0
176
     2
177
     2
178
     4
  0
DIMSTYLE
  2
AM_JIS$6
 70
     0
  3

  4
"
  5

  6

  7

 40
1.0
 41
2.0
 42
1.0
 43
10.0
 44
1.0
 45
0.0
 46
0.0
 47
0.1
 48
0.1
140
2.5
141
0.0
142
0.0
143
0.0393701
144
1.0
145
0.0
146
0.71
147
1.5
 71
     0
 72
     0
 73
     0
 74
     0
 75
     0
 76
     0
 77
     0
 78
     8
170
     0
171
     2
172
     1
173
     0
174
     0
175
     0
176
     2
177
     2
178
     4
  0
DIMSTYLE
  2
AM_JIS$7
 70
     0
  3

  4
"
  5

  6
OPEN30
  7
OPEN30
 40
1.0
 41
2.0
 42
1.0
 43
10.0
 44
1.0
 45
0.0
 46
0.0
 47
0.1
 48
0.1
140
2.5
141
0.0
142
0.0
143
0.0393701
144
1.0
145
0.0
146
0.71
147
1.5
 71
     0
 72
     0
 73
     0
 74
     0
 75
     0
 76
     0
 77
     3
 78
     8
170
     0
171
     2
172
     1
173
     0
174
     0
175
     0
176
     2
177
     2
178
     4
  0
DIMSTYLE
  2
AM_JIS$SF
 70
     0
  3

  4
"
  5

  6

  7

 40
1.0
 41
2.0
 42
1.0
 43
10.0
 44
1.0
 45
0.0
 46
0.0
 47
0.1
 48
0.1
140
2.5
141
0.0
142
0.0
143
0.0393701
144
1.0
145
0.0
146
0.71
147
1.5
 71
     0
 72
     0
 73
     0
 74
     0
 75
     1
 76
     1
 77
     3
 78
     8
170
     0
171
     2
172
     1
173
     0
174
     0
175
     0
176
     2
177
     2
178
     4
  0
DIMSTYLE
  2
AM_JIS$SH
 70
     0
  3

  4
"
  5

  6
GENAXEH
  7

 40
1.0
 41
2.0
 42
1.0
 43
10.0
 44
1.0
 45
0.0
 46
0.0
 47
0.1
 48
0.1
140
2.5
141
0.0
142
0.0
143
0.0393701
144
2.0
145
0.0
146
0.71
147
1.5
 71
     0
 72
     0
 73
     0
 74
     0
 75
     1
 76
     1
 77
     3
 78
     8
170
     0
171
     2
172
     1
173
     1
174
     0
175
     0
176
     2
177
     2
178
     4
  0
DIMSTYLE
  2
AM_JIS$0
 70
     0
  3

  4
"
  5

  6

  7

 40
1.0
 41
2.0
 42
1.0
 43
8.0
 44
1.0
 45
0.0
 46
0.0
 47
0.1
 48
0.1
140
2.5
141
0.0
142
0.0
143
0.0393701
144
1.0
145
0.0
146
0.71
147
1.5
 71
     0
 72
     0
 73
     0
 74
     0
 75
     0
 76
     0
 77
     3
 78
     8
170
     0
171
     2
172
     1
173
     0
174
     0
175
     0
176
     2
177
     2
178
     4
  0
DIMSTYLE
  2
STANDARD
 70
     0
  3

  4

  5

  6

  7

 40
1.0
 41
0.18
 42
0.0625
 43
0.38
 44
0.18
 45
0.0
 46
0.0
 47
0.0
 48
0.0
140
0.18
141
0.09
142
0.0
143
25.399999999999999
144
1.0
145
0.0
146
1.0
147
0.09
 71
     0
 72
     0
 73
     1
 74
     1
 75
     0
 76
     0
 77
     0
 78
     0
170
     0
171
     2
172
     0
173
     0
174
     0
175
     0
176
     0
177
     0
178
     0
  0
ENDTAB
  0
ENDSEC
  0
SECTION
  2
BLOCKS
  0
BLOCK
  8
0
  2
$MODEL_SPACE
 70
     0
 10
0.0
 20
0.0
 30
0.0
  3
$MODEL_SPACE
  1

  0
ENDBLK
  5
77
  8
0
  0
BLOCK
 67
     1
  8
0
  2
$PAPER_SPACE
 70
     0
 10
0.0
 20
0.0
 30
0.0
  3
$PAPER_SPACE
  1

  0
ENDBLK
  5
73
 67
     1
  8
0
  0
BLOCK
  8
0
  2
GENAXEH
 70
     0
 10
0.0
 20
0.0
 30
0.0
  3
GENAXEH
  1

  0
LINE
  5
A592
  8
0
 10
-1.0
 20
0.0
 30
0.0
 11
1.0
 21
0.0
 31
0.0
  0
ENDBLK
  5
A593
  8
0
  0
BLOCK
  8
0
  2
_OPEN30
 70
     0
 10
0.0
 20
0.0
 30
0.0
  3
_OPEN30
  1

  0
LINE
  5
A5D9
  8
0
  6
BYBLOCK
 62
     0
 10
-1.0
 20
0.26794919
 30
0.0
 11
0.0
 21
0.0
 31
0.0
  0
LINE
  5
A5DA
  8
0
  6
BYBLOCK
 62
     0
 10
0.0
 20
0.0
 30
0.0
 11
-1.0
 21
-0.26794919
 31
0.0
  0
LINE
  5
A5DB
  8
0
  6
BYBLOCK
 62
     0
 10
0.0
 20
0.0
 30
0.0
 11
-1.0
 21
0.0
 31
0.0
  0
ENDBLK
  5
A5DC
  8
0
  0
BLOCK
  8
0
  2
_ACMFILLEDHALF
 70
     0
 10
0.0
 20
0.0
 30
0.0
  3
_ACMFILLEDHALF
  1

  0
TRACE
  5
A6B3
  8
0
  6
CONTINUOUS
 62
     0
 10
-0.8
 20
0.0
 30
0.0
 11
-1.0
 21
0.166666666
 31
0.0
 12
0.0
 22
0.0
 32
0.0
 13
0.0
 23
0.0
 33
0.0
  0
LINE
  5
A6B4
  8
0
  6
CONTINUOUS
 62
     0
 10
-1.0
 20
0.0
 30
0.0
 11
-0.8
 21
0.0
 31
0.0
  0
ENDBLK
  5
A6B5
  8
0
  0
BLOCK
  8
0
  2
*U7
 70
     1
 10
0.0
 20
0.0
 30
0.0
  3
*U7
  1

  0
TEXT
  5
A74F
  8
0
 62
     0
 10
5.1211371559201648
 20
5.9826223594979657
 30
0.0
 40
15.0
  1
ＶＸ０８－００３ＥＭ～ＶＸ０８－０３０ＥＭ
 41
0.7400000000000003
  0
ENDBLK
  5
A751
  8
0
  0
ENDSEC
  0
SECTION
  2
ENTITIES
  0
LINE
  5
7EAC
  8
0
  6
AM_ISO08W050
 62
     0
 10
127.1516938768186
 20
514.56617843870833
 30
0.0
 11
503.11298051881801
 21
514.56617843870833
 31
0.0
  0
LINE
  5
7EAD
  8
0
  6
AM_ISO08W050
 62
     0
 10
483.40859065292801
 20
552.56617843870833
 30
0.0
 11
645.57788164640124
 21
552.56617843870833
 31
0.0
  0
LINE
  5
99EB
  8
0
  6
AM_ISO08W050
 62
     0
 10
110.4155571780625
 20
865.83639908233511
 30
0.0
 11
649.1474516464009
 21
865.83639908233511
 31
0.0
  0
LINE
  5
99F5
  8
0
  6
CONTINUOUS
 62
     0
 10
637.63348164640092
 20
844.83639908233522
 30
0.0
 11
637.63348164640092
 21
886.83639908233499
 31
0.0
  0
LINE
  5
99FF
  8
0
  6
CONTINUOUS
 62
     0
 10
410.81274164640132
 20
954.32028908233508
 30
0.0
 11
429.82281164640091
 21
952.65707908233537
 31
0.0
  0
LINE
  5
9A00
  8
0
  6
CONTINUOUS
 62
     0
 10
398.11462164640119
 20
776.2415490823355
 30
0.0
 11
429.82293164640072
 21
779.01571908233541
 31
0.0
  0
LINE
  5
9A2D
  8
0
  6
CENTER
 62
     0
 10
429.63354164640123
 20
849.12802908233539
 30
0.0
 11
429.63354164640123
 21
880.44131908233521
 31
0.0
  0
LINE
  5
9A2E
  8
0
  6
CONTINUOUS
 62
     0
 10
413.13354164640123
 20
861.83639908233522
 30
0.0
 11
446.13354164640123
 21
861.83639908233522
 31
0.0
  0
LINE
  5
9A2F
  8
0
  6
CONTINUOUS
 62
     0
 10
413.13354164640123
 20
869.83633908233514
 30
0.0
 11
446.13354164640123
 21
869.83633908233514
 31
0.0
  0
LINE
  5
9A34
  8
0
  6
CONTINUOUS
 62
     0
 10
416.63348164640092
 20
781.83639908233511
 30
0.0
 11
416.63348164640092
 21
861.83639908233522
 31
0.0
  0
LINE
  5
9A35
  8
0
  6
CONTINUOUS
 62
     0
 10
428.77300164640133
 20
781.41250908233519
 30
0.0
 11
416.63354164640123
 21
781.83645908233507
 31
0.0
  0
LINE
  5
9A36
  8
0
  6
CONTINUOUS
 62
     0
 10
428.77300164640133
 20
950.26034908233544
 30
0.0
 11
416.63348164640092
 21
949.83639908233476
 31
0.0
  0
LINE
  5
9A37
  8
0
  6
CONTINUOUS
 62
     0
 10
428.77306164640089
 20
952.62039908233521
 30
0.0
 11
418.63354164640123
 21
952.26632908233535
 31
0.0
  0
LINE
  5
9A38
  8
0
  6
CONTINUOUS
 62
     0
 10
418.63354164640123
 20
949.90622908233524
 30
0.0
 11
418.63354164640123
 21
952.26638908233519
 31
0.0
  0
LINE
  5
9A39
  8
0
  6
CONTINUOUS
 62
     0
 10
418.63354164640123
 20
781.76651908233555
 30
0.0
 11
418.63354164640123
 21
779.40640908233524
 31
0.0
  0
LINE
  5
9A3A
  8
0
  6
CONTINUOUS
 62
     0
 10
428.77306164640089
 20
779.05240908233509
 30
0.0
 11
418.6336016464009
 21
779.40646908233509
 31
0.0
  0
LINE
  5
9A3B
  8
0
  6
CONTINUOUS
 62
     0
 10
416.63348164640092
 20
869.83633908233514
 30
0.0
 11
416.63348164640092
 21
949.83639908233476
 31
0.0
  0
ARC
  5
9A73
  8
0
  6
CONTINUOUS
 62
     0
 10
429.63354164640123
 20
865.83639908233511
 30
0.0
 40
10.0
 50
23.578037000006329
 51
156.42195999999231
  0
ARC
  5
9A74
  8
0
  6
CONTINUOUS
 62
     0
 10
413.13354164640123
 20
865.83639908233511
 30
0.0
 40
3.9999962
 50
90.000002999984659
 51
270.0
  0
ARC
  5
9A75
  8
0
  6
CONTINUOUS
 62
     0
 10
446.13354164640123
 20
865.83639908233511
 30
0.0
 40
3.9999962
 50
270.0
 51
90.000002999984659
  0
ARC
  5
9A76
  8
0
  6
CONTINUOUS
 62
     0
 10
429.63354164640123
 20
865.83639908233511
 30
0.0
 40
10.0
 50
203.57826999999261
 51
336.42171999999528
  0
ARC
  5
9A77
  8
0
  6
CONTINUOUS
 62
     0
 10
429.63354164640123
 20
865.83639908233511
 30
0.0
 40
11.0
 50
97.181195000010575
 51
158.67647999999841
  0
ARC
  5
9A78
  8
0
  6
CONTINUOUS
 62
     0
 10
427.63341164640082
 20
849.96188908233501
 30
0.0
 40
5.0
 50
0.0
 51
82.818802999995938
  0
ARC
  5
9A79
  8
0
  6
CONTINUOUS
 62
     0
 10
427.63341164640082
 20
881.71090908233498
 30
0.0
 40
5.0
 50
277.181199999993
 51
0.0
  0
ARC
  5
9A7A
  8
0
  6
CONTINUOUS
 62
     0
 10
429.63354164640123
 20
865.83639908233511
 30
0.0
 40
11.0
 50
201.3237799999917
 51
262.81880000000689
  0
ARC
  5
9A7B
  8
0
  6
CONTINUOUS
 62
     0
 10
428.63341164640087
 20
775.05484908233507
 30
0.0
 40
4.0
 50
0.0
 51
87.999999999996248
  0
ARC
  5
9A7C
  8
0
  6
CONTINUOUS
 62
     0
 10
428.63341164640087
 20
777.41494908233562
 30
0.0
 40
4.0
 50
0.0
 51
87.999999999996248
  0
ARC
  5
9A7D
  8
0
  6
CONTINUOUS
 62
     0
 10
428.63341164640087
 20
956.61801908233519
 30
0.0
 40
4.0
 50
272.00000000000369
 51
0.0
  0
ARC
  5
9A7E
  8
0
  6
CONTINUOUS
 62
     0
 10
428.63341164640087
 20
954.25790908233535
 30
0.0
 40
4.0
 50
272.00000000000369
 51
0.0
  0
LINE
  5
9A8B
  8
0
 62
     0
 10
347.13342064640068
 20
760.83639908233522
 30
0.0
 11
347.13342064640068
 21
763.83639908233522
 31
0.0
  0
LINE
  5
9A8C
  8
0
 62
     0
 10
272.13342064640068
 20
760.83639908233522
 30
0.0
 11
272.13342064640068
 21
763.83639908233522
 31
0.0
  0
LINE
  5
9A8D
  8
0
 62
     0
 10
346.61742064640072
 20
705.37631908233504
 30
0.0
 11
272.65038064640112
 21
705.37631908233504
 31
0.0
  0
LINE
  5
9A8E
  8
0
 62
     0
 10
346.78332064640063
 20
752.64840908233509
 30
0.0
 11
272.24340064640091
 21
752.64840908233509
 31
0.0
  0
LINE
  5
9A8F
  8
0
 62
     0
 10
348.17834064640101
 20
755.61740908233503
 30
0.0
 11
271.18835064640098
 21
755.61740908233503
 31
0.0
  0
LINE
  5
9A90
  8
0
 62
     0
 10
347.96935064640093
 20
760.07834908233497
 30
0.0
 11
271.27136064640081
 21
760.07834908233497
 31
0.0
  0
LINE
  5
9A91
  8
0
 62
     0
 10
347.38342064640068
 20
760.83639908233522
 30
0.0
 11
271.86872364640072
 21
760.83639908233522
 31
0.0
  0
LINE
  5
9A92
  8
0
 62
     0
 10
272.26342064640079
 20
721.27841908233495
 30
0.0
 11
347.24340064640091
 21
721.27841908233495
 31
0.0
  0
ARC
  5
9A93
  8
0
 62
     0
 10
-245.4666093535991
 20
731.25131908233504
 30
0.0
 40
600.59997999999973
 50
357.906620000001
 51
2.521403000004645
  0
ARC
  5
9A94
  8
0
 62
     0
 10
346.61742064640072
 20
708.97641908233504
 30
0.0
 40
3.6000000000000001
 50
269.99995999999589
 51
355.68894999999969
  0
ARC
  5
9A95
  8
0
 62
     0
 10
-245.4666093535991
 20
731.25131908233504
 30
0.0
 40
596.09997999999973
 50
357.83251999999987
 51
1.945678999999225
  0
ARC
  5
9A96
  8
0
 62
     0
 10
347.38342064640068
 20
757.23642908233501
 30
0.0
 40
3.6000000000000001
 50
53.340590999992578
 51
89.999989000004106
  0
ARC
  5
9A97
  8
0
 62
     0
 10
348.98840064640081
 20
748.17441908233491
 30
0.0
 40
7.4984399999999969
 50
40.106594000003419
 51
96.966986999996863
  0
ARC
  5
9A98
  8
0
 62
     0
 10
348.98840064640081
 20
752.64535908233518
 30
0.0
 40
7.4984399999999969
 50
42.099393999988131
 51
96.966986999996863
  0
ARC
  5
9A99
  8
0
 62
     0
 10
347.5803106464009
 20
748.94638908233503
 30
0.0
 40
3.7436899999999982
 50
43.77279399999189
 51
98.860984000010419
  0
ARC
  5
9A9A
  8
0
 62
     0
 10
347.5803106464009
 20
717.57931908233502
 30
0.0
 40
3.7436899999999982
 50
43.77279399999189
 51
98.860984000010419
  0
ARC
  5
9A9B
  8
0
 62
     0
 10
350.07140064640089
 20
712.66733908233505
 30
0.0
 40
5.7431099999999971
 50
265.1789600000053
 51
324.25095000001107
  0
ARC
  5
9A9C
  8
0
 62
     0
 10
864.73336064640068
 20
731.25131908233504
 30
0.0
 40
600.59997999999973
 50
177.4789699999962
 51
182.09294999999941
  0
ARC
  5
9A9D
  8
0
 62
     0
 10
272.65038064640112
 20
708.97641908233504
 30
0.0
 40
3.6000000000000001
 50
184.31098
 51
269.99995999999589
  0
ARC
  5
9A9E
  8
0
 62
     0
 10
864.73336064640068
 20
731.25131908233504
 30
0.0
 40
596.09997999999973
 50
178.0539699999992
 51
182.16695000000161
  0
ARC
  5
9A9F
  8
0
 62
     0
 10
271.88342064640068
 20
757.23642908233501
 30
0.0
 40
3.6000000000000001
 50
89.999989000004106
 51
126.658990000006
  0
ARC
  5
9AA0
  8
0
 62
     0
 10
270.27844064640112
 20
748.17441908233491
 30
0.0
 40
7.4984399999999969
 50
83.032990999994595
 51
139.89297999998459
  0
ARC
  5
9AA1
  8
0
 62
     0
 10
270.27844064640112
 20
752.64535908233518
 30
0.0
 40
7.4984399999999969
 50
83.032990999994595
 51
137.9009900000091
  0
ARC
  5
9AA2
  8
0
 62
     0
 10
271.68639064640092
 20
748.94638908233503
 30
0.0
 40
3.7436899999999982
 50
81.138986000010405
 51
136.22697999999471
  0
ARC
  5
9AA3
  8
0
 62
     0
 10
271.68639064640092
 20
717.57931908233502
 30
0.0
 40
3.7436899999999982
 50
81.138986000010405
 51
136.22697999999471
  0
ARC
  5
9AA4
  8
0
 62
     0
 10
269.19543064640078
 20
712.66733908233505
 30
0.0
 40
5.7431099999999971
 50
215.74896999999439
 51
274.82095999999291
  0
LINE
  5
9AA5
  8
0
 62
     0
 10
272.13342064640068
 20
763.83639908233522
 30
0.0
 11
347.13342064640068
 21
763.83639908233522
 31
0.0
  0
ARC
  5
9AA6
  8
0
 62
     0
 10
138.53348164640099
 20
780.33902508233496
 30
0.0
 40
2.399999999999999
 50
180.0
 51
199.99999999999761
  0
ARC
  5
9AA7
  8
0
 62
     0
 10
143.1279456464008
 20
767.71584008233503
 30
0.0
 40
2.399999999999999
 50
199.99999999999761
 51
270.0
  0
LINE
  5
9AA8
  8
0
 62
     0
 10
140.87268264640079
 20
766.89499208233519
 30
0.0
 11
136.2782196464008
 21
779.518177082335
 31
0.0
  0
LINE
  5
9AA9
  8
0
 62
     0
 10
209.1334816464009
 20
765.31584008233494
 30
0.0
 11
143.1279456464008
 21
765.31584008233494
 31
0.0
  0
LINE
  5
9AAA
  8
0
 62
     0
 10
209.1334816464009
 20
966.35695808233515
 30
0.0
 11
209.1334816464009
 21
765.31584008233494
 31
0.0
  0
LINE
  5
9AAB
  8
0
 62
     0
 10
140.87268264640079
 20
964.77780608233525
 30
0.0
 11
136.2782196464008
 21
952.15462108233498
 31
0.0
  0
ARC
  5
9AAC
  8
0
 62
     0
 10
143.1279456464008
 20
963.95695808233506
 30
0.0
 40
2.399999999999999
 50
90.0
 51
160.00000000000239
  0
ARC
  5
9AAD
  8
0
 62
     0
 10
138.53348164640099
 20
951.33377308233514
 30
0.0
 40
2.399999999999999
 50
160.00000000000239
 51
180.0
  0
LINE
  5
9AAE
  8
0
 62
     0
 10
141.4474466464012
 20
965.67041208233502
 30
0.0
 11
141.4474466464012
 21
765.31584008233494
 31
0.0
  0
LINE
  5
9AAF
  8
0
 62
     0
 10
136.1334816464009
 20
951.33377308233514
 30
0.0
 11
136.1334816464009
 21
780.55695808233509
 31
0.0
  0
LINE
  5
9AB0
  8
0
 62
     0
 10
209.1334816464009
 20
966.35695808233515
 30
0.0
 11
143.1279456464008
 21
966.35695808233515
 31
0.0
  0
ARC
  5
9AB1
  8
0
 62
     0
 10
217.5771256464009
 20
783.43571908233525
 30
0.0
 40
2.0
 50
189.99999999999861
 51
270.0
  0
LINE
  5
9AB2
  8
0
 62
     0
 10
215.6075106464009
 20
783.08842308233488
 30
0.0
 11
212.6334816464009
 21
799.95497708233495
 31
0.0
  0
LINE
  5
9AB3
  8
0
 62
     0
 10
212.6334816464009
 20
799.95497708233495
 30
0.0
 11
213.69522064640071
 21
799.95497708233495
 31
0.0
  0
LINE
  5
9AB4
  8
0
 62
     0
 10
411.09762264640079
 20
952.00870608233515
 30
0.0
 11
411.63348164640092
 21
952.00870608233515
 31
0.0
  0
LINE
  5
9AB5
  8
0
 62
     0
 10
411.3580136464011
 20
953.57096308233508
 30
0.0
 11
411.63348164640092
 21
953.57096308233508
 31
0.0
  0
LINE
  5
9AB6
  8
0
 62
     0
 10
413.31168064640059
 20
777.83655008233495
 30
0.0
 11
413.63348164640092
 21
777.83655008233495
 31
0.0
  0
LINE
  5
9AB7
  8
0
 62
     0
 10
409.45408664640081
 20
782.68441308233503
 30
0.0
 11
411.63348164640092
 21
782.68441308233503
 31
0.0
  0
LINE
  5
9AB8
  8
0
 62
     0
 10
410.4601696464008
 20
794.78998308233508
 30
0.0
 11
411.63348164640092
 21
794.78998308233508
 31
0.0
  0
LINE
  5
9AB9
  8
0
  6
AM_ISO08W050
 62
     0
 10
309.63348164640081
 20
758.18043408233495
 30
0.0
 11
309.63348164640081
 21
767.36215008233501
 31
0.0
  0
ARC
  5
9ABA
  8
0
 62
     0
 10
407.8763616464006
 20
954.8446470823352
 30
0.0
 40
2.0
 50
9.9999999999986073
 51
90.0
  0
ARC
  5
9ABB
  8
0
 62
     0
 10
407.9423786464007
 20
958.38544608233508
 30
0.0
 40
2.0
 50
9.9999999999986073
 51
90.0
  0
ARC
  5
9ABC
  8
0
 62
     0
 10
408.02829664640092
 20
960.9371830823352
 30
0.0
 40
2.0
 50
9.9999999999986073
 51
90.0
  0
ARC
  5
9ABD
  8
0
 62
     0
 10
408.05704564640052
 20
962.33639908233511
 30
0.0
 40
2.0
 50
9.9999999999986073
 51
90.0
  0
LINE
  5
9ABE
  8
0
 62
     0
 10
416.63348464640092
 20
950.83639908233533
 30
0.0
 11
413.6334846464008
 21
953.83639908233522
 31
0.0
  0
LINE
  5
9ABF
  8
0
 62
     0
 10
411.5866776464008
 20
953.83639908233522
 30
0.0
 11
413.63348164640092
 21
953.83639908233522
 31
0.0
  0
LINE
  5
9AC0
  8
0
 62
     0
 10
416.63348164640092
 20
780.83639908233522
 30
0.0
 11
413.63348164640092
 21
777.83639908233511
 31
0.0
  0
LINE
  5
9AC1
  8
0
 62
     0
 10
413.63348164640092
 20
777.83639908233511
 30
0.0
 11
413.63348164640092
 21
803.45678508233516
 31
0.0
  0
LINE
  5
9AC2
  8
0
 62
     0
 10
416.63348164640092
 20
780.83639908233522
 30
0.0
 11
416.63348164640081
 21
861.83639908233499
 31
0.0
  0
CIRCLE
  5
9AC3
  8
0
 62
     0
 10
309.63348164640081
 20
865.83639908233511
 30
0.0
 40
11.0
  0
LINE
  5
9AC4
  8
0
 62
     0
 10
216.91960164640071
 20
964.33639908233533
 30
0.0
 11
268.63348164640092
 21
964.33639908233533
 31
0.0
  0
LINE
  5
9AC5
  8
0
 62
     0
 10
348.63348164640092
 20
956.84464708233509
 30
0.0
 11
348.63348164640092
 21
962.33639908233511
 31
0.0
  0
LINE
  5
9AC6
  8
0
 62
     0
 10
270.63348164640092
 20
956.84464708233509
 30
0.0
 11
270.63348164640092
 21
962.33639908233511
 31
0.0
  0
ARC
  5
9AC7
  8
0
 62
     0
 10
268.63348164640092
 20
962.33639908233511
 30
0.0
 40
2.0
 50
0.0
 51
90.0
  0
ARC
  5
9AC8
  8
0
 62
     0
 10
350.63348164640092
 20
962.33639908233511
 30
0.0
 40
2.0
 50
90.0
 51
180.0
  0
LINE
  5
9AC9
  8
0
 62
     0
 10
350.63348164640092
 20
964.33639908233533
 30
0.0
 11
408.05704564640052
 21
964.33639908233533
 31
0.0
  0
LINE
  5
9ACA
  8
0
 62
     0
 10
408.02829664640092
 20
962.9371830823352
 30
0.0
 11
350.63348164640092
 21
962.9371830823352
 31
0.0
  0
LINE
  5
9ACB
  8
0
 62
     0
 10
411.63348164640092
 20
952.00870608233515
 30
0.0
 11
409.99791264640089
 21
961.284479082335
 31
0.0
  0
LINE
  5
9ACC
  8
0
 62
     0
 10
411.63348164640092
 20
953.57096308233508
 30
0.0
 11
410.02666064640101
 21
962.68369508233525
 31
0.0
  0
LINE
  5
9ACD
  8
0
 62
     0
 10
212.6334816464009
 20
949.54614508233522
 30
0.0
 11
214.9499866464007
 21
962.68369508233525
 31
0.0
  0
ARC
  5
9ACE
  8
0
 62
     0
 10
216.91960164640071
 20
962.33639908233511
 30
0.0
 40
2.0
 50
90.0
 51
170.00000000000139
  0
LINE
  5
9ACF
  8
0
 62
     0
 10
212.6334816464009
 20
947.88708408233515
 30
0.0
 11
214.9958036464009
 21
961.284479082335
 31
0.0
  0
ARC
  5
9AD0
  8
0
 62
     0
 10
216.96541964640119
 20
960.9371830823352
 30
0.0
 40
2.0
 50
90.0
 51
170.00000000000139
  0
ARC
  5
9AD1
  8
0
 62
     0
 10
268.63348164640092
 20
960.9371830823352
 30
0.0
 40
2.0
 50
0.0
 51
90.0
  0
ARC
  5
9AD2
  8
0
 62
     0
 10
350.63348164640092
 20
960.9371830823352
 30
0.0
 40
2.0
 50
90.0
 51
180.0
  0
LINE
  5
9AD3
  8
0
 62
     0
 10
268.63348164640092
 20
962.9371830823352
 30
0.0
 11
216.96541964640119
 21
962.9371830823352
 31
0.0
  0
LINE
  5
9AD4
  8
0
 62
     0
 10
407.9423786464007
 20
960.38544608233519
 30
0.0
 11
350.63348164640092
 21
960.38544608233519
 31
0.0
  0
LINE
  5
9AD5
  8
0
 62
     0
 10
411.50470164640092
 20
949.700048082335
 30
0.0
 11
409.91199364640039
 21
958.73274308233522
 31
0.0
  0
LINE
  5
9AD6
  8
0
 62
     0
 10
212.6334816464009
 20
944.66629308233519
 30
0.0
 11
215.11377664640119
 21
958.73274308233522
 31
0.0
  0
ARC
  5
9AD7
  8
0
 62
     0
 10
217.08339164640071
 20
958.38544608233508
 30
0.0
 40
2.0
 50
90.0
 51
170.00000000000139
  0
ARC
  5
9AD8
  8
0
 62
     0
 10
268.63348164640092
 20
958.38544608233508
 30
0.0
 40
2.0
 50
0.0
 51
90.0
  0
ARC
  5
9AD9
  8
0
 62
     0
 10
350.63348164640092
 20
958.38544608233508
 30
0.0
 40
2.0
 50
90.0
 51
180.0
  0
LINE
  5
9ADA
  8
0
 62
     0
 10
268.63348164640092
 20
960.38544608233519
 30
0.0
 11
217.08339164640071
 21
960.38544608233519
 31
0.0
  0
LINE
  5
9ADB
  8
0
 62
     0
 10
407.8763616464006
 20
956.84464708233509
 30
0.0
 11
217.24490064640079
 21
956.84464708233509
 31
0.0
  0
LINE
  5
9ADC
  8
0
 62
     0
 10
410.81434664640119
 20
949.700048082335
 30
0.0
 11
409.84597764640091
 21
955.19194308233511
 31
0.0
  0
LINE
  5
9ADD
  8
0
 62
     0
 10
212.6334816464009
 20
940.20953308233516
 30
0.0
 11
215.27528464640091
 21
955.19194308233511
 31
0.0
  0
ARC
  5
9ADE
  8
0
 62
     0
 10
217.24490064640079
 20
954.8446470823352
 30
0.0
 40
2.0
 50
90.0
 51
170.00000000000139
  0
LINE
  5
9ADF
  8
0
 62
     0
 10
341.68983764640097
 20
950.23707908233519
 30
0.0
 11
217.5771256464009
 21
950.23707908233519
 31
0.0
  0
LINE
  5
9AE0
  8
0
 62
     0
 10
346.63348164640092
 20
931.71782108233515
 30
0.0
 11
343.65945264640101
 21
948.58437508233521
 31
0.0
  0
ARC
  5
9AE1
  8
0
 62
     0
 10
341.68983764640097
 20
948.23707908233507
 30
0.0
 40
2.0
 50
9.9999999999986073
 51
90.0
  0
LINE
  5
9AE2
  8
0
 62
     0
 10
212.6334816464009
 20
931.71782108233515
 30
0.0
 11
215.6075106464009
 21
948.58437508233521
 31
0.0
  0
ARC
  5
9AE3
  8
0
 62
     0
 10
217.5771256464009
 20
948.23707908233507
 30
0.0
 40
2.0
 50
90.0
 51
170.00000000000139
  0
LINE
  5
9AE4
  8
0
 62
     0
 10
341.3595736464008
 20
944.83503508233525
 30
0.0
 11
217.90738964640099
 21
944.83503508233525
 31
0.0
  0
LINE
  5
9AE5
  8
0
 62
     0
 10
346.41243064640088
 20
925.69639908233523
 30
0.0
 11
343.32918964640112
 21
943.18233208233505
 31
0.0
  0
ARC
  5
9AE6
  8
0
 62
     0
 10
341.3595736464008
 20
942.83503508233525
 30
0.0
 40
2.0
 50
9.9999999999986073
 51
90.0
  0
LINE
  5
9AE7
  8
0
 62
     0
 10
212.91047564640081
 20
926.01366708233525
 30
0.0
 11
215.9377736464007
 21
943.18233208233505
 31
0.0
  0
ARC
  5
9AE8
  8
0
 62
     0
 10
217.90738964640099
 20
942.83503508233525
 30
0.0
 40
2.0
 50
90.0
 51
170.00000000000139
  0
LINE
  5
9AE9
  8
0
 62
     0
 10
411.63348164640092
 20
870.86655108233492
 30
0.0
 11
411.63348164640092
 21
873.814243082335
 31
0.0
  0
LINE
  5
9AEA
  8
0
 62
     0
 10
411.63348164640092
 20
880.86602708233522
 30
0.0
 11
411.63348164640092
 21
883.82750608233505
 31
0.0
  0
LINE
  5
9AEB
  8
0
 62
     0
 10
411.63348164640092
 20
891.85820708233507
 30
0.0
 11
411.63348164640092
 21
894.85083408233504
 31
0.0
  0
LINE
  5
9AEC
  8
0
 62
     0
 10
411.63348164640092
 20
902.84100208233519
 30
0.0
 11
411.63348164640092
 21
905.88670808233519
 31
0.0
  0
LINE
  5
9AED
  8
0
 62
     0
 10
411.63348164640092
 20
913.81088108233519
 30
0.0
 11
411.63348164640092
 21
916.94179408233504
 31
0.0
  0
LINE
  5
9AEE
  8
0
 62
     0
 10
411.63348164640092
 20
922.76935708233509
 30
0.0
 11
411.63348164640092
 21
926.01366708233525
 31
0.0
  0
LINE
  5
9AEF
  8
0
 62
     0
 10
361.63348164640092
 20
940.20953308233516
 30
0.0
 11
345.1361636464012
 21
940.20953308233516
 31
0.0
  0
LINE
  5
9AF0
  8
0
 62
     0
 10
393.42025864640078
 20
945.05450108233515
 30
0.0
 11
377.63348164640092
 21
945.05450108233515
 31
0.0
  0
LINE
  5
9AF1
  8
0
 62
     0
 10
361.63348164640092
 20
940.20953308233516
 30
0.0
 11
377.63348164640092
 21
945.05450108233515
 31
0.0
  0
LINE
  5
9AF2
  8
0
 62
     0
 10
377.63348164640092
 20
945.05450108233515
 30
0.0
 11
377.63348164640092
 21
941.68918608233525
 31
0.0
  0
LINE
  5
9AF3
  8
0
 62
     0
 10
361.63348164640092
 20
940.20953308233516
 30
0.0
 11
361.63348164640092
 21
926.01366708233525
 31
0.0
  0
LINE
  5
9AF4
  8
0
 62
     0
 10
397.13348164640092
 20
928.90236108233535
 30
0.0
 11
397.13348164640092
 21
947.70004808233534
 31
0.0
  0
ARC
  5
9AF5
  8
0
 62
     0
 10
399.13348164640092
 20
947.70004808233534
 30
0.0
 40
2.0
 50
90.0
 51
180.0
  0
LINE
  5
9AF6
  8
0
 62
     0
 10
397.13348164640092
 20
933.29245908233509
 30
0.0
 11
377.63348164640092
 21
933.29245908233509
 31
0.0
  0
LINE
  5
9AF7
  8
0
 62
     0
 10
391.7334876464011
 20
941.68918608233525
 30
0.0
 11
377.63348164640092
 21
941.68918608233525
 31
0.0
  0
LINE
  5
9AF8
  8
0
 62
     0
 10
377.63348164640092
 20
933.29245908233509
 30
0.0
 11
377.63348164640092
 21
926.01366708233525
 31
0.0
  0
LINE
  5
9AFA
  8
0
 62
     0
 10
416.63348164640092
 20
949.700048082335
 30
0.0
 11
399.13348164640092
 21
949.700048082335
 31
0.0
  0
LINE
  5
9AFB
  8
0
 62
     0
 10
416.63348164640092
 20
927.90236108233535
 30
0.0
 11
396.13348164640092
 21
927.90236108233535
 31
0.0
  0
ARC
  5
9AFC
  8
0
 62
     0
 10
396.13348164640092
 20
928.90236108233535
 30
0.0
 40
1.0
 50
270.0
 51
0.0
  0
LINE
  5
9AFD
  8
0
 62
     0
 10
416.63348164640092
 20
941.57604308233522
 30
0.0
 11
399.13348164640092
 21
941.57604308233522
 31
0.0
  0
LINE
  5
9AFE
  8
0
 62
     0
 10
209.1334816464009
 20
949.83639908233511
 30
0.0
 11
212.6334816464009
 21
949.83639908233511
 31
0.0
  0
ARC
  5
9AFF
  8
0
 62
     0
 10
413.31168064640059
 20
775.83639908233522
 30
0.0
 40
2.0
 50
90.0
 51
170.00000000000139
  0
ARC
  5
9B00
  8
0
 62
     0
 10
349.3761236464012
 20
770.84274208233523
 30
0.0
 40
1.9936590000000001
 50
90.075931000003507
 51
178.17025399999861
  0
LINE
  5
9B01
  8
0
 62
     0
 10
349.37348164640071
 20
772.83639908233522
 30
0.0
 11
409.07364764640062
 21
772.83639908233522
 31
0.0
  0
LINE
  5
9B02
  8
0
 62
     0
 10
347.13348164640092
 20
763.83639908233522
 30
0.0
 11
347.74951064640072
 21
781.43571908233525
 31
0.0
  0
LINE
  5
9B03
  8
0
 62
     0
 10
411.3420656464009
 20
776.18369508233502
 30
0.0
 11
411.04326264640082
 21
774.48910308233496
 31
0.0
  0
ARC
  5
9B04
  8
0
 62
     0
 10
409.07364764640062
 20
774.83639908233522
 30
0.0
 40
2.0
 50
270.0
 51
350.00000000000142
  0
LINE
  5
9B05
  8
0
 62
     0
 10
213.21083164640089
 20
780.83639908233522
 30
0.0
 11
220.42771064640101
 21
768.33639908233522
 31
0.0
  0
LINE
  5
9B06
  8
0
 62
     0
 10
222.15976064640111
 20
767.33639908233522
 30
0.0
 11
270.07845264640082
 21
767.33639908233522
 31
0.0
  0
LINE
  5
9B07
  8
0
 62
     0
 10
272.13348164640092
 20
763.83639908233522
 30
0.0
 11
272.07716964640082
 21
765.40801408233494
 31
0.0
  0
ARC
  5
9B08
  8
0
 62
     0
 10
211.47878064640099
 20
779.83639908233522
 30
0.0
 40
2.0
 50
29.999999999991651
 51
90.0
  0
ARC
  5
9B09
  8
0
 62
     0
 10
222.15976064640111
 20
769.33639908233511
 30
0.0
 40
2.0
 50
209.9999999999917
 51
270.0
  0
ARC
  5
9B0A
  8
0
 62
     0
 10
270.07845264640082
 20
765.33639908233511
 30
0.0
 40
2.0
 50
2.0520649999985339
 51
90.0
  0
LINE
  5
9B0B
  8
0
 62
     0
 10
272.13348164640092
 20
763.83639908233522
 30
0.0
 11
347.13348164640092
 21
763.83639908233522
 31
0.0
  0
LINE
  5
9B0C
  8
0
 62
     0
 10
221.15976064640111
 20
767.60434808233504
 30
0.0
 11
221.15976064640111
 21
781.43571908233525
 31
0.0
  0
LINE
  5
9B0D
  8
0
 62
     0
 10
407.6005656464007
 20
781.43571908233525
 30
0.0
 11
217.5771256464009
 21
781.43571908233525
 31
0.0
  0
LINE
  5
9B0E
  8
0
 62
     0
 10
407.37977964640089
 20
786.83776308233519
 30
0.0
 11
217.68633864640111
 21
786.83776308233519
 31
0.0
  0
LINE
  5
9B0F
  8
0
 62
     0
 10
411.63348164640092
 20
801.44416508233519
 30
0.0
 11
377.63348164640092
 21
801.44416508233519
 31
0.0
  0
LINE
  5
9B10
  8
0
 62
     0
 10
411.63348164640092
 20
801.44416508233519
 30
0.0
 11
409.34939464640081
 21
788.49046608233516
 31
0.0
  0
ARC
  5
9B11
  8
0
 62
     0
 10
407.37977964640089
 20
788.83776308233507
 30
0.0
 40
2.0
 50
270.0
 51
350.00000000000142
  0
LINE
  5
9B12
  8
0
 62
     0
 10
411.63348164640092
 20
794.78998308233508
 30
0.0
 11
409.57018064640039
 21
783.08842308233488
 31
0.0
  0
ARC
  5
9B13
  8
0
 62
     0
 10
407.6005656464007
 20
783.43571908233525
 30
0.0
 40
2.0
 50
270.0
 51
350.00000000000142
  0
LINE
  5
9B14
  8
0
 62
     0
 10
216.37621964640081
 20
781.83639908233511
 30
0.0
 11
209.1334816464009
 21
781.83639908233511
 31
0.0
  0
LINE
  5
9B15
  8
0
 62
     0
 10
411.63348164640092
 20
782.68441308233503
 30
0.0
 11
410.1884276464009
 21
774.48910308233496
 31
0.0
  0
ARC
  5
9B16
  8
0
 62
     0
 10
408.21881164640081
 20
774.83639908233522
 30
0.0
 40
2.0
 50
270.0
 51
350.00000000000142
  0
LINE
  5
9B17
  8
0
 62
     0
 10
346.63348164640092
 20
817.67639908233491
 30
0.0
 11
346.63348164640092
 21
814.97639908233498
 31
0.0
  0
LINE
  5
9B18
  8
0
 62
     0
 10
416.63348164640092
 20
803.62676208233518
 30
0.0
 11
399.13348164640092
 21
803.62676208233518
 31
0.0
  0
LINE
  5
9B19
  8
0
 62
     0
 10
416.63348164640092
 20
815.93440108233494
 30
0.0
 11
399.13348164640092
 21
815.93440108233494
 31
0.0
  0
LINE
  5
9B1A
  8
0
 62
     0
 10
416.63348164640092
 20
826.11369308233509
 30
0.0
 11
411.63348164640092
 21
826.11369308233509
 31
0.0
  0
LINE
  5
9B1B
  8
0
 62
     0
 10
397.13348164640092
 20
825.11369308233509
 30
0.0
 11
397.13348164640092
 21
805.62676208233495
 31
0.0
  0
ARC
  5
9B1C
  8
0
 62
     0
 10
396.13348164640092
 20
825.11369308233509
 30
0.0
 40
1.0
 50
0.0
 51
42.252324000004279
  0
ARC
  5
9B1D
  8
0
 62
     0
 10
399.13348164640092
 20
805.62676208233495
 30
0.0
 40
2.0
 50
180.0
 51
270.0
  0
LINE
  5
9B1E
  8
0
 62
     0
 10
361.63348164640092
 20
922.76935708233509
 30
0.0
 11
361.63348164640092
 21
916.94179408233504
 31
0.0
  0
LINE
  5
9B1F
  8
0
 62
     0
 10
377.63348164640092
 20
922.76935708233509
 30
0.0
 11
377.63348164640092
 21
916.94179408233504
 31
0.0
  0
LINE
  5
9B20
  8
0
 62
     0
 10
361.63348164640092
 20
913.81088108233519
 30
0.0
 11
361.63348164640092
 21
905.88670808233519
 31
0.0
  0
LINE
  5
9B21
  8
0
 62
     0
 10
361.63348164640092
 20
902.84100208233519
 30
0.0
 11
361.63348164640092
 21
894.85083408233504
 31
0.0
  0
LINE
  5
9B22
  8
0
 62
     0
 10
361.63348164640092
 20
891.85820708233507
 30
0.0
 11
361.63348164640092
 21
883.82750608233505
 31
0.0
  0
LINE
  5
9B23
  8
0
 62
     0
 10
361.63348164640092
 20
880.86602708233522
 30
0.0
 11
361.63348164640092
 21
873.814243082335
 31
0.0
  0
LINE
  5
9B24
  8
0
 62
     0
 10
361.63348164640092
 20
870.99639908233519
 30
0.0
 11
361.63348164640092
 21
860.80624708233518
 31
0.0
  0
LINE
  5
9B25
  8
0
 62
     0
 10
377.63348164640092
 20
870.99639908233519
 30
0.0
 11
377.63348164640092
 21
860.80624708233518
 31
0.0
  0
LINE
  5
9B26
  8
0
 62
     0
 10
377.63348164640092
 20
880.86602708233522
 30
0.0
 11
377.63348164640092
 21
873.814243082335
 31
0.0
  0
LINE
  5
9B27
  8
0
 62
     0
 10
377.63348164640092
 20
891.85820708233507
 30
0.0
 11
377.63348164640092
 21
883.82750608233505
 31
0.0
  0
LINE
  5
9B28
  8
0
 62
     0
 10
377.63348164640092
 20
902.84100208233519
 30
0.0
 11
377.63348164640092
 21
894.85083408233504
 31
0.0
  0
LINE
  5
9B29
  8
0
 62
     0
 10
377.63348164640092
 20
913.81088108233519
 30
0.0
 11
377.63348164640092
 21
905.88670808233519
 31
0.0
  0
LINE
  5
9B2A
  8
0
 62
     0
 10
361.63348164640092
 20
857.8585550823351
 30
0.0
 11
361.63348164640092
 21
850.80677108233522
 31
0.0
  0
LINE
  5
9B2B
  8
0
 62
     0
 10
377.63348164640092
 20
857.8585550823351
 30
0.0
 11
377.63348164640092
 21
850.80677108233522
 31
0.0
  0
LINE
  5
9B2C
  8
0
 62
     0
 10
377.63348164640092
 20
847.84529208233516
 30
0.0
 11
377.63348164640092
 21
839.81459108233526
 31
0.0
  0
LINE
  5
9B2D
  8
0
 62
     0
 10
361.63348164640092
 20
847.84529208233516
 30
0.0
 11
361.63348164640092
 21
839.81459108233526
 31
0.0
  0
LINE
  5
9B2E
  8
0
 62
     0
 10
361.63348164640092
 20
836.82196408233506
 30
0.0
 11
361.63348164640092
 21
828.83179608233502
 31
0.0
  0
LINE
  5
9B2F
  8
0
 62
     0
 10
377.63348164640092
 20
836.82196408233506
 30
0.0
 11
377.63348164640092
 21
828.83179608233502
 31
0.0
  0
LINE
  5
9B30
  8
0
 62
     0
 10
392.18287664640093
 20
809.8156030823352
 30
0.0
 11
377.63348064640098
 21
809.8156030823352
 31
0.0
  0
LINE
  5
9B31
  8
0
 62
     0
 10
397.13348164640092
 20
821.22795308233515
 30
0.0
 11
377.63348064640098
 21
821.22795308233515
 31
0.0
  0
LINE
  5
9B32
  8
0
 62
     0
 10
361.63348164640092
 20
825.78609008233525
 30
0.0
 11
361.63348164640092
 21
805.78609008233525
 31
0.0
  0
LINE
  5
9B33
  8
0
 62
     0
 10
413.63348164640092
 20
949.700048082335
 30
0.0
 11
413.63348164640092
 21
953.83639908233522
 31
0.0
  0
LINE
  5
9B34
  8
0
 62
     0
 10
411.63348164640092
 20
779.63465508233514
 30
0.0
 11
410.72618164640079
 21
774.48910308233496
 31
0.0
  0
ARC
  5
9B35
  8
0
 62
     0
 10
408.75656664640081
 20
774.83639908233522
 30
0.0
 40
2.0
 50
270.0
 51
350.00000000000142
  0
LINE
  5
9B36
  8
0
 62
     0
 10
377.63348164640092
 20
825.78609008233525
 30
0.0
 11
377.63348164640092
 21
821.22795308233515
 31
0.0
  0
LINE
  5
9B37
  8
0
 62
     0
 10
413.63348164640092
 20
826.11369308233509
 30
0.0
 11
413.63348164640092
 21
861.83639908233522
 31
0.0
  0
LINE
  5
9B38
  8
0
 62
     0
 10
212.6334816464009
 20
805.97639908233498
 30
0.0
 11
215.71672364640111
 21
788.49046608233516
 31
0.0
  0
ARC
  5
9B39
  8
0
 62
     0
 10
217.68633864640111
 20
788.83776308233507
 30
0.0
 40
2.0
 50
189.99999999999861
 51
270.0
  0
LINE
  5
9B3A
  8
0
 62
     0
 10
362.3388786464007
 20
814.53069308233501
 30
0.0
 11
377.63348164640092
 21
809.8156030823352
 31
0.0
  0
LINE
  5
9B3B
  8
0
 62
     0
 10
377.63348164640092
 20
821.22795308233515
 30
0.0
 11
362.59754064640077
 21
820.68720208233503
 31
0.0
  0
LINE
  5
9B3C
  8
0
 62
     0
 10
377.63348164640092
 20
809.8156030823352
 30
0.0
 11
377.63348164640092
 21
801.44416508233519
 31
0.0
  0
ARC
  5
9B3D
  8
0
 62
     0
 10
362.63348164640092
 20
819.68784808233522
 30
0.0
 40
1.0
 50
92.059690999990565
 51
180.0
  0
ARC
  5
9B3E
  8
0
 62
     0
 10
362.63348164640092
 20
815.48631308233519
 30
0.0
 40
1.0
 50
180.0
 51
252.8662750000021
  0
LINE
  5
9B3F
  8
0
 62
     0
 10
377.63348164640092
 20
941.68918608233525
 30
0.0
 11
362.33302264640088
 21
936.86932008233521
 31
0.0
  0
LINE
  5
9B40
  8
0
 62
     0
 10
362.68203664640077
 20
932.565639082335
 30
0.0
 11
377.63348164640092
 21
933.29245908233509
 31
0.0
  0
ARC
  5
9B41
  8
0
 62
     0
 10
362.63348164640092
 20
935.91552508233497
 30
0.0
 40
1.0
 50
107.4851790000144
 51
180.0
  0
ARC
  5
9B42
  8
0
 62
     0
 10
362.63348164640092
 20
933.56446008233524
 30
0.0
 40
1.0
 50
180.0
 51
270.0
  0
LINE
  5
9B44
  8
0
 62
     0
 10
411.63348164640092
 20
926.01366708233525
 30
0.0
 11
212.6334816464009
 21
926.01366708233525
 31
0.0
  0
LINE
  5
9B45
  8
0
 62
     0
 10
411.63348164640092
 20
922.76935708233509
 30
0.0
 11
212.6334816464009
 21
922.76935708233509
 31
0.0
  0
LINE
  5
9B46
  8
0
 62
     0
 10
411.63348164640092
 20
916.94179408233504
 30
0.0
 11
212.6334816464009
 21
916.94179408233504
 31
0.0
  0
LINE
  5
9B47
  8
0
 62
     0
 10
411.63348164640092
 20
913.81088108233519
 30
0.0
 11
212.6334816464009
 21
913.81088108233519
 31
0.0
  0
LINE
  5
9B48
  8
0
 62
     0
 10
411.63348164640092
 20
905.88670808233519
 30
0.0
 11
212.6334816464009
 21
905.88670808233519
 31
0.0
  0
LINE
  5
9B49
  8
0
 62
     0
 10
411.63348164640092
 20
902.84100208233519
 30
0.0
 11
212.6334816464009
 21
902.84100208233519
 31
0.0
  0
LINE
  5
9B4A
  8
0
 62
     0
 10
411.63348164640092
 20
894.85083408233504
 30
0.0
 11
212.6334816464009
 21
894.85083408233504
 31
0.0
  0
LINE
  5
9B4B
  8
0
 62
     0
 10
411.63348164640092
 20
891.85820708233507
 30
0.0
 11
212.6334816464009
 21
891.85820708233507
 31
0.0
  0
LINE
  5
9B4C
  8
0
 62
     0
 10
411.63348164640092
 20
883.82750608233505
 30
0.0
 11
212.6334816464009
 21
883.82750608233505
 31
0.0
  0
LINE
  5
9B4D
  8
0
 62
     0
 10
411.63348164640092
 20
880.86602708233522
 30
0.0
 11
212.6334816464009
 21
880.86602708233522
 31
0.0
  0
LINE
  5
9B4E
  8
0
 62
     0
 10
411.63348164640092
 20
873.814243082335
 30
0.0
 11
317.2067246464008
 21
873.814243082335
 31
0.0
  0
LINE
  5
9B4F
  8
0
 62
     0
 10
411.63348164640092
 20
870.86655108233492
 30
0.0
 11
324.01912864640099
 21
870.86655108233492
 31
0.0
  0
LINE
  5
9B50
  8
0
 62
     0
 10
409.55456064640111
 20
925.33639908233522
 30
0.0
 11
409.55456064640111
 21
923.33639908233522
 31
0.0
  0
LINE
  5
9B51
  8
0
 62
     0
 10
214.71240264640119
 20
923.33639908233522
 30
0.0
 11
409.55456064640111
 21
923.33639908233522
 31
0.0
  0
LINE
  5
9B52
  8
0
 62
     0
 10
214.71240264640119
 20
925.33639908233522
 30
0.0
 11
409.55456064640111
 21
925.33639908233522
 31
0.0
  0
LINE
  5
9B53
  8
0
 62
     0
 10
214.71240264640119
 20
914.33639908233533
 30
0.0
 11
409.55456064640111
 21
914.33639908233533
 31
0.0
  0
LINE
  5
9B54
  8
0
 62
     0
 10
214.71240264640119
 20
916.33639908233522
 30
0.0
 11
409.55456064640111
 21
916.33639908233522
 31
0.0
  0
LINE
  5
9B55
  8
0
 62
     0
 10
214.71240264640119
 20
903.33639908233511
 30
0.0
 11
409.55456064640111
 21
903.33639908233511
 31
0.0
  0
LINE
  5
9B56
  8
0
 62
     0
 10
214.71240264640119
 20
905.33639908233533
 30
0.0
 11
409.55456064640111
 21
905.33639908233533
 31
0.0
  0
LINE
  5
9B57
  8
0
 62
     0
 10
214.71240264640119
 20
892.33639908233522
 30
0.0
 11
409.55456064640111
 21
892.33639908233522
 31
0.0
  0
LINE
  5
9B58
  8
0
 62
     0
 10
214.71240264640119
 20
894.33639908233511
 30
0.0
 11
409.55456064640111
 21
894.33639908233511
 31
0.0
  0
LINE
  5
9B59
  8
0
 62
     0
 10
214.71240264640119
 20
881.33639908233522
 30
0.0
 11
409.55456064640111
 21
881.33639908233522
 31
0.0
  0
LINE
  5
9B5A
  8
0
 62
     0
 10
214.71240264640119
 20
883.33639908233522
 30
0.0
 11
409.55456064640111
 21
883.33639908233522
 31
0.0
  0
LINE
  5
9B5B
  8
0
 62
     0
 10
323.4084586464009
 20
871.33639908233511
 30
0.0
 11
409.55456064640111
 21
871.33639908233511
 31
0.0
  0
LINE
  5
9B5C
  8
0
 62
     0
 10
317.68021964640087
 20
873.33639908233522
 30
0.0
 11
409.55456064640111
 21
873.33639908233522
 31
0.0
  0
LINE
  5
9B5D
  8
0
 62
     0
 10
409.55456064640111
 20
925.33639908233522
 30
0.0
 11
411.63348164640092
 21
926.01366708233525
 31
0.0
  0
LINE
  5
9B5E
  8
0
 62
     0
 10
409.55456064640111
 20
923.33639908233522
 30
0.0
 11
411.63348164640092
 21
922.76935708233509
 31
0.0
  0
LINE
  5
9B5F
  8
0
 62
     0
 10
409.55456064640111
 20
916.33639908233522
 30
0.0
 11
411.63348164640092
 21
916.94179408233504
 31
0.0
  0
LINE
  5
9B60
  8
0
 62
     0
 10
409.55456064640111
 20
914.33639908233533
 30
0.0
 11
411.63348164640092
 21
913.81088108233519
 31
0.0
  0
LINE
  5
9B61
  8
0
 62
     0
 10
409.55456064640111
 20
905.33639908233533
 30
0.0
 11
411.63348164640092
 21
905.88670808233519
 31
0.0
  0
LINE
  5
9B62
  8
0
 62
     0
 10
409.55456064640111
 20
903.33639908233511
 30
0.0
 11
411.63348164640092
 21
902.84100208233519
 31
0.0
  0
LINE
  5
9B63
  8
0
 62
     0
 10
409.55456064640111
 20
894.33639908233511
 30
0.0
 11
411.63348164640092
 21
894.85083408233504
 31
0.0
  0
LINE
  5
9B64
  8
0
 62
     0
 10
409.55456064640111
 20
892.33639908233522
 30
0.0
 11
411.63348164640092
 21
891.85820708233507
 31
0.0
  0
LINE
  5
9B65
  8
0
 62
     0
 10
409.55456064640111
 20
883.33639908233522
 30
0.0
 11
411.63348164640092
 21
883.82750608233505
 31
0.0
  0
LINE
  5
9B66
  8
0
 62
     0
 10
409.55456064640111
 20
881.33639908233522
 30
0.0
 11
411.63348164640092
 21
880.86602708233522
 31
0.0
  0
LINE
  5
9B67
  8
0
 62
     0
 10
409.55456064640111
 20
873.33639908233522
 30
0.0
 11
411.63348164640092
 21
873.814243082335
 31
0.0
  0
LINE
  5
9B68
  8
0
 62
     0
 10
409.55456064640111
 20
871.33639908233511
 30
0.0
 11
411.63348164640092
 21
870.86655108233492
 31
0.0
  0
LINE
  5
9B69
  8
0
 62
     0
 10
409.55456064640111
 20
916.33639908233522
 30
0.0
 11
409.55456064640111
 21
914.33639908233533
 31
0.0
  0
LINE
  5
9B6A
  8
0
 62
     0
 10
409.55456064640111
 20
905.33639908233533
 30
0.0
 11
409.55456064640111
 21
903.33639908233511
 31
0.0
  0
LINE
  5
9B6B
  8
0
 62
     0
 10
409.55456064640111
 20
894.33639908233511
 30
0.0
 11
409.55456064640111
 21
892.33639908233522
 31
0.0
  0
LINE
  5
9B6C
  8
0
 62
     0
 10
409.55456064640111
 20
883.33639908233522
 30
0.0
 11
409.55456064640111
 21
881.33639908233522
 31
0.0
  0
LINE
  5
9B6D
  8
0
 62
     0
 10
409.55456064640111
 20
873.33639908233522
 30
0.0
 11
409.55456064640111
 21
871.33639908233511
 31
0.0
  0
ARC
  5
9B6E
  8
0
 62
     0
 10
323.4084586464009
 20
868.33639908233522
 30
0.0
 40
3.0
 50
90.0
 51
190.28656099999421
  0
ARC
  5
9B6F
  8
0
 62
     0
 10
324.01912864640099
 20
867.39655108233501
 30
0.0
 40
3.4700000000000002
 50
90.0
 51
186.1896490000004
  0
LINE
  5
9B70
  8
0
 62
     0
 10
229.71240264640119
 20
873.33639908233522
 30
0.0
 11
229.71240264640119
 21
871.33639908233511
 31
0.0
  0
LINE
  5
9B71
  8
0
 62
     0
 10
214.71240264640119
 20
883.33639908233522
 30
0.0
 11
214.71240264640119
 21
881.33639908233522
 31
0.0
  0
LINE
  5
9B72
  8
0
 62
     0
 10
214.71240264640119
 20
894.33639908233511
 30
0.0
 11
214.71240264640119
 21
892.33639908233522
 31
0.0
  0
LINE
  5
9B73
  8
0
 62
     0
 10
214.71240264640119
 20
905.33639908233533
 30
0.0
 11
214.71240264640119
 21
903.33639908233511
 31
0.0
  0
LINE
  5
9B74
  8
0
 62
     0
 10
214.71240264640119
 20
916.33639908233522
 30
0.0
 11
214.71240264640119
 21
914.33639908233533
 31
0.0
  0
LINE
  5
9B75
  8
0
 62
     0
 10
229.71240264640119
 20
871.33639908233511
 30
0.0
 11
227.6334816464009
 21
870.86655108233492
 31
0.0
  0
LINE
  5
9B76
  8
0
 62
     0
 10
229.71240264640119
 20
873.33639908233522
 30
0.0
 11
227.6334816464009
 21
873.814243082335
 31
0.0
  0
LINE
  5
9B77
  8
0
 62
     0
 10
214.71240264640119
 20
881.33639908233522
 30
0.0
 11
212.6334816464009
 21
880.86602708233522
 31
0.0
  0
LINE
  5
9B78
  8
0
 62
     0
 10
214.71240264640119
 20
883.33639908233522
 30
0.0
 11
212.6334816464009
 21
883.82750608233505
 31
0.0
  0
LINE
  5
9B79
  8
0
 62
     0
 10
214.71240264640119
 20
892.33639908233522
 30
0.0
 11
212.6334816464009
 21
891.85820708233507
 31
0.0
  0
LINE
  5
9B7A
  8
0
 62
     0
 10
214.71240264640119
 20
894.33639908233511
 30
0.0
 11
212.6334816464009
 21
894.85083408233504
 31
0.0
  0
LINE
  5
9B7B
  8
0
 62
     0
 10
214.71240264640119
 20
903.33639908233511
 30
0.0
 11
212.6334816464009
 21
902.84100208233519
 31
0.0
  0
LINE
  5
9B7C
  8
0
 62
     0
 10
214.71240264640119
 20
905.33639908233533
 30
0.0
 11
212.6334816464009
 21
905.88670808233519
 31
0.0
  0
LINE
  5
9B7D
  8
0
 62
     0
 10
214.71240264640119
 20
914.33639908233533
 30
0.0
 11
212.6334816464009
 21
913.81088108233519
 31
0.0
  0
LINE
  5
9B7E
  8
0
 62
     0
 10
214.71240264640119
 20
916.33639908233522
 30
0.0
 11
212.6334816464009
 21
916.94179408233504
 31
0.0
  0
LINE
  5
9B7F
  8
0
 62
     0
 10
214.71240264640119
 20
923.33639908233522
 30
0.0
 11
212.6334816464009
 21
922.76935708233509
 31
0.0
  0
LINE
  5
9B80
  8
0
 62
     0
 10
214.71240264640119
 20
925.33639908233522
 30
0.0
 11
212.6334816464009
 21
926.01366708233525
 31
0.0
  0
LINE
  5
9B81
  8
0
 62
     0
 10
214.71240264640119
 20
925.33639908233522
 30
0.0
 11
214.71240264640119
 21
923.33639908233522
 31
0.0
  0
LINE
  5
9B82
  8
0
 62
     0
 10
212.6334816464009
 20
922.76935708233509
 30
0.0
 11
212.6334816464009
 21
926.01366708233525
 31
0.0
  0
LINE
  5
9B83
  8
0
 62
     0
 10
212.6334816464009
 20
913.81088108233519
 30
0.0
 11
212.6334816464009
 21
916.94179408233504
 31
0.0
  0
LINE
  5
9B84
  8
0
 62
     0
 10
212.6334816464009
 20
902.84100208233519
 30
0.0
 11
212.6334816464009
 21
905.88670808233519
 31
0.0
  0
LINE
  5
9B85
  8
0
 62
     0
 10
212.6334816464009
 20
891.85820708233507
 30
0.0
 11
212.6334816464009
 21
894.85083408233504
 31
0.0
  0
LINE
  5
9B86
  8
0
 62
     0
 10
212.6334816464009
 20
880.86602708233522
 30
0.0
 11
212.6334816464009
 21
883.82750608233505
 31
0.0
  0
LINE
  5
9B87
  8
0
 62
     0
 10
227.6334816464009
 20
870.86655108233492
 30
0.0
 11
227.6334816464009
 21
873.814243082335
 31
0.0
  0
LINE
  5
9B88
  8
0
 62
     0
 10
227.6334816464009
 20
873.814243082335
 30
0.0
 11
302.06023864640122
 21
873.814243082335
 31
0.0
  0
LINE
  5
9B89
  8
0
 62
     0
 10
227.6334816464009
 20
870.86655108233492
 30
0.0
 11
295.24783464640092
 21
870.86655108233492
 31
0.0
  0
LINE
  5
9B8A
  8
0
 62
     0
 10
295.85850464640089
 20
871.33639908233511
 30
0.0
 11
229.71240264640119
 21
871.33639908233511
 31
0.0
  0
LINE
  5
9B8B
  8
0
 62
     0
 10
301.58674364640092
 20
873.33639908233522
 30
0.0
 11
229.71240264640119
 21
873.33639908233522
 31
0.0
  0
ARC
  5
9B8C
  8
0
 62
     0
 10
295.85850464640089
 20
868.33639908233522
 30
0.0
 40
3.0
 50
349.71343900000568
 51
90.0
  0
ARC
  5
9B8D
  8
0
 62
     0
 10
295.24783464640092
 20
867.39655108233501
 30
0.0
 40
3.4700000000000002
 50
353.81035099999951
 51
90.0
  0
LINE
  5
9B8E
  8
0
 62
     0
 10
411.63348164640092
 20
825.78609008233525
 30
0.0
 11
212.6334816464009
 21
825.78609008233525
 31
0.0
  0
LINE
  5
9B8F
  8
0
 62
     0
 10
411.63348164640092
 20
828.83179608233502
 30
0.0
 11
212.6334816464009
 21
828.83179608233502
 31
0.0
  0
LINE
  5
9B90
  8
0
 62
     0
 10
411.63348164640092
 20
836.82196408233506
 30
0.0
 11
212.6334816464009
 21
836.82196408233506
 31
0.0
  0
LINE
  5
9B91
  8
0
 62
     0
 10
411.63348164640092
 20
839.81459108233526
 30
0.0
 11
212.6334816464009
 21
839.81459108233526
 31
0.0
  0
LINE
  5
9B92
  8
0
 62
     0
 10
411.63348164640092
 20
847.84529208233516
 30
0.0
 11
212.6334816464009
 21
847.84529208233516
 31
0.0
  0
LINE
  5
9B93
  8
0
 62
     0
 10
411.63348164640092
 20
850.80677108233522
 30
0.0
 11
212.6334816464009
 21
850.80677108233522
 31
0.0
  0
LINE
  5
9B94
  8
0
 62
     0
 10
214.71240264640119
 20
828.33639908233511
 30
0.0
 11
409.55456064640111
 21
828.33639908233511
 31
0.0
  0
LINE
  5
9B95
  8
0
 62
     0
 10
214.71240264640119
 20
826.33639908233522
 30
0.0
 11
409.55456064640111
 21
826.33639908233522
 31
0.0
  0
LINE
  5
9B96
  8
0
 62
     0
 10
214.71240264640119
 20
839.33639908233533
 30
0.0
 11
409.55456064640111
 21
839.33639908233533
 31
0.0
  0
LINE
  5
9B97
  8
0
 62
     0
 10
214.71240264640119
 20
837.33639908233511
 30
0.0
 11
409.55456064640111
 21
837.33639908233511
 31
0.0
  0
LINE
  5
9B98
  8
0
 62
     0
 10
214.71240264640119
 20
850.33639908233522
 30
0.0
 11
409.55456064640111
 21
850.33639908233522
 31
0.0
  0
LINE
  5
9B99
  8
0
 62
     0
 10
214.71240264640119
 20
848.33639908233522
 30
0.0
 11
409.55456064640111
 21
848.33639908233522
 31
0.0
  0
LINE
  5
9B9A
  8
0
 62
     0
 10
227.6334816464009
 20
857.8585550823351
 30
0.0
 11
302.06023864640122
 21
857.8585550823351
 31
0.0
  0
LINE
  5
9B9B
  8
0
 62
     0
 10
227.6334816464009
 20
860.80624708233518
 30
0.0
 11
295.24783464640092
 21
860.80624708233518
 31
0.0
  0
LINE
  5
9B9C
  8
0
 62
     0
 10
295.85850464640089
 20
860.33639908233522
 30
0.0
 11
229.71240264640119
 21
860.33639908233522
 31
0.0
  0
LINE
  5
9B9D
  8
0
 62
     0
 10
301.58674364640092
 20
858.33639908233522
 30
0.0
 11
229.71240264640119
 21
858.33639908233522
 31
0.0
  0
LINE
  5
9B9E
  8
0
 62
     0
 10
227.6334816464009
 20
860.80624708233518
 30
0.0
 11
227.6334816464009
 21
857.8585550823351
 31
0.0
  0
LINE
  5
9B9F
  8
0
 62
     0
 10
212.6334816464009
 20
850.80677108233522
 30
0.0
 11
212.6334816464009
 21
847.84529208233516
 31
0.0
  0
LINE
  5
9BA0
  8
0
 62
     0
 10
212.6334816464009
 20
839.81459108233526
 30
0.0
 11
212.6334816464009
 21
836.82196408233506
 31
0.0
  0
LINE
  5
9BA1
  8
0
 62
     0
 10
212.6334816464009
 20
828.83179608233502
 30
0.0
 11
212.6334816464009
 21
825.78609008233525
 31
0.0
  0
LINE
  5
9BA2
  8
0
 62
     0
 10
214.71240264640119
 20
826.33639908233522
 30
0.0
 11
212.6334816464009
 21
825.78609008233525
 31
0.0
  0
LINE
  5
9BA3
  8
0
 62
     0
 10
214.71240264640119
 20
828.33639908233511
 30
0.0
 11
212.6334816464009
 21
828.83179608233502
 31
0.0
  0
LINE
  5
9BA4
  8
0
 62
     0
 10
214.71240264640119
 20
837.33639908233511
 30
0.0
 11
212.6334816464009
 21
836.82196408233506
 31
0.0
  0
LINE
  5
9BA5
  8
0
 62
     0
 10
214.71240264640119
 20
839.33639908233533
 30
0.0
 11
212.6334816464009
 21
839.81459108233526
 31
0.0
  0
LINE
  5
9BA6
  8
0
 62
     0
 10
214.71240264640119
 20
848.33639908233522
 30
0.0
 11
212.6334816464009
 21
847.84529208233516
 31
0.0
  0
LINE
  5
9BA7
  8
0
 62
     0
 10
214.71240264640119
 20
850.33639908233522
 30
0.0
 11
212.6334816464009
 21
850.80677108233522
 31
0.0
  0
LINE
  5
9BA8
  8
0
 62
     0
 10
229.71240264640119
 20
858.33639908233522
 30
0.0
 11
227.6334816464009
 21
857.8585550823351
 31
0.0
  0
LINE
  5
9BA9
  8
0
 62
     0
 10
229.71240264640119
 20
860.33639908233522
 30
0.0
 11
227.6334816464009
 21
860.80624708233518
 31
0.0
  0
LINE
  5
9BAA
  8
0
 62
     0
 10
214.71240264640119
 20
826.33639908233522
 30
0.0
 11
214.71240264640119
 21
828.33639908233511
 31
0.0
  0
LINE
  5
9BAB
  8
0
 62
     0
 10
214.71240264640119
 20
837.33639908233511
 30
0.0
 11
214.71240264640119
 21
839.33639908233533
 31
0.0
  0
LINE
  5
9BAC
  8
0
 62
     0
 10
214.71240264640119
 20
848.33639908233522
 30
0.0
 11
214.71240264640119
 21
850.33639908233522
 31
0.0
  0
LINE
  5
9BAD
  8
0
 62
     0
 10
229.71240264640119
 20
858.33639908233522
 30
0.0
 11
229.71240264640119
 21
860.33639908233522
 31
0.0
  0
ARC
  5
9BAE
  8
0
 62
     0
 10
295.85850464640089
 20
863.33639908233533
 30
0.0
 40
3.0
 50
270.0
 51
10.28656099999424
  0
ARC
  5
9BAF
  8
0
 62
     0
 10
295.24783464640092
 20
864.27624708233532
 30
0.0
 40
3.4700000000000002
 50
270.0
 51
6.1896490000005366
  0
LINE
  5
9BB0
  8
0
 62
     0
 10
411.63348164640092
 20
857.8585550823351
 30
0.0
 11
317.2067246464008
 21
857.8585550823351
 31
0.0
  0
LINE
  5
9BB1
  8
0
 62
     0
 10
411.63348164640092
 20
860.80624708233518
 30
0.0
 11
324.01912864640099
 21
860.80624708233518
 31
0.0
  0
LINE
  5
9BB2
  8
0
 62
     0
 10
323.4084586464009
 20
860.33639908233522
 30
0.0
 11
409.55456064640111
 21
860.33639908233522
 31
0.0
  0
LINE
  5
9BB3
  8
0
 62
     0
 10
317.68021964640087
 20
858.33639908233522
 30
0.0
 11
409.55456064640111
 21
858.33639908233522
 31
0.0
  0
ARC
  5
9BB4
  8
0
 62
     0
 10
323.4084586464009
 20
863.33639908233533
 30
0.0
 40
3.0
 50
169.71343900000571
 51
270.0
  0
ARC
  5
9BB5
  8
0
 62
     0
 10
324.01912864640099
 20
864.27624708233532
 30
0.0
 40
3.4700000000000002
 50
173.8103509999994
 51
270.0
  0
LINE
  5
9BB6
  8
0
 62
     0
 10
409.55456064640111
 20
858.33639908233522
 30
0.0
 11
409.55456064640111
 21
860.33639908233522
 31
0.0
  0
LINE
  5
9BB7
  8
0
 62
     0
 10
409.55456064640111
 20
848.33639908233522
 30
0.0
 11
409.55456064640111
 21
850.33639908233522
 31
0.0
  0
LINE
  5
9BB8
  8
0
 62
     0
 10
409.55456064640111
 20
837.33639908233511
 30
0.0
 11
409.55456064640111
 21
839.33639908233533
 31
0.0
  0
LINE
  5
9BB9
  8
0
 62
     0
 10
409.55456064640111
 20
826.33639908233522
 30
0.0
 11
409.55456064640111
 21
828.33639908233511
 31
0.0
  0
LINE
  5
9BBA
  8
0
 62
     0
 10
409.55456064640111
 20
860.33639908233522
 30
0.0
 11
411.63348164640092
 21
860.80624708233518
 31
0.0
  0
LINE
  5
9BBB
  8
0
 62
     0
 10
409.55456064640111
 20
858.33639908233522
 30
0.0
 11
411.63348164640092
 21
857.8585550823351
 31
0.0
  0
LINE
  5
9BBC
  8
0
 62
     0
 10
409.55456064640111
 20
850.33639908233522
 30
0.0
 11
411.63348164640092
 21
850.80677108233522
 31
0.0
  0
LINE
  5
9BBD
  8
0
 62
     0
 10
409.55456064640111
 20
848.33639908233522
 30
0.0
 11
411.63348164640092
 21
847.84529208233516
 31
0.0
  0
LINE
  5
9BBE
  8
0
 62
     0
 10
409.55456064640111
 20
839.33639908233533
 30
0.0
 11
411.63348164640092
 21
839.81459108233526
 31
0.0
  0
LINE
  5
9BBF
  8
0
 62
     0
 10
409.55456064640111
 20
837.33639908233511
 30
0.0
 11
411.63348164640092
 21
836.82196408233506
 31
0.0
  0
LINE
  5
9BC0
  8
0
 62
     0
 10
409.55456064640111
 20
828.33639908233511
 30
0.0
 11
411.63348164640092
 21
828.83179608233502
 31
0.0
  0
LINE
  5
9BC1
  8
0
 62
     0
 10
409.55456064640111
 20
826.33639908233522
 30
0.0
 11
411.63348164640092
 21
825.78609008233525
 31
0.0
  0
LINE
  5
9BC2
  8
0
 62
     0
 10
411.63348164640092
 20
828.83179608233502
 30
0.0
 11
411.63348164640092
 21
825.78609008233525
 31
0.0
  0
LINE
  5
9BC3
  8
0
 62
     0
 10
411.63348164640092
 20
839.81459108233526
 30
0.0
 11
411.63348164640092
 21
836.82196408233506
 31
0.0
  0
LINE
  5
9BC4
  8
0
 62
     0
 10
411.63348164640092
 20
850.80677108233522
 30
0.0
 11
411.63348164640092
 21
847.84529208233516
 31
0.0
  0
LINE
  5
9BC5
  8
0
 62
     0
 10
411.63348164640092
 20
860.80624708233518
 30
0.0
 11
411.63348164640092
 21
857.8585550823351
 31
0.0
  0
LINE
  5
9BC6
  8
0
 62
     0
 10
344.55456064640072
 20
817.33639908233522
 30
0.0
 11
346.63348164640092
 21
817.8317960823349
 31
0.0
  0
LINE
  5
9BC7
  8
0
 62
     0
 10
346.63348164640092
 20
817.8317960823349
 30
0.0
 11
212.6334816464009
 21
817.8317960823349
 31
0.0
  0
LINE
  5
9BC8
  8
0
 62
     0
 10
214.71240264640119
 20
817.33639908233522
 30
0.0
 11
344.55456064640072
 21
817.33639908233522
 31
0.0
  0
LINE
  5
9BC9
  8
0
 62
     0
 10
344.55456064640072
 20
815.33639908233522
 30
0.0
 11
344.55456064640072
 21
817.33639908233522
 31
0.0
  0
LINE
  5
9BCA
  8
0
 62
     0
 10
346.63348164640092
 20
814.78609008233525
 30
0.0
 11
212.6334816464009
 21
814.78609008233525
 31
0.0
  0
LINE
  5
9BCB
  8
0
 62
     0
 10
214.71240264640119
 20
815.33639908233522
 30
0.0
 11
344.55456064640072
 21
815.33639908233522
 31
0.0
  0
LINE
  5
9BCC
  8
0
 62
     0
 10
344.55456064640072
 20
815.33639908233522
 30
0.0
 11
346.63348164640092
 21
814.78609008233525
 31
0.0
  0
LINE
  5
9BCD
  8
0
 62
     0
 10
346.63348164640092
 20
808.8317960823349
 30
0.0
 11
212.6334816464009
 21
808.8317960823349
 31
0.0
  0
LINE
  5
9BCE
  8
0
 62
     0
 10
214.71240264640119
 20
808.33639908233522
 30
0.0
 11
344.55456064640072
 21
808.33639908233522
 31
0.0
  0
LINE
  5
9BCF
  8
0
 62
     0
 10
346.63348164640092
 20
805.78609008233525
 30
0.0
 11
212.6670386464007
 21
805.78609008233525
 31
0.0
  0
LINE
  5
9BD0
  8
0
 62
     0
 10
214.71240264640119
 20
806.33639908233522
 30
0.0
 11
344.55456064640072
 21
806.33639908233522
 31
0.0
  0
LINE
  5
9BD1
  8
0
 62
     0
 10
344.55456064640072
 20
806.33639908233522
 30
0.0
 11
346.63348164640092
 21
805.78609008233525
 31
0.0
  0
LINE
  5
9BD2
  8
0
 62
     0
 10
346.63348164640092
 20
808.8317960823349
 30
0.0
 11
346.63348164640092
 21
805.78609008233525
 31
0.0
  0
LINE
  5
9BD3
  8
0
 62
     0
 10
344.55456064640072
 20
806.33639908233522
 30
0.0
 11
344.55456064640072
 21
808.33639908233522
 31
0.0
  0
LINE
  5
9BD4
  8
0
 62
     0
 10
344.55456064640072
 20
808.33639908233522
 30
0.0
 11
346.63348164640092
 21
808.8317960823349
 31
0.0
  0
LINE
  5
9BD5
  8
0
 62
     0
 10
346.63348164640092
 20
805.78609008233525
 30
0.0
 11
361.63348164640092
 21
805.78609008233525
 31
0.0
  0
LINE
  5
9BD6
  8
0
 62
     0
 10
361.63348164640092
 20
805.78609008233525
 30
0.0
 11
377.63348164640092
 21
801.44416508233519
 31
0.0
  0
LINE
  5
9BD7
  8
0
 62
     0
 10
212.6334816464009
 20
817.8317960823349
 30
0.0
 11
212.6334816464009
 21
814.78609008233525
 31
0.0
  0
LINE
  5
9BD8
  8
0
 62
     0
 10
212.6334816464009
 20
808.8317960823349
 30
0.0
 11
212.6334816464009
 21
805.78609008233525
 31
0.0
  0
LINE
  5
9BD9
  8
0
 62
     0
 10
214.71240264640119
 20
815.33639908233522
 30
0.0
 11
214.71240264640119
 21
817.33639908233522
 31
0.0
  0
LINE
  5
9BDA
  8
0
 62
     0
 10
214.71240264640119
 20
817.33639908233522
 30
0.0
 11
212.6334816464009
 21
817.8317960823349
 31
0.0
  0
LINE
  5
9BDB
  8
0
 62
     0
 10
214.71240264640119
 20
815.33639908233522
 30
0.0
 11
212.6334816464009
 21
814.78609008233525
 31
0.0
  0
LINE
  5
9BDC
  8
0
 62
     0
 10
214.71240264640119
 20
808.33639908233522
 30
0.0
 11
212.6334816464009
 21
808.8317960823349
 31
0.0
  0
LINE
  5
9BDD
  8
0
 62
     0
 10
214.71240264640119
 20
806.33639908233522
 30
0.0
 11
214.71240264640119
 21
808.33639908233522
 31
0.0
  0
LINE
  5
9BDE
  8
0
 62
     0
 10
214.71240264640119
 20
806.33639908233522
 30
0.0
 11
212.6334816464009
 21
805.78609008233525
 31
0.0
  0
LINE
  5
9BDF
  8
0
 62
     0
 10
209.1334816464009
 20
873.48017008233523
 30
0.0
 11
215.6334816464009
 21
873.48017008233523
 31
0.0
  0
LINE
  5
9BE0
  8
0
 62
     0
 10
209.1334816464009
 20
873.81424808233521
 30
0.0
 11
216.31348164640079
 21
873.81424808233521
 31
0.0
  0
LINE
  5
9BE1
  8
0
 62
     0
 10
217.6334816464009
 20
871.48017008233523
 30
0.0
 11
217.6334816464009
 21
865.8364030823351
 31
0.0
  0
LINE
  5
9BE2
  8
0
 62
     0
 10
219.31348164640079
 20
876.8142480823351
 30
0.0
 11
219.31348164640079
 21
865.8364030823351
 31
0.0
  0
ARC
  5
9BE3
  8
0
 62
     0
 10
216.31348164640079
 20
876.8142480823351
 30
0.0
 40
3.0
 50
270.0
 51
0.0
  0
LINE
  5
9BE4
  8
0
 62
     0
 10
209.1334816464009
 20
858.19263508233496
 30
0.0
 11
215.6334816464009
 21
858.19263508233496
 31
0.0
  0
LINE
  5
9BE5
  8
0
 62
     0
 10
209.1334816464009
 20
857.8585570823351
 30
0.0
 11
216.31348164640079
 21
857.8585570823351
 31
0.0
  0
LINE
  5
9BE6
  8
0
 62
     0
 10
217.6334816464009
 20
860.19263508233507
 30
0.0
 11
217.6334816464009
 21
865.8364030823351
 31
0.0
  0
LINE
  5
9BE7
  8
0
 62
     0
 10
219.31348164640079
 20
854.85855708233521
 30
0.0
 11
219.31348164640079
 21
865.8364030823351
 31
0.0
  0
ARC
  5
9BE8
  8
0
 62
     0
 10
216.31348164640079
 20
854.85855708233521
 30
0.0
 40
3.0
 50
359.99999799999722
 51
89.999998000010223
  0
ARC
  5
9BE9
  8
0
  6
CONTINUOUS
 62
     0
 10
394.33328064640091
 20
811.27773808233519
 30
0.0
 40
2.6003989999999999
 50
179.99998200000081
 51
269.99997799999852
  0
ARC
  5
9BEA
  8
0
  6
CONTINUOUS
 62
     0
 10
394.33328064640091
 20
816.57772608233518
 30
0.0
 40
2.600403
 50
90.0
 51
179.99998200000081
  0
LINE
  5
9BEB
  8
0
  6
CONTINUOUS
 62
     0
 10
397.13348164640092
 20
813.99375708233515
 30
0.0
 11
395.63348164640092
 21
813.12773208233523
 31
0.0
  0
LINE
  5
9BEC
  8
0
  6
CONTINUOUS
 62
     0
 10
397.13348164640092
 20
814.99375708233504
 30
0.0
 11
395.63348164640092
 21
814.12773208233523
 31
0.0
  0
LINE
  5
9BED
  8
0
  6
CONTINUOUS
 62
     0
 10
397.13348164640092
 20
820.02773208233509
 30
0.0
 11
397.13348164640092
 21
807.82773208233505
 31
0.0
  0
LINE
  5
9BEE
  8
0
  6
CONTINUOUS
 62
     0
 10
395.63348164640092
 20
820.02773208233509
 30
0.0
 11
397.13348164640092
 21
820.02773208233509
 31
0.0
  0
LINE
  5
9BEF
  8
0
  6
CONTINUOUS
 62
     0
 10
395.63348164640092
 20
807.82773208233505
 30
0.0
 11
397.13348164640092
 21
807.82773208233505
 31
0.0
  0
LINE
  5
9BF0
  8
0
  6
CONTINUOUS
 62
     0
 10
391.73348764640087
 20
816.57772608233518
 30
0.0
 11
391.73348764640087
 21
811.27773808233519
 31
0.0
  0
LINE
  5
9BF1
  8
0
  6
CONTINUOUS
 62
     0
 10
395.63348164640092
 20
820.02773208233509
 30
0.0
 11
395.63348164640092
 21
807.82773208233505
 31
0.0
  0
LINE
  5
9BF2
  8
0
  6
CONTINUOUS
 62
     0
 10
395.63348164640092
 20
808.67773208233507
 30
0.0
 11
394.33328064640091
 21
808.67773208233507
 31
0.0
  0
LINE
  5
9BF3
  8
0
  6
CONTINUOUS
 62
     0
 10
395.63348164640092
 20
819.17773208233496
 30
0.0
 11
394.33328064640091
 21
819.17773208233496
 31
0.0
  0
ARC
  5
9BF4
  8
0
  6
CONTINUOUS
 62
     0
 10
394.33328064640091
 20
937.31966508233495
 30
0.0
 40
2.6003989999999999
 50
179.99998200000081
 51
269.99997799999852
  0
ARC
  5
9BF5
  8
0
  6
CONTINUOUS
 62
     0
 10
394.33328064640091
 20
942.61965308233505
 30
0.0
 40
2.600403
 50
90.0
 51
179.99998200000081
  0
LINE
  5
9BF6
  8
0
  6
CONTINUOUS
 62
     0
 10
397.13348164640092
 20
940.03568408233502
 30
0.0
 11
395.63348164640092
 21
939.16965908233499
 31
0.0
  0
LINE
  5
9BF7
  8
0
  6
CONTINUOUS
 62
     0
 10
397.13348164640092
 20
941.03568408233502
 30
0.0
 11
395.63348164640092
 21
940.16965908233499
 31
0.0
  0
LINE
  5
9BF8
  8
0
  6
CONTINUOUS
 62
     0
 10
397.13348164640092
 20
946.06965908233508
 30
0.0
 11
397.13348164640092
 21
933.86965908233458
 31
0.0
  0
LINE
  5
9BF9
  8
0
  6
CONTINUOUS
 62
     0
 10
395.63348164640092
 20
946.06965908233508
 30
0.0
 11
397.13348164640092
 21
946.06965908233508
 31
0.0
  0
LINE
  5
9BFA
  8
0
  6
CONTINUOUS
 62
     0
 10
395.63348164640092
 20
933.86965908233458
 30
0.0
 11
397.13348164640092
 21
933.86965908233458
 31
0.0
  0
LINE
  5
9BFB
  8
0
  6
CONTINUOUS
 62
     0
 10
391.73348764640087
 20
942.61965308233505
 30
0.0
 11
391.73348764640087
 21
937.31966508233495
 31
0.0
  0
LINE
  5
9BFC
  8
0
  6
CONTINUOUS
 62
     0
 10
395.63348164640092
 20
946.06965908233508
 30
0.0
 11
395.63348164640092
 21
933.86965908233458
 31
0.0
  0
LINE
  5
9BFD
  8
0
  6
CONTINUOUS
 62
     0
 10
395.63348164640092
 20
934.71965908233506
 30
0.0
 11
394.33328064640091
 21
934.71965908233506
 31
0.0
  0
LINE
  5
9BFE
  8
0
  6
CONTINUOUS
 62
     0
 10
395.63348164640092
 20
945.21965908233506
 30
0.0
 11
394.33328064640091
 21
945.21965908233506
 31
0.0
  0
LINE
  5
9D5F
  8
0
  6
CONTINUOUS
 62
     0
 10
416.63348164640092
 20
941.57604308233522
 30
0.0
 11
432.63341164640087
 21
941.57604308233522
 31
0.0
  0
LINE
  5
9D60
  8
0
  6
CONTINUOUS
 62
     0
 10
416.63348164640092
 20
927.90236108233535
 30
0.0
 11
432.63341164640087
 21
927.90236108233535
 31
0.0
  0
LINE
  5
9D61
  8
0
  6
CONTINUOUS
 62
     0
 10
416.63348164640092
 20
815.93440108233494
 30
0.0
 11
432.63341164640087
 21
815.93440108233494
 31
0.0
  0
LINE
  5
9D62
  8
0
  6
CONTINUOUS
 62
     0
 10
416.63348164640092
 20
826.11369308233509
 30
0.0
 11
432.63341164640087
 21
826.11369308233509
 31
0.0
  0
LINE
  5
9D63
  8
0
  6
CONTINUOUS
 62
     0
 10
416.63348164640092
 20
803.62676208233518
 30
0.0
 11
432.63341164640087
 21
803.62676208233518
 31
0.0
  0
LINE
  5
9D64
  8
0
 62
     0
 10
416.63348164640081
 20
869.83633908233514
 30
0.0
 11
416.63348164640092
 21
950.83639908233533
 31
0.0
  0
LINE
  5
9D67
  8
0
 62
     0
 10
413.63348164640092
 20
869.83633908233514
 30
0.0
 11
413.63348164640092
 21
927.90236108233535
 31
0.0
  0
LINE
  5
A0B3
  8
AM_0
 10
434.5636816464006
 20
644.17959343870905
 30
0.0
 11
445.63348164640092
 21
644.56614343870899
 31
0.0
  0
LINE
  5
A0B4
  8
AM_0
 10
418.6335316464012
 20
598.13600343870905
 30
0.0
 11
418.6335316464012
 21
642.56614343870865
 31
0.0
  0
LINE
  5
A0B5
  8
AM_0
 10
416.63348164640092
 20
431.06614843870898
 30
0.0
 11
429.73818164640079
 21
430.60853843870871
 31
0.0
  0
LINE
  5
A0B6
  8
AM_0
 10
432.63348164640092
 20
386.95152343870888
 30
0.0
 11
432.63348164640092
 21
642.18084343870908
 31
0.0
  0
LINE
  5
A0B7
  8
AM_0
 10
416.63348164640092
 20
598.06614843870886
 30
0.0
 11
418.6335316464012
 21
598.13600343870905
 31
0.0
  0
LINE
  5
A0B8
  8
AM_0
 10
418.6335316464012
 20
598.13600343870905
 30
0.0
 11
429.73818164640079
 21
598.52379343870905
 31
0.0
  0
LINE
  5
A0B9
  8
AM_0
 10
419.3106316464013
 20
644.06619343870886
 30
0.0
 11
433.9660816464006
 21
644.06619343870886
 31
0.0
  0
LINE
  5
A0BA
  8
AM_0
 10
421.8163816464006
 20
651.06614343870865
 30
0.0
 11
437.45058164640108
 21
651.06614343870865
 31
0.0
  0
LINE
  5
A0BB
  8
AM_0
 10
439.55638164640038
 20
644.35394343870905
 30
0.0
 11
437.92123164640128
 21
650.45624343870895
 31
0.0
  0
LINE
  5
A0BC
  8
AM_0
 10
419.63353164640131
 20
644.06614343870899
 30
0.0
 11
421.34573164640142
 21
650.45629343870917
 31
0.0
  0
LINE
  5
A0BD
  8
AM_0
 10
422.12998164640112
 20
651.18084343870908
 30
0.0
 11
429.63338164640061
 21
652.56619343870875
 31
0.0
  0
LINE
  5
A0BE
  8
AM_0
 10
429.63348164640092
 20
652.56614343870899
 30
0.0
 11
437.13688164640052
 21
651.18079343870875
 31
0.0
  0
LINE
  5
A0BF
  8
AM_0
 10
418.6335316464012
 20
483.45573343870882
 30
0.0
 11
418.6335316464012
 21
458.71324343870913
 31
0.0
  0
LINE
  5
A0C0
  8
AM_0
 10
418.6335316464012
 20
483.45573343870882
 30
0.0
 11
432.63348164640092
 21
483.45573343870882
 31
0.0
  0
LINE
  5
A0C1
  8
AM_0
 10
418.6335316464012
 20
471.70362843870902
 30
0.0
 11
432.63348164640092
 21
471.70362843870902
 31
0.0
  0
LINE
  5
A0C2
  8
AM_0
 10
418.6335316464012
 20
458.71324343870913
 30
0.0
 11
432.63348164640092
 21
458.71324343870913
 31
0.0
  0
LINE
  5
A0C3
  8
AM_0
 10
581.63348164640092
 20
576.56617843870902
 30
0.0
 11
637.63348164640092
 21
576.56617843870902
 31
0.0
  0
LINE
  5
A0C4
  8
AM_0
 10
581.63348164640092
 20
576.56617843870902
 30
0.0
 11
581.63348164640092
 21
573.56617843870868
 31
0.0
  0
LINE
  5
A0C5
  8
AM_0
 10
637.63348164640092
 20
531.5661784387089
 30
0.0
 11
637.63348164640092
 21
576.56617843870902
 31
0.0
  0
LINE
  5
A0C6
  8
AM_0
 10
567.63348164640092
 20
530.06614843870909
 30
0.0
 11
567.63348164640092
 21
575.06614843870909
 31
0.0
  0
LINE
  5
A0C7
  8
AM_0
 10
567.63348164640092
 20
531.5661784387089
 30
0.0
 11
637.63348164640092
 21
531.5661784387089
 31
0.0
  0
LINE
  5
A0C8
  8
AM_0
 10
567.63348164640092
 20
573.56617843870868
 30
0.0
 11
637.63348164640092
 21
573.56617843870868
 31
0.0
  0
LINE
  5
A0C9
  8
AM_0
 10
505.36203164640062
 20
383.06617843870828
 30
0.0
 11
551.63353164640125
 21
409.71693343870908
 31
0.0
  0
LINE
  5
A0CA
  8
AM_0
 10
445.63353164640148
 20
644.56619343870875
 30
0.0
 11
515.52168164640125
 21
646.39629343870888
 31
0.0
  0
LINE
  5
A0CB
  8
AM_0
 10
445.63353164640148
 20
384.56616343870888
 30
0.0
 11
445.63353164640148
 21
644.56619343870875
 31
0.0
  0
LINE
  5
A0CC
  8
AM_0
 10
543.63353164640125
 20
412.54417343870898
 30
0.0
 11
543.63353164640125
 21
461.05931343870918
 31
0.0
  0
LINE
  5
A0CD
  8
AM_0
 10
546.73818164640079
 20
409.54600343870868
 30
0.0
 11
561.63353164640148
 21
410.06614843870898
 31
0.0
  0
LINE
  5
A0CE
  8
AM_0
 10
565.63353164640148
 20
552.56614843870886
 30
0.0
 11
565.63353164640148
 21
432.56614843870898
 31
0.0
  0
LINE
  5
A0CF
  8
AM_0
 10
432.63348164640092
 20
504.58516343870889
 30
0.0
 11
551.63348164640081
 21
504.58516343870889
 31
0.0
  0
LINE
  5
A0D0
  8
AM_0
 10
543.63353164640125
 20
574.05302843870902
 30
0.0
 11
543.63353164640125
 21
691.54049343870895
 31
0.0
  0
LINE
  5
A0D1
  8
AM_0
 10
561.63348164640092
 20
410.06614843870898
 30
0.0
 11
561.63348164640092
 21
695.06614343870899
 31
0.0
  0
LINE
  5
A0D2
  8
AM_0
 10
546.52878164640106
 20
694.53869343870883
 30
0.0
 11
561.63353164640148
 21
695.06614343870899
 31
0.0
  0
LINE
  5
A0D3
  8
AM_0
 10
518.84118164640086
 20
642.4414934387089
 30
0.0
 11
517.51578164640114
 21
646.44849343870874
 31
0.0
  0
LINE
  5
A0D4
  8
AM_0
 10
542.49898164640081
 20
570.91911343870891
 30
0.0
 11
526.24603164640064
 21
620.05513343870905
 31
0.0
  0
LINE
  5
A0D5
  8
AM_0
 10
432.63348164640092
 20
621.82667843870888
 30
0.0
 11
494.69498164640049
 21
621.82667843870888
 31
0.0
  0
LINE
  5
A0D6
  8
AM_0
 10
432.63348164640092
 20
636.28346843870895
 30
0.0
 11
508.54403164640138
 21
636.28346843870895
 31
0.0
  0
LINE
  5
A0D7
  8
AM_0
 10
551.63348164640081
 20
552.56614843870886
 30
0.0
 11
551.63348164640081
 21
663.52344343870902
 31
0.0
  0
LINE
  5
A0D8
  8
AM_0
 10
565.63353164640148
 20
552.56614843870886
 30
0.0
 11
565.63353164640148
 21
672.56614343870899
 31
0.0
  0
LINE
  5
A0D9
  8
AM_0
 10
445.63348164640092
 20
384.56617843870902
 30
0.0
 11
505.36203164640062
 21
383.06617843870828
 31
0.0
  0
LINE
  5
A0DA
  8
AM_0
 10
561.63348164640092
 20
432.56614843870898
 30
0.0
 11
565.63353164640148
 21
432.56614843870898
 31
0.0
  0
LINE
  5
A0DB
  8
AM_0
 10
551.63348164640081
 20
552.56614843870886
 30
0.0
 11
551.63348164640081
 21
441.608873438709
 31
0.0
  0
LINE
  5
A0DC
  8
AM_0
 10
432.63348164640092
 20
524.54716843870904
 30
0.0
 11
551.63348164640081
 21
524.54716843870904
 31
0.0
  0
LINE
  5
A0DD
  8
AM_0
 10
547.24608164640131
 20
567.48933843870907
 30
0.0
 11
551.63348164640081
 21
567.48933843870907
 31
0.0
  0
LINE
  5
A0DE
  8
AM_0
 10
561.63348164640092
 20
672.56614343870899
 30
0.0
 11
565.63353164640148
 21
672.56614343870899
 31
0.0
  0
LINE
  5
A0DF
  8
AM_0
 10
518.9263816464013
 20
647.85894343870916
 30
0.0
 11
542.16903164640132
 21
671.10169343870905
 31
0.0
  0
LINE
  5
A0E0
  8
AM_0
 10
473.63353164640131
 20
451.20420843870909
 30
0.0
 11
543.63353164640125
 21
451.20420843870909
 31
0.0
  0
LINE
  5
A0E1
  8
AM_0
 10
473.63353164640131
 20
431.76191843870907
 30
0.0
 11
543.63353164640125
 21
431.76191843870907
 31
0.0
  0
LINE
  5
A0E2
  8
AM_0
 10
473.63353164640131
 20
433.60856843870903
 30
0.0
 11
473.63353164640131
 21
449.70857343870898
 31
0.0
  0
LINE
  5
A0E3
  8
AM_0
 10
497.13353164640131
 20
620.05510343870912
 30
0.0
 11
524.58653164640077
 21
620.05510343870912
 31
0.0
  0
LINE
  5
A0E4
  8
AM_0
 10
527.57628164640073
 20
621.04741343870899
 30
0.0
 11
543.63353164640125
 21
633.02623343870903
 31
0.0
  0
LINE
  5
A0E5
  8
AM_0
 10
541.19973164640078
 20
655.81279343870904
 30
0.0
 11
504.14083164640061
 21
633.65019843870903
 31
0.0
  0
LINE
  5
A0E6
  8
AM_0
 10
541.48613164640074
 20
649.5697934387091
 30
0.0
 11
499.72808164640111
 21
624.59697343870914
 31
0.0
  0
LINE
  5
A0E7
  8
AM_0
 10
565.63353164640148
 20
530.06614843870909
 30
0.0
 11
567.63348164640092
 21
530.06614843870909
 31
0.0
  0
LINE
  5
A0E8
  8
AM_0
 10
565.63353164640148
 20
575.06614843870909
 30
0.0
 11
567.63348164640092
 21
575.06614843870909
 31
0.0
  0
ARC
  5
A0E9
  8
AM_0
 10
420.63353164640148
 20
642.56614343870865
 30
0.0
 40
2.0000000500000001
 50
131.4096200000055
 51
180.000010000001
  0
ARC
  5
A0EA
  8
AM_0
 10
429.63353164640148
 20
427.61036843870897
 30
0.0
 40
3.0000000500000001
 50
0.0
 51
87.999999999996248
  0
ARC
  5
A0EB
  8
AM_0
 10
429.63353164640148
 20
601.52195843870891
 30
0.0
 40
3.0000000500000001
 50
272.00000000000369
 51
0.0
  0
ARC
  5
A0EC
  8
AM_0
 10
434.63353164640131
 20
642.18084343870908
 30
0.0
 40
2.0000000500000001
 50
91.999997999994051
 51
180.000010000001
  0
CIRCLE
  5
A0ED
  8
AM_0
 10
429.63353164640148
 20
665.06614343870899
 30
0.0
 40
12.5
  0
ARC
  5
A0EE
  8
AM_0
 10
429.63353164640148
 20
665.06614343870899
 30
0.0
 40
20.500000500000009
 50
304.61364000000231
 51
235.38634999999309
  0
ARC
  5
A0EF
  8
AM_0
 10
443.55043164640063
 20
644.90264343870876
 30
0.0
 40
4.000000049999997
 50
124.6136500000069
 51
187.86822000000149
  0
ARC
  5
A0F0
  8
AM_0
 10
415.71653164640111
 20
644.90264343870876
 30
0.0
 40
4.000000049999997
 50
347.9293300000017
 51
55.386358999968941
  0
ARC
  5
A0F1
  8
AM_0
 10
422.31168164640121
 20
650.197443438709
 30
0.0
 40
1.0
 50
100.4607199999833
 51
164.99998999999869
  0
ARC
  5
A0F2
  8
AM_0
 10
436.95538164640078
 20
650.197443438709
 30
0.0
 40
1.0
 50
14.999999999994451
 51
79.539281000009595
  0
ARC
  5
A0F3
  8
AM_0
 10
515.39078164640114
 20
651.39454343870875
 30
0.0
 40
5.0
 50
271.4999999999896
 51
315.00000000000921
  0
ARC
  5
A0F4
  8
AM_0
 10
547.24608164640131
 20
572.48933843870896
 30
0.0
 40
5.0
 50
198.30292000000651
 51
270.0
  0
ARC
  5
A0F5
  8
AM_0
 10
546.63348164640092
 20
691.54049343870895
 30
0.0
 40
3.0000000500000001
 50
91.999997999994051
 51
180.000010000001
  0
ARC
  5
A0F6
  8
AM_0
 10
546.63348164640092
 20
412.54417343870898
 30
0.0
 40
3.0000000500000001
 50
179.999989999999
 51
271.99999000000793
  0
ARC
  5
A0F7
  8
AM_0
 10
538.63353164640125
 20
674.63724343870888
 30
0.0
 40
5.0
 50
315.00000000000921
 51
0.0
  0
ARC
  5
A0F8
  8
AM_0
 10
546.63348164640092
 20
663.52344343870902
 30
0.0
 40
5.0
 50
0.0
 51
91.999997999994051
  0
ARC
  5
A0F9
  8
AM_0
 10
548.63353164640125
 20
461.05931343870918
 30
0.0
 40
5.0
 50
90.000002999984659
 51
180.000010000001
  0
ARC
  5
A0FA
  8
AM_0
 10
546.63348164640092
 20
441.608873438709
 30
0.0
 40
5.0
 50
267.99999999999619
 51
0.0
  0
ARC
  5
A0FB
  8
AM_0
 10
473.63353164640131
 20
441.48304843870898
 30
0.0
 40
9.7211409999999994
 50
90.000002999984659
 51
270.0
  0
ARC
  5
A0FC
  8
AM_0
 10
524.58653164640077
 20
625.05510343870912
 30
0.0
 40
5.0
 50
270.0
 51
306.72321000001659
  0
ARC
  5
A0FD
  8
AM_0
 10
497.13353164640131
 20
625.05510343870912
 30
0.0
 40
5.0
 50
229.76333000002259
 51
270.0
  0
ARC
  5
A0FE
  8
AM_0
 10
475.83328164640119
 20
646.36129343870869
 30
0.0
 40
30.946884499999999
 50
307.5523099999902
 51
335.59613000000491
  0
ARC
  5
A0FF
  8
AM_0
 10
538.63353164640125
 20
660.10394343870905
 30
0.0
 40
5.0
 50
300.88098000001457
 51
0.0
  0
LINE
  5
A100
  8
AM_0
 10
434.56363169640048
 20
384.952713089643
 30
0.0
 11
445.63343169640069
 21
384.56614808964298
 31
0.0
  0
ARC
  5
A101
  8
AM_0
 10
434.6334816964013
 20
386.9515230896431
 30
0.0
 40
2.0000000500000001
 50
179.999989999999
 51
268.00000999999207
  0
LINE
  5
A102
  8
AM_0
  6
CONTINUOUS
 10
352.7818146464009
 20
562.25114843870915
 30
0.0
 11
411.63348164640092
 21
562.25114843870915
 31
0.0
  0
LINE
  5
A103
  8
AM_0
  6
CONTINUOUS
 10
352.55105764640092
 20
562.74114843870905
 30
0.0
 11
409.87348164640088
 21
562.74114843870905
 31
0.0
  0
LINE
  5
A104
  8
AM_0
  6
CONTINUOUS
 10
351.37965564640092
 20
564.34114843870896
 30
0.0
 11
409.87348164640088
 21
564.34114843870896
 31
0.0
  0
LINE
  5
A108
  8
AM_0
  6
CONTINUOUS
 10
350.7718656464009
 20
564.88114843870903
 30
0.0
 11
411.63348164640092
 21
564.88114843870903
 31
0.0
  0
LINE
  5
A109
  8
AM_0
  6
CONTINUOUS
 10
273.92831164640091
 20
561.21616143870915
 30
0.0
 11
345.33865164640099
 21
561.21616143870915
 31
0.0
  0
LINE
  5
A10A
  8
AM_0
  6
CONTINUOUS
 10
272.56651064640101
 20
566.28656543870909
 30
0.0
 11
346.68951664640088
 21
566.28656543870909
 31
0.0
  0
ARC
  5
A10B
  8
AM_0
  6
CONTINUOUS
 10
864.13345164640077
 20
512.84792043870891
 30
0.0
 40
595.5
 50
175.6560359999994
 51
183.9378049999973
  0
ARC
  5
A10C
  8
AM_0
  6
CONTINUOUS
 10
272.56651064640101
 20
559.68657443870904
 30
0.0
 40
6.599999999999997
 50
90.0
 51
171.40985099999489
  0
ARC
  5
A10D
  8
AM_0
  6
CONTINUOUS
 10
273.92831164640091
 20
557.61615543870903
 30
0.0
 40
3.6000000000000001
 50
90.0
 51
174.62414600000011
  0
ARC
  5
A10E
  8
AM_0
  6
CONTINUOUS
 10
-244.8665183535991
 20
512.8479824387091
 30
0.0
 40
595.5
 50
356.06220199999939
 51
4.3439640000005726
  0
ARC
  5
A10F
  8
AM_0
  6
CONTINUOUS
 10
346.70045264640089
 20
559.68657443870904
 30
0.0
 40
6.599999999999997
 50
8.5901410000042642
 51
90.0
  0
ARC
  5
A110
  8
AM_0
  6
CONTINUOUS
 10
345.33865164640099
 20
557.61615543870903
 30
0.0
 40
3.6000000000000001
 50
5.3758619999981763
 51
90.0
  0
ARC
  5
A111
  8
AM_0
  6
CONTINUOUS
 10
-245.46649435359899
 20
512.8479824387091
 30
0.0
 40
600.59997599999986
 50
355.4679790000045
 51
4.567177000003003
  0
ARC
  5
A112
  8
AM_0
  6
CONTINUOUS
 10
864.73342664640074
 20
512.84792043870891
 30
0.0
 40
600.59997599999986
 50
175.4328159999981
 51
184.5320279999994
  0
ARC
  5
A113
  8
AM_0
  6
CONTINUOUS
 10
309.63348164640081
 20
458.88414643870902
 30
0.0
 40
16.337935000000002
 50
47.76794699999509
 51
132.2320530000049
  0
LINE
  5
A114
  8
AM_0
  6
CONTINUOUS
 10
275.85641264640083
 20
470.46208743870898
 30
0.0
 11
297.307914646401
 21
470.46207943870911
 31
0.0
  0
LINE
  5
A115
  8
AM_0
  6
CONTINUOUS
 10
272.58228864640091
 20
459.40933743870909
 30
0.0
 11
346.68467464640099
 21
459.40933743870909
 31
0.0
  0
LINE
  5
A116
  8
AM_0
  6
CONTINUOUS
 10
272.38268864640099
 20
461.82721443870889
 30
0.0
 11
346.88427464640091
 21
461.82721443870889
 31
0.0
  0
LINE
  5
A117
  8
AM_0
  6
CONTINUOUS
 10
274.61906164640089
 20
467.78397943870891
 30
0.0
 11
298.05506064640088
 21
467.7839714387091
 31
0.0
  0
ARC
  5
A118
  8
AM_0
  6
CONTINUOUS
 10
309.69944564640087
 20
457.39816043870911
 30
0.0
 40
15.0
 50
46.767242000003563
 51
133.23275799999641
  0
ARC
  5
A119
  8
AM_0
  6
CONTINUOUS
 10
272.58228864640091
 20
466.009336438709
 30
0.0
 40
6.599999999999997
 50
185.37618999999589
 51
270.0
  0
ARC
  5
A11A
  8
AM_0
  6
CONTINUOUS
 10
272.38268864640099
 20
468.42721343870897
 30
0.0
 40
6.599999999999997
 50
188.041183000004
 51
270.0
  0
ARC
  5
A11C
  8
AM_0
  6
CONTINUOUS
 10
274.61906164640089
 20
472.38398543870898
 30
0.0
 40
4.599999999999997
 50
185.37625099999809
 51
270.0
  0
LINE
  5
A11D
  8
AM_0
  6
CONTINUOUS
 10
343.41055064640102
 20
470.46208743870898
 30
0.0
 11
321.95904864640079
 21
470.46207943870911
 31
0.0
  0
LINE
  5
A11E
  8
AM_0
  6
CONTINUOUS
 10
344.6479016464009
 20
467.78397943870891
 30
0.0
 11
321.34383064640099
 21
467.7839714387091
 31
0.0
  0
ARC
  5
A11F
  8
AM_0
  6
CONTINUOUS
 10
346.68467464640099
 20
466.009336438709
 30
0.0
 40
6.599999999999997
 50
270.0
 51
354.62381000000403
  0
ARC
  5
A120
  8
AM_0
  6
CONTINUOUS
 10
346.88427464640091
 20
468.42721343870897
 30
0.0
 40
6.599999999999997
 50
270.0
 51
351.95883200000281
  0
ARC
  5
A121
  8
AM_0
  6
CONTINUOUS
 10
344.6479016464009
 20
472.38398543870898
 30
0.0
 40
4.599999999999997
 50
270.0
 51
354.62374900000179
  0
ARC
  5
A122
  8
AM_0
  6
CONTINUOUS
 10
298.05506164640087
 20
469.78397143870899
 30
0.0
 40
2.0
 50
270.0
 51
313.23275799999641
  0
ARC
  5
A123
  8
AM_0
  6
CONTINUOUS
 10
297.30791564640089
 20
472.46207943870911
 30
0.0
 40
2.0
 50
270.0
 51
312.23205300000052
  0
ARC
  5
A124
  8
AM_0
  6
CONTINUOUS
 10
321.95904764640079
 20
472.46207943870911
 30
0.0
 40
2.0
 50
227.7679469999951
 51
270.0
  0
ARC
  5
A125
  8
AM_0
  6
CONTINUOUS
 10
321.34382964640099
 20
469.78397143870899
 30
0.0
 40
2.0
 50
226.76724200000359
 51
270.0
  0
ARC
  5
A126
  8
AM_0
  6
CONTINUOUS
 10
138.1334816464009
 20
413.8661484387091
 30
0.0
 40
2.0
 50
180.0
 51
270.0
  0
LINE
  5
A127
  8
AM_0
  6
CONTINUOUS
 10
138.1334816464009
 20
411.86614843870899
 30
0.0
 11
209.1334816464009
 21
411.86614843870899
 31
0.0
  0
LINE
  5
A128
  8
AM_0
  6
CONTINUOUS
 10
209.1334816464009
 20
613.86614843870905
 30
0.0
 11
209.1334816464009
 21
411.86614843870899
 31
0.0
  0
ARC
  5
A129
  8
AM_0
  6
CONTINUOUS
 10
138.5334816464009
 20
598.84296343870915
 30
0.0
 40
2.399999999999999
 50
159.99999999999631
 51
180.0
  0
ARC
  5
A12A
  8
AM_0
  6
CONTINUOUS
 10
143.12794564640089
 20
611.46614843870907
 30
0.0
 40
2.399999999999999
 50
90.0
 51
159.99999999999631
  0
LINE
  5
A12B
  8
AM_0
  6
CONTINUOUS
 10
140.8726826464009
 20
612.28699643870902
 30
0.0
 11
136.2782196464008
 21
599.66381243870876
 31
0.0
  0
LINE
  5
A12C
  8
AM_0
 10
141.447446646401
 20
613.17960243870914
 30
0.0
 11
141.447446646401
 21
411.86614843870899
 31
0.0
  0
LINE
  5
A12D
  8
AM_0
  6
CONTINUOUS
 10
136.1334816464009
 20
598.84296343870915
 30
0.0
 11
136.1334816464009
 21
413.8661484387091
 31
0.0
  0
LINE
  5
A12E
  8
AM_0
  6
CONTINUOUS
 10
209.1334816464009
 20
613.86614843870905
 30
0.0
 11
143.12794564640089
 21
613.86614843870905
 31
0.0
  0
LINE
  5
A12F
  8
AM_0
  6
CONTINUOUS
 10
361.59035764640089
 20
562.25114843870915
 30
0.0
 11
361.59035764640089
 21
541.88614843870914
 31
0.0
  0
LINE
  5
A130
  8
AM_0
  6
CONTINUOUS
 10
377.63348064640093
 20
562.25114843870915
 30
0.0
 11
377.63348064640093
 21
541.88614843870914
 31
0.0
  0
LINE
  5
A131
  8
AM_0
  6
CONTINUOUS
 10
392.18287664640093
 20
457.04535243870879
 30
0.0
 11
377.63348064640093
 21
457.04535243870879
 31
0.0
  0
LINE
  5
A132
  8
AM_0
  6
CONTINUOUS
 10
397.13348164640092
 20
468.45770243870902
 30
0.0
 11
377.63348064640093
 21
468.45770243870902
 31
0.0
  0
LINE
  5
A133
  8
AM_0
  6
CONTINUOUS
 10
362.33887864640087
 20
461.76044243870899
 30
0.0
 11
377.63348164640092
 21
457.04535243870879
 31
0.0
  0
LINE
  5
A134
  8
AM_0
  6
CONTINUOUS
 10
377.63348164640092
 20
468.45770243870902
 30
0.0
 11
362.59754064640089
 21
467.91695143870908
 31
0.0
  0
ARC
  5
A135
  8
AM_0
  6
CONTINUOUS
 10
362.63348164640092
 20
466.91759743870909
 30
0.0
 40
1.0
 50
92.059690999997088
 51
180.0
  0
ARC
  5
A136
  8
AM_0
  6
CONTINUOUS
 10
362.63348164640092
 20
462.716062438709
 30
0.0
 40
1.0
 50
180.0
 51
252.8662750000021
  0
LINE
  5
A137
  8
AM_0
  6
CONTINUOUS
 10
377.63348164640092
 20
588.91893543870913
 30
0.0
 11
362.33302264640099
 21
584.09906943870897
 31
0.0
  0
ARC
  5
A138
  8
AM_0
  6
CONTINUOUS
 10
362.63348164640092
 20
583.14527443870907
 30
0.0
 40
1.0
 50
107.485179
 51
180.0
  0
ARC
  5
A139
  8
AM_0
  6
CONTINUOUS
 10
362.63348164640092
 20
580.79420943870912
 30
0.0
 40
1.0
 50
180.0
 51
270.0
  0
LINE
  5
A13A
  8
AM_0
  6
CONTINUOUS
 10
362.68203664640089
 20
579.7953884387091
 30
0.0
 11
377.63348164640092
 21
580.52220843870896
 31
0.0
  0
LINE
  5
A13B
  8
AM_0
  6
CONTINUOUS
 10
397.13348164640092
 20
580.52220843870896
 30
0.0
 11
377.63348164640092
 21
580.52220843870896
 31
0.0
  0
LINE
  5
A13C
  8
AM_0
  6
CONTINUOUS
 10
320.63348164640092
 20
611.35264143870916
 30
0.0
 11
408.08066664640091
 21
611.35264143870916
 31
0.0
  0
ARC
  5
A13D
  8
AM_0
  6
CONTINUOUS
 10
231.897726646401
 20
609.35264143870916
 30
0.0
 40
2.0
 50
90.0
 51
156.10179999999909
  0
ARC
  5
A13E
  8
AM_0
  6
CONTINUOUS
 10
408.08066664640091
 20
609.35264143870916
 30
0.0
 40
2.0
 50
10.000001999998901
 51
90.0
  0
LINE
  5
A13F
  8
AM_0
  6
CONTINUOUS
 10
411.63348164640092
 20
600.72116543870902
 30
0.0
 11
410.05028164640078
 21
609.69993843870895
 31
0.0
  0
LINE
  5
A140
  8
AM_0
  6
CONTINUOUS
 10
411.37267364640093
 20
600.72116543870902
 30
0.0
 11
411.63348164640092
 21
600.72116543870902
 31
0.0
  0
ARC
  5
A141
  8
AM_0
  6
CONTINUOUS
 10
216.96469664640099
 20
608.1628674387091
 30
0.0
 40
2.0
 50
90.0
 51
169.99999800000111
  0
LINE
  5
A142
  8
AM_0
  6
CONTINUOUS
 10
212.6334816464009
 20
595.11686443870929
 30
0.0
 11
214.99508164640091
 21
608.51016443870913
 31
0.0
  0
ARC
  5
A143
  8
AM_0
  6
CONTINUOUS
 10
408.02964764640092
 20
608.1628674387091
 30
0.0
 40
2.0
 50
10.000001999998901
 51
90.0
  0
LINE
  5
A144
  8
AM_0
  6
CONTINUOUS
 10
411.63348164640092
 20
599.24204743870905
 30
0.0
 11
409.99926264640078
 21
608.51016443870913
 31
0.0
  0
LINE
  5
A145
  8
AM_0
  6
CONTINUOUS
 10
212.6334816464009
 20
595.11686443870929
 30
0.0
 11
213.20138764640089
 21
595.11686443870929
 31
0.0
  0
LINE
  5
A146
  8
AM_0
  6
CONTINUOUS
 10
411.09751064640079
 20
599.24204743870905
 30
0.0
 11
411.63348164640092
 21
599.24204743870905
 31
0.0
  0
ARC
  5
A147
  8
AM_0
  6
CONTINUOUS
 10
407.94379264640088
 20
605.61013343870911
 30
0.0
 40
2.0
 50
10.00000100000252
 51
90.0
  0
ARC
  5
A148
  8
AM_0
  6
CONTINUOUS
 10
217.08248764640089
 20
605.61013343870911
 30
0.0
 40
2.0
 50
90.0
 51
169.9999989999975
  0
LINE
  5
A149
  8
AM_0
  6
CONTINUOUS
 10
212.6334816464009
 20
591.89610843870912
 30
0.0
 11
215.112871646401
 21
605.95742943870903
 31
0.0
  0
ARC
  5
A14A
  8
AM_0
  6
CONTINUOUS
 10
217.26362864640089
 20
601.64494843870909
 30
0.0
 40
2.0
 50
90.0
 51
170.00000000000139
  0
LINE
  5
A14B
  8
AM_0
  6
CONTINUOUS
 10
212.6334816464009
 20
586.90362343870913
 30
0.0
 11
215.29401264640089
 21
601.99224443870912
 31
0.0
  0
ARC
  5
A14C
  8
AM_0
  6
CONTINUOUS
 10
217.54485664640089
 20
596.06752043870915
 30
0.0
 40
2.0
 50
90.0
 51
170.00000000000139
  0
LINE
  5
A14D
  8
AM_0
  6
CONTINUOUS
 10
212.6334816464009
 20
579.73127143870897
 30
0.0
 11
215.57524064640091
 21
596.41481743870895
 31
0.0
  0
ARC
  5
A14E
  8
AM_0
  6
CONTINUOUS
 10
217.6401206464009
 20
590.06685343870913
 30
0.0
 40
2.0
 50
90.0
 51
169.9999989999975
  0
LINE
  5
A14F
  8
AM_0
  6
CONTINUOUS
 10
212.6334816464009
 20
573.1903354387091
 30
0.0
 11
215.67050464640101
 21
590.41414943870905
 31
0.0
  0
LINE
  5
A150
  8
AM_0
  6
CONTINUOUS
 10
411.5052226464008
 20
596.9297974387091
 30
0.0
 11
409.9134076464008
 21
605.95742943870903
 31
0.0
  0
LINE
  5
A151
  8
AM_0
  6
CONTINUOUS
 10
212.6334816464009
 20
591.89610843870912
 30
0.0
 11
213.5137916464009
 21
591.89610843870912
 31
0.0
  0
ARC
  5
A152
  8
AM_0
  6
CONTINUOUS
 10
407.81441464640079
 20
601.64494843870909
 30
0.0
 40
2.0
 50
9.9999999999986073
 51
90.0
  0
LINE
  5
A153
  8
AM_0
  6
CONTINUOUS
 10
410.67667664640089
 20
596.9297974387091
 30
0.0
 11
409.78403064640082
 21
601.99224443870912
 31
0.0
  0
ARC
  5
A154
  8
AM_0
  6
CONTINUOUS
 10
343.02249964640089
 20
596.06752043870915
 30
0.0
 40
2.0
 50
5.5986529999986434
 51
90.0
  0
ARC
  5
A155
  8
AM_0
  6
CONTINUOUS
 10
343.02054464640088
 20
590.06685343870913
 30
0.0
 40
2.0
 50
5.4290190000020546
 51
90.0
  0
LINE
  5
A156
  8
AM_0
  6
CONTINUOUS
 10
413.63348164640092
 20
473.34344243870902
 30
0.0
 11
413.63348164640092
 21
575.13208143870895
 31
0.0
  0
LINE
  5
A157
  8
AM_0
  6
CONTINUOUS
 10
413.63348164640092
 20
596.9297974387091
 30
0.0
 11
413.63348164640092
 21
601.06614843870909
 31
0.0
  0
LINE
  5
A158
  8
AM_0
  6
CONTINUOUS
 10
361.59035764640089
 20
586.90362343870913
 30
0.0
 11
377.63348064640093
 21
591.50348543870905
 31
0.0
  0
LINE
  5
A159
  8
AM_0
  6
CONTINUOUS
 10
345.93039664640088
 20
586.90362343870913
 30
0.0
 11
361.59035764640089
 21
586.90362343870913
 31
0.0
  0
LINE
  5
A15A
  8
AM_0
  6
CONTINUOUS
 10
377.63348064640093
 20
591.50348543870905
 30
0.0
 11
392.32676464640099
 21
591.50348543870905
 31
0.0
  0
ARC
  5
A15B
  8
AM_0
  6
CONTINUOUS
 10
394.33328064640091
 20
584.54941443870916
 30
0.0
 40
2.6003989999999999
 50
179.9999819999943
 51
269.99997799999522
  0
ARC
  5
A15C
  8
AM_0
  6
CONTINUOUS
 10
394.33328064640091
 20
589.84940243870915
 30
0.0
 40
2.600403
 50
90.0
 51
179.9999819999943
  0
LINE
  5
A15D
  8
AM_0
  6
CONTINUOUS
 10
397.13348164640092
 20
587.26543343870912
 30
0.0
 11
395.63348164640092
 21
586.39940843870909
 31
0.0
  0
LINE
  5
A15E
  8
AM_0
  6
CONTINUOUS
 10
397.13348164640092
 20
588.26543343870901
 30
0.0
 11
395.63348164640092
 21
587.39940843870886
 31
0.0
  0
LINE
  5
A15F
  8
AM_0
  6
CONTINUOUS
 10
397.13348164640092
 20
593.29940843870895
 30
0.0
 11
397.13348164640092
 21
581.09940843870913
 31
0.0
  0
LINE
  5
A160
  8
AM_0
  6
CONTINUOUS
 10
395.63348164640092
 20
593.29940843870895
 30
0.0
 11
397.13348164640092
 21
593.29940843870895
 31
0.0
  0
LINE
  5
A161
  8
AM_0
  6
CONTINUOUS
 10
395.63348164640092
 20
581.09940843870913
 30
0.0
 11
397.13348164640092
 21
581.09940843870913
 31
0.0
  0
LINE
  5
A162
  8
AM_0
  6
CONTINUOUS
 10
391.73348764640087
 20
589.84940243870915
 30
0.0
 11
391.73348764640087
 21
584.54941443870916
 31
0.0
  0
LINE
  5
A163
  8
AM_0
  6
CONTINUOUS
 10
395.63348164640092
 20
593.29940843870895
 30
0.0
 11
395.63348164640092
 21
581.09940843870913
 31
0.0
  0
LINE
  5
A164
  8
AM_0
  6
CONTINUOUS
 10
395.63348164640092
 20
581.94940843870904
 30
0.0
 11
394.33328064640091
 21
581.94940843870904
 31
0.0
  0
LINE
  5
A165
  8
AM_0
  6
CONTINUOUS
 10
395.63348164640092
 20
592.44940843870916
 30
0.0
 11
394.33328064640091
 21
592.44940843870916
 31
0.0
  0
ARC
  5
A166
  8
AM_0
  6
CONTINUOUS
 10
394.33328064640091
 20
458.50748743870901
 30
0.0
 40
2.6003989999999999
 50
179.9999819999943
 51
269.99997799999522
  0
ARC
  5
A167
  8
AM_0
  6
CONTINUOUS
 10
394.33328064640091
 20
463.8074754387091
 30
0.0
 40
2.600403
 50
90.0
 51
179.9999819999943
  0
LINE
  5
A168
  8
AM_0
  6
CONTINUOUS
 10
397.13348164640092
 20
461.22350643870908
 30
0.0
 11
395.63348164640092
 21
460.3574814387091
 31
0.0
  0
LINE
  5
A169
  8
AM_0
  6
CONTINUOUS
 10
397.13348164640092
 20
462.22350643870908
 30
0.0
 11
395.63348164640092
 21
461.35748143870899
 31
0.0
  0
LINE
  5
A16A
  8
AM_0
  6
CONTINUOUS
 10
397.13348164640092
 20
467.25748143870908
 30
0.0
 11
397.13348164640092
 21
455.05748143870909
 31
0.0
  0
LINE
  5
A16B
  8
AM_0
  6
CONTINUOUS
 10
395.63348164640092
 20
467.25748143870908
 30
0.0
 11
397.13348164640092
 21
467.25748143870908
 31
0.0
  0
LINE
  5
A16C
  8
AM_0
  6
CONTINUOUS
 10
395.63348164640092
 20
455.05748143870909
 30
0.0
 11
397.13348164640092
 21
455.05748143870909
 31
0.0
  0
LINE
  5
A16D
  8
AM_0
  6
CONTINUOUS
 10
391.73348764640087
 20
463.8074754387091
 30
0.0
 11
391.73348764640087
 21
458.50748743870901
 31
0.0
  0
LINE
  5
A16E
  8
AM_0
  6
CONTINUOUS
 10
395.63348164640092
 20
467.25748143870908
 30
0.0
 11
395.63348164640092
 21
455.05748143870909
 31
0.0
  0
LINE
  5
A16F
  8
AM_0
  6
CONTINUOUS
 10
395.63348164640092
 20
455.907481438709
 30
0.0
 11
394.33328064640091
 21
455.907481438709
 31
0.0
  0
LINE
  5
A170
  8
AM_0
  6
CONTINUOUS
 10
395.63348164640092
 20
466.40748143870911
 30
0.0
 11
394.33328064640091
 21
466.40748143870911
 31
0.0
  0
LINE
  5
A171
  8
AM_0
  6
CONTINUOUS
 10
411.5726516464008
 20
601.06614843870909
 30
0.0
 11
413.63348164640092
 21
601.06614843870909
 31
0.0
  0
LINE
  5
A172
  8
AM_0
  6
CONTINUOUS
 10
217.26362864640089
 20
603.64494843870909
 30
0.0
 11
407.81441464640079
 21
603.64494843870909
 31
0.0
  0
LINE
  5
A173
  8
AM_0
  6
CONTINUOUS
 10
217.08248764640089
 20
607.61013343870889
 30
0.0
 11
407.94379264640088
 21
607.61013343870889
 31
0.0
  0
LINE
  5
A174
  8
AM_0
  6
CONTINUOUS
 10
216.96469664640099
 20
610.16286743870899
 30
0.0
 11
408.02964764640092
 21
610.16286743870899
 31
0.0
  0
LINE
  5
A175
  8
AM_0
  6
CONTINUOUS
 10
209.1334816464009
 20
606.56614843870886
 30
0.0
 11
214.65229964640099
 21
606.56614843870886
 31
0.0
  0
LINE
  5
A176
  8
AM_0
  6
CONTINUOUS
 10
231.897726646401
 20
611.35264143870916
 30
0.0
 11
298.63348164640092
 21
611.35264143870916
 31
0.0
  0
LINE
  5
A177
  8
AM_0
  6
CONTINUOUS
 10
377.63348064640093
 20
570.22614843870895
 30
0.0
 11
377.63348064640093
 21
564.88114843870903
 31
0.0
  0
LINE
  5
A178
  8
AM_0
  6
CONTINUOUS
 10
361.59035764640089
 20
570.22614843870895
 30
0.0
 11
361.59035764640089
 21
564.88114843870903
 31
0.0
  0
LINE
  5
A179
  8
AM_0
  6
CONTINUOUS
 10
377.63348064640093
 20
580.52220843870896
 30
0.0
 11
377.63348064640093
 21
572.92614843870911
 31
0.0
  0
LINE
  5
A17A
  8
AM_0
  6
CONTINUOUS
 10
377.63348064640093
 20
588.91893543870913
 30
0.0
 11
391.73348764640087
 21
588.91893543870913
 31
0.0
  0
LINE
  5
A17B
  8
AM_0
  6
CONTINUOUS
 10
212.6334816464009
 20
573.1903354387091
 30
0.0
 11
346.63348164640092
 21
573.1903354387091
 31
0.0
  0
LINE
  5
A17C
  8
AM_0
  6
CONTINUOUS
 10
345.95585464640101
 20
579.73127143870897
 30
0.0
 11
346.63348164640092
 21
579.73127143870897
 31
0.0
  0
LINE
  5
A17D
  8
AM_0
  6
CONTINUOUS
 10
217.6401206464009
 20
592.06685343870913
 30
0.0
 11
343.02054464640088
 21
592.06685343870913
 31
0.0
  0
LINE
  5
A17E
  8
AM_0
  6
CONTINUOUS
 10
212.6334816464009
 20
579.73127143870897
 30
0.0
 11
213.7868246464009
 21
579.73127143870897
 31
0.0
  0
LINE
  5
A17F
  8
AM_0
  6
CONTINUOUS
 10
217.54485664640089
 20
598.06752043870915
 30
0.0
 11
343.02249964640089
 21
598.06752043870915
 31
0.0
  0
LINE
  5
A180
  8
AM_0
  6
CONTINUOUS
 10
413.63348164640092
 20
575.13208143870895
 30
0.0
 11
416.63348164640092
 21
573.40003043870911
 31
0.0
  0
ARC
  5
A181
  8
AM_0
  6
CONTINUOUS
 10
396.13348164640092
 20
576.13208143870895
 30
0.0
 40
1.0
 50
270.0
 51
0.0
  0
ARC
  5
A182
  8
AM_0
  6
CONTINUOUS
 10
399.13348164640092
 20
594.9297974387091
 30
0.0
 40
2.0
 50
90.0
 51
180.0
  0
ARC
  5
A183
  8
AM_0
  6
CONTINUOUS
 10
399.13348164640092
 20
590.80579243870875
 30
0.0
 40
2.0
 50
180.0
 51
270.0
  0
ARC
  5
A184
  8
AM_0
  6
CONTINUOUS
 10
399.13348164640092
 20
586.80579243870875
 30
0.0
 40
2.0
 50
90.0
 51
180.0
  0
LINE
  5
A185
  8
AM_0
  6
CONTINUOUS
 10
399.13348164640092
 20
596.9297974387091
 30
0.0
 11
416.63348164640092
 21
596.9297974387091
 31
0.0
  0
LINE
  5
A186
  8
AM_0
  6
CONTINUOUS
 10
397.13348164640092
 20
575.13208143870895
 30
0.0
 11
413.63348164640092
 21
575.13208143870895
 31
0.0
  0
LINE
  5
A187
  8
AM_0
  6
CONTINUOUS
 10
399.13348164640092
 20
588.80579243870909
 30
0.0
 11
416.63348164640092
 21
588.80579243870909
 31
0.0
  0
LINE
  5
A188
  8
AM_0
  6
CONTINUOUS
 10
397.13348164640092
 20
576.13208143870895
 30
0.0
 11
397.13348164640092
 21
594.9297974387091
 31
0.0
  0
LINE
  5
A189
  8
AM_0
  6
CONTINUOUS
 10
212.6334816464009
 20
429.06614843870909
 30
0.0
 11
209.1334816464009
 21
429.06614843870909
 31
0.0
  0
LINE
  5
A18A
  8
AM_0
  6
CONTINUOUS
 10
212.6334816464009
 20
478.70735943870909
 30
0.0
 11
217.2408576464008
 21
472.2757534387091
 31
0.0
  0
LINE
  5
A18B
  8
AM_0
  6
CONTINUOUS
 10
217.2408576464008
 20
472.2757534387091
 30
0.0
 11
218.0966576464009
 21
474.90267343870909
 31
0.0
  0
LINE
  5
A18C
  8
AM_0
  6
CONTINUOUS
 10
212.6334816464009
 20
478.70735943870909
 30
0.0
 11
218.0966576464009
 21
474.90267343870909
 31
0.0
  0
LINE
  5
A18D
  8
AM_0
  6
CONTINUOUS
 10
218.0966576464009
 20
474.90267343870909
 30
0.0
 11
219.30858764640081
 21
474.34671343870912
 31
0.0
  0
LINE
  5
A18E
  8
AM_0
  6
CONTINUOUS
 10
209.1334816464009
 20
472.2757534387091
 30
0.0
 11
217.2408576464008
 21
472.2757534387091
 31
0.0
  0
LINE
  5
A18F
  8
AM_0
  6
CONTINUOUS
 10
209.1334816464009
 20
478.70735943870909
 30
0.0
 11
212.6334816464009
 21
478.70735943870909
 31
0.0
  0
LINE
  5
A190
  8
AM_0
  6
CONTINUOUS
 10
212.6334816464009
 20
456.13397343870901
 30
0.0
 11
212.6334816464009
 21
452.94107943870898
 31
0.0
  0
LINE
  5
A191
  8
AM_0
  6
CONTINUOUS
 10
214.39348164640089
 20
455.56553943870898
 30
0.0
 11
214.39348164640089
 21
453.56675743870898
 31
0.0
  0
LINE
  5
A192
  8
AM_0
  6
CONTINUOUS
 10
229.39348164640089
 20
464.56614843870898
 30
0.0
 11
229.39348164640089
 21
462.56675743870898
 31
0.0
  0
LINE
  5
A193
  8
AM_0
  6
CONTINUOUS
 10
227.6334816464009
 20
465.0276904387091
 30
0.0
 11
227.6334816464009
 21
461.95995543870902
 31
0.0
  0
LINE
  5
A194
  8
AM_0
  6
CONTINUOUS
 10
227.6334816464009
 20
465.0276904387091
 30
0.0
 11
266.05569864640103
 21
465.0276904387091
 31
0.0
  0
LINE
  5
A195
  8
AM_0
  6
CONTINUOUS
 10
227.6334816464009
 20
461.95995543870902
 30
0.0
 11
267.3705226464009
 21
461.95995543870902
 31
0.0
  0
LINE
  5
A196
  8
AM_0
  6
CONTINUOUS
 10
212.6334816464009
 20
452.94107943870898
 30
0.0
 11
309.63348164640081
 21
452.94107943870898
 31
0.0
  0
LINE
  5
A197
  8
AM_0
  6
CONTINUOUS
 10
212.6334816464009
 20
456.13397343870901
 30
0.0
 11
309.63348164640081
 21
456.13397343870901
 31
0.0
  0
LINE
  5
A198
  8
AM_0
  6
CONTINUOUS
 10
214.39348164640089
 20
455.56553943870898
 30
0.0
 11
309.63348164640081
 21
455.56553943870898
 31
0.0
  0
LINE
  5
A199
  8
AM_0
  6
CONTINUOUS
 10
214.39348164640089
 20
453.56675743870898
 30
0.0
 11
309.63348164640081
 21
453.56675743870898
 31
0.0
  0
LINE
  5
A19A
  8
AM_0
  6
CONTINUOUS
 10
214.39348164640089
 20
455.56553943870898
 30
0.0
 11
212.6334816464009
 21
456.13397343870901
 31
0.0
  0
LINE
  5
A19B
  8
AM_0
  6
CONTINUOUS
 10
214.39348164640089
 20
453.56675743870898
 30
0.0
 11
212.6334816464009
 21
452.94107943870898
 31
0.0
  0
LINE
  5
A19C
  8
AM_0
  6
CONTINUOUS
 10
217.57674764640089
 20
462.30806943870903
 30
0.0
 11
218.7578386464009
 21
462.0706604387089
 31
0.0
  0
LINE
  5
A19D
  8
AM_0
  6
CONTINUOUS
 10
229.39348164640089
 20
464.56614843870898
 30
0.0
 11
266.14200864640088
 21
464.56614843870898
 31
0.0
  0
LINE
  5
A19E
  8
AM_0
  6
CONTINUOUS
 10
229.39348164640089
 20
462.56675743870898
 30
0.0
 11
266.95124464640088
 21
462.56675743870898
 31
0.0
  0
LINE
  5
A19F
  8
AM_0
  6
CONTINUOUS
 10
229.39348164640089
 20
464.56614843870898
 30
0.0
 11
227.6334816464009
 21
465.0276904387091
 31
0.0
  0
LINE
  5
A1A0
  8
AM_0
  6
CONTINUOUS
 10
229.39348164640089
 20
462.56675743870898
 30
0.0
 11
227.6334816464009
 21
461.95995543870902
 31
0.0
  0
LINE
  5
A1A1
  8
AM_0
  6
CONTINUOUS
 10
346.63348164640092
 20
456.13397343870901
 30
0.0
 11
309.63348164640081
 21
456.13397343870901
 31
0.0
  0
LINE
  5
A1A2
  8
AM_0
  6
CONTINUOUS
 10
344.87348164640088
 20
455.56553943870898
 30
0.0
 11
309.63348164640081
 21
455.56553943870898
 31
0.0
  0
LINE
  5
A1A3
  8
AM_0
  6
CONTINUOUS
 10
344.87348164640088
 20
453.56675743870898
 30
0.0
 11
309.63348164640081
 21
453.56675743870898
 31
0.0
  0
LINE
  5
A1A4
  8
AM_0
  6
CONTINUOUS
 10
344.87348164640088
 20
453.56675743870898
 30
0.0
 11
346.63348164640092
 21
452.94107943870898
 31
0.0
  0
LINE
  5
A1A5
  8
AM_0
  6
CONTINUOUS
 10
344.87348164640088
 20
455.56553943870898
 30
0.0
 11
346.63348164640092
 21
456.13397343870901
 31
0.0
  0
LINE
  5
A1A6
  8
AM_0
  6
CONTINUOUS
 10
344.87348164640088
 20
455.56553943870898
 30
0.0
 11
344.87348164640088
 21
453.56675743870898
 31
0.0
  0
LINE
  5
A1A7
  8
AM_0
  6
CONTINUOUS
 10
346.63348164640092
 20
456.13397343870901
 30
0.0
 11
346.63348164640092
 21
452.94107943870898
 31
0.0
  0
LINE
  5
A1A8
  8
AM_0
  6
CONTINUOUS
 10
212.6334816464009
 20
452.94107943870898
 30
0.0
 11
214.226223646401
 21
435.64189243870902
 31
0.0
  0
LINE
  5
A1A9
  8
AM_0
  6
CONTINUOUS
 10
212.6334816464009
 20
446.40102543870898
 30
0.0
 11
213.23562664640099
 21
446.40102543870898
 31
0.0
  0
LINE
  5
A1AA
  8
AM_0
  6
CONTINUOUS
 10
212.6334816464009
 20
439.22867343870911
 30
0.0
 11
213.31625864640091
 21
439.22867343870911
 31
0.0
  0
LINE
  5
A1AB
  8
AM_0
  6
CONTINUOUS
 10
212.6334816464009
 20
434.23618843870912
 30
0.0
 11
213.15799464640091
 21
434.23618843870912
 31
0.0
  0
LINE
  5
A1AC
  8
AM_0
  6
CONTINUOUS
 10
212.6334816464009
 20
431.01543243870913
 30
0.0
 11
212.993423646401
 21
431.01543243870913
 31
0.0
  0
LINE
  5
A1AD
  8
AM_0
  6
CONTINUOUS
 10
212.58670464640099
 20
429.44585143870898
 30
0.0
 11
212.81709564640079
 21
429.44585143870898
 31
0.0
  0
LINE
  5
A1AE
  8
AM_0
  6
CONTINUOUS
 10
212.6334816464009
 20
446.40102543870898
 30
0.0
 11
214.22113364640089
 21
429.7232514387091
 31
0.0
  0
LINE
  5
A1AF
  8
AM_0
  6
CONTINUOUS
 10
212.6334816464009
 20
439.22867343870911
 30
0.0
 11
214.20531464640089
 21
424.26746243870912
 31
0.0
  0
LINE
  5
A1B0
  8
AM_0
  6
CONTINUOUS
 10
212.6334816464009
 20
434.23618843870912
 30
0.0
 11
214.19479264640091
 21
420.26559743870911
 31
0.0
  0
LINE
  5
A1B1
  8
AM_0
  6
CONTINUOUS
 10
212.6334816464009
 20
431.01543243870913
 30
0.0
 11
214.18670064640091
 21
417.738104438709
 31
0.0
  0
LINE
  5
A1B2
  8
AM_0
  6
CONTINUOUS
 10
212.58670464640099
 20
429.44585143870898
 30
0.0
 11
214.17722064640091
 21
416.53511743870899
 31
0.0
  0
ARC
  5
A1B3
  8
AM_0
  6
CONTINUOUS
 10
216.21779964640089
 20
435.82525743870912
 30
0.0
 40
2.0
 50
185.2604109999985
 51
270.0
  0
ARC
  5
A1B4
  8
AM_0
  6
CONTINUOUS
 10
216.21213164640099
 20
429.91278643870908
 30
0.0
 40
2.0
 50
185.4379219999999
 51
270.0
  0
ARC
  5
A1B5
  8
AM_0
  6
CONTINUOUS
 10
216.19436764640091
 20
424.47643343870902
 30
0.0
 40
2.0
 50
185.99752600000051
 51
270.0
  0
ARC
  5
A1B6
  8
AM_0
  6
CONTINUOUS
 10
216.18241864640089
 20
420.4877284387091
 30
0.0
 40
2.0
 50
186.37674200000069
 51
270.0
  0
ARC
  5
A1B7
  8
AM_0
  6
CONTINUOUS
 10
216.17315464640089
 20
417.97048543870898
 30
0.0
 40
2.0
 50
186.67229399999829
 51
270.0
  0
ARC
  5
A1B8
  8
AM_0
  6
CONTINUOUS
 10
216.16221464640091
 20
416.77965543870903
 30
0.0
 40
2.0
 50
187.0230689999963
 51
270.0
  0
LINE
  5
A1B9
  8
AM_0
  6
CONTINUOUS
 10
219.30858764640081
 20
474.34671343870912
 30
0.0
 11
219.30858764640081
 21
461.95995543870902
 31
0.0
  0
LINE
  5
A1BA
  8
AM_0
  6
CONTINUOUS
 10
217.2408576464008
 20
472.2757534387091
 30
0.0
 11
217.2408576464008
 21
462.37558643870898
 31
0.0
  0
LINE
  5
A1BB
  8
AM_0
  6
CONTINUOUS
 10
209.1334816464009
 20
461.95995543870902
 30
0.0
 11
219.30858764640081
 21
461.95995543870902
 31
0.0
  0
LINE
  5
A1BC
  8
AM_0
  6
CONTINUOUS
 10
209.1334816464009
 20
462.37558643870898
 30
0.0
 11
217.2408576464008
 21
462.37558643870898
 31
0.0
  0
LINE
  5
A1BD
  8
AM_0
  6
CONTINUOUS
 10
411.63348164640092
 20
528.24614843870904
 30
0.0
 11
409.87348164640088
 21
528.79614843870911
 31
0.0
  0
LINE
  5
A1BE
  8
AM_0
  6
CONTINUOUS
 10
411.63348164640092
 20
530.88614843870914
 30
0.0
 11
411.63348164640092
 21
528.24614843870904
 31
0.0
  0
LINE
  5
A1BF
  8
AM_0
  6
CONTINUOUS
 10
409.87348164640088
 20
530.39614843870913
 30
0.0
 11
411.63348164640092
 21
530.88614843870914
 31
0.0
  0
LINE
  5
A1C0
  8
AM_0
  6
CONTINUOUS
 10
409.87348164640088
 20
530.39614843870913
 30
0.0
 11
409.87348164640088
 21
528.79614843870911
 31
0.0
  0
LINE
  5
A1C1
  8
AM_0
  6
CONTINUOUS
 10
411.63348164640092
 20
517.24614843870904
 30
0.0
 11
409.87348164640088
 21
517.79614843870911
 31
0.0
  0
LINE
  5
A1C2
  8
AM_0
  6
CONTINUOUS
 10
411.63348164640092
 20
519.88614843870914
 30
0.0
 11
411.63348164640092
 21
517.24614843870904
 31
0.0
  0
LINE
  5
A1C3
  8
AM_0
  6
CONTINUOUS
 10
409.87348164640088
 20
519.39614843870913
 30
0.0
 11
411.63348164640092
 21
519.88614843870914
 31
0.0
  0
LINE
  5
A1C4
  8
AM_0
  6
CONTINUOUS
 10
409.87348164640088
 20
519.39614843870913
 30
0.0
 11
409.87348164640088
 21
517.79614843870911
 31
0.0
  0
LINE
  5
A1C5
  8
AM_0
  6
CONTINUOUS
 10
411.63348164640092
 20
506.2461484387091
 30
0.0
 11
409.87348164640088
 21
506.796148438709
 31
0.0
  0
LINE
  5
A1C6
  8
AM_0
  6
CONTINUOUS
 10
411.63348164640092
 20
508.88614843870897
 30
0.0
 11
411.63348164640092
 21
506.2461484387091
 31
0.0
  0
LINE
  5
A1C7
  8
AM_0
  6
CONTINUOUS
 10
409.87348164640088
 20
508.39614843870908
 30
0.0
 11
411.63348164640092
 21
508.88614843870897
 31
0.0
  0
LINE
  5
A1C8
  8
AM_0
  6
CONTINUOUS
 10
409.87348164640088
 20
508.39614843870908
 30
0.0
 11
409.87348164640088
 21
506.796148438709
 31
0.0
  0
LINE
  5
A1C9
  8
AM_0
  6
CONTINUOUS
 10
411.63348164640092
 20
495.24614843870899
 30
0.0
 11
409.87348164640088
 21
495.79614843870911
 31
0.0
  0
LINE
  5
A1CA
  8
AM_0
  6
CONTINUOUS
 10
411.63348164640092
 20
497.88614843870897
 30
0.0
 11
411.63348164640092
 21
495.24614843870899
 31
0.0
  0
LINE
  5
A1CB
  8
AM_0
  6
CONTINUOUS
 10
409.87348164640088
 20
497.39614843870908
 30
0.0
 11
411.63348164640092
 21
497.88614843870897
 31
0.0
  0
LINE
  5
A1CC
  8
AM_0
  6
CONTINUOUS
 10
409.87348164640088
 20
497.39614843870908
 30
0.0
 11
409.87348164640088
 21
495.79614843870911
 31
0.0
  0
LINE
  5
A1CD
  8
AM_0
  6
CONTINUOUS
 10
411.04515064640071
 20
426.5568684387091
 30
0.0
 11
410.01352164640087
 21
417.73810743870899
 31
0.0
  0
LINE
  5
A1CE
  8
AM_0
  6
CONTINUOUS
 10
409.97826464640087
 20
420.26530143870912
 30
0.0
 11
411.03322164640088
 21
429.69228843870911
 31
0.0
  0
LINE
  5
A1CF
  8
AM_0
  6
CONTINUOUS
 10
410.00533464640091
 20
424.266157438709
 30
0.0
 11
411.1042466464009
 21
434.66033143870902
 31
0.0
  0
LINE
  5
A1D0
  8
AM_0
  6
CONTINUOUS
 10
411.15518764640092
 20
441.19695143870911
 30
0.0
 11
410.02990664640089
 21
429.7176674387091
 31
0.0
  0
LINE
  5
A1D1
  8
AM_0
  6
CONTINUOUS
 10
411.19635464640101
 20
448.6066934387091
 30
0.0
 11
409.96363764640091
 21
435.63603243870898
 31
0.0
  0
LINE
  5
A1D2
  8
AM_0
  6
CONTINUOUS
 10
411.1052736464008
 20
425.42054043870911
 30
0.0
 11
410.03324064640083
 21
416.5399624387091
 31
0.0
  0
LINE
  5
A1D3
  8
AM_0
  6
CONTINUOUS
 10
409.87348164640088
 20
486.39614843870908
 30
0.0
 11
409.87348164640088
 21
484.79614843870911
 31
0.0
  0
LINE
  5
A1D4
  8
AM_0
  6
CONTINUOUS
 10
409.87348164640088
 20
486.39614843870908
 30
0.0
 11
411.63348164640092
 21
486.88614843870909
 31
0.0
  0
LINE
  5
A1D5
  8
AM_0
  6
CONTINUOUS
 10
411.63348164640092
 20
486.88614843870909
 30
0.0
 11
411.63348164640092
 21
484.2461484387091
 31
0.0
  0
LINE
  5
A1D6
  8
AM_0
  6
CONTINUOUS
 10
411.63348164640092
 20
484.2461484387091
 30
0.0
 11
409.87348164640088
 21
484.79614843870911
 31
0.0
  0
LINE
  5
A1D7
  8
AM_0
  6
CONTINUOUS
 10
409.87348164640088
 20
541.39614843870913
 30
0.0
 11
409.87348164640088
 21
539.796148438709
 31
0.0
  0
LINE
  5
A1D8
  8
AM_0
  6
CONTINUOUS
 10
409.87348164640088
 20
541.39614843870913
 30
0.0
 11
411.63348164640092
 21
541.88614843870914
 31
0.0
  0
LINE
  5
A1D9
  8
AM_0
  6
CONTINUOUS
 10
411.63348164640092
 20
541.88614843870914
 30
0.0
 11
411.63348164640092
 21
539.24614843870904
 31
0.0
  0
LINE
  5
A1DA
  8
AM_0
  6
CONTINUOUS
 10
411.63348164640092
 20
539.24614843870904
 30
0.0
 11
409.87348164640088
 21
539.796148438709
 31
0.0
  0
LINE
  5
A1DB
  8
AM_0
  6
CONTINUOUS
 10
361.59035764640089
 20
539.24614843870904
 30
0.0
 11
361.59035764640089
 21
530.88614843870914
 31
0.0
  0
LINE
  5
A1DC
  8
AM_0
  6
CONTINUOUS
 10
377.63348064640093
 20
539.24614843870904
 30
0.0
 11
377.63348064640093
 21
530.88614843870914
 31
0.0
  0
LINE
  5
A1DD
  8
AM_0
  6
CONTINUOUS
 10
377.63348064640093
 20
528.24614843870904
 30
0.0
 11
377.63348064640093
 21
519.88614843870914
 31
0.0
  0
LINE
  5
A1DE
  8
AM_0
  6
CONTINUOUS
 10
361.59035764640089
 20
528.24614843870904
 30
0.0
 11
361.59035764640089
 21
519.88614843870914
 31
0.0
  0
LINE
  5
A1DF
  8
AM_0
  6
CONTINUOUS
 10
361.59035764640089
 20
517.24614843870904
 30
0.0
 11
361.59035764640089
 21
508.88614843870897
 31
0.0
  0
LINE
  5
A1E0
  8
AM_0
  6
CONTINUOUS
 10
377.63348064640093
 20
517.24614843870904
 30
0.0
 11
377.63348064640093
 21
508.88614843870897
 31
0.0
  0
LINE
  5
A1E1
  8
AM_0
  6
CONTINUOUS
 10
377.63348064640093
 20
506.2461484387091
 30
0.0
 11
377.63348064640093
 21
497.88614843870897
 31
0.0
  0
LINE
  5
A1E2
  8
AM_0
  6
CONTINUOUS
 10
361.59035764640089
 20
506.2461484387091
 30
0.0
 11
361.59035764640089
 21
497.88614843870897
 31
0.0
  0
LINE
  5
A1E3
  8
AM_0
  6
CONTINUOUS
 10
361.59035764640089
 20
495.24614843870899
 30
0.0
 11
361.59035764640089
 21
486.88614843870909
 31
0.0
  0
LINE
  5
A1E4
  8
AM_0
  6
CONTINUOUS
 10
377.63348064640093
 20
495.24614843870899
 30
0.0
 11
377.63348064640093
 21
486.88614843870909
 31
0.0
  0
LINE
  5
A1E5
  8
AM_0
  6
CONTINUOUS
 10
377.63348064640093
 20
484.2461484387091
 30
0.0
 11
377.63348064640093
 21
468.45770243870902
 31
0.0
  0
LINE
  5
A1E6
  8
AM_0
  6
CONTINUOUS
 10
361.59035764640089
 20
484.2461484387091
 30
0.0
 11
361.59035764640089
 21
452.94107943870898
 31
0.0
  0
LINE
  5
A1E7
  8
AM_0
  6
CONTINUOUS
 10
411.19635464640101
 20
448.6066934387091
 30
0.0
 11
377.63348064640093
 21
448.6066934387091
 31
0.0
  0
LINE
  5
A1E8
  8
AM_0
  6
CONTINUOUS
 10
411.15518764640092
 20
441.19695143870911
 30
0.0
 11
410.49214164640091
 21
441.19695143870911
 31
0.0
  0
ARC
  5
A1E9
  8
AM_0
  6
CONTINUOUS
 10
407.972609646401
 20
435.82525743870912
 30
0.0
 40
2.0
 50
270.0
 51
354.57098099999791
  0
ARC
  5
A1EA
  8
AM_0
  6
CONTINUOUS
 10
408.03944764640079
 20
429.91278643870908
 30
0.0
 40
2.0
 50
270.0
 51
354.40134700000141
  0
ARC
  5
A1EB
  8
AM_0
  6
CONTINUOUS
 10
408.01641964640089
 20
424.47643343870902
 30
0.0
 40
2.0
 50
270.0
 51
353.96488600000072
  0
ARC
  5
A1EC
  8
AM_0
  6
CONTINUOUS
 10
407.99067164640098
 20
420.4877284387091
 30
0.0
 40
2.0
 50
270.0
 51
353.61470099999991
  0
ARC
  5
A1ED
  8
AM_0
  6
CONTINUOUS
 10
408.02706764640078
 20
417.97048543870898
 30
0.0
 40
2.0
 50
270.0
 51
353.32779999999769
  0
ARC
  5
A1EE
  8
AM_0
  6
CONTINUOUS
 10
408.04765664640092
 20
416.77965543870903
 30
0.0
 40
2.0
 50
270.0
 51
353.11676000000102
  0
LINE
  5
A1EF
  8
AM_0
  6
CONTINUOUS
 10
411.1042466464009
 20
434.66033143870902
 30
0.0
 11
410.51442164640088
 21
434.66033143870902
 31
0.0
  0
LINE
  5
A1F0
  8
AM_0
  6
CONTINUOUS
 10
411.03322164640088
 20
429.69228843870911
 30
0.0
 11
410.5790066464009
 21
429.69228843870911
 31
0.0
  0
LINE
  5
A1F1
  8
AM_0
  6
CONTINUOUS
 10
411.04515064640071
 20
426.5568684387091
 30
0.0
 11
410.68234264640091
 21
426.5568684387091
 31
0.0
  0
LINE
  5
A1F2
  8
AM_0
  6
CONTINUOUS
 10
411.1052736464008
 20
425.42054043870911
 30
0.0
 11
410.91222164640078
 21
425.42054043870911
 31
0.0
  0
LINE
  5
A1F3
  8
AM_0
  6
CONTINUOUS
 10
413.63348164640092
 20
473.34344243870902
 30
0.0
 11
397.13348164640092
 21
473.34344243870902
 31
0.0
  0
LINE
  5
A1F4
  8
AM_0
  6
CONTINUOUS
 10
416.63348164640092
 20
463.1641504387091
 30
0.0
 11
399.13348164640092
 21
463.1641504387091
 31
0.0
  0
LINE
  5
A1F5
  8
AM_0
  6
CONTINUOUS
 10
416.63348164640092
 20
450.87686943870898
 30
0.0
 11
399.13348164640092
 21
450.87686943870898
 31
0.0
  0
LINE
  5
A1F6
  8
AM_0
  6
CONTINUOUS
 10
397.13348164640092
 20
472.34344243870902
 30
0.0
 11
397.13348164640092
 21
452.87686943870909
 31
0.0
  0
LINE
  5
A1F7
  8
AM_0
  6
CONTINUOUS
 10
413.63348164640092
 20
473.34344243870902
 30
0.0
 11
416.63348164640092
 21
475.07549343870897
 31
0.0
  0
ARC
  5
A1F8
  8
AM_0
  6
CONTINUOUS
 10
399.13348164640092
 20
465.16415043870899
 30
0.0
 40
2.0
 50
180.0
 51
270.0
  0
ARC
  5
A1F9
  8
AM_0
  6
CONTINUOUS
 10
399.13348164640092
 20
452.87686943870909
 30
0.0
 40
2.0
 50
180.0
 51
270.0
  0
ARC
  5
A1FA
  8
AM_0
  6
CONTINUOUS
 10
399.13348164640092
 20
461.16415043870899
 30
0.0
 40
2.0
 50
90.0
 51
180.0
  0
LINE
  5
A1FB
  8
AM_0
  6
CONTINUOUS
 10
377.63348064640093
 20
457.04535243870879
 30
0.0
 11
377.63348064640093
 21
448.6066934387091
 31
0.0
  0
LINE
  5
A1FC
  8
AM_0
  6
CONTINUOUS
 10
361.59035764640089
 20
452.94107943870898
 30
0.0
 11
377.63348064640093
 21
448.6066934387091
 31
0.0
  0
ARC
  5
A1FD
  8
AM_0
  6
CONTINUOUS
 10
396.13348164640092
 20
472.34344243870902
 30
0.0
 40
1.0
 50
0.0
 51
90.0
  0
LINE
  5
A1FE
  8
AM_0
  6
CONTINUOUS
 10
361.59035764640089
 20
452.94107943870898
 30
0.0
 11
309.63348164640081
 21
452.94107943870898
 31
0.0
  0
LINE
  5
A1FF
  8
AM_0
  6
CONTINUOUS
 10
408.04765664640092
 20
414.77965543870903
 30
0.0
 11
216.16221464640091
 21
414.77965543870903
 31
0.0
  0
LINE
  5
A200
  8
AM_0
  6
CONTINUOUS
 10
408.02706764640078
 20
415.97048543870909
 30
0.0
 11
216.17315464640089
 21
415.97048543870909
 31
0.0
  0
LINE
  5
A201
  8
AM_0
  6
CONTINUOUS
 10
407.99067164640098
 20
418.48772843870898
 30
0.0
 11
216.18241864640089
 21
418.48772843870898
 31
0.0
  0
LINE
  5
A202
  8
AM_0
  6
CONTINUOUS
 10
408.01641964640089
 20
422.4764334387088
 30
0.0
 11
216.19436764640091
 21
422.4764334387088
 31
0.0
  0
LINE
  5
A203
  8
AM_0
  6
CONTINUOUS
 10
408.03944764640079
 20
427.91278643870902
 30
0.0
 11
216.21213164640099
 21
427.91278643870902
 31
0.0
  0
LINE
  5
A204
  8
AM_0
  6
CONTINUOUS
 10
407.972609646401
 20
433.825257438709
 30
0.0
 11
216.21779964640089
 21
433.825257438709
 31
0.0
  0
LINE
  5
A205
  8
AM_0
  6
CONTINUOUS
 10
361.59035764640089
 20
586.90362343870913
 30
0.0
 11
361.59035764640089
 21
572.92614843870911
 31
0.0
  0
LINE
  5
A206
  8
AM_0
  6
CONTINUOUS
 10
377.63348064640093
 20
591.50348543870905
 30
0.0
 11
377.63348064640093
 21
588.91893543870913
 31
0.0
  0
LINE
  5
A207
  8
AM_0
  6
CONTINUOUS
 10
354.43109364640088
 20
541.88614843870914
 30
0.0
 11
411.63348164640092
 21
541.88614843870914
 31
0.0
  0
LINE
  5
A208
  8
AM_0
  6
CONTINUOUS
 10
354.45461164640091
 20
541.39614843870913
 30
0.0
 11
409.87348164640088
 21
541.39614843870913
 31
0.0
  0
LINE
  5
A209
  8
AM_0
  6
CONTINUOUS
 10
354.52757764640091
 20
539.796148438709
 30
0.0
 11
409.87348164640088
 21
539.796148438709
 31
0.0
  0
LINE
  5
A20A
  8
AM_0
  6
CONTINUOUS
 10
354.52757764640091
 20
539.24614843870904
 30
0.0
 11
411.63348164640092
 21
539.24614843870904
 31
0.0
  0
LINE
  5
A20B
  8
AM_0
  6
CONTINUOUS
 10
354.57209964640089
 20
486.88614843870909
 30
0.0
 11
411.63348164640092
 21
486.88614843870909
 31
0.0
  0
LINE
  5
A20C
  8
AM_0
  6
CONTINUOUS
 10
354.55069864640092
 20
486.39614843870908
 30
0.0
 11
409.87348164640088
 21
486.39614843870908
 31
0.0
  0
LINE
  5
A20D
  8
AM_0
  6
CONTINUOUS
 10
354.47802464640091
 20
484.79614843870911
 30
0.0
 11
409.87348164640088
 21
484.79614843870911
 31
0.0
  0
LINE
  5
A20E
  8
AM_0
  6
CONTINUOUS
 10
354.45205564640088
 20
484.2461484387091
 30
0.0
 11
411.63348164640092
 21
484.2461484387091
 31
0.0
  0
LINE
  5
A20F
  8
AM_0
  6
CONTINUOUS
 10
355.11737764640088
 20
517.24614843870904
 30
0.0
 11
411.63348164640092
 21
517.24614843870904
 31
0.0
  0
LINE
  5
A210
  8
AM_0
  6
CONTINUOUS
 10
355.11309764640089
 20
517.79614843870911
 30
0.0
 11
409.87348164640088
 21
517.79614843870911
 31
0.0
  0
LINE
  5
A211
  8
AM_0
  6
CONTINUOUS
 10
354.94709164640091
 20
497.88614843870897
 30
0.0
 11
411.63348164640092
 21
497.88614843870897
 31
0.0
  0
LINE
  5
A212
  8
AM_0
  6
CONTINUOUS
 10
354.93468164640092
 20
497.39614843870908
 30
0.0
 11
409.87348164640088
 21
497.39614843870908
 31
0.0
  0
LINE
  5
A213
  8
AM_0
  6
CONTINUOUS
 10
354.8913706464009
 20
495.79614843870911
 30
0.0
 11
409.87348164640088
 21
495.79614843870911
 31
0.0
  0
LINE
  5
A214
  8
AM_0
  6
CONTINUOUS
 10
354.87549664640102
 20
495.24614843870899
 30
0.0
 11
411.63348164640092
 21
495.24614843870899
 31
0.0
  0
LINE
  5
A215
  8
AM_0
  6
CONTINUOUS
 10
355.120414646401
 20
508.88614843870897
 30
0.0
 11
411.63348164640092
 21
508.88614843870897
 31
0.0
  0
LINE
  5
A216
  8
AM_0
  6
CONTINUOUS
 10
355.11698264640091
 20
508.39614843870908
 30
0.0
 11
409.87348164640088
 21
508.39614843870908
 31
0.0
  0
LINE
  5
A217
  8
AM_0
  6
CONTINUOUS
 10
355.10299064640088
 20
506.796148438709
 30
0.0
 11
409.87348164640088
 21
506.796148438709
 31
0.0
  0
LINE
  5
A218
  8
AM_0
  6
CONTINUOUS
 10
355.09719664640102
 20
506.2461484387091
 30
0.0
 11
411.63348164640092
 21
506.2461484387091
 31
0.0
  0
LINE
  5
A219
  8
AM_0
  6
CONTINUOUS
 10
354.87706864640103
 20
530.88614843870914
 30
0.0
 11
411.63348164640092
 21
530.88614843870914
 31
0.0
  0
LINE
  5
A21A
  8
AM_0
  6
CONTINUOUS
 10
354.87706864640103
 20
530.39614843870913
 30
0.0
 11
409.87348164640088
 21
530.39614843870913
 31
0.0
  0
LINE
  5
A21B
  8
AM_0
  6
CONTINUOUS
 10
354.921702646401
 20
528.79614843870911
 30
0.0
 11
409.87348164640088
 21
528.79614843870911
 31
0.0
  0
LINE
  5
A21C
  8
AM_0
  6
CONTINUOUS
 10
354.93606064640102
 20
528.24614843870904
 30
0.0
 11
411.63348164640092
 21
528.24614843870904
 31
0.0
  0
LINE
  5
A21D
  8
AM_0
  6
CONTINUOUS
 10
355.09224164640091
 20
519.88614843870914
 30
0.0
 11
411.63348164640092
 21
519.88614843870914
 31
0.0
  0
LINE
  5
A21E
  8
AM_0
  6
CONTINUOUS
 10
355.0977846464009
 20
519.39614843870913
 30
0.0
 11
409.87348164640088
 21
519.39614843870913
 31
0.0
  0
LINE
  5
A21F
  8
AM_0
  6
CONTINUOUS
 10
413.63348164640092
 20
425.06614843870909
 30
0.0
 11
413.63348164640092
 21
450.87686943870898
 31
0.0
  0
LINE
  5
A220
  8
AM_0
  6
CONTINUOUS
 10
411.06249264640098
 20
425.06614843870909
 30
0.0
 11
413.63348164640092
 21
425.06614843870909
 31
0.0
  0
LINE
  5
A221
  8
AM_0
  6
CONTINUOUS
 10
411.63348164640092
 20
572.92614843870911
 30
0.0
 11
409.87348164640088
 21
572.36614843870916
 31
0.0
  0
LINE
  5
A222
  8
AM_0
  6
CONTINUOUS
 10
409.87348164640088
 20
570.76614843870902
 30
0.0
 11
411.63348164640092
 21
570.22614843870895
 31
0.0
  0
LINE
  5
A223
  8
AM_0
  6
CONTINUOUS
 10
411.63348164640092
 20
570.22614843870895
 30
0.0
 11
411.63348164640092
 21
572.92614843870911
 31
0.0
  0
LINE
  5
A224
  8
AM_0
  6
CONTINUOUS
 10
409.87348164640088
 20
570.76614843870902
 30
0.0
 11
409.87348164640088
 21
572.36614843870916
 31
0.0
  0
LINE
  5
A225
  8
AM_0
  6
CONTINUOUS
 10
411.63348164640092
 20
564.88114843870903
 30
0.0
 11
409.87348164640088
 21
564.34114843870896
 31
0.0
  0
LINE
  5
A226
  8
AM_0
  6
CONTINUOUS
 10
409.87348164640088
 20
562.74114843870905
 30
0.0
 11
411.63348164640092
 21
562.25114843870915
 31
0.0
  0
LINE
  5
A227
  8
AM_0
  6
CONTINUOUS
 10
409.87348164640088
 20
562.74114843870905
 30
0.0
 11
409.87348164640088
 21
564.34114843870896
 31
0.0
  0
LINE
  5
A228
  8
AM_0
  6
CONTINUOUS
 10
411.63348164640092
 20
562.25114843870915
 30
0.0
 11
411.63348164640092
 21
564.88114843870903
 31
0.0
  0
LINE
  5
A229
  8
AM_0
  6
CONTINUOUS
 10
346.63348164640092
 20
573.1903354387091
 30
0.0
 11
345.01157264640102
 21
590.25607843870876
 31
0.0
  0
LINE
  5
A22A
  8
AM_0
  6
CONTINUOUS
 10
346.63348164640092
 20
579.73127143870897
 30
0.0
 11
345.01295864640088
 21
596.26263943870913
 31
0.0
  0
LINE
  5
A22B
  8
AM_0
  6
CONTINUOUS
 10
213.8981606464009
 20
586.90362343870913
 30
0.0
 11
212.6334816464009
 21
586.90362343870913
 31
0.0
  0
LINE
  5
A22C
  8
AM_0
  6
CONTINUOUS
 10
212.6334816464009
 20
572.92614843870911
 30
0.0
 11
214.39348164640089
 21
572.36614843870916
 31
0.0
  0
LINE
  5
A22D
  8
AM_0
  6
CONTINUOUS
 10
214.39348164640089
 20
570.76614843870902
 30
0.0
 11
212.6334816464009
 21
570.22614843870895
 31
0.0
  0
LINE
  5
A22E
  8
AM_0
  6
CONTINUOUS
 10
212.6334816464009
 20
564.88114843870903
 30
0.0
 11
214.39348164640089
 21
564.34114843870896
 31
0.0
  0
LINE
  5
A22F
  8
AM_0
  6
CONTINUOUS
 10
214.39348164640089
 20
562.74114843870905
 30
0.0
 11
212.6334816464009
 21
562.25114843870915
 31
0.0
  0
LINE
  5
A230
  8
AM_0
  6
CONTINUOUS
 10
212.6334816464009
 20
570.22614843870895
 30
0.0
 11
212.6334816464009
 21
572.92614843870911
 31
0.0
  0
LINE
  5
A231
  8
AM_0
  6
CONTINUOUS
 10
214.39348164640089
 20
570.76614843870902
 30
0.0
 11
214.39348164640089
 21
572.36614843870916
 31
0.0
  0
LINE
  5
A232
  8
AM_0
  6
CONTINUOUS
 10
214.39348164640089
 20
562.74114843870905
 30
0.0
 11
214.39348164640089
 21
564.34114843870896
 31
0.0
  0
LINE
  5
A233
  8
AM_0
  6
CONTINUOUS
 10
212.6334816464009
 20
562.25114843870915
 30
0.0
 11
212.6334816464009
 21
564.88114843870903
 31
0.0
  0
LINE
  5
A234
  8
AM_0
  6
CONTINUOUS
 10
212.6334816464009
 20
551.78558343870895
 30
0.0
 11
265.39696864640098
 21
551.78558343870895
 31
0.0
  0
LINE
  5
A235
  8
AM_0
  6
CONTINUOUS
 10
221.0034816464009
 20
550.93381043870875
 30
0.0
 11
265.34223864640092
 21
550.93381043870875
 31
0.0
  0
LINE
  5
A236
  8
AM_0
  6
CONTINUOUS
 10
212.6334816464009
 20
551.78558343870895
 30
0.0
 11
221.0034816464009
 21
550.93381043870875
 31
0.0
  0
LINE
  5
A237
  8
AM_0
  6
CONTINUOUS
 10
219.30858764640081
 20
474.34671343870912
 30
0.0
 11
265.36877264640088
 21
474.34671343870912
 31
0.0
  0
LINE
  5
A238
  8
AM_0
  6
CONTINUOUS
 10
221.0034816464009
 20
475.1984864387091
 30
0.0
 11
265.3146656464009
 21
475.1984864387091
 31
0.0
  0
LINE
  5
A239
  8
AM_0
  6
CONTINUOUS
 10
212.6334816464009
 20
478.70735943870909
 30
0.0
 11
212.6334816464009
 21
551.78558343870895
 31
0.0
  0
LINE
  5
A23A
  8
AM_0
  6
CONTINUOUS
 10
212.6334816464009
 20
478.70735943870909
 30
0.0
 11
218.0966576464009
 21
474.90267343870909
 31
0.0
  0
LINE
  5
A23B
  8
AM_0
  6
CONTINUOUS
 10
218.0966576464009
 20
474.90267343870909
 30
0.0
 11
219.30858764640081
 21
474.34671343870912
 31
0.0
  0
LINE
  5
A23C
  8
AM_0
  6
CONTINUOUS
 10
218.0966576464009
 20
474.90267343870909
 30
0.0
 11
221.0034816464009
 21
475.1984864387091
 31
0.0
  0
LINE
  5
A23D
  8
AM_0
  6
CONTINUOUS
 10
221.0034816464009
 20
475.1984864387091
 30
0.0
 11
221.0034816464009
 21
550.93381043870875
 31
0.0
  0
LINE
  5
A23E
  8
AM_0
  6
CONTINUOUS
 10
209.1334816464009
 20
596.68644543870914
 30
0.0
 11
212.91024064640089
 21
596.68644543870914
 31
0.0
  0
LINE
  5
A23F
  8
AM_0
  6
CONTINUOUS
 10
298.63348164640092
 20
614.06614843870909
 30
0.0
 11
320.63348164640092
 21
614.06614843870909
 31
0.0
  0
LINE
  5
A240
  8
AM_0
  6
CONTINUOUS
 10
298.63348164640092
 20
614.06614843870909
 30
0.0
 11
298.63348164640092
 21
610.16286743870899
 31
0.0
  0
LINE
  5
A241
  8
AM_0
  6
CONTINUOUS
 10
320.63348164640092
 20
614.06614843870909
 30
0.0
 11
320.63348164640092
 21
610.16286743870899
 31
0.0
  0
LINE
  5
A242
  8
AM_0
  6
CONTINUOUS
 10
214.39348164640089
 20
570.76614843870902
 30
0.0
 11
409.87348164640088
 21
570.76614843870902
 31
0.0
  0
LINE
  5
A243
  8
AM_0
  6
CONTINUOUS
 10
214.39348164640089
 20
572.36614843870916
 30
0.0
 11
409.87348164640088
 21
572.36614843870916
 31
0.0
  0
LINE
  5
A244
  8
AM_0
  6
CONTINUOUS
 10
212.6334816464009
 20
570.22614843870895
 30
0.0
 11
411.63348164640092
 21
570.22614843870895
 31
0.0
  0
LINE
  5
A245
  8
AM_0
  6
CONTINUOUS
 10
212.6334816464009
 20
572.92614843870911
 30
0.0
 11
411.63348164640092
 21
572.92614843870911
 31
0.0
  0
LINE
  5
A246
  8
AM_0
  6
CONTINUOUS
 10
212.6334816464009
 20
562.25114843870915
 30
0.0
 11
266.485148646401
 21
562.25114843870915
 31
0.0
  0
LINE
  5
A247
  8
AM_0
  6
CONTINUOUS
 10
212.6334816464009
 20
564.88114843870903
 30
0.0
 11
268.49509764640089
 21
564.88114843870903
 31
0.0
  0
LINE
  5
A248
  8
AM_0
  6
CONTINUOUS
 10
214.39348164640089
 20
562.74114843870905
 30
0.0
 11
266.71590564640098
 21
562.74114843870905
 31
0.0
  0
LINE
  5
A249
  8
AM_0
  6
CONTINUOUS
 10
214.39348164640089
 20
564.34114843870896
 30
0.0
 11
267.88730764640093
 21
564.34114843870896
 31
0.0
  0
LINE
  5
A24A
  8
AM_0
  6
CONTINUOUS
 10
416.63348164640092
 20
428.06614843870898
 30
0.0
 11
413.63348164640092
 21
425.06614843870909
 31
0.0
  0
LINE
  5
A24B
  8
AM_0
  6
CONTINUOUS
 10
416.63348164640092
 20
598.06614843870886
 30
0.0
 11
413.63348164640092
 21
601.06614843870909
 31
0.0
  0
LINE
  5
A24C
  8
AM_0
  6
CONTINUOUS
 10
416.63348164640092
 20
428.06614843870898
 30
0.0
 11
416.63348164640092
 21
598.06614843870886
 31
0.0
  0
LINE
  5
A361
  8
0
  6
CONTINUOUS
 62
     7
 10
434.5637416464009
 20
994.58017908233523
 30
0.0
 11
445.6335116464009
 21
994.96676908233519
 31
0.0
  0
LINE
  5
A362
  8
0
  6
CONTINUOUS
 62
     7
 10
432.63344164640102
 20
729.62661908233508
 30
0.0
 11
432.63344164640102
 21
856.29696908233541
 31
0.0
  0
LINE
  5
A363
  8
0
  6
CONTINUOUS
 62
     7
 10
445.6335116464009
 20
726.09842908233509
 30
0.0
 11
445.6335116464009
 21
861.83639908233522
 31
0.0
  0
LINE
  5
A364
  8
0
  6
CONTINUOUS
 62
     7
 10
432.63344164640102
 20
788.27060908233523
 30
0.0
 11
445.6335116464009
 21
788.27060908233523
 31
0.0
  0
LINE
  5
A365
  8
0
  6
CONTINUOUS
 62
     7
 10
432.63344164640102
 20
814.27188908233541
 30
0.0
 11
445.6335116464009
 21
814.27188908233541
 31
0.0
  0
LINE
  5
A366
  8
0
  6
CONTINUOUS
 62
     7
 10
432.63344164640102
 20
917.40091908233558
 30
0.0
 11
445.6335116464009
 21
917.40091908233558
 31
0.0
  0
LINE
  5
A367
  8
0
  6
CONTINUOUS
 62
     7
 10
432.63344164640102
 20
943.40219908233507
 30
0.0
 11
445.6335116464009
 21
943.40219908233507
 31
0.0
  0
LINE
  5
A368
  8
0
  6
CONTINUOUS
 62
     7
 10
434.5637416464009
 20
737.09262908233541
 30
0.0
 11
445.63357164640098
 21
736.70602908233548
 31
0.0
  0
LINE
  5
A369
  8
0
  6
CONTINUOUS
 62
     7
 10
445.6335116464009
 20
869.83633908233514
 30
0.0
 11
445.6335116464009
 21
1005.574379082335
 31
0.0
  0
LINE
  5
A36A
  8
0
  6
CONTINUOUS
 62
     7
 10
432.63344164640102
 20
875.37582908233537
 30
0.0
 11
432.63344164640102
 21
1002.046179082335
 31
0.0
  0
LINE
  5
A36B
  8
0
  6
CONTINUOUS
 62
     7
 10
445.6335116464009
 20
726.09842908233509
 30
0.0
 11
435.47646164640088
 21
726.63070908233522
 31
0.0
  0
LINE
  5
A36C
  8
0
  6
CONTINUOUS
 62
     7
 10
445.6335116464009
 20
1005.574379082335
 30
0.0
 11
435.47646164640088
 21
1005.042089082335
 31
0.0
  0
LINE
  5
A36D
  8
0
  6
CONTINUOUS
 62
     7
 10
501.3210116464009
 20
938.73843908233505
 30
0.0
 11
543.63351164640085
 21
938.73843908233505
 31
0.0
  0
LINE
  5
A36E
  8
0
  6
CONTINUOUS
 62
     7
 10
445.6335116464009
 20
943.40213908233568
 30
0.0
 11
497.42922164640049
 21
943.40213908233568
 31
0.0
  0
LINE
  5
A36F
  8
0
  6
CONTINUOUS
 62
     7
 10
445.63344164640091
 20
1005.574319082335
 30
0.0
 11
546.56704164640075
 21
1007.8100290823349
 31
0.0
  0
LINE
  5
A370
  8
0
  6
CONTINUOUS
 62
     7
 10
445.6335116464009
 20
994.96676908233519
 30
0.0
 11
543.63351164640085
 21
998.38894908233533
 31
0.0
  0
LINE
  5
A371
  8
0
  6
CONTINUOUS
 62
     7
 10
445.6335116464009
 20
917.40091908233558
 30
0.0
 11
543.63351164640085
 21
917.40091908233558
 31
0.0
  0
LINE
  5
A372
  8
0
  6
CONTINUOUS
 62
     7
 10
501.3210116464009
 20
792.9342990823352
 30
0.0
 11
543.63351164640085
 21
792.9342990823352
 31
0.0
  0
LINE
  5
A373
  8
0
  6
CONTINUOUS
 62
     7
 10
567.63351164640085
 20
886.83639908233499
 30
0.0
 11
637.63348164640092
 21
886.83639908233499
 31
0.0
  0
LINE
  5
A374
  8
0
  6
CONTINUOUS
 62
     7
 10
567.63351164640085
 20
844.83639908233522
 30
0.0
 11
637.63348164640092
 21
844.83639908233522
 31
0.0
  0
LINE
  5
A375
  8
0
  6
CONTINUOUS
 62
     7
 10
565.63344164640102
 20
888.33639908233545
 30
0.0
 11
567.63351164640085
 21
888.33639908233545
 31
0.0
  0
LINE
  5
A376
  8
0
  6
CONTINUOUS
 62
     7
 10
565.63344164640102
 20
843.33639908233522
 30
0.0
 11
567.63351164640085
 21
843.33639908233522
 31
0.0
  0
LINE
  5
A377
  8
0
  6
CONTINUOUS
 62
     7
 10
567.63351164640085
 20
843.33639908233522
 30
0.0
 11
567.63351164640085
 21
888.33639908233545
 31
0.0
  0
LINE
  5
A378
  8
0
  6
CONTINUOUS
 62
     7
 10
637.63348164640092
 20
844.83639908233522
 30
0.0
 11
637.63348164640092
 21
886.83639908233499
 31
0.0
  0
LINE
  5
A379
  8
0
  6
CONTINUOUS
 62
     7
 10
581.63351164640073
 20
871.83633908233514
 30
0.0
 11
581.63351164640073
 21
859.83633908233526
 31
0.0
  0
LINE
  5
A37A
  8
0
  6
CONTINUOUS
 62
     7
 10
581.63351164640073
 20
871.83633908233514
 30
0.0
 11
637.63348164640092
 21
871.83633908233514
 31
0.0
  0
LINE
  5
A37B
  8
0
  6
CONTINUOUS
 62
     7
 10
445.6335116464009
 20
736.70602908233548
 30
0.0
 11
543.63351164640085
 21
733.28378908233537
 31
0.0
  0
LINE
  5
A37C
  8
0
  6
CONTINUOUS
 62
     7
 10
445.63344164640091
 20
726.09842908233509
 30
0.0
 11
546.56704164640075
 21
723.86276908233549
 31
0.0
  0
LINE
  5
A37D
  8
0
  6
CONTINUOUS
 62
     7
 10
445.6335116464009
 20
788.27060908233523
 30
0.0
 11
497.42922164640049
 21
788.27060908233523
 31
0.0
  0
LINE
  5
A37E
  8
0
  6
CONTINUOUS
 62
     7
 10
581.63351164640073
 20
859.83633908233526
 30
0.0
 11
637.63348164640092
 21
859.83633908233526
 31
0.0
  0
LINE
  5
A37F
  8
0
  6
CONTINUOUS
 62
     7
 10
533.50210164640089
 20
792.9342990823352
 30
0.0
 11
543.63351164640085
 21
785.37619908233523
 31
0.0
  0
LINE
  5
A380
  8
0
  6
CONTINUOUS
 62
     7
 10
541.48611164640124
 20
768.83273908233548
 30
0.0
 11
508.98336164640108
 21
788.27060908233523
 31
0.0
  0
LINE
  5
A381
  8
0
  6
CONTINUOUS
 62
     7
 10
541.19979164640085
 20
762.58975908233515
 30
0.0
 11
499.78121164640072
 21
787.35952908233514
 31
0.0
  0
LINE
  5
A382
  8
0
  6
CONTINUOUS
 62
     7
 10
546.52877164640086
 20
723.86380908233537
 30
0.0
 11
561.63344164640102
 21
723.33633908233526
 31
0.0
  0
LINE
  5
A383
  8
0
  6
CONTINUOUS
 62
     7
 10
543.63351164640085
 20
726.84536908233554
 30
0.0
 11
543.63351164640085
 21
1004.810769082335
 31
0.0
  0
LINE
  5
A384
  8
0
  6
CONTINUOUS
 62
     7
 10
561.63344164640102
 20
723.33639908233522
 30
0.0
 11
561.63344164640102
 21
1008.336339082335
 31
0.0
  0
LINE
  5
A385
  8
0
  6
CONTINUOUS
 62
     7
 10
546.52877164640086
 20
1007.808939082335
 30
0.0
 11
561.63344164640102
 21
1008.336399082335
 31
0.0
  0
LINE
  5
A386
  8
0
  6
CONTINUOUS
 62
     7
 10
551.63344164640057
 20
754.87906908233549
 30
0.0
 11
551.63344164640057
 21
976.79367908233542
 31
0.0
  0
LINE
  5
A387
  8
0
  6
CONTINUOUS
 62
     7
 10
565.63344164640102
 20
745.83639908233522
 30
0.0
 11
565.63344164640102
 21
985.83633908233526
 31
0.0
  0
LINE
  5
A388
  8
0
  6
CONTINUOUS
 62
     7
 10
561.63344164640102
 20
985.83633908233526
 30
0.0
 11
565.63344164640102
 21
985.83633908233526
 31
0.0
  0
LINE
  5
A389
  8
0
  6
CONTINUOUS
 62
     7
 10
561.63344164640102
 20
745.83639908233522
 30
0.0
 11
565.63344164640102
 21
745.83639908233522
 31
0.0
  0
LINE
  5
A38A
  8
0
  6
CONTINUOUS
 62
     7
 10
541.19973164640101
 20
969.08297908233499
 30
0.0
 11
499.78121164640072
 21
944.31314908233537
 31
0.0
  0
LINE
  5
A38B
  8
0
  6
CONTINUOUS
 62
     7
 10
541.48611164640124
 20
962.83999908233523
 30
0.0
 11
508.98330164640049
 21
943.40219908233507
 31
0.0
  0
LINE
  5
A38C
  8
0
  6
CONTINUOUS
 62
     7
 10
533.50210164640089
 20
938.73849908233535
 30
0.0
 11
543.63344164640046
 21
946.29654908233545
 31
0.0
  0
LINE
  5
A38D
  8
0
  6
CONTINUOUS
 62
     7
 10
445.6335116464009
 20
814.27182908233544
 30
0.0
 11
543.63351164640085
 21
814.27182908233544
 31
0.0
  0
ARC
  5
A38E
  8
0
  6
CONTINUOUS
 62
     7
 10
434.63351164640079
 20
992.58139908233568
 30
0.0
 40
2.0
 50
91.999998000000545
 51
180.000010000001
  0
ARC
  5
A38F
  8
0
  6
CONTINUOUS
 62
     7
 10
435.63344164640063
 20
1002.046179082335
 30
0.0
 40
3.0
 50
92.999999000001679
 51
180.000010000001
  0
ARC
  5
A390
  8
0
  6
CONTINUOUS
 62
     7
 10
434.63351164640079
 20
739.09146908233549
 30
0.0
 40
2.0
 50
179.999989999999
 51
268.00000999999861
  0
ARC
  5
A391
  8
0
  6
CONTINUOUS
 62
     7
 10
435.63344164640063
 20
729.62661908233508
 30
0.0
 40
3.0
 50
180.000010000001
 51
266.99999000000031
  0
ARC
  5
A392
  8
0
  6
CONTINUOUS
 62
     7
 10
446.13357164640092
 20
865.83639908233511
 30
0.0
 40
3.9999962
 50
270.0
 51
90.00000299999769
  0
ARC
  5
A393
  8
0
  6
CONTINUOUS
 62
     7
 10
581.63351164640073
 20
865.83633908233503
 30
0.0
 40
6.0000037999999991
 50
90.00000299999769
 51
270.0
  0
ARC
  5
A394
  8
0
  6
CONTINUOUS
 62
     7
 10
501.3210116464009
 20
941.73843908233516
 30
0.0
 40
3.0
 50
120.8809700000043
 51
270.0
  0
ARC
  5
A395
  8
0
  6
CONTINUOUS
 62
     7
 10
497.42922164640049
 20
946.40213908233534
 30
0.0
 40
3.0
 50
270.0
 51
300.88098000000019
  0
ARC
  5
A396
  8
0
  6
CONTINUOUS
 62
     7
 10
501.3210116464009
 20
789.9342990823352
 30
0.0
 40
3.0
 50
90.00000299999769
 51
239.11901999999989
  0
ARC
  5
A397
  8
0
  6
CONTINUOUS
 62
     7
 10
497.42922164640049
 20
785.27060908233523
 30
0.0
 40
3.0
 50
59.11902300000196
 51
90.00000299999769
  0
ARC
  5
A398
  8
0
  6
CONTINUOUS
 62
     7
 10
546.63344164640068
 20
726.8619790823351
 30
0.0
 40
3.0
 50
179.999989999999
 51
268.00000999999861
  0
ARC
  5
A399
  8
0
  6
CONTINUOUS
 62
     7
 10
548.63351164640085
 20
799.70193908233534
 30
0.0
 40
5.0
 50
90.00000299999769
 51
180.000010000001
  0
ARC
  5
A39A
  8
0
  6
CONTINUOUS
 62
     7
 10
538.63351164640085
 20
758.29855908233549
 30
0.0
 40
5.0
 50
0.0
 51
59.11901699999779
  0
ARC
  5
A39B
  8
0
  6
CONTINUOUS
 62
     7
 10
546.63344164640068
 20
1004.810769082335
 30
0.0
 40
3.0
 50
91.999998000000545
 51
180.000010000001
  0
ARC
  5
A39C
  8
0
  6
CONTINUOUS
 62
     7
 10
548.63351164640085
 20
931.97079908233559
 30
0.0
 40
5.0
 50
179.999989999999
 51
270.0
  0
ARC
  5
A39D
  8
0
  6
CONTINUOUS
 62
     7
 10
546.63344164640068
 20
976.79367908233542
 30
0.0
 40
5.0
 50
0.0
 51
91.999998000000545
  0
ARC
  5
A39E
  8
0
  6
CONTINUOUS
 62
     7
 10
538.63351164640085
 20
973.3741790823351
 30
0.0
 40
5.0
 50
300.88098000000019
 51
0.0
  0
ARC
  5
A39F
  8
0
  6
CONTINUOUS
 62
     7
 10
546.63344164640068
 20
754.87906908233549
 30
0.0
 40
5.0
 50
267.99999999999619
 51
0.0
  0
POLYLINE
  5
A3A0
  8
0
  6
CONTINUOUS
 62
     7
 66
     1
 10
0.0
 20
0.0
 30
0.0
  0
VERTEX
  5
A3A1
  8
0
  6
CONTINUOUS
 62
     7
 10
522.49771164640094
 20
917.40088908233508
 30
0.0
 42
0.030646501
  0
VERTEX
  5
A3A2
  8
0
  6
CONTINUOUS
 62
     7
 10
518.08816164640086
 20
883.11748908233585
 30
0.0
 42
0.064801596
  0
VERTEX
  5
A3A3
  8
0
  6
CONTINUOUS
 62
     7
 10
522.49771164640094
 20
814.27186908233523
 30
0.0
  0
SEQEND
  5
A3A4
  8
0
 62
     7
  0
POLYLINE
  5
A3A5
  8
0
  6
CONTINUOUS
 62
     7
 66
     1
 10
0.0
 20
0.0
 30
0.0
  0
VERTEX
  5
A3A6
  8
0
  6
CONTINUOUS
 62
     7
 10
535.97461164640094
 20
765.71441908233555
 30
0.0
 42
0.0052467293
  0
VERTEX
  5
A3A7
  8
0
  6
CONTINUOUS
 62
     7
 10
538.3948316464008
 20
759.30458908233516
 30
0.0
 42
0.0052066122
  0
VERTEX
  5
A3A8
  8
0
  6
CONTINUOUS
 62
     7
 10
540.94850164640093
 20
752.94675908233546
 30
0.0
 42
0.0051740405
  0
VERTEX
  5
A3A9
  8
0
  6
CONTINUOUS
 62
     7
 10
543.63351164640085
 20
746.64352908233548
 30
0.0
  0
SEQEND
  5
A3AA
  8
0
 62
     7
  0
POLYLINE
  5
A3AB
  8
0
  6
CONTINUOUS
 62
     7
 66
     1
 10
0.0
 20
0.0
 30
0.0
  0
VERTEX
  5
A3AC
  8
0
  6
CONTINUOUS
 62
     7
 10
543.63351164640085
 20
985.02920908233568
 30
0.0
  0
VERTEX
  5
A3AD
  8
0
  6
CONTINUOUS
 62
     7
 10
535.97468164640077
 20
965.9585190823351
 30
0.0
 42
-1.0
  0
SEQEND
  5
A3AE
  8
0
 62
     7
  0
LINE
  5
A42D
  8
AM_0
 10
843.55557862389105
 20
568.56620843870814
 30
0.0
 11
855.55557862389105
 21
568.56620843870814
 31
0.0
  0
LINE
  5
A42E
  8
AM_0
 10
855.55557862389105
 20
576.56620843870814
 30
0.0
 11
855.55557862389105
 21
568.56620843870814
 31
0.0
  0
LINE
  5
A42F
  8
AM_0
 10
843.55557862389105
 20
576.56620843870814
 30
0.0
 11
843.55557862389105
 21
568.56620843870814
 31
0.0
  0
LINE
  5
A430
  8
AM_0
 10
843.55557862389105
 20
576.56620843870814
 30
0.0
 11
855.55557862389105
 21
576.56620843870814
 31
0.0
  0
LINE
  5
A431
  8
AM_0
 10
774.89630862389095
 20
399.39469843870842
 30
0.0
 11
772.60966708005083
 21
407.9285833013106
 31
0.0
  0
LINE
  5
A432
  8
AM_0
 10
911.96735362389063
 20
392.32362343870841
 30
0.0
 11
903.43350777670003
 21
394.61027508166268
 31
0.0
  0
LINE
  5
A433
  8
AM_0
 10
787.14377362389132
 20
392.32362343870841
 30
0.0
 11
795.67766235545594
 21
394.6102692946755
 31
0.0
  0
LINE
  5
A434
  8
AM_0
 10
924.21481862389101
 20
399.39469843870842
 30
0.0
 11
926.50144567228836
 21
407.92855119498932
 31
0.0
  0
LINE
  5
A435
  8
AM_0
 10
955.07807362389121
 20
524.56620843870814
 30
0.0
 11
919.55557862389117
 21
524.56620843870814
 31
0.0
  0
LINE
  5
A436
  8
0
  6
AM_ISO08W050
 10
981.60546063502807
 20
684.61604816968122
 30
0.0
 11
957.42609675099175
 21
660.43669954080212
 31
0.0
  0
LINE
  5
A437
  8
AM_0
 10
989.5527286238912
 20
674.23807343870828
 30
0.0
 11
992.05556362389143
 21
602.56620843870814
 31
0.0
  0
LINE
  5
A438
  8
AM_0
 10
971.22739362389063
 20
692.56337343870814
 30
0.0
 11
899.55560862389109
 21
695.06617343870823
 31
0.0
  0
LINE
  5
A439
  8
AM_0
 10
899.55557862389082
 20
695.06617343870823
 30
0.0
 11
849.5555786238906
 21
695.06617343870823
 31
0.0
  0
LINE
  5
A43A
  8
AM_0
 10
992.05556362389143
 20
602.56617843870822
 30
0.0
 11
992.05556362389143
 21
552.56617843870833
 31
0.0
  0
LINE
  5
A43B
  8
AM_0
 10
799.55557862389082
 20
695.06617343870823
 30
0.0
 11
849.5555786238906
 21
695.06617343870823
 31
0.0
  0
LINE
  5
A43C
  8
AM_0
 10
744.03308362389055
 20
524.56620843870814
 30
0.0
 11
779.55557862389071
 21
524.56620843870814
 31
0.0
  0
LINE
  5
A43D
  8
AM_0
 10
846.05557862389082
 20
660.2311734387082
 30
0.0
 11
846.05557862389082
 21
641.2814734387083
 31
0.0
  0
LINE
  5
A43E
  8
AM_0
 10
853.05557862389105
 20
660.2311734387082
 30
0.0
 11
853.05557862389105
 21
641.2814734387083
 31
0.0
  0
LINE
  5
A43F
  8
AM_0
 10
922.05951862389065
 20
632.14116343870819
 30
0.0
 11
892.8655486238913
 21
602.94719343870815
 31
0.0
  0
LINE
  5
A440
  8
AM_0
 10
787.55557862389082
 20
552.56617843870833
 30
0.0
 11
787.55557862389082
 21
532.56617843870833
 31
0.0
  0
LINE
  5
A441
  8
AM_0
 10
899.55557862389082
 20
410.06617843870828
 30
0.0
 11
849.5555786238906
 21
410.06617843870828
 31
0.0
  0
LINE
  5
A442
  8
AM_0
 10
727.88376362389124
 20
692.56342343870824
 30
0.0
 11
799.55560862389132
 21
695.06622343870822
 31
0.0
  0
LINE
  5
A443
  8
AM_0
 10
709.55843362389055
 20
674.23807343870828
 30
0.0
 11
707.0555836238907
 21
602.56617843870822
 31
0.0
  0
LINE
  5
A444
  8
0
  6
AM_ISO08W050
 10
981.69119303667412
 20
420.43056935201508
 30
0.0
 11
955.19205917175339
 21
446.9297252026692
 31
0.0
  0
LINE
  5
A445
  8
AM_0
 10
992.05556362389143
 20
502.56617843870828
 30
0.0
 11
992.05556362389143
 21
552.56617843870833
 31
0.0
  0
LINE
  5
A446
  8
AM_0
 10
989.55274362389071
 20
430.89439343870828
 30
0.0
 11
992.05556362389143
 21
502.56617843870828
 31
0.0
  0
LINE
  5
A447
  8
AM_0
 10
971.22739362389063
 20
412.56901343870828
 30
0.0
 11
899.55557862389082
 21
410.0662084387082
 31
0.0
  0
LINE
  5
A448
  8
AM_0
 10
709.55843362389055
 20
430.8943634387083
 30
0.0
 11
707.0555836238907
 21
502.5662384387083
 31
0.0
  0
LINE
  5
A449
  8
AM_0
 10
727.88376362389124
 20
412.56904343870821
 30
0.0
 11
799.55560862389132
 21
410.0662084387082
 31
0.0
  0
LINE
  5
A44A
  8
AM_0
 10
799.55557862389082
 20
410.06617843870828
 30
0.0
 11
849.5555786238906
 21
410.06617843870828
 31
0.0
  0
LINE
  5
A44B
  8
0
  6
AM_ISO08W050
 10
717.38158326903317
 20
420.39214903490557
 30
0.0
 11
741.99108532901369
 21
445.00165466040869
 31
0.0
  0
LINE
  5
A44C
  8
0
  6
AM_ISO08W050
 10
717.41588362861603
 20
684.70592187927639
 30
0.0
 11
741.76355443453474
 21
660.35824403935305
 31
0.0
  0
LINE
  5
A44D
  8
AM_0
 10
769.98059362389085
 20
625.07011843870816
 30
0.0
 11
799.17456362389112
 21
595.87614843870824
 31
0.0
  0
LINE
  5
A44E
  8
0
  6
AM_ISO08W050
 10
698.37310980198072
 20
552.56617843870833
 30
0.0
 11
997.41277145645915
 21
552.56617843870833
 31
0.0
  0
LINE
  5
A44F
  8
AM_0
 10
929.13059362389129
 20
625.07011843870816
 30
0.0
 11
899.93662362389114
 21
595.87611843870832
 31
0.0
  0
LINE
  5
A450
  8
AM_0
 10
777.05167362389057
 20
632.14119343870823
 30
0.0
 11
806.24564362389094
 21
602.94722343870831
 31
0.0
  0
LINE
  5
A451
  8
AM_0
 10
911.55554862389067
 20
552.56617843870833
 30
0.0
 11
911.55554862389067
 21
532.56617843870833
 31
0.0
  0
LINE
  5
A452
  8
0
  6
AM_ISO08W050
 10
849.5555786238906
 20
702.65863792806795
 30
0.0
 11
849.5555786238906
 21
376.59660343870843
 31
0.0
  0
ARC
  5
A453
  8
AM_0
 10
849.5555786238906
 20
552.56617843870833
 30
0.0
 40
20.9999985
 50
106.6015500000194
 51
73.398452000018409
  0
CIRCLE
  5
A454
  8
0
  6
AM_ISO08W050
 10
849.5555786238906
 20
552.56617843870833
 30
0.0
 40
3.5000000500000001
  0
CIRCLE
  5
A455
  8
0
  6
AM_ISO08W050
 10
849.5555786238906
 20
552.56617843870833
 30
0.0
 40
5.0
  0
ARC
  5
A456
  8
AM_0
 10
914.55557862389105
 20
401.98289343870829
 30
0.0
 40
10.0
 50
255.0000000000056
 51
345.00000000000563
  0
CIRCLE
  5
A457
  8
AM_0
 10
849.5555786238906
 20
552.56617843870833
 30
0.0
 40
41.000000499999992
  0
ARC
  5
A458
  8
AM_0
 10
858.05557862389094
 20
641.2814734387083
 30
0.0
 40
5.0
 50
179.999989999999
 51
266.16236000000742
  0
ARC
  5
A459
  8
AM_0
 10
784.55557862389082
 20
401.98289343870829
 30
0.0
 40
10.0
 50
195.0000100000029
 51
284.99999999999437
  0
ARC
  5
A45A
  8
AM_0
 10
955.07807362389121
 20
529.56620843870814
 30
0.0
 40
5.0
 50
270.0
 51
347.70395000000542
  0
ARC
  5
A45B
  8
AM_0
 10
744.03308362389055
 20
529.56620843870814
 30
0.0
 40
5.0
 50
192.2960399999989
 51
270.0
  0
ARC
  5
A45C
  8
0
  6
AM_ISO08W050
 10
849.55557862388196
 20
552.56617843869992
 30
0.0
 40
170.00000500001201
 50
38.62024717871936
 51
51.014603999982398
  0
ARC
  5
A45D
  8
AM_0
 10
970.56430862389072
 20
673.57497343870818
 30
0.0
 40
19.000000499999999
 50
2.000000000003725
 51
87.999999999996248
  0
CIRCLE
  5
A45E
  8
0
  6
AM_ISO08W050
 10
969.76372362389066
 20
672.77437343870815
 30
0.0
 40
9.5
  0
ARC
  5
A45F
  8
0
  6
AM_ISO08W050
 10
849.55557862388719
 20
552.56617843870561
 30
0.0
 40
170.00000499999561
 50
218.8586532438587
 51
231.01461000001419
  0
ARC
  5
A460
  8
AM_0
 10
849.5555786238906
 20
514.56620843870814
 30
0.0
 40
122.0
 50
60.143060000010841
 51
86.162372000016873
  0
ARC
  5
A461
  8
AM_0
 10
849.5555786238906
 20
514.56620843870814
 30
0.0
 40
122.0
 50
124.6731800000199
 51
157.42801999999091
  0
ARC
  5
A462
  8
AM_0
 10
918.52399362389042
 20
635.67674343870829
 30
0.0
 40
5.0
 50
315.00000000000921
 51
50.312775000018888
  0
ARC
  5
A463
  8
AM_0
 10
841.05557862389094
 20
641.2814734387083
 30
0.0
 40
5.0
 50
273.837629999976
 51
0.0
  0
ARC
  5
A464
  8
AM_0
 10
841.05557862389094
 20
660.2311734387082
 30
0.0
 40
5.0
 50
0.0
 51
94.514060999993376
  0
ARC
  5
A465
  8
AM_0
 10
858.05557862389094
 20
660.2311734387082
 30
0.0
 40
5.0
 50
85.485944000013959
 51
180.000010000001
  0
ARC
  5
A466
  8
AM_0
 10
849.5555786238906
 20
514.56620843870814
 30
0.0
 40
122.0
 50
22.571982000014099
 51
55.32681999998011
  0
ARC
  5
A467
  8
AM_0
 10
889.32999362389069
 20
606.48277343870825
 30
0.0
 40
5.0
 50
233.58368000003429
 51
315.00000000000921
  0
ARC
  5
A468
  8
AM_0
 10
932.6660836238907
 20
621.53459343870838
 30
0.0
 40
5.0
 50
39.687224000006218
 51
135.00000000000921
  0
ARC
  5
A469
  8
AM_0
 10
849.5555786238906
 20
552.56617843870833
 30
0.0
 40
61.999994999999998
 50
143.5811245176946
 51
180.000010000001
  0
ARC
  5
A46A
  8
AM_0
 10
849.5555786238906
 20
552.56617843870833
 30
0.0
 40
61.999994999999998
 50
53.583680999986242
 51
126.41631999996569
  0
CIRCLE
  5
A46B
  8
0
  6
AM_ISO08W050
 10
969.76372362389066
 20
432.35804843870829
 30
0.0
 40
9.5
  0
ARC
  5
A46C
  8
AM_0
 10
970.56430862389072
 20
431.55747843870819
 30
0.0
 40
19.000000499999999
 50
272.00000000000369
 51
357.99999999999642
  0
ARC
  5
A46D
  8
AM_0
 10
728.54681862389043
 20
431.55747843870819
 30
0.0
 40
19.000000499999999
 50
182.00000000000369
 51
267.99999999999619
  0
ARC
  5
A46E
  8
AM_0
 10
919.55557862389117
 20
532.56617843870833
 30
0.0
 40
8.0
 50
179.999989999999
 51
270.0
  0
CIRCLE
  5
A46F
  8
AM_0
 10
729.34741862389058
 20
432.35804843870829
 30
0.0
 40
9.5
  0
CIRCLE
  5
A470
  8
AM_0
 10
729.34741862389058
 20
672.77437343870815
 30
0.0
 40
9.5
  0
ARC
  5
A471
  8
AM_0
 10
728.54681862389043
 20
673.57497343870818
 30
0.0
 40
19.000000499999999
 50
91.999997999994051
 51
177.99999999999619
  0
ARC
  5
A472
  8
0
  6
AM_ISO08W050
 10
849.5555786238906
 20
552.56617843870833
 30
0.0
 40
170.00000499999999
 50
124.0063599999894
 51
141.01461
  0
ARC
  5
A473
  8
AM_0
 10
849.5555786238906
 20
552.56617843870833
 30
0.0
 40
61.999994999999998
 50
0.0
 51
36.416318000014883
  0
ARC
  5
A474
  8
AM_0
 10
809.78116362389119
 20
606.48277343870825
 30
0.0
 40
5.0
 50
224.99999999999079
 51
306.41631999996571
  0
ARC
  5
A475
  8
AM_0
 10
795.63904362389064
 20
592.34062343870823
 30
0.0
 40
5.0
 50
323.58368000000172
 51
45.000001000013
  0
ARC
  5
A476
  8
AM_0
 10
766.44504362389125
 20
621.53459343870838
 30
0.0
 40
5.0
 50
45.000001000013
 51
140.31278000000339
  0
ARC
  5
A477
  8
AM_0
 10
780.5871936238907
 20
635.67674343870829
 30
0.0
 40
5.0
 50
129.6872199999782
 51
224.99999999999079
  0
LINE
  5
A478
  8
AM_0
 10
708.2289288881002
 20
468.96620043870882
 30
0.0
 11
696.99982762389027
 21
468.9662004387086
 31
0.0
  0
ARC
  5
A479
  8
AM_0
 10
903.47214362389025
 20
592.34062343870823
 30
0.0
 40
5.0
 50
135.00000000000921
 51
216.41631999999831
  0
LINE
  5
A47A
  8
AM_0
 10
693.24286762389136
 20
460.90940643870852
 30
0.0
 11
707.44658818377104
 21
491.369390868903
 31
0.0
  0
ARC
  5
A47B
  8
0
  6
AM_ISO08W050
 10
849.5555786238906
 20
552.56617843870833
 30
0.0
 40
170.00000499999999
 50
304.00636999997812
 51
321.01461
  0
LINE
  5
A47C
  8
AM_0
 10
708.29877082404687
 20
466.96619943870883
 30
0.0
 11
703.92478762389055
 21
466.9661994387086
 31
0.0
  0
ARC
  5
A47D
  8
AM_0
 10
779.55557862389071
 20
532.56617843870833
 30
0.0
 40
8.0
 50
270.0
 51
0.0
  0
CIRCLE
  5
A47E
  8
AM_0
 10
849.5555786238906
 20
552.56617843870833
 30
0.0
 40
113.0
  0
LINE
  5
A47F
  8
AM_0
 10
689.13397762389104
 20
463.92878343870859
 30
0.0
 11
707.06222598778265
 21
502.37602700990959
 31
0.0
  0
CIRCLE
  5
A480
  8
AM_0
 10
849.5555786238906
 20
552.56617843870833
 30
0.0
 40
120.0
  0
ARC
  5
A481
  8
AM_0
 10
849.5555786238906
 20
514.56617843870913
 30
0.0
 40
122.0
 50
93.837625999990266
 51
119.85693999998909
  0
LINE
  5
A482
  8
AM_0
 10
689.97808762389104
 20
470.15536143870833
 30
0.0
 11
690.76339762389023
 21
469.78921143870849
 31
0.0
  0
ARC
  5
A483
  8
AM_0
 10
702.92479762389007
 20
467.96618343870858
 30
0.0
 40
1.000000019999995
 50
0.0
 51
90.000002999984659
  0
LINE
  5
A484
  8
AM_0
 10
707.0555836238907
 20
602.56617843870822
 30
0.0
 11
707.0555836238907
 21
502.5662384387083
 31
0.0
  0
ARC
  5
A485
  8
AM_0
 10
690.04027762389057
 20
463.50617643870862
 30
0.0
 40
1.000000019999995
 50
154.9999800000038
 51
245.00030999997941
  0
ARC
  5
A486
  8
AM_0
 10
708.32182762389039
 20
555.11621343870854
 30
0.0
 40
7.6000002000000011
 50
99.590836337895254
 51
158.71408999997979
  0
ARC
  5
A487
  8
AM_0
 10
690.34075762389045
 20
468.88290243870858
 30
0.0
 40
1.000000019999995
 50
334.99984999997639
 51
65.000643000006264
  0
ARC
  5
A488
  8
AM_0
 10
888.15559162389115
 20
485.05320543870829
 30
0.0
 40
200.60001299999999
 50
158.71414000002909
 51
183.38593000000321
  0
ARC
  5
A489
  8
0
 10
849.5555786238906
 20
514.56617843870811
 30
0.0
 40
131.49999999999969
 50
245.81287911435271
 51
294.187127039735
  0
ARC
  5
A48A
  8
0
 10
849.5555786238906
 20
514.56617843870811
 30
0.0
 40
131.49999999999969
 50
305.81285790721148
 51
308.1512678186844
  0
LINE
  5
A48B
  8
AM_0
 10
693.24286762389136
 20
460.90940643870852
 30
0.0
 11
689.61766762389084
 21
462.59984943870847
 31
0.0
  0
LINE
  5
A48C
  8
AM_0
 10
703.92478762389055
 20
467.96618343870858
 30
0.0
 11
703.92478762389055
 21
466.9661994387086
 31
0.0
  0
ARC
  5
A48D
  8
AM_0
 10
691.49944762388986
 20
473.41813443870882
 30
0.0
 40
3.6000002999999978
 50
183.3859700000059
 51
245.00060999997049
  0
ARC
  5
A48E
  8
0
 10
849.5555786238906
 20
514.56617843870811
 30
0.0
 40
131.49999999999969
 50
231.84872209509291
 51
234.1871181856402
  0
TEXT
  5
A6EB
  8
0
  6
CONTINUOUS
 62
     0
 10
696.93526253729715
 20
860.36775962412673
 30
0.0
 40
15.0
  1
VX22-025EMF~VX22-030EMF
  0
ENDSEC
  0
EOF
