  0
SECTION
  2
HEADER
  9
$ACADVER
  1
AC1009
  9
$INSBASE
 10
0.0
 20
0.0
 30
0.0
  9
$EXTMIN
 10
90.252002918444745
 20
381.67664686140142
 30
-0.0000000000000053
  9
$EXTMAX
 10
1048.1213413668011
 20
1047.1501999405309
 30
0.0000000000000099
  9
$LIMMIN
 10
0.0000005999945643
 20
-0.0000005963913736
  9
$LIMMAX
 10
1422.5000005999941
 20
924.99999940360874
  9
$ORTHOMODE
 70
     0
  9
$REGENMODE
 70
     1
  9
$FILLMODE
 70
     1
  9
$QTEXTMODE
 70
     0
  9
$MIRRTEXT
 70
     0
  9
$DRAGMODE
 70
     2
  9
$LTSCALE
 40
1.0
  9
$OSMODE
 70
   551
  9
$ATTMODE
 70
     1
  9
$TEXTSIZE
 40
2.5
  9
$TRACEWID
 40
1.0
  9
$TEXTSTYLE
  7
STANDARD
  9
$CLAYER
  8
0
  9
$CELTYPE
  6
BYLAYER
  9
$CECOLOR
 62
   256
  9
$DIMSCALE
 40
1.0
  9
$DIMASZ
 40
2.0
  9
$DIMEXO
 40
1.0
  9
$DIMDLI
 40
8.0
  9
$DIMRND
 40
0.0
  9
$DIMDLE
 40
0.0
  9
$DIMEXE
 40
1.0
  9
$DIMTP
 40
-0.025
  9
$DIMTM
 40
0.043
  9
$DIMTXT
 40
2.5
  9
$DIMCEN
 40
0.0
  9
$DIMTSZ
 40
0.0
  9
$DIMTOL
 70
     0
  9
$DIMLIM
 70
     0
  9
$DIMTIH
 70
     0
  9
$DIMTOH
 70
     0
  9
$DIMSE1
 70
     0
  9
$DIMSE2
 70
     0
  9
$DIMTAD
 70
     3
  9
$DIMZIN
 70
     8
  9
$DIMBLK
  1

  9
$DIMASO
 70
     1
  9
$DIMSHO
 70
     1
  9
$DIMPOST
  1

  9
$DIMAPOST
  1
"
  9
$DIMALT
 70
     0
  9
$DIMALTD
 70
     2
  9
$DIMALTF
 40
0.0393701
  9
$DIMLFAC
 40
1.0
  9
$DIMTOFL
 70
     1
  9
$DIMTVP
 40
0.0
  9
$DIMTIX
 70
     0
  9
$DIMSOXD
 70
     0
  9
$DIMSAH
 70
     0
  9
$DIMBLK1
  1

  9
$DIMBLK2
  1

  9
$DIMSTYLE
  2
AM_JIS
  9
$DIMCLRD
 70
     2
  9
$DIMCLRE
 70
     2
  9
$DIMCLRT
 70
     4
  9
$DIMTFAC
 40
0.71
  9
$DIMGAP
 40
1.5
  9
$LUNITS
 70
     2
  9
$LUPREC
 70
     2
  9
$SKETCHINC
 40
1.0
  9
$FILLETRAD
 40
0.0
  9
$AUNITS
 70
     0
  9
$AUPREC
 70
     0
  9
$MENU
  1
.
  9
$ELEVATION
 40
0.0
  9
$PELEVATION
 40
0.0
  9
$THICKNESS
 40
0.0
  9
$LIMCHECK
 70
     0
  9
$BLIPMODE
 70
     0
  9
$CHAMFERA
 40
2.5
  9
$CHAMFERB
 40
2.5
  9
$SKPOLY
 70
     0
  9
$TDCREATE
 40
2456829.3841110538
  9
$TDUPDATE
 40
2458540.664476146
  9
$TDINDWG
 40
0.5683910417
  9
$TDUSRTIMER
 40
0.5683902894
  9
$USRTIMER
 70
     1
  9
$ANGBASE
 50
0.0
  9
$ANGDIR
 70
     0
  9
$PDMODE
 70
     0
  9
$PDSIZE
 40
0.0
  9
$PLINEWID
 40
0.0
  9
$COORDS
 70
     1
  9
$SPLFRAME
 70
     0
  9
$SPLINETYPE
 70
     6
  9
$SPLINESEGS
 70
     8
  9
$ATTDIA
 70
     1
  9
$ATTREQ
 70
     1
  9
$HANDLING
 70
     1
  9
$HANDSEED
  5
AD6F
  9
$SURFTAB1
 70
     6
  9
$SURFTAB2
 70
     6
  9
$SURFTYPE
 70
     6
  9
$SURFU
 70
     6
  9
$SURFV
 70
     6
  9
$UCSNAME
  2

  9
$UCSORG
 10
0.0
 20
0.0
 30
0.0
  9
$UCSXDIR
 10
1.0
 20
0.0
 30
0.0
  9
$UCSYDIR
 10
0.0
 20
1.0
 30
0.0
  9
$PUCSNAME
  2

  9
$PUCSORG
 10
0.0
 20
0.0
 30
0.0
  9
$PUCSXDIR
 10
1.0
 20
0.0
 30
0.0
  9
$PUCSYDIR
 10
0.0
 20
1.0
 30
0.0
  9
$USERI1
 70
     0
  9
$USERI2
 70
     0
  9
$USERI3
 70
     0
  9
$USERI4
 70
     0
  9
$USERI5
 70
     0
  9
$USERR1
 40
0.0
  9
$USERR2
 40
0.0
  9
$USERR3
 40
0.0
  9
$USERR4
 40
0.0
  9
$USERR5
 40
0.0
  9
$WORLDVIEW
 70
     1
  9
$SHADEDGE
 70
     3
  9
$SHADEDIF
 70
    70
  9
$TILEMODE
 70
     1
  9
$MAXACTVP
 70
    64
  9
$PLIMCHECK
 70
     0
  9
$PEXTMIN
 10
1.0000000000000000E+020
 20
1.0000000000000000E+020
 30
1.0000000000000000E+020
  9
$PEXTMAX
 10
-1.0000000000000000E+020
 20
-1.0000000000000000E+020
 30
-1.0000000000000000E+020
  9
$PLIMMIN
 10
0.0
 20
0.0
  9
$PLIMMAX
 10
420.0
 20
297.0
  9
$UNITMODE
 70
     0
  9
$VISRETAIN
 70
     1
  9
$PLINEGEN
 70
     0
  9
$PSLTSCALE
 70
     1
  0
ENDSEC
  0
SECTION
  2
TABLES
  0
TABLE
  2
VPORT
 70
     1
  0
VPORT
  2
*ACTIVE
 70
     0
 10
0.0
 20
0.0
 11
1.0
 21
1.0
 12
569.18667214262291
 22
714.41342340096605
 13
0.0
 23
0.0
 14
12.5
 24
12.5
 15
50.0
 25
50.0
 16
0.0
 26
0.0
 36
1.0
 17
0.0
 27
0.0
 37
0.0
 40
670.04202140690393
 41
1.7571592210767459
 42
50.0
 43
0.0
 44
0.0
 50
0.0
 51
0.0
 71
     0
 72
  1000
 73
     1
 74
     3
 75
     0
 76
     0
 77
     0
 78
     0
  0
ENDTAB
  0
TABLE
  2
LTYPE
 70
    24
  0
LTYPE
  2
CONTINUOUS
 70
     0
  3
Solid line
 72
    65
 73
     0
 40
0.0
  0
LTYPE
  2
CENTER
 70
     0
  3
Center ____ _ ____ _ ____ _ ____ _ ____ _ ____
 72
    65
 73
     4
 40
50.799999999999997
 49
31.75
 49
-6.3499999999999979
 49
6.3499999999999979
 49
-6.3499999999999979
  0
LTYPE
  2
AM_ISO02W050
 70
     0
  3
__ __ __ __ __ __ __ __ __ __ __ __ __ __ __
 72
    65
 73
     2
 40
7.5
 49
6.0
 49
-1.5
  0
LTYPE
  2
AM_ISO08W050
 70
     0
  3
____ . ____ . ____ . ____ . ____ . ____ . ____
 72
    65
 73
     4
 40
18.0
 49
12.0
 49
-1.5
 49
3.0
 49
-1.5
  0
LTYPE
  2
AM_ISO09W050
 70
     0
  3
_____ . . _____ . . _____ . . ____ .. ____
 72
    65
 73
     6
 40
22.5
 49
12.0
 49
-1.5
 49
3.0
 49
-1.5
 49
3.0
 49
-1.5
  0
LTYPE
  2
AMCONSTR
 70
     0
  3
_______________________
 72
    65
 73
     2
 40
9999.0
 49
9999.0
 49
0.0
  0
LTYPE
  2
AM_ISO08W050X2
 70
     0
  3
__ . __ . __ . __ . __ . __
 72
    65
 73
     4
 40
9.0
 49
6.0
 49
-0.75
 49
1.5
 49
-0.75
  0
LTYPE
  2
AM_ISO02W050X2
 70
     0
  3
 _ _ _ _ _ _ _ _ _ _ _ _
 72
    65
 73
     2
 40
3.75
 49
3.0
 49
-0.75
  0
LTYPE
  2
AMZIGZAG
 70
     0
  3
/\/-/\/-/\/-/\/-/\/-/\/
 72
    65
 73
     2
 40
11.0001
 49
0.0001
 49
-11.0
  0
LTYPE
  2
ACANSTGBM
 70
     0
  3
__ . . __ . .
 72
    65
 73
     6
 40
9.0
 49
4.0
 49
-1.0
 49
1.0
 49
-1.0
 49
1.0
 49
-1.0
  0
LTYPE
  2
ACANSTGLM
 70
     0
  3
_ _ _ _ _
 72
    65
 73
     2
 40
3.0
 49
2.0
 49
-1.0
  0
LTYPE
  2
ACISOWELD
 70
     0
  3
_ _ _ _ _
 72
    65
 73
     2
 40
2.0
 49
2.0
 49
-1.0
  0
LTYPE
  2
ACISOTGB
 70
     0
  3
__ . . __ . .
 72
    65
 73
     6
 40
9.0
 49
4.0
 49
-1.0
 49
1.0
 49
-1.0
 49
1.0
 49
-1.0
  0
LTYPE
  2
ACISOTGL
 70
     0
  3
_ _ _ _ _
 72
    65
 73
     2
 40
3.0
 49
2.0
 49
-1.0
  0
LTYPE
  2
ACJISTGB
 70
     0
  3
__ . . __ . .
 72
    65
 73
     6
 40
9.0
 49
4.0
 49
-1.0
 49
1.0
 49
-1.0
 49
1.0
 49
-1.0
  0
LTYPE
  2
ACJISTGL
 70
     0
  3
_ _ _ _ _
 72
    65
 73
     2
 40
3.0
 49
2.0
 49
-1.0
  0
LTYPE
  2
HIDDEN
 70
     0
  3
Hidden __ __ __ __ __ __ __ __ __ __ __ __ __ _
 72
    65
 73
     2
 40
9.5249999999999968
 49
6.349999999999997
 49
-3.174999999999998
  0
LTYPE
  2
PHANTOM2
 70
     0
  3
Phantom (.5x) ___ _ _ ___ _ _ ___ _ _ ___ _ _
 72
    65
 73
     6
 40
31.75
 49
15.875
 49
-3.174999999999998
 49
3.174999999999998
 49
-3.174999999999998
 49
3.174999999999998
 49
-3.174999999999998
  0
LTYPE
  2
CENTER2
 70
     0
  3
Center (.5x) ___ _ ___ _ ___ _ ___ _ ___ _ ___
 72
    65
 73
     4
 40
1.125
 49
0.75
 49
-0.125
 49
0.125
 49
-0.125
  0
LTYPE
  2
HIDDEN2
 70
     0
  3
Hidden (.5x) _ _ _ _ _ _ _ _ _ _ _ _ _ _ _ _ _
 72
    65
 73
     2
 40
0.1875
 49
0.125
 49
-0.0625
  0
LTYPE
  2
AMZIGZAG2
 70
     0
  3
/\/-/\/-/\/-/\/-/\/-/\/
 72
    65
 73
     2
 40
0.4401
 49
0.0001
 49
-0.4400000000000003
  0
LTYPE
  2
ACANSTGB
 70
     0
  3
__ . . __ . .
 72
    65
 73
     6
 40
0.35433070866
 49
0.15748031496
 49
-0.03937007874
 49
0.03937007874
 49
-0.03937007874
 49
0.03937007874
 49
-0.03937007874
  0
LTYPE
  2
ACANSTGL
 70
     0
  3
_ _ _ _ _
 72
    65
 73
     2
 40
0.11811023622
 49
0.07874015748
 49
-0.03937007874
  0
ENDTAB
  0
TABLE
  2
LAYER
 70
     5
  0
LAYER
  2
0
 70
     0
 62
     7
  6
CONTINUOUS
  0
LAYER
  2
DEFPOINTS
 70
     0
 62
     7
  6
CONTINUOUS
  0
LAYER
  2
AM_0
 70
     0
 62
     7
  6
CONTINUOUS
  0
LAYER
  2
AM_CL
 70
     0
 62
     1
  6
AMCONSTR
  0
LAYER
  2
AM_5
 70
     0
 62
     2
  6
CONTINUOUS
  0
ENDTAB
  0
TABLE
  2
STYLE
 70
     8
  0
STYLE
  2
STANDARD
 70
     0
 40
0.0
 41
0.7400000000000003
 50
0.0
 71
     0
 42
2.5
  3
txt.shx
  4
bigfont.shx
  0
STYLE
  2

 70
     1
 40
0.0
 41
1.0
 50
0.0
 71
     0
 42
2.5
  3
ltypeshp.shx
  4

  0
STYLE
  2
ACANSTS
 70
     0
 40
1.0
 41
1.0
 50
0.0
 71
     0
 42
2.5
  3
romans.shx
  4
bigfont.shx
  0
STYLE
  2
ACANSGDT
 70
     0
 40
0.0
 41
1.0
 50
0.0
 71
     0
 42
2.5
  3
amgdtans.shx
  4

  0
STYLE
  2
ACISOTS
 70
     0
 40
1.0
 41
1.0
 50
0.0
 71
     0
 42
2.5
  3
isocp.shx
  4
extfont.shx
  0
STYLE
  2
ACISOGDT
 70
     0
 40
0.0
 41
1.0
 50
0.0
 71
     0
 42
2.5
  3
amgdt.shx
  4

  0
STYLE
  2
ACJISGDT
 70
     0
 40
0.0
 41
1.0
 50
0.0
 71
     0
 42
2.5
  3
amgdt.shx
  4

  0
STYLE
  2
ACJISTS
 70
     0
 40
1.0
 41
1.0
 50
0.0
 71
     0
 42
2.5
  3
isocp.shx
  4
extfont.shx
  0
ENDTAB
  0
TABLE
  2
VIEW
 70
     6
  0
VIEW
  2
AM_VIEW1
 70
     0
 40
462.5
 10
488.83452017294832
 20
693.74999940360874
 41
977.66903914590773
 11
0.0
 21
0.0
 31
1.0
 12
0.0
 22
0.0
 32
0.0
 42
50.0
 43
0.0
 44
0.0
 50
0.0
 71
     0
  0
VIEW
  2
AM_VIEW2
 70
     0
 40
462.5
 10
933.66548102704076
 20
693.74999940360874
 41
977.66903914590773
 11
0.0
 21
0.0
 31
1.0
 12
0.0
 22
0.0
 32
0.0
 42
50.0
 43
0.0
 44
0.0
 50
0.0
 71
     0
  0
VIEW
  2
AM_VIEW3
 70
     0
 40
462.5
 10
488.83452017294832
 20
231.24999940360871
 41
977.66903914590773
 11
0.0
 21
0.0
 31
1.0
 12
0.0
 22
0.0
 32
0.0
 42
50.0
 43
0.0
 44
0.0
 50
0.0
 71
     0
  0
VIEW
  2
AM_VIEW4
 70
     0
 40
462.5
 10
933.66548102704076
 20
231.24999940360871
 41
977.66903914590773
 11
0.0
 21
0.0
 31
1.0
 12
0.0
 22
0.0
 32
0.0
 42
50.0
 43
0.0
 44
0.0
 50
0.0
 71
     0
  0
VIEW
  2
AM_VIEW5
 70
     0
 40
462.5
 10
711.25000059999468
 20
462.49999940360868
 41
977.66903914590773
 11
0.0
 21
0.0
 31
1.0
 12
0.0
 22
0.0
 32
0.0
 42
50.0
 43
0.0
 44
0.0
 50
0.0
 71
     0
  0
VIEW
  2
AM_VIEW6
 70
     0
 40
924.99075000000016
 10
711.25000059999468
 20
462.49999940360868
 41
1955.318524911032
 11
0.0
 21
0.0
 31
1.0
 12
0.0
 22
0.0
 32
0.0
 42
50.0
 43
0.0
 44
0.0
 50
0.0
 71
     0
  0
ENDTAB
  0
TABLE
  2
UCS
 70
     0
  0
ENDTAB
  0
TABLE
  2
APPID
 70
   158
  0
APPID
  2
ACAD
 70
     0
  0
APPID
  2
ACADANNOTATIVE
 70
     0
  0
APPID
  2
ACAD_MLEADERVER
 70
     0
  0
APPID
  2
MCAD_NO_VIS
 70
     0
  0
APPID
  2
ACAD_TEMP_GRAPHIC
 70
     0
  0
APPID
  2
AD_DRAW
 70
     0
  0
APPID
  2
ACATTRIBSERVICES
 70
     0
  0
APPID
  2
DESIGNERASSEMBLIES
 70
     0
  0
APPID
  2
ACADM_DIM_EDIT
 70
     0
  0
APPID
  2
AMDT_DM_ADJ
 70
     0
  0
APPID
  2
GENIUS_GENDIMSH_14
 70
     0
  0
APPID
  2
GEVID1057795304
 70
     0
  0
APPID
  2
GEVDC
 70
     0
  0
APPID
  2
GEVCON
 70
     0
  0
APPID
  2
GENIUS_GENBH_13
 70
     0
  0
APPID
  2
GENIUS_GENOENT_13
 70
     0
  0
APPID
  2
GENIUS_GENOBJ-NBEHI-BHF_13
 70
     0
  0
APPID
  2
GENIUS_GENOLIS_13
 70
     0
  0
APPID
  2
GENIUS_GENODEF_13
 70
     0
  0
APPID
  2
GENIUS_GENOREF_13
 70
     0
  0
APPID
  2
GENIUS_GENOBJ-NBEHI-BHB_13
 70
     0
  0
APPID
  2
GENIUS_GENOBJ-F-SCPASSM_13
 70
     0
  0
APPID
  2
GENIUS_GENDTOL_13
 70
     0
  0
APPID
  2
GENIUS_GENTRA_14
 70
     0
  0
APPID
  2
ASURF_PCURVE_APPNAME
 70
     0
  0
APPID
  2
GENIUS_GENCFG_13
 70
     0
  0
APPID
  2
GENIUS_GE3CFG0_13
 70
     0
  0
APPID
  2
GENIUS_GENCFG0_13
 70
     0
  0
APPID
  2
GENIUS_GENCFG1_13
 70
     0
  0
APPID
  2
GENIUS_GENCFG2_13
 70
     0
  0
APPID
  2
GENIUS_GENCFG3_13
 70
     0
  0
APPID
  2
GENIUS_GENCFG4_13
 70
     0
  0
APPID
  2
GENIUS_GEVCFG0_13
 70
     0
  0
APPID
  2
GENIUS_GENOBJ-N-TIT_13
 70
     0
  0
APPID
  2
GENIUS_GENTITLE_13
 70
     0
  0
APPID
  2
GENIUS_GENSCREG_15
 70
     0
  0
APPID
  2
GENIUS_GENOBJ-N-SDF_13
 70
     0
  0
APPID
  2
GENIUS_GENFIL_13
 70
     0
  0
APPID
  2
GENIUS_GENOBJ-N-CHA_13
 70
     0
  0
APPID
  2
GENIUS_GEFSH_13
 70
     0
  0
APPID
  2
GENIUS_GENOBJ-F-SHS_13
 70
     0
  0
APPID
  2
GENIUS_GENOBJ-N-CEN_13
 70
     0
  0
APPID
  2
GENIUS_GENREC_14
 70
     0
  0
APPID
  2
GENIUS_GENOBJ-N-REC_13
 70
     0
  0
APPID
  2
GENIUS_GENOBJ-N-HTC_13
 70
     0
  0
APPID
  2
GENIUS_GENHATCH_13
 70
     0
  0
APPID
  2
ACAD_PSEXT
 70
     0
  0
APPID
  2
ACAD_EXEMPT_FROM_CAD_STANDARDS
 70
     0
  0
APPID
  2
ACAECLAYERSTANDARD
 70
     0
  0
APPID
  2
GENIUS_GENCEN_19
 70
     0
  0
APPID
  2
ACAD_DSTYLE_DIMINSPECT
 70
     0
  0
APPID
  2
ACAD_DSTYLE_DIMANGULAR_EXT
 70
     0
  0
APPID
  2
ACADANNOPO
 70
     0
  0
APPID
  2
ACAD_NAV_VCDISPLAY
 70
     0
  0
APPID
  2
GENIUS_GENOBJ-N-FIL_13
 70
     0
  0
APPID
  2
ACAD_DSTYLE_DIMBREAK
 70
     0
  0
APPID
  2
ACAD_DSTYLE_DIMJAG
 70
     0
  0
APPID
  2
ACAD_DSTYLE_DIMRADIAL_EXTENSION
 70
     0
  0
APPID
  2
GENIUS_GENHINW_13
 70
     0
  0
APPID
  2
GENIUS_FIRSTVISTXT_14
 70
     0
  0
APPID
  2
GENIUS_GENOBJ-N-LEADER_13
 70
     0
  0
APPID
  2
DCO15
 70
     0
  0
APPID
  2
GENIUS_DUMCFG0_13
 70
     0
  0
APPID
  2
ACAD_DSTYLE_DIMTEXT_FILL
 70
     0
  0
APPID
  2
AMG_2DHIDE
 70
     0
  0
APPID
  2
GENIUS_GEFSHEP_13
 70
     0
  0
APPID
  2
GENIUS_GENOBJ-F-SHE_13
 70
     0
  0
APPID
  2
GENIUS_GEFSHE_13
 70
     0
  0
APPID
  2
ACAD_DIMASSOC_DIMLFAC
 70
     0
  0
APPID
  2
ACAD_DIMASSOC_CALC_DIMLFAC
 70
     0
  0
APPID
  2
ACAD_DIMASSOC_OVERRIDDEN_D
 70
     0
  0
APPID
  2
GENIUS_GENOBJ-F-SHSV_13
 70
     0
  0
APPID
  2
GENIUS_GEFWELD_13
 70
     0
  0
APPID
  2
GENIUS_GENOBJ-N-CRS_13
 70
     0
  0
APPID
  2
GENIUS_GENOBJ-N-RSBK_13
 70
     0
  0
APPID
  2
GENIUS_GENOBJ-N-LIB_13
 70
     0
  0
APPID
  2
GENIUS_GENSCALE_13
 70
     0
  0
APPID
  2
GENIUS_GENDREL_13
 70
     0
  0
APPID
  2
GEVPT
 70
     0
  0
APPID
  2
GEVIT
 70
     0
  0
APPID
  2
VCC
 70
     0
  0
APPID
  2
GENBH
 70
     0
  0
APPID
  2
GEVMK
 70
     0
  0
APPID
  2
GENIUS_GENOBJ-F-DESC_13
 70
     0
  0
APPID
  2
GENIUS_GEFDESC_14
 70
     0
  0
APPID
  2
GENIUS_GENOBJ-F-FEAT_13
 70
     0
  0
APPID
  2
GENIUS_GEFFEAT_14
 70
     0
  0
APPID
  2
GENIUS_GEFPARTINS_13
 70
     0
  0
APPID
  2
GENIUS_GENSCREG_13
 70
     0
  0
APPID
  2
GENIUS_GEFSHP_13
 70
     0
  0
APPID
  2
GEVID1025574798
 70
     0
  0
APPID
  2
GEVID1025574769
 70
     0
  0
APPID
  2
GEVID1025757451
 70
     0
  0
APPID
  2
GEVID1240528327
 70
     0
  0
APPID
  2
AMG_2DSTRUCT_BTR
 70
     0
  0
APPID
  2
ACADM_2DVIEW_IGN_NOTIFY
 70
     0
  0
APPID
  2
GEVID1240528328
 70
     0
  0
APPID
  2
GEVID1240528329
 70
     0
  0
APPID
  2
GEVRADREF
 70
     0
  0
APPID
  2
GEVID1240528330
 70
     0
  0
APPID
  2
GEVID1240528331
 70
     0
  0
APPID
  2
GEVID1240528332
 70
     0
  0
APPID
  2
GEVID1240791080
 70
     0
  0
APPID
  2
GEVID1240791081
 70
     0
  0
APPID
  2
GEVID1240791082
 70
     0
  0
APPID
  2
GEVID1240791083
 70
     0
  0
APPID
  2
GEVID1240791084
 70
     0
  0
APPID
  2
GEVID1240791085
 70
     0
  0
APPID
  2
GEVID1240791086
 70
     0
  0
APPID
  2
GEVID1240791087
 70
     0
  0
APPID
  2
GEVID1240791088
 70
     0
  0
APPID
  2
GEVID1240791089
 70
     0
  0
APPID
  2
GEVID1240791090
 70
     0
  0
APPID
  2
GEVID1240791091
 70
     0
  0
APPID
  2
GEVID1240791092
 70
     0
  0
APPID
  2
GEVID1240791093
 70
     0
  0
APPID
  2
GEVID1240791094
 70
     0
  0
APPID
  2
GEVID1240791095
 70
     0
  0
APPID
  2
GEVID1240791096
 70
     0
  0
APPID
  2
GEVID1240791097
 70
     0
  0
APPID
  2
GEVID1240791098
 70
     0
  0
APPID
  2
GEVID1240791099
 70
     0
  0
APPID
  2
GEVID1240791100
 70
     0
  0
APPID
  2
GEVID1240791101
 70
     0
  0
APPID
  2
GEVID1240791102
 70
     0
  0
APPID
  2
GEVID1240791103
 70
     0
  0
APPID
  2
GEVID1240791104
 70
     0
  0
APPID
  2
GEVID1240791105
 70
     0
  0
APPID
  2
GEVID1240875381
 70
     0
  0
APPID
  2
GEVID1240875382
 70
     0
  0
APPID
  2
GEVID1240875383
 70
     0
  0
APPID
  2
GEVID1240875384
 70
     0
  0
APPID
  2
GEVID1240875385
 70
     0
  0
APPID
  2
GEVID1240875386
 70
     0
  0
APPID
  2
GEVID1240875387
 70
     0
  0
APPID
  2
GEVID1240875388
 70
     0
  0
APPID
  2
GEVID1240875389
 70
     0
  0
APPID
  2
GEVID1240875390
 70
     0
  0
APPID
  2
GEVID1240875391
 70
     0
  0
APPID
  2
GEVID1240875392
 70
     0
  0
APPID
  2
GEVID1240875393
 70
     0
  0
APPID
  2
GEVID1240875394
 70
     0
  0
APPID
  2
GEVID1240875395
 70
     0
  0
APPID
  2
GEVID1240875396
 70
     0
  0
APPID
  2
GEVID1240875397
 70
     0
  0
APPID
  2
GEVID1240875398
 70
     0
  0
APPID
  2
GEVID1240875399
 70
     0
  0
APPID
  2
GEVID1240908996
 70
     0
  0
APPID
  2
GEVID1240908997
 70
     0
  0
APPID
  2
GEVID1240908998
 70
     0
  0
APPID
  2
GEVID1240908999
 70
     0
  0
APPID
  2
GEVID1240909000
 70
     0
  0
APPID
  2
GENIUS_GENOBJ-N-ZOO_13
 70
     0
  0
APPID
  2
GENIUS_GENZOO_17
 70
     0
  0
APPID
  2
GENIUS_GE3SECT_13
 70
     0
  0
APPID
  2
GEV_VCCNULL_SWITCH_OFF
 70
     0
  0
APPID
  2
ACAD_DSTYLE_DIMTALN
 70
     0
  0
APPID
  2
CONTENTBLOCKDESCRIPTION
 70
     0
  0
ENDTAB
  0
TABLE
  2
DIMSTYLE
 70
    22
  0
DIMSTYLE
  2
AM_ANSI
 70
     0
  3

  4
"
  5

  6

  7

 40
1.0
 41
2.5
 42
1.0
 43
10.0
 44
1.0
 45
0.0
 46
0.0
 47
0.1
 48
0.1
140
3.5
141
0.0
142
0.0
143
0.0393701
144
1.0
145
0.0
146
0.71
147
1.5
 71
     0
 72
     0
 73
     1
 74
     1
 75
     0
 76
     0
 77
     0
 78
     8
170
     0
171
     2
172
     0
173
     0
174
     0
175
     0
176
     2
177
     2
178
     4
  0
DIMSTYLE
  2
AM_ANSI$3
 70
     0
  3

  4
"
  5

  6

  7

 40
1.0
 41
2.5
 42
1.0
 43
10.0
 44
1.0
 45
0.0
 46
0.0
 47
0.1
 48
0.1
140
3.5
141
0.0
142
0.0
143
0.0393701
144
1.0
145
0.0
146
0.71
147
1.5
 71
     0
 72
     0
 73
     1
 74
     1
 75
     0
 76
     0
 77
     0
 78
     8
170
     0
171
     2
172
     0
173
     0
174
     0
175
     0
176
     2
177
     2
178
     4
  0
DIMSTYLE
  2
AM_ANSI$4
 70
     0
  3

  4
"
  5

  6

  7

 40
1.0
 41
2.5
 42
1.0
 43
10.0
 44
1.0
 45
0.0
 46
0.0
 47
0.1
 48
0.1
140
3.5
141
0.0
142
0.0
143
0.0393701
144
1.0
145
0.0
146
0.71
147
1.5
 71
     0
 72
     0
 73
     1
 74
     1
 75
     0
 76
     0
 77
     0
 78
     8
170
     0
171
     2
172
     0
173
     0
174
     0
175
     0
176
     2
177
     2
178
     4
  0
DIMSTYLE
  2
AM_ANSI$7
 70
     0
  3

  4
"
  5

  6

  7

 40
1.0
 41
2.5
 42
1.0
 43
10.0
 44
1.0
 45
0.0
 46
0.0
 47
0.1
 48
0.1
140
5.0
141
0.0
142
0.0
143
0.0393701
144
1.0
145
0.0
146
0.71
147
1.5
 71
     0
 72
     0
 73
     1
 74
     1
 75
     0
 76
     0
 77
     0
 78
     8
170
     0
171
     2
172
     0
173
     0
174
     0
175
     0
176
     2
177
     2
178
     4
  0
DIMSTYLE
  2
AM_ANSI$SF
 70
     0
  3

  4
"
  5

  6

  7

 40
1.0
 41
2.5
 42
1.0
 43
10.0
 44
1.0
 45
0.0
 46
0.0
 47
0.1
 48
0.1
140
3.5
141
0.0
142
0.0
143
0.0393701
144
1.0
145
0.0
146
0.71
147
1.5
 71
     0
 72
     0
 73
     1
 74
     1
 75
     1
 76
     1
 77
     0
 78
     8
170
     0
171
     2
172
     0
173
     0
174
     0
175
     0
176
     2
177
     2
178
     4
  0
DIMSTYLE
  2
AM_ANSI$SH
 70
     0
  3

  4
"
  5

  6
GENAXEH
  7

 40
1.0
 41
2.5
 42
1.0
 43
10.0
 44
1.0
 45
0.0
 46
0.0
 47
0.1
 48
0.1
140
3.5
141
0.0
142
0.0
143
0.0393701
144
1.0
145
0.0
146
0.71
147
1.5
 71
     0
 72
     0
 73
     1
 74
     1
 75
     1
 76
     1
 77
     0
 78
     8
170
     0
171
     2
172
     0
173
     1
174
     0
175
     0
176
     2
177
     2
178
     4
  0
DIMSTYLE
  2
AM_ISO
 70
     0
  3

  4
"
  5

  6

  7

 40
1.0
 41
2.5
 42
1.0
 43
10.0
 44
1.0
 45
0.0
 46
0.0
 47
0.1
 48
0.1
140
3.5
141
0.0
142
0.0
143
0.0393701
144
1.0
145
0.0
146
0.71
147
1.5
 71
     0
 72
     0
 73
     0
 74
     0
 75
     0
 76
     0
 77
     1
 78
     8
170
     0
171
     2
172
     1
173
     0
174
     0
175
     0
176
   256
177
   256
178
     2
  0
DIMSTYLE
  2
AM_ISO$3
 70
     0
  3

  4
"
  5

  6

  7

 40
1.0
 41
2.5
 42
1.0
 43
10.0
 44
1.0
 45
0.0
 46
0.0
 47
0.1
 48
0.1
140
3.5
141
0.0
142
0.0
143
0.0393701
144
1.0
145
0.0
146
0.71
147
1.5
 71
     0
 72
     0
 73
     0
 74
     1
 75
     0
 76
     0
 77
     1
 78
     8
170
     0
171
     2
172
     0
173
     0
174
     0
175
     0
176
   256
177
   256
178
     2
  0
DIMSTYLE
  2
AM_ISO$4
 70
     0
  3

  4
"
  5

  6

  7

 40
1.0
 41
2.5
 42
1.0
 43
10.0
 44
1.0
 45
0.0
 46
0.0
 47
0.1
 48
0.1
140
3.5
141
0.0
142
0.0
143
0.0393701
144
1.0
145
0.0
146
0.71
147
1.5
 71
     0
 72
     0
 73
     0
 74
     1
 75
     0
 76
     0
 77
     1
 78
     8
170
     0
171
     2
172
     0
173
     0
174
     0
175
     0
176
   256
177
   256
178
     2
  0
DIMSTYLE
  2
AM_ISO$6
 70
     0
  3

  4
"
  5

  6

  7

 40
1.0
 41
2.5
 42
1.0
 43
10.0
 44
1.0
 45
0.0
 46
0.0
 47
0.1
 48
0.1
140
3.5
141
0.0
142
0.0
143
0.0393701
144
1.0
145
0.0
146
0.71
147
1.5
 71
     0
 72
     0
 73
     0
 74
     0
 75
     0
 76
     0
 77
     0
 78
     8
170
     0
171
     2
172
     1
173
     0
174
     0
175
     0
176
   256
177
   256
178
     2
  0
DIMSTYLE
  2
AM_ISO$7
 70
     0
  3

  4
"
  5

  6

  7

 40
1.0
 41
2.5
 42
1.0
 43
10.0
 44
1.0
 45
0.0
 46
0.0
 47
0.1
 48
0.1
140
5.0
141
0.0
142
0.0
143
0.0393701
144
1.0
145
0.0
146
0.71
147
1.5
 71
     0
 72
     0
 73
     0
 74
     0
 75
     0
 76
     0
 77
     1
 78
     8
170
     0
171
     2
172
     1
173
     0
174
     0
175
     0
176
   256
177
   256
178
     2
  0
DIMSTYLE
  2
AM_ISO$SF
 70
     0
  3

  4
"
  5

  6

  7

 40
1.0
 41
2.5
 42
1.0
 43
10.0
 44
1.0
 45
0.0
 46
0.0
 47
0.1
 48
0.1
140
3.5
141
0.0
142
0.0
143
0.0393701
144
1.0
145
0.0
146
0.71
147
1.5
 71
     0
 72
     0
 73
     0
 74
     0
 75
     1
 76
     1
 77
     1
 78
     8
170
     0
171
     2
172
     1
173
     0
174
     0
175
     0
176
   256
177
   256
178
     2
  0
DIMSTYLE
  2
AM_ISO$SH
 70
     0
  3

  4
"
  5

  6
GENAXEH
  7

 40
1.0
 41
2.5
 42
1.0
 43
10.0
 44
1.0
 45
0.0
 46
0.0
 47
0.1
 48
0.1
140
3.5
141
0.0
142
0.0
143
0.0393701
144
2.0
145
0.0
146
0.71
147
1.5
 71
     0
 72
     0
 73
     0
 74
     0
 75
     1
 76
     1
 77
     1
 78
     8
170
     0
171
     2
172
     1
173
     1
174
     0
175
     0
176
   256
177
   256
178
     2
  0
DIMSTYLE
  2
AM_JIS
 70
     0
  3

  4
"
  5

  6

  7

 40
1.0
 41
2.0
 42
1.0
 43
8.0
 44
1.0
 45
0.0
 46
0.0
 47
0.1
 48
0.1
140
2.5
141
0.0
142
0.0
143
0.0393701
144
1.0
145
0.0
146
0.71
147
1.5
 71
     0
 72
     0
 73
     0
 74
     0
 75
     0
 76
     0
 77
     3
 78
     8
170
     0
171
     2
172
     1
173
     0
174
     0
175
     0
176
     2
177
     2
178
     4
  0
DIMSTYLE
  2
AM_JIS$3
 70
     0
  3

  4
"
  5

  6

  7

 40
1.0
 41
2.0
 42
1.0
 43
10.0
 44
1.0
 45
0.0
 46
0.0
 47
0.1
 48
0.1
140
2.5
141
0.0
142
0.0
143
0.0393701
144
1.0
145
0.0
146
0.71
147
1.5
 71
     0
 72
     0
 73
     0
 74
     1
 75
     0
 76
     0
 77
     3
 78
     8
170
     0
171
     2
172
     0
173
     0
174
     0
175
     0
176
     2
177
     2
178
     4
  0
DIMSTYLE
  2
AM_JIS$4
 70
     0
  3

  4
"
  5

  6

  7

 40
1.0
 41
2.0
 42
1.0
 43
10.0
 44
1.0
 45
0.0
 46
0.0
 47
0.1
 48
0.1
140
2.5
141
0.0
142
0.0
143
0.0393701
144
1.0
145
0.0
146
0.71
147
1.5
 71
     0
 72
     0
 73
     0
 74
     0
 75
     0
 76
     0
 77
     3
 78
     8
170
     0
171
     2
172
     0
173
     0
174
     0
175
     0
176
     2
177
     2
178
     4
  0
DIMSTYLE
  2
AM_JIS$6
 70
     0
  3

  4
"
  5

  6

  7

 40
1.0
 41
2.0
 42
1.0
 43
10.0
 44
1.0
 45
0.0
 46
0.0
 47
0.1
 48
0.1
140
2.5
141
0.0
142
0.0
143
0.0393701
144
1.0
145
0.0
146
0.71
147
1.5
 71
     0
 72
     0
 73
     0
 74
     0
 75
     0
 76
     0
 77
     0
 78
     8
170
     0
171
     2
172
     1
173
     0
174
     0
175
     0
176
     2
177
     2
178
     4
  0
DIMSTYLE
  2
AM_JIS$7
 70
     0
  3

  4
"
  5

  6
OPEN30
  7
OPEN30
 40
1.0
 41
2.0
 42
1.0
 43
10.0
 44
1.0
 45
0.0
 46
0.0
 47
0.1
 48
0.1
140
2.5
141
0.0
142
0.0
143
0.0393701
144
1.0
145
0.0
146
0.71
147
1.5
 71
     0
 72
     0
 73
     0
 74
     0
 75
     0
 76
     0
 77
     3
 78
     8
170
     0
171
     2
172
     1
173
     0
174
     0
175
     0
176
     2
177
     2
178
     4
  0
DIMSTYLE
  2
AM_JIS$SF
 70
     0
  3

  4
"
  5

  6

  7

 40
1.0
 41
2.0
 42
1.0
 43
10.0
 44
1.0
 45
0.0
 46
0.0
 47
0.1
 48
0.1
140
2.5
141
0.0
142
0.0
143
0.0393701
144
1.0
145
0.0
146
0.71
147
1.5
 71
     0
 72
     0
 73
     0
 74
     0
 75
     1
 76
     1
 77
     3
 78
     8
170
     0
171
     2
172
     1
173
     0
174
     0
175
     0
176
     2
177
     2
178
     4
  0
DIMSTYLE
  2
AM_JIS$SH
 70
     0
  3

  4
"
  5

  6
GENAXEH
  7

 40
1.0
 41
2.0
 42
1.0
 43
10.0
 44
1.0
 45
0.0
 46
0.0
 47
0.1
 48
0.1
140
2.5
141
0.0
142
0.0
143
0.0393701
144
2.0
145
0.0
146
0.71
147
1.5
 71
     0
 72
     0
 73
     0
 74
     0
 75
     1
 76
     1
 77
     3
 78
     8
170
     0
171
     2
172
     1
173
     1
174
     0
175
     0
176
     2
177
     2
178
     4
  0
DIMSTYLE
  2
AM_JIS$0
 70
     0
  3

  4
"
  5

  6

  7

 40
1.0
 41
2.0
 42
1.0
 43
8.0
 44
1.0
 45
0.0
 46
0.0
 47
0.1
 48
0.1
140
2.5
141
0.0
142
0.0
143
0.0393701
144
1.0
145
0.0
146
0.71
147
1.5
 71
     0
 72
     0
 73
     0
 74
     0
 75
     0
 76
     0
 77
     3
 78
     8
170
     0
171
     2
172
     1
173
     0
174
     0
175
     0
176
     2
177
     2
178
     4
  0
DIMSTYLE
  2
STANDARD
 70
     0
  3

  4

  5

  6

  7

 40
1.0
 41
0.18
 42
0.0625
 43
0.38
 44
0.18
 45
0.0
 46
0.0
 47
0.0
 48
0.0
140
0.18
141
0.09
142
0.0
143
25.399999999999999
144
1.0
145
0.0
146
1.0
147
0.09
 71
     0
 72
     0
 73
     1
 74
     1
 75
     0
 76
     0
 77
     0
 78
     0
170
     0
171
     2
172
     0
173
     0
174
     0
175
     0
176
     0
177
     0
178
     0
  0
ENDTAB
  0
ENDSEC
  0
SECTION
  2
BLOCKS
  0
BLOCK
  8
0
  2
$MODEL_SPACE
 70
     0
 10
0.0
 20
0.0
 30
0.0
  3
$MODEL_SPACE
  1

  0
ENDBLK
  5
77
  8
0
  0
BLOCK
 67
     1
  8
0
  2
$PAPER_SPACE
 70
     0
 10
0.0
 20
0.0
 30
0.0
  3
$PAPER_SPACE
  1

  0
ENDBLK
  5
73
 67
     1
  8
0
  0
BLOCK
  8
0
  2
GENAXEH
 70
     0
 10
0.0
 20
0.0
 30
0.0
  3
GENAXEH
  1

  0
LINE
  5
ABB6
  8
0
 10
-1.0
 20
0.0
 30
0.0
 11
1.0
 21
0.0
 31
0.0
  0
ENDBLK
  5
ABB7
  8
0
  0
BLOCK
  8
0
  2
_OPEN30
 70
     0
 10
0.0
 20
0.0
 30
0.0
  3
_OPEN30
  1

  0
LINE
  5
ABFD
  8
0
  6
BYBLOCK
 62
     0
 10
-1.0
 20
0.26794919
 30
0.0
 11
0.0
 21
0.0
 31
0.0
  0
LINE
  5
ABFE
  8
0
  6
BYBLOCK
 62
     0
 10
0.0
 20
0.0
 30
0.0
 11
-1.0
 21
-0.26794919
 31
0.0
  0
LINE
  5
ABFF
  8
0
  6
BYBLOCK
 62
     0
 10
0.0
 20
0.0
 30
0.0
 11
-1.0
 21
0.0
 31
0.0
  0
ENDBLK
  5
AC00
  8
0
  0
BLOCK
  8
0
  2
A$C04394077
 70
     0
 10
0.0
 20
0.0
 30
0.0
  3
A$C04394077
  1

  0
LINE
  5
AB1D
  8
0
  6
CONTINUOUS
 62
     7
 10
-107.3829200000001
 20
-45.600000000000009
 30
0.0
 11
-149.55633999999989
 21
-45.600000000000009
 31
0.0
  0
LINE
  5
AB1E
  8
0
  6
CONTINUOUS
 62
     7
 10
-153.31326999999999
 20
-53.656790000000001
 30
0.0
 11
-156.93851000000001
 21
-51.966339999999917
 31
0.0
  0
LINE
  5
AB1F
  8
0
  6
CONTINUOUS
 62
     7
 10
-153.31326999999999
 20
-53.656800000000132
 30
0.0
 11
-104.71219000000001
 21
50.568610000000007
 31
0.0
  0
LINE
  5
AB20
  8
0
  6
CONTINUOUS
 62
     7
 10
-117.02829
 20
-47.600000000000129
 30
0.0
 11
-142.63135000000011
 21
-47.600000000000129
 31
0.0
  0
LINE
  5
AB21
  8
0
  6
CONTINUOUS
 62
     7
 10
-157.42222000000021
 20
-50.637419999999992
 30
0.0
 11
-109.2437
 21
52.681630000000112
 31
0.0
  0
LINE
  5
AB22
  8
0
  6
CONTINUOUS
 62
     7
 10
-138.23435000000009
 20
48.150070000000078
 30
0.0
 11
-111.35679
 21
48.150070000000078
 31
0.0
  0
LINE
  5
AB23
  8
0
  6
CONTINUOUS
 62
     7
 10
-142.63135000000011
 20
-46.600020000000029
 30
0.0
 11
-142.63135000000011
 21
-47.600000000000129
 31
0.0
  0
LINE
  5
AB24
  8
0
  6
CONTINUOUS
 62
     7
 10
-156.57810000000001
 20
-44.410839999999922
 30
0.0
 11
-155.7927899999998
 21
-44.776990000000012
 31
0.0
  0
ARC
  5
AB25
  8
0
  6
CONTINUOUS
 62
     7
 10
-143.63138000000009
 20
-46.600020000000029
 30
0.0
 40
1.0
 50
0.0
 51
90.000002999999296
  0
ARC
  5
AB26
  8
0
  6
CONTINUOUS
 62
     7
 10
-156.51587000000009
 20
-51.06001999999993
 30
0.0
 40
1.0
 50
154.9999799999994
 51
245.00031000000061
  0
ARC
  5
AB27
  8
0
  6
CONTINUOUS
 62
     7
 10
-155.05671000000001
 20
-41.148069999999983
 30
0.0
 40
3.6000000999999981
 50
183.3859699999993
 51
245.00061000000031
  0
ARC
  5
AB28
  8
0
  6
CONTINUOUS
 62
     7
 10
-138.23435000000009
 20
40.550039999999882
 30
0.0
 40
7.599999900000002
 50
90.000002999999296
 51
158.7140899999994
  0
ARC
  5
AB29
  8
0
  6
CONTINUOUS
 62
     7
 10
-156.21539999999999
 20
-45.683300000000138
 30
0.0
 40
1.0
 50
334.9998499999997
 51
65.00064299999967
  0
ARC
  5
AB2A
  8
0
  6
CONTINUOUS
 62
     7
 10
41.599409999999892
 20
-29.513000000000119
 30
0.0
 40
200.60001
 50
158.71414000000021
 51
183.38592999999989
  0
ENDBLK
  5
AB2C
  8
0
  0
BLOCK
  8
0
  2
_ACMFILLEDHALF
 70
     0
 10
0.0
 20
0.0
 30
0.0
  3
_ACMFILLEDHALF
  1

  0
TRACE
  5
ACD5
  8
0
  6
CONTINUOUS
 62
     0
 10
-0.8
 20
0.0
 30
0.0
 11
-1.0
 21
0.166666666
 31
0.0
 12
0.0
 22
0.0
 32
0.0
 13
0.0
 23
0.0
 33
0.0
  0
LINE
  5
ACD6
  8
0
  6
CONTINUOUS
 62
     0
 10
-1.0
 20
0.0
 30
0.0
 11
-0.8
 21
0.0
 31
0.0
  0
ENDBLK
  5
ACD7
  8
0
  0
BLOCK
  8
0
  2
*U8
 70
     1
 10
0.0
 20
0.0
 30
0.0
  3
*U8
  1

  0
TEXT
  5
AD6C
  8
0
 62
     0
 10
5.1211371559201648
 20
5.9826223594979657
 30
0.0
 40
15.0
  1
ＶＸ０８－００３ＥＭ～ＶＸ０８－０３０ＥＭ
 41
0.7400000000000003
  0
ENDBLK
  5
AD6E
  8
0
  0
ENDSEC
  0
SECTION
  2
ENTITIES
  0
LINE
  5
89F3
  8
0
 62
     0
 10
396.47760345369261
 20
437.91108597825132
 30
0.0
 11
432.11725100838328
 21
436.6665259184158
 31
0.0
  0
ARC
  5
89F5
  8
0
 62
     0
 10
431.97765345369203
 20
432.66896259524958
 30
0.0
 40
4.0
 50
0.0
 51
88.000006193419495
1001
GENIUS_GENODEF_13
1002
{
1000
HIER
1070
     0
1002
}
1002
{
1000
MANEDIT
1070
     0
1002
}
1002
{
1000
NOSEL
1070
     0
1002
}
1002
{
1000
BEHIND
1070
     0
1002
}
1002
{
1000
OTHER
1070
     0
1002
}
1002
{
1000
REACTOR
1002
}
1001
GENIUS_GENOBJ-N-FIL_13
1002
{
1000
OWNER
1000
GEN
1002
}
  0
LINE
  5
89F7
  8
0
 62
     0
 10
396.47760345369261
 20
607.91108597825132
 30
0.0
 11
432.1172488069223
 21
609.15562631050022
 31
0.0
  0
LINE
  5
8A75
  8
0
  6
AM_ISO08W050
 62
     0
 10
106.83239413190221
 20
522.91108597825132
 30
0.0
 11
432.15755096208511
 21
522.91108597825132
 31
0.0
  0
LINE
  5
8A76
  8
0
  6
AM_ISO08W050
 62
     0
 10
409.04255716522948
 20
560.91108597825132
 30
0.0
 11
662.92200345369474
 21
560.91108597825132
 31
0.0
  0
LINE
  5
970F
  8
0
 62
     0
 10
332.6259364536927
 20
572.09608597825115
 30
0.0
 11
391.47760345369261
 21
572.09608597825115
 31
0.0
  0
LINE
  5
9710
  8
0
 62
     0
 10
332.39517945369261
 20
572.58608597825116
 30
0.0
 11
389.71760345369262
 21
572.58608597825116
 31
0.0
  0
LINE
  5
9711
  8
0
 62
     0
 10
331.22377745369261
 20
574.18608597825119
 30
0.0
 11
389.71760345369262
 21
574.18608597825119
 31
0.0
  0
LINE
  5
9712
  8
0
 62
     0
 10
330.61598745369258
 20
574.72608597825115
 30
0.0
 11
391.47760345369261
 21
574.72608597825115
 31
0.0
  0
LINE
  5
9713
  8
0
 62
     0
 10
253.7724334536926
 20
571.06109897825115
 30
0.0
 11
325.18277345369268
 21
571.06109897825115
 31
0.0
  0
LINE
  5
9714
  8
0
 62
     0
 10
252.41063245369261
 20
576.13150297825132
 30
0.0
 11
326.53363845369262
 21
576.13150297825132
 31
0.0
  0
ARC
  5
9715
  8
0
 62
     0
 10
843.97757345369223
 20
522.69285797825125
 30
0.0
 40
595.5
 50
175.6560359999994
 51
183.93780499999761
  0
ARC
  5
9716
  8
0
 62
     0
 10
252.41063245369261
 20
569.53151197825116
 30
0.0
 40
6.599999999999997
 50
90.0
 51
171.409850999995
  0
ARC
  5
9717
  8
0
 62
     0
 10
253.7724334536926
 20
567.46109297825114
 30
0.0
 40
3.6000000000000001
 50
90.0
 51
174.62414600000039
  0
ARC
  5
9718
  8
0
 62
     0
 10
-265.02239654630739
 20
522.69291997825133
 30
0.0
 40
595.5
 50
356.06220199999939
 51
4.3439640000005726
  0
ARC
  5
9719
  8
0
 62
     0
 10
326.54457445369258
 20
569.53151197825116
 30
0.0
 40
6.599999999999997
 50
8.5901410000037774
 51
90.0
  0
ARC
  5
971A
  8
0
 62
     0
 10
325.18277345369268
 20
567.46109297825114
 30
0.0
 40
3.6000000000000001
 50
5.3758619999981763
 51
90.0
  0
ARC
  5
971B
  8
0
 62
     0
 10
-265.62237254630742
 20
522.69291997825133
 30
0.0
 40
600.59997599999986
 50
355.4679790000045
 51
4.5671770000027472
  0
ARC
  5
971C
  8
0
 62
     0
 10
844.57754845369232
 20
522.69285797825125
 30
0.0
 40
600.59997599999986
 50
175.4328159999979
 51
184.5320279999992
  0
ARC
  5
971D
  8
0
 62
     0
 10
289.47760345369261
 20
468.72908397825108
 30
0.0
 40
16.337935000000002
 50
47.767946999996333
 51
132.23205300000359
  0
LINE
  5
971E
  8
0
 62
     0
 10
255.70053445369251
 20
480.30702497825132
 30
0.0
 11
277.15203645369257
 21
480.30701697825128
 31
0.0
  0
LINE
  5
971F
  8
0
 62
     0
 10
252.4264104536926
 20
469.2542749782512
 30
0.0
 11
326.52879645369262
 21
469.2542749782512
 31
0.0
  0
LINE
  5
9720
  8
0
 62
     0
 10
252.22681045369271
 20
471.67215197825129
 30
0.0
 11
326.72839645369248
 21
471.67215197825129
 31
0.0
  0
LINE
  5
9721
  8
0
 62
     0
 10
254.46318345369261
 20
477.62891697825131
 30
0.0
 11
277.89918245369262
 21
477.62890897825127
 31
0.0
  0
ARC
  5
9722
  8
0
 62
     0
 10
289.54356745369262
 20
467.24309797825128
 30
0.0
 40
15.0
 50
46.7672420000033
 51
133.23275799999661
  0
ARC
  5
9723
  8
0
 62
     0
 10
252.4264104536926
 20
475.85427397825129
 30
0.0
 40
6.599999999999997
 50
185.37618999999609
 51
270.0
  0
ARC
  5
9724
  8
0
 62
     0
 10
252.22681045369271
 20
478.27215097825132
 30
0.0
 40
6.599999999999997
 50
188.0411830000034
 51
270.0
  0
ARC
  5
9725
  8
0
 62
     0
 10
254.46318345369261
 20
482.22892297825132
 30
0.0
 40
4.5999999999999961
 50
185.37625099999849
 51
270.0
  0
LINE
  5
9726
  8
0
 62
     0
 10
323.25467245369271
 20
480.30702497825132
 30
0.0
 11
301.8031704536927
 21
480.30701697825128
 31
0.0
  0
LINE
  5
9727
  8
0
 62
     0
 10
324.49202345369258
 20
477.62891697825131
 30
0.0
 11
301.18795245369267
 21
477.62890897825127
 31
0.0
  0
ARC
  5
9728
  8
0
 62
     0
 10
326.52879645369262
 20
475.85427397825129
 30
0.0
 40
6.599999999999997
 50
270.0
 51
354.62381000000369
  0
ARC
  5
9729
  8
0
 62
     0
 10
326.72839645369248
 20
478.27215097825132
 30
0.0
 40
6.599999999999997
 50
270.0
 51
351.9588320000023
  0
ARC
  5
972A
  8
0
 62
     0
 10
324.49202345369258
 20
482.22892297825132
 30
0.0
 40
4.5999999999999961
 50
270.0
 51
354.6237490000014
  0
ARC
  5
972B
  8
0
 62
     0
 10
277.89918345369261
 20
479.62890897825127
 30
0.0
 40
2.0
 50
270.0
 51
313.23275799999669
  0
ARC
  5
972C
  8
0
 62
     0
 10
277.15203745369263
 20
482.30701697825128
 30
0.0
 40
2.0
 50
270.0
 51
312.2320530000037
  0
ARC
  5
972D
  8
0
 62
     0
 10
301.80316945369259
 20
482.30701697825128
 30
0.0
 40
2.0
 50
227.7679469999963
 51
270.0
  0
ARC
  5
972E
  8
0
 62
     0
 10
301.18795145369268
 20
479.62890897825127
 30
0.0
 40
2.0
 50
226.76724200000331
 51
270.0
  0
ARC
  5
972F
  8
0
 62
     0
 10
117.97760345369259
 20
423.71108597825128
 30
0.0
 40
2.0
 50
180.0
 51
270.0
  0
LINE
  5
9731
  8
0
 62
     0
 10
188.97760345369261
 20
623.71108597825128
 30
0.0
 11
188.97760345369261
 21
421.71108597825128
 31
0.0
  0
ARC
  5
9732
  8
0
 62
     0
 10
118.3776034536926
 20
608.68790097825126
 30
0.0
 40
2.399999999999999
 50
159.99999999999659
 51
180.0
  0
ARC
  5
9733
  8
0
 62
     0
 10
122.9720674536926
 20
621.3110859782513
 30
0.0
 40
2.399999999999999
 50
90.0
 51
159.99999999999659
  0
LINE
  5
9734
  8
0
 62
     0
 10
120.7168044536926
 20
622.13193397825125
 30
0.0
 11
116.1223414536926
 21
609.50874997825122
 31
0.0
  0
LINE
  5
9735
  8
0
 62
     0
 10
121.29156845369261
 20
623.02453997825125
 30
0.0
 11
121.29156845369261
 21
421.71108597825099
 31
0.0
  0
LINE
  5
9736
  8
0
 62
     0
 10
115.97760345369259
 20
608.68790097825126
 30
0.0
 11
115.97760345369259
 21
423.71108597825128
 31
0.0
  0
LINE
  5
9737
  8
0
 62
     0
 10
188.97760345369261
 20
623.71108597825128
 30
0.0
 11
122.9720674536926
 21
623.71108597825128
 31
0.0
  0
LINE
  5
9738
  8
0
 62
     0
 10
341.43447945369257
 20
572.09608597825115
 30
0.0
 11
341.43447945369257
 21
551.73108597825114
 31
0.0
  0
LINE
  5
9739
  8
0
 62
     0
 10
357.47760245369261
 20
572.09608597825115
 30
0.0
 11
357.47760245369261
 21
551.73108597825114
 31
0.0
  0
LINE
  5
973A
  8
0
 62
     0
 10
372.02699845369261
 20
466.8902899782513
 30
0.0
 11
357.47760245369261
 21
466.8902899782513
 31
0.0
  0
LINE
  5
973B
  8
0
 62
     0
 10
376.97760345369261
 20
478.30263997825131
 30
0.0
 11
357.47760245369261
 21
478.30263997825131
 31
0.0
  0
LINE
  5
973C
  8
0
 62
     0
 10
342.1830004536925
 20
471.60537997825128
 30
0.0
 11
357.47760345369261
 21
466.8902899782513
 31
0.0
  0
LINE
  5
973D
  8
0
 62
     0
 10
357.47760345369261
 20
478.30263997825131
 30
0.0
 11
342.44166245369257
 21
477.76188897825119
 31
0.0
  0
ARC
  5
973E
  8
0
 62
     0
 10
342.47760345369261
 20
476.76253497825121
 30
0.0
 40
1.0
 50
92.059690999997201
 51
180.0
  0
ARC
  5
973F
  8
0
 62
     0
 10
342.47760345369261
 20
472.56099997825129
 30
0.0
 40
1.0
 50
180.0
 51
252.86627500000199
  0
LINE
  5
9740
  8
0
 62
     0
 10
357.47760345369261
 20
598.76387297825124
 30
0.0
 11
342.17714445369268
 21
593.94400697825131
 31
0.0
  0
ARC
  5
9741
  8
0
 62
     0
 10
342.47760345369261
 20
592.9902119782513
 30
0.0
 40
1.0
 50
107.485179
 51
180.0
  0
ARC
  5
9742
  8
0
 62
     0
 10
342.47760345369261
 20
590.63914697825123
 30
0.0
 40
1.0
 50
180.0
 51
270.0
  0
LINE
  5
9743
  8
0
 62
     0
 10
342.52615845369257
 20
589.64032597825121
 30
0.0
 11
357.47760345369261
 21
590.3671459782513
 31
0.0
  0
LINE
  5
9744
  8
0
 62
     0
 10
376.97760345369261
 20
590.3671459782513
 30
0.0
 11
357.47760345369261
 21
590.3671459782513
 31
0.0
  0
LINE
  5
9745
  8
0
 62
     0
 10
300.47760345369261
 20
621.19757897825116
 30
0.0
 11
387.9247884536926
 21
621.19757897825116
 31
0.0
  0
ARC
  5
9746
  8
0
 62
     0
 10
211.74184845369271
 20
619.19757897825139
 30
0.0
 40
2.0
 50
90.0
 51
156.1018000000004
  0
ARC
  5
9747
  8
0
 62
     0
 10
387.9247884536926
 20
619.19757897825139
 30
0.0
 40
2.0
 50
10.000001999998901
 51
90.0
  0
LINE
  5
9748
  8
0
 62
     0
 10
391.47760345369261
 20
610.56610297825125
 30
0.0
 11
389.89440345369258
 21
619.5448759782513
 31
0.0
  0
LINE
  5
9749
  8
0
 62
     0
 10
391.21679545369261
 20
610.56610297825125
 30
0.0
 11
391.47760345369261
 21
610.56610297825125
 31
0.0
  0
ARC
  5
974A
  8
0
 62
     0
 10
196.8088184536926
 20
618.00780497825122
 30
0.0
 40
2.0
 50
90.0
 51
169.99999800000111
  0
LINE
  5
974B
  8
0
 62
     0
 10
192.4776034536925
 20
604.96180197825129
 30
0.0
 11
194.83920345369251
 21
618.35510197825124
 31
0.0
  0
ARC
  5
974C
  8
0
 62
     0
 10
387.8737694536926
 20
618.00780497825122
 30
0.0
 40
2.0
 50
10.000001999998901
 51
90.0
  0
LINE
  5
974D
  8
0
 62
     0
 10
391.47760345369261
 20
609.08698497825139
 30
0.0
 11
389.84338445369258
 21
618.35510197825124
 31
0.0
  0
LINE
  5
974E
  8
0
 62
     0
 10
192.4776034536925
 20
604.96180197825129
 30
0.0
 11
193.0455094536926
 21
604.96180197825129
 31
0.0
  0
LINE
  5
974F
  8
0
 62
     0
 10
390.94163245369259
 20
609.08698497825139
 30
0.0
 11
391.47760345369261
 21
609.08698497825139
 31
0.0
  0
ARC
  5
9750
  8
0
 62
     0
 10
387.78791445369262
 20
615.45507097825123
 30
0.0
 40
2.0
 50
10.00000100000196
 51
90.0
  0
ARC
  5
9751
  8
0
 62
     0
 10
196.92660945369249
 20
615.45507097825123
 30
0.0
 40
2.0
 50
90.0
 51
169.9999989999979
  0
LINE
  5
9752
  8
0
 62
     0
 10
192.4776034536925
 20
601.74104597825124
 30
0.0
 11
194.95699345369269
 21
615.80236697825126
 31
0.0
  0
ARC
  5
9753
  8
0
 62
     0
 10
197.1077504536926
 20
611.48988597825132
 30
0.0
 40
2.0
 50
90.0
 51
170.00000000000131
  0
LINE
  5
9754
  8
0
 62
     0
 10
192.4776034536925
 20
596.74856097825125
 30
0.0
 11
195.1381344536926
 21
611.83718197825124
 31
0.0
  0
ARC
  5
9755
  8
0
 62
     0
 10
197.3889784536926
 20
605.91245797825138
 30
0.0
 40
2.0
 50
90.0
 51
170.00000000000131
  0
LINE
  5
9756
  8
0
 62
     0
 10
192.4776034536925
 20
589.57620897825132
 30
0.0
 11
195.41936245369249
 21
606.25975497825129
 31
0.0
  0
ARC
  5
9757
  8
0
 62
     0
 10
197.4842424536925
 20
599.91179097825125
 30
0.0
 40
2.0
 50
90.0
 51
169.9999989999979
  0
LINE
  5
9758
  8
0
 62
     0
 10
192.4776034536925
 20
583.03527297825121
 30
0.0
 11
195.5146264536927
 21
600.25908697825128
 31
0.0
  0
LINE
  5
9759
  8
0
 62
     0
 10
391.34934445369271
 20
606.77473497825122
 30
0.0
 11
389.75752945369248
 21
615.80236697825126
 31
0.0
  0
LINE
  5
975A
  8
0
 62
     0
 10
192.4776034536925
 20
601.74104597825124
 30
0.0
 11
193.35791345369259
 21
601.74104597825124
 31
0.0
  0
ARC
  5
975B
  8
0
 62
     0
 10
387.65853645369259
 20
611.48988597825132
 30
0.0
 40
2.0
 50
9.9999999999987068
 51
90.0
  0
LINE
  5
975C
  8
0
 62
     0
 10
390.52079845369269
 20
606.77473497825122
 30
0.0
 11
389.62815245369251
 21
611.83718197825124
 31
0.0
  0
ARC
  5
975D
  8
0
 62
     0
 10
322.86662145369257
 20
605.91245797825138
 30
0.0
 40
2.0
 50
5.5986529999989596
 51
90.0
  0
ARC
  5
975E
  8
0
 62
     0
 10
322.86466645369262
 20
599.91179097825125
 30
0.0
 40
2.0
 50
5.4290190000020546
 51
90.0
  0
LINE
  5
975F
  8
0
 62
     0
 10
393.47760345369261
 20
483.18837997825131
 30
0.0
 11
393.47760345369261
 21
584.97701897825118
 31
0.0
  0
LINE
  5
9760
  8
0
 62
     0
 10
393.47760345369261
 20
606.77473497825122
 30
0.0
 11
393.47760345369261
 21
610.91108597825132
 31
0.0
  0
LINE
  5
9761
  8
0
 62
     0
 10
341.43447945369257
 20
596.74856097825125
 30
0.0
 11
357.47760245369261
 21
601.34842297825128
 31
0.0
  0
LINE
  5
9762
  8
0
 62
     0
 10
325.77451845369262
 20
596.74856097825125
 30
0.0
 11
341.43447945369257
 21
596.74856097825125
 31
0.0
  0
LINE
  5
9763
  8
0
 62
     0
 10
357.47760245369261
 20
601.34842297825128
 30
0.0
 11
372.17088645369262
 21
601.34842297825128
 31
0.0
  0
ARC
  5
9764
  8
0
 62
     0
 10
374.17740245369271
 20
594.39435197825128
 30
0.0
 40
2.6003989999999999
 50
179.9999819999943
 51
269.99997799999522
  0
ARC
  5
9765
  8
0
 62
     0
 10
374.17740245369271
 20
599.69433997825115
 30
0.0
 40
2.600403
 50
90.0
 51
179.9999819999943
  0
LINE
  5
9766
  8
0
 62
     0
 10
376.97760345369261
 20
597.11037097825124
 30
0.0
 11
375.47760345369261
 21
596.2443459782512
 31
0.0
  0
LINE
  5
9767
  8
0
 62
     0
 10
376.97760345369261
 20
598.11037097825124
 30
0.0
 11
375.47760345369261
 21
597.24434597825132
 31
0.0
  0
LINE
  5
9768
  8
0
 62
     0
 10
376.97760345369261
 20
603.14434597825118
 30
0.0
 11
376.97760345369261
 21
590.94434597825125
 31
0.0
  0
LINE
  5
9769
  8
0
 62
     0
 10
375.47760345369261
 20
603.14434597825118
 30
0.0
 11
376.97760345369261
 21
603.14434597825118
 31
0.0
  0
LINE
  5
976A
  8
0
 62
     0
 10
375.47760345369261
 20
590.94434597825125
 30
0.0
 11
376.97760345369261
 21
590.94434597825125
 31
0.0
  0
LINE
  5
976B
  8
0
 62
     0
 10
371.57760945369262
 20
599.69433997825115
 30
0.0
 11
371.57760945369262
 21
594.39435197825128
 31
0.0
  0
LINE
  5
976C
  8
0
 62
     0
 10
375.47760345369261
 20
603.14434597825118
 30
0.0
 11
375.47760345369261
 21
590.94434597825125
 31
0.0
  0
LINE
  5
976D
  8
0
 62
     0
 10
375.47760345369261
 20
591.79434597825116
 30
0.0
 11
374.17740245369271
 21
591.79434597825116
 31
0.0
  0
LINE
  5
976E
  8
0
 62
     0
 10
375.47760345369261
 20
602.29434597825127
 30
0.0
 11
374.17740245369271
 21
602.29434597825127
 31
0.0
  0
ARC
  5
976F
  8
0
 62
     0
 10
374.17740245369271
 20
468.35242497825141
 30
0.0
 40
2.6003989999999999
 50
179.9999819999943
 51
269.99997799999522
  0
ARC
  5
9770
  8
0
 62
     0
 10
374.17740245369271
 20
473.65241297825128
 30
0.0
 40
2.600403
 50
90.0
 51
179.9999819999943
  0
LINE
  5
9771
  8
0
 62
     0
 10
376.97760345369261
 20
471.06844397825142
 30
0.0
 11
375.47760345369261
 21
470.20241897825127
 31
0.0
  0
LINE
  5
9772
  8
0
 62
     0
 10
376.97760345369261
 20
472.06844397825131
 30
0.0
 11
375.47760345369261
 21
471.20241897825127
 31
0.0
  0
LINE
  5
9773
  8
0
 62
     0
 10
376.97760345369261
 20
477.10241897825131
 30
0.0
 11
376.97760345369261
 21
464.90241897825132
 31
0.0
  0
LINE
  5
9774
  8
0
 62
     0
 10
375.47760345369261
 20
477.10241897825131
 30
0.0
 11
376.97760345369261
 21
477.10241897825131
 31
0.0
  0
LINE
  5
9775
  8
0
 62
     0
 10
375.47760345369261
 20
464.90241897825132
 30
0.0
 11
376.97760345369261
 21
464.90241897825132
 31
0.0
  0
LINE
  5
9776
  8
0
 62
     0
 10
371.57760945369262
 20
473.65241297825128
 30
0.0
 11
371.57760945369262
 21
468.35242497825141
 31
0.0
  0
LINE
  5
9777
  8
0
 62
     0
 10
375.47760345369261
 20
477.10241897825131
 30
0.0
 11
375.47760345369261
 21
464.90241897825132
 31
0.0
  0
LINE
  5
9778
  8
0
 62
     0
 10
375.47760345369261
 20
465.75241897825111
 30
0.0
 11
374.17740245369271
 21
465.75241897825111
 31
0.0
  0
LINE
  5
9779
  8
0
 62
     0
 10
375.47760345369261
 20
476.25241897825128
 30
0.0
 11
374.17740245369271
 21
476.25241897825128
 31
0.0
  0
LINE
  5
977A
  8
0
 62
     0
 10
391.41677345369271
 20
610.91108597825132
 30
0.0
 11
393.47760345369261
 21
610.91108597825132
 31
0.0
  0
LINE
  5
977B
  8
0
 62
     0
 10
197.1077504536926
 20
613.48988597825132
 30
0.0
 11
387.65853645369259
 21
613.48988597825132
 31
0.0
  0
LINE
  5
977C
  8
0
 62
     0
 10
196.92660945369249
 20
617.45507097825123
 30
0.0
 11
387.78791445369262
 21
617.45507097825123
 31
0.0
  0
LINE
  5
977D
  8
0
 62
     0
 10
196.8088184536926
 20
620.00780497825099
 30
0.0
 11
387.8737694536926
 21
620.00780497825099
 31
0.0
  0
LINE
  5
977E
  8
0
 62
     0
 10
188.97760345369261
 20
616.41108597825132
 30
0.0
 11
194.49642145369259
 21
616.41108597825132
 31
0.0
  0
LINE
  5
977F
  8
0
 62
     0
 10
211.74184845369271
 20
621.19757897825116
 30
0.0
 11
278.47760345369261
 21
621.19757897825116
 31
0.0
  0
LINE
  5
9780
  8
0
 62
     0
 10
357.47760245369261
 20
580.07108597825129
 30
0.0
 11
357.47760245369261
 21
574.72608597825115
 31
0.0
  0
LINE
  5
9781
  8
0
 62
     0
 10
341.43447945369257
 20
580.07108597825129
 30
0.0
 11
341.43447945369257
 21
574.72608597825115
 31
0.0
  0
LINE
  5
9782
  8
0
 62
     0
 10
357.47760245369261
 20
590.3671459782513
 30
0.0
 11
357.47760245369261
 21
582.77108597825122
 31
0.0
  0
LINE
  5
9783
  8
0
 62
     0
 10
357.47760245369261
 20
598.76387297825124
 30
0.0
 11
371.57760945369262
 21
598.76387297825124
 31
0.0
  0
LINE
  5
9784
  8
0
 62
     0
 10
192.4776034536925
 20
583.03527297825121
 30
0.0
 11
326.47760345369261
 21
583.03527297825121
 31
0.0
  0
LINE
  5
9785
  8
0
 62
     0
 10
325.79997645369269
 20
589.57620897825132
 30
0.0
 11
326.47760345369261
 21
589.57620897825132
 31
0.0
  0
LINE
  5
9786
  8
0
 62
     0
 10
197.4842424536925
 20
601.91179097825125
 30
0.0
 11
322.86466645369262
 21
601.91179097825125
 31
0.0
  0
LINE
  5
9787
  8
0
 62
     0
 10
192.4776034536925
 20
589.57620897825132
 30
0.0
 11
193.6309464536925
 21
589.57620897825132
 31
0.0
  0
LINE
  5
9788
  8
0
 62
     0
 10
197.3889784536926
 20
607.91245797825115
 30
0.0
 11
322.86662145369257
 21
607.91245797825115
 31
0.0
  0
LINE
  5
9789
  8
0
 62
     0
 10
393.47760345369261
 20
584.97701897825118
 30
0.0
 11
396.47760345369261
 21
583.24496797825122
 31
0.0
  0
ARC
  5
978A
  8
0
 62
     0
 10
375.97760345369261
 20
585.97701897825129
 30
0.0
 40
1.0
 50
270.0
 51
0.0
  0
ARC
  5
978B
  8
0
 62
     0
 10
378.97760345369261
 20
604.77473497825122
 30
0.0
 40
2.0
 50
90.0
 51
180.0
  0
ARC
  5
978C
  8
0
 62
     0
 10
378.97760345369261
 20
600.65072997825132
 30
0.0
 40
2.0
 50
180.0
 51
270.0
  0
ARC
  5
978D
  8
0
 62
     0
 10
378.97760345369261
 20
596.65072997825132
 30
0.0
 40
2.0
 50
90.0
 51
180.0
  0
LINE
  5
978E
  8
0
 62
     0
 10
378.97760345369261
 20
606.77473497825122
 30
0.0
 11
396.47760345369261
 21
606.77473497825122
 31
0.0
  0
LINE
  5
978F
  8
0
 62
     0
 10
376.97760345369261
 20
584.97701897825118
 30
0.0
 11
393.47760345369261
 21
584.97701897825118
 31
0.0
  0
LINE
  5
9790
  8
0
 62
     0
 10
378.97760345369261
 20
598.65072997825132
 30
0.0
 11
396.47760345369261
 21
598.65072997825132
 31
0.0
  0
LINE
  5
9791
  8
0
 62
     0
 10
376.97760345369261
 20
585.97701897825129
 30
0.0
 11
376.97760345369261
 21
604.77473497825122
 31
0.0
  0
LINE
  5
9792
  8
0
 62
     0
 10
192.4776034536925
 20
438.91108597825132
 30
0.0
 11
188.97760345369261
 21
438.91108597825132
 31
0.0
  0
LINE
  5
9793
  8
0
 62
     0
 10
192.4776034536925
 20
488.55229697825109
 30
0.0
 11
197.08497945369251
 21
482.12069097825128
 31
0.0
  0
LINE
  5
9794
  8
0
 62
     0
 10
197.08497945369251
 20
482.12069097825128
 30
0.0
 11
197.94077945369261
 21
484.74761097825132
 31
0.0
  0
LINE
  5
9795
  8
0
 62
     0
 10
192.4776034536925
 20
488.55229697825109
 30
0.0
 11
197.94077945369261
 21
484.74761097825132
 31
0.0
  0
LINE
  5
9796
  8
0
 62
     0
 10
197.94077945369261
 20
484.74761097825132
 30
0.0
 11
199.15270945369249
 21
484.19165097825129
 31
0.0
  0
LINE
  5
9797
  8
0
 62
     0
 10
188.97760345369261
 20
482.12069097825128
 30
0.0
 11
197.08497945369251
 21
482.12069097825128
 31
0.0
  0
LINE
  5
9798
  8
0
 62
     0
 10
188.97760345369261
 20
488.55229697825109
 30
0.0
 11
192.4776034536925
 21
488.55229697825109
 31
0.0
  0
LINE
  5
9799
  8
0
 62
     0
 10
192.4776034536925
 20
465.97891097825112
 30
0.0
 11
192.4776034536925
 21
462.78601697825133
 31
0.0
  0
LINE
  5
979A
  8
0
 62
     0
 10
194.2376034536926
 20
465.41047697825132
 30
0.0
 11
194.2376034536926
 21
463.41169497825132
 31
0.0
  0
LINE
  5
979B
  8
0
 62
     0
 10
209.2376034536926
 20
474.41108597825132
 30
0.0
 11
209.2376034536926
 21
472.41169497825132
 31
0.0
  0
LINE
  5
979C
  8
0
 62
     0
 10
207.47760345369261
 20
474.87262797825127
 30
0.0
 11
207.47760345369261
 21
471.80489297825108
 31
0.0
  0
LINE
  5
979D
  8
0
 62
     0
 10
207.47760345369261
 20
474.87262797825127
 30
0.0
 11
245.89982045369271
 21
474.87262797825127
 31
0.0
  0
LINE
  5
979E
  8
0
 62
     0
 10
207.47760345369261
 20
471.80489297825108
 30
0.0
 11
247.21464445369261
 21
471.80489297825108
 31
0.0
  0
LINE
  5
979F
  8
0
 62
     0
 10
192.4776034536925
 20
462.78601697825133
 30
0.0
 11
289.47760345369261
 21
462.78601697825133
 31
0.0
  0
LINE
  5
97A0
  8
0
 62
     0
 10
192.4776034536925
 20
465.97891097825112
 30
0.0
 11
289.47760345369261
 21
465.97891097825112
 31
0.0
  0
LINE
  5
97A1
  8
0
 62
     0
 10
194.2376034536926
 20
465.41047697825132
 30
0.0
 11
289.47760345369261
 21
465.41047697825132
 31
0.0
  0
LINE
  5
97A2
  8
0
 62
     0
 10
194.2376034536926
 20
463.41169497825132
 30
0.0
 11
289.47760345369261
 21
463.41169497825132
 31
0.0
  0
LINE
  5
97A3
  8
0
 62
     0
 10
194.2376034536926
 20
465.41047697825132
 30
0.0
 11
192.4776034536925
 21
465.97891097825112
 31
0.0
  0
LINE
  5
97A4
  8
0
 62
     0
 10
194.2376034536926
 20
463.41169497825132
 30
0.0
 11
192.4776034536925
 21
462.78601697825133
 31
0.0
  0
LINE
  5
97A5
  8
0
 62
     0
 10
197.42086945369249
 20
472.15300697825131
 30
0.0
 11
198.60196045369261
 21
471.91559797825113
 31
0.0
  0
LINE
  5
97A6
  8
0
 62
     0
 10
209.2376034536926
 20
474.41108597825132
 30
0.0
 11
245.98613045369251
 21
474.41108597825132
 31
0.0
  0
LINE
  5
97A7
  8
0
 62
     0
 10
209.2376034536926
 20
472.41169497825132
 30
0.0
 11
246.79536645369259
 21
472.41169497825132
 31
0.0
  0
LINE
  5
97A8
  8
0
 62
     0
 10
209.2376034536926
 20
474.41108597825132
 30
0.0
 11
207.47760345369261
 21
474.87262797825127
 31
0.0
  0
LINE
  5
97A9
  8
0
 62
     0
 10
209.2376034536926
 20
472.41169497825132
 30
0.0
 11
207.47760345369261
 21
471.80489297825108
 31
0.0
  0
LINE
  5
97AA
  8
0
 62
     0
 10
326.47760345369261
 20
465.97891097825112
 30
0.0
 11
289.47760345369261
 21
465.97891097825112
 31
0.0
  0
LINE
  5
97AB
  8
0
 62
     0
 10
324.71760345369262
 20
465.41047697825132
 30
0.0
 11
289.47760345369261
 21
465.41047697825132
 31
0.0
  0
LINE
  5
97AC
  8
0
 62
     0
 10
324.71760345369262
 20
463.41169497825132
 30
0.0
 11
289.47760345369261
 21
463.41169497825132
 31
0.0
  0
LINE
  5
97AD
  8
0
 62
     0
 10
324.71760345369262
 20
463.41169497825132
 30
0.0
 11
326.47760345369261
 21
462.78601697825133
 31
0.0
  0
LINE
  5
97AE
  8
0
 62
     0
 10
324.71760345369262
 20
465.41047697825132
 30
0.0
 11
326.47760345369261
 21
465.97891097825112
 31
0.0
  0
LINE
  5
97AF
  8
0
 62
     0
 10
324.71760345369262
 20
465.41047697825132
 30
0.0
 11
324.71760345369262
 21
463.41169497825132
 31
0.0
  0
LINE
  5
97B0
  8
0
 62
     0
 10
326.47760345369261
 20
465.97891097825112
 30
0.0
 11
326.47760345369261
 21
462.78601697825133
 31
0.0
  0
LINE
  5
97B1
  8
0
 62
     0
 10
192.4776034536925
 20
462.78601697825133
 30
0.0
 11
194.0703454536926
 21
445.48682997825108
 31
0.0
  0
LINE
  5
97B2
  8
0
 62
     0
 10
192.4776034536925
 20
456.24596297825133
 30
0.0
 11
193.07974845369259
 21
456.24596297825133
 31
0.0
  0
LINE
  5
97B3
  8
0
 62
     0
 10
192.4776034536925
 20
449.07361097825128
 30
0.0
 11
193.1603804536926
 21
449.07361097825128
 31
0.0
  0
LINE
  5
97B4
  8
0
 62
     0
 10
192.4776034536925
 20
444.08112597825118
 30
0.0
 11
193.00211645369251
 21
444.08112597825118
 31
0.0
  0
LINE
  5
97B5
  8
0
 62
     0
 10
192.4776034536925
 20
440.8603699782513
 30
0.0
 11
192.8375454536926
 21
440.8603699782513
 31
0.0
  0
LINE
  5
97B6
  8
0
 62
     0
 10
192.4308264536927
 20
439.29078897825133
 30
0.0
 11
192.6612174536925
 21
439.29078897825133
 31
0.0
  0
LINE
  5
97B7
  8
0
 62
     0
 10
192.4776034536925
 20
456.24596297825133
 30
0.0
 11
194.06525545369249
 21
439.56818897825133
 31
0.0
  0
LINE
  5
97B8
  8
0
 62
     0
 10
192.4776034536925
 20
449.07361097825128
 30
0.0
 11
194.04943645369261
 21
434.11239997825129
 31
0.0
  0
LINE
  5
97B9
  8
0
 62
     0
 10
192.4776034536925
 20
444.08112597825118
 30
0.0
 11
194.0389144536926
 21
430.11053497825128
 31
0.0
  0
LINE
  5
97BA
  8
0
 62
     0
 10
192.4776034536925
 20
440.8603699782513
 30
0.0
 11
194.03082245369259
 21
427.58304197825129
 31
0.0
  0
LINE
  5
97BB
  8
0
 62
     0
 10
192.4308264536927
 20
439.29078897825133
 30
0.0
 11
194.0213424536926
 21
426.38005497825128
 31
0.0
  0
ARC
  5
97BC
  8
0
 62
     0
 10
196.06192145369249
 20
445.67019497825112
 30
0.0
 40
2.0
 50
185.2604109999981
 51
270.0
  0
ARC
  5
97BD
  8
0
 62
     0
 10
196.05625345369259
 20
439.75772397825131
 30
0.0
 40
2.0
 50
185.4379219999999
 51
270.0
  0
ARC
  5
97BE
  8
0
 62
     0
 10
196.03848945369259
 20
434.32137097825142
 30
0.0
 40
2.0
 50
185.99752600000019
 51
270.0
  0
ARC
  5
97BF
  8
0
 62
     0
 10
196.0265404536926
 20
430.33266597825133
 30
0.0
 40
2.0
 50
186.376742000001
 51
270.0
  0
ARC
  5
97C0
  8
0
 62
     0
 10
196.0172764536926
 20
427.81542297825132
 30
0.0
 40
2.0
 50
186.67229399999829
 51
270.0
  0
ARC
  5
97C1
  8
0
 62
     0
 10
196.0063364536926
 20
426.62459297825109
 30
0.0
 40
2.0
 50
187.02306899999661
 51
270.0
  0
LINE
  5
97C2
  8
0
 62
     0
 10
199.15270945369249
 20
484.19165097825129
 30
0.0
 11
199.15270945369249
 21
471.80489297825108
 31
0.0
  0
LINE
  5
97C3
  8
0
 62
     0
 10
197.08497945369251
 20
482.12069097825128
 30
0.0
 11
197.08497945369251
 21
472.22052397825132
 31
0.0
  0
LINE
  5
97C4
  8
0
 62
     0
 10
188.97760345369261
 20
471.80489297825108
 30
0.0
 11
199.15270945369249
 21
471.80489297825108
 31
0.0
  0
LINE
  5
97C5
  8
0
 62
     0
 10
188.97760345369261
 20
472.22052397825132
 30
0.0
 11
197.08497945369251
 21
472.22052397825132
 31
0.0
  0
LINE
  5
97C6
  8
0
 62
     0
 10
391.47760345369261
 20
538.09108597825127
 30
0.0
 11
389.71760345369262
 21
538.64108597825134
 31
0.0
  0
LINE
  5
97C7
  8
0
 62
     0
 10
391.47760345369261
 20
540.73108597825114
 30
0.0
 11
391.47760345369261
 21
538.09108597825127
 31
0.0
  0
LINE
  5
97C8
  8
0
 62
     0
 10
389.71760345369262
 20
540.24108597825125
 30
0.0
 11
391.47760345369261
 21
540.73108597825114
 31
0.0
  0
LINE
  5
97C9
  8
0
 62
     0
 10
389.71760345369262
 20
540.24108597825125
 30
0.0
 11
389.71760345369262
 21
538.64108597825134
 31
0.0
  0
LINE
  5
97CA
  8
0
 62
     0
 10
391.47760345369261
 20
527.09108597825139
 30
0.0
 11
389.71760345369262
 21
527.64108597825134
 31
0.0
  0
LINE
  5
97CB
  8
0
 62
     0
 10
391.47760345369261
 20
529.73108597825114
 30
0.0
 11
391.47760345369261
 21
527.09108597825139
 31
0.0
  0
LINE
  5
97CC
  8
0
 62
     0
 10
389.71760345369262
 20
529.24108597825125
 30
0.0
 11
391.47760345369261
 21
529.73108597825114
 31
0.0
  0
LINE
  5
97CD
  8
0
 62
     0
 10
389.71760345369262
 20
529.24108597825125
 30
0.0
 11
389.71760345369262
 21
527.64108597825134
 31
0.0
  0
LINE
  5
97CE
  8
0
 62
     0
 10
391.47760345369261
 20
516.09108597825127
 30
0.0
 11
389.71760345369262
 21
516.64108597825134
 31
0.0
  0
LINE
  5
97CF
  8
0
 62
     0
 10
391.47760345369261
 20
518.73108597825114
 30
0.0
 11
391.47760345369261
 21
516.09108597825127
 31
0.0
  0
LINE
  5
97D0
  8
0
 62
     0
 10
389.71760345369262
 20
518.24108597825125
 30
0.0
 11
391.47760345369261
 21
518.73108597825114
 31
0.0
  0
LINE
  5
97D1
  8
0
 62
     0
 10
389.71760345369262
 20
518.24108597825125
 30
0.0
 11
389.71760345369262
 21
516.64108597825134
 31
0.0
  0
LINE
  5
97D2
  8
0
 62
     0
 10
391.47760345369261
 20
505.09108597825127
 30
0.0
 11
389.71760345369262
 21
505.64108597825128
 31
0.0
  0
LINE
  5
97D3
  8
0
 62
     0
 10
391.47760345369261
 20
507.73108597825131
 30
0.0
 11
391.47760345369261
 21
505.09108597825127
 31
0.0
  0
LINE
  5
97D4
  8
0
 62
     0
 10
389.71760345369262
 20
507.24108597825142
 30
0.0
 11
391.47760345369261
 21
507.73108597825131
 31
0.0
  0
LINE
  5
97D5
  8
0
 62
     0
 10
389.71760345369262
 20
507.24108597825142
 30
0.0
 11
389.71760345369262
 21
505.64108597825128
 31
0.0
  0
LINE
  5
97D6
  8
0
 62
     0
 10
390.88927245369268
 20
436.40180597825128
 30
0.0
 11
389.85764345369262
 21
427.58304497825128
 31
0.0
  0
LINE
  5
97D7
  8
0
 62
     0
 10
389.82238645369262
 20
430.11023897825129
 30
0.0
 11
390.87734345369267
 21
439.53722597825129
 31
0.0
  0
LINE
  5
97D8
  8
0
 62
     0
 10
389.84945645369271
 20
434.11109497825129
 30
0.0
 11
390.94836845369258
 21
444.50526897825131
 31
0.0
  0
LINE
  5
97D9
  8
0
 62
     0
 10
390.9993094536926
 20
451.04188897825128
 30
0.0
 11
389.87402845369269
 21
439.56260497825127
 31
0.0
  0
LINE
  5
97DA
  8
0
 62
     0
 10
391.04047645369269
 20
458.45163097825127
 30
0.0
 11
389.80775945369271
 21
445.48096997825132
 31
0.0
  0
LINE
  5
97DB
  8
0
 62
     0
 10
390.94939545369272
 20
435.26547797825128
 30
0.0
 11
389.87736245369251
 21
426.38489997825133
 31
0.0
  0
LINE
  5
97DC
  8
0
 62
     0
 10
389.71760345369262
 20
496.24108597825119
 30
0.0
 11
389.71760345369262
 21
494.64108597825128
 31
0.0
  0
LINE
  5
97DD
  8
0
 62
     0
 10
389.71760345369262
 20
496.24108597825119
 30
0.0
 11
391.47760345369261
 21
496.73108597825131
 31
0.0
  0
LINE
  5
97DE
  8
0
 62
     0
 10
391.47760345369261
 20
496.73108597825131
 30
0.0
 11
391.47760345369261
 21
494.09108597825127
 31
0.0
  0
LINE
  5
97DF
  8
0
 62
     0
 10
391.47760345369261
 20
494.09108597825127
 30
0.0
 11
389.71760345369262
 21
494.64108597825128
 31
0.0
  0
LINE
  5
97E0
  8
0
 62
     0
 10
389.71760345369262
 20
551.24108597825125
 30
0.0
 11
389.71760345369262
 21
549.64108597825134
 31
0.0
  0
LINE
  5
97E1
  8
0
 62
     0
 10
389.71760345369262
 20
551.24108597825125
 30
0.0
 11
391.47760345369261
 21
551.73108597825114
 31
0.0
  0
LINE
  5
97E2
  8
0
 62
     0
 10
391.47760345369261
 20
551.73108597825114
 30
0.0
 11
391.47760345369261
 21
549.09108597825139
 31
0.0
  0
LINE
  5
97E3
  8
0
 62
     0
 10
391.47760345369261
 20
549.09108597825139
 30
0.0
 11
389.71760345369262
 21
549.64108597825134
 31
0.0
  0
LINE
  5
97E4
  8
0
 62
     0
 10
341.43447945369257
 20
549.09108597825139
 30
0.0
 11
341.43447945369257
 21
540.73108597825114
 31
0.0
  0
LINE
  5
97E5
  8
0
 62
     0
 10
357.47760245369261
 20
549.09108597825139
 30
0.0
 11
357.47760245369261
 21
540.73108597825114
 31
0.0
  0
LINE
  5
97E6
  8
0
 62
     0
 10
357.47760245369261
 20
538.09108597825127
 30
0.0
 11
357.47760245369261
 21
529.73108597825114
 31
0.0
  0
LINE
  5
97E7
  8
0
 62
     0
 10
341.43447945369257
 20
538.09108597825127
 30
0.0
 11
341.43447945369257
 21
529.73108597825114
 31
0.0
  0
LINE
  5
97E8
  8
0
 62
     0
 10
341.43447945369257
 20
527.09108597825139
 30
0.0
 11
341.43447945369257
 21
518.73108597825114
 31
0.0
  0
LINE
  5
97E9
  8
0
 62
     0
 10
357.47760245369261
 20
527.09108597825139
 30
0.0
 11
357.47760245369261
 21
518.73108597825114
 31
0.0
  0
LINE
  5
97EA
  8
0
 62
     0
 10
357.47760245369261
 20
516.09108597825127
 30
0.0
 11
357.47760245369261
 21
507.73108597825131
 31
0.0
  0
LINE
  5
97EB
  8
0
 62
     0
 10
341.43447945369257
 20
516.09108597825127
 30
0.0
 11
341.43447945369257
 21
507.73108597825131
 31
0.0
  0
LINE
  5
97EC
  8
0
 62
     0
 10
341.43447945369257
 20
505.09108597825127
 30
0.0
 11
341.43447945369257
 21
496.73108597825131
 31
0.0
  0
LINE
  5
97ED
  8
0
 62
     0
 10
357.47760245369261
 20
505.09108597825127
 30
0.0
 11
357.47760245369261
 21
496.73108597825131
 31
0.0
  0
LINE
  5
97EE
  8
0
 62
     0
 10
357.47760245369261
 20
494.09108597825127
 30
0.0
 11
357.47760245369261
 21
478.30263997825131
 31
0.0
  0
LINE
  5
97EF
  8
0
 62
     0
 10
341.43447945369257
 20
494.09108597825127
 30
0.0
 11
341.43447945369257
 21
462.78601697825133
 31
0.0
  0
LINE
  5
97F0
  8
0
 62
     0
 10
391.04047645369269
 20
458.45163097825127
 30
0.0
 11
357.47760245369261
 21
458.45163097825127
 31
0.0
  0
LINE
  5
97F1
  8
0
 62
     0
 10
390.9993094536926
 20
451.04188897825128
 30
0.0
 11
390.33626345369271
 21
451.04188897825128
 31
0.0
  0
ARC
  5
97F2
  8
0
 62
     0
 10
387.81673145369268
 20
445.67019497825112
 30
0.0
 40
2.0
 50
270.0
 51
354.57098099999791
  0
ARC
  5
97F3
  8
0
 62
     0
 10
387.8835694536927
 20
439.75772397825131
 30
0.0
 40
2.0
 50
270.0
 51
354.40134700000078
  0
ARC
  5
97F4
  8
0
 62
     0
 10
387.86054145369258
 20
434.32137097825142
 30
0.0
 40
2.0
 50
270.0
 51
353.96488600000038
  0
ARC
  5
97F5
  8
0
 62
     0
 10
387.83479345369273
 20
430.33266597825133
 30
0.0
 40
2.0
 50
270.0
 51
353.61470099999991
  0
ARC
  5
97F6
  8
0
 62
     0
 10
387.87118945369258
 20
427.81542297825132
 30
0.0
 40
2.0
 50
270.0
 51
353.32779999999809
  0
ARC
  5
97F7
  8
0
 62
     0
 10
387.89177845369261
 20
426.62459297825109
 30
0.0
 40
2.0
 50
270.0
 51
353.11676000000142
  0
LINE
  5
97F8
  8
0
 62
     0
 10
390.94836845369258
 20
444.50526897825131
 30
0.0
 11
390.35854345369262
 21
444.50526897825131
 31
0.0
  0
LINE
  5
97F9
  8
0
 62
     0
 10
390.87734345369267
 20
439.53722597825129
 30
0.0
 11
390.4231284536927
 21
439.53722597825129
 31
0.0
  0
LINE
  5
97FA
  8
0
 62
     0
 10
390.88927245369268
 20
436.40180597825128
 30
0.0
 11
390.52646445369271
 21
436.40180597825128
 31
0.0
  0
LINE
  5
97FB
  8
0
 62
     0
 10
390.94939545369272
 20
435.26547797825128
 30
0.0
 11
390.75634345369269
 21
435.26547797825128
 31
0.0
  0
LINE
  5
97FC
  8
0
 62
     0
 10
393.47760345369261
 20
483.18837997825131
 30
0.0
 11
376.97760345369261
 21
483.18837997825131
 31
0.0
  0
LINE
  5
97FD
  8
0
 62
     0
 10
396.47760345369261
 20
473.00908797825127
 30
0.0
 11
378.97760345369261
 21
473.00908797825127
 31
0.0
  0
LINE
  5
97FE
  8
0
 62
     0
 10
396.47760345369261
 20
460.72180697825132
 30
0.0
 11
378.97760345369261
 21
460.72180697825132
 31
0.0
  0
LINE
  5
97FF
  8
0
 62
     0
 10
376.97760345369261
 20
482.18837997825108
 30
0.0
 11
376.97760345369261
 21
462.72180697825132
 31
0.0
  0
LINE
  5
9800
  8
0
 62
     0
 10
393.47760345369261
 20
483.18837997825131
 30
0.0
 11
396.47760345369261
 21
484.92043097825132
 31
0.0
  0
ARC
  5
9801
  8
0
 62
     0
 10
378.97760345369261
 20
475.00908797825127
 30
0.0
 40
2.0
 50
180.0
 51
270.0
  0
ARC
  5
9802
  8
0
 62
     0
 10
378.97760345369261
 20
462.72180697825132
 30
0.0
 40
2.0
 50
180.0
 51
270.0
  0
ARC
  5
9803
  8
0
 62
     0
 10
378.97760345369261
 20
471.00908797825127
 30
0.0
 40
2.0
 50
90.0
 51
180.0
  0
LINE
  5
9804
  8
0
 62
     0
 10
357.47760245369261
 20
466.8902899782513
 30
0.0
 11
357.47760245369261
 21
458.45163097825127
 31
0.0
  0
LINE
  5
9805
  8
0
 62
     0
 10
341.43447945369257
 20
462.78601697825133
 30
0.0
 11
357.47760245369261
 21
458.45163097825127
 31
0.0
  0
ARC
  5
9806
  8
0
 62
     0
 10
375.97760345369261
 20
482.18837997825108
 30
0.0
 40
1.0
 50
0.0
 51
90.0
  0
LINE
  5
9807
  8
0
 62
     0
 10
341.43447945369257
 20
462.78601697825133
 30
0.0
 11
289.47760345369261
 21
462.78601697825133
 31
0.0
  0
LINE
  5
9808
  8
0
 62
     0
 10
387.89177845369261
 20
424.62459297825131
 30
0.0
 11
196.0063364536926
 21
424.62459297825131
 31
0.0
  0
LINE
  5
9809
  8
0
 62
     0
 10
387.87118945369258
 20
425.81542297825132
 30
0.0
 11
196.0172764536926
 21
425.81542297825132
 31
0.0
  0
LINE
  5
980A
  8
0
 62
     0
 10
387.83479345369273
 20
428.33266597825133
 30
0.0
 11
196.0265404536926
 21
428.33266597825133
 31
0.0
  0
LINE
  5
980B
  8
0
 62
     0
 10
387.86054145369258
 20
432.32137097825131
 30
0.0
 11
196.03848945369259
 21
432.32137097825131
 31
0.0
  0
LINE
  5
980C
  8
0
 62
     0
 10
387.8835694536927
 20
437.75772397825131
 30
0.0
 11
196.05625345369259
 21
437.75772397825131
 31
0.0
  0
LINE
  5
980D
  8
0
 62
     0
 10
387.81673145369268
 20
443.67019497825129
 30
0.0
 11
196.06192145369249
 21
443.67019497825129
 31
0.0
  0
LINE
  5
980E
  8
0
 62
     0
 10
341.43447945369257
 20
596.74856097825125
 30
0.0
 11
341.43447945369257
 21
582.77108597825122
 31
0.0
  0
LINE
  5
980F
  8
0
 62
     0
 10
357.47760245369261
 20
601.34842297825128
 30
0.0
 11
357.47760245369261
 21
598.76387297825124
 31
0.0
  0
LINE
  5
9810
  8
0
 62
     0
 10
334.27521545369262
 20
551.73108597825114
 30
0.0
 11
391.47760345369261
 21
551.73108597825114
 31
0.0
  0
LINE
  5
9811
  8
0
 62
     0
 10
334.29873345369248
 20
551.24108597825125
 30
0.0
 11
389.71760345369262
 21
551.24108597825125
 31
0.0
  0
LINE
  5
9812
  8
0
 62
     0
 10
334.3716994536926
 20
549.64108597825134
 30
0.0
 11
389.71760345369262
 21
549.64108597825134
 31
0.0
  0
LINE
  5
9813
  8
0
 62
     0
 10
334.3716994536926
 20
549.09108597825139
 30
0.0
 11
391.47760345369261
 21
549.09108597825139
 31
0.0
  0
LINE
  5
9814
  8
0
 62
     0
 10
334.41622145369257
 20
496.73108597825131
 30
0.0
 11
391.47760345369261
 21
496.73108597825131
 31
0.0
  0
LINE
  5
9815
  8
0
 62
     0
 10
334.39482045369249
 20
496.24108597825119
 30
0.0
 11
389.71760345369262
 21
496.24108597825119
 31
0.0
  0
LINE
  5
9816
  8
0
 62
     0
 10
334.3221464536926
 20
494.64108597825128
 30
0.0
 11
389.71760345369262
 21
494.64108597825128
 31
0.0
  0
LINE
  5
9817
  8
0
 62
     0
 10
334.29617745369262
 20
494.09108597825127
 30
0.0
 11
391.47760345369261
 21
494.09108597825127
 31
0.0
  0
LINE
  5
9818
  8
0
 62
     0
 10
334.96149945369262
 20
527.09108597825139
 30
0.0
 11
391.47760345369261
 21
527.09108597825139
 31
0.0
  0
LINE
  5
9819
  8
0
 62
     0
 10
334.95721945369257
 20
527.64108597825134
 30
0.0
 11
389.71760345369262
 21
527.64108597825134
 31
0.0
  0
LINE
  5
981A
  8
0
 62
     0
 10
334.79121345369259
 20
507.73108597825131
 30
0.0
 11
391.47760345369261
 21
507.73108597825131
 31
0.0
  0
LINE
  5
981B
  8
0
 62
     0
 10
334.7788034536926
 20
507.24108597825142
 30
0.0
 11
389.71760345369262
 21
507.24108597825142
 31
0.0
  0
LINE
  5
981C
  8
0
 62
     0
 10
334.73549245369259
 20
505.64108597825128
 30
0.0
 11
389.71760345369262
 21
505.64108597825128
 31
0.0
  0
LINE
  5
981D
  8
0
 62
     0
 10
334.71961845369259
 20
505.09108597825127
 30
0.0
 11
391.47760345369261
 21
505.09108597825127
 31
0.0
  0
LINE
  5
981E
  8
0
 62
     0
 10
334.96453645369257
 20
518.73108597825114
 30
0.0
 11
391.47760345369261
 21
518.73108597825114
 31
0.0
  0
LINE
  5
981F
  8
0
 62
     0
 10
334.9611044536926
 20
518.24108597825125
 30
0.0
 11
389.71760345369262
 21
518.24108597825125
 31
0.0
  0
LINE
  5
9820
  8
0
 62
     0
 10
334.94711245369263
 20
516.64108597825134
 30
0.0
 11
389.71760345369262
 21
516.64108597825134
 31
0.0
  0
LINE
  5
9821
  8
0
 62
     0
 10
334.9413184536927
 20
516.09108597825127
 30
0.0
 11
391.47760345369261
 21
516.09108597825127
 31
0.0
  0
LINE
  5
9822
  8
0
 62
     0
 10
334.72119045369271
 20
540.73108597825114
 30
0.0
 11
391.47760345369261
 21
540.73108597825114
 31
0.0
  0
LINE
  5
9823
  8
0
 62
     0
 10
334.72119045369271
 20
540.24108597825125
 30
0.0
 11
389.71760345369262
 21
540.24108597825125
 31
0.0
  0
LINE
  5
9824
  8
0
 62
     0
 10
334.76582445369257
 20
538.64108597825134
 30
0.0
 11
389.71760345369262
 21
538.64108597825134
 31
0.0
  0
LINE
  5
9825
  8
0
 62
     0
 10
334.78018245369259
 20
538.09108597825127
 30
0.0
 11
391.47760345369261
 21
538.09108597825127
 31
0.0
  0
LINE
  5
9826
  8
0
 62
     0
 10
334.93636345369259
 20
529.73108597825114
 30
0.0
 11
391.47760345369261
 21
529.73108597825114
 31
0.0
  0
LINE
  5
9827
  8
0
 62
     0
 10
334.9419064536927
 20
529.24108597825125
 30
0.0
 11
389.71760345369262
 21
529.24108597825125
 31
0.0
  0
LINE
  5
9828
  8
0
 62
     0
 10
393.47760345369261
 20
434.91108597825132
 30
0.0
 11
393.47760345369261
 21
460.72180697825132
 31
0.0
  0
LINE
  5
9829
  8
0
 62
     0
 10
390.90661445369273
 20
434.91108597825132
 30
0.0
 11
393.47760345369261
 21
434.91108597825132
 31
0.0
  0
LINE
  5
982A
  8
0
 62
     0
 10
391.47760345369261
 20
582.77108597825122
 30
0.0
 11
389.71760345369262
 21
582.21108597825128
 31
0.0
  0
LINE
  5
982B
  8
0
 62
     0
 10
389.71760345369262
 20
580.61108597825125
 30
0.0
 11
391.47760345369261
 21
580.07108597825129
 31
0.0
  0
LINE
  5
982C
  8
0
 62
     0
 10
391.47760345369261
 20
580.07108597825129
 30
0.0
 11
391.47760345369261
 21
582.77108597825122
 31
0.0
  0
LINE
  5
982D
  8
0
 62
     0
 10
389.71760345369262
 20
580.61108597825125
 30
0.0
 11
389.71760345369262
 21
582.21108597825128
 31
0.0
  0
LINE
  5
982E
  8
0
 62
     0
 10
391.47760345369261
 20
574.72608597825115
 30
0.0
 11
389.71760345369262
 21
574.18608597825119
 31
0.0
  0
LINE
  5
982F
  8
0
 62
     0
 10
389.71760345369262
 20
572.58608597825116
 30
0.0
 11
391.47760345369261
 21
572.09608597825115
 31
0.0
  0
LINE
  5
9830
  8
0
 62
     0
 10
389.71760345369262
 20
572.58608597825116
 30
0.0
 11
389.71760345369262
 21
574.18608597825119
 31
0.0
  0
LINE
  5
9831
  8
0
 62
     0
 10
391.47760345369261
 20
572.09608597825115
 30
0.0
 11
391.47760345369261
 21
574.72608597825115
 31
0.0
  0
LINE
  5
9832
  8
0
 62
     0
 10
326.47760345369261
 20
583.03527297825121
 30
0.0
 11
324.85569445369271
 21
600.10101597825121
 31
0.0
  0
LINE
  5
9833
  8
0
 62
     0
 10
326.47760345369261
 20
589.57620897825132
 30
0.0
 11
324.8570804536925
 21
606.10757697825125
 31
0.0
  0
LINE
  5
9834
  8
0
 62
     0
 10
193.7422824536925
 20
596.74856097825125
 30
0.0
 11
192.4776034536925
 21
596.74856097825125
 31
0.0
  0
LINE
  5
9835
  8
0
 62
     0
 10
192.4776034536925
 20
582.77108597825122
 30
0.0
 11
194.2376034536926
 21
582.21108597825128
 31
0.0
  0
LINE
  5
9836
  8
0
 62
     0
 10
194.2376034536926
 20
580.61108597825125
 30
0.0
 11
192.4776034536925
 21
580.07108597825129
 31
0.0
  0
LINE
  5
9837
  8
0
 62
     0
 10
192.4776034536925
 20
574.72608597825115
 30
0.0
 11
194.2376034536926
 21
574.18608597825119
 31
0.0
  0
LINE
  5
9838
  8
0
 62
     0
 10
194.2376034536926
 20
572.58608597825116
 30
0.0
 11
192.4776034536925
 21
572.09608597825115
 31
0.0
  0
LINE
  5
9839
  8
0
 62
     0
 10
192.4776034536925
 20
580.07108597825129
 30
0.0
 11
192.4776034536925
 21
582.77108597825122
 31
0.0
  0
LINE
  5
983A
  8
0
 62
     0
 10
194.2376034536926
 20
580.61108597825125
 30
0.0
 11
194.2376034536926
 21
582.21108597825128
 31
0.0
  0
LINE
  5
983B
  8
0
 62
     0
 10
194.2376034536926
 20
572.58608597825116
 30
0.0
 11
194.2376034536926
 21
574.18608597825119
 31
0.0
  0
LINE
  5
983C
  8
0
 62
     0
 10
192.4776034536925
 20
572.09608597825115
 30
0.0
 11
192.4776034536925
 21
574.72608597825115
 31
0.0
  0
LINE
  5
983D
  8
0
 62
     0
 10
192.4776034536925
 20
561.63052097825107
 30
0.0
 11
245.24109045369269
 21
561.63052097825107
 31
0.0
  0
LINE
  5
983E
  8
0
 62
     0
 10
200.84760345369261
 20
560.77874797825132
 30
0.0
 11
245.1863604536926
 21
560.77874797825132
 31
0.0
  0
LINE
  5
983F
  8
0
 62
     0
 10
192.4776034536925
 20
561.63052097825107
 30
0.0
 11
200.84760345369261
 21
560.77874797825132
 31
0.0
  0
LINE
  5
9840
  8
0
 62
     0
 10
199.15270945369249
 20
484.19165097825129
 30
0.0
 11
245.2128944536926
 21
484.19165097825129
 31
0.0
  0
LINE
  5
9841
  8
0
 62
     0
 10
200.84760345369261
 20
485.04342397825133
 30
0.0
 11
245.15878745369261
 21
485.04342397825133
 31
0.0
  0
LINE
  5
9842
  8
0
 62
     0
 10
192.4776034536925
 20
488.55229697825109
 30
0.0
 11
192.4776034536925
 21
561.63052097825107
 31
0.0
  0
LINE
  5
9843
  8
0
 62
     0
 10
192.4776034536925
 20
488.55229697825109
 30
0.0
 11
197.94077945369261
 21
484.74761097825132
 31
0.0
  0
LINE
  5
9844
  8
0
 62
     0
 10
197.94077945369261
 20
484.74761097825132
 30
0.0
 11
199.15270945369249
 21
484.19165097825129
 31
0.0
  0
LINE
  5
9845
  8
0
 62
     0
 10
197.94077945369261
 20
484.74761097825132
 30
0.0
 11
200.84760345369261
 21
485.04342397825133
 31
0.0
  0
LINE
  5
9846
  8
0
 62
     0
 10
200.84760345369261
 20
485.04342397825133
 30
0.0
 11
200.84760345369261
 21
560.77874797825132
 31
0.0
  0
LINE
  5
9847
  8
0
 62
     0
 10
188.97760345369261
 20
606.53138297825114
 30
0.0
 11
192.75436245369261
 21
606.53138297825114
 31
0.0
  0
LINE
  5
9848
  8
0
 62
     0
 10
278.47760345369261
 20
623.91108597825132
 30
0.0
 11
300.47760345369261
 21
623.91108597825132
 31
0.0
  0
LINE
  5
9849
  8
0
 62
     0
 10
278.47760345369261
 20
623.91108597825132
 30
0.0
 11
278.47760345369261
 21
620.00780497825099
 31
0.0
  0
LINE
  5
984A
  8
0
 62
     0
 10
300.47760345369261
 20
623.91108597825132
 30
0.0
 11
300.47760345369261
 21
620.00780497825099
 31
0.0
  0
LINE
  5
984B
  8
0
 62
     0
 10
194.2376034536926
 20
580.61108597825125
 30
0.0
 11
389.71760345369262
 21
580.61108597825125
 31
0.0
  0
LINE
  5
984C
  8
0
 62
     0
 10
194.2376034536926
 20
582.21108597825128
 30
0.0
 11
389.71760345369262
 21
582.21108597825128
 31
0.0
  0
LINE
  5
984D
  8
0
 62
     0
 10
192.4776034536925
 20
580.07108597825129
 30
0.0
 11
391.47760345369261
 21
580.07108597825129
 31
0.0
  0
LINE
  5
984E
  8
0
 62
     0
 10
192.4776034536925
 20
582.77108597825122
 30
0.0
 11
391.47760345369261
 21
582.77108597825122
 31
0.0
  0
LINE
  5
984F
  8
0
 62
     0
 10
192.4776034536925
 20
572.09608597825115
 30
0.0
 11
246.3292704536926
 21
572.09608597825115
 31
0.0
  0
LINE
  5
9850
  8
0
 62
     0
 10
192.4776034536925
 20
574.72608597825115
 30
0.0
 11
248.33921945369261
 21
574.72608597825115
 31
0.0
  0
LINE
  5
9851
  8
0
 62
     0
 10
194.2376034536926
 20
572.58608597825116
 30
0.0
 11
246.5600274536927
 21
572.58608597825116
 31
0.0
  0
LINE
  5
9852
  8
0
 62
     0
 10
194.2376034536926
 20
574.18608597825119
 30
0.0
 11
247.73142945369261
 21
574.18608597825119
 31
0.0
  0
LINE
  5
9853
  8
0
 62
     0
 10
396.47760345369261
 20
437.91108597825132
 30
0.0
 11
393.47760345369261
 21
434.91108597825132
 31
0.0
  0
LINE
  5
9854
  8
0
 62
     0
 10
396.47760345369261
 20
437.91108597825132
 30
0.0
 11
396.47760345369261
 21
607.91108597825132
 31
0.0
  0
LINE
  5
9855
  8
0
 62
     0
 10
396.47760345369261
 20
607.91108597825132
 30
0.0
 11
393.47760345369261
 21
610.91108597825132
 31
0.0
  0
LINE
  5
9B40
  8
0
 62
     0
 10
117.97760345369259
 20
421.71108597825128
 30
0.0
 11
188.97760345369261
 21
421.71108597825128
 31
0.0
  0
LINE
  5
A111
  8
0
  6
AM_ISO08W050
 62
     0
 10
90.259678985354185
 20
904.59936147383121
 30
0.0
 11
663.99154345369243
 21
904.59936147383121
 31
0.0
  0
LINE
  5
A112
  8
0
  6
CONTINUOUS
 62
     0
 10
451.90786345369219
 20
1033.3431414738311
 30
0.0
 11
462.97763345369242
 21
1033.729731473831
 31
0.0
  0
LINE
  5
A113
  8
0
  6
CONTINUOUS
 62
     0
 10
435.97763345369242
 20
790.49133147383122
 30
0.0
 11
435.97763345369242
 21
900.59930147383056
 31
0.0
  0
LINE
  5
A114
  8
0
  6
CONTINUOUS
 62
     0
 10
449.97750345369218
 20
777.85437182289695
 30
0.0
 11
449.97750345369218
 21
895.05993147383106
 31
0.0
  0
LINE
  5
A115
  8
0
  6
CONTINUOUS
 62
     0
 10
438.45669345369259
 20
1021.678341473831
 30
0.0
 11
447.49856345369273
 21
1023.272701473831
 31
0.0
  0
LINE
  5
A12D
  8
0
  6
CONTINUOUS
 62
     0
 10
462.97763345369242
 20
764.86133147383123
 30
0.0
 11
462.97763345369242
 21
900.59930147383056
 31
0.0
  0
LINE
  5
A147
  8
0
  6
CONTINUOUS
 62
     0
 10
449.97750345369218
 20
827.03357147383099
 30
0.0
 11
475.97763345369231
 21
827.03357147383099
 31
0.0
  0
LINE
  5
A148
  8
0
  6
CONTINUOUS
 62
     0
 10
449.97750345369218
 20
853.03479147383098
 30
0.0
 11
475.97763345369231
 21
853.03479147383098
 31
0.0
  0
LINE
  5
A14C
  8
0
  6
CONTINUOUS
 62
     0
 10
449.97750345369218
 20
956.163881473831
 30
0.0
 11
475.97763345369231
 21
956.163881473831
 31
0.0
  0
LINE
  5
A14E
  8
0
  6
CONTINUOUS
 62
     0
 10
449.97750345369218
 20
982.16510147383065
 30
0.0
 11
475.97763345369231
 21
982.16510147383065
 31
0.0
  0
LINE
  5
A151
  8
0
  6
CONTINUOUS
 62
     0
 10
451.90780345369262
 20
775.85559147383071
 30
0.0
 11
462.97763345369242
 21
775.46899147383112
 31
0.0
  0
LINE
  5
A152
  8
0
  6
CONTINUOUS
 62
     0
 10
438.4566334536928
 20
787.52032147383113
 30
0.0
 11
447.49856345369273
 21
785.92596147383074
 31
0.0
  0
LINE
  5
A154
  8
0
  6
CENTER
 62
     0
 10
446.97763345369231
 20
887.89099147383115
 30
0.0
 11
446.97763345369231
 21
919.20422147383056
 31
0.0
  0
LINE
  5
A155
  8
0
  6
CONTINUOUS
 62
     0
 10
430.47763345369219
 20
900.59930147383056
 30
0.0
 11
463.47763345369231
 21
900.59930147383056
 31
0.0
  0
LINE
  5
A156
  8
0
  6
CONTINUOUS
 62
     0
 10
430.47763345369219
 20
908.59930147383045
 30
0.0
 11
463.47763345369231
 21
908.59930147383045
 31
0.0
  0
LINE
  5
A157
  8
0
  6
CONTINUOUS
 62
     0
 10
462.97763345369242
 20
908.59930147383045
 30
0.0
 11
462.97763345369242
 21
1044.3372814738309
 31
0.0
  0
LINE
  5
A158
  8
0
  6
CONTINUOUS
 62
     0
 10
449.97750345369218
 20
914.13873147383106
 30
0.0
 11
449.97750345369218
 21
1040.8090814738309
 31
0.0
  0
LINE
  5
A159
  8
0
  6
CONTINUOUS
 62
     0
 10
435.97763345369242
 20
908.59930147383045
 30
0.0
 11
435.97763345369242
 21
1018.740481473831
 31
0.0
  0
LINE
  5
A15C
  8
0
  6
CONTINUOUS
 62
     0
 10
396.47760345369261
 20
820.59936147383132
 30
0.0
 11
396.47760345369261
 21
988.59936147383075
 31
0.0
  0
LINE
  5
A15D
  8
0
  6
CONTINUOUS
 62
     0
 10
432.11715345369271
 20
818.35484133440252
 30
0.0
 11
396.4776034536925
 21
819.5993614738311
 31
0.0
  0
LINE
  5
A15E
  8
0
  6
CONTINUOUS
 62
     0
 10
432.1172134536925
 20
989.75659147383055
 30
0.0
 11
396.4776034536925
 21
988.51199621170304
 31
0.0
  0
ARC
  5
A168
  8
0
  6
CONTINUOUS
 62
     0
 10
451.97763345369242
 20
1031.3443014738309
 30
0.0
 40
2.0
 50
91.999997999994051
 51
180.000010000001
  0
ARC
  5
A169
  8
0
  6
CONTINUOUS
 62
     0
 10
438.97763345369242
 20
1018.723871473831
 30
0.0
 40
3.0
 50
100.000000000005
 51
180.000010000001
  0
ARC
  5
A16A
  8
0
  6
CONTINUOUS
 62
     0
 10
446.97763345369231
 20
1026.2270514738309
 30
0.0
 40
3.0
 50
280.00001000000123
 51
0.0
  0
ARC
  5
A19E
  8
0
  6
CONTINUOUS
 62
     0
 10
452.97750345369178
 20
1040.8090814738309
 30
0.0
 40
3.0
 50
92.999998999995213
 51
180.000010000001
  0
ARC
  5
A19F
  8
0
  6
CONTINUOUS
 62
     0
 10
451.97763345369242
 20
777.85437147383118
 30
0.0
 40
2.0
 50
179.999989999999
 51
268.00000999999207
  0
ARC
  5
A1A0
  8
0
  6
CONTINUOUS
 62
     0
 10
438.97763345369242
 20
790.47473147383118
 30
0.0
 40
3.0
 50
179.999989999999
 51
259.999999999995
  0
ARC
  5
A1A1
  8
0
  6
CONTINUOUS
 62
     0
 10
446.97763345369231
 20
782.97162147383108
 30
0.0
 40
3.0
 50
0.0
 51
79.999998000001099
  0
ARC
  5
A1A4
  8
0
  6
CONTINUOUS
 62
     0
 10
446.97763345369231
 20
904.59936147383121
 30
0.0
 40
10.0
 50
23.578037000006329
 51
156.42195999999231
  0
ARC
  5
A1A5
  8
0
  6
CONTINUOUS
 62
     0
 10
430.47763345369219
 20
904.59930147383068
 30
0.0
 40
3.9999962
 50
90.000002999984659
 51
270.0
  0
ARC
  5
A1A6
  8
0
  6
CONTINUOUS
 62
     0
 10
463.47763345369231
 20
904.59930147383068
 30
0.0
 40
3.9999962
 50
270.0
 51
90.000002999984659
  0
ARC
  5
A1A7
  8
0
  6
CONTINUOUS
 62
     0
 10
446.97763345369231
 20
904.59936147383121
 30
0.0
 40
10.0
 50
203.57826999999861
 51
336.4217200000013
  0
ARC
  5
A1A8
  8
0
  6
CONTINUOUS
 62
     0
 10
431.97763345369242
 20
814.3572813344025
 30
0.0
 40
4.0
 50
0.0
 51
87.999999999996248
  0
ARC
  5
A1A9
  8
0
  6
CONTINUOUS
 62
     0
 10
431.97763345369242
 20
993.75415147383114
 30
0.0
 40
4.0
 50
272.00000000000369
 51
0.0
  0
LINE
  5
A1BC
  8
0
 62
     0
 10
326.97754245369242
 20
799.59936147383121
 30
0.0
 11
326.97754245369242
 21
802.5993614738311
 31
0.0
  0
LINE
  5
A1BD
  8
0
 62
     0
 10
251.97754245369239
 20
799.59936147383121
 30
0.0
 11
251.97754245369239
 21
802.5993614738311
 31
0.0
  0
LINE
  5
A1BE
  8
0
 62
     0
 10
326.46154245369229
 20
744.13928147383115
 30
0.0
 11
252.4945024536928
 21
744.13928147383115
 31
0.0
  0
LINE
  5
A1BF
  8
0
 62
     0
 10
326.62744245369231
 20
791.41137147383074
 30
0.0
 11
252.0875224536926
 21
791.41137147383074
 31
0.0
  0
LINE
  5
A1C0
  8
0
 62
     0
 10
328.0224624536927
 20
794.38037147383113
 30
0.0
 11
251.03247245369269
 21
794.38037147383113
 31
0.0
  0
LINE
  5
A1C1
  8
0
 62
     0
 10
327.81347245369261
 20
798.84131147383096
 30
0.0
 11
251.11548245369249
 21
798.84131147383096
 31
0.0
  0
LINE
  5
A1C2
  8
0
 62
     0
 10
327.22754245369242
 20
799.59936147383121
 30
0.0
 11
251.71284545369241
 21
799.59936147383121
 31
0.0
  0
LINE
  5
A1C3
  8
0
 62
     0
 10
252.1075424536925
 20
760.04138147383117
 30
0.0
 11
327.0875224536926
 21
760.04138147383117
 31
0.0
  0
ARC
  5
A1C4
  8
0
 62
     0
 10
-265.62248754630741
 20
770.01428147383115
 30
0.0
 40
600.59997999999973
 50
357.906620000001
 51
2.521403000004645
  0
ARC
  5
A1C5
  8
0
 62
     0
 10
326.46154245369229
 20
747.73938147383103
 30
0.0
 40
3.6000000000000001
 50
269.99995999999589
 51
355.68894999999969
  0
ARC
  5
A1C6
  8
0
 62
     0
 10
-265.62248754630741
 20
770.01428147383115
 30
0.0
 40
596.09997999999973
 50
357.83251999999987
 51
1.945678999999225
  0
ARC
  5
A1C7
  8
0
 62
     0
 10
327.22754245369242
 20
795.99939147383077
 30
0.0
 40
3.6000000000000001
 50
53.340590999992578
 51
89.999989000004106
  0
ARC
  5
A1C8
  8
0
 62
     0
 10
328.83252245369249
 20
786.93738147383101
 30
0.0
 40
7.4984399999999969
 50
40.106594000003419
 51
96.966986999996863
  0
ARC
  5
A1C9
  8
0
 62
     0
 10
328.83252245369249
 20
791.40832147383105
 30
0.0
 40
7.4984399999999969
 50
42.099393999988131
 51
96.966986999996863
  0
ARC
  5
A1CA
  8
0
 62
     0
 10
327.4244324536927
 20
787.70935147383113
 30
0.0
 40
3.7436899999999982
 50
43.77279399999189
 51
98.860984000010419
  0
ARC
  5
A1CB
  8
0
 62
     0
 10
327.4244324536927
 20
756.34228147383112
 30
0.0
 40
3.7436899999999982
 50
43.77279399999189
 51
98.860984000010419
  0
ARC
  5
A1CC
  8
0
 62
     0
 10
329.91552245369257
 20
751.43030147383104
 30
0.0
 40
5.7431099999999971
 50
265.1789600000053
 51
324.25095000001107
  0
ARC
  5
A1CD
  8
0
 62
     0
 10
844.57748245369237
 20
770.01428147383115
 30
0.0
 40
600.59997999999973
 50
177.4789699999962
 51
182.09294999999941
  0
ARC
  5
A1CE
  8
0
 62
     0
 10
252.4945024536928
 20
747.73938147383103
 30
0.0
 40
3.6000000000000001
 50
184.31098
 51
269.99995999999589
  0
ARC
  5
A1CF
  8
0
 62
     0
 10
844.57748245369237
 20
770.01428147383115
 30
0.0
 40
596.09997999999973
 50
178.0539699999992
 51
182.16695000000161
  0
ARC
  5
A1D0
  8
0
 62
     0
 10
251.72754245369239
 20
795.99939147383077
 30
0.0
 40
3.6000000000000001
 50
89.999989000004106
 51
126.658990000006
  0
ARC
  5
A1D1
  8
0
 62
     0
 10
250.12256245369281
 20
786.93738147383101
 30
0.0
 40
7.4984399999999969
 50
83.032990999994595
 51
139.89297999998459
  0
ARC
  5
A1D2
  8
0
 62
     0
 10
250.12256245369281
 20
791.40832147383105
 30
0.0
 40
7.4984399999999969
 50
83.032990999994595
 51
137.9009900000091
  0
ARC
  5
A1D3
  8
0
 62
     0
 10
251.53051245369261
 20
787.70935147383113
 30
0.0
 40
3.7436899999999982
 50
81.138986000010391
 51
136.22697999999471
  0
ARC
  5
A1D4
  8
0
 62
     0
 10
251.53051245369261
 20
756.34228147383112
 30
0.0
 40
3.7436899999999982
 50
81.138986000010391
 51
136.22697999999471
  0
ARC
  5
A1D5
  8
0
 62
     0
 10
249.03955245369249
 20
751.43030147383104
 30
0.0
 40
5.7431099999999971
 50
215.7489699999997
 51
274.82095999999291
  0
LINE
  5
A1D6
  8
0
 62
     0
 10
251.97754245369239
 20
802.5993614738311
 30
0.0
 11
326.97754245369242
 21
802.5993614738311
 31
0.0
  0
ARC
  5
A1D7
  8
0
 62
     0
 10
118.3776034536927
 20
819.10198747383095
 30
0.0
 40
2.399999999999999
 50
180.0
 51
199.99999999999531
  0
ARC
  5
A1D8
  8
0
 62
     0
 10
122.9720674536924
 20
806.47880247383114
 30
0.0
 40
2.399999999999999
 50
199.99999999999531
 51
270.0
  0
LINE
  5
A1D9
  8
0
 62
     0
 10
120.7168044536924
 20
805.65795447383118
 30
0.0
 11
116.1223414536925
 21
818.28113947383099
 31
0.0
  0
LINE
  5
A1DA
  8
0
 62
     0
 10
188.97760345369261
 20
804.07880247383105
 30
0.0
 11
122.9720674536924
 21
804.07880247383105
 31
0.0
  0
LINE
  5
A1DB
  8
0
 62
     0
 10
188.97760345369261
 20
1005.119920473831
 30
0.0
 11
188.97760345369261
 21
804.07880247383105
 31
0.0
  0
LINE
  5
A1DC
  8
0
 62
     0
 10
120.7168044536924
 20
1003.540768473831
 30
0.0
 11
116.1223414536925
 21
990.91758347383109
 31
0.0
  0
ARC
  5
A1DD
  8
0
 62
     0
 10
122.9720674536924
 20
1002.7199204738311
 30
0.0
 40
2.399999999999999
 50
90.0
 51
160.0000000000046
  0
ARC
  5
A1DE
  8
0
 62
     0
 10
118.3776034536927
 20
990.09673547383113
 30
0.0
 40
2.399999999999999
 50
160.0000000000046
 51
180.0
  0
LINE
  5
A1DF
  8
0
 62
     0
 10
121.2915684536929
 20
1004.433374473831
 30
0.0
 11
121.2915684536929
 21
804.07880247383105
 31
0.0
  0
LINE
  5
A1E0
  8
0
 62
     0
 10
115.97760345369259
 20
990.09673547383113
 30
0.0
 11
115.97760345369259
 21
819.31992047383108
 31
0.0
  0
LINE
  5
A1E1
  8
0
 62
     0
 10
188.97760345369261
 20
1005.119920473831
 30
0.0
 11
122.9720674536924
 21
1005.119920473831
 31
0.0
  0
ARC
  5
A1E2
  8
0
 62
     0
 10
197.4212474536925
 20
822.19868147383113
 30
0.0
 40
2.0
 50
189.99999999999849
 51
270.0
  0
LINE
  5
A1E3
  8
0
 62
     0
 10
195.45163245369261
 20
821.8513854738311
 30
0.0
 11
192.4776034536925
 21
838.71793947383105
 31
0.0
  0
LINE
  5
A1E4
  8
0
 62
     0
 10
192.4776034536925
 20
838.71793947383105
 30
0.0
 11
193.5393424536924
 21
838.71793947383105
 31
0.0
  0
LINE
  5
A1E5
  8
0
 62
     0
 10
390.94174445369248
 20
990.77166847383114
 30
0.0
 11
391.47760345369261
 21
990.77166847383114
 31
0.0
  0
LINE
  5
A1E6
  8
0
 62
     0
 10
391.20213545369279
 20
992.33392547383096
 30
0.0
 11
391.47760345369261
 21
992.33392547383096
 31
0.0
  0
LINE
  5
A1E7
  8
0
 62
     0
 10
393.15580245369262
 20
816.59951247383106
 30
0.0
 11
393.47760345369261
 21
816.59951247383106
 31
0.0
  0
LINE
  5
A1E8
  8
0
 62
     0
 10
389.2982084536925
 20
821.44737547383102
 30
0.0
 11
391.47760345369261
 21
821.44737547383102
 31
0.0
  0
LINE
  5
A1E9
  8
0
 62
     0
 10
390.30429145369271
 20
833.55294547383096
 30
0.0
 11
391.47760345369261
 21
833.55294547383096
 31
0.0
  0
LINE
  5
A1EA
  8
0
  6
AM_ISO08W050
 62
     0
 10
289.47760345369261
 20
796.94339647383106
 30
0.0
 11
289.47760345369261
 21
806.125112473831
 31
0.0
  0
ARC
  5
A1EB
  8
0
 62
     0
 10
387.7204834536924
 20
993.60760947383108
 30
0.0
 40
2.0
 50
9.9999999999986073
 51
90.0
  0
ARC
  5
A1EC
  8
0
 62
     0
 10
387.7865004536925
 20
997.14840847383095
 30
0.0
 40
2.0
 50
9.9999999999986073
 51
90.0
  0
ARC
  5
A1ED
  8
0
 62
     0
 10
387.87241845369272
 20
999.70014547383096
 30
0.0
 40
2.0
 50
9.9999999999986073
 51
90.0
  0
ARC
  5
A1EE
  8
0
 62
     0
 10
387.90116745369232
 20
1001.099361473831
 30
0.0
 40
2.0
 50
9.9999999999986073
 51
90.0
  0
LINE
  5
A1EF
  8
0
 62
     0
 10
396.47760645369272
 20
989.59936147383098
 30
0.0
 11
393.47760645369272
 21
992.5993614738311
 31
0.0
  0
LINE
  5
A1F0
  8
0
 62
     0
 10
391.4307994536926
 20
992.5993614738311
 30
0.0
 11
393.47760345369261
 21
992.5993614738311
 31
0.0
  0
LINE
  5
A1F1
  8
0
 62
     0
 10
396.47760345369261
 20
819.5993614738311
 30
0.0
 11
393.47760345369261
 21
816.59936147383098
 31
0.0
  0
LINE
  5
A1F2
  8
0
 62
     0
 10
393.47760345369261
 20
816.59936147383098
 30
0.0
 11
393.47760345369261
 21
842.21974747383092
 31
0.0
  0
LINE
  5
A1F3
  8
0
 62
     0
 10
396.47760345369261
 20
819.5993614738311
 30
0.0
 11
396.47760345369261
 21
989.59936147383098
 31
0.0
  0
CIRCLE
  5
A1F4
  8
0
 62
     0
 10
289.47760345369261
 20
904.59936147383121
 30
0.0
 40
11.0
  0
LINE
  5
A1F5
  8
0
 62
     0
 10
196.76372345369231
 20
1003.099361473831
 30
0.0
 11
248.47760345369261
 21
1003.099361473831
 31
0.0
  0
LINE
  5
A1F6
  8
0
 62
     0
 10
328.47760345369261
 20
995.60760947383119
 30
0.0
 11
328.47760345369261
 21
1001.099361473831
 31
0.0
  0
LINE
  5
A1F7
  8
0
 62
     0
 10
250.47760345369261
 20
995.60760947383119
 30
0.0
 11
250.47760345369261
 21
1001.099361473831
 31
0.0
  0
ARC
  5
A1F8
  8
0
 62
     0
 10
248.47760345369261
 20
1001.099361473831
 30
0.0
 40
2.0
 50
0.0
 51
90.0
  0
ARC
  5
A1F9
  8
0
 62
     0
 10
330.47760345369261
 20
1001.099361473831
 30
0.0
 40
2.0
 50
90.0
 51
180.0
  0
LINE
  5
A1FA
  8
0
 62
     0
 10
330.47760345369261
 20
1003.099361473831
 30
0.0
 11
387.90116745369232
 21
1003.099361473831
 31
0.0
  0
LINE
  5
A1FB
  8
0
 62
     0
 10
387.87241845369272
 20
1001.700145473831
 30
0.0
 11
330.47760345369261
 21
1001.700145473831
 31
0.0
  0
LINE
  5
A1FC
  8
0
 62
     0
 10
391.47760345369261
 20
990.77166847383114
 30
0.0
 11
389.84203445369258
 21
1000.047441473831
 31
0.0
  0
LINE
  5
A1FD
  8
0
 62
     0
 10
391.47760345369261
 20
992.33392547383096
 30
0.0
 11
389.8707824536927
 21
1001.446657473831
 31
0.0
  0
LINE
  5
A1FE
  8
0
 62
     0
 10
192.4776034536925
 20
988.30910747383109
 30
0.0
 11
194.79410845369239
 21
1001.446657473831
 31
0.0
  0
ARC
  5
A1FF
  8
0
 62
     0
 10
196.76372345369231
 20
1001.099361473831
 30
0.0
 40
2.0
 50
90.0
 51
170.00000000000139
  0
LINE
  5
A200
  8
0
 62
     0
 10
192.4776034536925
 20
986.65004647383103
 30
0.0
 11
194.8399254536925
 21
1000.047441473831
 31
0.0
  0
ARC
  5
A201
  8
0
 62
     0
 10
196.80954145369279
 20
999.70014547383096
 30
0.0
 40
2.0
 50
90.0
 51
170.00000000000139
  0
ARC
  5
A202
  8
0
 62
     0
 10
248.47760345369261
 20
999.70014547383096
 30
0.0
 40
2.0
 50
0.0
 51
90.0
  0
ARC
  5
A203
  8
0
 62
     0
 10
330.47760345369261
 20
999.70014547383096
 30
0.0
 40
2.0
 50
90.0
 51
180.0
  0
LINE
  5
A204
  8
0
 62
     0
 10
248.47760345369261
 20
1001.700145473831
 30
0.0
 11
196.80954145369279
 21
1001.700145473831
 31
0.0
  0
LINE
  5
A205
  8
0
 62
     0
 10
387.7865004536925
 20
999.14840847383095
 30
0.0
 11
330.47760345369261
 21
999.14840847383095
 31
0.0
  0
LINE
  5
A206
  8
0
 62
     0
 10
391.3488234536926
 20
988.4630104738311
 30
0.0
 11
389.75611545369247
 21
997.49570547383109
 31
0.0
  0
LINE
  5
A207
  8
0
 62
     0
 10
192.4776034536925
 20
983.42925547383106
 30
0.0
 11
194.95789845369291
 21
997.49570547383109
 31
0.0
  0
ARC
  5
A208
  8
0
 62
     0
 10
196.9275134536924
 20
997.14840847383095
 30
0.0
 40
2.0
 50
90.0
 51
170.00000000000139
  0
ARC
  5
A209
  8
0
 62
     0
 10
248.47760345369261
 20
997.14840847383095
 30
0.0
 40
2.0
 50
0.0
 51
90.0
  0
ARC
  5
A20A
  8
0
 62
     0
 10
330.47760345369261
 20
997.14840847383095
 30
0.0
 40
2.0
 50
90.0
 51
180.0
  0
LINE
  5
A20B
  8
0
 62
     0
 10
248.47760345369261
 20
999.14840847383095
 30
0.0
 11
196.9275134536924
 21
999.14840847383095
 31
0.0
  0
LINE
  5
A20C
  8
0
 62
     0
 10
387.7204834536924
 20
995.60760947383119
 30
0.0
 11
197.08902245369239
 21
995.60760947383119
 31
0.0
  0
LINE
  5
A20D
  8
0
 62
     0
 10
390.65846845369288
 20
988.4630104738311
 30
0.0
 11
389.69009945369271
 21
993.95490547383122
 31
0.0
  0
LINE
  5
A20E
  8
0
 62
     0
 10
192.4776034536925
 20
978.97249547383115
 30
0.0
 11
195.11940645369259
 21
993.95490547383122
 31
0.0
  0
ARC
  5
A20F
  8
0
 62
     0
 10
197.08902245369239
 20
993.60760947383108
 30
0.0
 40
2.0
 50
90.0
 51
170.00000000000139
  0
LINE
  5
A210
  8
0
 62
     0
 10
321.5339594536926
 20
989.00004147383095
 30
0.0
 11
197.4212474536925
 21
989.00004147383095
 31
0.0
  0
LINE
  5
A211
  8
0
 62
     0
 10
326.47760345369261
 20
970.48078347383114
 30
0.0
 11
323.50357445369258
 21
987.34733747383098
 31
0.0
  0
ARC
  5
A212
  8
0
 62
     0
 10
321.5339594536926
 20
987.00004147383095
 30
0.0
 40
2.0
 50
9.9999999999986073
 51
90.0
  0
LINE
  5
A213
  8
0
 62
     0
 10
192.4776034536925
 20
970.48078347383114
 30
0.0
 11
195.45163245369261
 21
987.34733747383098
 31
0.0
  0
ARC
  5
A214
  8
0
 62
     0
 10
197.4212474536925
 20
987.00004147383095
 30
0.0
 40
2.0
 50
90.0
 51
170.00000000000139
  0
LINE
  5
A215
  8
0
 62
     0
 10
321.20369545369249
 20
983.59799747383113
 30
0.0
 11
197.7515114536927
 21
983.59799747383113
 31
0.0
  0
LINE
  5
A216
  8
0
 62
     0
 10
326.25655245369262
 20
964.459361473831
 30
0.0
 11
323.1733114536928
 21
981.94529447383115
 31
0.0
  0
ARC
  5
A217
  8
0
 62
     0
 10
321.20369545369249
 20
981.59799747383113
 30
0.0
 40
2.0
 50
9.9999999999986073
 51
90.0
  0
LINE
  5
A218
  8
0
 62
     0
 10
192.75459745369241
 20
964.77662947383101
 30
0.0
 11
195.78189545369241
 21
981.94529447383115
 31
0.0
  0
ARC
  5
A219
  8
0
 62
     0
 10
197.7515114536927
 20
981.59799747383113
 30
0.0
 40
2.0
 50
90.0
 51
170.00000000000139
  0
LINE
  5
A21A
  8
0
 62
     0
 10
391.47760345369261
 20
909.62951347383103
 30
0.0
 11
391.47760345369261
 21
912.57720547383121
 31
0.0
  0
LINE
  5
A21B
  8
0
 62
     0
 10
391.47760345369261
 20
919.62898947383121
 30
0.0
 11
391.47760345369261
 21
922.59046847383115
 31
0.0
  0
LINE
  5
A21C
  8
0
 62
     0
 10
391.47760345369261
 20
930.62116947383117
 30
0.0
 11
391.47760345369261
 21
933.61379647383114
 31
0.0
  0
LINE
  5
A21D
  8
0
 62
     0
 10
391.47760345369261
 20
941.60396447383096
 30
0.0
 11
391.47760345369261
 21
944.64967047383095
 31
0.0
  0
LINE
  5
A21E
  8
0
 62
     0
 10
393.97763345369248
 20
952.57384347383106
 30
0.0
 11
393.97763345369248
 21
955.70475647383114
 31
0.0
  0
LINE
  5
A21F
  8
0
 62
     0
 10
391.47760345369261
 20
961.53231947383097
 30
0.0
 11
391.47760345369261
 21
964.77662947383101
 31
0.0
  0
LINE
  5
A220
  8
0
 62
     0
 10
341.47760345369261
 20
978.97249547383115
 30
0.0
 11
324.98028545369289
 21
978.97249547383115
 31
0.0
  0
LINE
  5
A221
  8
0
 62
     0
 10
373.26438045369241
 20
983.81746347383103
 30
0.0
 11
357.47760345369261
 21
983.81746347383103
 31
0.0
  0
LINE
  5
A222
  8
0
 62
     0
 10
341.47760345369261
 20
978.97249547383115
 30
0.0
 11
357.47760345369261
 21
983.81746347383103
 31
0.0
  0
LINE
  5
A223
  8
0
 62
     0
 10
357.47760345369261
 20
983.81746347383103
 30
0.0
 11
357.47760345369261
 21
980.45214847383113
 31
0.0
  0
LINE
  5
A224
  8
0
 62
     0
 10
341.47760345369261
 20
978.97249547383115
 30
0.0
 11
341.47760345369261
 21
964.77662947383101
 31
0.0
  0
LINE
  5
A225
  8
0
 62
     0
 10
379.47763345369248
 20
967.66532347383099
 30
0.0
 11
379.47763345369248
 21
986.46301047383099
 31
0.0
  0
ARC
  5
A226
  8
0
 62
     0
 10
378.97760345369261
 20
986.46301047383099
 30
0.0
 40
2.0
 50
90.0
 51
180.0
  0
LINE
  5
A227
  8
0
 62
     0
 10
376.97760345369261
 20
972.05542147383096
 30
0.0
 11
357.47760345369261
 21
972.05542147383096
 31
0.0
  0
LINE
  5
A228
  8
0
 62
     0
 10
371.57760945369279
 20
980.45214847383113
 30
0.0
 11
357.47760345369261
 21
980.45214847383113
 31
0.0
  0
LINE
  5
A229
  8
0
 62
     0
 10
357.47760345369261
 20
972.05542147383096
 30
0.0
 11
357.47760345369261
 21
964.77662947383101
 31
0.0
  0
LINE
  5
A22B
  8
0
 62
     0
 10
396.47760345369261
 20
988.4630104738311
 30
0.0
 11
378.97760345369261
 21
988.4630104738311
 31
0.0
  0
LINE
  5
A22C
  8
0
 62
     0
 10
396.47760345369261
 20
966.66532347383099
 30
0.0
 11
375.97760345369261
 21
966.66532347383099
 31
0.0
  0
ARC
  5
A22D
  8
0
 62
     0
 10
378.47763345369248
 20
967.66532347383099
 30
0.0
 40
1.0
 50
270.0
 51
0.0
  0
LINE
  5
A22E
  8
0
 62
     0
 10
396.47760345369261
 20
980.33900547383109
 30
0.0
 11
378.97760345369261
 21
980.33900547383109
 31
0.0
  0
LINE
  5
A22F
  8
0
 62
     0
 10
188.97760345369261
 20
988.59936147383075
 30
0.0
 11
192.4776034536925
 21
988.59936147383075
 31
0.0
  0
ARC
  5
A230
  8
0
 62
     0
 10
393.15580245369262
 20
814.59936147383098
 30
0.0
 40
2.0
 50
90.0
 51
170.00000000000139
  0
ARC
  5
A231
  8
0
 62
     0
 10
329.22024545369283
 20
809.605704473831
 30
0.0
 40
1.9936590000000001
 50
90.075931000003536
 51
178.17025399999861
  0
LINE
  5
A232
  8
0
 62
     0
 10
329.21760345369228
 20
811.5993614738311
 30
0.0
 11
388.91776945369247
 21
811.5993614738311
 31
0.0
  0
LINE
  5
A233
  8
0
 62
     0
 10
326.97760345369261
 20
802.5993614738311
 30
0.0
 11
327.59363245369241
 21
820.19868147383124
 31
0.0
  0
LINE
  5
A234
  8
0
 62
     0
 10
391.18618745369258
 20
814.94665747383101
 30
0.0
 11
390.8873844536925
 21
813.25206547383107
 31
0.0
  0
ARC
  5
A235
  8
0
 62
     0
 10
388.91776945369247
 20
813.59936147383087
 30
0.0
 40
2.0
 50
270.0
 51
350.00000000000142
  0
LINE
  5
A236
  8
0
 62
     0
 10
193.0549534536926
 20
819.5993614738311
 30
0.0
 11
200.2718324536927
 21
807.0993614738311
 31
0.0
  0
LINE
  5
A237
  8
0
 62
     0
 10
202.0038824536928
 20
806.0993614738311
 30
0.0
 11
249.9225744536925
 21
806.0993614738311
 31
0.0
  0
LINE
  5
A238
  8
0
 62
     0
 10
251.97760345369261
 20
802.5993614738311
 30
0.0
 11
251.92129145369239
 21
804.17097647383105
 31
0.0
  0
ARC
  5
A239
  8
0
 62
     0
 10
191.32290245369259
 20
818.5993614738311
 30
0.0
 40
2.0
 50
30.000000000000551
 51
90.0
  0
ARC
  5
A23A
  8
0
 62
     0
 10
202.0038824536928
 20
808.09936147383132
 30
0.0
 40
2.0
 50
210.00000000000051
 51
270.0
  0
ARC
  5
A23B
  8
0
 62
     0
 10
249.9225744536925
 20
804.09936147383098
 30
0.0
 40
2.0
 50
2.0520649999985339
 51
90.0
  0
LINE
  5
A23C
  8
0
 62
     0
 10
251.97760345369261
 20
802.5993614738311
 30
0.0
 11
326.97760345369261
 21
802.5993614738311
 31
0.0
  0
LINE
  5
A23D
  8
0
 62
     0
 10
201.0038824536928
 20
806.36731047383114
 30
0.0
 11
201.0038824536928
 21
820.19868147383124
 31
0.0
  0
LINE
  5
A23E
  8
0
 62
     0
 10
387.4446874536925
 20
820.19868147383124
 30
0.0
 11
197.4212474536925
 21
820.19868147383124
 31
0.0
  0
LINE
  5
A23F
  8
0
 62
     0
 10
387.22390145369258
 20
825.60072547383118
 30
0.0
 11
197.53046045369271
 21
825.60072547383118
 31
0.0
  0
LINE
  5
A240
  8
0
 62
     0
 10
391.47760345369261
 20
840.20712747383106
 30
0.0
 11
357.47760345369261
 21
840.20712747383106
 31
0.0
  0
LINE
  5
A241
  8
0
 62
     0
 10
391.47760345369261
 20
840.20712747383106
 30
0.0
 11
389.19351645369261
 21
827.25342847383115
 31
0.0
  0
ARC
  5
A242
  8
0
 62
     0
 10
387.22390145369258
 20
827.60072547383118
 30
0.0
 40
2.0
 50
270.0
 51
350.00000000000142
  0
LINE
  5
A243
  8
0
 62
     0
 10
391.47760345369261
 20
833.55294547383096
 30
0.0
 11
389.41430245369253
 21
821.8513854738311
 31
0.0
  0
ARC
  5
A244
  8
0
 62
     0
 10
387.4446874536925
 20
822.19868147383113
 30
0.0
 40
2.0
 50
270.0
 51
350.00000000000142
  0
LINE
  5
A245
  8
0
 62
     0
 10
196.2203414536925
 20
820.59936147383132
 30
0.0
 11
188.97760345369261
 21
820.59936147383132
 31
0.0
  0
LINE
  5
A246
  8
0
 62
     0
 10
391.47760345369261
 20
821.44737547383102
 30
0.0
 11
390.0325494536927
 21
813.25206547383107
 31
0.0
  0
ARC
  5
A247
  8
0
 62
     0
 10
388.06293345369249
 20
813.59936147383087
 30
0.0
 40
2.0
 50
270.0
 51
350.00000000000142
  0
LINE
  5
A248
  8
0
 62
     0
 10
326.47760345369261
 20
856.43936147383101
 30
0.0
 11
326.47760345369261
 21
853.73936147383108
 31
0.0
  0
LINE
  5
A249
  8
0
 62
     0
 10
396.47760345369261
 20
842.38972447383082
 30
0.0
 11
378.97760345369261
 21
842.38972447383082
 31
0.0
  0
LINE
  5
A24A
  8
0
 62
     0
 10
396.47760345369261
 20
854.69736347383105
 30
0.0
 11
378.97760345369261
 21
854.69736347383105
 31
0.0
  0
LINE
  5
A24B
  8
0
 62
     0
 10
396.47760345369261
 20
864.87665547383097
 30
0.0
 11
391.47760345369261
 21
864.87665547383097
 31
0.0
  0
LINE
  5
A24C
  8
0
 62
     0
 10
376.97760345369261
 20
863.87665547383097
 30
0.0
 11
376.97760345369261
 21
844.38972447383105
 31
0.0
  0
ARC
  5
A24D
  8
0
 62
     0
 10
375.97760345369261
 20
863.87665547383097
 30
0.0
 40
1.0
 50
0.0
 51
42.252324000004279
  0
ARC
  5
A24E
  8
0
 62
     0
 10
378.97760345369261
 20
844.38972447383105
 30
0.0
 40
2.0
 50
180.0
 51
270.0
  0
LINE
  5
A24F
  8
0
 62
     0
 10
341.47760345369261
 20
961.53231947383097
 30
0.0
 11
341.47760345369261
 21
955.70475647383114
 31
0.0
  0
LINE
  5
A250
  8
0
 62
     0
 10
357.47760345369261
 20
961.53231947383097
 30
0.0
 11
357.47760345369261
 21
955.70475647383114
 31
0.0
  0
LINE
  5
A251
  8
0
 62
     0
 10
341.47760345369261
 20
952.57384347383106
 30
0.0
 11
341.47760345369261
 21
944.64967047383095
 31
0.0
  0
LINE
  5
A252
  8
0
 62
     0
 10
341.47760345369261
 20
941.60396447383096
 30
0.0
 11
341.47760345369261
 21
933.61379647383114
 31
0.0
  0
LINE
  5
A253
  8
0
 62
     0
 10
341.47760345369261
 20
930.62116947383117
 30
0.0
 11
341.47760345369261
 21
922.59046847383115
 31
0.0
  0
LINE
  5
A254
  8
0
 62
     0
 10
341.47760345369261
 20
919.62898947383121
 30
0.0
 11
341.47760345369261
 21
912.57720547383121
 31
0.0
  0
LINE
  5
A255
  8
0
 62
     0
 10
341.47760345369261
 20
909.75936147383106
 30
0.0
 11
341.47760345369261
 21
899.56920947383105
 31
0.0
  0
LINE
  5
A256
  8
0
 62
     0
 10
357.47760345369261
 20
909.75936147383106
 30
0.0
 11
357.47760345369261
 21
899.56920947383105
 31
0.0
  0
LINE
  5
A257
  8
0
 62
     0
 10
357.47760345369261
 20
919.62898947383121
 30
0.0
 11
357.47760345369261
 21
912.57720547383121
 31
0.0
  0
LINE
  5
A258
  8
0
 62
     0
 10
357.47760345369261
 20
930.62116947383117
 30
0.0
 11
357.47760345369261
 21
922.59046847383115
 31
0.0
  0
LINE
  5
A259
  8
0
 62
     0
 10
357.47760345369261
 20
941.60396447383096
 30
0.0
 11
357.47760345369261
 21
933.61379647383114
 31
0.0
  0
LINE
  5
A25A
  8
0
 62
     0
 10
357.47760345369261
 20
952.57384347383106
 30
0.0
 11
357.47760345369261
 21
944.64967047383095
 31
0.0
  0
LINE
  5
A25B
  8
0
 62
     0
 10
341.47760345369261
 20
896.62151747383086
 30
0.0
 11
341.47760345369261
 21
889.56973347383109
 31
0.0
  0
LINE
  5
A25C
  8
0
 62
     0
 10
357.47760345369261
 20
896.62151747383086
 30
0.0
 11
357.47760345369261
 21
889.56973347383109
 31
0.0
  0
LINE
  5
A25D
  8
0
 62
     0
 10
357.47760345369261
 20
886.60825447383104
 30
0.0
 11
357.47760345369261
 21
878.5775534738309
 31
0.0
  0
LINE
  5
A25E
  8
0
 62
     0
 10
341.47760345369261
 20
886.60825447383104
 30
0.0
 11
341.47760345369261
 21
878.5775534738309
 31
0.0
  0
LINE
  5
A25F
  8
0
 62
     0
 10
341.47760345369261
 20
875.58492647383116
 30
0.0
 11
341.47760345369261
 21
867.59475847383112
 31
0.0
  0
LINE
  5
A260
  8
0
 62
     0
 10
357.47760345369261
 20
875.58492647383116
 30
0.0
 11
357.47760345369261
 21
867.59475847383112
 31
0.0
  0
LINE
  5
A261
  8
0
 62
     0
 10
372.02699845369261
 20
848.57856547383108
 30
0.0
 11
357.47760245369273
 21
848.57856547383108
 31
0.0
  0
LINE
  5
A262
  8
0
 62
     0
 10
376.97760345369261
 20
859.99091547383114
 30
0.0
 11
357.47760245369273
 21
859.99091547383114
 31
0.0
  0
LINE
  5
A263
  8
0
 62
     0
 10
341.47760345369261
 20
864.54905247383124
 30
0.0
 11
341.47760345369261
 21
844.54905247383101
 31
0.0
  0
LINE
  5
A264
  8
0
 62
     0
 10
393.47760345369261
 20
988.4630104738311
 30
0.0
 11
393.47760345369261
 21
992.5993614738311
 31
0.0
  0
LINE
  5
A265
  8
0
 62
     0
 10
391.47760345369261
 20
818.39761747383102
 30
0.0
 11
390.5703034536927
 21
813.25206547383107
 31
0.0
  0
ARC
  5
A266
  8
0
 62
     0
 10
388.60068845369278
 20
813.59936147383087
 30
0.0
 40
2.0
 50
270.0
 51
350.00000000000142
  0
LINE
  5
A267
  8
0
 62
     0
 10
357.47760345369261
 20
864.54905247383124
 30
0.0
 11
357.47760345369261
 21
859.99091547383114
 31
0.0
  0
LINE
  5
A268
  8
0
 62
     0
 10
393.47760345369261
 20
864.87665547383097
 30
0.0
 11
393.47760345369261
 21
966.66532347383099
 31
0.0
  0
LINE
  5
A269
  8
0
 62
     0
 10
192.4776034536925
 20
844.73936147383108
 30
0.0
 11
195.56084545369271
 21
827.25342847383115
 31
0.0
  0
ARC
  5
A26A
  8
0
 62
     0
 10
197.53046045369271
 20
827.60072547383118
 30
0.0
 40
2.0
 50
189.99999999999849
 51
270.0
  0
LINE
  5
A26B
  8
0
 62
     0
 10
342.18300045369227
 20
853.29365547383111
 30
0.0
 11
357.47760345369261
 21
848.57856547383108
 31
0.0
  0
LINE
  5
A26C
  8
0
 62
     0
 10
357.47760345369261
 20
859.99091547383114
 30
0.0
 11
342.44166245369252
 21
859.45016447383102
 31
0.0
  0
LINE
  5
A26D
  8
0
 62
     0
 10
357.47760345369261
 20
848.57856547383108
 30
0.0
 11
357.47760345369261
 21
840.20712747383106
 31
0.0
  0
ARC
  5
A26E
  8
0
 62
     0
 10
342.47760345369261
 20
858.4508104738311
 30
0.0
 40
1.0
 50
92.059690999990565
 51
180.0
  0
ARC
  5
A26F
  8
0
 62
     0
 10
342.47760345369261
 20
854.24927547383095
 30
0.0
 40
1.0
 50
180.0
 51
252.8662750000021
  0
LINE
  5
A270
  8
0
 62
     0
 10
357.47760345369261
 20
980.45214847383113
 30
0.0
 11
342.17714445369262
 21
975.63228247383097
 31
0.0
  0
LINE
  5
A271
  8
0
 62
     0
 10
342.5261584536924
 20
971.3286014738311
 30
0.0
 11
357.47760345369261
 21
972.05542147383096
 31
0.0
  0
ARC
  5
A272
  8
0
 62
     0
 10
342.47760345369261
 20
974.67848747383096
 30
0.0
 40
1.0
 50
107.4851790000144
 51
180.0
  0
ARC
  5
A273
  8
0
 62
     0
 10
342.47760345369261
 20
972.32742247383112
 30
0.0
 40
1.0
 50
180.0
 51
270.0
  0
LINE
  5
A275
  8
0
 62
     0
 10
391.47760345369261
 20
964.77662947383101
 30
0.0
 11
192.4776034536925
 21
964.77662947383101
 31
0.0
  0
LINE
  5
A276
  8
0
 62
     0
 10
391.47760345369261
 20
961.53231947383097
 30
0.0
 11
192.4776034536925
 21
961.53231947383097
 31
0.0
  0
LINE
  5
A277
  8
0
 62
     0
 10
391.47760345369261
 20
955.70475647383114
 30
0.0
 11
192.4776034536925
 21
955.70475647383114
 31
0.0
  0
LINE
  5
A278
  8
0
 62
     0
 10
391.47760345369261
 20
952.57384347383106
 30
0.0
 11
192.4776034536925
 21
952.57384347383106
 31
0.0
  0
LINE
  5
A279
  8
0
 62
     0
 10
391.47760345369261
 20
944.64967047383095
 30
0.0
 11
192.4776034536925
 21
944.64967047383095
 31
0.0
  0
LINE
  5
A27A
  8
0
 62
     0
 10
391.47760345369261
 20
941.60396447383096
 30
0.0
 11
192.4776034536925
 21
941.60396447383096
 31
0.0
  0
LINE
  5
A27B
  8
0
 62
     0
 10
391.47760345369261
 20
933.61379647383114
 30
0.0
 11
192.4776034536925
 21
933.61379647383114
 31
0.0
  0
LINE
  5
A27C
  8
0
 62
     0
 10
391.47760345369261
 20
930.62116947383117
 30
0.0
 11
192.4776034536925
 21
930.62116947383117
 31
0.0
  0
LINE
  5
A27D
  8
0
 62
     0
 10
391.47760345369261
 20
922.59046847383115
 30
0.0
 11
192.4776034536925
 21
922.59046847383115
 31
0.0
  0
LINE
  5
A27E
  8
0
 62
     0
 10
391.47760345369261
 20
919.62898947383121
 30
0.0
 11
192.4776034536925
 21
919.62898947383121
 31
0.0
  0
LINE
  5
A27F
  8
0
 62
     0
 10
391.47760345369261
 20
912.57720547383121
 30
0.0
 11
297.05084645369237
 21
912.57720547383121
 31
0.0
  0
LINE
  5
A280
  8
0
 62
     0
 10
391.47760345369261
 20
909.62951347383103
 30
0.0
 11
303.86325045369279
 21
909.62951347383103
 31
0.0
  0
LINE
  5
A281
  8
0
 62
     0
 10
389.3986824536928
 20
964.0993614738311
 30
0.0
 11
389.3986824536928
 21
962.09936147383098
 31
0.0
  0
LINE
  5
A282
  8
0
 62
     0
 10
194.55652445369279
 20
962.09936147383098
 30
0.0
 11
389.3986824536928
 21
962.09936147383098
 31
0.0
  0
LINE
  5
A283
  8
0
 62
     0
 10
194.55652445369279
 20
964.0993614738311
 30
0.0
 11
389.3986824536928
 21
964.0993614738311
 31
0.0
  0
LINE
  5
A284
  8
0
 62
     0
 10
194.55652445369279
 20
953.09936147383098
 30
0.0
 11
389.3986824536928
 21
953.09936147383098
 31
0.0
  0
LINE
  5
A285
  8
0
 62
     0
 10
194.55652445369279
 20
955.0993614738311
 30
0.0
 11
389.3986824536928
 21
955.0993614738311
 31
0.0
  0
LINE
  5
A286
  8
0
 62
     0
 10
194.55652445369279
 20
942.09936147383121
 30
0.0
 11
389.3986824536928
 21
942.09936147383121
 31
0.0
  0
LINE
  5
A287
  8
0
 62
     0
 10
194.55652445369279
 20
944.09936147383098
 30
0.0
 11
389.3986824536928
 21
944.09936147383098
 31
0.0
  0
LINE
  5
A288
  8
0
 62
     0
 10
194.55652445369279
 20
931.0993614738311
 30
0.0
 11
389.3986824536928
 21
931.0993614738311
 31
0.0
  0
LINE
  5
A289
  8
0
 62
     0
 10
194.55652445369279
 20
933.09936147383132
 30
0.0
 11
389.3986824536928
 21
933.09936147383132
 31
0.0
  0
LINE
  5
A28A
  8
0
 62
     0
 10
194.55652445369279
 20
920.09936147383098
 30
0.0
 11
389.3986824536928
 21
920.09936147383098
 31
0.0
  0
LINE
  5
A28B
  8
0
 62
     0
 10
194.55652445369279
 20
922.0993614738311
 30
0.0
 11
389.3986824536928
 21
922.0993614738311
 31
0.0
  0
LINE
  5
A28C
  8
0
 62
     0
 10
303.25258045369259
 20
910.09936147383098
 30
0.0
 11
389.3986824536928
 21
910.09936147383098
 31
0.0
  0
LINE
  5
A28D
  8
0
 62
     0
 10
297.52434145369261
 20
912.09936147383098
 30
0.0
 11
389.3986824536928
 21
912.09936147383098
 31
0.0
  0
LINE
  5
A28E
  8
0
 62
     0
 10
389.3986824536928
 20
964.0993614738311
 30
0.0
 11
391.47760345369261
 21
964.77662947383101
 31
0.0
  0
LINE
  5
A28F
  8
0
 62
     0
 10
389.3986824536928
 20
962.09936147383098
 30
0.0
 11
391.47760345369261
 21
961.53231947383097
 31
0.0
  0
LINE
  5
A290
  8
0
 62
     0
 10
391.89871245369272
 20
955.0993614738311
 30
0.0
 11
393.97763345369248
 21
955.70475647383114
 31
0.0
  0
LINE
  5
A291
  8
0
 62
     0
 10
391.89871245369272
 20
953.09936147383098
 30
0.0
 11
393.97763345369248
 21
952.57384347383106
 31
0.0
  0
LINE
  5
A292
  8
0
 62
     0
 10
389.3986824536928
 20
944.09936147383098
 30
0.0
 11
391.47760345369261
 21
944.64967047383095
 31
0.0
  0
LINE
  5
A293
  8
0
 62
     0
 10
389.3986824536928
 20
942.09936147383121
 30
0.0
 11
391.47760345369261
 21
941.60396447383096
 31
0.0
  0
LINE
  5
A294
  8
0
 62
     0
 10
389.3986824536928
 20
933.09936147383132
 30
0.0
 11
391.47760345369261
 21
933.61379647383114
 31
0.0
  0
LINE
  5
A295
  8
0
 62
     0
 10
389.3986824536928
 20
931.0993614738311
 30
0.0
 11
391.47760345369261
 21
930.62116947383117
 31
0.0
  0
LINE
  5
A296
  8
0
 62
     0
 10
389.3986824536928
 20
922.0993614738311
 30
0.0
 11
391.47760345369261
 21
922.59046847383115
 31
0.0
  0
LINE
  5
A297
  8
0
 62
     0
 10
389.3986824536928
 20
920.09936147383098
 30
0.0
 11
391.47760345369261
 21
919.62898947383121
 31
0.0
  0
LINE
  5
A298
  8
0
 62
     0
 10
389.3986824536928
 20
912.09936147383098
 30
0.0
 11
391.47760345369261
 21
912.57720547383121
 31
0.0
  0
LINE
  5
A299
  8
0
 62
     0
 10
389.3986824536928
 20
910.09936147383098
 30
0.0
 11
391.47760345369261
 21
909.62951347383103
 31
0.0
  0
LINE
  5
A29A
  8
0
 62
     0
 10
391.89871245369272
 20
955.0993614738311
 30
0.0
 11
391.89871245369272
 21
953.09936147383098
 31
0.0
  0
LINE
  5
A29B
  8
0
 62
     0
 10
389.3986824536928
 20
944.09936147383098
 30
0.0
 11
389.3986824536928
 21
942.09936147383121
 31
0.0
  0
LINE
  5
A29C
  8
0
 62
     0
 10
389.3986824536928
 20
933.09936147383132
 30
0.0
 11
389.3986824536928
 21
931.0993614738311
 31
0.0
  0
LINE
  5
A29D
  8
0
 62
     0
 10
389.3986824536928
 20
922.0993614738311
 30
0.0
 11
389.3986824536928
 21
920.09936147383098
 31
0.0
  0
LINE
  5
A29E
  8
0
 62
     0
 10
389.3986824536928
 20
912.09936147383098
 30
0.0
 11
389.3986824536928
 21
910.09936147383098
 31
0.0
  0
ARC
  5
A29F
  8
0
 62
     0
 10
303.25258045369259
 20
907.0993614738311
 30
0.0
 40
3.0
 50
90.0
 51
190.2865610000006
  0
ARC
  5
A2A0
  8
0
 62
     0
 10
303.86325045369279
 20
906.15951347383077
 30
0.0
 40
3.4700000000000002
 50
90.0
 51
186.1896490000004
  0
LINE
  5
A2A1
  8
0
 62
     0
 10
209.5565244536929
 20
912.09936147383098
 30
0.0
 11
209.5565244536929
 21
910.09936147383098
 31
0.0
  0
LINE
  5
A2A2
  8
0
 62
     0
 10
194.55652445369279
 20
922.0993614738311
 30
0.0
 11
194.55652445369279
 21
920.09936147383098
 31
0.0
  0
LINE
  5
A2A3
  8
0
 62
     0
 10
194.55652445369279
 20
933.09936147383132
 30
0.0
 11
194.55652445369279
 21
931.0993614738311
 31
0.0
  0
LINE
  5
A2A4
  8
0
 62
     0
 10
194.55652445369279
 20
944.09936147383098
 30
0.0
 11
194.55652445369279
 21
942.09936147383121
 31
0.0
  0
LINE
  5
A2A5
  8
0
 62
     0
 10
194.55652445369279
 20
955.0993614738311
 30
0.0
 11
194.55652445369279
 21
953.09936147383098
 31
0.0
  0
LINE
  5
A2A6
  8
0
 62
     0
 10
209.5565244536929
 20
910.09936147383098
 30
0.0
 11
207.47760345369261
 21
909.62951347383103
 31
0.0
  0
LINE
  5
A2A7
  8
0
 62
     0
 10
209.5565244536929
 20
912.09936147383098
 30
0.0
 11
207.47760345369261
 21
912.57720547383121
 31
0.0
  0
LINE
  5
A2A8
  8
0
 62
     0
 10
194.55652445369279
 20
920.09936147383098
 30
0.0
 11
192.4776034536925
 21
919.62898947383121
 31
0.0
  0
LINE
  5
A2A9
  8
0
 62
     0
 10
194.55652445369279
 20
922.0993614738311
 30
0.0
 11
192.4776034536925
 21
922.59046847383115
 31
0.0
  0
LINE
  5
A2AA
  8
0
 62
     0
 10
194.55652445369279
 20
931.0993614738311
 30
0.0
 11
192.4776034536925
 21
930.62116947383117
 31
0.0
  0
LINE
  5
A2AB
  8
0
 62
     0
 10
194.55652445369279
 20
933.09936147383132
 30
0.0
 11
192.4776034536925
 21
933.61379647383114
 31
0.0
  0
LINE
  5
A2AC
  8
0
 62
     0
 10
194.55652445369279
 20
942.09936147383121
 30
0.0
 11
192.4776034536925
 21
941.60396447383096
 31
0.0
  0
LINE
  5
A2AD
  8
0
 62
     0
 10
194.55652445369279
 20
944.09936147383098
 30
0.0
 11
192.4776034536925
 21
944.64967047383095
 31
0.0
  0
LINE
  5
A2AE
  8
0
 62
     0
 10
194.55652445369279
 20
953.09936147383098
 30
0.0
 11
192.4776034536925
 21
952.57384347383106
 31
0.0
  0
LINE
  5
A2AF
  8
0
 62
     0
 10
194.55652445369279
 20
955.0993614738311
 30
0.0
 11
192.4776034536925
 21
955.70475647383114
 31
0.0
  0
LINE
  5
A2B0
  8
0
 62
     0
 10
194.55652445369279
 20
962.09936147383098
 30
0.0
 11
192.4776034536925
 21
961.53231947383097
 31
0.0
  0
LINE
  5
A2B1
  8
0
 62
     0
 10
194.55652445369279
 20
964.0993614738311
 30
0.0
 11
192.4776034536925
 21
964.77662947383101
 31
0.0
  0
LINE
  5
A2B2
  8
0
 62
     0
 10
194.55652445369279
 20
964.0993614738311
 30
0.0
 11
194.55652445369279
 21
962.09936147383098
 31
0.0
  0
LINE
  5
A2B3
  8
0
 62
     0
 10
192.4776034536925
 20
961.53231947383097
 30
0.0
 11
192.4776034536925
 21
964.77662947383101
 31
0.0
  0
LINE
  5
A2B4
  8
0
 62
     0
 10
192.4776034536925
 20
952.57384347383106
 30
0.0
 11
192.4776034536925
 21
955.70475647383114
 31
0.0
  0
LINE
  5
A2B5
  8
0
 62
     0
 10
192.4776034536925
 20
941.60396447383096
 30
0.0
 11
192.4776034536925
 21
944.64967047383095
 31
0.0
  0
LINE
  5
A2B6
  8
0
 62
     0
 10
192.4776034536925
 20
930.62116947383117
 30
0.0
 11
192.4776034536925
 21
933.61379647383114
 31
0.0
  0
LINE
  5
A2B7
  8
0
 62
     0
 10
192.4776034536925
 20
919.62898947383121
 30
0.0
 11
192.4776034536925
 21
922.59046847383115
 31
0.0
  0
LINE
  5
A2B8
  8
0
 62
     0
 10
207.47760345369261
 20
909.62951347383103
 30
0.0
 11
207.47760345369261
 21
912.57720547383121
 31
0.0
  0
LINE
  5
A2B9
  8
0
 62
     0
 10
207.47760345369261
 20
912.57720547383121
 30
0.0
 11
281.9043604536929
 21
912.57720547383121
 31
0.0
  0
LINE
  5
A2BA
  8
0
 62
     0
 10
207.47760345369261
 20
909.62951347383103
 30
0.0
 11
275.09195645369249
 21
909.62951347383103
 31
0.0
  0
LINE
  5
A2BB
  8
0
 62
     0
 10
275.70262645369257
 20
910.09936147383098
 30
0.0
 11
209.5565244536929
 21
910.09936147383098
 31
0.0
  0
LINE
  5
A2BC
  8
0
 62
     0
 10
281.4308654536926
 20
912.09936147383098
 30
0.0
 11
209.5565244536929
 21
912.09936147383098
 31
0.0
  0
ARC
  5
A2BD
  8
0
 62
     0
 10
275.70262645369257
 20
907.0993614738311
 30
0.0
 40
3.0
 50
349.71343899999943
 51
90.0
  0
ARC
  5
A2BE
  8
0
 62
     0
 10
275.09195645369249
 20
906.15951347383077
 30
0.0
 40
3.4700000000000002
 50
353.81035099999951
 51
90.0
  0
LINE
  5
A2BF
  8
0
 62
     0
 10
391.47760345369261
 20
864.54905247383124
 30
0.0
 11
192.4776034536925
 21
864.54905247383124
 31
0.0
  0
LINE
  5
A2C0
  8
0
 62
     0
 10
391.47760345369261
 20
867.59475847383112
 30
0.0
 11
192.4776034536925
 21
867.59475847383112
 31
0.0
  0
LINE
  5
A2C1
  8
0
 62
     0
 10
391.47760345369261
 20
875.58492647383116
 30
0.0
 11
192.4776034536925
 21
875.58492647383116
 31
0.0
  0
LINE
  5
A2C2
  8
0
 62
     0
 10
391.47760345369261
 20
878.5775534738309
 30
0.0
 11
192.4776034536925
 21
878.5775534738309
 31
0.0
  0
LINE
  5
A2C3
  8
0
 62
     0
 10
391.47760345369261
 20
886.60825447383104
 30
0.0
 11
192.4776034536925
 21
886.60825447383104
 31
0.0
  0
LINE
  5
A2C4
  8
0
 62
     0
 10
391.47760345369261
 20
889.56973347383109
 30
0.0
 11
192.4776034536925
 21
889.56973347383109
 31
0.0
  0
LINE
  5
A2C5
  8
0
 62
     0
 10
194.55652445369279
 20
867.09936147383121
 30
0.0
 11
389.3986824536928
 21
867.09936147383121
 31
0.0
  0
LINE
  5
A2C6
  8
0
 62
     0
 10
194.55652445369279
 20
865.0993614738311
 30
0.0
 11
389.3986824536928
 21
865.0993614738311
 31
0.0
  0
LINE
  5
A2C7
  8
0
 62
     0
 10
194.55652445369279
 20
878.09936147383098
 30
0.0
 11
389.3986824536928
 21
878.09936147383098
 31
0.0
  0
LINE
  5
A2C8
  8
0
 62
     0
 10
194.55652445369279
 20
876.09936147383087
 30
0.0
 11
389.3986824536928
 21
876.09936147383087
 31
0.0
  0
LINE
  5
A2C9
  8
0
 62
     0
 10
194.55652445369279
 20
889.0993614738311
 30
0.0
 11
389.3986824536928
 21
889.0993614738311
 31
0.0
  0
LINE
  5
A2CA
  8
0
 62
     0
 10
194.55652445369279
 20
887.09936147383098
 30
0.0
 11
389.3986824536928
 21
887.09936147383098
 31
0.0
  0
LINE
  5
A2CB
  8
0
 62
     0
 10
207.47760345369261
 20
896.62151747383086
 30
0.0
 11
281.9043604536929
 21
896.62151747383086
 31
0.0
  0
LINE
  5
A2CC
  8
0
 62
     0
 10
207.47760345369261
 20
899.56920947383105
 30
0.0
 11
275.09195645369249
 21
899.56920947383105
 31
0.0
  0
LINE
  5
A2CD
  8
0
 62
     0
 10
275.70262645369257
 20
899.09936147383132
 30
0.0
 11
209.5565244536929
 21
899.09936147383132
 31
0.0
  0
LINE
  5
A2CE
  8
0
 62
     0
 10
281.4308654536926
 20
897.0993614738311
 30
0.0
 11
209.5565244536929
 21
897.0993614738311
 31
0.0
  0
LINE
  5
A2CF
  8
0
 62
     0
 10
207.47760345369261
 20
899.56920947383105
 30
0.0
 11
207.47760345369261
 21
896.62151747383086
 31
0.0
  0
LINE
  5
A2D0
  8
0
 62
     0
 10
192.4776034536925
 20
889.56973347383109
 30
0.0
 11
192.4776034536925
 21
886.60825447383104
 31
0.0
  0
LINE
  5
A2D1
  8
0
 62
     0
 10
192.4776034536925
 20
878.5775534738309
 30
0.0
 11
192.4776034536925
 21
875.58492647383116
 31
0.0
  0
LINE
  5
A2D2
  8
0
 62
     0
 10
192.4776034536925
 20
867.59475847383112
 30
0.0
 11
192.4776034536925
 21
864.54905247383124
 31
0.0
  0
LINE
  5
A2D3
  8
0
 62
     0
 10
194.55652445369279
 20
865.0993614738311
 30
0.0
 11
192.4776034536925
 21
864.54905247383124
 31
0.0
  0
LINE
  5
A2D4
  8
0
 62
     0
 10
194.55652445369279
 20
867.09936147383121
 30
0.0
 11
192.4776034536925
 21
867.59475847383112
 31
0.0
  0
LINE
  5
A2D5
  8
0
 62
     0
 10
194.55652445369279
 20
876.09936147383087
 30
0.0
 11
192.4776034536925
 21
875.58492647383116
 31
0.0
  0
LINE
  5
A2D6
  8
0
 62
     0
 10
194.55652445369279
 20
878.09936147383098
 30
0.0
 11
192.4776034536925
 21
878.5775534738309
 31
0.0
  0
LINE
  5
A2D7
  8
0
 62
     0
 10
194.55652445369279
 20
887.09936147383098
 30
0.0
 11
192.4776034536925
 21
886.60825447383104
 31
0.0
  0
LINE
  5
A2D8
  8
0
 62
     0
 10
194.55652445369279
 20
889.0993614738311
 30
0.0
 11
192.4776034536925
 21
889.56973347383109
 31
0.0
  0
LINE
  5
A2D9
  8
0
 62
     0
 10
209.5565244536929
 20
897.0993614738311
 30
0.0
 11
207.47760345369261
 21
896.62151747383086
 31
0.0
  0
LINE
  5
A2DA
  8
0
 62
     0
 10
209.5565244536929
 20
899.09936147383132
 30
0.0
 11
207.47760345369261
 21
899.56920947383105
 31
0.0
  0
LINE
  5
A2DB
  8
0
 62
     0
 10
194.55652445369279
 20
865.0993614738311
 30
0.0
 11
194.55652445369279
 21
867.09936147383121
 31
0.0
  0
LINE
  5
A2DC
  8
0
 62
     0
 10
194.55652445369279
 20
876.09936147383087
 30
0.0
 11
194.55652445369279
 21
878.09936147383098
 31
0.0
  0
LINE
  5
A2DD
  8
0
 62
     0
 10
194.55652445369279
 20
887.09936147383098
 30
0.0
 11
194.55652445369279
 21
889.0993614738311
 31
0.0
  0
LINE
  5
A2DE
  8
0
 62
     0
 10
209.5565244536929
 20
897.0993614738311
 30
0.0
 11
209.5565244536929
 21
899.09936147383132
 31
0.0
  0
ARC
  5
A2DF
  8
0
 62
     0
 10
275.70262645369257
 20
902.09936147383098
 30
0.0
 40
3.0
 50
270.0
 51
10.286561000000651
  0
ARC
  5
A2E0
  8
0
 62
     0
 10
275.09195645369249
 20
903.03920947383119
 30
0.0
 40
3.4700000000000002
 50
270.0
 51
6.1896490000005366
  0
LINE
  5
A2E1
  8
0
 62
     0
 10
391.47760345369261
 20
896.62151747383086
 30
0.0
 11
297.05084645369237
 21
896.62151747383086
 31
0.0
  0
LINE
  5
A2E2
  8
0
 62
     0
 10
391.47760345369261
 20
899.56920947383105
 30
0.0
 11
303.86325045369279
 21
899.56920947383105
 31
0.0
  0
LINE
  5
A2E3
  8
0
 62
     0
 10
303.25258045369259
 20
899.09936147383132
 30
0.0
 11
389.3986824536928
 21
899.09936147383132
 31
0.0
  0
LINE
  5
A2E4
  8
0
 62
     0
 10
297.52434145369261
 20
897.0993614738311
 30
0.0
 11
389.3986824536928
 21
897.0993614738311
 31
0.0
  0
ARC
  5
A2E5
  8
0
 62
     0
 10
303.25258045369259
 20
902.09936147383098
 30
0.0
 40
3.0
 50
169.71343899999931
 51
270.0
  0
ARC
  5
A2E6
  8
0
 62
     0
 10
303.86325045369279
 20
903.03920947383119
 30
0.0
 40
3.4700000000000002
 50
173.8103509999994
 51
270.0
  0
LINE
  5
A2E7
  8
0
 62
     0
 10
389.3986824536928
 20
897.0993614738311
 30
0.0
 11
389.3986824536928
 21
899.09936147383132
 31
0.0
  0
LINE
  5
A2E8
  8
0
 62
     0
 10
389.3986824536928
 20
887.09936147383098
 30
0.0
 11
389.3986824536928
 21
889.0993614738311
 31
0.0
  0
LINE
  5
A2E9
  8
0
 62
     0
 10
389.3986824536928
 20
876.09936147383087
 30
0.0
 11
389.3986824536928
 21
878.09936147383098
 31
0.0
  0
LINE
  5
A2EA
  8
0
 62
     0
 10
389.3986824536928
 20
865.0993614738311
 30
0.0
 11
389.3986824536928
 21
867.09936147383121
 31
0.0
  0
LINE
  5
A2EB
  8
0
 62
     0
 10
389.3986824536928
 20
899.09936147383132
 30
0.0
 11
391.47760345369261
 21
899.56920947383105
 31
0.0
  0
LINE
  5
A2EC
  8
0
 62
     0
 10
389.3986824536928
 20
897.0993614738311
 30
0.0
 11
391.47760345369261
 21
896.62151747383086
 31
0.0
  0
LINE
  5
A2ED
  8
0
 62
     0
 10
389.3986824536928
 20
889.0993614738311
 30
0.0
 11
391.47760345369261
 21
889.56973347383109
 31
0.0
  0
LINE
  5
A2EE
  8
0
 62
     0
 10
389.3986824536928
 20
887.09936147383098
 30
0.0
 11
391.47760345369261
 21
886.60825447383104
 31
0.0
  0
LINE
  5
A2EF
  8
0
 62
     0
 10
389.3986824536928
 20
878.09936147383098
 30
0.0
 11
391.47760345369261
 21
878.5775534738309
 31
0.0
  0
LINE
  5
A2F0
  8
0
 62
     0
 10
389.3986824536928
 20
876.09936147383087
 30
0.0
 11
391.47760345369261
 21
875.58492647383116
 31
0.0
  0
LINE
  5
A2F1
  8
0
 62
     0
 10
389.3986824536928
 20
867.09936147383121
 30
0.0
 11
391.47760345369261
 21
867.59475847383112
 31
0.0
  0
LINE
  5
A2F2
  8
0
 62
     0
 10
389.3986824536928
 20
865.0993614738311
 30
0.0
 11
391.47760345369261
 21
864.54905247383124
 31
0.0
  0
LINE
  5
A2F3
  8
0
 62
     0
 10
391.47760345369261
 20
867.59475847383112
 30
0.0
 11
391.47760345369261
 21
864.54905247383124
 31
0.0
  0
LINE
  5
A2F4
  8
0
 62
     0
 10
391.47760345369261
 20
878.5775534738309
 30
0.0
 11
391.47760345369261
 21
875.58492647383116
 31
0.0
  0
LINE
  5
A2F5
  8
0
 62
     0
 10
391.47760345369261
 20
889.56973347383109
 30
0.0
 11
391.47760345369261
 21
886.60825447383104
 31
0.0
  0
LINE
  5
A2F6
  8
0
 62
     0
 10
391.47760345369261
 20
899.56920947383105
 30
0.0
 11
391.47760345369261
 21
896.62151747383086
 31
0.0
  0
LINE
  5
A2F7
  8
0
 62
     0
 10
324.3986824536924
 20
856.0993614738311
 30
0.0
 11
326.47760345369261
 21
856.59475847383101
 31
0.0
  0
LINE
  5
A2F8
  8
0
 62
     0
 10
326.47760345369261
 20
856.59475847383101
 30
0.0
 11
192.4776034536925
 21
856.59475847383101
 31
0.0
  0
LINE
  5
A2F9
  8
0
 62
     0
 10
194.55652445369279
 20
856.0993614738311
 30
0.0
 11
324.3986824536924
 21
856.0993614738311
 31
0.0
  0
LINE
  5
A2FA
  8
0
 62
     0
 10
324.3986824536924
 20
854.09936147383098
 30
0.0
 11
324.3986824536924
 21
856.0993614738311
 31
0.0
  0
LINE
  5
A2FB
  8
0
 62
     0
 10
326.47760345369261
 20
853.54905247383101
 30
0.0
 11
192.4776034536925
 21
853.54905247383101
 31
0.0
  0
LINE
  5
A2FC
  8
0
 62
     0
 10
194.55652445369279
 20
854.09936147383098
 30
0.0
 11
324.3986824536924
 21
854.09936147383098
 31
0.0
  0
LINE
  5
A2FD
  8
0
 62
     0
 10
324.3986824536924
 20
854.09936147383098
 30
0.0
 11
326.47760345369261
 21
853.54905247383101
 31
0.0
  0
LINE
  5
A2FE
  8
0
 62
     0
 10
326.47760345369261
 20
847.59475847383101
 30
0.0
 11
192.4776034536925
 21
847.59475847383101
 31
0.0
  0
LINE
  5
A2FF
  8
0
 62
     0
 10
194.55652445369279
 20
847.0993614738311
 30
0.0
 11
324.3986824536924
 21
847.0993614738311
 31
0.0
  0
LINE
  5
A300
  8
0
 62
     0
 10
326.47760345369261
 20
844.54905247383101
 30
0.0
 11
192.5111604536923
 21
844.54905247383101
 31
0.0
  0
LINE
  5
A301
  8
0
 62
     0
 10
194.55652445369279
 20
845.09936147383098
 30
0.0
 11
324.3986824536924
 21
845.09936147383098
 31
0.0
  0
LINE
  5
A302
  8
0
 62
     0
 10
324.3986824536924
 20
845.09936147383098
 30
0.0
 11
326.47760345369261
 21
844.54905247383101
 31
0.0
  0
LINE
  5
A303
  8
0
 62
     0
 10
326.47760345369261
 20
847.59475847383101
 30
0.0
 11
326.47760345369261
 21
844.54905247383101
 31
0.0
  0
LINE
  5
A304
  8
0
 62
     0
 10
324.3986824536924
 20
845.09936147383098
 30
0.0
 11
324.3986824536924
 21
847.0993614738311
 31
0.0
  0
LINE
  5
A305
  8
0
 62
     0
 10
324.3986824536924
 20
847.0993614738311
 30
0.0
 11
326.47760345369261
 21
847.59475847383101
 31
0.0
  0
LINE
  5
A306
  8
0
 62
     0
 10
326.47760345369261
 20
844.54905247383101
 30
0.0
 11
341.47760345369261
 21
844.54905247383101
 31
0.0
  0
LINE
  5
A307
  8
0
 62
     0
 10
341.47760345369261
 20
844.54905247383101
 30
0.0
 11
357.47760345369261
 21
840.20712747383106
 31
0.0
  0
LINE
  5
A308
  8
0
 62
     0
 10
192.4776034536925
 20
856.59475847383101
 30
0.0
 11
192.4776034536925
 21
853.54905247383101
 31
0.0
  0
LINE
  5
A309
  8
0
 62
     0
 10
192.4776034536925
 20
847.59475847383101
 30
0.0
 11
192.4776034536925
 21
844.54905247383101
 31
0.0
  0
LINE
  5
A30A
  8
0
 62
     0
 10
194.55652445369279
 20
854.09936147383098
 30
0.0
 11
194.55652445369279
 21
856.0993614738311
 31
0.0
  0
LINE
  5
A30B
  8
0
 62
     0
 10
194.55652445369279
 20
856.0993614738311
 30
0.0
 11
192.4776034536925
 21
856.59475847383101
 31
0.0
  0
LINE
  5
A30C
  8
0
 62
     0
 10
194.55652445369279
 20
854.09936147383098
 30
0.0
 11
192.4776034536925
 21
853.54905247383101
 31
0.0
  0
LINE
  5
A30D
  8
0
 62
     0
 10
194.55652445369279
 20
847.0993614738311
 30
0.0
 11
192.4776034536925
 21
847.59475847383101
 31
0.0
  0
LINE
  5
A30E
  8
0
 62
     0
 10
194.55652445369279
 20
845.09936147383098
 30
0.0
 11
194.55652445369279
 21
847.0993614738311
 31
0.0
  0
LINE
  5
A30F
  8
0
 62
     0
 10
194.55652445369279
 20
845.09936147383098
 30
0.0
 11
192.4776034536925
 21
844.54905247383101
 31
0.0
  0
LINE
  5
A310
  8
0
 62
     0
 10
188.97760345369261
 20
912.24313247383134
 30
0.0
 11
195.47760345369261
 21
912.24313247383134
 31
0.0
  0
LINE
  5
A311
  8
0
 62
     0
 10
188.97760345369261
 20
912.57721047383109
 30
0.0
 11
196.15760345369239
 21
912.57721047383109
 31
0.0
  0
LINE
  5
A312
  8
0
 62
     0
 10
197.47760345369261
 20
910.24313247383111
 30
0.0
 11
197.47760345369261
 21
904.59936547383074
 31
0.0
  0
LINE
  5
A313
  8
0
 62
     0
 10
199.15760345369239
 20
915.5772104738312
 30
0.0
 11
199.15760345369239
 21
904.59936547383074
 31
0.0
  0
ARC
  5
A314
  8
0
 62
     0
 10
196.15760345369239
 20
915.5772104738312
 30
0.0
 40
3.0
 50
270.0
 51
0.0
  0
LINE
  5
A315
  8
0
 62
     0
 10
188.97760345369261
 20
896.95559747383106
 30
0.0
 11
195.47760345369261
 21
896.95559747383106
 31
0.0
  0
LINE
  5
A316
  8
0
 62
     0
 10
188.97760345369261
 20
896.62151947383086
 30
0.0
 11
196.15760345369239
 21
896.62151947383086
 31
0.0
  0
LINE
  5
A317
  8
0
 62
     0
 10
197.47760345369261
 20
898.95559747383095
 30
0.0
 11
197.47760345369261
 21
904.59936547383074
 31
0.0
  0
LINE
  5
A318
  8
0
 62
     0
 10
199.15760345369239
 20
893.62151947383109
 30
0.0
 11
199.15760345369239
 21
904.59936547383074
 31
0.0
  0
ARC
  5
A319
  8
0
 62
     0
 10
196.15760345369239
 20
893.62151947383109
 30
0.0
 40
3.0
 50
359.99999799999722
 51
89.999998000010223
  0
ARC
  5
A31B
  8
0
  6
CONTINUOUS
 62
     0
 10
374.17740245369271
 20
976.08262747383105
 30
0.0
 40
2.6003989999999999
 50
179.99998200000081
 51
269.99997799999852
  0
ARC
  5
A31C
  8
0
  6
CONTINUOUS
 62
     0
 10
374.17740245369271
 20
981.38261547383058
 30
0.0
 40
2.600403
 50
90.0
 51
179.99998200000081
  0
LINE
  5
A31D
  8
0
  6
CONTINUOUS
 62
     0
 10
376.97760345369261
 20
978.79864647383101
 30
0.0
 11
375.47760345369261
 21
977.93262147383109
 31
0.0
  0
LINE
  5
A31E
  8
0
  6
CONTINUOUS
 62
     0
 10
376.97760345369261
 20
979.79864647383056
 30
0.0
 11
375.47760345369261
 21
978.93262147383109
 31
0.0
  0
LINE
  5
A31F
  8
0
  6
CONTINUOUS
 62
     0
 10
376.97760345369261
 20
984.83262147383095
 30
0.0
 11
376.97760345369261
 21
972.63262147383102
 31
0.0
  0
LINE
  5
A320
  8
0
  6
CONTINUOUS
 62
     0
 10
375.47760345369261
 20
984.83262147383095
 30
0.0
 11
376.97760345369261
 21
984.83262147383095
 31
0.0
  0
LINE
  5
A321
  8
0
  6
CONTINUOUS
 62
     0
 10
375.47760345369261
 20
972.63262147383102
 30
0.0
 11
376.97760345369261
 21
972.63262147383102
 31
0.0
  0
LINE
  5
A322
  8
0
  6
CONTINUOUS
 62
     0
 10
371.57760945369262
 20
981.38261547383058
 30
0.0
 11
371.57760945369262
 21
976.08262747383105
 31
0.0
  0
LINE
  5
A323
  8
0
  6
CONTINUOUS
 62
     0
 10
375.47760345369261
 20
984.83262147383095
 30
0.0
 11
375.47760345369261
 21
972.63262147383102
 31
0.0
  0
LINE
  5
A324
  8
0
  6
CONTINUOUS
 62
     0
 10
375.47760345369261
 20
973.48262147383105
 30
0.0
 11
374.17740245369271
 21
973.48262147383105
 31
0.0
  0
LINE
  5
A325
  8
0
  6
CONTINUOUS
 62
     0
 10
375.47760345369261
 20
983.98262147383105
 30
0.0
 11
374.17740245369271
 21
983.98262147383105
 31
0.0
  0
ARC
  5
A326
  8
0
  6
CONTINUOUS
 62
     0
 10
374.17740245369271
 20
850.04070047383095
 30
0.0
 40
2.6003989999999999
 50
179.99998200000081
 51
269.99997799999852
  0
ARC
  5
A327
  8
0
  6
CONTINUOUS
 62
     0
 10
374.17740245369271
 20
855.34068847383105
 30
0.0
 40
2.600403
 50
90.0
 51
179.99998200000081
  0
LINE
  5
A328
  8
0
  6
CONTINUOUS
 62
     0
 10
376.97760345369261
 20
852.75671947383103
 30
0.0
 11
375.47760345369261
 21
851.8906944738311
 31
0.0
  0
LINE
  5
A329
  8
0
  6
CONTINUOUS
 62
     0
 10
376.97760345369261
 20
853.75671947383103
 30
0.0
 11
375.47760345369261
 21
852.8906944738311
 31
0.0
  0
LINE
  5
A32A
  8
0
  6
CONTINUOUS
 62
     0
 10
376.97760345369261
 20
858.79069447383085
 30
0.0
 11
376.97760345369261
 21
846.59069447383115
 31
0.0
  0
LINE
  5
A32B
  8
0
  6
CONTINUOUS
 62
     0
 10
375.47760345369261
 20
858.79069447383085
 30
0.0
 11
376.97760345369261
 21
858.79069447383085
 31
0.0
  0
LINE
  5
A32C
  8
0
  6
CONTINUOUS
 62
     0
 10
375.47760345369261
 20
846.59069447383115
 30
0.0
 11
376.97760345369261
 21
846.59069447383115
 31
0.0
  0
LINE
  5
A32D
  8
0
  6
CONTINUOUS
 62
     0
 10
371.57760945369262
 20
855.34068847383105
 30
0.0
 11
371.57760945369262
 21
850.04070047383095
 31
0.0
  0
LINE
  5
A32E
  8
0
  6
CONTINUOUS
 62
     0
 10
375.47760345369261
 20
858.79069447383085
 30
0.0
 11
375.47760345369261
 21
846.59069447383115
 31
0.0
  0
LINE
  5
A32F
  8
0
  6
CONTINUOUS
 62
     0
 10
375.47760345369261
 20
847.44069447383094
 30
0.0
 11
374.17740245369271
 21
847.44069447383094
 31
0.0
  0
LINE
  5
A330
  8
0
  6
CONTINUOUS
 62
     0
 10
375.47760345369261
 20
857.94069447383106
 30
0.0
 11
374.17740245369271
 21
857.94069447383106
 31
0.0
  0
LINE
  5
A48E
  8
0
  6
CONTINUOUS
 62
     0
 10
396.47760345369261
 20
980.33900547383109
 30
0.0
 11
435.97763345369242
 21
980.33900547383109
 31
0.0
  0
LINE
  5
A48F
  8
0
  6
CONTINUOUS
 62
     0
 10
396.47760345369261
 20
966.66532347383099
 30
0.0
 11
435.97763345369242
 21
966.66532347383099
 31
0.0
  0
LINE
  5
A490
  8
0
  6
CONTINUOUS
 62
     0
 10
396.47760345369261
 20
842.38972447383082
 30
0.0
 11
435.97763345369242
 21
842.38972447383082
 31
0.0
  0
LINE
  5
A491
  8
0
  6
CONTINUOUS
 62
     0
 10
396.47760345369261
 20
854.69736347383105
 30
0.0
 11
435.97763345369242
 21
854.69736347383105
 31
0.0
  0
LINE
  5
A492
  8
0
  6
CONTINUOUS
 62
     0
 10
396.47760345369261
 20
864.87665547383097
 30
0.0
 11
435.97763345369242
 21
864.87665547383097
 31
0.0
  0
LINE
  5
A575
  8
0
 62
     0
 10
435.97765345369203
 20
606.77473497825122
 30
0.0
 11
396.47760345369261
 21
606.77473497825122
 31
0.0
  0
LINE
  5
A576
  8
0
 62
     0
 10
435.97765345369203
 20
598.65072997825132
 30
0.0
 11
396.47760345369261
 21
598.65072997825132
 31
0.0
  0
LINE
  5
A577
  8
0
 62
     0
 10
435.97765345369203
 20
584.97701897825118
 30
0.0
 11
396.47760345369261
 21
584.97701897825118
 31
0.0
  0
LINE
  5
A578
  8
0
 62
     0
 10
435.97765345369203
 20
473.00908797825127
 30
0.0
 11
396.47760345369261
 21
473.00908797825127
 31
0.0
  0
LINE
  5
A579
  8
0
 62
     0
 10
435.97765345369203
 20
483.18837997825131
 30
0.0
 11
396.47760345369261
 21
483.18837997825131
 31
0.0
  0
LINE
  5
A57A
  8
0
 62
     0
 10
435.97765345369203
 20
460.72180697825132
 30
0.0
 11
396.47760345369261
 21
460.72180697825132
 31
0.0
  0
LINE
  5
A6C9
  8
0
  6
CONTINUOUS
 62
     7
 10
462.97763345369242
 20
764.86133147383123
 30
0.0
 11
462.97763345369242
 21
900.59930147383102
 31
0.0
  0
LINE
  5
A6CA
  8
0
  6
CONTINUOUS
 62
     7
 10
462.97763345369242
 20
908.59930147383045
 30
0.0
 11
462.97763345369242
 21
1044.3372814738309
 31
0.0
  0
LINE
  5
A6CB
  8
0
  6
CONTINUOUS
 62
     7
 10
462.97763345369242
 20
853.03479147383121
 30
0.0
 11
560.97763345369231
 21
853.03479147383121
 31
0.0
  0
LINE
  5
A6CC
  8
0
  6
CONTINUOUS
 62
     7
 10
550.84622345369235
 20
977.501461473831
 30
0.0
 11
560.97756345369214
 21
985.05951147383109
 31
0.0
  0
LINE
  5
A6CD
  8
0
  6
CONTINUOUS
 62
     7
 10
558.83023345369236
 20
1001.602961473831
 30
0.0
 11
526.32742345369229
 21
982.16516147383118
 31
0.0
  0
LINE
  5
A6CE
  8
0
  6
CONTINUOUS
 62
     7
 10
558.54385345369235
 20
1007.845951473831
 30
0.0
 11
517.12533345369195
 21
983.07611147383057
 31
0.0
  0
LINE
  5
A6CF
  8
0
  6
CONTINUOUS
 62
     7
 10
578.97756345369237
 20
784.59936147383121
 30
0.0
 11
582.97756345369237
 21
784.59936147383121
 31
0.0
  0
LINE
  5
A6D0
  8
0
  6
CONTINUOUS
 62
     7
 10
578.97756345369237
 20
1024.599301473831
 30
0.0
 11
582.97756345369237
 21
1024.599301473831
 31
0.0
  0
LINE
  5
A6D1
  8
0
  6
CONTINUOUS
 62
     7
 10
582.97756345369237
 20
784.59936147383121
 30
0.0
 11
582.97756345369237
 21
1024.599301473831
 31
0.0
  0
LINE
  5
A6D2
  8
0
  6
CONTINUOUS
 62
     7
 10
568.97756345369226
 20
793.64203147383103
 30
0.0
 11
568.97756345369226
 21
1015.556641473831
 31
0.0
  0
LINE
  5
A6D3
  8
0
  6
CONTINUOUS
 62
     7
 10
563.87283345369224
 20
1046.5719014738311
 30
0.0
 11
578.97756345369237
 21
1047.0993614738311
 31
0.0
  0
LINE
  5
A6D4
  8
0
  6
CONTINUOUS
 62
     7
 10
578.97756345369237
 20
762.09936147383121
 30
0.0
 11
578.97756345369237
 21
1047.099301473831
 31
0.0
  0
LINE
  5
A6D5
  8
0
  6
CONTINUOUS
 62
     7
 10
560.97763345369231
 20
765.60834147383105
 30
0.0
 11
560.97763345369231
 21
1043.573731473831
 31
0.0
  0
LINE
  5
A6D6
  8
0
  6
CONTINUOUS
 62
     7
 10
563.87289345369243
 20
762.62677147383113
 30
0.0
 11
578.97756345369237
 21
762.09930147383113
 31
0.0
  0
LINE
  5
A6D7
  8
0
  6
CONTINUOUS
 62
     7
 10
558.54385345369235
 20
801.35272147383125
 30
0.0
 11
517.12533345369195
 21
826.12256147383107
 31
0.0
  0
LINE
  5
A6D8
  8
0
  6
CONTINUOUS
 62
     7
 10
558.83023345369236
 20
807.59570147383101
 30
0.0
 11
526.32742345369229
 21
827.03357147383122
 31
0.0
  0
LINE
  5
A6D9
  8
0
  6
CONTINUOUS
 62
     7
 10
550.84622345369235
 20
831.69726147383108
 30
0.0
 11
560.97763345369231
 21
824.13916147383111
 31
0.0
  0
LINE
  5
A6DA
  8
0
  6
CONTINUOUS
 62
     7
 10
598.97763345369185
 20
898.59930147383102
 30
0.0
 11
654.97760345369238
 21
898.59930147383102
 31
0.0
  0
LINE
  5
A6DB
  8
0
  6
CONTINUOUS
 62
     7
 10
462.97763345369242
 20
827.03357147383122
 30
0.0
 11
514.77334345369195
 21
827.03357147383122
 31
0.0
  0
LINE
  5
A6DC
  8
0
  6
CONTINUOUS
 62
     7
 10
462.97756345369243
 20
764.86139147383108
 30
0.0
 11
563.91116345369221
 21
762.62573147383114
 31
0.0
  0
LINE
  5
A6DD
  8
0
  6
CONTINUOUS
 62
     7
 10
462.97763345369242
 20
775.46899147383112
 30
0.0
 11
560.97763345369231
 21
772.04675147383114
 31
0.0
  0
LINE
  5
A6DE
  8
0
  6
CONTINUOUS
 62
     7
 10
598.97763345369185
 20
910.59930147383113
 30
0.0
 11
654.97760345369238
 21
910.59930147383113
 31
0.0
  0
LINE
  5
A6DF
  8
0
  6
CONTINUOUS
 62
     7
 10
598.97763345369185
 20
910.59930147383113
 30
0.0
 11
598.97763345369185
 21
898.59930147383102
 31
0.0
  0
LINE
  5
A6E0
  8
0
  6
CONTINUOUS
 62
     7
 10
654.97760345369238
 20
883.59936147383121
 30
0.0
 11
654.97760345369238
 21
925.5993614738311
 31
0.0
  0
LINE
  5
A6E1
  8
0
  6
CONTINUOUS
 62
     7
 10
584.97763345369219
 20
882.0993614738311
 30
0.0
 11
584.97763345369219
 21
927.09936147383121
 31
0.0
  0
LINE
  5
A6E2
  8
0
  6
CONTINUOUS
 62
     7
 10
582.97756345369237
 20
882.0993614738311
 30
0.0
 11
584.97763345369219
 21
882.0993614738311
 31
0.0
  0
LINE
  5
A6E3
  8
0
  6
CONTINUOUS
 62
     7
 10
582.97756345369237
 20
927.09936147383121
 30
0.0
 11
584.97763345369219
 21
927.09936147383121
 31
0.0
  0
LINE
  5
A6E4
  8
0
  6
CONTINUOUS
 62
     7
 10
584.97763345369219
 20
883.59936147383121
 30
0.0
 11
654.97760345369238
 21
883.59936147383121
 31
0.0
  0
LINE
  5
A6E5
  8
0
  6
CONTINUOUS
 62
     7
 10
584.97763345369219
 20
925.5993614738311
 30
0.0
 11
654.97760345369238
 21
925.5993614738311
 31
0.0
  0
LINE
  5
A6E6
  8
0
  6
CONTINUOUS
 62
     7
 10
518.66513345369219
 20
831.69726147383108
 30
0.0
 11
560.97763345369231
 21
831.69726147383108
 31
0.0
  0
LINE
  5
A6E7
  8
0
  6
CONTINUOUS
 62
     7
 10
462.97763345369242
 20
956.163881473831
 30
0.0
 11
560.97763345369231
 21
956.163881473831
 31
0.0
  0
LINE
  5
A6E8
  8
0
  6
CONTINUOUS
 62
     7
 10
462.97763345369242
 20
1033.729731473831
 30
0.0
 11
560.97763345369231
 21
1037.151911473831
 31
0.0
  0
LINE
  5
A6E9
  8
0
  6
CONTINUOUS
 62
     7
 10
462.97756345369243
 20
1044.3372814738309
 30
0.0
 11
563.91116345369221
 21
1046.573001473831
 31
0.0
  0
LINE
  5
A6EA
  8
0
  6
CONTINUOUS
 62
     7
 10
462.97763345369242
 20
982.16510147383121
 30
0.0
 11
514.77334345369195
 21
982.16510147383121
 31
0.0
  0
LINE
  5
A6EB
  8
0
  6
CONTINUOUS
 62
     7
 10
518.66513345369219
 20
977.50140147383115
 30
0.0
 11
560.97763345369231
 21
977.50140147383115
 31
0.0
  0
ARC
  5
A6EC
  8
0
  6
CONTINUOUS
 62
     7
 10
563.97756345369226
 20
793.64203147383103
 30
0.0
 40
5.0
 50
267.99999999999619
 51
0.0
  0
ARC
  5
A6ED
  8
0
  6
CONTINUOUS
 62
     7
 10
555.97763345369208
 20
1012.137141473831
 30
0.0
 40
5.0
 50
300.88098000000019
 51
0.0
  0
ARC
  5
A6EE
  8
0
  6
CONTINUOUS
 62
     7
 10
563.97756345369226
 20
1015.556641473831
 30
0.0
 40
5.0
 50
0.0
 51
91.999998000000545
  0
ARC
  5
A6EF
  8
0
  6
CONTINUOUS
 62
     7
 10
565.97763345369185
 20
970.73376147383101
 30
0.0
 40
5.0
 50
179.999989999999
 51
270.0
  0
ARC
  5
A6F0
  8
0
  6
CONTINUOUS
 62
     7
 10
563.97756345369226
 20
1043.573731473831
 30
0.0
 40
3.0
 50
91.999998000000545
 51
180.000010000001
  0
ARC
  5
A6F1
  8
0
  6
CONTINUOUS
 62
     7
 10
555.97763345369208
 20
797.06152147383102
 30
0.0
 40
5.0
 50
0.0
 51
59.11901699999779
  0
ARC
  5
A6F2
  8
0
  6
CONTINUOUS
 62
     7
 10
565.97763345369185
 20
838.46490147383111
 30
0.0
 40
5.0
 50
90.00000299999769
 51
180.000010000001
  0
ARC
  5
A6F3
  8
0
  6
CONTINUOUS
 62
     7
 10
563.97756345369226
 20
765.62494147383109
 30
0.0
 40
3.0
 50
179.999989999999
 51
268.00000999999861
  0
ARC
  5
A6F4
  8
0
  6
CONTINUOUS
 62
     7
 10
514.77334345369195
 20
824.03357147383122
 30
0.0
 40
3.0
 50
59.11902300000196
 51
90.00000299999769
  0
ARC
  5
A6F5
  8
0
  6
CONTINUOUS
 62
     7
 10
518.66513345369219
 20
828.69726147383096
 30
0.0
 40
3.0
 50
90.00000299999769
 51
239.11901999999989
  0
ARC
  5
A6F6
  8
0
  6
CONTINUOUS
 62
     7
 10
514.77334345369195
 20
985.16510147383099
 30
0.0
 40
3.0
 50
270.0
 51
300.88098000000019
  0
ARC
  5
A6F7
  8
0
  6
CONTINUOUS
 62
     7
 10
518.66513345369219
 20
980.50140147383115
 30
0.0
 40
3.0
 50
120.8809700000043
 51
270.0
  0
ARC
  5
A6F8
  8
0
  6
CONTINUOUS
 62
     7
 10
598.97763345369185
 20
904.59930147383113
 30
0.0
 40
6.0000037999999991
 50
90.00000299999769
 51
270.0
  0
POLYLINE
  5
A6F9
  8
0
  6
CONTINUOUS
 62
     7
 66
     1
 10
0.0
 20
0.0
 30
0.0
  0
VERTEX
  5
A6FA
  8
0
  6
CONTINUOUS
 62
     7
 10
560.97763345369231
 20
1023.792171473831
 30
0.0
  0
VERTEX
  5
A6FB
  8
0
  6
CONTINUOUS
 62
     7
 10
553.31880345369245
 20
1004.721481473831
 30
0.0
 42
-1.0
  0
SEQEND
  5
A6FC
  8
0
 62
     7
  0
POLYLINE
  5
A6FD
  8
0
  6
CONTINUOUS
 62
     7
 66
     1
 10
0.0
 20
0.0
 30
0.0
  0
VERTEX
  5
A6FE
  8
0
  6
CONTINUOUS
 62
     7
 10
553.3187334536924
 20
804.47738147383154
 30
0.0
 42
0.0052467293
  0
VERTEX
  5
A6FF
  8
0
  6
CONTINUOUS
 62
     7
 10
555.73895345369226
 20
798.06755147383103
 30
0.0
 42
0.0052066122
  0
VERTEX
  5
A700
  8
0
  6
CONTINUOUS
 62
     7
 10
558.29262345369204
 20
791.70972147383122
 30
0.0
 42
0.0051740405
  0
VERTEX
  5
A701
  8
0
  6
CONTINUOUS
 62
     7
 10
560.97763345369231
 20
785.40649147383101
 30
0.0
  0
SEQEND
  5
A702
  8
0
 62
     7
  0
POLYLINE
  5
A703
  8
0
  6
CONTINUOUS
 62
     7
 66
     1
 10
0.0
 20
0.0
 30
0.0
  0
VERTEX
  5
A704
  8
0
  6
CONTINUOUS
 62
     7
 10
539.84183345369252
 20
956.16385147383119
 30
0.0
 42
0.030646501
  0
VERTEX
  5
A705
  8
0
  6
CONTINUOUS
 62
     7
 10
535.43228345369243
 20
921.88045147383104
 30
0.0
 42
0.064801596
  0
VERTEX
  5
A706
  8
0
  6
CONTINUOUS
 62
     7
 10
539.84183345369252
 20
853.03484147383108
 30
0.0
  0
SEQEND
  5
A707
  8
0
 62
     7
  0
LINE
  5
A709
  8
0
  6
CONTINUOUS
 62
     7
 10
452.82049561240882
 20
1043.8049700795329
 30
0.0
 11
462.97763345369628
 21
1044.3372830243591
 31
0.0
1001
GENIUS_GENOBJ-N-CEN_13
1002
{
1000
OWNER
1000
GEN
1002
}
1001
GENIUS_GENODEF_13
1002
{
1000
HIER
1070
     0
1002
}
1002
{
1000
MANEDIT
1070
     0
1002
}
1002
{
1000
NOSEL
1070
     0
1002
}
1002
{
1000
BEHIND
1070
     0
1002
}
1002
{
1000
OTHER
1070
     0
1002
}
1002
{
1000
REACTOR
1002
}
1001
GENIUS_GENCEN_19
1002
{
1040
2.7939999999999978
1002
}
  0
ARC
  5
A70B
  8
0
  6
CONTINUOUS
 62
     0
 10
452.97766004316043
 20
768.38954734022013
 30
0.0
 40
3.0
 50
180.0009479217473
 51
267.00006686837742
  0
LINE
  5
A70C
  8
0
  6
CONTINUOUS
 62
     7
 10
452.82065564601112
 20
765.3936585540207
 30
0.0
 11
462.97779409924971
 21
764.86135728604324
 31
0.0
1001
GENIUS_GENOBJ-N-CEN_13
1002
{
1000
OWNER
1000
GEN
1002
}
1001
GENIUS_GENODEF_13
1002
{
1000
HIER
1070
     0
1002
}
1002
{
1000
MANEDIT
1070
     0
1002
}
1002
{
1000
NOSEL
1070
     0
1002
}
1002
{
1000
BEHIND
1070
     0
1002
}
1002
{
1000
OTHER
1070
     0
1002
}
1002
{
1000
REACTOR
1002
}
1001
GENIUS_GENCEN_19
1002
{
1040
2.7939999999999978
1002
}
  0
LINE
  5
A70D
  8
0
  6
CONTINUOUS
 62
     7
 10
449.97750345369218
 20
777.85437182289695
 30
0.0
 11
449.97766004357078
 21
768.38949770715374
 31
0.0
1001
GENIUS_GENOBJ-N-CEN_13
1002
{
1000
OWNER
1000
GEN
1002
}
1001
GENIUS_GENODEF_13
1002
{
1000
HIER
1070
     0
1002
}
1002
{
1000
MANEDIT
1070
     0
1002
}
1002
{
1000
NOSEL
1070
     0
1002
}
1002
{
1000
BEHIND
1070
     0
1002
}
1002
{
1000
OTHER
1070
     0
1002
}
1002
{
1000
REACTOR
1002
}
1001
GENIUS_GENCEN_19
1002
{
1040
2.7939999999999978
1002
}
  0
LINE
  5
A834
  8
AM_0
 10
598.97765345369203
 20
584.91111597825125
 30
0.0
 11
654.97760345369238
 21
584.91111597825125
 31
0.0
  0
LINE
  5
A835
  8
AM_0
 10
598.97765345369203
 20
584.91111597825125
 30
0.0
 11
598.97765345369203
 21
581.91111597825125
 31
0.0
  0
LINE
  5
A836
  8
AM_0
 10
654.97760345369238
 20
539.91111597825125
 30
0.0
 11
654.97760345369238
 21
584.91111597825125
 31
0.0
  0
LINE
  5
A837
  8
AM_0
 10
584.97760345369215
 20
538.41108597825132
 30
0.0
 11
584.97760345369215
 21
583.41108597825132
 31
0.0
  0
LINE
  5
A838
  8
AM_0
 10
584.97760345369215
 20
539.91111597825125
 30
0.0
 11
654.97760345369238
 21
539.91111597825125
 31
0.0
  0
LINE
  5
A839
  8
AM_0
 10
584.97760345369215
 20
581.91111597825125
 30
0.0
 11
654.97760345369238
 21
581.91111597825125
 31
0.0
  0
LINE
  5
A83A
  8
AM_0
 10
522.70610345369164
 20
391.41108597825132
 30
0.0
 11
568.97760345369215
 21
418.061900978251
 31
0.0
  0
LINE
  5
A83B
  8
AM_0
 10
462.97755345369171
 20
652.91110597825116
 30
0.0
 11
532.8658034536918
 21
654.74120597825095
 31
0.0
  0
LINE
  5
A83C
  8
AM_0
 10
462.97765345369203
 20
392.91110097825123
 30
0.0
 11
462.97765345369203
 21
652.91110597825116
 31
0.0
  0
LINE
  5
A83D
  8
AM_0
 10
560.97765345369203
 20
420.88911097825132
 30
0.0
 11
560.97765345369203
 21
469.4042509782513
 31
0.0
  0
LINE
  5
A83E
  8
AM_0
 10
462.97765345369203
 20
401.19381597825111
 30
0.0
 11
539.76135345369198
 21
401.19381597825111
 31
0.0
  0
LINE
  5
A83F
  8
AM_0
 10
462.97765345369203
 20
415.65061597825132
 30
0.0
 11
564.80115345369245
 21
415.65061597825132
 31
0.0
  0
LINE
  5
A840
  8
AM_0
 10
564.08235345369167
 20
417.890970978251
 30
0.0
 11
578.97765345369203
 21
418.41111597825119
 31
0.0
  0
LINE
  5
A841
  8
AM_0
 10
582.97765345369203
 20
560.91108597825132
 30
0.0
 11
582.97765345369203
 21
440.91108597825132
 31
0.0
  0
LINE
  5
A842
  8
AM_0
 10
462.97765345369203
 20
512.93009597825096
 30
0.0
 11
568.97765345369203
 21
512.93009597825096
 31
0.0
  0
LINE
  5
A843
  8
AM_0
 10
560.97765345369203
 20
582.39793097825122
 30
0.0
 11
560.97765345369203
 21
699.88545597825146
 31
0.0
  0
LINE
  5
A844
  8
AM_0
 10
578.97765345369203
 20
418.41108597825132
 30
0.0
 11
578.97765345369203
 21
703.41110597825104
 31
0.0
  0
LINE
  5
A845
  8
AM_0
 10
563.87300345369181
 20
702.88360597825124
 30
0.0
 11
578.97765345369203
 21
703.41110597825104
 31
0.0
  0
LINE
  5
A846
  8
AM_0
 10
536.18530345369231
 20
650.78640597825108
 30
0.0
 11
534.85990345369157
 21
654.79340597825114
 31
0.0
  0
LINE
  5
A847
  8
AM_0
 10
559.84315345369191
 20
579.26402097825098
 30
0.0
 11
543.59015345369221
 21
628.40004097825124
 31
0.0
  0
LINE
  5
A848
  8
AM_0
 10
462.97765345369203
 20
630.17161597825111
 30
0.0
 11
512.03920345369238
 21
630.17161597825111
 31
0.0
  0
LINE
  5
A849
  8
AM_0
 10
462.97765345369203
 20
644.62840097825119
 30
0.0
 11
525.88820345369163
 21
644.62840097825119
 31
0.0
  0
LINE
  5
A84A
  8
AM_0
 10
568.97765345369203
 20
560.91108597825132
 30
0.0
 11
568.97765345369203
 21
671.86835597825132
 31
0.0
  0
LINE
  5
A84B
  8
AM_0
 10
582.97765345369203
 20
560.91108597825132
 30
0.0
 11
582.97765345369203
 21
680.91110597825116
 31
0.0
  0
LINE
  5
A84C
  8
AM_0
 10
462.97760345369238
 20
392.91108597825132
 30
0.0
 11
522.7061534536922
 21
391.41108597825132
 31
0.0
  0
LINE
  5
A84D
  8
AM_0
 10
578.97765345369203
 20
440.91108597825132
 30
0.0
 11
582.97765345369203
 21
440.91108597825132
 31
0.0
  0
LINE
  5
A84E
  8
AM_0
 10
568.97765345369203
 20
560.91108597825132
 30
0.0
 11
568.97765345369203
 21
449.95378097825119
 31
0.0
  0
LINE
  5
A84F
  8
AM_0
 10
462.97765345369203
 20
532.89210597825115
 30
0.0
 11
568.97765345369203
 21
532.89210597825115
 31
0.0
  0
LINE
  5
A850
  8
AM_0
 10
564.59020345369174
 20
575.8342759782513
 30
0.0
 11
568.97765345369203
 21
575.8342759782513
 31
0.0
  0
LINE
  5
A851
  8
AM_0
 10
578.97765345369203
 20
680.91110597825116
 30
0.0
 11
582.97765345369203
 21
680.91110597825116
 31
0.0
  0
LINE
  5
A852
  8
AM_0
 10
536.27050345369173
 20
656.20390597825121
 30
0.0
 11
559.51320345369152
 21
679.44660597825123
 31
0.0
  0
LINE
  5
A853
  8
AM_0
 10
490.97765345369203
 20
459.549115978251
 30
0.0
 11
560.97765345369203
 21
459.549115978251
 31
0.0
  0
LINE
  5
A854
  8
AM_0
 10
490.97765345369203
 20
440.10682597825121
 30
0.0
 11
560.97765345369203
 21
440.10682597825121
 31
0.0
  0
LINE
  5
A855
  8
AM_0
 10
490.97765345369203
 20
441.9535059782512
 30
0.0
 11
490.97765345369203
 21
458.05351097825132
 31
0.0
  0
LINE
  5
A856
  8
AM_0
 10
514.47765345369203
 20
628.40004097825124
 30
0.0
 11
541.93065345369234
 21
628.40004097825124
 31
0.0
  0
LINE
  5
A857
  8
AM_0
 10
544.92035345369243
 20
629.39244097825122
 30
0.0
 11
560.97755345369183
 21
641.37126097825114
 31
0.0
  0
LINE
  5
A858
  8
AM_0
 10
558.54390345369188
 20
664.15765597825123
 30
0.0
 11
521.48500345369189
 21
641.99507097825119
 31
0.0
  0
LINE
  5
A859
  8
AM_0
 10
558.83025345369208
 20
657.91470597825128
 30
0.0
 11
517.07220345369183
 21
632.94181597825116
 31
0.0
  0
LINE
  5
A85A
  8
AM_0
 10
582.97765345369203
 20
538.41108597825132
 30
0.0
 11
584.97760345369215
 21
538.41108597825132
 31
0.0
  0
LINE
  5
A85B
  8
AM_0
 10
582.97765345369203
 20
583.41108597825132
 30
0.0
 11
584.97760345369215
 21
583.41108597825132
 31
0.0
  0
ARC
  5
A85C
  8
AM_0
 10
532.73500345369189
 20
659.73945597825127
 30
0.0
 40
5.0
 50
271.4999999999896
 51
315.00000000000921
  0
ARC
  5
A85D
  8
AM_0
 10
564.59020345369174
 20
580.8342759782513
 30
0.0
 40
5.0
 50
198.30292000000651
 51
270.0
  0
ARC
  5
A85E
  8
AM_0
 10
563.97765345369191
 20
699.88545597825146
 30
0.0
 40
3.0000000500000001
 50
91.999997999994051
 51
180.000010000001
  0
ARC
  5
A85F
  8
AM_0
 10
563.97765345369191
 20
420.88911097825132
 30
0.0
 40
3.0000000500000001
 50
179.999989999999
 51
271.99999000000793
  0
ARC
  5
A860
  8
AM_0
 10
555.97765345369203
 20
682.98215597825094
 30
0.0
 40
5.0
 50
315.00000000000921
 51
0.0
  0
ARC
  5
A861
  8
AM_0
 10
563.97765345369191
 20
671.86835597825132
 30
0.0
 40
5.0
 50
0.0
 51
91.999997999994051
  0
ARC
  5
A862
  8
AM_0
 10
565.97765345369203
 20
469.4042509782513
 30
0.0
 40
5.0
 50
90.000002999984659
 51
180.000010000001
  0
ARC
  5
A863
  8
AM_0
 10
563.97765345369191
 20
449.95378097825119
 30
0.0
 40
5.0
 50
267.99999999999619
 51
0.0
  0
ARC
  5
A864
  8
AM_0
 10
490.97765345369203
 20
449.82798597825109
 30
0.0
 40
9.7211409999999994
 50
90.000002999984659
 51
270.0
  0
ARC
  5
A865
  8
AM_0
 10
541.93065345369234
 20
633.40004097825124
 30
0.0
 40
5.0
 50
270.0
 51
306.72321000002182
  0
ARC
  5
A866
  8
AM_0
 10
514.47765345369203
 20
633.40004097825124
 30
0.0
 40
5.0
 50
229.76333000002259
 51
270.0
  0
ARC
  5
A867
  8
AM_0
 10
493.177503453692
 20
654.70620597825132
 30
0.0
 40
30.946884499999999
 50
307.55230999998099
 51
335.59613000000491
  0
ARC
  5
A868
  8
AM_0
 10
555.97765345369203
 20
668.44885597825123
 30
0.0
 40
5.0
 50
300.88098000001457
 51
0.0
  0
LINE
  5
A869
  8
AM_0
 10
462.97765345369203
 20
444.45948597825162
 30
0.0
 11
462.97765345369203
 21
652.91108097825156
 31
0.0
  0
LINE
  5
A86A
  8
AM_0
 10
451.90780345369222
 20
652.52448097825186
 30
0.0
 11
462.97755345369171
 21
652.91108097825156
 31
0.0
  0
LINE
  5
A86B
  8
AM_0
 10
435.97770345369162
 20
408.80382007222278
 30
0.0
 11
435.97770345369162
 21
621.53043097825162
 31
0.0
  0
ARC
  5
A86C
  8
AM_0
 10
431.97770345369162
 20
432.66896259525009
 30
0.0
 40
4.0
 50
0.0
 51
88.000006193419608
1001
GENIUS_GENODEF_13
1002
{
1000
HIER
1070
     0
1002
}
1002
{
1000
MANEDIT
1070
     0
1002
}
1002
{
1000
NOSEL
1070
     0
1002
}
1002
{
1000
BEHIND
1070
     0
1002
}
1002
{
1000
OTHER
1070
     0
1002
}
1002
{
1000
REACTOR
1002
}
1001
GENIUS_GENOBJ-N-FIL_13
1002
{
1000
OWNER
1000
GEN
1002
}
  0
LINE
  5
A86D
  8
AM_0
 10
449.97765340369159
 20
395.29639097825088
 30
0.0
 11
449.97765345369203
 21
650.52578097825165
 31
0.0
  0
LINE
  5
A86E
  8
AM_0
 10
438.4567034536916
 20
639.99013097825173
 30
0.0
 11
447.49855345369252
 21
641.58448097825124
 31
0.0
  0
LINE
  5
A86F
  8
AM_0
 10
435.97770345369162
 20
621.53043097825162
 30
0.0
 11
435.97770345369162
 21
650.91108097825168
 31
0.0
  0
ARC
  5
A870
  8
AM_0
 10
431.97770345369162
 20
613.15318971054262
 30
0.0
 40
4.0
 50
271.99996225375321
 51
0.0
1001
GENIUS_GENOBJ-N-FIL_13
1002
{
1000
OWNER
1000
GEN
1002
}
1001
GENIUS_GENODEF_13
1002
{
1000
HIER
1070
     0
1002
}
1002
{
1000
MANEDIT
1070
     0
1002
}
1002
{
1000
NOSEL
1070
     0
1002
}
1002
{
1000
BEHIND
1070
     0
1002
}
1002
{
1000
OTHER
1070
     0
1002
}
1002
{
1000
REACTOR
1002
}
  0
LINE
  5
A871
  8
AM_0
 10
436.6547534536918
 20
652.41108097825156
 30
0.0
 11
451.31020345369302
 21
652.41108097825156
 31
0.0
  0
LINE
  5
A872
  8
AM_0
 10
439.16050345369212
 20
659.41108097825168
 30
0.0
 11
454.79470345369168
 21
659.41108097825168
 31
0.0
  0
LINE
  5
A873
  8
AM_0
 10
456.90050345369173
 20
652.69878097825199
 30
0.0
 11
455.26535345369342
 21
658.80118097825175
 31
0.0
  0
LINE
  5
A874
  8
AM_0
 10
436.97765345369203
 20
652.41103097825123
 30
0.0
 11
438.68985345369202
 21
658.80118097825175
 31
0.0
  0
LINE
  5
A875
  8
AM_0
 10
439.47425345369231
 20
659.52573097825177
 30
0.0
 11
446.97770345369162
 21
660.91103097825123
 31
0.0
  0
LINE
  5
A876
  8
AM_0
 10
446.97765345369203
 20
660.91108097825156
 30
0.0
 11
454.48105345369243
 21
659.52573097825177
 31
0.0
  0
LINE
  5
A877
  8
AM_0
 10
449.97765345369203
 20
507.89930597825168
 30
0.0
 11
462.97765345369203
 21
507.89930597825168
 31
0.0
  0
LINE
  5
A878
  8
AM_0
 10
449.97765345369203
 20
537.92286597825159
 30
0.0
 11
462.97765345369203
 21
537.92286597825159
 31
0.0
  0
LINE
  5
A879
  8
AM_0
 10
449.97765345369203
 20
627.2353809782519
 30
0.0
 11
462.97765345369203
 21
627.2353809782519
 31
0.0
  0
LINE
  5
A87A
  8
AM_0
 10
449.97765345369203
 20
645.49438097825191
 30
0.0
 11
462.97765345369203
 21
645.49438097825191
 31
0.0
  0
ARC
  5
A87B
  8
AM_0
 10
451.97765345369203
 20
650.52578097825165
 30
0.0
 40
2.0000000500000001
 50
91.999997999994051
 51
180.000010000001
  0
ARC
  5
A87C
  8
AM_0
 10
438.97765345369191
 20
637.03568097825132
 30
0.0
 40
3.0000000500000001
 50
100.000000000005
 51
180.000010000001
  0
ARC
  5
A87D
  8
AM_0
 10
446.97765345369203
 20
644.5388309782511
 30
0.0
 40
3.0000000500000001
 50
280.000000000005
 51
0.0
  0
ARC
  5
A87E
  8
AM_0
 10
437.97765345369203
 20
650.91108097825168
 30
0.0
 40
2.0000000500000001
 50
131.4096200000055
 51
180.000010000001
  0
CIRCLE
  5
A87F
  8
AM_0
 10
446.97765345369203
 20
673.41108097825156
 30
0.0
 40
12.5
  0
ARC
  5
A880
  8
AM_0
 10
446.97765345369203
 20
673.41108097825156
 30
0.0
 40
20.500000500000009
 50
304.61363999999702
 51
235.38634999998769
  0
ARC
  5
A881
  8
AM_0
 10
460.89455345369203
 20
653.24758097825111
 30
0.0
 40
4.000000049999997
 50
124.6136500000122
 51
187.86822000001541
  0
ARC
  5
A882
  8
AM_0
 10
433.0606534536916
 20
653.24758097825111
 30
0.0
 40
4.000000049999997
 50
347.9293300000017
 51
55.386359000034062
  0
ARC
  5
A883
  8
AM_0
 10
439.6558034536917
 20
658.54233097825124
 30
0.0
 40
1.0
 50
100.4607199999833
 51
164.99998999997021
  0
ARC
  5
A884
  8
AM_0
 10
454.29955345369189
 20
658.54233097825124
 30
0.0
 40
1.0
 50
14.999999999994451
 51
79.539281000009595
  0
LINE
  5
A885
  8
AM_0
 10
451.90780345369222
 20
393.29769097825078
 30
0.0
 11
462.97755345369171
 21
392.91109097825102
 31
0.0
  0
LINE
  5
A886
  8
AM_0
 10
438.4567034536916
 20
405.83204097825057
 30
0.0
 11
447.49855345369252
 21
404.23769097825073
 31
0.0
  0
ARC
  5
A887
  8
AM_0
 10
451.97765345369203
 20
395.29639097825088
 30
0.0
 40
2.0000000500000001
 50
180.0
 51
268.00000200000591
  0
ARC
  5
A888
  8
AM_0
 10
438.97765345369191
 20
408.78649097825132
 30
0.0
 40
3.0000000500000001
 50
179.6690368492057
 51
259.999999999995
  0
ARC
  5
A889
  8
AM_0
 10
446.97765345369203
 20
401.28334097825098
 30
0.0
 40
3.0000000500000001
 50
0.0
 51
79.999999999994984
  0
LINE
  5
A90B
  8
AM_0
 10
869.9169589536566
 20
576.91111597825125
 30
0.0
 11
881.91695895365694
 21
576.91111597825125
 31
0.0
  0
LINE
  5
A90C
  8
AM_0
 10
881.91695895365694
 20
584.91111597825125
 30
0.0
 11
881.91695895365694
 21
576.91111597825125
 31
0.0
  0
LINE
  5
A90D
  8
AM_0
 10
869.9169589536566
 20
584.91111597825125
 30
0.0
 11
869.9169589536566
 21
576.91111597825125
 31
0.0
  0
LINE
  5
A90E
  8
AM_0
 10
869.9169589536566
 20
584.91111597825125
 30
0.0
 11
881.91695895365694
 21
584.91111597825125
 31
0.0
  0
LINE
  5
A90F
  8
AM_0
 10
981.43948395365726
 20
532.91108597825132
 30
0.0
 11
945.91698895365676
 21
532.91108597825132
 31
0.0
  0
LINE
  5
A910
  8
0
  6
AM_ISO08W050
 62
     0
 10
1008.171196527135
 20
693.16532966537363
 30
0.0
 11
983.73662276072002
 21
668.73073277469723
 31
0.0
  0
LINE
  5
A911
  8
AM_0
 10
1015.914153953657
 20
682.58290597825112
 30
0.0
 11
1018.416988953657
 21
610.91108597825132
 31
0.0
  0
LINE
  5
A912
  8
AM_0
 10
997.58881895365721
 20
700.90825597825119
 30
0.0
 11
925.91698895365698
 21
703.41110597825104
 31
0.0
  0
LINE
  5
A913
  8
AM_0
 10
925.91698895365698
 20
703.41110597825104
 30
0.0
 11
875.91698895365698
 21
703.41110597825104
 31
0.0
  0
LINE
  5
A914
  8
AM_0
 10
1018.416973953657
 20
610.91108597825132
 30
0.0
 11
1018.416973953657
 21
560.91108597825132
 31
0.0
  0
LINE
  5
A915
  8
AM_0
 10
825.91698895365698
 20
703.41110597825104
 30
0.0
 11
875.91698895365698
 21
703.41110597825104
 31
0.0
  0
LINE
  5
A916
  8
AM_0
 10
770.39446395365655
 20
532.91108597825132
 30
0.0
 11
805.91698895365687
 21
532.91108597825132
 31
0.0
  0
LINE
  5
A917
  8
AM_0
 10
872.4169589536566
 20
668.57605597825125
 30
0.0
 11
872.4169589536566
 21
649.62630597825114
 31
0.0
  0
LINE
  5
A918
  8
AM_0
 10
879.41695895365694
 20
668.57605597825125
 30
0.0
 11
879.41695895365694
 21
649.62630597825114
 31
0.0
  0
LINE
  5
A919
  8
AM_0
 10
948.42089395365656
 20
640.48610097825122
 30
0.0
 11
919.22692395365709
 21
611.29213097825095
 31
0.0
  0
LINE
  5
A91A
  8
AM_0
 10
813.91695895365672
 20
560.91108597825132
 30
0.0
 11
813.91695895365672
 21
540.91108597825132
 31
0.0
  0
LINE
  5
A91B
  8
AM_0
 10
925.91698895365698
 20
418.41108597825132
 30
0.0
 11
875.91698895365698
 21
418.41108597825132
 31
0.0
  0
LINE
  5
A91C
  8
AM_0
 10
754.24514395365702
 20
700.9082059782512
 30
0.0
 11
825.91698895365698
 21
703.41110597825104
 31
0.0
  0
LINE
  5
A91D
  8
AM_0
 10
735.91977395365666
 20
682.58295597825122
 30
0.0
 11
733.41697395365725
 21
610.91111597825125
 31
0.0
  0
LINE
  5
A91E
  8
0
  6
AM_ISO08W050
 62
     0
 10
1008.155510280059
 20
428.67255227219408
 30
0.0
 11
983.232160185731
 21
453.59591270568058
 31
0.0
  0
LINE
  5
A91F
  8
AM_0
 10
1018.416973953657
 20
510.91108597825132
 30
0.0
 11
1018.416973953657
 21
560.91108597825132
 31
0.0
  0
LINE
  5
A920
  8
AM_0
 10
1015.914153953657
 20
439.23927097825128
 30
0.0
 11
1018.416988953657
 21
510.91111597825119
 31
0.0
  0
LINE
  5
A921
  8
AM_0
 10
997.58881895365721
 20
420.91395097825108
 30
0.0
 11
925.91698895365698
 21
418.41111597825119
 31
0.0
  0
LINE
  5
A922
  8
AM_0
 10
735.91982395365721
 20
439.23930097825132
 30
0.0
 11
733.41697395365725
 21
510.91108597825132
 31
0.0
  0
LINE
  5
A923
  8
AM_0
 10
754.24514395365702
 20
420.91392097825133
 30
0.0
 11
825.91695895365672
 21
418.41108597825132
 31
0.0
  0
LINE
  5
A924
  8
AM_0
 10
825.91698895365698
 20
418.41108597825132
 30
0.0
 11
875.91698895365698
 21
418.41108597825132
 31
0.0
  0
LINE
  5
A925
  8
AM_0
 10
733.41697395365725
 20
610.91108597825132
 30
0.0
 11
733.41697395365725
 21
510.91108597825132
 31
0.0
  0
LINE
  5
A926
  8
0
  6
AM_ISO08W050
 62
     0
 10
744.08489567481229
 20
429.07903469762431
 30
0.0
 11
768.955930760294
 21
453.95005897285807
 31
0.0
  0
LINE
  5
A927
  8
0
  6
AM_ISO08W050
 62
     0
 10
744.50637195937531
 20
692.32166326859681
 30
0.0
 11
769.55187436562119
 21
667.27618256914604
 31
0.0
  0
LINE
  5
A928
  8
AM_0
 10
796.34194395365739
 20
633.41505597825119
 30
0.0
 11
825.5359439536569
 21
604.22105597825123
 31
0.0
  0
LINE
  5
A929
  8
0
  6
AM_ISO08W050
 62
     0
 10
724.23226930384953
 20
560.91108597825132
 30
0.0
 11
1025.7544836441771
 21
560.91108597825132
 31
0.0
  0
LINE
  5
A92A
  8
AM_0
 10
955.49193895365727
 20
633.41502597825115
 30
0.0
 11
926.29796895365666
 21
604.22105597825123
 31
0.0
  0
LINE
  5
A92B
  8
AM_0
 10
803.41301895365723
 20
640.48610097825122
 30
0.0
 11
832.60701895365673
 21
611.29213097825095
 31
0.0
  0
LINE
  5
A92C
  8
AM_0
 10
937.91695895365683
 20
560.91108597825132
 30
0.0
 11
937.91695895365683
 21
540.91108597825132
 31
0.0
  0
LINE
  5
A92D
  8
0
  6
AM_ISO08W050
 62
     0
 10
875.91698895365698
 20
710.9943890236641
 30
0.0
 11
875.91698895365698
 21
381.71825597825108
 31
0.0
  0
ARC
  5
A92E
  8
AM_0
 10
875.91698895365698
 20
560.91108597825132
 30
0.0
 40
20.9999985
 50
106.6015500000194
 51
73.398452000018409
  0
CIRCLE
  5
A92F
  8
0
  6
AM_ISO08W050
 62
     0
 10
875.91698895365698
 20
560.91108597825132
 30
0.0
 40
3.5000000500000001
  0
CIRCLE
  5
A930
  8
0
  6
AM_ISO08W050
 62
     0
 10
875.91698895365698
 20
560.91108597825132
 30
0.0
 40
5.0
  0
CIRCLE
  5
A931
  8
AM_0
 10
875.91698895365698
 20
560.91108597825132
 30
0.0
 40
41.000000499999992
  0
ARC
  5
A932
  8
AM_0
 10
884.41695895365672
 20
649.62630597825114
 30
0.0
 40
5.0
 50
179.999989999999
 51
266.16236000000742
  0
ARC
  5
A933
  8
AM_0
 10
981.43948395365726
 20
537.91108597825132
 30
0.0
 40
5.0
 50
270.0
 51
347.70394999999132
  0
ARC
  5
A934
  8
AM_0
 10
770.39446395365655
 20
537.91108597825132
 30
0.0
 40
5.0
 50
192.2960399999989
 51
270.0
  0
ARC
  5
A935
  8
0
  6
AM_ISO08W050
 62
     0
 10
875.91698895365698
 20
560.91108597825155
 30
0.0
 40
170.00000499999999
 50
38.591519728731512
 51
51.014603999982398
  0
ARC
  5
A936
  8
AM_0
 10
996.92571895365631
 20
681.91980597825136
 30
0.0
 40
19.000000499999999
 50
2.000000000003725
 51
87.999999999996248
  0
CIRCLE
  5
A937
  8
0
  6
AM_ISO08W050
 62
     0
 10
996.12511895365697
 20
681.1192559782512
 30
0.0
 40
9.5
  0
ARC
  5
A938
  8
0
  6
AM_ISO08W050
 62
     0
 10
875.91698895365698
 20
560.91108597825132
 30
0.0
 40
170.00000499999999
 50
217.84322999998889
 51
231.01461000001419
  0
ARC
  5
A939
  8
AM_0
 10
875.91698895365698
 20
522.91108597825132
 30
0.0
 40
122.0
 50
60.143060000010841
 51
86.162372000016873
  0
ARC
  5
A93A
  8
AM_0
 10
875.91698895365698
 20
522.91108597825132
 30
0.0
 40
122.0
 50
124.6731800000161
 51
157.42801999999091
  0
ARC
  5
A93B
  8
AM_0
 10
944.88537395365722
 20
644.02162097825124
 30
0.0
 40
5.0
 50
315.00000000000921
 51
50.312775000018888
  0
ARC
  5
A93C
  8
AM_0
 10
867.41695895365683
 20
649.62630597825114
 30
0.0
 40
5.0
 50
273.837629999976
 51
0.0
  0
ARC
  5
A93D
  8
AM_0
 10
867.41695895365683
 20
668.57605597825125
 30
0.0
 40
5.0
 50
0.0
 51
94.514060999993376
  0
ARC
  5
A93E
  8
AM_0
 10
884.41695895365672
 20
668.57605597825125
 30
0.0
 40
5.0
 50
85.485944000013959
 51
180.000010000001
  0
ARC
  5
A93F
  8
AM_0
 10
875.91698895365698
 20
522.91108597825132
 30
0.0
 40
122.0
 50
22.571982000014099
 51
55.326819999983819
  0
ARC
  5
A940
  8
AM_0
 10
915.69137395365772
 20
614.82768097825124
 30
0.0
 40
5.0
 50
233.58368000003429
 51
315.00000000000921
  0
ARC
  5
A941
  8
AM_0
 10
959.02749395365765
 20
629.87947097825122
 30
0.0
 40
5.0
 50
39.687224000006218
 51
135.00000000000921
  0
ARC
  5
A942
  8
AM_0
 10
875.91698895365698
 20
560.91108597825132
 30
0.0
 40
61.999994999999998
 50
142.11498999997059
 51
180.000010000001
  0
ARC
  5
A943
  8
AM_0
 10
875.91698895365698
 20
560.91108597825132
 30
0.0
 40
61.999994999999998
 50
53.583680999986242
 51
126.41631999996569
  0
CIRCLE
  5
A944
  8
0
  6
AM_ISO08W050
 62
     0
 10
996.12511895365697
 20
440.70295597825128
 30
0.0
 40
9.5
  0
ARC
  5
A945
  8
AM_0
 10
996.92571895365631
 20
439.90235597825131
 30
0.0
 40
19.000000499999999
 50
272.00000000000369
 51
357.99999999999642
  0
ARC
  5
A946
  8
AM_0
 10
754.90822895365716
 20
439.90235597825131
 30
0.0
 40
19.000000499999999
 50
182.00000000000369
 51
267.99999999999619
  0
ARC
  5
A947
  8
AM_0
 10
945.91698895365676
 20
540.91108597825132
 30
0.0
 40
8.0
 50
179.999989999999
 51
270.0
  0
CIRCLE
  5
A948
  8
0
  6
AM_ISO08W050
 62
     0
 10
755.70879395365682
 20
440.70295597825128
 30
0.0
 40
9.5
  0
CIRCLE
  5
A949
  8
0
  6
AM_ISO08W050
 62
     0
 10
755.70879395365682
 20
681.1192559782512
 30
0.0
 40
9.5
  0
ARC
  5
A94A
  8
AM_0
 10
754.90822895365716
 20
681.91980597825136
 30
0.0
 40
19.000000499999999
 50
91.999997999994051
 51
177.99999999999619
  0
ARC
  5
A94B
  8
0
  6
AM_ISO08W050
 62
     0
 10
875.91698895365505
 20
560.9110859782536
 30
0.0
 40
170.0000049999968
 50
125.72675619267019
 51
141.01461
  0
ARC
  5
A94C
  8
AM_0
 10
875.91698895365698
 20
560.91108597825132
 30
0.0
 40
61.999994999999998
 50
0.0
 51
36.416318000014883
  0
ARC
  5
A94D
  8
AM_0
 10
836.14254395365685
 20
614.82768097825124
 30
0.0
 40
5.0
 50
224.99999999999079
 51
306.41631999996571
  0
ARC
  5
A94E
  8
AM_0
 10
822.00042395365733
 20
600.68553097825122
 30
0.0
 40
5.0
 50
323.58368000000172
 51
45.000001000013
  0
ARC
  5
A94F
  8
AM_0
 10
792.80642395365703
 20
629.87947097825122
 30
0.0
 40
5.0
 50
45.000001000013
 51
140.31278000000339
  0
ARC
  5
A950
  8
AM_0
 10
806.94857395365693
 20
644.02162097825124
 30
0.0
 40
5.0
 50
129.6872199999782
 51
224.99999999999079
  0
ARC
  5
A951
  8
AM_0
 10
929.83352395365728
 20
600.68553097825122
 30
0.0
 40
5.0
 50
135.00000000000921
 51
216.41631999999831
  0
ARC
  5
A952
  8
0
  6
AM_ISO08W050
 62
     0
 10
875.91698895365425
 20
560.91108597825314
 30
0.0
 40
170.000005000003
 50
305.67011938689501
 51
321.01461
  0
ARC
  5
A953
  8
AM_0
 10
805.91698895365687
 20
540.91108597825132
 30
0.0
 40
8.0
 50
270.0
 51
0.0
  0
CIRCLE
  5
A954
  8
AM_0
 10
875.91698895365698
 20
560.91108597825132
 30
0.0
 40
113.0
  0
CIRCLE
  5
A955
  8
AM_0
 10
875.91698895365698
 20
560.91108597825132
 30
0.0
 40
120.0
  0
ARC
  5
A956
  8
AM_0
 10
875.91698895365698
 20
522.911085978252
 30
0.0
 40
122.0
 50
93.837625999990266
 51
119.85693999998909
  0
LINE
  5
A957
  8
AM_0
 10
801.25771895365756
 20
407.73960597825129
 30
0.0
 11
798.97107740981755
 21
416.27349084085381
 31
0.0
  0
LINE
  5
A958
  8
AM_0
 10
938.32876395365736
 20
400.668530978251
 30
0.0
 11
929.79491810646664
 21
402.95518262120538
 31
0.0
  0
LINE
  5
A959
  8
AM_0
 10
813.50518395365805
 20
400.668530978251
 30
0.0
 11
822.03907268522278
 21
402.95517683421849
 31
0.0
  0
LINE
  5
A95A
  8
AM_0
 10
950.57622895365762
 20
407.73960597825129
 30
0.0
 11
952.8628560020552
 21
416.27345873453208
 31
0.0
  0
ARC
  5
A95B
  8
AM_0
 10
940.91698895365789
 20
410.32780097825128
 30
0.0
 40
10.0
 50
255.0000000000056
 51
345.00000000000563
  0
ARC
  5
A95C
  8
AM_0
 10
810.91698895365789
 20
410.32780097825128
 30
0.0
 40
10.0
 50
195.00001000001549
 51
284.99999999999437
  0
ARC
  5
A95D
  8
0
 10
875.91698895365789
 20
522.91108597825109
 30
0.0
 40
131.49999999999969
 50
231.84872209507861
 51
234.1871181856402
  0
ARC
  5
A95E
  8
0
 10
875.91698895365789
 20
522.91108597825109
 30
0.0
 40
131.49999999999969
 50
245.81287911435271
 51
294.187127039735
  0
ARC
  5
A95F
  8
0
 10
875.91698895365789
 20
522.91108597825109
 30
0.0
 40
131.49999999999969
 50
305.81285790721148
 51
308.1512678186844
  0
LINE
  5
AAE3
  8
0
  6
CONTINUOUS
 62
     0
 10
432.11721645369261
 20
990.84395673595839
 30
0.0
 11
396.47760645369272
 21
989.59936147383098
 31
0.0
  0
ARC
  5
AAE4
  8
0
  6
CONTINUOUS
 62
     0
 10
431.97763645369258
 20
994.84151673595932
 30
0.0
 40
4.0
 50
272.00000000000369
 51
0.0
  0
LINE
  5
AB2F
  8
0
  6
CONTINUOUS
 62
     7
 10
734.59031936426743
 20
477.31108597825113
 30
0.0
 11
726.36064895365712
 21
477.31108597825113
 31
0.0
  0
LINE
  5
AB30
  8
0
  6
CONTINUOUS
 62
     7
 10
722.60371895365711
 20
469.25429597825132
 30
0.0
 11
718.97847895365703
 21
470.94474597825132
 31
0.0
  0
LINE
  5
AB31
  8
0
  6
CONTINUOUS
 62
     7
 10
722.60371895365711
 20
469.25428597825118
 30
0.0
 11
734.01695253796208
 21
493.73005791068488
 31
0.0
  0
LINE
  5
AB32
  8
0
  6
CONTINUOUS
 62
     7
 10
734.66016135299424
 20
475.31108597825113
 30
0.0
 11
733.28563895365664
 21
475.31108597825119
 31
0.0
  0
LINE
  5
AB33
  8
0
  6
CONTINUOUS
 62
     7
 10
718.49476895365694
 20
472.2736659782513
 30
0.0
 11
733.63258673871258
 21
504.73678341367793
 31
0.0
  0
LINE
  5
AB35
  8
0
  6
CONTINUOUS
 62
     7
 10
733.28563895365664
 20
476.31106597825129
 30
0.0
 11
733.28563895365664
 21
475.31108597825119
 31
0.0
  0
LINE
  5
AB36
  8
0
  6
CONTINUOUS
 62
     7
 10
719.33888895365703
 20
478.50024597825131
 30
0.0
 11
720.12419895365724
 21
478.13409597825142
 31
0.0
  0
ARC
  5
AB37
  8
0
  6
CONTINUOUS
 62
     7
 10
732.28560895365695
 20
476.31106597825129
 30
0.0
 40
1.0
 50
0.0
 51
90.00000299999769
  0
ARC
  5
AB38
  8
0
  6
CONTINUOUS
 62
     7
 10
719.40111895365703
 20
471.85106597825143
 30
0.0
 40
1.0
 50
154.99997999999781
 51
245.00030999999981
  0
ARC
  5
AB39
  8
0
  6
CONTINUOUS
 62
     7
 10
720.86027895365703
 20
481.7630159782513
 30
0.0
 40
3.6000000999999981
 50
183.3859699999993
 51
245.00060999999971
  0
ARC
  5
AB3A
  8
0
  6
CONTINUOUS
 62
     7
 10
737.68263895365703
 20
563.46112597825095
 30
0.0
 40
7.599999900000002
 50
124.143791208999
 51
158.71409000000031
  0
ARC
  5
AB3B
  8
0
  6
CONTINUOUS
 62
     7
 10
719.70158895365705
 20
477.22778597825112
 30
0.0
 40
1.0
 50
334.99984999999691
 51
65.000643000000352
  0
ARC
  5
AB3C
  8
0
  6
CONTINUOUS
 62
     7
 10
917.51639895365668
 20
493.398085978251
 30
0.0
 40
200.60001
 50
158.71414000000021
 51
183.38593000000321
  0
TEXT
  5
AD08
  8
0
  6
CONTINUOUS
 62
     0
 10
708.04321544536242
 20
894.78082567356967
 30
0.0
 40
15.0
  1
VX22-040EMF~VX22-050EMF
  0
ENDSEC
  0
EOF
