  0
SECTION
  2
HEADER
  9
$ACADVER
  1
AC1009
  9
$INSBASE
 10
0.0
 20
0.0
 30
0.0
  9
$EXTMIN
 10
175.5030260189601
 20
431.64725810184689
 30
-0.000000000000013
  9
$EXTMAX
 10
1233.391895502554
 20
1171.7391326805
 30
0.0000000000000023
  9
$LIMMIN
 10
0.0000005999945643
 20
-0.0000005963913736
  9
$LIMMAX
 10
1707.000000599995
 20
1109.9999994036091
  9
$ORTHOMODE
 70
     1
  9
$REGENMODE
 70
     1
  9
$FILLMODE
 70
     1
  9
$QTEXTMODE
 70
     0
  9
$MIRRTEXT
 70
     0
  9
$DRAGMODE
 70
     2
  9
$LTSCALE
 40
1.0
  9
$OSMODE
 70
   551
  9
$ATTMODE
 70
     1
  9
$TEXTSIZE
 40
2.5
  9
$TRACEWID
 40
1.0
  9
$TEXTSTYLE
  7
STANDARD
  9
$CLAYER
  8
0
  9
$CELTYPE
  6
BYLAYER
  9
$CECOLOR
 62
   256
  9
$DIMSCALE
 40
1.0
  9
$DIMASZ
 40
2.0
  9
$DIMEXO
 40
1.0
  9
$DIMDLI
 40
8.0
  9
$DIMRND
 40
0.0
  9
$DIMDLE
 40
0.0
  9
$DIMEXE
 40
1.0
  9
$DIMTP
 40
-0.025
  9
$DIMTM
 40
0.043
  9
$DIMTXT
 40
2.5
  9
$DIMCEN
 40
0.0
  9
$DIMTSZ
 40
0.0
  9
$DIMTOL
 70
     0
  9
$DIMLIM
 70
     0
  9
$DIMTIH
 70
     0
  9
$DIMTOH
 70
     0
  9
$DIMSE1
 70
     0
  9
$DIMSE2
 70
     0
  9
$DIMTAD
 70
     3
  9
$DIMZIN
 70
     8
  9
$DIMBLK
  1

  9
$DIMASO
 70
     1
  9
$DIMSHO
 70
     1
  9
$DIMPOST
  1

  9
$DIMAPOST
  1
"
  9
$DIMALT
 70
     0
  9
$DIMALTD
 70
     2
  9
$DIMALTF
 40
0.0393701
  9
$DIMLFAC
 40
1.0
  9
$DIMTOFL
 70
     1
  9
$DIMTVP
 40
0.0
  9
$DIMTIX
 70
     0
  9
$DIMSOXD
 70
     0
  9
$DIMSAH
 70
     0
  9
$DIMBLK1
  1

  9
$DIMBLK2
  1

  9
$DIMSTYLE
  2
AM_JIS
  9
$DIMCLRD
 70
     2
  9
$DIMCLRE
 70
     2
  9
$DIMCLRT
 70
     4
  9
$DIMTFAC
 40
0.71
  9
$DIMGAP
 40
1.5
  9
$LUNITS
 70
     2
  9
$LUPREC
 70
     2
  9
$SKETCHINC
 40
1.0
  9
$FILLETRAD
 40
0.0
  9
$AUNITS
 70
     0
  9
$AUPREC
 70
     0
  9
$MENU
  1
.
  9
$ELEVATION
 40
0.0
  9
$PELEVATION
 40
0.0
  9
$THICKNESS
 40
0.0
  9
$LIMCHECK
 70
     0
  9
$BLIPMODE
 70
     0
  9
$CHAMFERA
 40
3.0
  9
$CHAMFERB
 40
3.0
  9
$SKPOLY
 70
     0
  9
$TDCREATE
 40
2456829.3841110538
  9
$TDUPDATE
 40
2458540.6650633798
  9
$TDINDWG
 40
0.701838125
  9
$TDUSRTIMER
 40
0.7018377315
  9
$USRTIMER
 70
     1
  9
$ANGBASE
 50
0.0
  9
$ANGDIR
 70
     0
  9
$PDMODE
 70
     0
  9
$PDSIZE
 40
0.0
  9
$PLINEWID
 40
0.0
  9
$COORDS
 70
     1
  9
$SPLFRAME
 70
     0
  9
$SPLINETYPE
 70
     6
  9
$SPLINESEGS
 70
     8
  9
$ATTDIA
 70
     1
  9
$ATTREQ
 70
     1
  9
$HANDLING
 70
     1
  9
$HANDSEED
  5
CFA5
  9
$SURFTAB1
 70
     6
  9
$SURFTAB2
 70
     6
  9
$SURFTYPE
 70
     6
  9
$SURFU
 70
     6
  9
$SURFV
 70
     6
  9
$UCSNAME
  2

  9
$UCSORG
 10
0.0
 20
0.0
 30
0.0
  9
$UCSXDIR
 10
1.0
 20
0.0
 30
0.0
  9
$UCSYDIR
 10
0.0
 20
1.0
 30
0.0
  9
$PUCSNAME
  2

  9
$PUCSORG
 10
0.0
 20
0.0
 30
0.0
  9
$PUCSXDIR
 10
1.0
 20
0.0
 30
0.0
  9
$PUCSYDIR
 10
0.0
 20
1.0
 30
0.0
  9
$USERI1
 70
     0
  9
$USERI2
 70
     0
  9
$USERI3
 70
     0
  9
$USERI4
 70
     0
  9
$USERI5
 70
     0
  9
$USERR1
 40
0.0
  9
$USERR2
 40
0.0
  9
$USERR3
 40
0.0
  9
$USERR4
 40
0.0
  9
$USERR5
 40
0.0
  9
$WORLDVIEW
 70
     1
  9
$SHADEDGE
 70
     3
  9
$SHADEDIF
 70
    70
  9
$TILEMODE
 70
     1
  9
$MAXACTVP
 70
    64
  9
$PLIMCHECK
 70
     0
  9
$PEXTMIN
 10
1.0000000000000000E+020
 20
1.0000000000000000E+020
 30
1.0000000000000000E+020
  9
$PEXTMAX
 10
-1.0000000000000000E+020
 20
-1.0000000000000000E+020
 30
-1.0000000000000000E+020
  9
$PLIMMIN
 10
0.0
 20
0.0
  9
$PLIMMAX
 10
420.0
 20
297.0
  9
$UNITMODE
 70
     0
  9
$VISRETAIN
 70
     1
  9
$PLINEGEN
 70
     0
  9
$PSLTSCALE
 70
     1
  0
ENDSEC
  0
SECTION
  2
TABLES
  0
TABLE
  2
VPORT
 70
     1
  0
VPORT
  2
*ACTIVE
 70
     0
 10
0.0
 20
0.0
 11
1.0
 21
1.0
 12
704.44746076075694
 22
801.69319539117339
 13
0.0
 23
0.0
 14
15.0
 24
15.0
 15
60.0
 25
60.0
 16
0.0
 26
0.0
 36
1.0
 17
0.0
 27
0.0
 37
0.0
 40
745.1725968297651
 41
1.7571592210767459
 42
50.0
 43
0.0
 44
0.0
 50
0.0
 51
0.0
 71
    16
 72
  1000
 73
     1
 74
     3
 75
     0
 76
     0
 77
     0
 78
     0
  0
ENDTAB
  0
TABLE
  2
LTYPE
 70
    24
  0
LTYPE
  2
CONTINUOUS
 70
     0
  3
Solid line
 72
    65
 73
     0
 40
0.0
  0
LTYPE
  2
CENTER
 70
     0
  3
Center ____ _ ____ _ ____ _ ____ _ ____ _ ____
 72
    65
 73
     4
 40
50.799999999999997
 49
31.75
 49
-6.3499999999999979
 49
6.3499999999999979
 49
-6.3499999999999979
  0
LTYPE
  2
AM_ISO02W050
 70
     0
  3
__ __ __ __ __ __ __ __ __ __ __ __ __ __ __
 72
    65
 73
     2
 40
7.5
 49
6.0
 49
-1.5
  0
LTYPE
  2
AM_ISO08W050
 70
     0
  3
____ . ____ . ____ . ____ . ____ . ____ . ____
 72
    65
 73
     4
 40
18.0
 49
12.0
 49
-1.5
 49
3.0
 49
-1.5
  0
LTYPE
  2
AM_ISO09W050
 70
     0
  3
_____ . . _____ . . _____ . . ____ .. ____
 72
    65
 73
     6
 40
22.5
 49
12.0
 49
-1.5
 49
3.0
 49
-1.5
 49
3.0
 49
-1.5
  0
LTYPE
  2
AMCONSTR
 70
     0
  3
_______________________
 72
    65
 73
     2
 40
9999.0
 49
9999.0
 49
0.0
  0
LTYPE
  2
AM_ISO08W050X2
 70
     0
  3
__ . __ . __ . __ . __ . __
 72
    65
 73
     4
 40
9.0
 49
6.0
 49
-0.75
 49
1.5
 49
-0.75
  0
LTYPE
  2
AM_ISO02W050X2
 70
     0
  3
 _ _ _ _ _ _ _ _ _ _ _ _
 72
    65
 73
     2
 40
3.75
 49
3.0
 49
-0.75
  0
LTYPE
  2
AMZIGZAG
 70
     0
  3
/\/-/\/-/\/-/\/-/\/-/\/
 72
    65
 73
     2
 40
11.0001
 49
0.0001
 49
-11.0
  0
LTYPE
  2
ACANSTGBM
 70
     0
  3
__ . . __ . .
 72
    65
 73
     6
 40
9.0
 49
4.0
 49
-1.0
 49
1.0
 49
-1.0
 49
1.0
 49
-1.0
  0
LTYPE
  2
ACANSTGLM
 70
     0
  3
_ _ _ _ _
 72
    65
 73
     2
 40
3.0
 49
2.0
 49
-1.0
  0
LTYPE
  2
ACISOWELD
 70
     0
  3
_ _ _ _ _
 72
    65
 73
     2
 40
2.0
 49
2.0
 49
-1.0
  0
LTYPE
  2
ACISOTGB
 70
     0
  3
__ . . __ . .
 72
    65
 73
     6
 40
9.0
 49
4.0
 49
-1.0
 49
1.0
 49
-1.0
 49
1.0
 49
-1.0
  0
LTYPE
  2
ACISOTGL
 70
     0
  3
_ _ _ _ _
 72
    65
 73
     2
 40
3.0
 49
2.0
 49
-1.0
  0
LTYPE
  2
ACJISTGB
 70
     0
  3
__ . . __ . .
 72
    65
 73
     6
 40
9.0
 49
4.0
 49
-1.0
 49
1.0
 49
-1.0
 49
1.0
 49
-1.0
  0
LTYPE
  2
ACJISTGL
 70
     0
  3
_ _ _ _ _
 72
    65
 73
     2
 40
3.0
 49
2.0
 49
-1.0
  0
LTYPE
  2
HIDDEN
 70
     0
  3
Hidden __ __ __ __ __ __ __ __ __ __ __ __ __ _
 72
    65
 73
     2
 40
9.5249999999999968
 49
6.3499999999999979
 49
-3.174999999999998
  0
LTYPE
  2
PHANTOM2
 70
     0
  3
Phantom (.5x) ___ _ _ ___ _ _ ___ _ _ ___ _ _
 72
    65
 73
     6
 40
31.75
 49
15.875
 49
-3.174999999999998
 49
3.174999999999998
 49
-3.174999999999998
 49
3.174999999999998
 49
-3.174999999999998
  0
LTYPE
  2
CENTER2
 70
     0
  3
Center (.5x) ___ _ ___ _ ___ _ ___ _ ___ _ ___
 72
    65
 73
     4
 40
1.125
 49
0.75
 49
-0.125
 49
0.125
 49
-0.125
  0
LTYPE
  2
HIDDEN2
 70
     0
  3
Hidden (.5x) _ _ _ _ _ _ _ _ _ _ _ _ _ _ _ _ _
 72
    65
 73
     2
 40
0.1875
 49
0.125
 49
-0.0625
  0
LTYPE
  2
AMZIGZAG2
 70
     0
  3
/\/-/\/-/\/-/\/-/\/-/\/
 72
    65
 73
     2
 40
0.4401
 49
0.0001
 49
-0.4400000000000003
  0
LTYPE
  2
ACANSTGB
 70
     0
  3
__ . . __ . .
 72
    65
 73
     6
 40
0.35433070866
 49
0.15748031496
 49
-0.03937007874
 49
0.03937007874
 49
-0.03937007874
 49
0.03937007874
 49
-0.03937007874
  0
LTYPE
  2
ACANSTGL
 70
     0
  3
_ _ _ _ _
 72
    65
 73
     2
 40
0.11811023622
 49
0.07874015748
 49
-0.03937007874
  0
ENDTAB
  0
TABLE
  2
LAYER
 70
     5
  0
LAYER
  2
0
 70
     0
 62
     7
  6
CONTINUOUS
  0
LAYER
  2
DEFPOINTS
 70
     0
 62
     7
  6
CONTINUOUS
  0
LAYER
  2
AM_0
 70
     0
 62
     7
  6
CONTINUOUS
  0
LAYER
  2
AM_5
 70
     0
 62
     2
  6
CONTINUOUS
  0
LAYER
  2
AM_CL
 70
     0
 62
     1
  6
AMCONSTR
  0
ENDTAB
  0
TABLE
  2
STYLE
 70
     8
  0
STYLE
  2
STANDARD
 70
     0
 40
0.0
 41
0.7400000000000003
 50
0.0
 71
     0
 42
2.5
  3
txt.shx
  4
bigfont.shx
  0
STYLE
  2

 70
     1
 40
0.0
 41
1.0
 50
0.0
 71
     0
 42
2.5
  3
ltypeshp.shx
  4

  0
STYLE
  2
ACANSTS
 70
     0
 40
1.0
 41
1.0
 50
0.0
 71
     0
 42
2.5
  3
romans.shx
  4
bigfont.shx
  0
STYLE
  2
ACANSGDT
 70
     0
 40
0.0
 41
1.0
 50
0.0
 71
     0
 42
2.5
  3
amgdtans.shx
  4

  0
STYLE
  2
ACISOTS
 70
     0
 40
1.0
 41
1.0
 50
0.0
 71
     0
 42
2.5
  3
isocp.shx
  4
extfont.shx
  0
STYLE
  2
ACISOGDT
 70
     0
 40
0.0
 41
1.0
 50
0.0
 71
     0
 42
2.5
  3
amgdt.shx
  4

  0
STYLE
  2
ACJISGDT
 70
     0
 40
0.0
 41
1.0
 50
0.0
 71
     0
 42
2.5
  3
amgdt.shx
  4

  0
STYLE
  2
ACJISTS
 70
     0
 40
1.0
 41
1.0
 50
0.0
 71
     0
 42
2.5
  3
isocp.shx
  4
extfont.shx
  0
ENDTAB
  0
TABLE
  2
VIEW
 70
     6
  0
VIEW
  2
AM_VIEW1
 70
     0
 40
555.00000000000011
 10
599.14035147718755
 20
832.49999940360885
 41
1198.280701754386
 11
0.0
 21
0.0
 31
1.0
 12
0.0
 22
0.0
 32
0.0
 42
50.0
 43
0.0
 44
0.0
 50
0.0
 71
    16
  0
VIEW
  2
AM_VIEW2
 70
     0
 40
555.00000000000011
 10
1107.8596497228009
 20
832.49999940360885
 41
1198.280701754386
 11
0.0
 21
0.0
 31
1.0
 12
0.0
 22
0.0
 32
0.0
 42
50.0
 43
0.0
 44
0.0
 50
0.0
 71
    16
  0
VIEW
  2
AM_VIEW3
 70
     0
 40
555.00000000000011
 10
599.14035147718755
 20
277.49999940360868
 41
1198.280701754386
 11
0.0
 21
0.0
 31
1.0
 12
0.0
 22
0.0
 32
0.0
 42
50.0
 43
0.0
 44
0.0
 50
0.0
 71
    16
  0
VIEW
  2
AM_VIEW4
 70
     0
 40
555.00000000000011
 10
1107.8596497228009
 20
277.49999940360868
 41
1198.280701754386
 11
0.0
 21
0.0
 31
1.0
 12
0.0
 22
0.0
 32
0.0
 42
50.0
 43
0.0
 44
0.0
 50
0.0
 71
    16
  0
VIEW
  2
AM_VIEW5
 70
     0
 40
555.00000000000011
 10
853.50000059999445
 20
554.99999940360874
 41
1198.280701754386
 11
0.0
 21
0.0
 31
1.0
 12
0.0
 22
0.0
 32
0.0
 42
50.0
 43
0.0
 44
0.0
 50
0.0
 71
    16
  0
VIEW
  2
AM_VIEW6
 70
     0
 40
1109.9889000000001
 10
853.50000059999445
 20
554.99999940360874
 41
2396.5374378947372
 11
0.0
 21
0.0
 31
1.0
 12
0.0
 22
0.0
 32
0.0
 42
50.0
 43
0.0
 44
0.0
 50
0.0
 71
    16
  0
ENDTAB
  0
TABLE
  2
UCS
 70
     0
  0
ENDTAB
  0
TABLE
  2
APPID
 70
   158
  0
APPID
  2
ACAD
 70
     0
  0
APPID
  2
ACADANNOTATIVE
 70
     0
  0
APPID
  2
ACAD_MLEADERVER
 70
     0
  0
APPID
  2
MCAD_NO_VIS
 70
     0
  0
APPID
  2
ACAD_TEMP_GRAPHIC
 70
     0
  0
APPID
  2
AD_DRAW
 70
     0
  0
APPID
  2
ACATTRIBSERVICES
 70
     0
  0
APPID
  2
DESIGNERASSEMBLIES
 70
     0
  0
APPID
  2
ACADM_DIM_EDIT
 70
     0
  0
APPID
  2
AMDT_DM_ADJ
 70
     0
  0
APPID
  2
GENIUS_GENDIMSH_14
 70
     0
  0
APPID
  2
GEVID1057795304
 70
     0
  0
APPID
  2
GEVDC
 70
     0
  0
APPID
  2
GEVCON
 70
     0
  0
APPID
  2
GENIUS_GENBH_13
 70
     0
  0
APPID
  2
GENIUS_GENOENT_13
 70
     0
  0
APPID
  2
GENIUS_GENOBJ-NBEHI-BHF_13
 70
     0
  0
APPID
  2
GENIUS_GENOLIS_13
 70
     0
  0
APPID
  2
GENIUS_GENODEF_13
 70
     0
  0
APPID
  2
GENIUS_GENOREF_13
 70
     0
  0
APPID
  2
GENIUS_GENOBJ-NBEHI-BHB_13
 70
     0
  0
APPID
  2
GENIUS_GENOBJ-F-SCPASSM_13
 70
     0
  0
APPID
  2
GENIUS_GENDTOL_13
 70
     0
  0
APPID
  2
GENIUS_GENTRA_14
 70
     0
  0
APPID
  2
ASURF_PCURVE_APPNAME
 70
     0
  0
APPID
  2
GENIUS_GENCFG_13
 70
     0
  0
APPID
  2
GENIUS_GE3CFG0_13
 70
     0
  0
APPID
  2
GENIUS_GENCFG0_13
 70
     0
  0
APPID
  2
GENIUS_GENCFG1_13
 70
     0
  0
APPID
  2
GENIUS_GENCFG2_13
 70
     0
  0
APPID
  2
GENIUS_GENCFG3_13
 70
     0
  0
APPID
  2
GENIUS_GENCFG4_13
 70
     0
  0
APPID
  2
GENIUS_GEVCFG0_13
 70
     0
  0
APPID
  2
GENIUS_GENOBJ-N-TIT_13
 70
     0
  0
APPID
  2
GENIUS_GENTITLE_13
 70
     0
  0
APPID
  2
GENIUS_GENSCREG_15
 70
     0
  0
APPID
  2
GENIUS_GENOBJ-N-SDF_13
 70
     0
  0
APPID
  2
GENIUS_GENFIL_13
 70
     0
  0
APPID
  2
GENIUS_GENOBJ-N-CHA_13
 70
     0
  0
APPID
  2
GENIUS_GEFSH_13
 70
     0
  0
APPID
  2
GENIUS_GENOBJ-F-SHS_13
 70
     0
  0
APPID
  2
GENIUS_GENOBJ-N-CEN_13
 70
     0
  0
APPID
  2
GENIUS_GENREC_14
 70
     0
  0
APPID
  2
GENIUS_GENOBJ-N-REC_13
 70
     0
  0
APPID
  2
GENIUS_GENOBJ-N-HTC_13
 70
     0
  0
APPID
  2
GENIUS_GENHATCH_13
 70
     0
  0
APPID
  2
ACAD_PSEXT
 70
     0
  0
APPID
  2
ACAD_EXEMPT_FROM_CAD_STANDARDS
 70
     0
  0
APPID
  2
ACAECLAYERSTANDARD
 70
     0
  0
APPID
  2
GENIUS_GENCEN_19
 70
     0
  0
APPID
  2
ACAD_DSTYLE_DIMINSPECT
 70
     0
  0
APPID
  2
ACAD_DSTYLE_DIMANGULAR_EXT
 70
     0
  0
APPID
  2
ACADANNOPO
 70
     0
  0
APPID
  2
ACAD_NAV_VCDISPLAY
 70
     0
  0
APPID
  2
GENIUS_GENOBJ-N-FIL_13
 70
     0
  0
APPID
  2
ACAD_DSTYLE_DIMBREAK
 70
     0
  0
APPID
  2
ACAD_DSTYLE_DIMJAG
 70
     0
  0
APPID
  2
ACAD_DSTYLE_DIMRADIAL_EXTENSION
 70
     0
  0
APPID
  2
GENIUS_GENHINW_13
 70
     0
  0
APPID
  2
GENIUS_FIRSTVISTXT_14
 70
     0
  0
APPID
  2
GENIUS_GENOBJ-N-LEADER_13
 70
     0
  0
APPID
  2
DCO15
 70
     0
  0
APPID
  2
GENIUS_DUMCFG0_13
 70
     0
  0
APPID
  2
ACAD_DSTYLE_DIMTEXT_FILL
 70
     0
  0
APPID
  2
AMG_2DHIDE
 70
     0
  0
APPID
  2
GENIUS_GEFSHEP_13
 70
     0
  0
APPID
  2
GENIUS_GENOBJ-F-SHE_13
 70
     0
  0
APPID
  2
GENIUS_GEFSHE_13
 70
     0
  0
APPID
  2
ACAD_DIMASSOC_DIMLFAC
 70
     0
  0
APPID
  2
ACAD_DIMASSOC_CALC_DIMLFAC
 70
     0
  0
APPID
  2
ACAD_DIMASSOC_OVERRIDDEN_D
 70
     0
  0
APPID
  2
GENIUS_GENOBJ-F-SHSV_13
 70
     0
  0
APPID
  2
GENIUS_GEFWELD_13
 70
     0
  0
APPID
  2
GENIUS_GENOBJ-N-CRS_13
 70
     0
  0
APPID
  2
GENIUS_GENOBJ-N-RSBK_13
 70
     0
  0
APPID
  2
GENIUS_GENOBJ-N-LIB_13
 70
     0
  0
APPID
  2
GENIUS_GENSCALE_13
 70
     0
  0
APPID
  2
GENIUS_GENDREL_13
 70
     0
  0
APPID
  2
GEVPT
 70
     0
  0
APPID
  2
GEVIT
 70
     0
  0
APPID
  2
VCC
 70
     0
  0
APPID
  2
GENBH
 70
     0
  0
APPID
  2
GEVMK
 70
     0
  0
APPID
  2
GENIUS_GENOBJ-F-DESC_13
 70
     0
  0
APPID
  2
GENIUS_GEFDESC_14
 70
     0
  0
APPID
  2
GENIUS_GENOBJ-F-FEAT_13
 70
     0
  0
APPID
  2
GENIUS_GEFFEAT_14
 70
     0
  0
APPID
  2
GENIUS_GEFPARTINS_13
 70
     0
  0
APPID
  2
GENIUS_GENSCREG_13
 70
     0
  0
APPID
  2
GENIUS_GEFSHP_13
 70
     0
  0
APPID
  2
GEVID1025574798
 70
     0
  0
APPID
  2
GEVID1025574769
 70
     0
  0
APPID
  2
GEVID1025757451
 70
     0
  0
APPID
  2
GEVID1240528327
 70
     0
  0
APPID
  2
AMG_2DSTRUCT_BTR
 70
     0
  0
APPID
  2
ACADM_2DVIEW_IGN_NOTIFY
 70
     0
  0
APPID
  2
GEVID1240528328
 70
     0
  0
APPID
  2
GEVID1240528329
 70
     0
  0
APPID
  2
GEVRADREF
 70
     0
  0
APPID
  2
GEVID1240528330
 70
     0
  0
APPID
  2
GEVID1240528331
 70
     0
  0
APPID
  2
GEVID1240528332
 70
     0
  0
APPID
  2
GEVID1240791080
 70
     0
  0
APPID
  2
GEVID1240791081
 70
     0
  0
APPID
  2
GEVID1240791082
 70
     0
  0
APPID
  2
GEVID1240791083
 70
     0
  0
APPID
  2
GEVID1240791084
 70
     0
  0
APPID
  2
GEVID1240791085
 70
     0
  0
APPID
  2
GEVID1240791086
 70
     0
  0
APPID
  2
GEVID1240791087
 70
     0
  0
APPID
  2
GEVID1240791088
 70
     0
  0
APPID
  2
GEVID1240791089
 70
     0
  0
APPID
  2
GEVID1240791090
 70
     0
  0
APPID
  2
GEVID1240791091
 70
     0
  0
APPID
  2
GEVID1240791092
 70
     0
  0
APPID
  2
GEVID1240791093
 70
     0
  0
APPID
  2
GEVID1240791094
 70
     0
  0
APPID
  2
GEVID1240791095
 70
     0
  0
APPID
  2
GEVID1240791096
 70
     0
  0
APPID
  2
GEVID1240791097
 70
     0
  0
APPID
  2
GEVID1240791098
 70
     0
  0
APPID
  2
GEVID1240791099
 70
     0
  0
APPID
  2
GEVID1240791100
 70
     0
  0
APPID
  2
GEVID1240791101
 70
     0
  0
APPID
  2
GEVID1240791102
 70
     0
  0
APPID
  2
GEVID1240791103
 70
     0
  0
APPID
  2
GEVID1240791104
 70
     0
  0
APPID
  2
GEVID1240791105
 70
     0
  0
APPID
  2
GEVID1240875381
 70
     0
  0
APPID
  2
GEVID1240875382
 70
     0
  0
APPID
  2
GEVID1240875383
 70
     0
  0
APPID
  2
GEVID1240875384
 70
     0
  0
APPID
  2
GEVID1240875385
 70
     0
  0
APPID
  2
GEVID1240875386
 70
     0
  0
APPID
  2
GEVID1240875387
 70
     0
  0
APPID
  2
GEVID1240875388
 70
     0
  0
APPID
  2
GEVID1240875389
 70
     0
  0
APPID
  2
GEVID1240875390
 70
     0
  0
APPID
  2
GEVID1240875391
 70
     0
  0
APPID
  2
GEVID1240875392
 70
     0
  0
APPID
  2
GEVID1240875393
 70
     0
  0
APPID
  2
GEVID1240875394
 70
     0
  0
APPID
  2
GEVID1240875395
 70
     0
  0
APPID
  2
GEVID1240875396
 70
     0
  0
APPID
  2
GEVID1240875397
 70
     0
  0
APPID
  2
GEVID1240875398
 70
     0
  0
APPID
  2
GEVID1240875399
 70
     0
  0
APPID
  2
GEVID1240908996
 70
     0
  0
APPID
  2
GEVID1240908997
 70
     0
  0
APPID
  2
GEVID1240908998
 70
     0
  0
APPID
  2
GEVID1240908999
 70
     0
  0
APPID
  2
GEVID1240909000
 70
     0
  0
APPID
  2
GENIUS_GENOBJ-N-ZOO_13
 70
     0
  0
APPID
  2
GENIUS_GENZOO_17
 70
     0
  0
APPID
  2
GENIUS_GE3SECT_13
 70
     0
  0
APPID
  2
GEV_VCCNULL_SWITCH_OFF
 70
     0
  0
APPID
  2
ACAD_DSTYLE_DIMTALN
 70
     0
  0
APPID
  2
CONTENTBLOCKDESCRIPTION
 70
     0
  0
ENDTAB
  0
TABLE
  2
DIMSTYLE
 70
    22
  0
DIMSTYLE
  2
AM_ANSI
 70
     0
  3

  4
"
  5

  6

  7

 40
1.0
 41
2.5
 42
1.0
 43
10.0
 44
1.0
 45
0.0
 46
0.0
 47
0.1
 48
0.1
140
3.5
141
0.0
142
0.0
143
0.0393701
144
1.0
145
0.0
146
0.71
147
1.5
 71
     0
 72
     0
 73
     1
 74
     1
 75
     0
 76
     0
 77
     0
 78
     8
170
     0
171
     2
172
     0
173
     0
174
     0
175
     0
176
     2
177
     2
178
     4
  0
DIMSTYLE
  2
AM_ANSI$3
 70
     0
  3

  4
"
  5

  6

  7

 40
1.0
 41
2.5
 42
1.0
 43
10.0
 44
1.0
 45
0.0
 46
0.0
 47
0.1
 48
0.1
140
3.5
141
0.0
142
0.0
143
0.0393701
144
1.0
145
0.0
146
0.71
147
1.5
 71
     0
 72
     0
 73
     1
 74
     1
 75
     0
 76
     0
 77
     0
 78
     8
170
     0
171
     2
172
     0
173
     0
174
     0
175
     0
176
     2
177
     2
178
     4
  0
DIMSTYLE
  2
AM_ANSI$4
 70
     0
  3

  4
"
  5

  6

  7

 40
1.0
 41
2.5
 42
1.0
 43
10.0
 44
1.0
 45
0.0
 46
0.0
 47
0.1
 48
0.1
140
3.5
141
0.0
142
0.0
143
0.0393701
144
1.0
145
0.0
146
0.71
147
1.5
 71
     0
 72
     0
 73
     1
 74
     1
 75
     0
 76
     0
 77
     0
 78
     8
170
     0
171
     2
172
     0
173
     0
174
     0
175
     0
176
     2
177
     2
178
     4
  0
DIMSTYLE
  2
AM_ANSI$7
 70
     0
  3

  4
"
  5

  6

  7

 40
1.0
 41
2.5
 42
1.0
 43
10.0
 44
1.0
 45
0.0
 46
0.0
 47
0.1
 48
0.1
140
5.0
141
0.0
142
0.0
143
0.0393701
144
1.0
145
0.0
146
0.71
147
1.5
 71
     0
 72
     0
 73
     1
 74
     1
 75
     0
 76
     0
 77
     0
 78
     8
170
     0
171
     2
172
     0
173
     0
174
     0
175
     0
176
     2
177
     2
178
     4
  0
DIMSTYLE
  2
AM_ANSI$SF
 70
     0
  3

  4
"
  5

  6

  7

 40
1.0
 41
2.5
 42
1.0
 43
10.0
 44
1.0
 45
0.0
 46
0.0
 47
0.1
 48
0.1
140
3.5
141
0.0
142
0.0
143
0.0393701
144
1.0
145
0.0
146
0.71
147
1.5
 71
     0
 72
     0
 73
     1
 74
     1
 75
     1
 76
     1
 77
     0
 78
     8
170
     0
171
     2
172
     0
173
     0
174
     0
175
     0
176
     2
177
     2
178
     4
  0
DIMSTYLE
  2
AM_ANSI$SH
 70
     0
  3

  4
"
  5

  6
GENAXEH
  7

 40
1.0
 41
2.5
 42
1.0
 43
10.0
 44
1.0
 45
0.0
 46
0.0
 47
0.1
 48
0.1
140
3.5
141
0.0
142
0.0
143
0.0393701
144
1.0
145
0.0
146
0.71
147
1.5
 71
     0
 72
     0
 73
     1
 74
     1
 75
     1
 76
     1
 77
     0
 78
     8
170
     0
171
     2
172
     0
173
     1
174
     0
175
     0
176
     2
177
     2
178
     4
  0
DIMSTYLE
  2
AM_ISO
 70
     0
  3

  4
"
  5

  6

  7

 40
1.0
 41
2.5
 42
1.0
 43
10.0
 44
1.0
 45
0.0
 46
0.0
 47
0.1
 48
0.1
140
3.5
141
0.0
142
0.0
143
0.0393701
144
1.0
145
0.0
146
0.71
147
1.5
 71
     0
 72
     0
 73
     0
 74
     0
 75
     0
 76
     0
 77
     1
 78
     8
170
     0
171
     2
172
     1
173
     0
174
     0
175
     0
176
   256
177
   256
178
     2
  0
DIMSTYLE
  2
AM_ISO$3
 70
     0
  3

  4
"
  5

  6

  7

 40
1.0
 41
2.5
 42
1.0
 43
10.0
 44
1.0
 45
0.0
 46
0.0
 47
0.1
 48
0.1
140
3.5
141
0.0
142
0.0
143
0.0393701
144
1.0
145
0.0
146
0.71
147
1.5
 71
     0
 72
     0
 73
     0
 74
     1
 75
     0
 76
     0
 77
     1
 78
     8
170
     0
171
     2
172
     0
173
     0
174
     0
175
     0
176
   256
177
   256
178
     2
  0
DIMSTYLE
  2
AM_ISO$4
 70
     0
  3

  4
"
  5

  6

  7

 40
1.0
 41
2.5
 42
1.0
 43
10.0
 44
1.0
 45
0.0
 46
0.0
 47
0.1
 48
0.1
140
3.5
141
0.0
142
0.0
143
0.0393701
144
1.0
145
0.0
146
0.71
147
1.5
 71
     0
 72
     0
 73
     0
 74
     1
 75
     0
 76
     0
 77
     1
 78
     8
170
     0
171
     2
172
     0
173
     0
174
     0
175
     0
176
   256
177
   256
178
     2
  0
DIMSTYLE
  2
AM_ISO$6
 70
     0
  3

  4
"
  5

  6

  7

 40
1.0
 41
2.5
 42
1.0
 43
10.0
 44
1.0
 45
0.0
 46
0.0
 47
0.1
 48
0.1
140
3.5
141
0.0
142
0.0
143
0.0393701
144
1.0
145
0.0
146
0.71
147
1.5
 71
     0
 72
     0
 73
     0
 74
     0
 75
     0
 76
     0
 77
     0
 78
     8
170
     0
171
     2
172
     1
173
     0
174
     0
175
     0
176
   256
177
   256
178
     2
  0
DIMSTYLE
  2
AM_ISO$7
 70
     0
  3

  4
"
  5

  6

  7

 40
1.0
 41
2.5
 42
1.0
 43
10.0
 44
1.0
 45
0.0
 46
0.0
 47
0.1
 48
0.1
140
5.0
141
0.0
142
0.0
143
0.0393701
144
1.0
145
0.0
146
0.71
147
1.5
 71
     0
 72
     0
 73
     0
 74
     0
 75
     0
 76
     0
 77
     1
 78
     8
170
     0
171
     2
172
     1
173
     0
174
     0
175
     0
176
   256
177
   256
178
     2
  0
DIMSTYLE
  2
AM_ISO$SF
 70
     0
  3

  4
"
  5

  6

  7

 40
1.0
 41
2.5
 42
1.0
 43
10.0
 44
1.0
 45
0.0
 46
0.0
 47
0.1
 48
0.1
140
3.5
141
0.0
142
0.0
143
0.0393701
144
1.0
145
0.0
146
0.71
147
1.5
 71
     0
 72
     0
 73
     0
 74
     0
 75
     1
 76
     1
 77
     1
 78
     8
170
     0
171
     2
172
     1
173
     0
174
     0
175
     0
176
   256
177
   256
178
     2
  0
DIMSTYLE
  2
AM_ISO$SH
 70
     0
  3

  4
"
  5

  6
GENAXEH
  7

 40
1.0
 41
2.5
 42
1.0
 43
10.0
 44
1.0
 45
0.0
 46
0.0
 47
0.1
 48
0.1
140
3.5
141
0.0
142
0.0
143
0.0393701
144
2.0
145
0.0
146
0.71
147
1.5
 71
     0
 72
     0
 73
     0
 74
     0
 75
     1
 76
     1
 77
     1
 78
     8
170
     0
171
     2
172
     1
173
     1
174
     0
175
     0
176
   256
177
   256
178
     2
  0
DIMSTYLE
  2
AM_JIS
 70
     0
  3

  4
"
  5

  6

  7

 40
1.0
 41
2.0
 42
1.0
 43
8.0
 44
1.0
 45
0.0
 46
0.0
 47
0.1
 48
0.1
140
2.5
141
0.0
142
0.0
143
0.0393701
144
1.0
145
0.0
146
0.71
147
1.5
 71
     0
 72
     0
 73
     0
 74
     0
 75
     0
 76
     0
 77
     3
 78
     8
170
     0
171
     2
172
     1
173
     0
174
     0
175
     0
176
     2
177
     2
178
     4
  0
DIMSTYLE
  2
AM_JIS$3
 70
     0
  3

  4
"
  5

  6

  7

 40
1.0
 41
2.0
 42
1.0
 43
10.0
 44
1.0
 45
0.0
 46
0.0
 47
0.1
 48
0.1
140
2.5
141
0.0
142
0.0
143
0.0393701
144
1.0
145
0.0
146
0.71
147
1.5
 71
     0
 72
     0
 73
     0
 74
     1
 75
     0
 76
     0
 77
     3
 78
     8
170
     0
171
     2
172
     0
173
     0
174
     0
175
     0
176
     2
177
     2
178
     4
  0
DIMSTYLE
  2
AM_JIS$4
 70
     0
  3

  4
"
  5

  6

  7

 40
1.0
 41
2.0
 42
1.0
 43
10.0
 44
1.0
 45
0.0
 46
0.0
 47
0.1
 48
0.1
140
2.5
141
0.0
142
0.0
143
0.0393701
144
1.0
145
0.0
146
0.71
147
1.5
 71
     0
 72
     0
 73
     0
 74
     0
 75
     0
 76
     0
 77
     3
 78
     8
170
     0
171
     2
172
     0
173
     0
174
     0
175
     0
176
     2
177
     2
178
     4
  0
DIMSTYLE
  2
AM_JIS$6
 70
     0
  3

  4
"
  5

  6

  7

 40
1.0
 41
2.0
 42
1.0
 43
10.0
 44
1.0
 45
0.0
 46
0.0
 47
0.1
 48
0.1
140
2.5
141
0.0
142
0.0
143
0.0393701
144
1.0
145
0.0
146
0.71
147
1.5
 71
     0
 72
     0
 73
     0
 74
     0
 75
     0
 76
     0
 77
     0
 78
     8
170
     0
171
     2
172
     1
173
     0
174
     0
175
     0
176
     2
177
     2
178
     4
  0
DIMSTYLE
  2
AM_JIS$7
 70
     0
  3

  4
"
  5

  6
OPEN30
  7
OPEN30
 40
1.0
 41
2.0
 42
1.0
 43
10.0
 44
1.0
 45
0.0
 46
0.0
 47
0.1
 48
0.1
140
2.5
141
0.0
142
0.0
143
0.0393701
144
1.0
145
0.0
146
0.71
147
1.5
 71
     0
 72
     0
 73
     0
 74
     0
 75
     0
 76
     0
 77
     3
 78
     8
170
     0
171
     2
172
     1
173
     0
174
     0
175
     0
176
     2
177
     2
178
     4
  0
DIMSTYLE
  2
AM_JIS$SF
 70
     0
  3

  4
"
  5

  6

  7

 40
1.0
 41
2.0
 42
1.0
 43
10.0
 44
1.0
 45
0.0
 46
0.0
 47
0.1
 48
0.1
140
2.5
141
0.0
142
0.0
143
0.0393701
144
1.0
145
0.0
146
0.71
147
1.5
 71
     0
 72
     0
 73
     0
 74
     0
 75
     1
 76
     1
 77
     3
 78
     8
170
     0
171
     2
172
     1
173
     0
174
     0
175
     0
176
     2
177
     2
178
     4
  0
DIMSTYLE
  2
AM_JIS$SH
 70
     0
  3

  4
"
  5

  6
GENAXEH
  7

 40
1.0
 41
2.0
 42
1.0
 43
10.0
 44
1.0
 45
0.0
 46
0.0
 47
0.1
 48
0.1
140
2.5
141
0.0
142
0.0
143
0.0393701
144
2.0
145
0.0
146
0.71
147
1.5
 71
     0
 72
     0
 73
     0
 74
     0
 75
     1
 76
     1
 77
     3
 78
     8
170
     0
171
     2
172
     1
173
     1
174
     0
175
     0
176
     2
177
     2
178
     4
  0
DIMSTYLE
  2
AM_JIS$0
 70
     0
  3

  4
"
  5

  6

  7

 40
1.0
 41
2.0
 42
1.0
 43
8.0
 44
1.0
 45
0.0
 46
0.0
 47
0.1
 48
0.1
140
2.5
141
0.0
142
0.0
143
0.0393701
144
1.0
145
0.0
146
0.71
147
1.5
 71
     0
 72
     0
 73
     0
 74
     0
 75
     0
 76
     0
 77
     3
 78
     8
170
     0
171
     2
172
     1
173
     0
174
     0
175
     0
176
     2
177
     2
178
     4
  0
DIMSTYLE
  2
STANDARD
 70
     0
  3

  4

  5

  6

  7

 40
1.0
 41
0.18
 42
0.0625
 43
0.38
 44
0.18
 45
0.0
 46
0.0
 47
0.0
 48
0.0
140
0.18
141
0.09
142
0.0
143
25.399999999999999
144
1.0
145
0.0
146
1.0
147
0.09
 71
     0
 72
     0
 73
     1
 74
     1
 75
     0
 76
     0
 77
     0
 78
     0
170
     0
171
     2
172
     0
173
     0
174
     0
175
     0
176
     0
177
     0
178
     0
  0
ENDTAB
  0
ENDSEC
  0
SECTION
  2
BLOCKS
  0
BLOCK
  8
0
  2
$MODEL_SPACE
 70
     0
 10
0.0
 20
0.0
 30
0.0
  3
$MODEL_SPACE
  1

  0
ENDBLK
  5
77
  8
0
  0
BLOCK
 67
     1
  8
0
  2
$PAPER_SPACE
 70
     0
 10
0.0
 20
0.0
 30
0.0
  3
$PAPER_SPACE
  1

  0
ENDBLK
  5
73
 67
     1
  8
0
  0
BLOCK
  8
0
  2
GENAXEH
 70
     0
 10
0.0
 20
0.0
 30
0.0
  3
GENAXEH
  1

  0
LINE
  5
CDE5
  8
0
 10
-1.0
 20
0.0
 30
0.0
 11
1.0
 21
0.0
 31
0.0
  0
ENDBLK
  5
CDE6
  8
0
  0
BLOCK
  8
0
  2
_OPEN30
 70
     0
 10
0.0
 20
0.0
 30
0.0
  3
_OPEN30
  1

  0
LINE
  5
CE2C
  8
0
  6
BYBLOCK
 62
     0
 10
-1.0
 20
0.26794919
 30
0.0
 11
0.0
 21
0.0
 31
0.0
  0
LINE
  5
CE2D
  8
0
  6
BYBLOCK
 62
     0
 10
0.0
 20
0.0
 30
0.0
 11
-1.0
 21
-0.26794919
 31
0.0
  0
LINE
  5
CE2E
  8
0
  6
BYBLOCK
 62
     0
 10
0.0
 20
0.0
 30
0.0
 11
-1.0
 21
0.0
 31
0.0
  0
ENDBLK
  5
CE2F
  8
0
  0
BLOCK
  8
0
  2
_ACMFILLEDHALF
 70
     0
 10
0.0
 20
0.0
 30
0.0
  3
_ACMFILLEDHALF
  1

  0
TRACE
  5
CF06
  8
0
  6
CONTINUOUS
 62
     0
 10
-0.8
 20
0.0
 30
0.0
 11
-1.0
 21
0.166666666
 31
0.0
 12
0.0
 22
0.0
 32
0.0
 13
0.0
 23
0.0
 33
0.0
  0
LINE
  5
CF07
  8
0
  6
CONTINUOUS
 62
     0
 10
-1.0
 20
0.0
 30
0.0
 11
-0.8
 21
0.0
 31
0.0
  0
ENDBLK
  5
CF08
  8
0
  0
BLOCK
  8
0
  2
*U7
 70
     1
 10
0.0
 20
0.0
 30
0.0
  3
*U7
  1

  0
TEXT
  5
CFA2
  8
0
 62
     0
 10
5.1211371559201648
 20
5.9826223594979657
 30
0.0
 40
15.0
  1
ＶＸ０８－００３ＥＭ～ＶＸ０８－０３０ＥＭ
 41
0.7400000000000003
  0
ENDBLK
  5
CFA4
  8
0
  0
ENDSEC
  0
SECTION
  2
ENTITIES
  0
LINE
  5
9255
  8
0
 62
     0
 10
785.2971567378886
 20
661.79308882777104
 30
0.0
 11
785.2971567378886
 21
602.79308882777104
 31
0.0
  0
LINE
  5
928C
  8
0
 62
     0
 10
481.7971567378894
 20
670.29308382777072
 30
0.0
 11
495.47160673788721
 21
670.77061882777082
 31
0.0
  0
LINE
  5
9292
  8
0
 62
     0
 10
500.29715673788672
 20
696.9927738277712
 30
0.0
 11
500.29715673788672
 21
486.0805288277711
 31
0.0
  0
LINE
  5
9293
  8
0
 62
     0
 10
500.29715673788672
 20
486.0805288277711
 30
0.0
 11
500.29715673788672
 21
476.22078882777072
 31
0.0
  0
LINE
  5
9294
  8
0
 62
     0
 10
481.79715673788581
 20
500.29308382777077
 30
0.0
 11
495.4717067378873
 21
499.81557882777082
 31
0.0
  0
ARC
  5
92DE
  8
0
 62
     0
 10
495.29715673788837
 20
494.81859882777093
 30
0.0
 40
5.0
 50
0.0
 51
87.999999999996362
  0
ARC
  5
92E5
  8
0
 62
     0
 10
495.29715673788837
 20
675.76756882777113
 30
0.0
 40
5.0
 50
272.00000000000369
 51
0.0
  0
LINE
  5
92FB
  8
0
  6
AM_ISO08W050
 62
     0
 10
537.28729328108182
 20
630.29308882777104
 30
0.0
 11
790.72600673788702
 21
630.29308882777104
 31
0.0
  0
LINE
  5
AEBD
  8
0
 62
     0
 10
481.7971567378894
 20
500.29308382777077
 30
0.0
 11
481.7971567378894
 21
670.29308382777072
 31
0.0
  0
LINE
  5
BDD2
  8
0
 62
     0
 10
417.94548973788937
 20
634.47808382777112
 30
0.0
 11
476.79715673788951
 21
634.47808382777112
 31
0.0
  0
LINE
  5
BDD3
  8
0
 62
     0
 10
417.71473273788939
 20
634.96808382777112
 30
0.0
 11
475.0371567378894
 21
634.96808382777112
 31
0.0
  0
LINE
  5
BDD4
  8
0
 62
     0
 10
416.54333073788939
 20
636.56808382777115
 30
0.0
 11
475.0371567378894
 21
636.56808382777115
 31
0.0
  0
LINE
  5
BDD5
  8
0
 62
     0
 10
415.93554073788943
 20
637.10808382777122
 30
0.0
 11
476.79715673788951
 21
637.10808382777122
 31
0.0
  0
LINE
  5
BDD6
  8
0
 62
     0
 10
339.09198673788939
 20
633.44309682777111
 30
0.0
 11
410.50232673788958
 21
633.44309682777111
 31
0.0
  0
LINE
  5
BDD7
  8
0
 62
     0
 10
337.73018573788949
 20
638.51350082777105
 30
0.0
 11
411.85319173788929
 21
638.51350082777105
 31
0.0
  0
ARC
  5
BDD8
  8
0
 62
     0
 10
929.29712673788924
 20
585.07485582777122
 30
0.0
 40
595.5
 50
175.6560359999994
 51
183.9378049999973
  0
ARC
  5
BDD9
  8
0
 62
     0
 10
337.73018573788949
 20
631.91350982777112
 30
0.0
 40
6.599999999999997
 50
90.0
 51
171.40985099999489
  0
ARC
  5
BDDA
  8
0
 62
     0
 10
339.09198673788939
 20
629.84309082777122
 30
0.0
 40
3.6000000000000001
 50
90.0
 51
174.62414600000011
  0
ARC
  5
BDDB
  8
0
 62
     0
 10
-179.70284326211049
 20
585.07491782777117
 30
0.0
 40
595.5
 50
356.06220199999939
 51
4.3439640000005726
  0
ARC
  5
BDDC
  8
0
 62
     0
 10
411.86412773788948
 20
631.91350982777112
 30
0.0
 40
6.599999999999997
 50
8.5901410000046692
 51
90.0
  0
ARC
  5
BDDD
  8
0
 62
     0
 10
410.50232673788958
 20
629.84309082777122
 30
0.0
 40
3.6000000000000001
 50
5.3758619999981763
 51
90.0
  0
ARC
  5
BDDE
  8
0
 62
     0
 10
-180.3028192621104
 20
585.07491782777117
 30
0.0
 40
600.59997599999986
 50
355.4679790000045
 51
4.5671770000030021
  0
ARC
  5
BDDF
  8
0
 62
     0
 10
929.89710173788944
 20
585.07485582777122
 30
0.0
 40
600.59997599999986
 50
175.4328159999985
 51
184.5320279999994
  0
ARC
  5
BDE0
  8
0
 62
     0
 10
374.79715673788951
 20
531.11108182777105
 30
0.0
 40
16.337935000000002
 50
47.767946999997292
 51
132.23205300000271
  0
LINE
  5
BDE1
  8
0
 62
     0
 10
341.02008773788941
 20
542.68902282777105
 30
0.0
 11
362.47158973788947
 21
542.68901482777119
 31
0.0
  0
LINE
  5
BDE2
  8
0
 62
     0
 10
337.7459637378895
 20
531.63627282777088
 30
0.0
 11
411.84834973788929
 21
531.63627282777088
 31
0.0
  0
LINE
  5
BDE3
  8
0
 62
     0
 10
337.54636373788958
 20
534.0541498277712
 30
0.0
 11
412.04794973788938
 21
534.0541498277712
 31
0.0
  0
LINE
  5
BDE4
  8
0
 62
     0
 10
339.78273673788948
 20
540.0109148277711
 30
0.0
 11
363.2187357378894
 21
540.01090682777112
 31
0.0
  0
ARC
  5
BDE5
  8
0
 62
     0
 10
374.8631207378894
 20
529.62509582777125
 30
0.0
 40
15.0
 50
46.767242000003023
 51
133.23275799999701
  0
ARC
  5
BDE6
  8
0
 62
     0
 10
337.7459637378895
 20
538.23627182777113
 30
0.0
 40
6.599999999999997
 50
185.37618999999549
 51
270.0
  0
ARC
  5
BDE7
  8
0
 62
     0
 10
337.54636373788958
 20
540.65414882777122
 30
0.0
 40
6.599999999999997
 50
188.04118300000439
 51
270.0
  0
ARC
  5
BDE8
  8
0
 62
     0
 10
339.78273673788948
 20
544.61092082777122
 30
0.0
 40
4.5999999999999961
 50
185.37625099999781
 51
270.0
  0
LINE
  5
BDE9
  8
0
 62
     0
 10
408.57422573788932
 20
542.68902282777105
 30
0.0
 11
387.12272373788949
 21
542.68901482777119
 31
0.0
  0
LINE
  5
BDEA
  8
0
 62
     0
 10
409.81157673788942
 20
540.0109148277711
 30
0.0
 11
386.50750573788957
 21
540.01090682777112
 31
0.0
  0
ARC
  5
BDEB
  8
0
 62
     0
 10
411.84834973788929
 20
538.23627182777113
 30
0.0
 40
6.599999999999997
 50
270.0
 51
354.62381000000403
  0
ARC
  5
BDEC
  8
0
 62
     0
 10
412.04794973788938
 20
540.65414882777122
 30
0.0
 40
6.599999999999997
 50
270.0
 51
351.95883200000321
  0
ARC
  5
BDED
  8
0
 62
     0
 10
409.81157673788942
 20
544.61092082777122
 30
0.0
 40
4.5999999999999961
 50
270.0
 51
354.62374900000219
  0
ARC
  5
BDEE
  8
0
 62
     0
 10
363.2187367378894
 20
542.01090682777112
 30
0.0
 40
2.0
 50
270.0
 51
313.23275799999698
  0
ARC
  5
BDEF
  8
0
 62
     0
 10
362.47159073788953
 20
544.68901482777108
 30
0.0
 40
2.0
 50
270.0
 51
312.23205300000279
  0
ARC
  5
BDF0
  8
0
 62
     0
 10
387.12272273788949
 20
544.68901482777108
 30
0.0
 40
2.0
 50
227.76794699999729
 51
270.0
  0
ARC
  5
BDF1
  8
0
 62
     0
 10
386.50750473788958
 20
542.01090682777112
 30
0.0
 40
2.0
 50
226.76724200000299
 51
270.0
  0
ARC
  5
BDF2
  8
0
 62
     0
 10
203.29715673788951
 20
486.09308382777118
 30
0.0
 40
2.0
 50
180.0
 51
270.0
  0
LINE
  5
BDF4
  8
0
 62
     0
 10
274.29715673788951
 20
686.09308382777101
 30
0.0
 11
274.29715673788951
 21
484.09308382777118
 31
0.0
  0
ARC
  5
BDF5
  8
0
 62
     0
 10
203.69715673788949
 20
671.06989882777111
 30
0.0
 40
2.399999999999999
 50
159.99999999999631
 51
180.0
  0
ARC
  5
BDF6
  8
0
 62
     0
 10
208.2916207378895
 20
683.69308382777115
 30
0.0
 40
2.399999999999999
 50
90.0
 51
159.99999999999631
  0
LINE
  5
BDF7
  8
0
 62
     0
 10
206.03635773788949
 20
684.5139318277711
 30
0.0
 11
201.4418947378895
 21
671.89074782777118
 31
0.0
  0
LINE
  5
BDF8
  8
0
 62
     0
 10
206.61112173788959
 20
685.40653782777122
 30
0.0
 11
206.61112173788959
 21
484.09308382777118
 31
0.0
  0
LINE
  5
BDF9
  8
0
 62
     0
 10
201.29715673788951
 20
671.06989882777111
 30
0.0
 11
201.29715673788951
 21
486.09308382777118
 31
0.0
  0
LINE
  5
BDFA
  8
0
 62
     0
 10
274.29715673788951
 20
686.09308382777101
 30
0.0
 11
208.2916207378895
 21
686.09308382777101
 31
0.0
  0
LINE
  5
BDFB
  8
0
 62
     0
 10
426.75403273788942
 20
634.47808382777112
 30
0.0
 11
426.75403273788942
 21
614.11308382777088
 31
0.0
  0
LINE
  5
BDFC
  8
0
 62
     0
 10
442.7971557378894
 20
634.47808382777112
 30
0.0
 11
442.7971557378894
 21
614.11308382777088
 31
0.0
  0
LINE
  5
BDFD
  8
0
 62
     0
 10
457.3465517378894
 20
529.27228782777115
 30
0.0
 11
442.7971557378894
 21
529.27228782777115
 31
0.0
  0
LINE
  5
BDFE
  8
0
 62
     0
 10
462.29715673788951
 20
540.68463782777121
 30
0.0
 11
442.7971557378894
 21
540.68463782777121
 31
0.0
  0
LINE
  5
BDFF
  8
0
 62
     0
 10
427.50255373788929
 20
533.98737782777118
 30
0.0
 11
442.79715673788951
 21
529.27228782777115
 31
0.0
  0
LINE
  5
BE00
  8
0
 62
     0
 10
442.79715673788951
 20
540.68463782777121
 30
0.0
 11
427.76121573788947
 21
540.14388682777121
 31
0.0
  0
ARC
  5
BE01
  8
0
 62
     0
 10
427.7971567378894
 20
539.14453282777106
 30
0.0
 40
1.0
 50
92.059690999997201
 51
180.0
  0
ARC
  5
BE02
  8
0
 62
     0
 10
427.7971567378894
 20
534.94299782777114
 30
0.0
 40
1.0
 50
180.0
 51
252.86627500000199
  0
LINE
  5
BE03
  8
0
 62
     0
 10
442.79715673788951
 20
661.14587082777109
 30
0.0
 11
427.49669773788958
 21
656.32600482777127
 31
0.0
  0
ARC
  5
BE04
  8
0
 62
     0
 10
427.7971567378894
 20
655.37220982777114
 30
0.0
 40
1.0
 50
107.4851789999999
 51
180.0
  0
ARC
  5
BE05
  8
0
 62
     0
 10
427.7971567378894
 20
653.0211448277712
 30
0.0
 40
1.0
 50
180.0
 51
270.0
  0
LINE
  5
BE06
  8
0
 62
     0
 10
427.84571173788942
 20
652.02232382777106
 30
0.0
 11
442.79715673788951
 21
652.74914382777115
 31
0.0
  0
LINE
  5
BE07
  8
0
 62
     0
 10
462.29715673788951
 20
652.74914382777115
 30
0.0
 11
442.79715673788951
 21
652.74914382777115
 31
0.0
  0
LINE
  5
BE08
  8
0
 62
     0
 10
385.79715673788951
 20
683.57957682777123
 30
0.0
 11
473.24434173788939
 21
683.57957682777123
 31
0.0
  0
ARC
  5
BE09
  8
0
 62
     0
 10
297.06140173788958
 20
681.57957682777123
 30
0.0
 40
2.0
 50
90.0
 51
156.10179999999841
  0
ARC
  5
BE0A
  8
0
 62
     0
 10
473.24434173788939
 20
681.57957682777123
 30
0.0
 40
2.0
 50
10.000001999998901
 51
90.0
  0
LINE
  5
BE0B
  8
0
 62
     0
 10
476.79715673788951
 20
672.94810082777121
 30
0.0
 11
475.21395673788942
 21
681.92687382777115
 31
0.0
  0
LINE
  5
BE0C
  8
0
 62
     0
 10
476.5363487378894
 20
672.94810082777121
 30
0.0
 11
476.79715673788951
 21
672.94810082777121
 31
0.0
  0
ARC
  5
BE0D
  8
0
 62
     0
 10
282.12837173788961
 20
680.38980282777106
 30
0.0
 40
2.0
 50
90.0
 51
169.99999800000111
  0
LINE
  5
BE0E
  8
0
 62
     0
 10
277.79715673788951
 20
667.34379982777114
 30
0.0
 11
280.15875673788952
 21
680.73709982777109
 31
0.0
  0
ARC
  5
BE0F
  8
0
 62
     0
 10
473.19332273788939
 20
680.38980282777106
 30
0.0
 40
2.0
 50
10.000001999998901
 51
90.0
  0
LINE
  5
BE10
  8
0
 62
     0
 10
476.79715673788951
 20
671.46898282777124
 30
0.0
 11
475.16293773788942
 21
680.73709982777109
 31
0.0
  0
LINE
  5
BE11
  8
0
 62
     0
 10
277.79715673788951
 20
667.34379982777114
 30
0.0
 11
278.3650627378895
 21
667.34379982777114
 31
0.0
  0
LINE
  5
BE12
  8
0
 62
     0
 10
476.26118573788921
 20
671.46898282777124
 30
0.0
 11
476.79715673788951
 21
671.46898282777124
 31
0.0
  0
ARC
  5
BE13
  8
0
 62
     0
 10
473.10746773788929
 20
677.83706882777108
 30
0.0
 40
2.0
 50
10.00000100000292
 51
90.0
  0
ARC
  5
BE14
  8
0
 62
     0
 10
282.24616273788951
 20
677.83706882777108
 30
0.0
 40
2.0
 50
90.0
 51
169.99999899999699
  0
LINE
  5
BE15
  8
0
 62
     0
 10
277.79715673788951
 20
664.1230438277712
 30
0.0
 11
280.27654673788959
 21
678.18436482777099
 31
0.0
  0
ARC
  5
BE16
  8
0
 62
     0
 10
282.42730373788947
 20
673.87188382777106
 30
0.0
 40
2.0
 50
90.0
 51
170.00000000000139
  0
LINE
  5
BE17
  8
0
 62
     0
 10
277.79715673788951
 20
659.13055882777121
 30
0.0
 11
280.4576877378895
 21
674.2191798277712
 31
0.0
  0
ARC
  5
BE18
  8
0
 62
     0
 10
282.70853173788947
 20
668.29445582777123
 30
0.0
 40
2.0
 50
90.0
 51
170.00000000000139
  0
LINE
  5
BE19
  8
0
 62
     0
 10
277.79715673788951
 20
651.95820682777128
 30
0.0
 11
280.73891573788939
 21
668.64175282777114
 31
0.0
  0
ARC
  5
BE1A
  8
0
 62
     0
 10
282.8037957378894
 20
662.2937888277711
 30
0.0
 40
2.0
 50
90.0
 51
169.99999899999699
  0
LINE
  5
BE1B
  8
0
 62
     0
 10
277.79715673788951
 20
645.41727082777106
 30
0.0
 11
280.8341797378896
 21
662.64108482777112
 31
0.0
  0
LINE
  5
BE1C
  8
0
 62
     0
 10
476.66889773788949
 20
669.15673282777107
 30
0.0
 11
475.07708273788933
 21
678.18436482777099
 31
0.0
  0
LINE
  5
BE1D
  8
0
 62
     0
 10
277.79715673788951
 20
664.1230438277712
 30
0.0
 11
278.67746673788952
 21
664.1230438277712
 31
0.0
  0
ARC
  5
BE1E
  8
0
 62
     0
 10
472.97808973788932
 20
673.87188382777106
 30
0.0
 40
2.0
 50
9.9999999999986073
 51
90.0
  0
LINE
  5
BE1F
  8
0
 62
     0
 10
475.84035173788919
 20
669.15673282777107
 30
0.0
 11
474.94770573788952
 21
674.2191798277712
 31
0.0
  0
ARC
  5
BE20
  8
0
 62
     0
 10
408.18617473788919
 20
668.29445582777123
 30
0.0
 40
2.0
 50
5.5986529999986434
 51
90.0
  0
ARC
  5
BE21
  8
0
 62
     0
 10
408.18421973788941
 20
662.2937888277711
 30
0.0
 40
2.0
 50
5.4290190000020546
 51
90.0
  0
LINE
  5
BE22
  8
0
 62
     0
 10
478.79715673788951
 20
545.57037782777115
 30
0.0
 11
478.79715673788951
 21
647.35901682777114
 31
0.0
  0
LINE
  5
BE23
  8
0
 62
     0
 10
478.79715673788951
 20
669.15673282777107
 30
0.0
 11
478.79715673788951
 21
673.29308382777106
 31
0.0
  0
LINE
  5
BE24
  8
0
 62
     0
 10
426.75403273788942
 20
659.13055882777121
 30
0.0
 11
442.7971557378894
 21
663.73042082777124
 31
0.0
  0
LINE
  5
BE25
  8
0
 62
     0
 10
411.09407173788941
 20
659.13055882777121
 30
0.0
 11
426.75403273788942
 21
659.13055882777121
 31
0.0
  0
LINE
  5
BE26
  8
0
 62
     0
 10
442.7971557378894
 20
663.73042082777124
 30
0.0
 11
457.4904397378894
 21
663.73042082777124
 31
0.0
  0
ARC
  5
BE27
  8
0
 62
     0
 10
459.49695573788938
 20
656.77634982777113
 30
0.0
 40
2.6003989999999999
 50
179.9999819999943
 51
269.99997799999522
  0
ARC
  5
BE28
  8
0
 62
     0
 10
459.49695573788938
 20
662.07633782777123
 30
0.0
 40
2.600403
 50
90.0
 51
179.9999819999943
  0
LINE
  5
BE29
  8
0
 62
     0
 10
462.29715673788951
 20
659.49236882777109
 30
0.0
 11
460.79715673788951
 21
658.62634382777105
 31
0.0
  0
LINE
  5
BE2A
  8
0
 62
     0
 10
462.29715673788951
 20
660.4923688277712
 30
0.0
 11
460.79715673788951
 21
659.62634382777105
 31
0.0
  0
LINE
  5
BE2B
  8
0
 62
     0
 10
462.29715673788951
 20
665.52634382777126
 30
0.0
 11
462.29715673788951
 21
653.32634382777121
 31
0.0
  0
LINE
  5
BE2C
  8
0
 62
     0
 10
460.79715673788951
 20
665.52634382777126
 30
0.0
 11
462.29715673788951
 21
665.52634382777126
 31
0.0
  0
LINE
  5
BE2D
  8
0
 62
     0
 10
460.79715673788951
 20
653.32634382777121
 30
0.0
 11
462.29715673788951
 21
653.32634382777121
 31
0.0
  0
LINE
  5
BE2E
  8
0
 62
     0
 10
456.8971627378894
 20
662.07633782777123
 30
0.0
 11
456.8971627378894
 21
656.77634982777113
 31
0.0
  0
LINE
  5
BE2F
  8
0
 62
     0
 10
460.79715673788951
 20
665.52634382777126
 30
0.0
 11
460.79715673788951
 21
653.32634382777121
 31
0.0
  0
LINE
  5
BE30
  8
0
 62
     0
 10
460.79715673788951
 20
654.17634382777123
 30
0.0
 11
459.49695573788938
 21
654.17634382777123
 31
0.0
  0
LINE
  5
BE31
  8
0
 62
     0
 10
460.79715673788951
 20
664.67634382777123
 30
0.0
 11
459.49695573788938
 21
664.67634382777123
 31
0.0
  0
ARC
  5
BE32
  8
0
 62
     0
 10
459.49695573788938
 20
530.73442282777114
 30
0.0
 40
2.6003989999999999
 50
179.9999819999943
 51
269.99997799999522
  0
ARC
  5
BE33
  8
0
 62
     0
 10
459.49695573788938
 20
536.03441082777124
 30
0.0
 40
2.600403
 50
90.0
 51
179.9999819999943
  0
LINE
  5
BE34
  8
0
 62
     0
 10
462.29715673788951
 20
533.4504418277711
 30
0.0
 11
460.79715673788951
 21
532.58441682777107
 31
0.0
  0
LINE
  5
BE35
  8
0
 62
     0
 10
462.29715673788951
 20
534.45044182777121
 30
0.0
 11
460.79715673788951
 21
533.58441682777107
 31
0.0
  0
LINE
  5
BE36
  8
0
 62
     0
 10
462.29715673788951
 20
539.48441682777116
 30
0.0
 11
462.29715673788951
 21
527.28441682777122
 31
0.0
  0
LINE
  5
BE37
  8
0
 62
     0
 10
460.79715673788951
 20
539.48441682777116
 30
0.0
 11
462.29715673788951
 21
539.48441682777116
 31
0.0
  0
LINE
  5
BE38
  8
0
 62
     0
 10
460.79715673788951
 20
527.28441682777122
 30
0.0
 11
462.29715673788951
 21
527.28441682777122
 31
0.0
  0
LINE
  5
BE39
  8
0
 62
     0
 10
456.8971627378894
 20
536.03441082777124
 30
0.0
 11
456.8971627378894
 21
530.73442282777114
 31
0.0
  0
LINE
  5
BE3A
  8
0
 62
     0
 10
460.79715673788951
 20
539.48441682777116
 30
0.0
 11
460.79715673788951
 21
527.28441682777122
 31
0.0
  0
LINE
  5
BE3B
  8
0
 62
     0
 10
460.79715673788951
 20
528.13441682777113
 30
0.0
 11
459.49695573788938
 21
528.13441682777113
 31
0.0
  0
LINE
  5
BE3C
  8
0
 62
     0
 10
460.79715673788951
 20
538.63441682777125
 30
0.0
 11
459.49695573788938
 21
538.63441682777125
 31
0.0
  0
LINE
  5
BE3D
  8
0
 62
     0
 10
476.73632673788961
 20
673.29308382777106
 30
0.0
 11
478.79715673788951
 21
673.29308382777106
 31
0.0
  0
LINE
  5
BE3E
  8
0
 62
     0
 10
282.42730373788947
 20
675.87188382777117
 30
0.0
 11
472.97808973788932
 21
675.87188382777117
 31
0.0
  0
LINE
  5
BE3F
  8
0
 62
     0
 10
282.24616273788951
 20
679.83706882777119
 30
0.0
 11
473.10746773788929
 21
679.83706882777119
 31
0.0
  0
LINE
  5
BE40
  8
0
 62
     0
 10
282.12837173788961
 20
682.38980282777106
 30
0.0
 11
473.19332273788939
 21
682.38980282777106
 31
0.0
  0
LINE
  5
BE41
  8
0
 62
     0
 10
274.29715673788951
 20
678.79308382777106
 30
0.0
 11
279.81597473788952
 21
678.79308382777106
 31
0.0
  0
LINE
  5
BE42
  8
0
 62
     0
 10
297.06140173788958
 20
683.57957682777123
 30
0.0
 11
363.79715673788951
 21
683.57957682777123
 31
0.0
  0
LINE
  5
BE43
  8
0
 62
     0
 10
442.7971557378894
 20
642.45308382777114
 30
0.0
 11
442.7971557378894
 21
637.10808382777122
 31
0.0
  0
LINE
  5
BE44
  8
0
 62
     0
 10
426.75403273788942
 20
642.45308382777114
 30
0.0
 11
426.75403273788942
 21
637.10808382777122
 31
0.0
  0
LINE
  5
BE45
  8
0
 62
     0
 10
442.7971557378894
 20
652.74914382777115
 30
0.0
 11
442.7971557378894
 21
645.15308382777118
 31
0.0
  0
LINE
  5
BE46
  8
0
 62
     0
 10
442.7971557378894
 20
661.14587082777109
 30
0.0
 11
456.8971627378894
 21
661.14587082777109
 31
0.0
  0
LINE
  5
BE47
  8
0
 62
     0
 10
277.79715673788951
 20
645.41727082777106
 30
0.0
 11
411.79715673788928
 21
645.41727082777106
 31
0.0
  0
LINE
  5
BE48
  8
0
 62
     0
 10
411.11952973788959
 20
651.95820682777128
 30
0.0
 11
411.79715673788928
 21
651.95820682777128
 31
0.0
  0
LINE
  5
BE49
  8
0
 62
     0
 10
282.8037957378894
 20
664.29378882777087
 30
0.0
 11
408.18421973788941
 21
664.29378882777087
 31
0.0
  0
LINE
  5
BE4A
  8
0
 62
     0
 10
277.79715673788951
 20
651.95820682777128
 30
0.0
 11
278.95049973788952
 21
651.95820682777128
 31
0.0
  0
LINE
  5
BE4B
  8
0
 62
     0
 10
282.70853173788947
 20
670.29445582777123
 30
0.0
 11
408.18617473788919
 21
670.29445582777123
 31
0.0
  0
LINE
  5
BE4C
  8
0
 62
     0
 10
478.79715673788951
 20
647.35901682777114
 30
0.0
 11
481.7971567378894
 21
645.62696582777119
 31
0.0
  0
ARC
  5
BE4D
  8
0
 62
     0
 10
461.2971567378894
 20
648.35901682777114
 30
0.0
 40
1.0
 50
270.0
 51
0.0
  0
ARC
  5
BE4E
  8
0
 62
     0
 10
464.29715673788951
 20
667.15673282777118
 30
0.0
 40
2.0
 50
90.0
 51
180.0
  0
ARC
  5
BE4F
  8
0
 62
     0
 10
464.29715673788951
 20
663.03272782777105
 30
0.0
 40
2.0
 50
180.0
 51
270.0
  0
ARC
  5
BE50
  8
0
 62
     0
 10
464.29715673788951
 20
659.03272782777117
 30
0.0
 40
2.0
 50
90.0
 51
180.0
  0
LINE
  5
BE51
  8
0
 62
     0
 10
464.29715673788951
 20
669.15673282777107
 30
0.0
 11
481.7971567378894
 21
669.15673282777107
 31
0.0
  0
LINE
  5
BE52
  8
0
 62
     0
 10
462.29715673788951
 20
647.35901682777114
 30
0.0
 11
478.79715673788951
 21
647.35901682777114
 31
0.0
  0
LINE
  5
BE53
  8
0
 62
     0
 10
464.29715673788951
 20
661.03272782777105
 30
0.0
 11
481.7971567378894
 21
661.03272782777105
 31
0.0
  0
LINE
  5
BE54
  8
0
 62
     0
 10
462.29715673788951
 20
648.35901682777114
 30
0.0
 11
462.29715673788951
 21
667.15673282777118
 31
0.0
  0
LINE
  5
BE55
  8
0
 62
     0
 10
277.79715673788951
 20
501.29308382777123
 30
0.0
 11
274.29715673788951
 21
501.29308382777123
 31
0.0
  0
LINE
  5
BE56
  8
0
 62
     0
 10
277.79715673788951
 20
550.93429482777105
 30
0.0
 11
282.4045327378895
 21
544.50268882777118
 31
0.0
  0
LINE
  5
BE57
  8
0
 62
     0
 10
282.4045327378895
 20
544.50268882777118
 30
0.0
 11
283.26033273788948
 21
547.12960882777111
 31
0.0
  0
LINE
  5
BE58
  8
0
 62
     0
 10
277.79715673788951
 20
550.93429482777105
 30
0.0
 11
283.26033273788948
 21
547.12960882777111
 31
0.0
  0
LINE
  5
BE59
  8
0
 62
     0
 10
283.26033273788948
 20
547.12960882777111
 30
0.0
 11
284.47226273788942
 21
546.57364882777119
 31
0.0
  0
LINE
  5
BE5A
  8
0
 62
     0
 10
274.29715673788951
 20
544.50268882777118
 30
0.0
 11
282.4045327378895
 21
544.50268882777118
 31
0.0
  0
LINE
  5
BE5B
  8
0
 62
     0
 10
274.29715673788951
 20
550.93429482777105
 30
0.0
 11
277.79715673788951
 21
550.93429482777105
 31
0.0
  0
LINE
  5
BE5C
  8
0
 62
     0
 10
277.79715673788951
 20
528.36090882777114
 30
0.0
 11
277.79715673788951
 21
525.16801482777123
 31
0.0
  0
LINE
  5
BE5D
  8
0
 62
     0
 10
279.5571567378895
 20
527.79247482777123
 30
0.0
 11
279.5571567378895
 21
525.79369282777111
 31
0.0
  0
LINE
  5
BE5E
  8
0
 62
     0
 10
294.5571567378895
 20
536.79308382777106
 30
0.0
 11
294.5571567378895
 21
534.79369282777111
 31
0.0
  0
LINE
  5
BE5F
  8
0
 62
     0
 10
292.79715673788951
 20
537.25462582777106
 30
0.0
 11
292.79715673788951
 21
534.18689082777075
 31
0.0
  0
LINE
  5
BE60
  8
0
 62
     0
 10
292.79715673788951
 20
537.25462582777106
 30
0.0
 11
331.2193737378895
 21
537.25462582777106
 31
0.0
  0
LINE
  5
BE61
  8
0
 62
     0
 10
292.79715673788951
 20
534.18689082777075
 30
0.0
 11
332.53419773788949
 21
534.18689082777075
 31
0.0
  0
LINE
  5
BE62
  8
0
 62
     0
 10
277.79715673788951
 20
525.16801482777123
 30
0.0
 11
374.79715673788951
 21
525.16801482777123
 31
0.0
  0
LINE
  5
BE63
  8
0
 62
     0
 10
277.79715673788951
 20
528.36090882777114
 30
0.0
 11
374.79715673788951
 21
528.36090882777114
 31
0.0
  0
LINE
  5
BE64
  8
0
 62
     0
 10
279.5571567378895
 20
527.79247482777123
 30
0.0
 11
374.79715673788951
 21
527.79247482777123
 31
0.0
  0
LINE
  5
BE65
  8
0
 62
     0
 10
279.5571567378895
 20
525.79369282777111
 30
0.0
 11
374.79715673788951
 21
525.79369282777111
 31
0.0
  0
LINE
  5
BE66
  8
0
 62
     0
 10
279.5571567378895
 20
527.79247482777123
 30
0.0
 11
277.79715673788951
 21
528.36090882777114
 31
0.0
  0
LINE
  5
BE67
  8
0
 62
     0
 10
279.5571567378895
 20
525.79369282777111
 30
0.0
 11
277.79715673788951
 21
525.16801482777123
 31
0.0
  0
LINE
  5
BE68
  8
0
 62
     0
 10
282.7404227378895
 20
534.53500482777122
 30
0.0
 11
283.9215137378896
 21
534.29759582777115
 31
0.0
  0
LINE
  5
BE69
  8
0
 62
     0
 10
294.5571567378895
 20
536.79308382777106
 30
0.0
 11
331.30568373788952
 21
536.79308382777106
 31
0.0
  0
LINE
  5
BE6A
  8
0
 62
     0
 10
294.5571567378895
 20
534.79369282777111
 30
0.0
 11
332.11491973788952
 21
534.79369282777111
 31
0.0
  0
LINE
  5
BE6B
  8
0
 62
     0
 10
294.5571567378895
 20
536.79308382777106
 30
0.0
 11
292.79715673788951
 21
537.25462582777106
 31
0.0
  0
LINE
  5
BE6C
  8
0
 62
     0
 10
294.5571567378895
 20
534.79369282777111
 30
0.0
 11
292.79715673788951
 21
534.18689082777075
 31
0.0
  0
LINE
  5
BE6D
  8
0
 62
     0
 10
411.79715673788928
 20
528.36090882777114
 30
0.0
 11
374.79715673788951
 21
528.36090882777114
 31
0.0
  0
LINE
  5
BE6E
  8
0
 62
     0
 10
410.0371567378894
 20
527.79247482777123
 30
0.0
 11
374.79715673788951
 21
527.79247482777123
 31
0.0
  0
LINE
  5
BE6F
  8
0
 62
     0
 10
410.0371567378894
 20
525.79369282777111
 30
0.0
 11
374.79715673788951
 21
525.79369282777111
 31
0.0
  0
LINE
  5
BE70
  8
0
 62
     0
 10
410.0371567378894
 20
525.79369282777111
 30
0.0
 11
411.79715673788928
 21
525.16801482777123
 31
0.0
  0
LINE
  5
BE71
  8
0
 62
     0
 10
410.0371567378894
 20
527.79247482777123
 30
0.0
 11
411.79715673788928
 21
528.36090882777114
 31
0.0
  0
LINE
  5
BE72
  8
0
 62
     0
 10
410.0371567378894
 20
527.79247482777123
 30
0.0
 11
410.0371567378894
 21
525.79369282777111
 31
0.0
  0
LINE
  5
BE73
  8
0
 62
     0
 10
411.79715673788928
 20
528.36090882777114
 30
0.0
 11
411.79715673788928
 21
525.16801482777123
 31
0.0
  0
LINE
  5
BE74
  8
0
 62
     0
 10
277.79715673788951
 20
525.16801482777123
 30
0.0
 11
279.3898987378895
 21
507.8688278277711
 31
0.0
  0
LINE
  5
BE75
  8
0
 62
     0
 10
277.79715673788951
 20
518.62796082777106
 30
0.0
 11
278.39930173788957
 21
518.62796082777106
 31
0.0
  0
LINE
  5
BE76
  8
0
 62
     0
 10
277.79715673788951
 20
511.45560882777107
 30
0.0
 11
278.4799337378895
 21
511.45560882777107
 31
0.0
  0
LINE
  5
BE77
  8
0
 62
     0
 10
277.79715673788951
 20
506.46312382777108
 30
0.0
 11
278.32166973788941
 21
506.46312382777108
 31
0.0
  0
LINE
  5
BE78
  8
0
 62
     0
 10
277.79715673788951
 20
503.24236782777109
 30
0.0
 11
278.1570987378895
 21
503.24236782777109
 31
0.0
  0
LINE
  5
BE79
  8
0
 62
     0
 10
277.7503797378896
 20
501.67278682777112
 30
0.0
 11
277.98077073788937
 21
501.67278682777112
 31
0.0
  0
LINE
  5
BE7A
  8
0
 62
     0
 10
277.79715673788951
 20
518.62796082777106
 30
0.0
 11
279.38480873788939
 21
501.95018682777112
 31
0.0
  0
LINE
  5
BE7B
  8
0
 62
     0
 10
277.79715673788951
 20
511.45560882777107
 30
0.0
 11
279.36898973788948
 21
496.49439782777119
 31
0.0
  0
LINE
  5
BE7C
  8
0
 62
     0
 10
277.79715673788951
 20
506.46312382777108
 30
0.0
 11
279.35846773788961
 21
492.49253282777107
 31
0.0
  0
LINE
  5
BE7D
  8
0
 62
     0
 10
277.79715673788951
 20
503.24236782777109
 30
0.0
 11
279.35037573788952
 21
489.96503982777119
 31
0.0
  0
LINE
  5
BE7E
  8
0
 62
     0
 10
277.7503797378896
 20
501.67278682777112
 30
0.0
 11
279.34089573788953
 21
488.76205282777119
 31
0.0
  0
ARC
  5
BE7F
  8
0
 62
     0
 10
281.3814747378895
 20
508.05219282777108
 30
0.0
 40
2.0
 50
185.2604109999989
 51
270.0
  0
ARC
  5
BE80
  8
0
 62
     0
 10
281.37580673788949
 20
502.1397218277711
 30
0.0
 40
2.0
 50
185.4379219999999
 51
270.0
  0
ARC
  5
BE81
  8
0
 62
     0
 10
281.35804273788949
 20
496.7033688277711
 30
0.0
 40
2.0
 50
185.9975260000009
 51
270.0
  0
ARC
  5
BE82
  8
0
 62
     0
 10
281.34609373788948
 20
492.71466382777118
 30
0.0
 40
2.0
 50
186.37674200000029
 51
270.0
  0
ARC
  5
BE83
  8
0
 62
     0
 10
281.3368297378895
 20
490.19742082777111
 30
0.0
 40
2.0
 50
186.67229399999829
 51
270.0
  0
ARC
  5
BE84
  8
0
 62
     0
 10
281.3258897378895
 20
489.00659082777111
 30
0.0
 40
2.0
 50
187.02306899999601
 51
270.0
  0
LINE
  5
BE85
  8
0
 62
     0
 10
284.47226273788942
 20
546.57364882777119
 30
0.0
 11
284.47226273788942
 21
534.18689082777075
 31
0.0
  0
LINE
  5
BE86
  8
0
 62
     0
 10
282.4045327378895
 20
544.50268882777118
 30
0.0
 11
282.4045327378895
 21
534.60252182777106
 31
0.0
  0
LINE
  5
BE87
  8
0
 62
     0
 10
274.29715673788951
 20
534.18689082777075
 30
0.0
 11
284.47226273788942
 21
534.18689082777075
 31
0.0
  0
LINE
  5
BE88
  8
0
 62
     0
 10
274.29715673788951
 20
534.60252182777106
 30
0.0
 11
282.4045327378895
 21
534.60252182777106
 31
0.0
  0
LINE
  5
BE89
  8
0
 62
     0
 10
476.79715673788951
 20
600.47308382777123
 30
0.0
 11
475.0371567378894
 21
601.02308382777119
 31
0.0
  0
LINE
  5
BE8A
  8
0
 62
     0
 10
476.79715673788951
 20
603.11308382777111
 30
0.0
 11
476.79715673788951
 21
600.47308382777123
 31
0.0
  0
LINE
  5
BE8B
  8
0
 62
     0
 10
475.0371567378894
 20
602.62308382777121
 30
0.0
 11
476.79715673788951
 21
603.11308382777111
 31
0.0
  0
LINE
  5
BE8C
  8
0
 62
     0
 10
475.0371567378894
 20
602.62308382777121
 30
0.0
 11
475.0371567378894
 21
601.02308382777119
 31
0.0
  0
LINE
  5
BE8D
  8
0
 62
     0
 10
476.79715673788951
 20
589.47308382777123
 30
0.0
 11
475.0371567378894
 21
590.02308382777107
 31
0.0
  0
LINE
  5
BE8E
  8
0
 62
     0
 10
476.79715673788951
 20
592.11308382777111
 30
0.0
 11
476.79715673788951
 21
589.47308382777123
 31
0.0
  0
LINE
  5
BE8F
  8
0
 62
     0
 10
475.0371567378894
 20
591.62308382777098
 30
0.0
 11
476.79715673788951
 21
592.11308382777111
 31
0.0
  0
LINE
  5
BE90
  8
0
 62
     0
 10
475.0371567378894
 20
591.62308382777098
 30
0.0
 11
475.0371567378894
 21
590.02308382777107
 31
0.0
  0
LINE
  5
BE91
  8
0
 62
     0
 10
476.79715673788951
 20
578.47308382777123
 30
0.0
 11
475.0371567378894
 21
579.02308382777119
 31
0.0
  0
LINE
  5
BE92
  8
0
 62
     0
 10
476.79715673788951
 20
581.11308382777111
 30
0.0
 11
476.79715673788951
 21
578.47308382777123
 31
0.0
  0
LINE
  5
BE93
  8
0
 62
     0
 10
475.0371567378894
 20
580.62308382777121
 30
0.0
 11
476.79715673788951
 21
581.11308382777111
 31
0.0
  0
LINE
  5
BE94
  8
0
 62
     0
 10
475.0371567378894
 20
580.62308382777121
 30
0.0
 11
475.0371567378894
 21
579.02308382777119
 31
0.0
  0
LINE
  5
BE95
  8
0
 62
     0
 10
476.79715673788951
 20
567.47308382777123
 30
0.0
 11
475.0371567378894
 21
568.02308382777119
 31
0.0
  0
LINE
  5
BE96
  8
0
 62
     0
 10
476.79715673788951
 20
570.11308382777111
 30
0.0
 11
476.79715673788951
 21
567.47308382777123
 31
0.0
  0
LINE
  5
BE97
  8
0
 62
     0
 10
475.0371567378894
 20
569.62308382777121
 30
0.0
 11
476.79715673788951
 21
570.11308382777111
 31
0.0
  0
LINE
  5
BE98
  8
0
 62
     0
 10
475.0371567378894
 20
569.62308382777121
 30
0.0
 11
475.0371567378894
 21
568.02308382777119
 31
0.0
  0
LINE
  5
BE99
  8
0
 62
     0
 10
476.20882573788958
 20
498.78380382777112
 30
0.0
 11
475.1771967378894
 21
489.96504282777119
 31
0.0
  0
LINE
  5
BE9A
  8
0
 62
     0
 10
475.1419397378894
 20
492.49223682777108
 30
0.0
 11
476.19689673788929
 21
501.91922382777108
 31
0.0
  0
LINE
  5
BE9B
  8
0
 62
     0
 10
475.16900973788961
 20
496.49309282777119
 30
0.0
 11
476.26792173788942
 21
506.88726682777121
 31
0.0
  0
LINE
  5
BE9C
  8
0
 62
     0
 10
476.3188627378895
 20
513.42388682777107
 30
0.0
 11
475.1935817378893
 21
501.94460282777118
 31
0.0
  0
LINE
  5
BE9D
  8
0
 62
     0
 10
476.36002973788959
 20
520.83362882777124
 30
0.0
 11
475.1273127378895
 21
507.86296782777112
 31
0.0
  0
LINE
  5
BE9E
  8
0
 62
     0
 10
476.2689487378895
 20
497.64747582777119
 30
0.0
 11
475.1969157378893
 21
488.76689782777112
 31
0.0
  0
LINE
  5
BE9F
  8
0
 62
     0
 10
475.0371567378894
 20
558.62308382777087
 30
0.0
 11
475.0371567378894
 21
557.02308382777107
 31
0.0
  0
LINE
  5
BEA0
  8
0
 62
     0
 10
475.0371567378894
 20
558.62308382777087
 30
0.0
 11
476.79715673788951
 21
559.11308382777099
 31
0.0
  0
LINE
  5
BEA1
  8
0
 62
     0
 10
476.79715673788951
 20
559.11308382777099
 30
0.0
 11
476.79715673788951
 21
556.47308382777123
 31
0.0
  0
LINE
  5
BEA2
  8
0
 62
     0
 10
476.79715673788951
 20
556.47308382777123
 30
0.0
 11
475.0371567378894
 21
557.02308382777107
 31
0.0
  0
LINE
  5
BEA3
  8
0
 62
     0
 10
475.0371567378894
 20
613.62308382777121
 30
0.0
 11
475.0371567378894
 21
612.02308382777119
 31
0.0
  0
LINE
  5
BEA4
  8
0
 62
     0
 10
475.0371567378894
 20
613.62308382777121
 30
0.0
 11
476.79715673788951
 21
614.11308382777088
 31
0.0
  0
LINE
  5
BEA5
  8
0
 62
     0
 10
476.79715673788951
 20
614.11308382777088
 30
0.0
 11
476.79715673788951
 21
611.47308382777123
 31
0.0
  0
LINE
  5
BEA6
  8
0
 62
     0
 10
476.79715673788951
 20
611.47308382777123
 30
0.0
 11
475.0371567378894
 21
612.02308382777119
 31
0.0
  0
LINE
  5
BEA7
  8
0
 62
     0
 10
426.75403273788942
 20
611.47308382777123
 30
0.0
 11
426.75403273788942
 21
603.11308382777111
 31
0.0
  0
LINE
  5
BEA8
  8
0
 62
     0
 10
442.7971557378894
 20
611.47308382777123
 30
0.0
 11
442.7971557378894
 21
603.11308382777111
 31
0.0
  0
LINE
  5
BEA9
  8
0
 62
     0
 10
442.7971557378894
 20
600.47308382777123
 30
0.0
 11
442.7971557378894
 21
592.11308382777111
 31
0.0
  0
LINE
  5
BEAA
  8
0
 62
     0
 10
426.75403273788942
 20
600.47308382777123
 30
0.0
 11
426.75403273788942
 21
592.11308382777111
 31
0.0
  0
LINE
  5
BEAB
  8
0
 62
     0
 10
426.75403273788942
 20
589.47308382777123
 30
0.0
 11
426.75403273788942
 21
581.11308382777111
 31
0.0
  0
LINE
  5
BEAC
  8
0
 62
     0
 10
442.7971557378894
 20
589.47308382777123
 30
0.0
 11
442.7971557378894
 21
581.11308382777111
 31
0.0
  0
LINE
  5
BEAD
  8
0
 62
     0
 10
442.7971557378894
 20
578.47308382777123
 30
0.0
 11
442.7971557378894
 21
570.11308382777111
 31
0.0
  0
LINE
  5
BEAE
  8
0
 62
     0
 10
426.75403273788942
 20
578.47308382777123
 30
0.0
 11
426.75403273788942
 21
570.11308382777111
 31
0.0
  0
LINE
  5
BEAF
  8
0
 62
     0
 10
426.75403273788942
 20
567.47308382777123
 30
0.0
 11
426.75403273788942
 21
559.11308382777099
 31
0.0
  0
LINE
  5
BEB0
  8
0
 62
     0
 10
442.7971557378894
 20
567.47308382777123
 30
0.0
 11
442.7971557378894
 21
559.11308382777099
 31
0.0
  0
LINE
  5
BEB1
  8
0
 62
     0
 10
442.7971557378894
 20
556.47308382777123
 30
0.0
 11
442.7971557378894
 21
540.68463782777121
 31
0.0
  0
LINE
  5
BEB2
  8
0
 62
     0
 10
426.75403273788942
 20
556.47308382777123
 30
0.0
 11
426.75403273788942
 21
525.16801482777123
 31
0.0
  0
LINE
  5
BEB3
  8
0
 62
     0
 10
476.36002973788959
 20
520.83362882777124
 30
0.0
 11
442.7971557378894
 21
520.83362882777124
 31
0.0
  0
LINE
  5
BEB4
  8
0
 62
     0
 10
476.3188627378895
 20
513.42388682777107
 30
0.0
 11
475.65581673788932
 21
513.42388682777107
 31
0.0
  0
ARC
  5
BEB5
  8
0
 62
     0
 10
473.13628473788941
 20
508.05219282777108
 30
0.0
 40
2.0
 50
270.0
 51
354.57098099999791
  0
ARC
  5
BEB6
  8
0
 62
     0
 10
473.20312273788949
 20
502.1397218277711
 30
0.0
 40
2.0
 50
270.0
 51
354.40134700000141
  0
ARC
  5
BEB7
  8
0
 62
     0
 10
473.18009473788948
 20
496.7033688277711
 30
0.0
 40
2.0
 50
270.0
 51
353.96488600000072
  0
ARC
  5
BEB8
  8
0
 62
     0
 10
473.1543467378894
 20
492.71466382777118
 30
0.0
 40
2.0
 50
270.0
 51
353.61470099999991
  0
ARC
  5
BEB9
  8
0
 62
     0
 10
473.19074273788942
 20
490.19742082777111
 30
0.0
 40
2.0
 50
270.0
 51
353.3277999999973
  0
ARC
  5
BEBA
  8
0
 62
     0
 10
473.21133173788951
 20
489.00659082777111
 30
0.0
 40
2.0
 50
270.0
 51
353.11676000000062
  0
LINE
  5
BEBB
  8
0
 62
     0
 10
476.26792173788942
 20
506.88726682777121
 30
0.0
 11
475.6780967378894
 21
506.88726682777121
 31
0.0
  0
LINE
  5
BEBC
  8
0
 62
     0
 10
476.19689673788929
 20
501.91922382777108
 30
0.0
 11
475.74268173788943
 21
501.91922382777108
 31
0.0
  0
LINE
  5
BEBD
  8
0
 62
     0
 10
476.20882573788958
 20
498.78380382777112
 30
0.0
 11
475.8460177378895
 21
498.78380382777112
 31
0.0
  0
LINE
  5
BEBE
  8
0
 62
     0
 10
476.2689487378895
 20
497.64747582777119
 30
0.0
 11
476.07589673788948
 21
497.64747582777119
 31
0.0
  0
LINE
  5
BEBF
  8
0
 62
     0
 10
478.79715673788951
 20
545.57037782777115
 30
0.0
 11
462.29715673788951
 21
545.57037782777115
 31
0.0
  0
LINE
  5
BEC0
  8
0
 62
     0
 10
481.7971567378894
 20
535.39108582777112
 30
0.0
 11
464.29715673788951
 21
535.39108582777112
 31
0.0
  0
LINE
  5
BEC1
  8
0
 62
     0
 10
481.7971567378894
 20
523.10380482777123
 30
0.0
 11
464.29715673788951
 21
523.10380482777123
 31
0.0
  0
LINE
  5
BEC2
  8
0
 62
     0
 10
462.29715673788951
 20
544.57037782777115
 30
0.0
 11
462.29715673788951
 21
525.10380482777123
 31
0.0
  0
LINE
  5
BEC3
  8
0
 62
     0
 10
478.79715673788951
 20
545.57037782777115
 30
0.0
 11
481.7971567378894
 21
547.30242882777111
 31
0.0
  0
ARC
  5
BEC4
  8
0
 62
     0
 10
464.29715673788951
 20
537.39108582777112
 30
0.0
 40
2.0
 50
180.0
 51
270.0
  0
ARC
  5
BEC5
  8
0
 62
     0
 10
464.29715673788951
 20
525.10380482777123
 30
0.0
 40
2.0
 50
180.0
 51
270.0
  0
ARC
  5
BEC6
  8
0
 62
     0
 10
464.29715673788951
 20
533.39108582777112
 30
0.0
 40
2.0
 50
90.0
 51
180.0
  0
LINE
  5
BEC7
  8
0
 62
     0
 10
442.7971557378894
 20
529.27228782777115
 30
0.0
 11
442.7971557378894
 21
520.83362882777124
 31
0.0
  0
LINE
  5
BEC8
  8
0
 62
     0
 10
426.75403273788942
 20
525.16801482777123
 30
0.0
 11
442.7971557378894
 21
520.83362882777124
 31
0.0
  0
ARC
  5
BEC9
  8
0
 62
     0
 10
461.2971567378894
 20
544.57037782777115
 30
0.0
 40
1.0
 50
0.0
 51
90.0
  0
LINE
  5
BECA
  8
0
 62
     0
 10
426.75403273788942
 20
525.16801482777123
 30
0.0
 11
374.79715673788951
 21
525.16801482777123
 31
0.0
  0
LINE
  5
BECB
  8
0
 62
     0
 10
473.21133173788951
 20
487.00659082777122
 30
0.0
 11
281.3258897378895
 21
487.00659082777122
 31
0.0
  0
LINE
  5
BECC
  8
0
 62
     0
 10
473.19074273788942
 20
488.19742082777123
 30
0.0
 11
281.3368297378895
 21
488.19742082777123
 31
0.0
  0
LINE
  5
BECD
  8
0
 62
     0
 10
473.1543467378894
 20
490.71466382777112
 30
0.0
 11
281.34609373788948
 21
490.71466382777112
 31
0.0
  0
LINE
  5
BECE
  8
0
 62
     0
 10
473.18009473788948
 20
494.7033688277711
 30
0.0
 11
281.35804273788949
 21
494.7033688277711
 31
0.0
  0
LINE
  5
BECF
  8
0
 62
     0
 10
473.20312273788949
 20
500.1397218277711
 30
0.0
 11
281.37580673788949
 21
500.1397218277711
 31
0.0
  0
LINE
  5
BED0
  8
0
 62
     0
 10
473.13628473788941
 20
506.05219282777108
 30
0.0
 11
281.3814747378895
 21
506.05219282777108
 31
0.0
  0
LINE
  5
BED1
  8
0
 62
     0
 10
426.75403273788942
 20
659.13055882777121
 30
0.0
 11
426.75403273788942
 21
645.15308382777118
 31
0.0
  0
LINE
  5
BED2
  8
0
 62
     0
 10
442.7971557378894
 20
663.73042082777124
 30
0.0
 11
442.7971557378894
 21
661.14587082777109
 31
0.0
  0
LINE
  5
BED3
  8
0
 62
     0
 10
419.59476873788941
 20
614.11308382777088
 30
0.0
 11
476.79715673788951
 21
614.11308382777088
 31
0.0
  0
LINE
  5
BED4
  8
0
 62
     0
 10
419.61828673788932
 20
613.62308382777121
 30
0.0
 11
475.0371567378894
 21
613.62308382777121
 31
0.0
  0
LINE
  5
BED5
  8
0
 62
     0
 10
419.6912527378895
 20
612.02308382777119
 30
0.0
 11
475.0371567378894
 21
612.02308382777119
 31
0.0
  0
LINE
  5
BED6
  8
0
 62
     0
 10
419.6912527378895
 20
611.47308382777123
 30
0.0
 11
476.79715673788951
 21
611.47308382777123
 31
0.0
  0
LINE
  5
BED7
  8
0
 62
     0
 10
419.73577473788941
 20
559.11308382777099
 30
0.0
 11
476.79715673788951
 21
559.11308382777099
 31
0.0
  0
LINE
  5
BED8
  8
0
 62
     0
 10
419.71437373788928
 20
558.62308382777087
 30
0.0
 11
475.0371567378894
 21
558.62308382777087
 31
0.0
  0
LINE
  5
BED9
  8
0
 62
     0
 10
419.64169973788938
 20
557.02308382777107
 30
0.0
 11
475.0371567378894
 21
557.02308382777107
 31
0.0
  0
LINE
  5
BEDA
  8
0
 62
     0
 10
419.61573073788952
 20
556.47308382777123
 30
0.0
 11
476.79715673788951
 21
556.47308382777123
 31
0.0
  0
LINE
  5
BEDB
  8
0
 62
     0
 10
420.2810527378893
 20
589.47308382777123
 30
0.0
 11
476.79715673788951
 21
589.47308382777123
 31
0.0
  0
LINE
  5
BEDC
  8
0
 62
     0
 10
420.27677273788942
 20
590.02308382777107
 30
0.0
 11
475.0371567378894
 21
590.02308382777107
 31
0.0
  0
LINE
  5
BEDD
  8
0
 62
     0
 10
420.11076673788909
 20
570.11308382777111
 30
0.0
 11
476.79715673788951
 21
570.11308382777111
 31
0.0
  0
LINE
  5
BEDE
  8
0
 62
     0
 10
420.09835673788939
 20
569.62308382777121
 30
0.0
 11
475.0371567378894
 21
569.62308382777121
 31
0.0
  0
LINE
  5
BEDF
  8
0
 62
     0
 10
420.05504573788937
 20
568.02308382777119
 30
0.0
 11
475.0371567378894
 21
568.02308382777119
 31
0.0
  0
LINE
  5
BEE0
  8
0
 62
     0
 10
420.03917173788909
 20
567.47308382777123
 30
0.0
 11
476.79715673788951
 21
567.47308382777123
 31
0.0
  0
LINE
  5
BEE1
  8
0
 62
     0
 10
420.2840897378893
 20
581.11308382777111
 30
0.0
 11
476.79715673788951
 21
581.11308382777111
 31
0.0
  0
LINE
  5
BEE2
  8
0
 62
     0
 10
420.28065773788921
 20
580.62308382777121
 30
0.0
 11
475.0371567378894
 21
580.62308382777121
 31
0.0
  0
LINE
  5
BEE3
  8
0
 62
     0
 10
420.26666573788953
 20
579.02308382777119
 30
0.0
 11
475.0371567378894
 21
579.02308382777119
 31
0.0
  0
LINE
  5
BEE4
  8
0
 62
     0
 10
420.2608717378896
 20
578.47308382777123
 30
0.0
 11
476.79715673788951
 21
578.47308382777123
 31
0.0
  0
LINE
  5
BEE5
  8
0
 62
     0
 10
420.0407437378895
 20
603.11308382777111
 30
0.0
 11
476.79715673788951
 21
603.11308382777111
 31
0.0
  0
LINE
  5
BEE6
  8
0
 62
     0
 10
420.0407437378895
 20
602.62308382777121
 30
0.0
 11
475.0371567378894
 21
602.62308382777121
 31
0.0
  0
LINE
  5
BEE7
  8
0
 62
     0
 10
420.08537773788942
 20
601.02308382777119
 30
0.0
 11
475.0371567378894
 21
601.02308382777119
 31
0.0
  0
LINE
  5
BEE8
  8
0
 62
     0
 10
420.09973573788938
 20
600.47308382777123
 30
0.0
 11
476.79715673788951
 21
600.47308382777123
 31
0.0
  0
LINE
  5
BEE9
  8
0
 62
     0
 10
420.25591673788921
 20
592.11308382777111
 30
0.0
 11
476.79715673788951
 21
592.11308382777111
 31
0.0
  0
LINE
  5
BEEA
  8
0
 62
     0
 10
420.26145973788948
 20
591.62308382777098
 30
0.0
 11
475.0371567378894
 21
591.62308382777098
 31
0.0
  0
LINE
  5
BEEB
  8
0
 62
     0
 10
478.79715673788951
 20
497.29308382777111
 30
0.0
 11
478.79715673788951
 21
523.10380482777123
 31
0.0
  0
LINE
  5
BEEC
  8
0
 62
     0
 10
476.22616773788928
 20
497.29308382777111
 30
0.0
 11
478.79715673788951
 21
497.29308382777111
 31
0.0
  0
LINE
  5
BEED
  8
0
 62
     0
 10
476.79715673788951
 20
645.15308382777118
 30
0.0
 11
475.0371567378894
 21
644.59308382777101
 31
0.0
  0
LINE
  5
BEEE
  8
0
 62
     0
 10
475.0371567378894
 20
642.99308382777122
 30
0.0
 11
476.79715673788951
 21
642.45308382777114
 31
0.0
  0
LINE
  5
BEEF
  8
0
 62
     0
 10
476.79715673788951
 20
642.45308382777114
 30
0.0
 11
476.79715673788951
 21
645.15308382777118
 31
0.0
  0
LINE
  5
BEF0
  8
0
 62
     0
 10
475.0371567378894
 20
642.99308382777122
 30
0.0
 11
475.0371567378894
 21
644.59308382777101
 31
0.0
  0
LINE
  5
BEF1
  8
0
 62
     0
 10
476.79715673788951
 20
637.10808382777122
 30
0.0
 11
475.0371567378894
 21
636.56808382777115
 31
0.0
  0
LINE
  5
BEF2
  8
0
 62
     0
 10
475.0371567378894
 20
634.96808382777112
 30
0.0
 11
476.79715673788951
 21
634.47808382777112
 31
0.0
  0
LINE
  5
BEF3
  8
0
 62
     0
 10
475.0371567378894
 20
634.96808382777112
 30
0.0
 11
475.0371567378894
 21
636.56808382777115
 31
0.0
  0
LINE
  5
BEF4
  8
0
 62
     0
 10
476.79715673788951
 20
634.47808382777112
 30
0.0
 11
476.79715673788951
 21
637.10808382777122
 31
0.0
  0
LINE
  5
BEF5
  8
0
 62
     0
 10
411.79715673788928
 20
645.41727082777106
 30
0.0
 11
410.17524773788938
 21
662.48301382777117
 31
0.0
  0
LINE
  5
BEF6
  8
0
 62
     0
 10
411.79715673788928
 20
651.95820682777128
 30
0.0
 11
410.17663373788952
 21
668.48957482777098
 31
0.0
  0
LINE
  5
BEF7
  8
0
 62
     0
 10
279.06183573788951
 20
659.13055882777121
 30
0.0
 11
277.79715673788951
 21
659.13055882777121
 31
0.0
  0
LINE
  5
BEF8
  8
0
 62
     0
 10
277.79715673788951
 20
645.15308382777118
 30
0.0
 11
279.5571567378895
 21
644.59308382777101
 31
0.0
  0
LINE
  5
BEF9
  8
0
 62
     0
 10
279.5571567378895
 20
642.99308382777122
 30
0.0
 11
277.79715673788951
 21
642.45308382777114
 31
0.0
  0
LINE
  5
BEFA
  8
0
 62
     0
 10
277.79715673788951
 20
637.10808382777122
 30
0.0
 11
279.5571567378895
 21
636.56808382777115
 31
0.0
  0
LINE
  5
BEFB
  8
0
 62
     0
 10
279.5571567378895
 20
634.96808382777112
 30
0.0
 11
277.79715673788951
 21
634.47808382777112
 31
0.0
  0
LINE
  5
BEFC
  8
0
 62
     0
 10
277.79715673788951
 20
642.45308382777114
 30
0.0
 11
277.79715673788951
 21
645.15308382777118
 31
0.0
  0
LINE
  5
BEFD
  8
0
 62
     0
 10
279.5571567378895
 20
642.99308382777122
 30
0.0
 11
279.5571567378895
 21
644.59308382777101
 31
0.0
  0
LINE
  5
BEFE
  8
0
 62
     0
 10
279.5571567378895
 20
634.96808382777112
 30
0.0
 11
279.5571567378895
 21
636.56808382777115
 31
0.0
  0
LINE
  5
BEFF
  8
0
 62
     0
 10
277.79715673788951
 20
634.47808382777112
 30
0.0
 11
277.79715673788951
 21
637.10808382777122
 31
0.0
  0
LINE
  5
BF00
  8
0
 62
     0
 10
277.79715673788951
 20
624.01251882777115
 30
0.0
 11
330.56064373788962
 21
624.01251882777115
 31
0.0
  0
LINE
  5
BF01
  8
0
 62
     0
 10
286.16715673788951
 20
623.16074582777128
 30
0.0
 11
330.5059137378895
 21
623.16074582777128
 31
0.0
  0
LINE
  5
BF02
  8
0
 62
     0
 10
277.79715673788951
 20
624.01251882777115
 30
0.0
 11
286.16715673788951
 21
623.16074582777128
 31
0.0
  0
LINE
  5
BF03
  8
0
 62
     0
 10
284.47226273788942
 20
546.57364882777119
 30
0.0
 11
330.53244773788953
 21
546.57364882777119
 31
0.0
  0
LINE
  5
BF04
  8
0
 62
     0
 10
286.16715673788951
 20
547.42542182777106
 30
0.0
 11
330.47834073788948
 21
547.42542182777106
 31
0.0
  0
LINE
  5
BF05
  8
0
 62
     0
 10
277.79715673788951
 20
550.93429482777105
 30
0.0
 11
277.79715673788951
 21
624.01251882777115
 31
0.0
  0
LINE
  5
BF06
  8
0
 62
     0
 10
277.79715673788951
 20
550.93429482777105
 30
0.0
 11
283.26033273788948
 21
547.12960882777111
 31
0.0
  0
LINE
  5
BF07
  8
0
 62
     0
 10
283.26033273788948
 20
547.12960882777111
 30
0.0
 11
284.47226273788942
 21
546.57364882777119
 31
0.0
  0
LINE
  5
BF08
  8
0
 62
     0
 10
283.26033273788948
 20
547.12960882777111
 30
0.0
 11
286.16715673788951
 21
547.42542182777106
 31
0.0
  0
LINE
  5
BF09
  8
0
 62
     0
 10
286.16715673788951
 20
547.42542182777106
 30
0.0
 11
286.16715673788951
 21
623.16074582777128
 31
0.0
  0
LINE
  5
BF0A
  8
0
 62
     0
 10
274.29715673788951
 20
668.91338082777122
 30
0.0
 11
278.07391573788948
 21
668.91338082777122
 31
0.0
  0
LINE
  5
BF0B
  8
0
 62
     0
 10
363.79715673788951
 20
686.29308382777106
 30
0.0
 11
385.79715673788951
 21
686.29308382777106
 31
0.0
  0
LINE
  5
BF0C
  8
0
 62
     0
 10
363.79715673788951
 20
686.29308382777106
 30
0.0
 11
363.79715673788951
 21
682.38980282777106
 31
0.0
  0
LINE
  5
BF0D
  8
0
 62
     0
 10
385.79715673788951
 20
686.29308382777106
 30
0.0
 11
385.79715673788951
 21
682.38980282777106
 31
0.0
  0
LINE
  5
BF0E
  8
0
 62
     0
 10
279.5571567378895
 20
642.99308382777122
 30
0.0
 11
475.0371567378894
 21
642.99308382777122
 31
0.0
  0
LINE
  5
BF0F
  8
0
 62
     0
 10
279.5571567378895
 20
644.59308382777101
 30
0.0
 11
475.0371567378894
 21
644.59308382777101
 31
0.0
  0
LINE
  5
BF10
  8
0
 62
     0
 10
277.79715673788951
 20
642.45308382777114
 30
0.0
 11
476.79715673788951
 21
642.45308382777114
 31
0.0
  0
LINE
  5
BF11
  8
0
 62
     0
 10
277.79715673788951
 20
645.15308382777118
 30
0.0
 11
476.79715673788951
 21
645.15308382777118
 31
0.0
  0
LINE
  5
BF12
  8
0
 62
     0
 10
277.79715673788951
 20
634.47808382777112
 30
0.0
 11
331.64882373788947
 21
634.47808382777112
 31
0.0
  0
LINE
  5
BF13
  8
0
 62
     0
 10
277.79715673788951
 20
637.10808382777122
 30
0.0
 11
333.65877273788948
 21
637.10808382777122
 31
0.0
  0
LINE
  5
BF14
  8
0
 62
     0
 10
279.5571567378895
 20
634.96808382777112
 30
0.0
 11
331.87958073788963
 21
634.96808382777112
 31
0.0
  0
LINE
  5
BF15
  8
0
 62
     0
 10
279.5571567378895
 20
636.56808382777115
 30
0.0
 11
333.05098273788951
 21
636.56808382777115
 31
0.0
  0
LINE
  5
BF16
  8
0
 62
     0
 10
481.7971567378894
 20
500.29308382777123
 30
0.0
 11
478.79715673788951
 21
497.29308382777111
 31
0.0
  0
LINE
  5
BF17
  8
0
 62
     0
 10
481.7971567378894
 20
500.29308382777123
 30
0.0
 11
481.7971567378894
 21
670.29308382777106
 31
0.0
  0
LINE
  5
BF18
  8
0
 62
     0
 10
481.7971567378894
 20
670.29308382777106
 30
0.0
 11
478.79715673788951
 21
673.29308382777106
 31
0.0
  0
LINE
  5
BF83
  8
0
 62
     0
 10
203.29715673788951
 20
484.09308382777118
 30
0.0
 11
274.29715673788951
 21
484.09308382777118
 31
0.0
  0
LINE
  5
BFE3
  8
0
  6
AM_ISO08W050
 62
     0
 10
562.0322810294814
 20
585.29308382777106
 30
0.0
 11
184.5331567378895
 21
585.29308382777106
 31
0.0
1001
GENIUS_GENOBJ-N-CEN_13
1002
{
1000
OWNER
1000
GEN
1002
}
1001
GENIUS_GENODEF_13
1002
{
1000
HIER
1070
     0
1002
}
1002
{
1000
MANEDIT
1070
     0
1002
}
1002
{
1000
NOSEL
1070
     0
1002
}
1002
{
1000
BEHIND
1070
     0
1002
}
1002
{
1000
OTHER
1070
     0
1002
}
1002
{
1000
REACTOR
1002
}
1001
GENIUS_GENCEN_19
1002
{
1040
16.763999999999999
1002
}
  0
LINE
  5
C5B2
  8
0
  6
AM_ISO08W050
 62
     0
 10
175.57929226955051
 20
1006.679917372477
 30
0.0
 11
795.91440673788884
 21
1006.679917372477
 31
0.0
  0
LINE
  5
C5B3
  8
0
  6
CONTINUOUS
 62
     0
 10
481.7971567378886
 20
1090.679857372478
 30
0.0
 11
495.47165673788868
 21
1091.1573873724781
 31
0.0
  0
LINE
  5
C5B4
  8
0
  6
CONTINUOUS
 62
     0
 10
481.7971567378886
 20
922.67985737247739
 30
0.0
 11
495.47165673788868
 21
922.20231737247798
 31
0.0
  0
LINE
  5
C5B5
  8
0
  6
CONTINUOUS
 62
     0
 10
481.79721673788868
 20
922.67985737247739
 30
0.0
 11
481.79721673788868
 21
1090.6799173724769
 31
0.0
  0
LINE
  5
C5EC
  8
0
  6
CONTINUOUS
 62
     0
 10
515.47165673788857
 20
1118.4939373724781
 30
0.0
 11
505.1226567378888
 21
1118.132547372478
 31
0.0
  0
LINE
  5
C5ED
  8
0
  6
CONTINUOUS
 62
     0
 10
515.47171673788898
 20
894.86588737247769
 30
0.0
 11
505.1226567378888
 21
895.22727737247772
 31
0.0
  0
LINE
  5
C5EE
  8
0
  6
CONTINUOUS
 62
     0
 10
500.29715673788911
 20
900.22422737247746
 30
0.0
 11
500.29715673788911
 21
1113.135607372478
 31
0.0
  0
LINE
  5
C5EF
  8
0
  6
CENTER
 62
     0
 10
532.2972167378889
 20
991.49961737247816
 30
0.0
 11
532.2972167378889
 21
1021.234477372478
 31
0.0
  0
LINE
  5
C5F0
  8
0
  6
CONTINUOUS
 62
     0
 10
512.2972167378889
 20
1001.679917372477
 30
0.0
 11
552.29721673788856
 21
1001.679917372477
 31
0.0
  0
LINE
  5
C5F1
  8
0
  6
CONTINUOUS
 62
     0
 10
512.2972167378889
 20
1011.679917372477
 30
0.0
 11
552.29721673788856
 21
1011.679917372477
 31
0.0
  0
ARC
  5
C623
  8
0
  6
CONTINUOUS
 62
     0
 10
505.29715673788888
 20
900.22422737247746
 30
0.0
 40
5.0
 50
180.000010000001
 51
267.99999999999619
  0
ARC
  5
C624
  8
0
  6
CONTINUOUS
 62
     0
 10
505.29715673788888
 20
1113.135607372478
 30
0.0
 40
5.0
 50
91.999997999994051
 51
180.000010000001
  0
ARC
  5
C625
  8
0
  6
CONTINUOUS
 62
     0
 10
532.2972167378889
 20
1006.679917372477
 30
0.0
 40
15.0
 50
148.21197999999171
 51
160.5287699999993
  0
ARC
  5
C626
  8
0
  6
CONTINUOUS
 62
     0
 10
532.2972167378889
 20
1006.679917372477
 30
0.0
 40
12.5
 50
23.578179999997541
 51
156.42182000000241
  0
ARC
  5
C627
  8
0
  6
CONTINUOUS
 62
     0
 10
512.2972167378889
 20
1006.679917372477
 30
0.0
 40
5.0
 50
90.000002999984659
 51
270.0
  0
ARC
  5
C628
  8
0
  6
CONTINUOUS
 62
     0
 10
552.29721673788856
 20
1006.679917372477
 30
0.0
 40
5.0
 50
270.0
 51
90.000002999984659
  0
ARC
  5
C629
  8
0
  6
CONTINUOUS
 62
     0
 10
532.2972167378889
 20
1006.679917372477
 30
0.0
 40
12.5
 50
203.5781799999975
 51
336.42182999999483
  0
ARC
  5
C62A
  8
0
  6
CONTINUOUS
 62
     0
 10
532.2972167378889
 20
1006.679917372477
 30
0.0
 40
15.0
 50
199.4712300000007
 51
211.78802000000829
  0
ARC
  5
C62D
  8
0
  6
CONTINUOUS
 62
     0
 10
495.297156737889
 20
917.20536737247801
 30
0.0
 40
5.0
 50
0.0
 51
87.999999999996248
  0
ARC
  5
C62E
  8
0
  6
CONTINUOUS
 62
     0
 10
495.297156737889
 20
1096.154397372477
 30
0.0
 40
5.0
 50
272.00000000000369
 51
0.0
  0
ARC
  5
C637
  8
0
  6
CONTINUOUS
 62
     0
 10
515.29715673788905
 20
996.14432737247773
 30
0.0
 40
5.0
 50
0.0
 51
31.788018000003131
  0
ARC
  5
C638
  8
0
  6
CONTINUOUS
 62
     0
 10
515.29715673788905
 20
1017.215437372477
 30
0.0
 40
5.0
 50
328.2119799999918
 51
0.0
  0
LINE
  5
C639
  8
0
 62
     0
 10
412.29715573788872
 20
901.67991737247746
 30
0.0
 11
412.29715573788872
 21
904.67991737247758
 31
0.0
  0
LINE
  5
C63A
  8
0
 62
     0
 10
337.29715573788872
 20
901.67991737247746
 30
0.0
 11
337.29715573788872
 21
904.67991737247758
 31
0.0
  0
LINE
  5
C63B
  8
0
 62
     0
 10
411.78115573788858
 20
846.2198373724774
 30
0.0
 11
337.8141157378891
 21
846.2198373724774
 31
0.0
  0
LINE
  5
C63C
  8
0
 62
     0
 10
411.94705573788849
 20
893.49192737247745
 30
0.0
 11
337.40713573788889
 21
893.49192737247745
 31
0.0
  0
LINE
  5
C63D
  8
0
 62
     0
 10
413.34207573788899
 20
896.46092737247795
 30
0.0
 11
336.3520857378889
 21
896.46092737247795
 31
0.0
  0
LINE
  5
C63E
  8
0
 62
     0
 10
413.13308573788879
 20
900.92186737247755
 30
0.0
 11
336.43509573788879
 21
900.92186737247755
 31
0.0
  0
LINE
  5
C63F
  8
0
 62
     0
 10
412.54715573788872
 20
901.67991737247746
 30
0.0
 11
337.03245873788859
 21
901.67991737247746
 31
0.0
  0
LINE
  5
C640
  8
0
 62
     0
 10
337.42715573788882
 20
862.12193737247765
 30
0.0
 11
412.40713573788878
 21
862.12193737247765
 31
0.0
  0
ARC
  5
C641
  8
0
 62
     0
 10
-180.30287426211109
 20
872.09483737247774
 30
0.0
 40
600.59997999999973
 50
357.90661999999458
 51
2.5214029999981382
  0
ARC
  5
C642
  8
0
 62
     0
 10
411.78115573788858
 20
849.81993737247763
 30
0.0
 40
3.6000000000000001
 50
269.99995999999589
 51
355.68894999999969
  0
ARC
  5
C643
  8
0
 62
     0
 10
-180.30287426211109
 20
872.09483737247774
 30
0.0
 40
596.09997999999973
 50
357.83251999999328
 51
1.945678999999225
  0
ARC
  5
C644
  8
0
 62
     0
 10
412.54715573788872
 20
898.0799473724777
 30
0.0
 40
3.6000000000000001
 50
53.340590999997787
 51
89.999989000004106
  0
ARC
  5
C645
  8
0
 62
     0
 10
414.15213573788878
 20
889.01793737247772
 30
0.0
 40
7.4984399999999969
 50
40.106594000003419
 51
96.966986999996863
  0
ARC
  5
C646
  8
0
 62
     0
 10
414.15213573788878
 20
893.48887737247765
 30
0.0
 40
7.4984399999999969
 50
42.0993939999925
 51
96.966986999996863
  0
ARC
  5
C647
  8
0
 62
     0
 10
412.7440457378886
 20
889.78990737247761
 30
0.0
 40
3.7436899999999982
 50
43.772793999996388
 51
98.860984000010419
  0
ARC
  5
C648
  8
0
 62
     0
 10
412.7440457378886
 20
858.4228373724776
 30
0.0
 40
3.7436899999999982
 50
43.772793999996388
 51
98.860984000010419
  0
ARC
  5
C649
  8
0
 62
     0
 10
415.23513573788881
 20
853.51085737247774
 30
0.0
 40
5.7431099999999971
 50
265.1789600000053
 51
324.25095000000579
  0
ARC
  5
C64A
  8
0
 62
     0
 10
929.89709573788866
 20
872.09483737247774
 30
0.0
 40
600.59997999999973
 50
177.4789700000027
 51
182.0929499999929
  0
ARC
  5
C64B
  8
0
 62
     0
 10
337.8141157378891
 20
849.81993737247763
 30
0.0
 40
3.6000000000000001
 50
184.31098
 51
269.99995999999589
  0
ARC
  5
C64C
  8
0
 62
     0
 10
929.89709573788866
 20
872.09483737247774
 30
0.0
 40
596.09997999999973
 50
178.05396999999269
 51
182.16694999999501
  0
ARC
  5
C64D
  8
0
 62
     0
 10
337.04715573788872
 20
898.0799473724777
 30
0.0
 40
3.6000000000000001
 50
89.999989000004106
 51
126.658990000006
  0
ARC
  5
C64E
  8
0
 62
     0
 10
335.4421757378891
 20
889.01793737247772
 30
0.0
 40
7.4984399999999969
 50
83.032990999994595
 51
139.89297999998459
  0
ARC
  5
C64F
  8
0
 62
     0
 10
335.4421757378891
 20
893.48887737247765
 30
0.0
 40
7.4984399999999969
 50
83.032990999994595
 51
137.9009900000047
  0
ARC
  5
C650
  8
0
 62
     0
 10
336.8501257378889
 20
889.78990737247761
 30
0.0
 40
3.7436899999999982
 50
81.138986000010405
 51
136.2269799999992
  0
ARC
  5
C651
  8
0
 62
     0
 10
336.8501257378889
 20
858.4228373724776
 30
0.0
 40
3.7436899999999982
 50
81.138986000010405
 51
136.2269799999992
  0
ARC
  5
C652
  8
0
 62
     0
 10
334.35916573788882
 20
853.51085737247774
 30
0.0
 40
5.7431099999999971
 50
215.7489699999997
 51
274.82095999999291
  0
LINE
  5
C653
  8
0
 62
     0
 10
337.29715573788872
 20
904.67991737247758
 30
0.0
 11
412.29715573788872
 21
904.67991737247758
 31
0.0
  0
ARC
  5
C654
  8
0
 62
     0
 10
203.69721673788899
 20
921.18254337247765
 30
0.0
 40
2.399999999999999
 50
180.0
 51
200.00000000000369
  0
ARC
  5
C655
  8
0
 62
     0
 10
208.29168073788881
 20
908.55935837247785
 30
0.0
 40
2.399999999999999
 50
200.00000000000369
 51
270.0
  0
LINE
  5
C656
  8
0
 62
     0
 10
206.0364177378888
 20
907.73851037247755
 30
0.0
 11
201.44195473788889
 21
920.36169537247747
 31
0.0
  0
LINE
  5
C657
  8
0
 62
     0
 10
274.2972167378889
 20
906.15935837247753
 30
0.0
 11
208.29168073788881
 21
906.15935837247753
 31
0.0
  0
LINE
  5
C658
  8
0
 62
     0
 10
274.2972167378889
 20
1107.2004763724769
 30
0.0
 11
274.2972167378889
 21
906.15935837247753
 31
0.0
  0
LINE
  5
C659
  8
0
 62
     0
 10
206.0364177378888
 20
1105.6213243724781
 30
0.0
 11
201.44195473788889
 21
1092.998139372477
 31
0.0
  0
ARC
  5
C65A
  8
0
 62
     0
 10
208.29168073788881
 20
1104.8004763724771
 30
0.0
 40
2.399999999999999
 50
90.0
 51
159.99999999999631
  0
ARC
  5
C65B
  8
0
 62
     0
 10
203.69721673788899
 20
1092.1772913724769
 30
0.0
 40
2.399999999999999
 50
159.99999999999631
 51
180.0
  0
LINE
  5
C65C
  8
0
 62
     0
 10
206.61118173788921
 20
1106.5139303724779
 30
0.0
 11
206.61118173788921
 21
906.15935837247753
 31
0.0
  0
LINE
  5
C65D
  8
0
 62
     0
 10
201.2972167378889
 20
1092.1772913724769
 30
0.0
 11
201.2972167378889
 21
921.40047637247756
 31
0.0
  0
LINE
  5
C65E
  8
0
 62
     0
 10
274.2972167378889
 20
1107.2004763724769
 30
0.0
 11
208.29168073788881
 21
1107.2004763724769
 31
0.0
  0
ARC
  5
C65F
  8
0
 62
     0
 10
282.74086073788891
 20
924.27923737247772
 30
0.0
 40
2.0
 50
190.000000000005
 51
270.0
  0
LINE
  5
C660
  8
0
 62
     0
 10
280.77124573788888
 20
923.93194137247747
 30
0.0
 11
277.7972167378889
 21
940.79849537247776
 31
0.0
  0
LINE
  5
C661
  8
0
 62
     0
 10
277.7972167378889
 20
940.79849537247776
 30
0.0
 11
278.85895573788872
 21
940.79849537247776
 31
0.0
  0
LINE
  5
C662
  8
0
 62
     0
 10
476.2613577378886
 20
1092.8522243724781
 30
0.0
 11
476.79721673788868
 21
1092.8522243724781
 31
0.0
  0
LINE
  5
C663
  8
0
 62
     0
 10
476.52174873788891
 20
1094.414481372477
 30
0.0
 11
476.79721673788868
 21
1094.414481372477
 31
0.0
  0
LINE
  5
C664
  8
0
 62
     0
 10
478.4754157378888
 20
918.68006837247765
 30
0.0
 11
478.79721673788879
 21
918.68006837247765
 31
0.0
  0
LINE
  5
C665
  8
0
 62
     0
 10
474.61782173788868
 20
923.52793137247761
 30
0.0
 11
476.79721673788868
 21
923.52793137247761
 31
0.0
  0
LINE
  5
C666
  8
0
 62
     0
 10
475.62390473788901
 20
935.63350137247755
 30
0.0
 11
476.79721673788868
 21
935.63350137247755
 31
0.0
  0
LINE
  5
C667
  8
0
  6
AM_ISO08W050
 62
     0
 10
374.79721673788879
 20
899.02395237247777
 30
0.0
 11
374.79721673788879
 21
908.20566837247759
 31
0.0
  0
ARC
  5
C668
  8
0
 62
     0
 10
473.04009673788858
 20
1095.688165372477
 30
0.0
 40
2.0
 50
10.00000000000502
 51
90.0
  0
ARC
  5
C669
  8
0
 62
     0
 10
473.10611373788879
 20
1099.2289643724771
 30
0.0
 40
2.0
 50
10.00000000000502
 51
90.0
  0
ARC
  5
C66A
  8
0
 62
     0
 10
473.1920317378889
 20
1101.780701372478
 30
0.0
 40
2.0
 50
10.00000000000502
 51
90.0
  0
ARC
  5
C66B
  8
0
 62
     0
 10
473.22078073788862
 20
1103.1799173724769
 30
0.0
 40
2.0
 50
10.00000000000502
 51
90.0
  0
LINE
  5
C66C
  8
0
 62
     0
 10
481.79721973788901
 20
1091.6799173724769
 30
0.0
 11
478.79721973788901
 21
1094.6799173724769
 31
0.0
  0
LINE
  5
C66D
  8
0
 62
     0
 10
476.75041273788872
 20
1094.6799173724769
 30
0.0
 11
478.79721673788879
 21
1094.6799173724769
 31
0.0
  0
LINE
  5
C66E
  8
0
 62
     0
 10
481.79721673788868
 20
921.67991737247758
 30
0.0
 11
478.79721673788879
 21
918.67991737247746
 31
0.0
  0
LINE
  5
C66F
  8
0
  6
CONTINUOUS
 62
     0
 10
478.79721673788879
 20
918.67991737247746
 30
0.0
 11
478.79721673788879
 21
944.30030337247752
 31
0.0
  0
LINE
  5
C670
  8
0
  6
CONTINUOUS
 62
     0
 10
481.79721673788868
 20
921.67991737247758
 30
0.0
 11
481.79721673788868
 21
1091.6799173724769
 31
0.0
  0
CIRCLE
  5
C671
  8
0
 62
     0
 10
374.79721673788879
 20
1006.679917372477
 30
0.0
 40
11.0
  0
LINE
  5
C672
  8
0
 62
     0
 10
282.08333673788871
 20
1105.1799173724769
 30
0.0
 11
333.7972167378889
 21
1105.1799173724769
 31
0.0
  0
LINE
  5
C673
  8
0
 62
     0
 10
413.79721673788879
 20
1097.688165372477
 30
0.0
 11
413.79721673788879
 21
1103.1799173724769
 31
0.0
  0
LINE
  5
C674
  8
0
 62
     0
 10
335.7972167378889
 20
1097.688165372477
 30
0.0
 11
335.7972167378889
 21
1103.1799173724769
 31
0.0
  0
ARC
  5
C675
  8
0
 62
     0
 10
333.7972167378889
 20
1103.1799173724769
 30
0.0
 40
2.0
 50
0.0
 51
90.0
  0
ARC
  5
C676
  8
0
 62
     0
 10
415.79721673788868
 20
1103.1799173724769
 30
0.0
 40
2.0
 50
90.0
 51
180.0
  0
LINE
  5
C677
  8
0
 62
     0
 10
415.79721673788868
 20
1105.1799173724769
 30
0.0
 11
473.22078073788862
 21
1105.1799173724769
 31
0.0
  0
LINE
  5
C678
  8
0
 62
     0
 10
473.1920317378889
 20
1103.780701372478
 30
0.0
 11
415.79721673788868
 21
1103.780701372478
 31
0.0
  0
LINE
  5
C679
  8
0
 62
     0
 10
476.79721673788868
 20
1092.8522243724781
 30
0.0
 11
475.16164773788859
 21
1102.1279973724779
 31
0.0
  0
LINE
  5
C67A
  8
0
 62
     0
 10
476.79721673788868
 20
1094.414481372477
 30
0.0
 11
475.19039573788899
 21
1103.527213372477
 31
0.0
  0
LINE
  5
C67B
  8
0
 62
     0
 10
277.7972167378889
 20
1090.3896633724769
 30
0.0
 11
280.11372173788868
 21
1103.527213372477
 31
0.0
  0
ARC
  5
C67C
  8
0
 62
     0
 10
282.08333673788871
 20
1103.1799173724769
 30
0.0
 40
2.0
 50
90.0
 51
169.99999999999491
  0
LINE
  5
C67D
  8
0
 62
     0
 10
277.7972167378889
 20
1088.730602372478
 30
0.0
 11
280.15953873788879
 21
1102.1279973724779
 31
0.0
  0
ARC
  5
C67E
  8
0
 62
     0
 10
282.12915473788911
 20
1101.780701372478
 30
0.0
 40
2.0
 50
90.0
 51
169.99999999999491
  0
ARC
  5
C67F
  8
0
 62
     0
 10
333.7972167378889
 20
1101.780701372478
 30
0.0
 40
2.0
 50
0.0
 51
90.0
  0
ARC
  5
C680
  8
0
 62
     0
 10
415.79721673788868
 20
1101.780701372478
 30
0.0
 40
2.0
 50
90.0
 51
180.0
  0
LINE
  5
C681
  8
0
 62
     0
 10
333.7972167378889
 20
1103.780701372478
 30
0.0
 11
282.12915473788911
 21
1103.780701372478
 31
0.0
  0
LINE
  5
C682
  8
0
 62
     0
 10
473.10611373788879
 20
1101.2289643724771
 30
0.0
 11
415.79721673788868
 21
1101.2289643724771
 31
0.0
  0
LINE
  5
C683
  8
0
 62
     0
 10
476.66843673788873
 20
1090.543566372477
 30
0.0
 11
475.07572873788871
 21
1099.576261372478
 31
0.0
  0
LINE
  5
C684
  8
0
 62
     0
 10
277.7972167378889
 20
1085.5098113724771
 30
0.0
 11
280.2775117378892
 21
1099.576261372478
 31
0.0
  0
ARC
  5
C685
  8
0
 62
     0
 10
282.24712673788872
 20
1099.2289643724771
 30
0.0
 40
2.0
 50
90.0
 51
169.99999999999491
  0
ARC
  5
C686
  8
0
 62
     0
 10
333.7972167378889
 20
1099.2289643724771
 30
0.0
 40
2.0
 50
0.0
 51
90.0
  0
ARC
  5
C687
  8
0
 62
     0
 10
415.79721673788868
 20
1099.2289643724771
 30
0.0
 40
2.0
 50
90.0
 51
180.0
  0
LINE
  5
C688
  8
0
 62
     0
 10
333.7972167378889
 20
1101.2289643724771
 30
0.0
 11
282.24712673788872
 21
1101.2289643724771
 31
0.0
  0
LINE
  5
C689
  8
0
 62
     0
 10
473.04009673788858
 20
1097.688165372477
 30
0.0
 11
282.4086357378888
 21
1097.688165372477
 31
0.0
  0
LINE
  5
C68A
  8
0
 62
     0
 10
475.978081737889
 20
1090.543566372477
 30
0.0
 11
475.00971273788889
 21
1096.0354613724769
 31
0.0
  0
LINE
  5
C68B
  8
0
 62
     0
 10
277.7972167378889
 20
1081.0530513724771
 30
0.0
 11
280.43901973788888
 21
1096.0354613724769
 31
0.0
  0
ARC
  5
C68C
  8
0
 62
     0
 10
282.4086357378888
 20
1095.688165372477
 30
0.0
 40
2.0
 50
90.0
 51
169.99999999999491
  0
LINE
  5
C68D
  8
0
 62
     0
 10
406.8535727378889
 20
1091.0805973724771
 30
0.0
 11
282.74086073788891
 21
1091.0805973724771
 31
0.0
  0
LINE
  5
C68E
  8
0
 62
     0
 10
411.79721673788868
 20
1072.5613393724771
 30
0.0
 11
408.82318773788887
 21
1089.427893372477
 31
0.0
  0
ARC
  5
C68F
  8
0
 62
     0
 10
406.8535727378889
 20
1089.0805973724771
 30
0.0
 40
2.0
 50
10.00000000000502
 51
90.0
  0
LINE
  5
C690
  8
0
 62
     0
 10
277.7972167378889
 20
1072.5613393724771
 30
0.0
 11
280.77124573788888
 21
1089.427893372477
 31
0.0
  0
ARC
  5
C691
  8
0
 62
     0
 10
282.74086073788891
 20
1089.0805973724771
 30
0.0
 40
2.0
 50
90.0
 51
169.99999999999491
  0
LINE
  5
C692
  8
0
 62
     0
 10
406.52330873788878
 20
1085.6785533724781
 30
0.0
 11
283.07112473788902
 21
1085.6785533724781
 31
0.0
  0
LINE
  5
C693
  8
0
 62
     0
 10
411.5761657378888
 20
1066.5399173724779
 30
0.0
 11
408.4929247378891
 21
1084.025850372477
 31
0.0
  0
ARC
  5
C694
  8
0
 62
     0
 10
406.52330873788878
 20
1083.6785533724781
 30
0.0
 40
2.0
 50
10.00000000000502
 51
90.0
  0
LINE
  5
C695
  8
0
 62
     0
 10
278.07421073788879
 20
1066.857185372477
 30
0.0
 11
281.10150873788871
 21
1084.025850372477
 31
0.0
  0
ARC
  5
C696
  8
0
 62
     0
 10
283.07112473788902
 20
1083.6785533724781
 30
0.0
 40
2.0
 50
90.0
 51
169.99999999999491
  0
LINE
  5
C697
  8
0
 62
     0
 10
476.79721673788868
 20
1011.7100693724771
 30
0.0
 11
476.79721673788868
 21
1014.657761372477
 31
0.0
  0
LINE
  5
C698
  8
0
 62
     0
 10
476.79721673788868
 20
1021.709545372478
 30
0.0
 11
476.79721673788868
 21
1024.6710243724781
 31
0.0
  0
LINE
  5
C699
  8
0
 62
     0
 10
476.79721673788868
 20
1032.7017253724771
 30
0.0
 11
476.79721673788868
 21
1035.6943523724769
 31
0.0
  0
LINE
  5
C69A
  8
0
 62
     0
 10
476.79721673788868
 20
1043.6845203724779
 30
0.0
 11
476.79721673788868
 21
1046.730226372478
 31
0.0
  0
LINE
  5
C69B
  8
0
 62
     0
 10
476.79721673788868
 20
1054.654399372477
 30
0.0
 11
476.79721673788868
 21
1057.7853123724781
 31
0.0
  0
LINE
  5
C69C
  8
0
 62
     0
 10
476.79721673788868
 20
1063.612875372477
 30
0.0
 11
476.79721673788868
 21
1066.857185372477
 31
0.0
  0
LINE
  5
C69D
  8
0
 62
     0
 10
426.79721673788868
 20
1081.0530513724771
 30
0.0
 11
410.29989873788912
 21
1081.0530513724771
 31
0.0
  0
LINE
  5
C69E
  8
0
 62
     0
 10
458.5839937378887
 20
1085.8980193724769
 30
0.0
 11
442.79721673788879
 21
1085.8980193724769
 31
0.0
  0
LINE
  5
C69F
  8
0
 62
     0
 10
426.79721673788868
 20
1081.0530513724771
 30
0.0
 11
442.79721673788879
 21
1085.8980193724769
 31
0.0
  0
LINE
  5
C6A0
  8
0
 62
     0
 10
442.79721673788879
 20
1085.8980193724769
 30
0.0
 11
442.79721673788879
 21
1082.5327043724781
 31
0.0
  0
LINE
  5
C6A1
  8
0
 62
     0
 10
426.79721673788868
 20
1081.0530513724771
 30
0.0
 11
426.79721673788868
 21
1066.857185372477
 31
0.0
  0
LINE
  5
C6A2
  8
0
 62
     0
 10
462.29721673788879
 20
1069.7458793724779
 30
0.0
 11
462.29721673788879
 21
1088.543566372477
 31
0.0
  0
ARC
  5
C6A3
  8
0
 62
     0
 10
464.29721673788868
 20
1088.543566372477
 30
0.0
 40
2.0
 50
90.0
 51
180.0
  0
LINE
  5
C6A4
  8
0
 62
     0
 10
462.29721673788879
 20
1074.1359773724771
 30
0.0
 11
442.79721673788879
 21
1074.1359773724771
 31
0.0
  0
LINE
  5
C6A5
  8
0
 62
     0
 10
456.89722273788902
 20
1082.5327043724781
 30
0.0
 11
442.79721673788879
 21
1082.5327043724781
 31
0.0
  0
LINE
  5
C6A6
  8
0
 62
     0
 10
442.79721673788879
 20
1074.1359773724771
 30
0.0
 11
442.79721673788879
 21
1066.857185372477
 31
0.0
  0
LINE
  5
C6A8
  8
0
 62
     0
 10
481.79721673788868
 20
1090.543566372477
 30
0.0
 11
464.29721673788868
 21
1090.543566372477
 31
0.0
  0
LINE
  5
C6A9
  8
0
 62
     0
 10
481.79721673788868
 20
1068.7458793724779
 30
0.0
 11
461.29721673788868
 21
1068.7458793724779
 31
0.0
  0
ARC
  5
C6AA
  8
0
 62
     0
 10
461.29721673788868
 20
1069.7458793724779
 30
0.0
 40
1.0
 50
270.0
 51
0.0
  0
LINE
  5
C6AB
  8
0
 62
     0
 10
481.79721673788868
 20
1082.419561372478
 30
0.0
 11
464.29721673788868
 21
1082.419561372478
 31
0.0
  0
LINE
  5
C6AC
  8
0
 62
     0
 10
274.2972167378889
 20
1090.6799173724769
 30
0.0
 11
277.7972167378889
 21
1090.6799173724769
 31
0.0
  0
ARC
  5
C6AD
  8
0
 62
     0
 10
478.4754157378888
 20
916.67991737247758
 30
0.0
 40
2.0
 50
90.0
 51
169.99999999999491
  0
ARC
  5
C6AE
  8
0
 62
     0
 10
414.53985873788901
 20
911.68626037247759
 30
0.0
 40
1.9936590000000001
 50
90.075931000003507
 51
178.1702539999921
  0
LINE
  5
C6AF
  8
0
 62
     0
 10
414.53721673788851
 20
913.67991737247758
 30
0.0
 11
474.23738273788859
 21
913.67991737247758
 31
0.0
  0
LINE
  5
C6B0
  8
0
 62
     0
 10
412.29721673788879
 20
904.67991737247758
 30
0.0
 11
412.9132457378887
 21
922.2792373724775
 31
0.0
  0
LINE
  5
C6B1
  8
0
 62
     0
 10
476.50580073788888
 20
917.02721337247749
 30
0.0
 11
476.20699773788868
 21
915.33262137247777
 31
0.0
  0
ARC
  5
C6B2
  8
0
 62
     0
 10
474.23738273788859
 20
915.67991737247758
 30
0.0
 40
2.0
 50
270.0
 51
349.99999999999488
  0
LINE
  5
C6B3
  8
0
 62
     0
 10
278.37456673788893
 20
921.67991737247758
 30
0.0
 11
285.59144573788899
 21
909.17991737247758
 31
0.0
  0
LINE
  5
C6B4
  8
0
 62
     0
 10
287.323495737889
 20
908.17991737247746
 30
0.0
 11
335.2421877378888
 21
908.17991737247746
 31
0.0
  0
LINE
  5
C6B5
  8
0
 62
     0
 10
337.29721673788879
 20
904.67991737247758
 30
0.0
 11
337.2409047378888
 21
906.25153237247764
 31
0.0
  0
ARC
  5
C6B6
  8
0
 62
     0
 10
276.64251573788903
 20
920.67991737247746
 30
0.0
 40
2.0
 50
30.000000000000551
 51
90.0
  0
ARC
  5
C6B7
  8
0
 62
     0
 10
287.323495737889
 20
910.17991737247758
 30
0.0
 40
2.0
 50
210.00000000000051
 51
270.0
  0
ARC
  5
C6B8
  8
0
 62
     0
 10
335.2421877378888
 20
906.17991737247746
 30
0.0
 40
2.0
 50
2.0520649999985339
 51
90.0
  0
LINE
  5
C6B9
  8
0
 62
     0
 10
337.29721673788879
 20
904.67991737247758
 30
0.0
 11
412.29721673788879
 21
904.67991737247758
 31
0.0
  0
LINE
  5
C6BA
  8
0
 62
     0
 10
286.32349573788912
 20
908.44786637247773
 30
0.0
 11
286.32349573788912
 21
922.2792373724775
 31
0.0
  0
LINE
  5
C6BB
  8
0
 62
     0
 10
472.76430073788879
 20
922.2792373724775
 30
0.0
 11
282.74086073788891
 21
922.2792373724775
 31
0.0
  0
LINE
  5
C6BC
  8
0
 62
     0
 10
472.54351473788859
 20
927.68128137247766
 30
0.0
 11
282.85007373788898
 21
927.68128137247766
 31
0.0
  0
LINE
  5
C6BD
  8
0
 62
     0
 10
476.79721673788868
 20
942.28768337247777
 30
0.0
 11
442.79721673788879
 21
942.28768337247777
 31
0.0
  0
LINE
  5
C6BE
  8
0
 62
     0
 10
476.79721673788868
 20
942.28768337247777
 30
0.0
 11
474.51312973788879
 21
929.3339843724774
 31
0.0
  0
ARC
  5
C6BF
  8
0
 62
     0
 10
472.54351473788859
 20
929.68128137247754
 30
0.0
 40
2.0
 50
270.0
 51
349.99999999999488
  0
LINE
  5
C6C0
  8
0
 62
     0
 10
476.79721673788868
 20
935.63350137247755
 30
0.0
 11
474.73391573788871
 21
923.93194137247747
 31
0.0
  0
ARC
  5
C6C1
  8
0
 62
     0
 10
472.76430073788879
 20
924.27923737247772
 30
0.0
 40
2.0
 50
270.0
 51
349.99999999999488
  0
LINE
  5
C6C2
  8
0
 62
     0
 10
281.53995473788882
 20
922.67991737247758
 30
0.0
 11
274.2972167378889
 21
922.67991737247758
 31
0.0
  0
LINE
  5
C6C3
  8
0
 62
     0
 10
476.79721673788868
 20
923.52793137247761
 30
0.0
 11
475.3521627378891
 21
915.33262137247777
 31
0.0
  0
ARC
  5
C6C4
  8
0
 62
     0
 10
473.38254673788867
 20
915.67991737247758
 30
0.0
 40
2.0
 50
270.0
 51
349.99999999999488
  0
LINE
  5
C6C5
  8
0
 62
     0
 10
411.79721673788868
 20
958.51991737247761
 30
0.0
 11
411.79721673788868
 21
955.81991737247745
 31
0.0
  0
LINE
  5
C6C6
  8
0
  6
CONTINUOUS
 62
     0
 10
481.79721673788868
 20
944.47028037247776
 30
0.0
 11
464.29721673788868
 21
944.47028037247776
 31
0.0
  0
LINE
  5
C6C7
  8
0
  6
CONTINUOUS
 62
     0
 10
481.79721673788868
 20
956.77791937247741
 30
0.0
 11
464.29721673788868
 21
956.77791937247741
 31
0.0
  0
LINE
  5
C6C8
  8
0
  6
CONTINUOUS
 62
     0
 10
481.79721673788868
 20
966.95721137247745
 30
0.0
 11
476.79721673788868
 21
966.95721137247745
 31
0.0
  0
LINE
  5
C6C9
  8
0
 62
     0
 10
462.29721673788879
 20
965.95721137247756
 30
0.0
 11
462.29721673788879
 21
946.47028037247776
 31
0.0
  0
ARC
  5
C6CA
  8
0
 62
     0
 10
461.29721673788868
 20
965.95721137247756
 30
0.0
 40
1.0
 50
0.0
 51
42.252324000004279
  0
ARC
  5
C6CB
  8
0
 62
     0
 10
464.29721673788868
 20
946.47028037247776
 30
0.0
 40
2.0
 50
180.0
 51
270.0
  0
LINE
  5
C6CC
  8
0
 62
     0
 10
426.79721673788868
 20
1063.612875372477
 30
0.0
 11
426.79721673788868
 21
1057.7853123724781
 31
0.0
  0
LINE
  5
C6CD
  8
0
 62
     0
 10
442.79721673788879
 20
1063.612875372477
 30
0.0
 11
442.79721673788879
 21
1057.7853123724781
 31
0.0
  0
LINE
  5
C6CE
  8
0
 62
     0
 10
426.79721673788868
 20
1054.654399372477
 30
0.0
 11
426.79721673788868
 21
1046.730226372478
 31
0.0
  0
LINE
  5
C6CF
  8
0
 62
     0
 10
426.79721673788868
 20
1043.6845203724779
 30
0.0
 11
426.79721673788868
 21
1035.6943523724769
 31
0.0
  0
LINE
  5
C6D0
  8
0
 62
     0
 10
426.79721673788868
 20
1032.7017253724771
 30
0.0
 11
426.79721673788868
 21
1024.6710243724781
 31
0.0
  0
LINE
  5
C6D1
  8
0
 62
     0
 10
426.79721673788868
 20
1021.709545372478
 30
0.0
 11
426.79721673788868
 21
1014.657761372477
 31
0.0
  0
LINE
  5
C6D2
  8
0
 62
     0
 10
426.79721673788868
 20
1011.839917372478
 30
0.0
 11
426.79721673788868
 21
1001.649765372478
 31
0.0
  0
LINE
  5
C6D3
  8
0
 62
     0
 10
442.79721673788879
 20
1011.839917372478
 30
0.0
 11
442.79721673788879
 21
1001.649765372478
 31
0.0
  0
LINE
  5
C6D4
  8
0
 62
     0
 10
442.79721673788879
 20
1021.709545372478
 30
0.0
 11
442.79721673788879
 21
1014.657761372477
 31
0.0
  0
LINE
  5
C6D5
  8
0
 62
     0
 10
442.79721673788879
 20
1032.7017253724771
 30
0.0
 11
442.79721673788879
 21
1024.6710243724781
 31
0.0
  0
LINE
  5
C6D6
  8
0
 62
     0
 10
442.79721673788879
 20
1043.6845203724779
 30
0.0
 11
442.79721673788879
 21
1035.6943523724769
 31
0.0
  0
LINE
  5
C6D7
  8
0
 62
     0
 10
442.79721673788879
 20
1054.654399372477
 30
0.0
 11
442.79721673788879
 21
1046.730226372478
 31
0.0
  0
LINE
  5
C6D8
  8
0
 62
     0
 10
426.79721673788868
 20
998.70207337247757
 30
0.0
 11
426.79721673788868
 21
991.65028937247746
 31
0.0
  0
LINE
  5
C6D9
  8
0
 62
     0
 10
442.79721673788879
 20
998.70207337247757
 30
0.0
 11
442.79721673788879
 21
991.65028937247746
 31
0.0
  0
LINE
  5
C6DA
  8
0
 62
     0
 10
442.79721673788879
 20
988.68881037247752
 30
0.0
 11
442.79721673788879
 21
980.65810937247761
 31
0.0
  0
LINE
  5
C6DB
  8
0
 62
     0
 10
426.79721673788868
 20
988.68881037247752
 30
0.0
 11
426.79721673788868
 21
980.65810937247761
 31
0.0
  0
LINE
  5
C6DC
  8
0
 62
     0
 10
426.79721673788868
 20
977.66548237247764
 30
0.0
 11
426.79721673788868
 21
969.67531437247749
 31
0.0
  0
LINE
  5
C6DD
  8
0
 62
     0
 10
442.79721673788879
 20
977.66548237247764
 30
0.0
 11
442.79721673788879
 21
969.67531437247749
 31
0.0
  0
LINE
  5
C6DE
  8
0
 62
     0
 10
457.34661173788868
 20
950.65912137247744
 30
0.0
 11
442.79721573788879
 21
950.65912137247744
 31
0.0
  0
LINE
  5
C6DF
  8
0
 62
     0
 10
462.29721673788879
 20
962.07147137247784
 30
0.0
 11
442.79721573788879
 21
962.07147137247784
 31
0.0
  0
LINE
  5
C6E0
  8
0
 62
     0
 10
426.79721673788868
 20
966.62960837247749
 30
0.0
 11
426.79721673788868
 21
946.62960837247783
 31
0.0
  0
LINE
  5
C6E1
  8
0
 62
     0
 10
478.79721673788879
 20
1090.543566372477
 30
0.0
 11
478.79721673788879
 21
1094.6799173724769
 31
0.0
  0
LINE
  5
C6E2
  8
0
 62
     0
 10
476.79721673788868
 20
920.4781733724775
 30
0.0
 11
475.88991673788883
 21
915.33262137247777
 31
0.0
  0
ARC
  5
C6E3
  8
0
 62
     0
 10
473.92030173788908
 20
915.67991737247758
 30
0.0
 40
2.0
 50
270.0
 51
349.99999999999488
  0
LINE
  5
C6E4
  8
0
 62
     0
 10
442.79721673788879
 20
966.62960837247749
 30
0.0
 11
442.79721673788879
 21
962.07147137247784
 31
0.0
  0
LINE
  5
C6E5
  8
0
  6
CONTINUOUS
 62
     0
 10
478.79721673788879
 20
966.95721137247745
 30
0.0
 11
478.79721673788879
 21
1068.7458793724779
 31
0.0
  0
LINE
  5
C6E6
  8
0
 62
     0
 10
277.7972167378889
 20
946.81991737247745
 30
0.0
 11
280.88045873788911
 21
929.3339843724774
 31
0.0
  0
ARC
  5
C6E7
  8
0
 62
     0
 10
282.85007373788898
 20
929.68128137247754
 30
0.0
 40
2.0
 50
190.000000000005
 51
270.0
  0
LINE
  5
C6E8
  8
0
 62
     0
 10
427.50261373788862
 20
955.37421137247759
 30
0.0
 11
442.79721673788879
 21
950.65912137247744
 31
0.0
  0
LINE
  5
C6E9
  8
0
 62
     0
 10
442.79721673788879
 20
962.07147137247784
 30
0.0
 11
427.76127573788881
 21
961.53072037247773
 31
0.0
  0
LINE
  5
C6EA
  8
0
 62
     0
 10
442.79721673788879
 20
950.65912137247744
 30
0.0
 11
442.79721673788879
 21
942.28768337247777
 31
0.0
  0
ARC
  5
C6EB
  8
0
 62
     0
 10
427.79721673788868
 20
960.53136637247746
 30
0.0
 40
1.0
 50
92.059690999990565
 51
180.0
  0
ARC
  5
C6EC
  8
0
 62
     0
 10
427.79721673788868
 20
956.32983137247754
 30
0.0
 40
1.0
 50
180.0
 51
252.8662750000021
  0
LINE
  5
C6ED
  8
0
 62
     0
 10
442.79721673788879
 20
1082.5327043724781
 30
0.0
 11
427.49675773788869
 21
1077.7128383724771
 31
0.0
  0
LINE
  5
C6EE
  8
0
 62
     0
 10
427.8457717378887
 20
1073.409157372477
 30
0.0
 11
442.79721673788879
 21
1074.1359773724771
 31
0.0
  0
ARC
  5
C6EF
  8
0
 62
     0
 10
427.79721673788868
 20
1076.7590433724779
 30
0.0
 40
1.0
 50
107.4851790000144
 51
180.0
  0
ARC
  5
C6F0
  8
0
 62
     0
 10
427.79721673788868
 20
1074.4079783724781
 30
0.0
 40
1.0
 50
180.0
 51
270.0
  0
LINE
  5
C6F2
  8
0
 62
     0
 10
476.79721673788868
 20
1066.857185372477
 30
0.0
 11
277.7972167378889
 21
1066.857185372477
 31
0.0
  0
LINE
  5
C6F3
  8
0
 62
     0
 10
476.79721673788868
 20
1063.612875372477
 30
0.0
 11
277.7972167378889
 21
1063.612875372477
 31
0.0
  0
LINE
  5
C6F4
  8
0
 62
     0
 10
476.79721673788868
 20
1057.7853123724781
 30
0.0
 11
277.7972167378889
 21
1057.7853123724781
 31
0.0
  0
LINE
  5
C6F5
  8
0
 62
     0
 10
476.79721673788868
 20
1054.654399372477
 30
0.0
 11
277.7972167378889
 21
1054.654399372477
 31
0.0
  0
LINE
  5
C6F6
  8
0
 62
     0
 10
476.79721673788868
 20
1046.730226372478
 30
0.0
 11
277.7972167378889
 21
1046.730226372478
 31
0.0
  0
LINE
  5
C6F7
  8
0
 62
     0
 10
476.79721673788868
 20
1043.6845203724779
 30
0.0
 11
277.7972167378889
 21
1043.6845203724779
 31
0.0
  0
LINE
  5
C6F8
  8
0
 62
     0
 10
476.79721673788868
 20
1035.6943523724769
 30
0.0
 11
277.7972167378889
 21
1035.6943523724769
 31
0.0
  0
LINE
  5
C6F9
  8
0
 62
     0
 10
476.79721673788868
 20
1032.7017253724771
 30
0.0
 11
277.7972167378889
 21
1032.7017253724771
 31
0.0
  0
LINE
  5
C6FA
  8
0
 62
     0
 10
476.79721673788868
 20
1024.6710243724781
 30
0.0
 11
277.7972167378889
 21
1024.6710243724781
 31
0.0
  0
LINE
  5
C6FB
  8
0
 62
     0
 10
476.79721673788868
 20
1021.709545372478
 30
0.0
 11
277.7972167378889
 21
1021.709545372478
 31
0.0
  0
LINE
  5
C6FC
  8
0
 62
     0
 10
476.79721673788868
 20
1014.657761372477
 30
0.0
 11
382.37045973788872
 21
1014.657761372477
 31
0.0
  0
LINE
  5
C6FD
  8
0
 62
     0
 10
476.79721673788868
 20
1011.7100693724771
 30
0.0
 11
389.18286373788902
 21
1011.7100693724771
 31
0.0
  0
LINE
  5
C6FE
  8
0
 62
     0
 10
474.71829573788909
 20
1066.1799173724769
 30
0.0
 11
474.71829573788909
 21
1064.1799173724769
 31
0.0
  0
LINE
  5
C6FF
  8
0
 62
     0
 10
279.87613773788911
 20
1064.1799173724769
 30
0.0
 11
474.71829573788909
 21
1064.1799173724769
 31
0.0
  0
LINE
  5
C700
  8
0
 62
     0
 10
279.87613773788911
 20
1066.1799173724769
 30
0.0
 11
474.71829573788909
 21
1066.1799173724769
 31
0.0
  0
LINE
  5
C701
  8
0
 62
     0
 10
279.87613773788911
 20
1055.1799173724769
 30
0.0
 11
474.71829573788909
 21
1055.1799173724769
 31
0.0
  0
LINE
  5
C702
  8
0
 62
     0
 10
279.87613773788911
 20
1057.1799173724769
 30
0.0
 11
474.71829573788909
 21
1057.1799173724769
 31
0.0
  0
LINE
  5
C703
  8
0
 62
     0
 10
279.87613773788911
 20
1044.1799173724769
 30
0.0
 11
474.71829573788909
 21
1044.1799173724769
 31
0.0
  0
LINE
  5
C704
  8
0
 62
     0
 10
279.87613773788911
 20
1046.1799173724769
 30
0.0
 11
474.71829573788909
 21
1046.1799173724769
 31
0.0
  0
LINE
  5
C705
  8
0
 62
     0
 10
279.87613773788911
 20
1033.1799173724769
 30
0.0
 11
474.71829573788909
 21
1033.1799173724769
 31
0.0
  0
LINE
  5
C706
  8
0
 62
     0
 10
279.87613773788911
 20
1035.1799173724769
 30
0.0
 11
474.71829573788909
 21
1035.1799173724769
 31
0.0
  0
LINE
  5
C707
  8
0
 62
     0
 10
279.87613773788911
 20
1022.179917372477
 30
0.0
 11
474.71829573788909
 21
1022.179917372477
 31
0.0
  0
LINE
  5
C708
  8
0
 62
     0
 10
279.87613773788911
 20
1024.1799173724769
 30
0.0
 11
474.71829573788909
 21
1024.1799173724769
 31
0.0
  0
LINE
  5
C709
  8
0
 62
     0
 10
388.57219373788888
 20
1012.179917372478
 30
0.0
 11
474.71829573788909
 21
1012.179917372478
 31
0.0
  0
LINE
  5
C70A
  8
0
 62
     0
 10
382.84395473788879
 20
1014.179917372477
 30
0.0
 11
474.71829573788909
 21
1014.179917372477
 31
0.0
  0
LINE
  5
C70B
  8
0
 62
     0
 10
474.71829573788909
 20
1066.1799173724769
 30
0.0
 11
476.79721673788868
 21
1066.857185372477
 31
0.0
  0
LINE
  5
C70C
  8
0
 62
     0
 10
474.71829573788909
 20
1064.1799173724769
 30
0.0
 11
476.79721673788868
 21
1063.612875372477
 31
0.0
  0
LINE
  5
C70D
  8
0
 62
     0
 10
474.71829573788909
 20
1057.1799173724769
 30
0.0
 11
476.79721673788868
 21
1057.7853123724781
 31
0.0
  0
LINE
  5
C70E
  8
0
 62
     0
 10
474.71829573788909
 20
1055.1799173724769
 30
0.0
 11
476.79721673788868
 21
1054.654399372477
 31
0.0
  0
LINE
  5
C70F
  8
0
 62
     0
 10
474.71829573788909
 20
1046.1799173724769
 30
0.0
 11
476.79721673788868
 21
1046.730226372478
 31
0.0
  0
LINE
  5
C710
  8
0
 62
     0
 10
474.71829573788909
 20
1044.1799173724769
 30
0.0
 11
476.79721673788868
 21
1043.6845203724779
 31
0.0
  0
LINE
  5
C711
  8
0
 62
     0
 10
474.71829573788909
 20
1035.1799173724769
 30
0.0
 11
476.79721673788868
 21
1035.6943523724769
 31
0.0
  0
LINE
  5
C712
  8
0
 62
     0
 10
474.71829573788909
 20
1033.1799173724769
 30
0.0
 11
476.79721673788868
 21
1032.7017253724771
 31
0.0
  0
LINE
  5
C713
  8
0
 62
     0
 10
474.71829573788909
 20
1024.1799173724769
 30
0.0
 11
476.79721673788868
 21
1024.6710243724781
 31
0.0
  0
LINE
  5
C714
  8
0
 62
     0
 10
474.71829573788909
 20
1022.179917372477
 30
0.0
 11
476.79721673788868
 21
1021.709545372478
 31
0.0
  0
LINE
  5
C715
  8
0
 62
     0
 10
474.71829573788909
 20
1014.179917372477
 30
0.0
 11
476.79721673788868
 21
1014.657761372477
 31
0.0
  0
LINE
  5
C716
  8
0
 62
     0
 10
474.71829573788909
 20
1012.179917372478
 30
0.0
 11
476.79721673788868
 21
1011.7100693724771
 31
0.0
  0
LINE
  5
C717
  8
0
 62
     0
 10
474.71829573788909
 20
1057.1799173724769
 30
0.0
 11
474.71829573788909
 21
1055.1799173724769
 31
0.0
  0
LINE
  5
C718
  8
0
 62
     0
 10
474.71829573788909
 20
1046.1799173724769
 30
0.0
 11
474.71829573788909
 21
1044.1799173724769
 31
0.0
  0
LINE
  5
C719
  8
0
 62
     0
 10
474.71829573788909
 20
1035.1799173724769
 30
0.0
 11
474.71829573788909
 21
1033.1799173724769
 31
0.0
  0
LINE
  5
C71A
  8
0
 62
     0
 10
474.71829573788909
 20
1024.1799173724769
 30
0.0
 11
474.71829573788909
 21
1022.179917372477
 31
0.0
  0
LINE
  5
C71B
  8
0
 62
     0
 10
474.71829573788909
 20
1014.179917372477
 30
0.0
 11
474.71829573788909
 21
1012.179917372478
 31
0.0
  0
ARC
  5
C71C
  8
0
 62
     0
 10
388.57219373788888
 20
1009.179917372478
 30
0.0
 40
3.0
 50
90.0
 51
190.28656100000819
  0
ARC
  5
C71D
  8
0
 62
     0
 10
389.18286373788902
 20
1008.240069372478
 30
0.0
 40
3.4700000000000002
 50
90.0
 51
186.1896490000004
  0
LINE
  5
C71E
  8
0
 62
     0
 10
294.87613773788922
 20
1014.179917372477
 30
0.0
 11
294.87613773788922
 21
1012.179917372478
 31
0.0
  0
LINE
  5
C71F
  8
0
 62
     0
 10
279.87613773788911
 20
1024.1799173724769
 30
0.0
 11
279.87613773788911
 21
1022.179917372477
 31
0.0
  0
LINE
  5
C720
  8
0
 62
     0
 10
279.87613773788911
 20
1035.1799173724769
 30
0.0
 11
279.87613773788911
 21
1033.1799173724769
 31
0.0
  0
LINE
  5
C721
  8
0
 62
     0
 10
279.87613773788911
 20
1046.1799173724769
 30
0.0
 11
279.87613773788911
 21
1044.1799173724769
 31
0.0
  0
LINE
  5
C722
  8
0
 62
     0
 10
279.87613773788911
 20
1057.1799173724769
 30
0.0
 11
279.87613773788911
 21
1055.1799173724769
 31
0.0
  0
LINE
  5
C723
  8
0
 62
     0
 10
294.87613773788922
 20
1012.179917372478
 30
0.0
 11
292.79721673788879
 21
1011.7100693724771
 31
0.0
  0
LINE
  5
C724
  8
0
 62
     0
 10
294.87613773788922
 20
1014.179917372477
 30
0.0
 11
292.79721673788879
 21
1014.657761372477
 31
0.0
  0
LINE
  5
C725
  8
0
 62
     0
 10
279.87613773788911
 20
1022.179917372477
 30
0.0
 11
277.7972167378889
 21
1021.709545372478
 31
0.0
  0
LINE
  5
C726
  8
0
 62
     0
 10
279.87613773788911
 20
1024.1799173724769
 30
0.0
 11
277.7972167378889
 21
1024.6710243724781
 31
0.0
  0
LINE
  5
C727
  8
0
 62
     0
 10
279.87613773788911
 20
1033.1799173724769
 30
0.0
 11
277.7972167378889
 21
1032.7017253724771
 31
0.0
  0
LINE
  5
C728
  8
0
 62
     0
 10
279.87613773788911
 20
1035.1799173724769
 30
0.0
 11
277.7972167378889
 21
1035.6943523724769
 31
0.0
  0
LINE
  5
C729
  8
0
 62
     0
 10
279.87613773788911
 20
1044.1799173724769
 30
0.0
 11
277.7972167378889
 21
1043.6845203724779
 31
0.0
  0
LINE
  5
C72A
  8
0
 62
     0
 10
279.87613773788911
 20
1046.1799173724769
 30
0.0
 11
277.7972167378889
 21
1046.730226372478
 31
0.0
  0
LINE
  5
C72B
  8
0
 62
     0
 10
279.87613773788911
 20
1055.1799173724769
 30
0.0
 11
277.7972167378889
 21
1054.654399372477
 31
0.0
  0
LINE
  5
C72C
  8
0
 62
     0
 10
279.87613773788911
 20
1057.1799173724769
 30
0.0
 11
277.7972167378889
 21
1057.7853123724781
 31
0.0
  0
LINE
  5
C72D
  8
0
 62
     0
 10
279.87613773788911
 20
1064.1799173724769
 30
0.0
 11
277.7972167378889
 21
1063.612875372477
 31
0.0
  0
LINE
  5
C72E
  8
0
 62
     0
 10
279.87613773788911
 20
1066.1799173724769
 30
0.0
 11
277.7972167378889
 21
1066.857185372477
 31
0.0
  0
LINE
  5
C72F
  8
0
 62
     0
 10
279.87613773788911
 20
1066.1799173724769
 30
0.0
 11
279.87613773788911
 21
1064.1799173724769
 31
0.0
  0
LINE
  5
C730
  8
0
 62
     0
 10
277.7972167378889
 20
1063.612875372477
 30
0.0
 11
277.7972167378889
 21
1066.857185372477
 31
0.0
  0
LINE
  5
C731
  8
0
 62
     0
 10
277.7972167378889
 20
1054.654399372477
 30
0.0
 11
277.7972167378889
 21
1057.7853123724781
 31
0.0
  0
LINE
  5
C732
  8
0
 62
     0
 10
277.7972167378889
 20
1043.6845203724779
 30
0.0
 11
277.7972167378889
 21
1046.730226372478
 31
0.0
  0
LINE
  5
C733
  8
0
 62
     0
 10
277.7972167378889
 20
1032.7017253724771
 30
0.0
 11
277.7972167378889
 21
1035.6943523724769
 31
0.0
  0
LINE
  5
C734
  8
0
 62
     0
 10
277.7972167378889
 20
1021.709545372478
 30
0.0
 11
277.7972167378889
 21
1024.6710243724781
 31
0.0
  0
LINE
  5
C735
  8
0
 62
     0
 10
292.79721673788879
 20
1011.7100693724771
 30
0.0
 11
292.79721673788879
 21
1014.657761372477
 31
0.0
  0
LINE
  5
C736
  8
0
 62
     0
 10
292.79721673788879
 20
1014.657761372477
 30
0.0
 11
367.22397373788908
 21
1014.657761372477
 31
0.0
  0
LINE
  5
C737
  8
0
 62
     0
 10
292.79721673788879
 20
1011.7100693724771
 30
0.0
 11
360.4115697378889
 21
1011.7100693724771
 31
0.0
  0
LINE
  5
C738
  8
0
 62
     0
 10
361.02223973788892
 20
1012.179917372478
 30
0.0
 11
294.87613773788922
 21
1012.179917372478
 31
0.0
  0
LINE
  5
C739
  8
0
 62
     0
 10
366.7504787378889
 20
1014.179917372477
 30
0.0
 11
294.87613773788922
 21
1014.179917372477
 31
0.0
  0
ARC
  5
C73A
  8
0
 62
     0
 10
361.02223973788892
 20
1009.179917372478
 30
0.0
 40
3.0
 50
349.71343899999181
 51
90.0
  0
ARC
  5
C73B
  8
0
 62
     0
 10
360.4115697378889
 20
1008.240069372478
 30
0.0
 40
3.4700000000000002
 50
353.81035099999951
 51
90.0
  0
LINE
  5
C73C
  8
0
 62
     0
 10
476.79721673788868
 20
966.62960837247749
 30
0.0
 11
277.7972167378889
 21
966.62960837247749
 31
0.0
  0
LINE
  5
C73D
  8
0
 62
     0
 10
476.79721673788868
 20
969.67531437247749
 30
0.0
 11
277.7972167378889
 21
969.67531437247749
 31
0.0
  0
LINE
  5
C73E
  8
0
 62
     0
 10
476.79721673788868
 20
977.66548237247764
 30
0.0
 11
277.7972167378889
 21
977.66548237247764
 31
0.0
  0
LINE
  5
C73F
  8
0
 62
     0
 10
476.79721673788868
 20
980.65810937247761
 30
0.0
 11
277.7972167378889
 21
980.65810937247761
 31
0.0
  0
LINE
  5
C740
  8
0
 62
     0
 10
476.79721673788868
 20
988.68881037247752
 30
0.0
 11
277.7972167378889
 21
988.68881037247752
 31
0.0
  0
LINE
  5
C741
  8
0
 62
     0
 10
476.79721673788868
 20
991.65028937247746
 30
0.0
 11
277.7972167378889
 21
991.65028937247746
 31
0.0
  0
LINE
  5
C742
  8
0
 62
     0
 10
279.87613773788911
 20
969.17991737247758
 30
0.0
 11
474.71829573788909
 21
969.17991737247758
 31
0.0
  0
LINE
  5
C743
  8
0
 62
     0
 10
279.87613773788911
 20
967.17991737247758
 30
0.0
 11
474.71829573788909
 21
967.17991737247758
 31
0.0
  0
LINE
  5
C744
  8
0
 62
     0
 10
279.87613773788911
 20
980.17991737247746
 30
0.0
 11
474.71829573788909
 21
980.17991737247746
 31
0.0
  0
LINE
  5
C745
  8
0
 62
     0
 10
279.87613773788911
 20
978.17991737247758
 30
0.0
 11
474.71829573788909
 21
978.17991737247758
 31
0.0
  0
LINE
  5
C746
  8
0
 62
     0
 10
279.87613773788911
 20
991.17991737247746
 30
0.0
 11
474.71829573788909
 21
991.17991737247746
 31
0.0
  0
LINE
  5
C747
  8
0
 62
     0
 10
279.87613773788911
 20
989.17991737247746
 30
0.0
 11
474.71829573788909
 21
989.17991737247746
 31
0.0
  0
LINE
  5
C748
  8
0
 62
     0
 10
292.79721673788879
 20
998.70207337247757
 30
0.0
 11
367.22397373788908
 21
998.70207337247757
 31
0.0
  0
LINE
  5
C749
  8
0
 62
     0
 10
292.79721673788879
 20
1001.649765372478
 30
0.0
 11
360.4115697378889
 21
1001.649765372478
 31
0.0
  0
LINE
  5
C74A
  8
0
 62
     0
 10
361.02223973788892
 20
1001.179917372478
 30
0.0
 11
294.87613773788922
 21
1001.179917372478
 31
0.0
  0
LINE
  5
C74B
  8
0
 62
     0
 10
366.7504787378889
 20
999.17991737247746
 30
0.0
 11
294.87613773788922
 21
999.17991737247746
 31
0.0
  0
LINE
  5
C74C
  8
0
 62
     0
 10
292.79721673788879
 20
1001.649765372478
 30
0.0
 11
292.79721673788879
 21
998.70207337247757
 31
0.0
  0
LINE
  5
C74D
  8
0
 62
     0
 10
277.7972167378889
 20
991.65028937247746
 30
0.0
 11
277.7972167378889
 21
988.68881037247752
 31
0.0
  0
LINE
  5
C74E
  8
0
 62
     0
 10
277.7972167378889
 20
980.65810937247761
 30
0.0
 11
277.7972167378889
 21
977.66548237247764
 31
0.0
  0
LINE
  5
C74F
  8
0
 62
     0
 10
277.7972167378889
 20
969.67531437247749
 30
0.0
 11
277.7972167378889
 21
966.62960837247749
 31
0.0
  0
LINE
  5
C750
  8
0
 62
     0
 10
279.87613773788911
 20
967.17991737247758
 30
0.0
 11
277.7972167378889
 21
966.62960837247749
 31
0.0
  0
LINE
  5
C751
  8
0
 62
     0
 10
279.87613773788911
 20
969.17991737247758
 30
0.0
 11
277.7972167378889
 21
969.67531437247749
 31
0.0
  0
LINE
  5
C752
  8
0
 62
     0
 10
279.87613773788911
 20
978.17991737247758
 30
0.0
 11
277.7972167378889
 21
977.66548237247764
 31
0.0
  0
LINE
  5
C753
  8
0
 62
     0
 10
279.87613773788911
 20
980.17991737247746
 30
0.0
 11
277.7972167378889
 21
980.65810937247761
 31
0.0
  0
LINE
  5
C754
  8
0
 62
     0
 10
279.87613773788911
 20
989.17991737247746
 30
0.0
 11
277.7972167378889
 21
988.68881037247752
 31
0.0
  0
LINE
  5
C755
  8
0
 62
     0
 10
279.87613773788911
 20
991.17991737247746
 30
0.0
 11
277.7972167378889
 21
991.65028937247746
 31
0.0
  0
LINE
  5
C756
  8
0
 62
     0
 10
294.87613773788922
 20
999.17991737247746
 30
0.0
 11
292.79721673788879
 21
998.70207337247757
 31
0.0
  0
LINE
  5
C757
  8
0
 62
     0
 10
294.87613773788922
 20
1001.179917372478
 30
0.0
 11
292.79721673788879
 21
1001.649765372478
 31
0.0
  0
LINE
  5
C758
  8
0
 62
     0
 10
279.87613773788911
 20
967.17991737247758
 30
0.0
 11
279.87613773788911
 21
969.17991737247758
 31
0.0
  0
LINE
  5
C759
  8
0
 62
     0
 10
279.87613773788911
 20
978.17991737247758
 30
0.0
 11
279.87613773788911
 21
980.17991737247746
 31
0.0
  0
LINE
  5
C75A
  8
0
 62
     0
 10
279.87613773788911
 20
989.17991737247746
 30
0.0
 11
279.87613773788911
 21
991.17991737247746
 31
0.0
  0
LINE
  5
C75B
  8
0
 62
     0
 10
294.87613773788922
 20
999.17991737247746
 30
0.0
 11
294.87613773788922
 21
1001.179917372478
 31
0.0
  0
ARC
  5
C75C
  8
0
 62
     0
 10
361.02223973788892
 20
1004.179917372478
 30
0.0
 40
3.0
 50
270.0
 51
10.28656100000822
  0
ARC
  5
C75D
  8
0
 62
     0
 10
360.4115697378889
 20
1005.119765372477
 30
0.0
 40
3.4700000000000002
 50
270.0
 51
6.1896490000005366
  0
LINE
  5
C75E
  8
0
 62
     0
 10
476.79721673788868
 20
998.70207337247757
 30
0.0
 11
382.37045973788872
 21
998.70207337247757
 31
0.0
  0
LINE
  5
C75F
  8
0
 62
     0
 10
476.79721673788868
 20
1001.649765372478
 30
0.0
 11
389.18286373788902
 21
1001.649765372478
 31
0.0
  0
LINE
  5
C760
  8
0
 62
     0
 10
388.57219373788888
 20
1001.179917372478
 30
0.0
 11
474.71829573788909
 21
1001.179917372478
 31
0.0
  0
LINE
  5
C761
  8
0
 62
     0
 10
382.84395473788879
 20
999.17991737247746
 30
0.0
 11
474.71829573788909
 21
999.17991737247746
 31
0.0
  0
ARC
  5
C762
  8
0
 62
     0
 10
388.57219373788888
 20
1004.179917372478
 30
0.0
 40
3.0
 50
169.71343899999181
 51
270.0
  0
ARC
  5
C763
  8
0
 62
     0
 10
389.18286373788902
 20
1005.119765372477
 30
0.0
 40
3.4700000000000002
 50
173.8103509999994
 51
270.0
  0
LINE
  5
C764
  8
0
 62
     0
 10
474.71829573788909
 20
999.17991737247746
 30
0.0
 11
474.71829573788909
 21
1001.179917372478
 31
0.0
  0
LINE
  5
C765
  8
0
 62
     0
 10
474.71829573788909
 20
989.17991737247746
 30
0.0
 11
474.71829573788909
 21
991.17991737247746
 31
0.0
  0
LINE
  5
C766
  8
0
 62
     0
 10
474.71829573788909
 20
978.17991737247758
 30
0.0
 11
474.71829573788909
 21
980.17991737247746
 31
0.0
  0
LINE
  5
C767
  8
0
 62
     0
 10
474.71829573788909
 20
967.17991737247758
 30
0.0
 11
474.71829573788909
 21
969.17991737247758
 31
0.0
  0
LINE
  5
C768
  8
0
 62
     0
 10
474.71829573788909
 20
1001.179917372478
 30
0.0
 11
476.79721673788868
 21
1001.649765372478
 31
0.0
  0
LINE
  5
C769
  8
0
 62
     0
 10
474.71829573788909
 20
999.17991737247746
 30
0.0
 11
476.79721673788868
 21
998.70207337247757
 31
0.0
  0
LINE
  5
C76A
  8
0
 62
     0
 10
474.71829573788909
 20
991.17991737247746
 30
0.0
 11
476.79721673788868
 21
991.65028937247746
 31
0.0
  0
LINE
  5
C76B
  8
0
 62
     0
 10
474.71829573788909
 20
989.17991737247746
 30
0.0
 11
476.79721673788868
 21
988.68881037247752
 31
0.0
  0
LINE
  5
C76C
  8
0
 62
     0
 10
474.71829573788909
 20
980.17991737247746
 30
0.0
 11
476.79721673788868
 21
980.65810937247761
 31
0.0
  0
LINE
  5
C76D
  8
0
 62
     0
 10
474.71829573788909
 20
978.17991737247758
 30
0.0
 11
476.79721673788868
 21
977.66548237247764
 31
0.0
  0
LINE
  5
C76E
  8
0
 62
     0
 10
474.71829573788909
 20
969.17991737247758
 30
0.0
 11
476.79721673788868
 21
969.67531437247749
 31
0.0
  0
LINE
  5
C76F
  8
0
 62
     0
 10
474.71829573788909
 20
967.17991737247758
 30
0.0
 11
476.79721673788868
 21
966.62960837247749
 31
0.0
  0
LINE
  5
C770
  8
0
 62
     0
 10
476.79721673788868
 20
969.67531437247749
 30
0.0
 11
476.79721673788868
 21
966.62960837247749
 31
0.0
  0
LINE
  5
C771
  8
0
 62
     0
 10
476.79721673788868
 20
980.65810937247761
 30
0.0
 11
476.79721673788868
 21
977.66548237247764
 31
0.0
  0
LINE
  5
C772
  8
0
 62
     0
 10
476.79721673788868
 20
991.65028937247746
 30
0.0
 11
476.79721673788868
 21
988.68881037247752
 31
0.0
  0
LINE
  5
C773
  8
0
 62
     0
 10
476.79721673788868
 20
1001.649765372478
 30
0.0
 11
476.79721673788868
 21
998.70207337247757
 31
0.0
  0
LINE
  5
C774
  8
0
 62
     0
 10
409.71829573788858
 20
958.17991737247746
 30
0.0
 11
411.79721673788868
 21
958.67531437247749
 31
0.0
  0
LINE
  5
C775
  8
0
 62
     0
 10
411.79721673788868
 20
958.67531437247749
 30
0.0
 11
277.7972167378889
 21
958.67531437247749
 31
0.0
  0
LINE
  5
C776
  8
0
 62
     0
 10
279.87613773788911
 20
958.17991737247746
 30
0.0
 11
409.71829573788858
 21
958.17991737247746
 31
0.0
  0
LINE
  5
C777
  8
0
 62
     0
 10
409.71829573788858
 20
956.17991737247746
 30
0.0
 11
409.71829573788858
 21
958.17991737247746
 31
0.0
  0
LINE
  5
C778
  8
0
 62
     0
 10
411.79721673788868
 20
955.62960837247761
 30
0.0
 11
277.7972167378889
 21
955.62960837247761
 31
0.0
  0
LINE
  5
C779
  8
0
 62
     0
 10
279.87613773788911
 20
956.17991737247746
 30
0.0
 11
409.71829573788858
 21
956.17991737247746
 31
0.0
  0
LINE
  5
C77A
  8
0
 62
     0
 10
409.71829573788858
 20
956.17991737247746
 30
0.0
 11
411.79721673788868
 21
955.62960837247761
 31
0.0
  0
LINE
  5
C77B
  8
0
 62
     0
 10
411.79721673788868
 20
949.6753143724776
 30
0.0
 11
277.7972167378889
 21
949.6753143724776
 31
0.0
  0
LINE
  5
C77C
  8
0
 62
     0
 10
279.87613773788911
 20
949.17991737247746
 30
0.0
 11
409.71829573788858
 21
949.17991737247746
 31
0.0
  0
LINE
  5
C77D
  8
0
 62
     0
 10
411.79721673788868
 20
946.62960837247783
 30
0.0
 11
277.83077373788871
 21
946.62960837247783
 31
0.0
  0
LINE
  5
C77E
  8
0
 62
     0
 10
279.87613773788911
 20
947.17991737247746
 30
0.0
 11
409.71829573788858
 21
947.17991737247746
 31
0.0
  0
LINE
  5
C77F
  8
0
 62
     0
 10
409.71829573788858
 20
947.17991737247746
 30
0.0
 11
411.79721673788868
 21
946.62960837247783
 31
0.0
  0
LINE
  5
C780
  8
0
 62
     0
 10
411.79721673788868
 20
949.6753143724776
 30
0.0
 11
411.79721673788868
 21
946.62960837247783
 31
0.0
  0
LINE
  5
C781
  8
0
 62
     0
 10
409.71829573788858
 20
947.17991737247746
 30
0.0
 11
409.71829573788858
 21
949.17991737247746
 31
0.0
  0
LINE
  5
C782
  8
0
 62
     0
 10
409.71829573788858
 20
949.17991737247746
 30
0.0
 11
411.79721673788868
 21
949.6753143724776
 31
0.0
  0
LINE
  5
C783
  8
0
 62
     0
 10
411.79721673788868
 20
946.62960837247783
 30
0.0
 11
426.79721673788868
 21
946.62960837247783
 31
0.0
  0
LINE
  5
C784
  8
0
 62
     0
 10
426.79721673788868
 20
946.62960837247783
 30
0.0
 11
442.79721673788879
 21
942.28768337247777
 31
0.0
  0
LINE
  5
C785
  8
0
 62
     0
 10
277.7972167378889
 20
958.67531437247749
 30
0.0
 11
277.7972167378889
 21
955.62960837247761
 31
0.0
  0
LINE
  5
C786
  8
0
 62
     0
 10
277.7972167378889
 20
949.6753143724776
 30
0.0
 11
277.7972167378889
 21
946.62960837247783
 31
0.0
  0
LINE
  5
C787
  8
0
 62
     0
 10
279.87613773788911
 20
956.17991737247746
 30
0.0
 11
279.87613773788911
 21
958.17991737247746
 31
0.0
  0
LINE
  5
C788
  8
0
 62
     0
 10
279.87613773788911
 20
958.17991737247746
 30
0.0
 11
277.7972167378889
 21
958.67531437247749
 31
0.0
  0
LINE
  5
C789
  8
0
 62
     0
 10
279.87613773788911
 20
956.17991737247746
 30
0.0
 11
277.7972167378889
 21
955.62960837247761
 31
0.0
  0
LINE
  5
C78A
  8
0
 62
     0
 10
279.87613773788911
 20
949.17991737247746
 30
0.0
 11
277.7972167378889
 21
949.6753143724776
 31
0.0
  0
LINE
  5
C78B
  8
0
 62
     0
 10
279.87613773788911
 20
947.17991737247746
 30
0.0
 11
279.87613773788911
 21
949.17991737247746
 31
0.0
  0
LINE
  5
C78C
  8
0
 62
     0
 10
279.87613773788911
 20
947.17991737247746
 30
0.0
 11
277.7972167378889
 21
946.62960837247783
 31
0.0
  0
LINE
  5
C78D
  8
0
 62
     0
 10
274.2972167378889
 20
1014.323688372477
 30
0.0
 11
280.7972167378889
 21
1014.323688372477
 31
0.0
  0
LINE
  5
C78E
  8
0
 62
     0
 10
274.2972167378889
 20
1014.657766372478
 30
0.0
 11
281.47721673788868
 21
1014.657766372478
 31
0.0
  0
LINE
  5
C78F
  8
0
 62
     0
 10
282.79721673788879
 20
1012.323688372477
 30
0.0
 11
282.79721673788879
 21
1006.679921372477
 31
0.0
  0
LINE
  5
C790
  8
0
 62
     0
 10
284.4772167378888
 20
1017.657766372478
 30
0.0
 11
284.4772167378888
 21
1006.679921372477
 31
0.0
  0
ARC
  5
C791
  8
0
 62
     0
 10
281.47721673788868
 20
1017.657766372478
 30
0.0
 40
3.0
 50
270.0
 51
0.0
  0
LINE
  5
C792
  8
0
 62
     0
 10
274.2972167378889
 20
999.03615337247777
 30
0.0
 11
280.7972167378889
 21
999.03615337247777
 31
0.0
  0
LINE
  5
C793
  8
0
 62
     0
 10
274.2972167378889
 20
998.70207537247757
 30
0.0
 11
281.47721673788868
 21
998.70207537247757
 31
0.0
  0
LINE
  5
C794
  8
0
 62
     0
 10
282.79721673788879
 20
1001.036153372478
 30
0.0
 11
282.79721673788879
 21
1006.679921372477
 31
0.0
  0
LINE
  5
C795
  8
0
 62
     0
 10
284.4772167378888
 20
995.70207537247745
 30
0.0
 11
284.4772167378888
 21
1006.679921372477
 31
0.0
  0
ARC
  5
C796
  8
0
 62
     0
 10
281.47721673788868
 20
995.70207537247745
 30
0.0
 40
3.0
 50
359.99999799999722
 51
89.999998000010223
  0
ARC
  5
C797
  8
0
  6
CONTINUOUS
 62
     0
 10
459.49701573788872
 20
1078.1631833724771
 30
0.0
 40
2.6003989999999999
 50
179.99998200000081
 51
269.99997799999852
  0
ARC
  5
C798
  8
0
  6
CONTINUOUS
 62
     0
 10
459.49701573788872
 20
1083.463171372478
 30
0.0
 40
2.600403
 50
90.0
 51
179.99998200000081
  0
LINE
  5
C799
  8
0
  6
CONTINUOUS
 62
     0
 10
462.29721673788879
 20
1080.8792023724779
 30
0.0
 11
460.79721673788868
 21
1080.013177372477
 31
0.0
  0
LINE
  5
C79A
  8
0
  6
CONTINUOUS
 62
     0
 10
462.29721673788879
 20
1081.879202372477
 30
0.0
 11
460.79721673788868
 21
1081.0131773724779
 31
0.0
  0
LINE
  5
C79B
  8
0
  6
CONTINUOUS
 62
     0
 10
462.29721673788879
 20
1086.9131773724771
 30
0.0
 11
462.29721673788879
 21
1074.713177372478
 31
0.0
  0
LINE
  5
C79C
  8
0
  6
CONTINUOUS
 62
     0
 10
460.79721673788868
 20
1086.9131773724771
 30
0.0
 11
462.29721673788879
 21
1086.9131773724771
 31
0.0
  0
LINE
  5
C79D
  8
0
  6
CONTINUOUS
 62
     0
 10
460.79721673788868
 20
1074.713177372478
 30
0.0
 11
462.29721673788879
 21
1074.713177372478
 31
0.0
  0
LINE
  5
C79E
  8
0
  6
CONTINUOUS
 62
     0
 10
456.89722273788868
 20
1083.463171372478
 30
0.0
 11
456.89722273788868
 21
1078.1631833724771
 31
0.0
  0
LINE
  5
C79F
  8
0
  6
CONTINUOUS
 62
     0
 10
460.79721673788868
 20
1086.9131773724771
 30
0.0
 11
460.79721673788868
 21
1074.713177372478
 31
0.0
  0
LINE
  5
C7A0
  8
0
  6
CONTINUOUS
 62
     0
 10
460.79721673788868
 20
1075.563177372477
 30
0.0
 11
459.49701573788872
 21
1075.563177372477
 31
0.0
  0
LINE
  5
C7A1
  8
0
  6
CONTINUOUS
 62
     0
 10
460.79721673788868
 20
1086.063177372477
 30
0.0
 11
459.49701573788872
 21
1086.063177372477
 31
0.0
  0
ARC
  5
C7A2
  8
0
  6
CONTINUOUS
 62
     0
 10
459.49701573788872
 20
952.12125637247755
 30
0.0
 40
2.6003989999999999
 50
179.99998200000081
 51
269.99997799999852
  0
ARC
  5
C7A3
  8
0
  6
CONTINUOUS
 62
     0
 10
459.49701573788872
 20
957.42124437247753
 30
0.0
 40
2.600403
 50
90.0
 51
179.99998200000081
  0
LINE
  5
C7A4
  8
0
  6
CONTINUOUS
 62
     0
 10
462.29721673788879
 20
954.83727537247751
 30
0.0
 11
460.79721673788868
 21
953.97125037247747
 31
0.0
  0
LINE
  5
C7A5
  8
0
  6
CONTINUOUS
 62
     0
 10
462.29721673788879
 20
955.83727537247773
 30
0.0
 11
460.79721673788868
 21
954.97125037247747
 31
0.0
  0
LINE
  5
C7A6
  8
0
  6
CONTINUOUS
 62
     0
 10
462.29721673788879
 20
960.87125037247756
 30
0.0
 11
462.29721673788879
 21
948.67125037247774
 31
0.0
  0
LINE
  5
C7A7
  8
0
  6
CONTINUOUS
 62
     0
 10
460.79721673788868
 20
960.87125037247756
 30
0.0
 11
462.29721673788879
 21
960.87125037247756
 31
0.0
  0
LINE
  5
C7A8
  8
0
  6
CONTINUOUS
 62
     0
 10
460.79721673788868
 20
948.67125037247774
 30
0.0
 11
462.29721673788879
 21
948.67125037247774
 31
0.0
  0
LINE
  5
C7A9
  8
0
  6
CONTINUOUS
 62
     0
 10
456.89722273788868
 20
957.42124437247753
 30
0.0
 11
456.89722273788868
 21
952.12125637247755
 31
0.0
  0
LINE
  5
C7AA
  8
0
  6
CONTINUOUS
 62
     0
 10
460.79721673788868
 20
960.87125037247756
 30
0.0
 11
460.79721673788868
 21
948.67125037247774
 31
0.0
  0
LINE
  5
C7AB
  8
0
  6
CONTINUOUS
 62
     0
 10
460.79721673788868
 20
949.52125037247765
 30
0.0
 11
459.49701573788872
 21
949.52125037247765
 31
0.0
  0
LINE
  5
C7AC
  8
0
  6
CONTINUOUS
 62
     0
 10
460.79721673788868
 20
960.02125037247777
 30
0.0
 11
459.49701573788872
 21
960.02125037247777
 31
0.0
  0
LINE
  5
C907
  8
0
  6
CONTINUOUS
 62
     0
 10
500.29715673788911
 20
1082.419561372478
 30
0.0
 11
481.79721673788868
 21
1082.419561372478
 31
0.0
  0
LINE
  5
C908
  8
0
  6
CONTINUOUS
 62
     0
 10
500.29715673788911
 20
1068.7458793724779
 30
0.0
 11
481.79721673788868
 21
1068.7458793724779
 31
0.0
  0
LINE
  5
C909
  8
0
  6
CONTINUOUS
 62
     0
 10
500.29715673788911
 20
956.77791937247741
 30
0.0
 11
481.79721673788868
 21
956.77791937247741
 31
0.0
  0
LINE
  5
C90A
  8
0
  6
CONTINUOUS
 62
     0
 10
500.29715673788911
 20
966.95721137247745
 30
0.0
 11
481.79721673788868
 21
966.95721137247745
 31
0.0
  0
LINE
  5
C90B
  8
0
  6
CONTINUOUS
 62
     0
 10
500.29715673788911
 20
944.47028037247776
 30
0.0
 11
481.79721673788868
 21
944.47028037247776
 31
0.0
  0
LINE
  5
C90C
  8
0
 62
     0
 10
481.7971567378894
 20
661.03272782777105
 30
0.0
 11
500.29715673788672
 21
661.03272782777105
 31
0.0
  0
LINE
  5
C90E
  8
0
 62
     0
 10
481.7971567378894
 20
669.15673282777107
 30
0.0
 11
500.29715673788672
 21
669.15673282777107
 31
0.0
  0
LINE
  5
C90F
  8
0
 62
     0
 10
481.7971567378894
 20
647.35901682777114
 30
0.0
 11
500.29715673788672
 21
647.35901682777114
 31
0.0
  0
LINE
  5
C910
  8
0
 62
     0
 10
481.7971567378894
 20
535.39108582777112
 30
0.0
 11
500.29715673788672
 21
535.39108582777112
 31
0.0
  0
LINE
  5
C911
  8
0
 62
     0
 10
481.7971567378894
 20
545.57037782777115
 30
0.0
 11
500.29715673788672
 21
545.57037782777115
 31
0.0
  0
LINE
  5
C912
  8
0
 62
     0
 10
481.7971567378894
 20
523.10380482777123
 30
0.0
 11
500.29715673788672
 21
523.10380482777123
 31
0.0
  0
LINE
  5
CAA4
  8
0
 10
785.29715673788849
 20
661.79308725698274
 30
0.0
 11
785.29715673788849
 21
602.79308725698274
 31
0.0
  0
LINE
  5
CAA5
  8
0
 10
550.29715673788564
 20
752.29307225698244
 30
0.0
 11
550.29715673788564
 21
437.29308225698259
 31
0.0
  0
LINE
  5
CAA6
  8
0
 10
516.3149567378872
 20
721.91707225698224
 30
0.0
 11
502.26165673788461
 21
702.94502225698216
 31
0.0
  0
LINE
  5
CAA7
  8
0
 10
519.29715673788655
 20
752.29307225698244
 30
0.0
 11
550.29715673788564
 21
752.29307225698244
 31
0.0
  0
LINE
  5
CAA8
  8
0
 10
517.29715673788655
 20
750.29312225698243
 30
0.0
 11
517.29715673788655
 21
724.89322225698243
 31
0.0
  0
LINE
  5
CAA9
  8
0
 10
522.22735673788532
 20
751.31282225698226
 30
0.0
 11
550.29715673788564
 21
752.29307225698244
 31
0.0
  0
LINE
  5
CAAA
  8
0
 10
520.29715673788917
 20
749.31412225698239
 30
0.0
 11
520.29715673788917
 21
460.43206225698231
 31
0.0
  0
LINE
  5
CAAB
  8
0
 10
500.29715673788672
 20
696.9927722569829
 30
0.0
 11
500.29715673788672
 21
486.0805272569828
 31
0.0
  0
LINE
  5
CAAC
  8
0
 10
500.29715673788672
 20
486.0805272569828
 30
0.0
 11
500.29715673788672
 21
476.22078725698231
 31
0.0
  0
LINE
  5
CAAD
  8
0
 10
519.31495673788709
 20
725.96707225698242
 30
0.0
 11
516.3149567378872
 21
721.91707225698224
 31
0.0
  0
LINE
  5
CAAE
  8
0
 10
522.50310673788715
 20
761.29307225698244
 30
0.0
 11
542.09115673788915
 21
761.29307225698244
 31
0.0
  0
LINE
  5
CAAF
  8
0
 10
519.79715673788564
 20
752.29307225698244
 30
0.0
 11
522.04765673788665
 21
760.69197225698224
 31
0.0
  0
LINE
  5
CAB0
  8
0
 10
544.79720673788711
 20
752.29307225698244
 30
0.0
 11
542.54670673788712
 21
760.69202225698268
 31
0.0
  0
LINE
  5
CAB1
  8
0
 10
522.81910673788684
 20
761.41407225698242
 30
0.0
 11
532.29715673788655
 21
763.29312225698243
 31
0.0
  0
LINE
  5
CAB2
  8
0
 10
532.29715673788655
 20
763.29307225698267
 30
0.0
 11
541.77525673788682
 21
761.41407225698242
 31
0.0
  0
ARC
  5
CAB3
  8
0
 10
515.29715673788564
 20
728.94322225698215
 30
0.0
 40
5.0
 50
323.47113999998828
 51
0.0
  0
ARC
  5
CAB4
  8
0
 10
522.29715673788655
 20
749.31412225698239
 30
0.0
 40
2.0000000500000001
 50
91.999997999994051
 51
180.000010000001
  0
ARC
  5
CAB5
  8
0
 10
519.29715673788655
 20
750.29312225698243
 30
0.0
 40
2.0000000500000001
 50
90.000002999984659
 51
180.000010000001
  0
ARC
  5
CAB6
  8
0
 10
510.29715673788661
 20
476.22078725698231
 30
0.0
 40
10.0
 50
179.999989999999
 51
224.0922199999934
  0
ARC
  5
CAB7
  8
0
 10
512.29715673788564
 20
724.89322225698243
 30
0.0
 40
5.0
 50
323.47113999998828
 51
0.0
  0
ARC
  5
CAB8
  8
0
 10
510.29715673788661
 20
696.9927722569829
 30
0.0
 40
10.0
 50
143.4711399999845
 51
180.000010000001
  0
ARC
  5
CAB9
  8
0
 10
495.2971567378882
 20
494.81859725698263
 30
0.0
 40
5.0
 50
0.0
 51
87.999999999996248
  0
CIRCLE
  5
CABA
  8
0
 10
532.29715673788655
 20
778.29307225698244
 30
0.0
 40
15.0
  0
ARC
  5
CABB
  8
0
 10
532.29715673788655
 20
778.29307225698244
 30
0.0
 40
25.000000499999999
 50
306.46671999997682
 51
233.53328999996171
  0
ARC
  5
CABC
  8
0
 10
523.01360673788565
 20
760.43317225698274
 30
0.0
 40
1.0
 50
101.2132899999924
 51
164.99998999998439
  0
ARC
  5
CABD
  8
0
 10
541.58080673788766
 20
760.43317225698274
 30
0.0
 40
1.0
 50
14.999999999994451
 51
78.786710000007588
  0
ARC
  5
CABE
  8
0
 10
513.87210673788684
 20
753.36277225698268
 30
0.0
 40
6.0
 50
349.72995000001282
 51
53.533291000028321
  0
ARC
  5
CABF
  8
0
 10
550.72215673788764
 20
753.36277225698268
 30
0.0
 40
6.0
 50
126.46669999999671
 51
190.27005999999159
  0
ARC
  5
CAC0
  8
0
 10
495.2971567378882
 20
675.76756725698272
 30
0.0
 40
5.0
 50
272.00000000000369
 51
0.0
  0
LINE
  5
CAC2
  8
AM_0
 10
723.2971567378886
 20
661.79308725698274
 30
0.0
 11
723.2971567378886
 21
657.79308725698274
 31
0.0
  0
LINE
  5
CAC3
  8
AM_0
 10
723.2971567378886
 20
661.79308725698274
 30
0.0
 11
785.2971567378886
 21
661.79308725698274
 31
0.0
  0
LINE
  5
CAC4
  8
AM_0
 10
703.29715673788849
 20
602.79308225698264
 30
0.0
 11
785.2971567378886
 21
602.79308225698264
 31
0.0
  0
LINE
  5
CAC5
  8
AM_0
 10
785.2971567378886
 20
661.79308725698274
 30
0.0
 11
785.2971567378886
 21
602.79308225698264
 31
0.0
  0
LINE
  5
CAC6
  8
AM_0
 10
703.29715673788849
 20
657.79308725698274
 30
0.0
 11
785.2971567378886
 21
657.79308725698274
 31
0.0
  0
LINE
  5
CAC7
  8
AM_0
 10
703.29715673788849
 20
660.29308725698274
 30
0.0
 11
703.29715673788849
 21
600.29308225698264
 31
0.0
  0
LINE
  5
CAC8
  8
AM_0
 10
700.29715673788826
 20
600.29308225698264
 30
0.0
 11
703.29715673788849
 21
600.29308225698264
 31
0.0
  0
LINE
  5
CAC9
  8
AM_0
 10
700.29715673788826
 20
660.29308725698274
 30
0.0
 11
703.29715673788849
 21
660.29308725698274
 31
0.0
  0
LINE
  5
CACA
  8
AM_0
 10
658.09505673788829
 20
744.47242225698255
 30
0.0
 11
657.02415673788835
 21
756.02002225698254
 31
0.0
  0
LINE
  5
CACB
  8
AM_0
 10
661.94730673788899
 20
717.13472225698263
 30
0.0
 11
673.29720673788825
 21
725.45852225698252
 31
0.0
  0
LINE
  5
CACC
  8
AM_0
 10
632.64675673788895
 20
727.6570722569827
 30
0.0
 11
670.88595673788905
 21
750.79947225698254
 31
0.0
  0
LINE
  5
CACD
  8
AM_0
 10
635.2355567378886
 20
716.16662225698246
 30
0.0
 11
658.99040673788875
 21
716.16662225698246
 31
0.0
  0
LINE
  5
CACE
  8
AM_0
 10
635.22625673788889
 20
717.94352225698276
 30
0.0
 11
670.79540673788824
 21
739.4699722569826
 31
0.0
  0
LINE
  5
CACF
  8
AM_0
 10
630.2355567378886
 20
723.37947225698247
 30
0.0
 11
630.2355567378886
 21
721.16662225698246
 31
0.0
  0
LINE
  5
CAD0
  8
AM_0
 10
672.62380673788846
 20
587.8049872569826
 30
0.0
 11
660.72000673788853
 21
716.16667225698245
 31
0.0
  0
LINE
  5
CAD1
  8
AM_0
 10
673.2971567378886
 20
538.0191872569826
 30
0.0
 11
673.2971567378886
 21
470.29308225698259
 31
0.0
  0
LINE
  5
CAD2
  8
AM_0
 10
682.29715673788849
 20
754.64222225698268
 30
0.0
 11
682.29715673788849
 21
505.9439622569825
 31
0.0
  0
LINE
  5
CAD3
  8
AM_0
 10
522.2971567378886
 20
536.9638922569826
 30
0.0
 11
673.2971567378886
 21
536.9638922569826
 31
0.0
  0
LINE
  5
CAD4
  8
AM_0
 10
634.95985915305073
 20
434.47309068619433
 30
0.0
 11
687.29715673788837
 21
465.29308225698259
 31
0.0
  0
LINE
  5
CAD5
  8
AM_0
 10
700.29715673788826
 20
770.29312225698266
 30
0.0
 11
700.29715673788826
 21
490.29308225698259
 31
0.0
  0
LINE
  5
CAD6
  8
AM_0
 10
695.29715673788837
 20
770.29312225698266
 30
0.0
 11
700.29715673788826
 21
770.29312225698266
 31
0.0
  0
LINE
  5
CAD7
  8
AM_0
 10
695.29715673788837
 20
490.29308225698259
 30
0.0
 11
700.29715673788826
 21
490.29308225698259
 31
0.0
  0
LINE
  5
CAD8
  8
AM_0
 10
695.29715673788837
 20
795.29312225698266
 30
0.0
 11
695.29715673788837
 21
465.29308225698259
 31
0.0
  0
LINE
  5
CAD9
  8
AM_0
 10
673.2971567378886
 20
789.69637225698261
 30
0.0
 11
673.2971567378886
 21
596.02971725698262
 31
0.0
  0
LINE
  5
CADA
  8
AM_0
 10
595.29715673788837
 20
485.89415725698251
 30
0.0
 11
673.2971567378886
 21
485.89415725698251
 31
0.0
  0
LINE
  5
CADB
  8
AM_0
 10
595.29715673788837
 20
510.53899225698262
 30
0.0
 11
673.2971567378886
 21
510.53899225698262
 31
0.0
  0
LINE
  5
CADC
  8
AM_0
 10
550.29710673788884
 20
752.29312225698277
 30
0.0
 11
652.07850673788869
 21
754.95832225698246
 31
0.0
  0
LINE
  5
CADD
  8
AM_0
 10
678.29715673788849
 20
465.29308225698259
 30
0.0
 11
695.29715673788837
 21
465.29308225698259
 31
0.0
  0
LINE
  5
CADE
  8
AM_0
 10
678.12265673788852
 20
794.69332225698258
 30
0.0
 11
695.29715673788837
 21
795.29307225698255
 31
0.0
  0
LINE
  5
CADF
  8
AM_0
 10
658.8879067378889
 20
757.8838222569824
 30
0.0
 11
673.2971567378886
 21
772.29307225698255
 31
0.0
  0
LINE
  5
CAE0
  8
AM_0
 10
550.29715673788257
 20
437.29308225698281
 30
0.0
 11
634.95985915305073
 21
434.47309068619433
 31
0.0
  0
LINE
  5
CAE1
  8
AM_0
 10
590.2971567378886
 20
505.53899225698262
 30
0.0
 11
590.2971567378886
 21
490.89412725698259
 31
0.0
  0
LINE
  5
CAE2
  8
AM_0
 10
520.29715673788837
 20
638.75948725698254
 30
0.0
 11
667.89845673788875
 21
638.75948725698254
 31
0.0
  0
ARC
  5
CAE3
  8
AM_0
 10
668.2971567378886
 20
755.07717225698252
 30
0.0
 40
5.0
 50
301.18236000000519
 51
0.0
  0
ARC
  5
CAE4
  8
AM_0
 10
635.2355567378886
 20
723.37947225698247
 30
0.0
 40
5.0
 50
121.1823600000052
 51
180.000010000001
  0
ARC
  5
CAE5
  8
AM_0
 10
635.2355567378886
 20
721.16662225698246
 30
0.0
 40
5.0
 50
179.999989999999
 51
270.0
  0
ARC
  5
CAE6
  8
AM_0
 10
658.99040673788875
 20
721.16662225698246
 30
0.0
 40
5.0
 50
270.0
 51
306.25555000000281
  0
ARC
  5
CAE7
  8
AM_0
 10
651.81680673788856
 20
764.95487225698253
 30
0.0
 40
10.0
 50
271.4999999999896
 51
315.00000000000921
  0
ARC
  5
CAE8
  8
AM_0
 10
680.58955673788887
 20
588.54372725698272
 30
0.0
 40
8.0
 50
185.2982400000015
 51
270.0
  0
ARC
  5
CAE9
  8
AM_0
 10
674.29715673788849
 20
754.64222225698268
 30
0.0
 40
8.0
 50
0.0
 51
90.000002999984659
  0
ARC
  5
CAEA
  8
AM_0
 10
674.29715673788849
 20
696.62972725698273
 30
0.0
 40
8.0
 50
0.0
 51
90.000002999984659
  0
ARC
  5
CAEB
  8
AM_0
 10
674.29715673788849
 20
505.9439622569825
 30
0.0
 40
8.0
 50
270.0
 51
0.0
  0
ARC
  5
CAEC
  8
AM_0
 10
674.29715673788849
 20
545.95644225698265
 30
0.0
 40
8.0
 50
270.0
 51
0.0
  0
ARC
  5
CAED
  8
AM_0
 10
595.29715673788837
 20
505.53899225698262
 30
0.0
 40
5.0
 50
90.000002999984659
 51
180.000010000001
  0
ARC
  5
CAEE
  8
AM_0
 10
678.29715673788849
 20
470.29308225698259
 30
0.0
 40
5.0
 50
179.999989999999
 51
270.0
  0
ARC
  5
CAEF
  8
AM_0
 10
678.29715673788849
 20
789.69637225698261
 30
0.0
 40
5.0
 50
91.999997999994051
 51
180.000010000001
  0
ARC
  5
CAF0
  8
AM_0
 10
595.29715673788837
 20
490.89412725698259
 30
0.0
 40
5.0
 50
179.999989999999
 51
270.0
  0
LINE
  5
CAF1
  8
AM_0
 10
518.88830673788868
 20
452.98145225698261
 30
0.0
 11
503.11500673788868
 21
469.26262725698263
 31
0.0
  0
ARC
  5
CAF2
  8
AM_0
 10
510.29715673788849
 20
476.22081725698263
 30
0.0
 40
10.0
 50
179.999989999999
 51
224.0922199999749
  0
ARC
  5
CAF3
  8
AM_0
 10
522.29715673788826
 20
440.2720722569826
 30
0.0
 40
2.0000000500000001
 50
179.999989999999
 51
268.00000999999207
  0
ARC
  5
CAF4
  8
AM_0
 10
515.29715673788849
 20
449.5023722569826
 30
0.0
 40
5.0
 50
0.0
 51
44.092232000029739
  0
LINE
  5
CAF5
  8
AM_0
 10
522.2273580242171
 20
438.27329054314549
 30
0.0
 11
550.29715673788257
 21
437.29308225698281
 31
0.0
1001
GENIUS_GENODEF_13
1002
{
1000
HIER
1070
     0
1002
}
1002
{
1000
MANEDIT
1070
     0
1002
}
1002
{
1000
NOSEL
1070
     0
1002
}
1002
{
1000
BEHIND
1070
     0
1002
}
1002
{
1000
OTHER
1070
     0
1002
}
1002
{
1000
REACTOR
1002
}
1001
GENIUS_GENOBJ-N-CEN_13
1002
{
1000
OWNER
1000
GEN
1002
}
1001
GENIUS_GENCEN_19
1002
{
1040
2.7939999999999978
1002
}
  0
LINE
  5
CAF6
  8
AM_0
 10
520.29715668788845
 20
440.2720722569826
 30
0.0
 11
520.29715673788837
 21
449.50237250867298
 31
0.0
1001
GENIUS_GENODEF_13
1002
{
1000
HIER
1070
     0
1002
}
1002
{
1000
MANEDIT
1070
     0
1002
}
1002
{
1000
NOSEL
1070
     0
1002
}
1002
{
1000
BEHIND
1070
     0
1002
}
1002
{
1000
OTHER
1070
     0
1002
}
1002
{
1000
REACTOR
1002
}
1001
GENIUS_GENOBJ-N-CEN_13
1002
{
1000
OWNER
1000
GEN
1002
}
1001
GENIUS_GENCEN_19
1002
{
1040
2.7939999999999978
1002
}
  0
LINE
  5
CC04
  8
0
  6
CONTINUOUS
 62
     7
 10
550.29721673788845
 20
1139.6799173724769
 30
0.0
 11
550.29721673788845
 21
1011.679917372477
 31
0.0
  0
LINE
  5
CC05
  8
0
  6
CONTINUOUS
 62
     7
 10
550.29721673788845
 20
873.67991737247735
 30
0.0
 11
525.12271673788882
 21
874.5590673724771
 31
0.0
  0
LINE
  5
CC06
  8
0
  6
CONTINUOUS
 62
     7
 10
550.29715673788883
 20
1139.679857372477
 30
0.0
 11
525.12265673788852
 21
1138.8007673724769
 31
0.0
  0
LINE
  5
CC07
  8
0
  6
CENTER
 62
     7
 10
532.29721673788856
 20
991.49961737247747
 30
0.0
 11
532.29721673788856
 21
1021.234477372477
 31
0.0
  0
LINE
  5
CC08
  8
0
  6
CONTINUOUS
 62
     7
 10
550.29721673788845
 20
1001.679917372477
 30
0.0
 11
550.29721673788845
 21
873.67991737247735
 31
0.0
  0
LINE
  5
CC09
  8
0
  6
CONTINUOUS
 62
     7
 10
520.29715673788871
 20
879.55601737247707
 30
0.0
 11
520.29715673788871
 21
996.14432737247728
 31
0.0
  0
LINE
  5
CC0A
  8
0
  6
CONTINUOUS
 62
     7
 10
520.29715673788871
 20
1017.215437372477
 30
0.0
 11
520.29715673788871
 21
1133.8038173724769
 31
0.0
  0
LINE
  5
CC0B
  8
0
  6
CONTINUOUS
 62
     7
 10
723.29721673788868
 20
1014.679857372477
 30
0.0
 11
785.2971567378886
 21
1014.679857372477
 31
0.0
  0
LINE
  5
CC0C
  8
0
  6
CONTINUOUS
 62
     7
 10
550.29721673788845
 20
873.67985737247704
 30
0.0
 11
666.45395673788835
 21
869.62357737247669
 31
0.0
  0
LINE
  5
CC0D
  8
0
  6
CONTINUOUS
 62
     7
 10
661.94735673788841
 20
1093.521467372477
 30
0.0
 11
673.29727673788841
 21
1101.8452573724769
 31
0.0
  0
LINE
  5
CC0E
  8
0
  6
CONTINUOUS
 62
     7
 10
669.81497673788863
 20
868.16221737247679
 30
0.0
 11
673.29727673788841
 21
864.67991737247712
 31
0.0
  0
LINE
  5
CC0F
  8
0
  6
CONTINUOUS
 62
     7
 10
723.29721673788868
 20
998.67985737247716
 30
0.0
 11
785.2971567378886
 21
998.67985737247716
 31
0.0
  0
LINE
  5
CC10
  8
0
  6
CONTINUOUS
 62
     7
 10
703.29715673788883
 20
1036.6799173724769
 30
0.0
 11
703.29715673788883
 21
976.67991737247701
 31
0.0
  0
LINE
  5
CC11
  8
0
  6
CONTINUOUS
 62
     7
 10
700.29721673788833
 20
1036.6799173724769
 30
0.0
 11
703.29715673788883
 21
1036.6799173724769
 31
0.0
  0
LINE
  5
CC12
  8
0
  6
CONTINUOUS
 62
     7
 10
723.29715673788883
 20
1014.679857372477
 30
0.0
 11
723.29715673788883
 21
998.67985737247716
 31
0.0
  0
LINE
  5
CC13
  8
0
  6
CONTINUOUS
 62
     7
 10
785.2971567378886
 20
1034.1799173724769
 30
0.0
 11
785.2971567378886
 21
979.17991737247701
 31
0.0
  0
LINE
  5
CC14
  8
0
  6
CONTINUOUS
 62
     7
 10
703.29715673788883
 20
979.17991737247701
 30
0.0
 11
785.2971567378886
 21
979.17991737247701
 31
0.0
  0
LINE
  5
CC15
  8
0
  6
CONTINUOUS
 62
     7
 10
703.29715673788883
 20
1034.1799173724769
 30
0.0
 11
785.2971567378886
 21
1034.1799173724769
 31
0.0
  0
LINE
  5
CC16
  8
0
  6
CONTINUOUS
 62
     7
 10
661.94735673788841
 20
919.83823737247701
 30
0.0
 11
673.29727673788841
 21
911.51444737247732
 31
0.0
  0
LINE
  5
CC17
  8
0
  6
CONTINUOUS
 62
     7
 10
695.29721673788833
 20
866.67991737247701
 30
0.0
 11
700.29721673788833
 21
866.67991737247701
 31
0.0
  0
LINE
  5
CC18
  8
0
  6
CONTINUOUS
 62
     7
 10
632.64676673788836
 20
909.31583737247695
 30
0.0
 11
670.88601673788844
 21
886.17338737247712
 31
0.0
  0
LINE
  5
CC19
  8
0
  6
CONTINUOUS
 62
     7
 10
635.23562673788854
 20
920.80637737247719
 30
0.0
 11
658.99044673788865
 21
920.80637737247719
 31
0.0
  0
LINE
  5
CC1A
  8
0
  6
CONTINUOUS
 62
     7
 10
635.22635673788841
 20
919.02946737247726
 30
0.0
 11
670.79544673788837
 21
897.5030373724768
 31
0.0
  0
LINE
  5
CC1B
  8
0
  6
CONTINUOUS
 62
     7
 10
630.23562673788854
 20
913.59348737247728
 30
0.0
 11
630.23562673788854
 21
915.8063773724773
 31
0.0
  0
LINE
  5
CC1C
  8
0
  6
CONTINUOUS
 62
     7
 10
550.29721673788845
 20
1139.679857372477
 30
0.0
 11
666.45395673788835
 21
1143.7361873724769
 31
0.0
  0
LINE
  5
CC1D
  8
0
  6
CONTINUOUS
 62
     7
 10
673.29721673788856
 20
1166.0831773724769
 30
0.0
 11
673.29721673788856
 21
847.27665737247719
 31
0.0
  0
LINE
  5
CC1E
  8
0
  6
CONTINUOUS
 62
     7
 10
700.29721673788833
 20
976.67991737247701
 30
0.0
 11
703.29715673788883
 21
976.67991737247701
 31
0.0
  0
LINE
  5
CC1F
  8
0
  6
CONTINUOUS
 62
     7
 10
669.81503673788859
 20
1145.1975573724769
 30
0.0
 11
673.29727673788841
 21
1148.679787372477
 31
0.0
  0
LINE
  5
CC20
  8
0
  6
CONTINUOUS
 62
     7
 10
678.12283673788841
 20
1171.080187372477
 30
0.0
 11
695.29727673788818
 21
1171.6799173724769
 31
0.0
  0
LINE
  5
CC21
  8
0
  6
CONTINUOUS
 62
     7
 10
678.12277673788856
 20
842.27964737247669
 30
0.0
 11
695.29727673788818
 21
841.67991737247701
 31
0.0
  0
LINE
  5
CC22
  8
0
  6
CONTINUOUS
 62
     7
 10
695.29721673788833
 20
1171.6799173724769
 30
0.0
 11
695.29721673788833
 21
841.67985737247716
 31
0.0
  0
LINE
  5
CC23
  8
0
  6
CONTINUOUS
 62
     7
 10
695.29721673788833
 20
1146.6799173724769
 30
0.0
 11
700.29721673788833
 21
1146.6799173724769
 31
0.0
  0
LINE
  5
CC24
  8
0
  6
CONTINUOUS
 62
     7
 10
700.29721673788833
 20
1146.6799173724769
 30
0.0
 11
700.29721673788833
 21
866.67991737247701
 31
0.0
  0
LINE
  5
CC25
  8
0
  6
CONTINUOUS
 62
     7
 10
682.29727673788841
 20
1131.029037372477
 30
0.0
 11
682.29727673788841
 21
882.33079737247715
 31
0.0
  0
LINE
  5
CC26
  8
0
  6
CONTINUOUS
 62
     7
 10
635.23562673788854
 20
1092.553447372477
 30
0.0
 11
658.99044673788865
 21
1092.553447372477
 31
0.0
  0
LINE
  5
CC27
  8
0
  6
CONTINUOUS
 62
     7
 10
630.23562673788854
 20
1099.7662773724769
 30
0.0
 11
630.23562673788854
 21
1097.553447372477
 31
0.0
  0
LINE
  5
CC28
  8
0
  6
CONTINUOUS
 62
     7
 10
635.22635673788841
 20
1094.3303073724769
 30
0.0
 11
670.79544673788837
 21
1115.8567973724771
 31
0.0
  0
LINE
  5
CC29
  8
0
  6
CONTINUOUS
 62
     7
 10
632.64669673788876
 20
1104.043987372477
 30
0.0
 11
670.88601673788844
 21
1127.1863873724769
 31
0.0
  0
ARC
  5
CC2A
  8
0
  6
CONTINUOUS
 62
     7
 10
532.29721673788856
 20
1006.679917372477
 30
0.0
 40
15.0
 50
148.21198000000069
 51
160.5287699999993
  0
ARC
  5
CC2B
  8
0
  6
CONTINUOUS
 62
     7
 10
532.29721673788856
 20
1006.679917372477
 30
0.0
 40
12.5
 50
23.578179999997541
 51
156.42182000000241
  0
ARC
  5
CC2C
  8
0
  6
CONTINUOUS
 62
     7
 10
552.29721673788856
 20
1006.679917372477
 30
0.0
 40
5.0
 50
270.0
 51
90.00000299999769
  0
ARC
  5
CC2D
  8
0
  6
CONTINUOUS
 62
     7
 10
532.29721673788856
 20
1006.679917372477
 30
0.0
 40
12.5
 50
203.5781799999975
 51
336.4218300000008
  0
ARC
  5
CC2E
  8
0
  6
CONTINUOUS
 62
     7
 10
532.29721673788856
 20
1006.679917372477
 30
0.0
 40
15.0
 50
199.4712300000007
 51
211.78801999999931
  0
ARC
  5
CC2F
  8
0
  6
CONTINUOUS
 62
     7
 10
525.29715673788883
 20
879.55601737247707
 30
0.0
 40
5.0
 50
180.000010000001
 51
268.0000000000029
  0
ARC
  5
CC30
  8
0
  6
CONTINUOUS
 62
     7
 10
525.29715673788883
 20
1133.8038173724769
 30
0.0
 40
5.0
 50
91.999998000000545
 51
180.000010000001
  0
ARC
  5
CC31
  8
0
  6
CONTINUOUS
 62
     7
 10
515.29715673788883
 20
1123.4908873724769
 30
0.0
 40
5.0
 50
271.99999999999721
 51
0.0
  0
ARC
  5
CC32
  8
0
  6
CONTINUOUS
 62
     7
 10
515.29715673788883
 20
889.86887737247707
 30
0.0
 40
5.0
 50
0.0
 51
88.000000000002785
  0
ARC
  5
CC33
  8
0
  6
CONTINUOUS
 62
     7
 10
515.29715673788883
 20
996.14432737247728
 30
0.0
 40
5.0
 50
0.0
 51
31.788018000003131
  0
ARC
  5
CC34
  8
0
  6
CONTINUOUS
 62
     7
 10
515.29715673788883
 20
1017.215437372477
 30
0.0
 40
5.0
 50
328.21198000000072
 51
0.0
  0
ARC
  5
CC35
  8
0
  6
CONTINUOUS
 62
     7
 10
658.99044673788865
 20
1097.553447372477
 30
0.0
 40
5.0
 50
270.0
 51
306.25554999999889
  0
ARC
  5
CC36
  8
0
  6
CONTINUOUS
 62
     7
 10
666.27945673788872
 20
864.62668737247668
 30
0.0
 40
5.0
 50
45.000001000003799
 51
88.000000000002785
  0
ARC
  5
CC37
  8
0
  6
CONTINUOUS
 62
     7
 10
666.27945673788872
 20
1148.7331373724769
 30
0.0
 40
5.0
 50
271.99999999999721
 51
315.0
  0
ARC
  5
CC38
  8
0
  6
CONTINUOUS
 62
     7
 10
678.29721673788856
 20
847.27665737247719
 30
0.0
 40
5.0
 50
179.999989999999
 51
268.00000999999861
  0
ARC
  5
CC39
  8
0
  6
CONTINUOUS
 62
     7
 10
723.29721673788868
 20
1006.679857372477
 30
0.0
 40
8.0000113999999982
 50
90.00000299999769
 51
270.0
  0
ARC
  5
CC3A
  8
0
  6
CONTINUOUS
 62
     7
 10
635.23562673788854
 20
1099.7662773724769
 30
0.0
 40
5.0
 50
121.18235999999629
 51
180.000010000001
  0
ARC
  5
CC3B
  8
0
  6
CONTINUOUS
 62
     7
 10
668.29721673788845
 20
1131.4639673724771
 30
0.0
 40
5.0
 50
301.18235999999632
 51
0.0
  0
ARC
  5
CC3C
  8
0
  6
CONTINUOUS
 62
     7
 10
635.23562673788854
 20
1097.553447372477
 30
0.0
 40
5.0
 50
179.999989999999
 51
270.0
  0
ARC
  5
CC3D
  8
0
  6
CONTINUOUS
 62
     7
 10
635.23562673788854
 20
915.8063773724773
 30
0.0
 40
5.0
 50
90.00000299999769
 51
180.000010000001
  0
ARC
  5
CC3E
  8
0
  6
CONTINUOUS
 62
     7
 10
668.29721673788845
 20
881.8957973724772
 30
0.0
 40
5.0
 50
0.0
 51
58.817640999998339
  0
ARC
  5
CC3F
  8
0
  6
CONTINUOUS
 62
     7
 10
635.23562673788854
 20
913.59348737247728
 30
0.0
 40
5.0
 50
179.999989999999
 51
238.81764999999709
  0
ARC
  5
CC40
  8
0
  6
CONTINUOUS
 62
     7
 10
674.29721673788845
 20
940.34324737247709
 30
0.0
 40
8.0
 50
270.0
 51
0.0
  0
ARC
  5
CC41
  8
0
  6
CONTINUOUS
 62
     7
 10
658.99044673788865
 20
915.8063773724773
 30
0.0
 40
5.0
 50
53.744453000003212
 51
90.00000299999769
  0
ARC
  5
CC42
  8
0
  6
CONTINUOUS
 62
     7
 10
674.29721673788845
 20
882.33079737247715
 30
0.0
 40
8.0
 50
270.0
 51
0.0
  0
ARC
  5
CC43
  8
0
  6
CONTINUOUS
 62
     7
 10
678.29721673788856
 20
1166.0831773724769
 30
0.0
 40
5.0
 50
91.999998000000545
 51
180.000010000001
  0
ARC
  5
CC44
  8
0
  6
CONTINUOUS
 62
     7
 10
674.29721673788845
 20
1073.016527372477
 30
0.0
 40
8.0
 50
0.0
 51
90.00000299999769
  0
ARC
  5
CC45
  8
0
  6
CONTINUOUS
 62
     7
 10
674.29721673788845
 20
1131.029037372477
 30
0.0
 40
8.0
 50
0.0
 51
90.00000299999769
  0
POLYLINE
  5
CC46
  8
0
  6
CONTINUOUS
 62
     7
 66
     1
 10
0.0
 20
0.0
 30
0.0
  0
VERTEX
  5
CC47
  8
0
  6
CONTINUOUS
 62
     7
 10
663.38075673788853
 20
890.71561737247703
 30
0.0
 42
0.0020909347
  0
VERTEX
  5
CC48
  8
0
  6
CONTINUOUS
 62
     7
 10
664.34660673788835
 20
883.6751073724771
 30
0.0
 42
0.0020881749
  0
VERTEX
  5
CC49
  8
0
  6
CONTINUOUS
 62
     7
 10
665.37118673788825
 20
876.64348737247713
 30
0.0
 42
0.0020849591
  0
VERTEX
  5
CC4A
  8
0
  6
CONTINUOUS
 62
     7
 10
666.45395673788835
 20
869.62363737247699
 30
0.0
  0
SEQEND
  5
CC4B
  8
0
 62
     7
  0
POLYLINE
  5
CC4C
  8
0
  6
CONTINUOUS
 62
     7
 66
     1
 10
0.0
 20
0.0
 30
0.0
  0
VERTEX
  5
CC4D
  8
0
  6
CONTINUOUS
 62
     7
 10
661.20004673788856
 20
1093.0681673724771
 30
0.0
 42
0.01720808
  0
VERTEX
  5
CC4E
  8
0
  6
CONTINUOUS
 62
     7
 10
656.78377673788862
 20
1035.6929773724769
 30
0.0
 42
0.0088311605
  0
VERTEX
  5
CC4F
  8
0
  6
CONTINUOUS
 62
     7
 10
656.06692673788859
 20
1006.679917372477
 30
0.0
 42
0.025919753
  0
VERTEX
  5
CC50
  8
0
  6
CONTINUOUS
 62
     7
 10
659.9357567378886
 20
920.71622737247719
 30
0.0
  0
SEQEND
  5
CC51
  8
0
 62
     7
  0
POLYLINE
  5
CC52
  8
0
  6
CONTINUOUS
 62
     7
 66
     1
 10
0.0
 20
0.0
 30
0.0
  0
VERTEX
  5
CC53
  8
0
  6
CONTINUOUS
 62
     7
 10
668.42233673788837
 20
1143.8049173724769
 30
0.0
  0
VERTEX
  5
CC54
  8
0
  6
CONTINUOUS
 62
     7
 10
665.19207673788844
 20
1123.740407372477
 30
0.0
 42
-1.0
  0
SEQEND
  5
CC55
  8
0
 62
     7
  0
LINE
  5
CCA7
  8
AM_0
 10
1040.597701430255
 20
798.29307382777074
 30
0.0
 11
1040.597701430255
 21
795.29312382777084
 31
0.0
  0
LINE
  5
CCA8
  8
AM_0
 10
1050.597701430255
 20
798.29307382777074
 30
0.0
 11
1050.597701430255
 21
795.29312382777084
 31
0.0
  0
LINE
  5
CCA9
  8
AM_0
 10
1053.597671430256
 20
651.79308882777104
 30
0.0
 11
1053.597671430256
 21
661.79308882777104
 31
0.0
  0
LINE
  5
CCAA
  8
AM_0
 10
1037.597671430256
 20
651.79308882777104
 30
0.0
 11
1037.597671430256
 21
661.79308882777104
 31
0.0
  0
LINE
  5
CCAB
  8
AM_0
 10
1037.597671430256
 20
661.79308882777104
 30
0.0
 11
1053.597671430256
 21
661.79308882777104
 31
0.0
  0
LINE
  5
CCAC
  8
AM_0
 10
1037.597671430256
 20
651.79308882777104
 30
0.0
 11
1053.597671430256
 21
651.79308882777104
 31
0.0
  0
LINE
  5
CCAD
  8
AM_0
 10
990.59770143025526
 20
795.29312382777084
 30
0.0
 11
904.05883143025562
 21
790.75777382777085
 31
0.0
  0
LINE
  5
CCAE
  8
AM_0
 10
880.59768143025565
 20
575.2930838277706
 30
0.0
 11
885.13303143025576
 21
488.75426382777079
 31
0.0
  0
LINE
  5
CCAF
  8
AM_0
 10
1210.5976914302551
 20
575.29305382777102
 30
0.0
 11
1206.0623814302551
 21
488.75426382777079
 31
0.0
  0
LINE
  5
CCB0
  8
AM_0
 10
1210.5976914302551
 20
685.29308882777104
 30
0.0
 11
1206.0623814302551
 21
771.83192382777065
 31
0.0
  0
LINE
  5
CCB1
  8
AM_0
 10
1100.597671430256
 20
465.29306882777092
 30
0.0
 11
1187.1365064302549
 21
469.82839382777081
 31
0.0
  0
LINE
  5
CCB2
  8
AM_0
 10
1100.597671430256
 20
795.29307382777074
 30
0.0
 11
1187.1365064302549
 21
790.75777382777085
 31
0.0
  0
LINE
  5
CCB3
  8
AM_0
 10
880.59768143025565
 20
685.29308882777104
 30
0.0
 11
885.13303143025576
 21
771.83187382777101
 31
0.0
  0
LINE
  5
CCB4
  8
0
  6
AM_ISO08W050
 10
923.92123143025606
 20
508.61660382777109
 30
0.0
 11
893.48113143025512
 21
478.1765388277708
 31
0.0
  0
LINE
  5
CCB5
  8
AM_0
 10
985.32377643025575
 20
682.08169382777101
 30
0.0
 11
951.8899664302553
 21
715.51552382777106
 31
0.0
  0
LINE
  5
CCB6
  8
AM_0
 10
993.80906643025526
 20
690.56698382777085
 30
0.0
 11
960.37522643025545
 21
724.000823827771
 31
0.0
  0
LINE
  5
CCB7
  8
0
  6
AM_ISO08W050
 10
1168.176196430255
 20
752.87157382777104
 30
0.0
 11
1197.714206430255
 21
782.40957382777083
 31
0.0
  0
LINE
  5
CCB8
  8
AM_0
 10
1105.8715664302549
 20
682.08169382777101
 30
0.0
 11
1139.305406430256
 21
715.51552382777106
 31
0.0
  0
LINE
  5
CCB9
  8
AM_0
 10
1120.597671430256
 20
630.29308882777104
 30
0.0
 11
1120.597671430256
 21
620.29308382777072
 31
0.0
  0
LINE
  5
CCBA
  8
0
  6
AM_ISO08W050
 10
1167.274156430256
 20
508.61660382777109
 30
0.0
 11
1197.714206430255
 21
478.17656882777101
 31
0.0
  0
LINE
  5
CCBB
  8
AM_0
 10
970.59770143025526
 20
630.29308882777104
 30
0.0
 11
970.59770143025526
 21
620.29308382777072
 31
0.0
  0
LINE
  5
CCBC
  8
AM_0
 10
1097.3862764302551
 20
690.56698382777085
 30
0.0
 11
1130.820116430255
 21
724.000823827771
 31
0.0
  0
LINE
  5
CCBD
  8
AM_0
 10
1210.5976764302559
 20
575.2930838277706
 30
0.0
 11
1210.5976764302559
 21
685.29308882777104
 31
0.0
  0
LINE
  5
CCBE
  8
AM_0
 10
990.59767143025533
 20
465.29308382777077
 30
0.0
 11
904.05883143025562
 21
469.82839382777081
 31
0.0
  0
LINE
  5
CCBF
  8
AM_0
 10
880.59768143025565
 20
575.2930838277706
 30
0.0
 11
880.59768143025565
 21
685.29308882777104
 31
0.0
  0
LINE
  5
CCC0
  8
AM_0
 10
990.59770143025526
 20
795.29312382777084
 30
0.0
 11
1100.597641430255
 21
795.29312382777084
 31
0.0
  0
LINE
  5
CCC1
  8
AM_0
 10
990.59770143025526
 20
465.29308382777077
 30
0.0
 11
1100.597641430255
 21
465.29308382777077
 31
0.0
  0
LINE
  5
CCC2
  8
AM_0
 10
1172.2033714302561
 20
615.29308382777072
 30
0.0
 11
1125.597671430256
 21
615.29308382777072
 31
0.0
  0
LINE
  5
CCC3
  8
AM_0
 10
918.99203143025522
 20
615.29308382777072
 30
0.0
 11
965.59770143025526
 21
615.29308382777072
 31
0.0
  0
LINE
  5
CCC4
  8
0
  6
AM_ISO08W050
 10
869.61598143025549
 20
630.29308882777104
 30
0.0
 11
1223.024266430255
 21
630.29308882777104
 31
0.0
  0
LINE
  5
CCC5
  8
AM_0
 10
1114.7979314302549
 20
436.791573827771
 30
0.0
 11
1137.5728014302549
 21
452.73870382777079
 31
0.0
  0
LINE
  5
CCC6
  8
AM_0
 10
983.75065643025562
 20
434.47309382777092
 30
0.0
 11
1107.4446864302549
 21
434.47309382777092
 31
0.0
  0
LINE
  5
CCC7
  8
0
  6
AM_ISO08W050
 10
922.24753143025544
 20
753.64327382777083
 30
0.0
 11
893.48113143025512
 21
782.40962382777059
 31
0.0
  0
LINE
  5
CCC8
  8
AM_0
 10
976.39741643025525
 20
436.79155882777098
 30
0.0
 11
953.6225414302553
 21
452.73868382777079
 31
0.0
  0
ARC
  5
CCC9
  8
AM_0
 10
1045.597701430255
 20
798.29307382777074
 30
0.0
 40
5.0
 50
359.999989999999
 51
179.999989999999
  0
ARC
  5
CCCA
  8
AM_0
 10
1045.597701430255
 20
630.29308882777104
 30
0.0
 40
27.500000499999999
 50
106.912389999978
 51
73.087597000012295
  0
CIRCLE
  5
CCCB
  8
AM_0
 10
1045.597701430255
 20
630.29308882777104
 30
0.0
 40
4.500000049999997
  0
CIRCLE
  5
CCCC
  8
0
  6
AM_ISO08W050
 10
1045.597701430255
 20
630.29308882777104
 30
0.0
 40
6.0
  0
ARC
  5
CCCD
  8
AM_0
 10
1172.2033714302561
 20
620.29308382777072
 30
0.0
 40
5.0
 50
270.0
 51
355.48385000000479
  0
ARC
  5
CCCE
  8
AM_0
 10
905.10558143025548
 20
489.80098882777082
 30
0.0
 40
20.000000499999999
 50
183.00000999999349
 51
266.99999999999432
  0
ARC
  5
CCCF
  8
AM_0
 10
1045.597701430255
 20
630.29308882777104
 30
0.0
 40
75.0
 50
0.0
 51
37.096792999987748
  0
ARC
  5
CCD0
  8
AM_0
 10
1186.0897864302549
 20
489.80098882777082
 30
0.0
 40
20.000000499999999
 50
273.00000000000568
 51
356.9999999999946
  0
ARC
  5
CCD1
  8
AM_0
 10
905.10558143025548
 20
770.78517382777068
 30
0.0
 40
20.000000499999999
 50
92.999998999995213
 51
176.99999000000639
  0
ARC
  5
CCD2
  8
AM_0
 10
1186.0897864302549
 20
770.78517382777068
 30
0.0
 40
20.000000499999999
 50
3.0000000999988461
 51
86.999998999983973
  0
ARC
  5
CCD3
  8
0
  6
AM_ISO08W050
 10
1045.597701430255
 20
630.29308882777104
 30
0.0
 40
195.00000499999999
 50
218.16531999998321
 51
232.12886000002379
  0
ARC
  5
CCD4
  8
0
  6
AM_ISO08W050
 10
1045.5977014302609
 20
630.29308882776695
 30
0.0
 40
195.0000050000061
 50
125.3077887736941
 51
140.91562999999189
  0
CIRCLE
  5
CCD5
  8
0
  6
AM_ISO08W050
 10
1183.4835064302549
 20
492.40727882777082
 30
0.0
 40
9.5
  0
ARC
  5
CCD6
  8
0
  6
AM_ISO08W050
 10
1045.597701430255
 20
630.29308882777104
 30
0.0
 40
195.00000499999999
 50
39.367219000016
 51
50.896189000030951
  0
CIRCLE
  5
CCD7
  8
0
  6
AM_ISO08W050
 10
907.71188143025574
 20
492.40727882777082
 30
0.0
 40
9.5
  0
ARC
  5
CCD8
  8
0
  6
AM_ISO08W050
 10
1045.597701430248
 20
630.29308882777923
 30
0.0
 40
195.00000500001079
 50
305.82211228584708
 51
320.46633000000628
  0
CIRCLE
  5
CCD9
  8
0
  6
AM_ISO08W050
 10
907.71188143025574
 20
768.17892382777075
 30
0.0
 40
9.5
  0
CIRCLE
  5
CCDA
  8
0
  6
AM_ISO08W050
 10
1183.4835064302549
 20
768.17892382777075
 30
0.0
 40
9.5
  0
ARC
  5
CCDB
  8
AM_0
 10
1125.597671430256
 20
620.29308382777072
 30
0.0
 40
5.0
 50
179.999989999999
 51
270.0
  0
ARC
  5
CCDC
  8
AM_0
 10
965.59770143025526
 20
620.29308382777072
 30
0.0
 40
5.0
 50
270.0
 51
0.0
  0
ARC
  5
CCDD
  8
AM_0
 10
1142.840926430255
 20
711.98002382777099
 30
0.0
 40
5.0
 50
40.031148000018398
 51
135.00000000000921
  0
ARC
  5
CCDE
  8
AM_0
 10
948.35441643025547
 20
711.98002382777099
 30
0.0
 40
5.0
 50
45.000001000013
 51
139.96885000000219
  0
CIRCLE
  5
CCDF
  8
AM_0
 10
1045.597701430255
 20
630.29308882777104
 30
0.0
 40
140.0
  0
ARC
  5
CCE0
  8
AM_0
 10
1045.597701430255
 20
630.29308882777104
 30
0.0
 40
60.0
 50
270.0
 51
90.000002999984659
  0
ARC
  5
CCE1
  8
AM_0
 10
981.78825143025563
 20
678.546168827771
 30
0.0
 40
5.0
 50
322.90321000000728
 51
45.000001000013
  0
ARC
  5
CCE2
  8
AM_0
 10
1045.597701430255
 20
630.29308882777104
 30
0.0
 40
60.0
 50
90.000002999984659
 51
270.0
  0
ARC
  5
CCE3
  8
AM_0
 10
963.91078143025527
 20
727.53632382777096
 30
0.0
 40
5.0
 50
130.03114999999781
 51
224.99999999999079
  0
ARC
  5
CCE4
  8
AM_0
 10
918.99203143025522
 20
620.29308382777072
 30
0.0
 40
5.0
 50
184.5161599999995
 51
270.0
  0
CIRCLE
  5
CCE5
  8
AM_0
 10
1045.597701430255
 20
630.29308882777104
 30
0.0
 40
132.0
  0
ARC
  5
CCE6
  8
AM_0
 10
1109.4070914302549
 20
678.546168827771
 30
0.0
 40
5.0
 50
135.00000000000921
 51
217.0968000000199
  0
ARC
  5
CCE7
  8
AM_0
 10
1078.597671430256
 20
536.96389382777079
 30
0.0
 40
102.81999500000001
 50
304.9999999999792
 51
317.98482000001081
  0
ARC
  5
CCE8
  8
AM_0
 10
1107.4446864302549
 20
447.29308382777077
 30
0.0
 40
12.82
 50
270.0
 51
304.9999999999792
  0
ARC
  5
CCE9
  8
AM_0
 10
983.75065643025562
 20
447.29308382777077
 30
0.0
 40
12.82
 50
235.00000000002089
 51
270.0
  0
ARC
  5
CCEA
  8
AM_0
 10
1012.597671430255
 20
536.96389382777079
 30
0.0
 40
102.81999500000001
 50
222.01517999998919
 51
235.00000000002089
  0
ARC
  5
CCEB
  8
AM_0
 10
997.34458643025584
 20
694.10250382777065
 30
0.0
 40
5.0
 50
224.99999999999079
 51
307.09678999999272
  0
ARC
  5
CCEC
  8
AM_0
 10
1093.8507564302549
 20
694.10250382777065
 30
0.0
 40
5.0
 50
232.90321000000739
 51
315.00000000000921
  0
ARC
  5
CCED
  8
AM_0
 10
1127.2845914302559
 20
727.53632382777096
 30
0.0
 40
5.0
 50
315.00000000000921
 51
49.968851000019427
  0
ARC
  5
CCEE
  8
AM_0
 10
1045.597701430255
 20
630.29308882777104
 30
0.0
 40
75.0
 50
142.90321000000739
 51
180.000010000001
  0
ARC
  5
CCEF
  8
AM_0
 10
1045.597701430255
 20
630.29308882777104
 30
0.0
 40
75.0
 50
52.903205999970417
 51
127.09678999999259
  0
LINE
  5
CCF0
  8
0
  6
AM_ISO08W050
 10
1045.597671196379
 20
431.67909382777083
 30
0.0
 11
1045.5977025367961
 21
806.08707382777061
 31
0.0
1001
GENIUS_GENODEF_13
1002
{
1000
HIER
1070
     0
1002
}
1002
{
1000
MANEDIT
1070
     0
1002
}
1002
{
1000
NOSEL
1070
     0
1002
}
1002
{
1000
BEHIND
1070
     0
1002
}
1002
{
1000
OTHER
1070
     0
1002
}
1002
{
1000
REACTOR
1002
}
1001
GENIUS_GENOBJ-N-CEN_13
1002
{
1000
OWNER
1000
GEN
1002
}
1001
GENIUS_GENCEN_19
1002
{
1040
2.7939999999999978
1002
}
  0
TEXT
  5
CF3E
  8
0
  6
CONTINUOUS
 62
     0
 10
893.31484292179493
 20
997.976377981582
 30
0.0
 40
15.0
  1
VX22-060EMF~VX22-200EMF
  0
ENDSEC
  0
EOF
