  0
SECTION
  2
HEADER
  9
$ACADVER
  1
AC1009
  9
$INSBASE
 10
0.0
 20
0.0
 30
0.0
  9
$EXTMIN
 10
116.76759809413799
 20
430.57027949053781
 30
-0.0015258207003583
  9
$EXTMAX
 10
1384.0723613762109
 20
1290.4113242749229
 30
0.0000000349246037
  9
$LIMMIN
 10
0.0000005999945643
 20
-0.0000005963913736
  9
$LIMMAX
 10
1707.000000599995
 20
1109.9999994036091
  9
$ORTHOMODE
 70
     1
  9
$REGENMODE
 70
     1
  9
$FILLMODE
 70
     1
  9
$QTEXTMODE
 70
     0
  9
$MIRRTEXT
 70
     0
  9
$DRAGMODE
 70
     2
  9
$LTSCALE
 40
1.0
  9
$OSMODE
 70
   551
  9
$ATTMODE
 70
     1
  9
$TEXTSIZE
 40
2.5
  9
$TRACEWID
 40
1.0
  9
$TEXTSTYLE
  7
STANDARD
  9
$CLAYER
  8
0
  9
$CELTYPE
  6
BYLAYER
  9
$CECOLOR
 62
   256
  9
$DIMSCALE
 40
1.0
  9
$DIMASZ
 40
2.0
  9
$DIMEXO
 40
1.0
  9
$DIMDLI
 40
8.0
  9
$DIMRND
 40
0.0
  9
$DIMDLE
 40
0.0
  9
$DIMEXE
 40
1.0
  9
$DIMTP
 40
-0.025
  9
$DIMTM
 40
0.043
  9
$DIMTXT
 40
2.5
  9
$DIMCEN
 40
0.0
  9
$DIMTSZ
 40
0.0
  9
$DIMTOL
 70
     0
  9
$DIMLIM
 70
     0
  9
$DIMTIH
 70
     0
  9
$DIMTOH
 70
     0
  9
$DIMSE1
 70
     0
  9
$DIMSE2
 70
     0
  9
$DIMTAD
 70
     3
  9
$DIMZIN
 70
     8
  9
$DIMBLK
  1

  9
$DIMASO
 70
     1
  9
$DIMSHO
 70
     1
  9
$DIMPOST
  1

  9
$DIMAPOST
  1
"
  9
$DIMALT
 70
     0
  9
$DIMALTD
 70
     2
  9
$DIMALTF
 40
0.0393701
  9
$DIMLFAC
 40
1.0
  9
$DIMTOFL
 70
     1
  9
$DIMTVP
 40
0.0
  9
$DIMTIX
 70
     0
  9
$DIMSOXD
 70
     0
  9
$DIMSAH
 70
     0
  9
$DIMBLK1
  1

  9
$DIMBLK2
  1

  9
$DIMSTYLE
  2
AM_JIS
  9
$DIMCLRD
 70
     2
  9
$DIMCLRE
 70
     2
  9
$DIMCLRT
 70
     4
  9
$DIMTFAC
 40
0.71
  9
$DIMGAP
 40
1.5
  9
$LUNITS
 70
     2
  9
$LUPREC
 70
     2
  9
$SKETCHINC
 40
1.0
  9
$FILLETRAD
 40
0.0
  9
$AUNITS
 70
     0
  9
$AUPREC
 70
     0
  9
$MENU
  1
.
  9
$ELEVATION
 40
0.0
  9
$PELEVATION
 40
0.0
  9
$THICKNESS
 40
0.0
  9
$LIMCHECK
 70
     0
  9
$BLIPMODE
 70
     0
  9
$CHAMFERA
 40
3.0
  9
$CHAMFERB
 40
3.0
  9
$SKPOLY
 70
     0
  9
$TDCREATE
 40
2456829.3841110538
  9
$TDUPDATE
 40
2458540.6656545368
  9
$TDINDWG
 40
0.7025501852
  9
$TDUSRTIMER
 40
0.7025495949
  9
$USRTIMER
 70
     1
  9
$ANGBASE
 50
0.0
  9
$ANGDIR
 70
     0
  9
$PDMODE
 70
     0
  9
$PDSIZE
 40
0.0
  9
$PLINEWID
 40
0.0
  9
$COORDS
 70
     1
  9
$SPLFRAME
 70
     0
  9
$SPLINETYPE
 70
     6
  9
$SPLINESEGS
 70
     8
  9
$ATTDIA
 70
     1
  9
$ATTREQ
 70
     1
  9
$HANDLING
 70
     1
  9
$HANDSEED
  5
C50F
  9
$SURFTAB1
 70
     6
  9
$SURFTAB2
 70
     6
  9
$SURFTYPE
 70
     6
  9
$SURFU
 70
     6
  9
$SURFV
 70
     6
  9
$UCSNAME
  2

  9
$UCSORG
 10
0.0
 20
0.0
 30
0.0
  9
$UCSXDIR
 10
1.0
 20
0.0
 30
0.0
  9
$UCSYDIR
 10
0.0
 20
1.0
 30
0.0
  9
$PUCSNAME
  2

  9
$PUCSORG
 10
0.0
 20
0.0
 30
0.0
  9
$PUCSXDIR
 10
1.0
 20
0.0
 30
0.0
  9
$PUCSYDIR
 10
0.0
 20
1.0
 30
0.0
  9
$USERI1
 70
     0
  9
$USERI2
 70
     0
  9
$USERI3
 70
     0
  9
$USERI4
 70
     0
  9
$USERI5
 70
     0
  9
$USERR1
 40
0.0
  9
$USERR2
 40
0.0
  9
$USERR3
 40
0.0
  9
$USERR4
 40
0.0
  9
$USERR5
 40
0.0
  9
$WORLDVIEW
 70
     1
  9
$SHADEDGE
 70
     3
  9
$SHADEDIF
 70
    70
  9
$TILEMODE
 70
     1
  9
$MAXACTVP
 70
    64
  9
$PLIMCHECK
 70
     0
  9
$PEXTMIN
 10
1.0000000000000000E+020
 20
1.0000000000000000E+020
 30
1.0000000000000000E+020
  9
$PEXTMAX
 10
-1.0000000000000000E+020
 20
-1.0000000000000000E+020
 30
-1.0000000000000000E+020
  9
$PLIMMIN
 10
0.0
 20
0.0
  9
$PLIMMAX
 10
420.0
 20
297.0
  9
$UNITMODE
 70
     0
  9
$VISRETAIN
 70
     1
  9
$PLINEGEN
 70
     0
  9
$PSLTSCALE
 70
     1
  0
ENDSEC
  0
SECTION
  2
TABLES
  0
TABLE
  2
VPORT
 70
     1
  0
VPORT
  2
*ACTIVE
 70
     0
 10
0.0
 20
0.0
 11
1.0
 21
1.0
 12
750.41997973517471
 22
860.49080188273035
 13
0.0
 23
0.0
 14
15.0
 24
15.0
 15
60.0
 25
60.0
 16
0.0
 26
0.0
 36
1.0
 17
0.0
 27
0.0
 37
0.0
 40
865.74384371883195
 41
1.7571592210767459
 42
50.0
 43
0.0
 44
0.0
 50
0.0
 51
0.0
 71
     0
 72
  1000
 73
     1
 74
     3
 75
     0
 76
     0
 77
     0
 78
     0
  0
ENDTAB
  0
TABLE
  2
LTYPE
 70
    24
  0
LTYPE
  2
CONTINUOUS
 70
     0
  3
Solid line
 72
    65
 73
     0
 40
0.0
  0
LTYPE
  2
CENTER
 70
     0
  3
Center ____ _ ____ _ ____ _ ____ _ ____ _ ____
 72
    65
 73
     4
 40
50.799999999999997
 49
31.75
 49
-6.3499999999999979
 49
6.3499999999999979
 49
-6.3499999999999979
  0
LTYPE
  2
AM_ISO02W050
 70
     0
  3
__ __ __ __ __ __ __ __ __ __ __ __ __ __ __
 72
    65
 73
     2
 40
7.5
 49
6.0
 49
-1.5
  0
LTYPE
  2
AM_ISO08W050
 70
     0
  3
____ . ____ . ____ . ____ . ____ . ____ . ____
 72
    65
 73
     4
 40
18.0
 49
12.0
 49
-1.5
 49
3.0
 49
-1.5
  0
LTYPE
  2
AM_ISO09W050
 70
     0
  3
_____ . . _____ . . _____ . . ____ .. ____
 72
    65
 73
     6
 40
22.5
 49
12.0
 49
-1.5
 49
3.0
 49
-1.5
 49
3.0
 49
-1.5
  0
LTYPE
  2
AMCONSTR
 70
     0
  3
_______________________
 72
    65
 73
     2
 40
9999.0
 49
9999.0
 49
0.0
  0
LTYPE
  2
AM_ISO08W050X2
 70
     0
  3
__ . __ . __ . __ . __ . __
 72
    65
 73
     4
 40
9.0
 49
6.0
 49
-0.75
 49
1.5
 49
-0.75
  0
LTYPE
  2
AM_ISO02W050X2
 70
     0
  3
 _ _ _ _ _ _ _ _ _ _ _ _
 72
    65
 73
     2
 40
3.75
 49
3.0
 49
-0.75
  0
LTYPE
  2
AMZIGZAG
 70
     0
  3
/\/-/\/-/\/-/\/-/\/-/\/
 72
    65
 73
     2
 40
11.0001
 49
0.0001
 49
-11.0
  0
LTYPE
  2
ACANSTGBM
 70
     0
  3
__ . . __ . .
 72
    65
 73
     6
 40
9.0
 49
4.0
 49
-1.0
 49
1.0
 49
-1.0
 49
1.0
 49
-1.0
  0
LTYPE
  2
ACANSTGLM
 70
     0
  3
_ _ _ _ _
 72
    65
 73
     2
 40
3.0
 49
2.0
 49
-1.0
  0
LTYPE
  2
ACISOWELD
 70
     0
  3
_ _ _ _ _
 72
    65
 73
     2
 40
2.0
 49
2.0
 49
-1.0
  0
LTYPE
  2
ACISOTGB
 70
     0
  3
__ . . __ . .
 72
    65
 73
     6
 40
9.0
 49
4.0
 49
-1.0
 49
1.0
 49
-1.0
 49
1.0
 49
-1.0
  0
LTYPE
  2
ACISOTGL
 70
     0
  3
_ _ _ _ _
 72
    65
 73
     2
 40
3.0
 49
2.0
 49
-1.0
  0
LTYPE
  2
ACJISTGB
 70
     0
  3
__ . . __ . .
 72
    65
 73
     6
 40
9.0
 49
4.0
 49
-1.0
 49
1.0
 49
-1.0
 49
1.0
 49
-1.0
  0
LTYPE
  2
ACJISTGL
 70
     0
  3
_ _ _ _ _
 72
    65
 73
     2
 40
3.0
 49
2.0
 49
-1.0
  0
LTYPE
  2
HIDDEN
 70
     0
  3
Hidden __ __ __ __ __ __ __ __ __ __ __ __ __ _
 72
    65
 73
     2
 40
9.5249999999999968
 49
6.3499999999999979
 49
-3.174999999999998
  0
LTYPE
  2
PHANTOM2
 70
     0
  3
Phantom (.5x) ___ _ _ ___ _ _ ___ _ _ ___ _ _
 72
    65
 73
     6
 40
31.75
 49
15.875
 49
-3.174999999999998
 49
3.174999999999998
 49
-3.174999999999998
 49
3.174999999999998
 49
-3.174999999999998
  0
LTYPE
  2
CENTER2
 70
     0
  3
Center (.5x) ___ _ ___ _ ___ _ ___ _ ___ _ ___
 72
    65
 73
     4
 40
1.125
 49
0.75
 49
-0.125
 49
0.125
 49
-0.125
  0
LTYPE
  2
HIDDEN2
 70
     0
  3
Hidden (.5x) _ _ _ _ _ _ _ _ _ _ _ _ _ _ _ _ _
 72
    65
 73
     2
 40
0.1875
 49
0.125
 49
-0.0625
  0
LTYPE
  2
AMZIGZAG2
 70
     0
  3
/\/-/\/-/\/-/\/-/\/-/\/
 72
    65
 73
     2
 40
0.4401
 49
0.0001
 49
-0.4400000000000003
  0
LTYPE
  2
ACANSTGB
 70
     0
  3
__ . . __ . .
 72
    65
 73
     6
 40
0.35433070866
 49
0.15748031496
 49
-0.03937007874
 49
0.03937007874
 49
-0.03937007874
 49
0.03937007874
 49
-0.03937007874
  0
LTYPE
  2
ACANSTGL
 70
     0
  3
_ _ _ _ _
 72
    65
 73
     2
 40
0.11811023622
 49
0.07874015748
 49
-0.03937007874
  0
ENDTAB
  0
TABLE
  2
LAYER
 70
     5
  0
LAYER
  2
0
 70
     0
 62
     7
  6
CONTINUOUS
  0
LAYER
  2
DEFPOINTS
 70
     0
 62
     7
  6
CONTINUOUS
  0
LAYER
  2
AM_0
 70
     0
 62
     7
  6
CONTINUOUS
  0
LAYER
  2
AM_5
 70
     0
 62
     2
  6
CONTINUOUS
  0
LAYER
  2
AM_CL
 70
     0
 62
     1
  6
AMCONSTR
  0
ENDTAB
  0
TABLE
  2
STYLE
 70
     8
  0
STYLE
  2
STANDARD
 70
     0
 40
0.0
 41
0.7400000000000003
 50
0.0
 71
     0
 42
2.5
  3
txt.shx
  4
bigfont.shx
  0
STYLE
  2

 70
     1
 40
0.0
 41
1.0
 50
0.0
 71
     0
 42
2.5
  3
ltypeshp.shx
  4

  0
STYLE
  2
ACANSTS
 70
     0
 40
1.0
 41
1.0
 50
0.0
 71
     0
 42
2.5
  3
romans.shx
  4
bigfont.shx
  0
STYLE
  2
ACANSGDT
 70
     0
 40
0.0
 41
1.0
 50
0.0
 71
     0
 42
2.5
  3
amgdtans.shx
  4

  0
STYLE
  2
ACISOTS
 70
     0
 40
1.0
 41
1.0
 50
0.0
 71
     0
 42
2.5
  3
isocp.shx
  4
extfont.shx
  0
STYLE
  2
ACISOGDT
 70
     0
 40
0.0
 41
1.0
 50
0.0
 71
     0
 42
2.5
  3
amgdt.shx
  4

  0
STYLE
  2
ACJISGDT
 70
     0
 40
0.0
 41
1.0
 50
0.0
 71
     0
 42
2.5
  3
amgdt.shx
  4

  0
STYLE
  2
ACJISTS
 70
     0
 40
1.0
 41
1.0
 50
0.0
 71
     0
 42
2.5
  3
isocp.shx
  4
extfont.shx
  0
ENDTAB
  0
TABLE
  2
VIEW
 70
     6
  0
VIEW
  2
AM_VIEW1
 70
     0
 40
555.00000000000011
 10
586.60142408753904
 20
832.49999940360885
 41
1173.202846975089
 11
0.0
 21
0.0
 31
1.0
 12
0.0
 22
0.0
 32
0.0
 42
50.0
 43
0.0
 44
0.0
 50
0.0
 71
     0
  0
VIEW
  2
AM_VIEW2
 70
     0
 40
555.00000000000011
 10
1120.3985771124501
 20
832.49999940360885
 41
1173.202846975089
 11
0.0
 21
0.0
 31
1.0
 12
0.0
 22
0.0
 32
0.0
 42
50.0
 43
0.0
 44
0.0
 50
0.0
 71
     0
  0
VIEW
  2
AM_VIEW3
 70
     0
 40
555.00000000000011
 10
586.60142408753904
 20
277.49999940360868
 41
1173.202846975089
 11
0.0
 21
0.0
 31
1.0
 12
0.0
 22
0.0
 32
0.0
 42
50.0
 43
0.0
 44
0.0
 50
0.0
 71
     0
  0
VIEW
  2
AM_VIEW4
 70
     0
 40
555.00000000000011
 10
1120.3985771124501
 20
277.49999940360868
 41
1173.202846975089
 11
0.0
 21
0.0
 31
1.0
 12
0.0
 22
0.0
 32
0.0
 42
50.0
 43
0.0
 44
0.0
 50
0.0
 71
     0
  0
VIEW
  2
AM_VIEW5
 70
     0
 40
555.00000000000011
 10
853.50000059999445
 20
554.99999940360874
 41
1173.202846975089
 11
0.0
 21
0.0
 31
1.0
 12
0.0
 22
0.0
 32
0.0
 42
50.0
 43
0.0
 44
0.0
 50
0.0
 71
     0
  0
VIEW
  2
AM_VIEW6
 70
     0
 40
1109.9889000000001
 10
853.50000059999445
 20
554.99999940360874
 41
2346.3822298932391
 11
0.0
 21
0.0
 31
1.0
 12
0.0
 22
0.0
 32
0.0
 42
50.0
 43
0.0
 44
0.0
 50
0.0
 71
     0
  0
ENDTAB
  0
TABLE
  2
UCS
 70
     0
  0
ENDTAB
  0
TABLE
  2
APPID
 70
   158
  0
APPID
  2
ACAD
 70
     0
  0
APPID
  2
ACADANNOTATIVE
 70
     0
  0
APPID
  2
ACAD_MLEADERVER
 70
     0
  0
APPID
  2
MCAD_NO_VIS
 70
     0
  0
APPID
  2
ACAD_TEMP_GRAPHIC
 70
     0
  0
APPID
  2
AD_DRAW
 70
     0
  0
APPID
  2
ACATTRIBSERVICES
 70
     0
  0
APPID
  2
DESIGNERASSEMBLIES
 70
     0
  0
APPID
  2
ACADM_DIM_EDIT
 70
     0
  0
APPID
  2
AMDT_DM_ADJ
 70
     0
  0
APPID
  2
GENIUS_GENDIMSH_14
 70
     0
  0
APPID
  2
GEVID1057795304
 70
     0
  0
APPID
  2
GEVDC
 70
     0
  0
APPID
  2
GEVCON
 70
     0
  0
APPID
  2
GENIUS_GENBH_13
 70
     0
  0
APPID
  2
GENIUS_GENOENT_13
 70
     0
  0
APPID
  2
GENIUS_GENOBJ-NBEHI-BHF_13
 70
     0
  0
APPID
  2
GENIUS_GENOLIS_13
 70
     0
  0
APPID
  2
GENIUS_GENODEF_13
 70
     0
  0
APPID
  2
GENIUS_GENOREF_13
 70
     0
  0
APPID
  2
GENIUS_GENOBJ-NBEHI-BHB_13
 70
     0
  0
APPID
  2
GENIUS_GENOBJ-F-SCPASSM_13
 70
     0
  0
APPID
  2
GENIUS_GENDTOL_13
 70
     0
  0
APPID
  2
GENIUS_GENTRA_14
 70
     0
  0
APPID
  2
ASURF_PCURVE_APPNAME
 70
     0
  0
APPID
  2
GENIUS_GENCFG_13
 70
     0
  0
APPID
  2
GENIUS_GE3CFG0_13
 70
     0
  0
APPID
  2
GENIUS_GENCFG0_13
 70
     0
  0
APPID
  2
GENIUS_GENCFG1_13
 70
     0
  0
APPID
  2
GENIUS_GENCFG2_13
 70
     0
  0
APPID
  2
GENIUS_GENCFG3_13
 70
     0
  0
APPID
  2
GENIUS_GENCFG4_13
 70
     0
  0
APPID
  2
GENIUS_GEVCFG0_13
 70
     0
  0
APPID
  2
GENIUS_GENOBJ-N-TIT_13
 70
     0
  0
APPID
  2
GENIUS_GENTITLE_13
 70
     0
  0
APPID
  2
GENIUS_GENSCREG_15
 70
     0
  0
APPID
  2
GENIUS_GENOBJ-N-SDF_13
 70
     0
  0
APPID
  2
GENIUS_GENFIL_13
 70
     0
  0
APPID
  2
GENIUS_GENOBJ-N-CHA_13
 70
     0
  0
APPID
  2
GENIUS_GEFSH_13
 70
     0
  0
APPID
  2
GENIUS_GENOBJ-F-SHS_13
 70
     0
  0
APPID
  2
GENIUS_GENOBJ-N-CEN_13
 70
     0
  0
APPID
  2
GENIUS_GENREC_14
 70
     0
  0
APPID
  2
GENIUS_GENOBJ-N-REC_13
 70
     0
  0
APPID
  2
GENIUS_GENOBJ-N-HTC_13
 70
     0
  0
APPID
  2
GENIUS_GENHATCH_13
 70
     0
  0
APPID
  2
ACAD_PSEXT
 70
     0
  0
APPID
  2
ACAD_EXEMPT_FROM_CAD_STANDARDS
 70
     0
  0
APPID
  2
ACAECLAYERSTANDARD
 70
     0
  0
APPID
  2
GENIUS_GENCEN_19
 70
     0
  0
APPID
  2
ACAD_DSTYLE_DIMINSPECT
 70
     0
  0
APPID
  2
ACAD_DSTYLE_DIMANGULAR_EXT
 70
     0
  0
APPID
  2
ACADANNOPO
 70
     0
  0
APPID
  2
ACAD_NAV_VCDISPLAY
 70
     0
  0
APPID
  2
GENIUS_GENOBJ-N-FIL_13
 70
     0
  0
APPID
  2
ACAD_DSTYLE_DIMBREAK
 70
     0
  0
APPID
  2
ACAD_DSTYLE_DIMJAG
 70
     0
  0
APPID
  2
ACAD_DSTYLE_DIMRADIAL_EXTENSION
 70
     0
  0
APPID
  2
GENIUS_GENHINW_13
 70
     0
  0
APPID
  2
GENIUS_FIRSTVISTXT_14
 70
     0
  0
APPID
  2
GENIUS_GENOBJ-N-LEADER_13
 70
     0
  0
APPID
  2
DCO15
 70
     0
  0
APPID
  2
GENIUS_DUMCFG0_13
 70
     0
  0
APPID
  2
ACAD_DSTYLE_DIMTEXT_FILL
 70
     0
  0
APPID
  2
AMG_2DHIDE
 70
     0
  0
APPID
  2
GENIUS_GEFSHEP_13
 70
     0
  0
APPID
  2
GENIUS_GENOBJ-F-SHE_13
 70
     0
  0
APPID
  2
GENIUS_GEFSHE_13
 70
     0
  0
APPID
  2
ACAD_DIMASSOC_DIMLFAC
 70
     0
  0
APPID
  2
ACAD_DIMASSOC_CALC_DIMLFAC
 70
     0
  0
APPID
  2
ACAD_DIMASSOC_OVERRIDDEN_D
 70
     0
  0
APPID
  2
GENIUS_GENOBJ-F-SHSV_13
 70
     0
  0
APPID
  2
GENIUS_GEFWELD_13
 70
     0
  0
APPID
  2
GENIUS_GENOBJ-N-CRS_13
 70
     0
  0
APPID
  2
GENIUS_GENOBJ-N-RSBK_13
 70
     0
  0
APPID
  2
GENIUS_GENOBJ-N-LIB_13
 70
     0
  0
APPID
  2
GENIUS_GENSCALE_13
 70
     0
  0
APPID
  2
GENIUS_GENDREL_13
 70
     0
  0
APPID
  2
GEVPT
 70
     0
  0
APPID
  2
GEVIT
 70
     0
  0
APPID
  2
VCC
 70
     0
  0
APPID
  2
GENBH
 70
     0
  0
APPID
  2
GEVMK
 70
     0
  0
APPID
  2
GENIUS_GENOBJ-F-DESC_13
 70
     0
  0
APPID
  2
GENIUS_GEFDESC_14
 70
     0
  0
APPID
  2
GENIUS_GENOBJ-F-FEAT_13
 70
     0
  0
APPID
  2
GENIUS_GEFFEAT_14
 70
     0
  0
APPID
  2
GENIUS_GEFPARTINS_13
 70
     0
  0
APPID
  2
GENIUS_GENSCREG_13
 70
     0
  0
APPID
  2
GENIUS_GEFSHP_13
 70
     0
  0
APPID
  2
GEVID1025574798
 70
     0
  0
APPID
  2
GEVID1025574769
 70
     0
  0
APPID
  2
GEVID1025757451
 70
     0
  0
APPID
  2
GEVID1240528327
 70
     0
  0
APPID
  2
AMG_2DSTRUCT_BTR
 70
     0
  0
APPID
  2
ACADM_2DVIEW_IGN_NOTIFY
 70
     0
  0
APPID
  2
GEVID1240528328
 70
     0
  0
APPID
  2
GEVID1240528329
 70
     0
  0
APPID
  2
GEVRADREF
 70
     0
  0
APPID
  2
GEVID1240528330
 70
     0
  0
APPID
  2
GEVID1240528331
 70
     0
  0
APPID
  2
GEVID1240528332
 70
     0
  0
APPID
  2
GEVID1240791080
 70
     0
  0
APPID
  2
GEVID1240791081
 70
     0
  0
APPID
  2
GEVID1240791082
 70
     0
  0
APPID
  2
GEVID1240791083
 70
     0
  0
APPID
  2
GEVID1240791084
 70
     0
  0
APPID
  2
GEVID1240791085
 70
     0
  0
APPID
  2
GEVID1240791086
 70
     0
  0
APPID
  2
GEVID1240791087
 70
     0
  0
APPID
  2
GEVID1240791088
 70
     0
  0
APPID
  2
GEVID1240791089
 70
     0
  0
APPID
  2
GEVID1240791090
 70
     0
  0
APPID
  2
GEVID1240791091
 70
     0
  0
APPID
  2
GEVID1240791092
 70
     0
  0
APPID
  2
GEVID1240791093
 70
     0
  0
APPID
  2
GEVID1240791094
 70
     0
  0
APPID
  2
GEVID1240791095
 70
     0
  0
APPID
  2
GEVID1240791096
 70
     0
  0
APPID
  2
GEVID1240791097
 70
     0
  0
APPID
  2
GEVID1240791098
 70
     0
  0
APPID
  2
GEVID1240791099
 70
     0
  0
APPID
  2
GEVID1240791100
 70
     0
  0
APPID
  2
GEVID1240791101
 70
     0
  0
APPID
  2
GEVID1240791102
 70
     0
  0
APPID
  2
GEVID1240791103
 70
     0
  0
APPID
  2
GEVID1240791104
 70
     0
  0
APPID
  2
GEVID1240791105
 70
     0
  0
APPID
  2
GEVID1240875381
 70
     0
  0
APPID
  2
GEVID1240875382
 70
     0
  0
APPID
  2
GEVID1240875383
 70
     0
  0
APPID
  2
GEVID1240875384
 70
     0
  0
APPID
  2
GEVID1240875385
 70
     0
  0
APPID
  2
GEVID1240875386
 70
     0
  0
APPID
  2
GEVID1240875387
 70
     0
  0
APPID
  2
GEVID1240875388
 70
     0
  0
APPID
  2
GEVID1240875389
 70
     0
  0
APPID
  2
GEVID1240875390
 70
     0
  0
APPID
  2
GEVID1240875391
 70
     0
  0
APPID
  2
GEVID1240875392
 70
     0
  0
APPID
  2
GEVID1240875393
 70
     0
  0
APPID
  2
GEVID1240875394
 70
     0
  0
APPID
  2
GEVID1240875395
 70
     0
  0
APPID
  2
GEVID1240875396
 70
     0
  0
APPID
  2
GEVID1240875397
 70
     0
  0
APPID
  2
GEVID1240875398
 70
     0
  0
APPID
  2
GEVID1240875399
 70
     0
  0
APPID
  2
GEVID1240908996
 70
     0
  0
APPID
  2
GEVID1240908997
 70
     0
  0
APPID
  2
GEVID1240908998
 70
     0
  0
APPID
  2
GEVID1240908999
 70
     0
  0
APPID
  2
GEVID1240909000
 70
     0
  0
APPID
  2
GENIUS_GENOBJ-N-ZOO_13
 70
     0
  0
APPID
  2
GENIUS_GENZOO_17
 70
     0
  0
APPID
  2
GENIUS_GE3SECT_13
 70
     0
  0
APPID
  2
GEV_VCCNULL_SWITCH_OFF
 70
     0
  0
APPID
  2
ACAD_DSTYLE_DIMTALN
 70
     0
  0
APPID
  2
CONTENTBLOCKDESCRIPTION
 70
     0
  0
ENDTAB
  0
TABLE
  2
DIMSTYLE
 70
    22
  0
DIMSTYLE
  2
AM_ANSI
 70
     0
  3

  4
"
  5

  6

  7

 40
1.0
 41
2.5
 42
1.0
 43
10.0
 44
1.0
 45
0.0
 46
0.0
 47
0.1
 48
0.1
140
3.5
141
0.0
142
0.0
143
0.0393701
144
1.0
145
0.0
146
0.71
147
1.5
 71
     0
 72
     0
 73
     1
 74
     1
 75
     0
 76
     0
 77
     0
 78
     8
170
     0
171
     2
172
     0
173
     0
174
     0
175
     0
176
     2
177
     2
178
     4
  0
DIMSTYLE
  2
AM_ANSI$3
 70
     0
  3

  4
"
  5

  6

  7

 40
1.0
 41
2.5
 42
1.0
 43
10.0
 44
1.0
 45
0.0
 46
0.0
 47
0.1
 48
0.1
140
3.5
141
0.0
142
0.0
143
0.0393701
144
1.0
145
0.0
146
0.71
147
1.5
 71
     0
 72
     0
 73
     1
 74
     1
 75
     0
 76
     0
 77
     0
 78
     8
170
     0
171
     2
172
     0
173
     0
174
     0
175
     0
176
     2
177
     2
178
     4
  0
DIMSTYLE
  2
AM_ANSI$4
 70
     0
  3

  4
"
  5

  6

  7

 40
1.0
 41
2.5
 42
1.0
 43
10.0
 44
1.0
 45
0.0
 46
0.0
 47
0.1
 48
0.1
140
3.5
141
0.0
142
0.0
143
0.0393701
144
1.0
145
0.0
146
0.71
147
1.5
 71
     0
 72
     0
 73
     1
 74
     1
 75
     0
 76
     0
 77
     0
 78
     8
170
     0
171
     2
172
     0
173
     0
174
     0
175
     0
176
     2
177
     2
178
     4
  0
DIMSTYLE
  2
AM_ANSI$7
 70
     0
  3

  4
"
  5

  6

  7

 40
1.0
 41
2.5
 42
1.0
 43
10.0
 44
1.0
 45
0.0
 46
0.0
 47
0.1
 48
0.1
140
5.0
141
0.0
142
0.0
143
0.0393701
144
1.0
145
0.0
146
0.71
147
1.5
 71
     0
 72
     0
 73
     1
 74
     1
 75
     0
 76
     0
 77
     0
 78
     8
170
     0
171
     2
172
     0
173
     0
174
     0
175
     0
176
     2
177
     2
178
     4
  0
DIMSTYLE
  2
AM_ANSI$SF
 70
     0
  3

  4
"
  5

  6

  7

 40
1.0
 41
2.5
 42
1.0
 43
10.0
 44
1.0
 45
0.0
 46
0.0
 47
0.1
 48
0.1
140
3.5
141
0.0
142
0.0
143
0.0393701
144
1.0
145
0.0
146
0.71
147
1.5
 71
     0
 72
     0
 73
     1
 74
     1
 75
     1
 76
     1
 77
     0
 78
     8
170
     0
171
     2
172
     0
173
     0
174
     0
175
     0
176
     2
177
     2
178
     4
  0
DIMSTYLE
  2
AM_ANSI$SH
 70
     0
  3

  4
"
  5

  6
GENAXEH
  7

 40
1.0
 41
2.5
 42
1.0
 43
10.0
 44
1.0
 45
0.0
 46
0.0
 47
0.1
 48
0.1
140
3.5
141
0.0
142
0.0
143
0.0393701
144
1.0
145
0.0
146
0.71
147
1.5
 71
     0
 72
     0
 73
     1
 74
     1
 75
     1
 76
     1
 77
     0
 78
     8
170
     0
171
     2
172
     0
173
     1
174
     0
175
     0
176
     2
177
     2
178
     4
  0
DIMSTYLE
  2
AM_ISO
 70
     0
  3

  4
"
  5

  6

  7

 40
1.0
 41
2.5
 42
1.0
 43
10.0
 44
1.0
 45
0.0
 46
0.0
 47
0.1
 48
0.1
140
3.5
141
0.0
142
0.0
143
0.0393701
144
1.0
145
0.0
146
0.71
147
1.5
 71
     0
 72
     0
 73
     0
 74
     0
 75
     0
 76
     0
 77
     1
 78
     8
170
     0
171
     2
172
     1
173
     0
174
     0
175
     0
176
   256
177
   256
178
     2
  0
DIMSTYLE
  2
AM_ISO$3
 70
     0
  3

  4
"
  5

  6

  7

 40
1.0
 41
2.5
 42
1.0
 43
10.0
 44
1.0
 45
0.0
 46
0.0
 47
0.1
 48
0.1
140
3.5
141
0.0
142
0.0
143
0.0393701
144
1.0
145
0.0
146
0.71
147
1.5
 71
     0
 72
     0
 73
     0
 74
     1
 75
     0
 76
     0
 77
     1
 78
     8
170
     0
171
     2
172
     0
173
     0
174
     0
175
     0
176
   256
177
   256
178
     2
  0
DIMSTYLE
  2
AM_ISO$4
 70
     0
  3

  4
"
  5

  6

  7

 40
1.0
 41
2.5
 42
1.0
 43
10.0
 44
1.0
 45
0.0
 46
0.0
 47
0.1
 48
0.1
140
3.5
141
0.0
142
0.0
143
0.0393701
144
1.0
145
0.0
146
0.71
147
1.5
 71
     0
 72
     0
 73
     0
 74
     1
 75
     0
 76
     0
 77
     1
 78
     8
170
     0
171
     2
172
     0
173
     0
174
     0
175
     0
176
   256
177
   256
178
     2
  0
DIMSTYLE
  2
AM_ISO$6
 70
     0
  3

  4
"
  5

  6

  7

 40
1.0
 41
2.5
 42
1.0
 43
10.0
 44
1.0
 45
0.0
 46
0.0
 47
0.1
 48
0.1
140
3.5
141
0.0
142
0.0
143
0.0393701
144
1.0
145
0.0
146
0.71
147
1.5
 71
     0
 72
     0
 73
     0
 74
     0
 75
     0
 76
     0
 77
     0
 78
     8
170
     0
171
     2
172
     1
173
     0
174
     0
175
     0
176
   256
177
   256
178
     2
  0
DIMSTYLE
  2
AM_ISO$7
 70
     0
  3

  4
"
  5

  6

  7

 40
1.0
 41
2.5
 42
1.0
 43
10.0
 44
1.0
 45
0.0
 46
0.0
 47
0.1
 48
0.1
140
5.0
141
0.0
142
0.0
143
0.0393701
144
1.0
145
0.0
146
0.71
147
1.5
 71
     0
 72
     0
 73
     0
 74
     0
 75
     0
 76
     0
 77
     1
 78
     8
170
     0
171
     2
172
     1
173
     0
174
     0
175
     0
176
   256
177
   256
178
     2
  0
DIMSTYLE
  2
AM_ISO$SF
 70
     0
  3

  4
"
  5

  6

  7

 40
1.0
 41
2.5
 42
1.0
 43
10.0
 44
1.0
 45
0.0
 46
0.0
 47
0.1
 48
0.1
140
3.5
141
0.0
142
0.0
143
0.0393701
144
1.0
145
0.0
146
0.71
147
1.5
 71
     0
 72
     0
 73
     0
 74
     0
 75
     1
 76
     1
 77
     1
 78
     8
170
     0
171
     2
172
     1
173
     0
174
     0
175
     0
176
   256
177
   256
178
     2
  0
DIMSTYLE
  2
AM_ISO$SH
 70
     0
  3

  4
"
  5

  6
GENAXEH
  7

 40
1.0
 41
2.5
 42
1.0
 43
10.0
 44
1.0
 45
0.0
 46
0.0
 47
0.1
 48
0.1
140
3.5
141
0.0
142
0.0
143
0.0393701
144
2.0
145
0.0
146
0.71
147
1.5
 71
     0
 72
     0
 73
     0
 74
     0
 75
     1
 76
     1
 77
     1
 78
     8
170
     0
171
     2
172
     1
173
     1
174
     0
175
     0
176
   256
177
   256
178
     2
  0
DIMSTYLE
  2
AM_JIS
 70
     0
  3

  4
"
  5

  6

  7

 40
1.0
 41
2.0
 42
1.0
 43
8.0
 44
1.0
 45
0.0
 46
0.0
 47
0.1
 48
0.1
140
2.5
141
0.0
142
0.0
143
0.0393701
144
1.0
145
0.0
146
0.71
147
1.5
 71
     0
 72
     0
 73
     0
 74
     0
 75
     0
 76
     0
 77
     3
 78
     8
170
     0
171
     2
172
     1
173
     0
174
     0
175
     0
176
     2
177
     2
178
     4
  0
DIMSTYLE
  2
AM_JIS$3
 70
     0
  3

  4
"
  5

  6

  7

 40
1.0
 41
2.0
 42
1.0
 43
10.0
 44
1.0
 45
0.0
 46
0.0
 47
0.1
 48
0.1
140
2.5
141
0.0
142
0.0
143
0.0393701
144
1.0
145
0.0
146
0.71
147
1.5
 71
     0
 72
     0
 73
     0
 74
     1
 75
     0
 76
     0
 77
     3
 78
     8
170
     0
171
     2
172
     0
173
     0
174
     0
175
     0
176
     2
177
     2
178
     4
  0
DIMSTYLE
  2
AM_JIS$4
 70
     0
  3

  4
"
  5

  6

  7

 40
1.0
 41
2.0
 42
1.0
 43
10.0
 44
1.0
 45
0.0
 46
0.0
 47
0.1
 48
0.1
140
2.5
141
0.0
142
0.0
143
0.0393701
144
1.0
145
0.0
146
0.71
147
1.5
 71
     0
 72
     0
 73
     0
 74
     0
 75
     0
 76
     0
 77
     3
 78
     8
170
     0
171
     2
172
     0
173
     0
174
     0
175
     0
176
     2
177
     2
178
     4
  0
DIMSTYLE
  2
AM_JIS$6
 70
     0
  3

  4
"
  5

  6

  7

 40
1.0
 41
2.0
 42
1.0
 43
10.0
 44
1.0
 45
0.0
 46
0.0
 47
0.1
 48
0.1
140
2.5
141
0.0
142
0.0
143
0.0393701
144
1.0
145
0.0
146
0.71
147
1.5
 71
     0
 72
     0
 73
     0
 74
     0
 75
     0
 76
     0
 77
     0
 78
     8
170
     0
171
     2
172
     1
173
     0
174
     0
175
     0
176
     2
177
     2
178
     4
  0
DIMSTYLE
  2
AM_JIS$7
 70
     0
  3

  4
"
  5

  6
OPEN30
  7
OPEN30
 40
1.0
 41
2.0
 42
1.0
 43
10.0
 44
1.0
 45
0.0
 46
0.0
 47
0.1
 48
0.1
140
2.5
141
0.0
142
0.0
143
0.0393701
144
1.0
145
0.0
146
0.71
147
1.5
 71
     0
 72
     0
 73
     0
 74
     0
 75
     0
 76
     0
 77
     3
 78
     8
170
     0
171
     2
172
     1
173
     0
174
     0
175
     0
176
     2
177
     2
178
     4
  0
DIMSTYLE
  2
AM_JIS$SF
 70
     0
  3

  4
"
  5

  6

  7

 40
1.0
 41
2.0
 42
1.0
 43
10.0
 44
1.0
 45
0.0
 46
0.0
 47
0.1
 48
0.1
140
2.5
141
0.0
142
0.0
143
0.0393701
144
1.0
145
0.0
146
0.71
147
1.5
 71
     0
 72
     0
 73
     0
 74
     0
 75
     1
 76
     1
 77
     3
 78
     8
170
     0
171
     2
172
     1
173
     0
174
     0
175
     0
176
     2
177
     2
178
     4
  0
DIMSTYLE
  2
AM_JIS$SH
 70
     0
  3

  4
"
  5

  6
GENAXEH
  7

 40
1.0
 41
2.0
 42
1.0
 43
10.0
 44
1.0
 45
0.0
 46
0.0
 47
0.1
 48
0.1
140
2.5
141
0.0
142
0.0
143
0.0393701
144
2.0
145
0.0
146
0.71
147
1.5
 71
     0
 72
     0
 73
     0
 74
     0
 75
     1
 76
     1
 77
     3
 78
     8
170
     0
171
     2
172
     1
173
     1
174
     0
175
     0
176
     2
177
     2
178
     4
  0
DIMSTYLE
  2
AM_JIS$0
 70
     0
  3

  4
"
  5

  6

  7

 40
1.0
 41
2.0
 42
1.0
 43
8.0
 44
1.0
 45
0.0
 46
0.0
 47
0.1
 48
0.1
140
2.5
141
0.0
142
0.0
143
0.0393701
144
1.0
145
0.0
146
0.71
147
1.5
 71
     0
 72
     0
 73
     0
 74
     0
 75
     0
 76
     0
 77
     3
 78
     8
170
     0
171
     2
172
     1
173
     0
174
     0
175
     0
176
     2
177
     2
178
     4
  0
DIMSTYLE
  2
STANDARD
 70
     0
  3

  4

  5

  6

  7

 40
1.0
 41
0.18
 42
0.0625
 43
0.38
 44
0.18
 45
0.0
 46
0.0
 47
0.0
 48
0.0
140
0.18
141
0.09
142
0.0
143
25.399999999999999
144
1.0
145
0.0
146
1.0
147
0.09
 71
     0
 72
     0
 73
     1
 74
     1
 75
     0
 76
     0
 77
     0
 78
     0
170
     0
171
     2
172
     0
173
     0
174
     0
175
     0
176
     0
177
     0
178
     0
  0
ENDTAB
  0
ENDSEC
  0
SECTION
  2
BLOCKS
  0
BLOCK
  8
0
  2
$MODEL_SPACE
 70
     0
 10
0.0
 20
0.0
 30
0.0
  3
$MODEL_SPACE
  1

  0
ENDBLK
  5
77
  8
0
  0
BLOCK
 67
     1
  8
0
  2
$PAPER_SPACE
 70
     0
 10
0.0
 20
0.0
 30
0.0
  3
$PAPER_SPACE
  1

  0
ENDBLK
  5
73
 67
     1
  8
0
  0
BLOCK
  8
0
  2
GENAXEH
 70
     0
 10
0.0
 20
0.0
 30
0.0
  3
GENAXEH
  1

  0
LINE
  5
C34F
  8
0
 10
-1.0
 20
0.0
 30
0.0
 11
1.0
 21
0.0
 31
0.0
  0
ENDBLK
  5
C350
  8
0
  0
BLOCK
  8
0
  2
_OPEN30
 70
     0
 10
0.0
 20
0.0
 30
0.0
  3
_OPEN30
  1

  0
LINE
  5
C396
  8
0
  6
BYBLOCK
 62
     0
 10
-1.0
 20
0.26794919
 30
0.0
 11
0.0
 21
0.0
 31
0.0
  0
LINE
  5
C397
  8
0
  6
BYBLOCK
 62
     0
 10
0.0
 20
0.0
 30
0.0
 11
-1.0
 21
-0.26794919
 31
0.0
  0
LINE
  5
C398
  8
0
  6
BYBLOCK
 62
     0
 10
0.0
 20
0.0
 30
0.0
 11
-1.0
 21
0.0
 31
0.0
  0
ENDBLK
  5
C399
  8
0
  0
BLOCK
  8
0
  2
_ACMFILLEDHALF
 70
     0
 10
0.0
 20
0.0
 30
0.0
  3
_ACMFILLEDHALF
  1

  0
TRACE
  5
C470
  8
0
  6
CONTINUOUS
 62
     0
 10
-0.8
 20
0.0
 30
0.0
 11
-1.0
 21
0.166666666
 31
0.0
 12
0.0
 22
0.0
 32
0.0
 13
0.0
 23
0.0
 33
0.0
  0
LINE
  5
C471
  8
0
  6
CONTINUOUS
 62
     0
 10
-1.0
 20
0.0
 30
0.0
 11
-0.8
 21
0.0
 31
0.0
  0
ENDBLK
  5
C472
  8
0
  0
BLOCK
  8
0
  2
*U7
 70
     1
 10
0.0
 20
0.0
 30
0.0
  3
*U7
  1

  0
TEXT
  5
C50C
  8
0
 62
     0
 10
5.1211371559201648
 20
5.9826223594979657
 30
0.0
 40
15.0
  1
ＶＸ０８－００３ＥＭ～ＶＸ０８－０３０ＥＭ
 41
0.7400000000000003
  0
ENDBLK
  5
C50E
  8
0
  0
ENDSEC
  0
SECTION
  2
ENTITIES
  0
LINE
  5
9CFD
  8
0
 62
     0
 10
503.52853644620882
 20
497.09816231545159
 30
0.0
 11
514.52848644620894
 21
497.09816231545159
 31
0.0
  0
LINE
  5
9CFE
  8
0
 62
     0
 10
503.52853644620882
 20
737.09818731545181
 30
0.0
 11
514.52848644620894
 21
737.09818731545181
 31
0.0
  0
LINE
  5
9D01
  8
0
 62
     0
 10
516.52848644620906
 20
735.09818731545136
 30
0.0
 11
516.52848644620906
 21
499.09819731545161
 31
0.0
  0
LINE
  5
9D03
  8
0
 62
     0
 10
503.52853644620882
 20
737.09818731545181
 30
0.0
 11
503.52853644620882
 21
497.09816231545159
 31
0.0
  0
LINE
  5
9D0C
  8
0
 62
     0
 10
476.52848644620912
 20
716.82538731545117
 30
0.0
 11
516.52848644620906
 21
716.82538731545117
 31
0.0
  0
LINE
  5
9D0D
  8
0
 62
     0
 10
474.52848644620912
 20
701.2689873154518
 30
0.0
 11
516.52848644620906
 21
701.2689873154518
 31
0.0
  0
LINE
  5
9D0E
  8
0
 62
     0
 10
474.52848644620912
 20
532.92729731545126
 30
0.0
 11
516.52848644620906
 21
532.92729731545126
 31
0.0
  0
LINE
  5
9D0F
  8
0
 62
     0
 10
476.52848644620912
 20
517.37096231545161
 30
0.0
 11
516.52848644620906
 21
517.37096231545161
 31
0.0
  0
LINE
  5
9D14
  8
0
 62
     0
 10
487.5285364462087
 20
693.09478731545107
 30
0.0
 11
516.52848644620906
 21
693.09478731545107
 31
0.0
  0
LINE
  5
9D15
  8
0
 62
     0
 10
487.5285364462087
 20
541.10152231545158
 30
0.0
 11
516.52848644620906
 21
541.10152231545158
 31
0.0
  0
LINE
  5
9D1E
  8
0
 62
     0
 10
488.52853644620882
 20
737.09818731545181
 30
0.0
 11
503.52853644620882
 21
737.09818731545181
 31
0.0
  0
LINE
  5
9D1F
  8
0
 62
     0
 10
467.35398644620989
 20
495.83495231545169
 30
0.0
 11
503.52853644620882
 21
497.09819731545173
 31
0.0
  0
LINE
  5
9D20
  8
0
 62
     0
 10
462.5285364462087
 20
514.37096231545127
 30
0.0
 11
462.52848649620762
 21
474.59815854780129
 31
0.0
  0
LINE
  5
9D21
  8
0
 62
     0
 10
474.52848644620912
 20
519.37096231545127
 30
0.0
 11
474.52848644620912
 21
549.10149231545165
 31
0.0
  0
LINE
  5
9D22
  8
0
 62
     0
 10
423.02848644620912
 20
641.59819731545178
 30
0.0
 11
437.63323644620851
 21
642.10820731545175
 31
0.0
  0
LINE
  5
9D23
  8
0
 62
     0
 10
423.02848644620912
 20
471.5981923154518
 30
0.0
 11
459.52848644620912
 21
471.5981923154518
 31
0.0
  0
LINE
  5
9D24
  8
0
 62
     0
 10
456.52848644620917
 20
556.59819731545156
 30
0.0
 11
456.52848644620917
 21
692.5814873154518
 31
0.0
  0
LINE
  5
9D25
  8
0
 62
     0
 10
440.52848644620917
 20
642.36175194017108
 30
0.0
 11
440.52848644620917
 21
664.09819731545156
 31
0.0
  0
LINE
  5
9D26
  8
0
 62
     0
 10
443.52848644620912
 20
667.09816731545152
 30
0.0
 11
453.52848644620917
 21
667.09816731545152
 31
0.0
  0
LINE
  5
9D27
  8
0
 62
     0
 10
457.19843644621051
 20
695.08148731545168
 30
0.0
 11
472.99258644620932
 21
722.43793731545156
 31
0.0
  0
LINE
  5
9D28
  8
0
 62
     0
 10
440.52848644620917
 20
641.8353873154515
 30
0.0
 11
455.78673644620898
 21
641.8353873154515
 31
0.0
  0
LINE
  5
9D29
  8
0
 62
     0
 10
485.52848644620912
 20
734.09818731545124
 30
0.0
 11
485.52848644620912
 21
716.82538731545117
 31
0.0
  0
LINE
  5
9D2A
  8
0
 62
     0
 10
475.59068644620851
 20
723.93793731545145
 30
0.0
 11
482.52853644620882
 21
723.93793731545145
 31
0.0
  0
LINE
  5
9D2B
  8
0
 62
     0
 10
485.52848644620912
 20
691.09483731545151
 30
0.0
 11
485.52848644620912
 21
543.10152231545123
 31
0.0
  0
LINE
  5
9D2C
  8
0
 62
     0
 10
474.52848644620912
 20
685.09478731545119
 30
0.0
 11
474.52848644620912
 21
714.82538731545139
 31
0.0
  0
ARC
  5
9D68
  8
0
 62
     0
 10
514.52848644620894
 20
735.09818731545136
 30
0.0
 40
2.0000000500000001
 50
0.0
 51
90.000002999984659
  0
ARC
  5
9D69
  8
0
 62
     0
 10
514.52848644620894
 20
499.09819731545161
 30
0.0
 40
2.0000000500000001
 50
270.0
 51
0.0
  0
ARC
  5
9D6B
  8
0
 62
     0
 10
518.52853644620882
 20
503.09816231545159
 30
0.0
 40
2.0000000500000001
 50
90.000002999984659
 51
180.000010000001
  0
ARC
  5
9D6C
  8
0
 62
     0
 10
518.52853644620882
 20
731.09818731545124
 30
0.0
 40
2.0000000500000001
 50
179.999989999999
 51
270.0
  0
ARC
  5
9D80
  8
0
 62
     0
 10
467.52853644620973
 20
490.83800231545177
 30
0.0
 40
5.0
 50
91.999997999993994
 51
180.000010000001
  0
ARC
  5
9D81
  8
0
 62
     0
 10
443.52848644620912
 20
664.09819731545156
 30
0.0
 40
3.0000000500000001
 50
90.000002999984659
 51
180.000010000001
  0
ARC
  5
9D82
  8
0
 62
     0
 10
453.52848644620917
 20
670.09816731545152
 30
0.0
 40
3.0000000500000001
 50
270.0
 51
0.0
  0
ARC
  5
9D83
  8
0
 62
     0
 10
459.52848644620912
 20
474.59816231545159
 30
0.0
 40
3.0000000500000001
 50
270.0
 51
0.2885557991143161
  0
ARC
  5
9D84
  8
0
 62
     0
 10
461.52848644620917
 20
692.5814873154518
 30
0.0
 40
5.0
 50
149.9999999999807
 51
180.000010000001
  0
ARC
  5
9D85
  8
0
 62
     0
 10
437.52863644620959
 20
645.10634731545133
 30
0.0
 40
3.0000000500000001
 50
272.00000000000369
 51
0.0
  0
ARC
  5
9D86
  8
0
 62
     0
 10
437.52863644620959
 20
642.33174731545171
 30
0.0
 40
3.0000000500000001
 50
270.0
 51
0.5730556653541647
  0
ARC
  5
9D87
  8
0
 62
     0
 10
488.52853644620882
 20
734.09818731545124
 30
0.0
 40
3.0000000500000001
 50
90.000002999984659
 51
180.000010000001
  0
ARC
  5
9D88
  8
0
 62
     0
 10
476.52848644620912
 20
714.82538731545139
 30
0.0
 40
2.0000000500000001
 50
90.000002999984659
 51
180.000010000001
  0
ARC
  5
9D89
  8
0
 62
     0
 10
482.52853644620882
 20
726.9378873154518
 30
0.0
 40
3.0000000500000001
 50
270.0
 51
0.0
  0
ARC
  5
9D8A
  8
0
 62
     0
 10
475.59068644620851
 20
720.93788731545123
 30
0.0
 40
3.0000000500000001
 50
90.000002999984659
 51
149.9999999999807
  0
ARC
  5
9D8B
  8
0
 62
     0
 10
465.52848644620917
 20
514.37096231545127
 30
0.0
 40
3.0000000500000001
 50
90.000002999984659
 51
180.000010000001
  0
ARC
  5
9D8C
  8
0
 62
     0
 10
476.52848644620912
 20
519.37096231545127
 30
0.0
 40
2.0000000500000001
 50
179.999989999999
 51
270.0
  0
ARC
  5
9D8D
  8
0
 62
     0
 10
487.5285364462087
 20
691.09483731545151
 30
0.0
 40
2.0000000500000001
 50
90.000002999984659
 51
180.000010000001
  0
ARC
  5
9D8E
  8
0
 62
     0
 10
472.52853644620973
 20
685.09478731545119
 30
0.0
 40
2.0000000500000001
 50
270.0
 51
0.0
  0
ARC
  5
9D8F
  8
0
 62
     0
 10
472.52853644620973
 20
549.10149231545165
 30
0.0
 40
2.0000000500000001
 50
0.0
 51
90.000002999984659
  0
ARC
  5
9D90
  8
0
 62
     0
 10
487.5285364462087
 20
543.10152231545123
 30
0.0
 40
2.0000000500000001
 50
179.999989999999
 51
270.0
  0
LINE
  5
9DA1
  8
0
  6
AM_ISO08W050
 62
     0
 10
894.46753644620901
 20
665.09816731545152
 30
0.0
 11
544.27919474655664
 21
665.09816731545152
 31
0.0
  0
LINE
  5
9DA8
  8
0
  6
AM_ISO08W050
 62
     0
 10
133.89358205026019
 20
556.59819731545156
 30
0.0
 11
557.37283705242589
 21
556.59819731545156
 31
0.0
  0
LINE
  5
ADF8
  8
0
 62
     0
 10
359.17681944620909
 20
605.78319731545173
 30
0.0
 11
418.02848644620912
 21
605.78319731545173
 31
0.0
  0
LINE
  5
ADF9
  8
0
 62
     0
 10
358.94606244620911
 20
606.27319731545185
 30
0.0
 11
416.26848644620912
 21
606.27319731545185
 31
0.0
  0
LINE
  5
ADFA
  8
0
 62
     0
 10
357.77466044620923
 20
607.87319731545176
 30
0.0
 11
416.26848644620912
 21
607.87319731545176
 31
0.0
  0
LINE
  5
ADFB
  8
0
 62
     0
 10
357.1668704462092
 20
608.41319731545173
 30
0.0
 11
418.02848644620912
 21
608.41319731545173
 31
0.0
  0
LINE
  5
ADFC
  8
0
 62
     0
 10
280.32331644620911
 20
604.74821031545173
 30
0.0
 11
351.73365644620918
 21
604.74821031545173
 31
0.0
  0
LINE
  5
ADFD
  8
0
 62
     0
 10
278.96151544620921
 20
609.81861431545167
 30
0.0
 11
353.08452144620912
 21
609.81861431545167
 31
0.0
  0
ARC
  5
ADFE
  8
0
 62
     0
 10
870.52845644620879
 20
556.3799693154516
 30
0.0
 40
595.5
 50
175.6560359999994
 51
183.93780499999761
  0
ARC
  5
ADFF
  8
0
 62
     0
 10
278.96151544620921
 20
603.21862331545185
 30
0.0
 40
6.599999999999997
 50
90.0
 51
171.40985099999489
  0
ARC
  5
AE00
  8
0
 62
     0
 10
280.32331644620911
 20
601.14820431545172
 30
0.0
 40
3.6000000000000001
 50
90.0
 51
174.62414600000039
  0
ARC
  5
AE01
  8
0
 62
     0
 10
-238.4715135537908
 20
556.38003131545167
 30
0.0
 40
595.5
 50
356.06220199999939
 51
4.3439640000005726
  0
ARC
  5
AE02
  8
0
 62
     0
 10
353.0954574462092
 20
603.21862331545185
 30
0.0
 40
6.599999999999997
 50
8.5901410000037774
 51
90.0
  0
ARC
  5
AE03
  8
0
 62
     0
 10
351.73365644620918
 20
601.14820431545172
 30
0.0
 40
3.6000000000000001
 50
5.3758619999981763
 51
90.0
  0
ARC
  5
AE04
  8
0
 62
     0
 10
-239.0714895537908
 20
556.38003131545167
 30
0.0
 40
600.59997599999986
 50
355.4679790000045
 51
4.5671770000027472
  0
ARC
  5
AE05
  8
0
 62
     0
 10
871.12843144620911
 20
556.3799693154516
 30
0.0
 40
600.59997599999986
 50
175.4328159999979
 51
184.5320279999992
  0
ARC
  5
AE06
  8
0
 62
     0
 10
316.02848644620917
 20
502.4161953154516
 30
0.0
 40
16.337935000000002
 50
47.76794699999509
 51
132.2320530000049
  0
LINE
  5
AE07
  8
0
 62
     0
 10
282.25141744620908
 20
513.99413631545178
 30
0.0
 11
303.70291944620919
 21
513.99412831545169
 31
0.0
  0
LINE
  5
AE08
  8
0
 62
     0
 10
278.97729344620922
 20
502.94138631545161
 30
0.0
 11
353.07967944620918
 21
502.94138631545161
 31
0.0
  0
LINE
  5
AE09
  8
0
 62
     0
 10
278.7776934462093
 20
505.35926331545181
 30
0.0
 11
353.2792794462091
 21
505.35926331545181
 31
0.0
  0
LINE
  5
AE0A
  8
0
 62
     0
 10
281.0140664462092
 20
511.31602831545177
 30
0.0
 11
304.45006544620912
 21
511.31602031545162
 31
0.0
  0
ARC
  5
AE0B
  8
0
 62
     0
 10
316.09445044620918
 20
500.93020931545158
 30
0.0
 40
15.0
 50
46.767242000003563
 51
133.23275799999641
  0
ARC
  5
AE0C
  8
0
 62
     0
 10
278.97729344620922
 20
509.54138531545181
 30
0.0
 40
6.599999999999997
 50
185.37618999999609
 51
270.0
  0
ARC
  5
AE0D
  8
0
 62
     0
 10
278.7776934462093
 20
511.95926231545178
 30
0.0
 40
6.599999999999997
 50
188.04118300000351
 51
270.0
  0
ARC
  5
AE0E
  8
0
 62
     0
 10
281.0140664462092
 20
515.91603431545161
 30
0.0
 40
4.5999999999999961
 50
185.37625099999849
 51
270.0
  0
LINE
  5
AE0F
  8
0
 62
     0
 10
349.80555544620933
 20
513.99413631545178
 30
0.0
 11
328.35405344620909
 21
513.99412831545169
 31
0.0
  0
LINE
  5
AE10
  8
0
 62
     0
 10
351.04290644620909
 20
511.31602831545177
 30
0.0
 11
327.73883544620918
 21
511.31602031545162
 31
0.0
  0
ARC
  5
AE11
  8
0
 62
     0
 10
353.07967944620918
 20
509.54138531545181
 30
0.0
 40
6.599999999999997
 50
270.0
 51
354.62381000000369
  0
ARC
  5
AE12
  8
0
 62
     0
 10
353.2792794462091
 20
511.95926231545178
 30
0.0
 40
6.599999999999997
 50
270.0
 51
351.9588320000023
  0
ARC
  5
AE13
  8
0
 62
     0
 10
351.04290644620909
 20
515.91603431545161
 30
0.0
 40
4.5999999999999961
 50
270.0
 51
354.62374900000151
  0
ARC
  5
AE14
  8
0
 62
     0
 10
304.45006644620912
 20
513.31602031545185
 30
0.0
 40
2.0
 50
270.0
 51
313.23275799999641
  0
ARC
  5
AE15
  8
0
 62
     0
 10
303.70292044620919
 20
515.9941283154518
 30
0.0
 40
2.0
 50
270.0
 51
312.23205300000052
  0
ARC
  5
AE16
  8
0
 62
     0
 10
328.3540524462091
 20
515.9941283154518
 30
0.0
 40
2.0
 50
227.7679469999951
 51
270.0
  0
ARC
  5
AE17
  8
0
 62
     0
 10
327.73883444620918
 20
513.31602031545185
 30
0.0
 40
2.0
 50
226.76724200000359
 51
270.0
  0
ARC
  5
AE18
  8
0
 62
     0
 10
144.52848644620909
 20
457.39819731545163
 30
0.0
 40
2.0
 50
180.0
 51
270.0
  0
LINE
  5
AE1A
  8
0
 62
     0
 10
215.5284864462092
 20
657.39819731545174
 30
0.0
 11
215.5284864462092
 21
455.3981973154518
 31
0.0
  0
ARC
  5
AE1B
  8
0
 62
     0
 10
144.92848644620909
 20
642.37501231545173
 30
0.0
 40
2.399999999999999
 50
159.99999999999631
 51
180.0
  0
ARC
  5
AE1C
  8
0
 62
     0
 10
149.52295044620911
 20
654.99819731545165
 30
0.0
 40
2.399999999999999
 50
90.0
 51
159.99999999999631
  0
LINE
  5
AE1D
  8
0
 62
     0
 10
147.2676874462091
 20
655.81904531545172
 30
0.0
 11
142.67322444620899
 21
643.19586131545168
 31
0.0
  0
LINE
  5
AE1E
  8
0
 62
     0
 10
147.8424514462092
 20
656.71165131545172
 30
0.0
 11
147.8424514462092
 21
455.3981973154518
 31
0.0
  0
LINE
  5
AE1F
  8
0
 62
     0
 10
142.528486446209
 20
642.37501231545173
 30
0.0
 11
142.528486446209
 21
457.39819731545163
 31
0.0
  0
LINE
  5
AE20
  8
0
 62
     0
 10
215.5284864462092
 20
657.39819731545174
 30
0.0
 11
149.52295044620911
 21
657.39819731545174
 31
0.0
  0
LINE
  5
AE21
  8
0
 62
     0
 10
367.98536244620908
 20
605.78319731545173
 30
0.0
 11
367.98536244620908
 21
585.41819731545172
 31
0.0
  0
LINE
  5
AE22
  8
0
 62
     0
 10
384.02848544620917
 20
605.78319731545173
 30
0.0
 11
384.02848544620917
 21
585.41819731545172
 31
0.0
  0
LINE
  5
AE23
  8
0
 62
     0
 10
398.57788144620918
 20
500.57740131545182
 30
0.0
 11
384.02848544620917
 21
500.57740131545182
 31
0.0
  0
LINE
  5
AE24
  8
0
 62
     0
 10
403.52848644620917
 20
511.98975131545171
 30
0.0
 11
384.02848544620917
 21
511.98975131545171
 31
0.0
  0
LINE
  5
AE25
  8
0
 62
     0
 10
368.73388344620912
 20
505.2924913154518
 30
0.0
 11
384.02848644620917
 21
500.57740131545182
 31
0.0
  0
LINE
  5
AE26
  8
0
 62
     0
 10
384.02848644620917
 20
511.98975131545171
 30
0.0
 11
368.99254544620919
 21
511.4490003154516
 31
0.0
  0
ARC
  5
AE27
  8
0
 62
     0
 10
369.02848644620917
 20
510.44964631545162
 30
0.0
 40
1.0
 50
92.059690999997088
 51
180.0
  0
ARC
  5
AE28
  8
0
 62
     0
 10
369.02848644620917
 20
506.24811131545158
 30
0.0
 40
1.0
 50
180.0
 51
252.8662750000021
  0
LINE
  5
AE29
  8
0
 62
     0
 10
384.02848644620917
 20
632.45098431545159
 30
0.0
 11
368.72802744620918
 21
627.63111831545166
 31
0.0
  0
ARC
  5
AE2A
  8
0
 62
     0
 10
369.02848644620917
 20
626.67732331545164
 30
0.0
 40
1.0
 50
107.485179
 51
180.0
  0
ARC
  5
AE2B
  8
0
 62
     0
 10
369.02848644620917
 20
624.3262583154517
 30
0.0
 40
1.0
 50
180.0
 51
270.0
  0
LINE
  5
AE2C
  8
0
 62
     0
 10
369.07704144620908
 20
623.32743731545168
 30
0.0
 11
384.02848644620917
 21
624.05425731545176
 31
0.0
  0
LINE
  5
AE2D
  8
0
 62
     0
 10
403.52848644620917
 20
624.05425731545176
 30
0.0
 11
384.02848644620917
 21
624.05425731545176
 31
0.0
  0
LINE
  5
AE2E
  8
0
 62
     0
 10
327.02848644620917
 20
654.88469031545173
 30
0.0
 11
414.47567144620911
 21
654.88469031545173
 31
0.0
  0
ARC
  5
AE2F
  8
0
 62
     0
 10
238.29273144620919
 20
652.88469031545173
 30
0.0
 40
2.0
 50
90.0
 51
156.10180000000051
  0
ARC
  5
AE30
  8
0
 62
     0
 10
414.47567144620911
 20
652.88469031545173
 30
0.0
 40
2.0
 50
10.000001999998901
 51
90.0
  0
LINE
  5
AE31
  8
0
 62
     0
 10
418.02848644620912
 20
644.25321431545171
 30
0.0
 11
416.44528644620908
 21
653.23198731545165
 31
0.0
  0
LINE
  5
AE32
  8
0
 62
     0
 10
417.76767844620912
 20
644.25321431545171
 30
0.0
 11
418.02848644620912
 21
644.25321431545171
 31
0.0
  0
ARC
  5
AE33
  8
0
 62
     0
 10
223.35970144620919
 20
651.69491631545168
 30
0.0
 40
2.0
 50
90.0
 51
169.99999800000111
  0
LINE
  5
AE34
  8
0
 62
     0
 10
219.0284864462092
 20
638.64891331545175
 30
0.0
 11
221.3900864462091
 21
652.0422133154517
 31
0.0
  0
ARC
  5
AE35
  8
0
 62
     0
 10
414.42465244620911
 20
651.69491631545168
 30
0.0
 40
2.0
 50
10.000001999998901
 51
90.0
  0
LINE
  5
AE36
  8
0
 62
     0
 10
418.02848644620912
 20
642.77409631545174
 30
0.0
 11
416.39426744620908
 21
652.0422133154517
 31
0.0
  0
LINE
  5
AE37
  8
0
 62
     0
 10
219.0284864462092
 20
638.64891331545175
 30
0.0
 11
219.59639244620919
 21
638.64891331545175
 31
0.0
  0
LINE
  5
AE38
  8
0
 62
     0
 10
417.49251544620921
 20
642.77409631545174
 30
0.0
 11
418.02848644620912
 21
642.77409631545174
 31
0.0
  0
ARC
  5
AE39
  8
0
 62
     0
 10
414.33879744620913
 20
649.14218231545158
 30
0.0
 40
2.0
 50
10.00000100000196
 51
90.0
  0
ARC
  5
AE3A
  8
0
 62
     0
 10
223.47749244620911
 20
649.14218231545158
 30
0.0
 40
2.0
 50
90.0
 51
169.9999989999979
  0
LINE
  5
AE3B
  8
0
 62
     0
 10
219.0284864462092
 20
635.4281573154517
 30
0.0
 11
221.5078764462092
 21
649.48947831545172
 31
0.0
  0
ARC
  5
AE3C
  8
0
 62
     0
 10
223.65863344620911
 20
645.17699731545179
 30
0.0
 40
2.0
 50
90.0
 51
170.00000000000139
  0
LINE
  5
AE3D
  8
0
 62
     0
 10
219.0284864462092
 20
630.43567231545171
 30
0.0
 11
221.68901744620919
 21
645.5242933154517
 31
0.0
  0
ARC
  5
AE3E
  8
0
 62
     0
 10
223.93986144620919
 20
639.59956931545173
 30
0.0
 40
2.0
 50
90.0
 51
170.00000000000139
  0
LINE
  5
AE3F
  8
0
 62
     0
 10
219.0284864462092
 20
623.26332031545167
 30
0.0
 11
221.97024544620911
 21
639.94686631545164
 31
0.0
  0
ARC
  5
AE40
  8
0
 62
     0
 10
224.03512544620909
 20
633.59890231545171
 30
0.0
 40
2.0
 50
90.0
 51
169.9999989999979
  0
LINE
  5
AE41
  8
0
 62
     0
 10
219.0284864462092
 20
616.72238431545168
 30
0.0
 11
222.06550944620929
 21
633.94619831545174
 31
0.0
  0
LINE
  5
AE42
  8
0
 62
     0
 10
417.90022744620899
 20
640.46184631545157
 30
0.0
 11
416.30841244620899
 21
649.48947831545172
 31
0.0
  0
LINE
  5
AE43
  8
0
 62
     0
 10
219.0284864462092
 20
635.4281573154517
 30
0.0
 11
219.90879644620921
 21
635.4281573154517
 31
0.0
  0
ARC
  5
AE44
  8
0
 62
     0
 10
414.2094194462091
 20
645.17699731545179
 30
0.0
 40
2.0
 50
9.9999999999986073
 51
90.0
  0
LINE
  5
AE45
  8
0
 62
     0
 10
417.07168144620908
 20
640.46184631545157
 30
0.0
 11
416.17903544620913
 21
645.5242933154517
 31
0.0
  0
ARC
  5
AE46
  8
0
 62
     0
 10
349.41750444620919
 20
639.59956931545173
 30
0.0
 40
2.0
 50
5.5986529999989596
 51
90.0
  0
ARC
  5
AE47
  8
0
 62
     0
 10
349.41554944620918
 20
633.59890231545171
 30
0.0
 40
2.0
 50
5.4290190000020546
 51
90.0
  0
LINE
  5
AE48
  8
0
 62
     0
 10
420.02848644620917
 20
516.87549131545177
 30
0.0
 11
420.02848644620917
 21
618.66413031545164
 31
0.0
  0
LINE
  5
AE49
  8
0
 62
     0
 10
420.02848644620917
 20
640.46184631545157
 30
0.0
 11
420.02848644620917
 21
644.59819731545167
 31
0.0
  0
LINE
  5
AE4A
  8
0
 62
     0
 10
367.98536244620908
 20
630.43567231545171
 30
0.0
 11
384.02848544620917
 21
635.03553431545174
 31
0.0
  0
LINE
  5
AE4B
  8
0
 62
     0
 10
352.32540144620918
 20
630.43567231545171
 30
0.0
 11
367.98536244620908
 21
630.43567231545171
 31
0.0
  0
LINE
  5
AE4C
  8
0
 62
     0
 10
384.02848544620917
 20
635.03553431545174
 30
0.0
 11
398.72176944620912
 21
635.03553431545174
 31
0.0
  0
ARC
  5
AE4D
  8
0
 62
     0
 10
400.7282854462091
 20
628.08146331545174
 30
0.0
 40
2.6003989999999999
 50
179.9999819999943
 51
269.99997799999522
  0
ARC
  5
AE4E
  8
0
 62
     0
 10
400.7282854462091
 20
633.38145131545173
 30
0.0
 40
2.600403
 50
90.0
 51
179.9999819999943
  0
LINE
  5
AE4F
  8
0
 62
     0
 10
403.52848644620917
 20
630.79748231545159
 30
0.0
 11
402.02848644620912
 21
629.93145731545178
 31
0.0
  0
LINE
  5
AE50
  8
0
 62
     0
 10
403.52848644620917
 20
631.7974823154517
 30
0.0
 11
402.02848644620912
 21
630.93145731545178
 31
0.0
  0
LINE
  5
AE51
  8
0
 62
     0
 10
403.52848644620917
 20
636.83145731545187
 30
0.0
 11
403.52848644620917
 21
624.63145731545171
 31
0.0
  0
LINE
  5
AE52
  8
0
 62
     0
 10
402.02848644620912
 20
636.83145731545187
 30
0.0
 11
403.52848644620917
 21
636.83145731545187
 31
0.0
  0
LINE
  5
AE53
  8
0
 62
     0
 10
402.02848644620912
 20
624.63145731545171
 30
0.0
 11
403.52848644620917
 21
624.63145731545171
 31
0.0
  0
LINE
  5
AE54
  8
0
 62
     0
 10
398.12849244620918
 20
633.38145131545173
 30
0.0
 11
398.12849244620918
 21
628.08146331545174
 31
0.0
  0
LINE
  5
AE55
  8
0
 62
     0
 10
402.02848644620912
 20
636.83145731545187
 30
0.0
 11
402.02848644620912
 21
624.63145731545171
 31
0.0
  0
LINE
  5
AE56
  8
0
 62
     0
 10
402.02848644620912
 20
625.48145731545173
 30
0.0
 11
400.7282854462091
 21
625.48145731545173
 31
0.0
  0
LINE
  5
AE57
  8
0
 62
     0
 10
402.02848644620912
 20
635.98145731545173
 30
0.0
 11
400.7282854462091
 21
635.98145731545173
 31
0.0
  0
ARC
  5
AE58
  8
0
 62
     0
 10
400.7282854462091
 20
502.03953631545158
 30
0.0
 40
2.6003989999999999
 50
179.9999819999943
 51
269.99997799999522
  0
ARC
  5
AE59
  8
0
 62
     0
 10
400.7282854462091
 20
507.3395243154518
 30
0.0
 40
2.600403
 50
90.0
 51
179.9999819999943
  0
LINE
  5
AE5A
  8
0
 62
     0
 10
403.52848644620917
 20
504.75555531545177
 30
0.0
 11
402.02848644620912
 21
503.88953031545162
 31
0.0
  0
LINE
  5
AE5B
  8
0
 62
     0
 10
403.52848644620917
 20
505.75555531545177
 30
0.0
 11
402.02848644620912
 21
504.88953031545179
 31
0.0
  0
LINE
  5
AE5C
  8
0
 62
     0
 10
403.52848644620917
 20
510.78953031545188
 30
0.0
 11
403.52848644620917
 21
498.58953031545178
 31
0.0
  0
LINE
  5
AE5D
  8
0
 62
     0
 10
402.02848644620912
 20
510.78953031545188
 30
0.0
 11
403.52848644620917
 21
510.78953031545188
 31
0.0
  0
LINE
  5
AE5E
  8
0
 62
     0
 10
402.02848644620912
 20
498.58953031545178
 30
0.0
 11
403.52848644620917
 21
498.58953031545178
 31
0.0
  0
LINE
  5
AE5F
  8
0
 62
     0
 10
398.12849244620918
 20
507.3395243154518
 30
0.0
 11
398.12849244620918
 21
502.03953631545158
 31
0.0
  0
LINE
  5
AE60
  8
0
 62
     0
 10
402.02848644620912
 20
510.78953031545188
 30
0.0
 11
402.02848644620912
 21
498.58953031545178
 31
0.0
  0
LINE
  5
AE61
  8
0
 62
     0
 10
402.02848644620912
 20
499.43953031545158
 30
0.0
 11
400.7282854462091
 21
499.43953031545158
 31
0.0
  0
LINE
  5
AE62
  8
0
 62
     0
 10
402.02848644620912
 20
509.93953031545158
 30
0.0
 11
400.7282854462091
 21
509.93953031545158
 31
0.0
  0
LINE
  5
AE63
  8
0
 62
     0
 10
417.96765644620911
 20
644.59819731545167
 30
0.0
 11
420.02848644620917
 21
644.59819731545167
 31
0.0
  0
LINE
  5
AE64
  8
0
 62
     0
 10
223.65863344620911
 20
647.17699731545167
 30
0.0
 11
414.2094194462091
 21
647.17699731545167
 31
0.0
  0
LINE
  5
AE65
  8
0
 62
     0
 10
223.47749244620911
 20
651.14218231545169
 30
0.0
 11
414.33879744620913
 21
651.14218231545169
 31
0.0
  0
LINE
  5
AE66
  8
0
 62
     0
 10
223.35970144620919
 20
653.69491631545179
 30
0.0
 11
414.42465244620911
 21
653.69491631545179
 31
0.0
  0
LINE
  5
AE67
  8
0
 62
     0
 10
215.5284864462092
 20
650.09819731545178
 30
0.0
 11
221.04730444620921
 21
650.09819731545178
 31
0.0
  0
LINE
  5
AE68
  8
0
 62
     0
 10
238.29273144620919
 20
654.88469031545173
 30
0.0
 11
305.02848644620917
 21
654.88469031545173
 31
0.0
  0
LINE
  5
AE69
  8
0
 62
     0
 10
384.02848544620917
 20
613.75819731545175
 30
0.0
 11
384.02848544620917
 21
608.41319731545173
 31
0.0
  0
LINE
  5
AE6A
  8
0
 62
     0
 10
367.98536244620908
 20
613.75819731545175
 30
0.0
 11
367.98536244620908
 21
608.41319731545173
 31
0.0
  0
LINE
  5
AE6B
  8
0
 62
     0
 10
384.02848544620917
 20
624.05425731545176
 30
0.0
 11
384.02848544620917
 21
616.45819731545168
 31
0.0
  0
LINE
  5
AE6C
  8
0
 62
     0
 10
384.02848544620917
 20
632.45098431545159
 30
0.0
 11
398.12849244620918
 21
632.45098431545159
 31
0.0
  0
LINE
  5
AE6D
  8
0
 62
     0
 10
219.0284864462092
 20
616.72238431545168
 30
0.0
 11
353.02848644620917
 21
616.72238431545168
 31
0.0
  0
LINE
  5
AE6E
  8
0
 62
     0
 10
352.3508594462092
 20
623.26332031545167
 30
0.0
 11
353.02848644620917
 21
623.26332031545167
 31
0.0
  0
LINE
  5
AE6F
  8
0
 62
     0
 10
224.03512544620909
 20
635.59890231545171
 30
0.0
 11
349.41554944620918
 21
635.59890231545171
 31
0.0
  0
LINE
  5
AE70
  8
0
 62
     0
 10
219.0284864462092
 20
623.26332031545167
 30
0.0
 11
220.18182944620909
 21
623.26332031545167
 31
0.0
  0
LINE
  5
AE71
  8
0
 62
     0
 10
223.93986144620919
 20
641.59956931545173
 30
0.0
 11
349.41750444620919
 21
641.59956931545173
 31
0.0
  0
LINE
  5
AE72
  8
0
 62
     0
 10
420.02848644620917
 20
618.66413031545164
 30
0.0
 11
423.02848644620912
 21
616.93207931545169
 31
0.0
  0
ARC
  5
AE73
  8
0
 62
     0
 10
402.52848644620917
 20
619.66413031545164
 30
0.0
 40
1.0
 50
270.0
 51
0.0
  0
ARC
  5
AE74
  8
0
 62
     0
 10
405.52848644620912
 20
638.46184631545168
 30
0.0
 40
2.0
 50
90.0
 51
180.0
  0
ARC
  5
AE75
  8
0
 62
     0
 10
405.52848644620912
 20
634.33784131545178
 30
0.0
 40
2.0
 50
180.0
 51
270.0
  0
ARC
  5
AE76
  8
0
 62
     0
 10
405.52848644620912
 20
630.33784131545178
 30
0.0
 40
2.0
 50
90.0
 51
180.0
  0
LINE
  5
AE77
  8
0
 62
     0
 10
405.52848644620912
 20
640.46184631545157
 30
0.0
 11
423.02848644620912
 21
640.46184631545157
 31
0.0
  0
LINE
  5
AE78
  8
0
 62
     0
 10
403.52848644620917
 20
618.66413031545164
 30
0.0
 11
420.02848644620917
 21
618.66413031545164
 31
0.0
  0
LINE
  5
AE79
  8
0
 62
     0
 10
405.52848644620912
 20
632.33784131545167
 30
0.0
 11
423.02848644620912
 21
632.33784131545167
 31
0.0
  0
LINE
  5
AE7A
  8
0
 62
     0
 10
403.52848644620917
 20
619.66413031545164
 30
0.0
 11
403.52848644620917
 21
638.46184631545168
 31
0.0
  0
LINE
  5
AE7B
  8
0
 62
     0
 10
219.0284864462092
 20
472.59819731545161
 30
0.0
 11
215.5284864462092
 21
472.59819731545161
 31
0.0
  0
LINE
  5
AE7C
  8
0
 62
     0
 10
219.0284864462092
 20
522.23940831545178
 30
0.0
 11
223.6358624462091
 21
515.8078023154518
 31
0.0
  0
LINE
  5
AE7D
  8
0
 62
     0
 10
223.6358624462091
 20
515.8078023154518
 30
0.0
 11
224.4916624462092
 21
518.43472231545184
 31
0.0
  0
LINE
  5
AE7E
  8
0
 62
     0
 10
219.0284864462092
 20
522.23940831545178
 30
0.0
 11
224.4916624462092
 21
518.43472231545184
 31
0.0
  0
LINE
  5
AE7F
  8
0
 62
     0
 10
224.4916624462092
 20
518.43472231545184
 30
0.0
 11
225.70359244620909
 21
517.87876231545181
 31
0.0
  0
LINE
  5
AE80
  8
0
 62
     0
 10
215.5284864462092
 20
515.8078023154518
 30
0.0
 11
223.6358624462091
 21
515.8078023154518
 31
0.0
  0
LINE
  5
AE81
  8
0
 62
     0
 10
215.5284864462092
 20
522.23940831545178
 30
0.0
 11
219.0284864462092
 21
522.23940831545178
 31
0.0
  0
LINE
  5
AE82
  8
0
 62
     0
 10
219.0284864462092
 20
499.66602231545158
 30
0.0
 11
219.0284864462092
 21
496.47312831545179
 31
0.0
  0
LINE
  5
AE83
  8
0
 62
     0
 10
220.78848644620919
 20
499.09758831545179
 30
0.0
 11
220.78848644620919
 21
497.09880631545178
 31
0.0
  0
LINE
  5
AE84
  8
0
 62
     0
 10
235.78848644620919
 20
508.09819731545178
 30
0.0
 11
235.78848644620919
 21
506.09880631545178
 31
0.0
  0
LINE
  5
AE85
  8
0
 62
     0
 10
234.0284864462092
 20
508.55973931545162
 30
0.0
 11
234.0284864462092
 21
505.4920043154516
 31
0.0
  0
LINE
  5
AE86
  8
0
 62
     0
 10
234.0284864462092
 20
508.55973931545162
 30
0.0
 11
272.45070344620922
 21
508.55973931545162
 31
0.0
  0
LINE
  5
AE87
  8
0
 62
     0
 10
234.0284864462092
 20
505.4920043154516
 30
0.0
 11
273.76552744620909
 21
505.4920043154516
 31
0.0
  0
LINE
  5
AE88
  8
0
 62
     0
 10
219.0284864462092
 20
496.47312831545179
 30
0.0
 11
316.02848644620917
 21
496.47312831545179
 31
0.0
  0
LINE
  5
AE89
  8
0
 62
     0
 10
219.0284864462092
 20
499.66602231545158
 30
0.0
 11
316.02848644620917
 21
499.66602231545158
 31
0.0
  0
LINE
  5
AE8A
  8
0
 62
     0
 10
220.78848644620919
 20
499.09758831545179
 30
0.0
 11
316.02848644620917
 21
499.09758831545179
 31
0.0
  0
LINE
  5
AE8B
  8
0
 62
     0
 10
220.78848644620919
 20
497.09880631545178
 30
0.0
 11
316.02848644620917
 21
497.09880631545178
 31
0.0
  0
LINE
  5
AE8C
  8
0
 62
     0
 10
220.78848644620919
 20
499.09758831545179
 30
0.0
 11
219.0284864462092
 21
499.66602231545158
 31
0.0
  0
LINE
  5
AE8D
  8
0
 62
     0
 10
220.78848644620919
 20
497.09880631545178
 30
0.0
 11
219.0284864462092
 21
496.47312831545179
 31
0.0
  0
LINE
  5
AE8E
  8
0
 62
     0
 10
223.97175244620919
 20
505.84011831545178
 30
0.0
 11
225.1528434462092
 21
505.60270931545182
 31
0.0
  0
LINE
  5
AE8F
  8
0
 62
     0
 10
235.78848644620919
 20
508.09819731545178
 30
0.0
 11
272.53701344620907
 21
508.09819731545178
 31
0.0
  0
LINE
  5
AE90
  8
0
 62
     0
 10
235.78848644620919
 20
506.09880631545178
 30
0.0
 11
273.34624944620919
 21
506.09880631545178
 31
0.0
  0
LINE
  5
AE91
  8
0
 62
     0
 10
235.78848644620919
 20
508.09819731545178
 30
0.0
 11
234.0284864462092
 21
508.55973931545162
 31
0.0
  0
LINE
  5
AE92
  8
0
 62
     0
 10
235.78848644620919
 20
506.09880631545178
 30
0.0
 11
234.0284864462092
 21
505.4920043154516
 31
0.0
  0
LINE
  5
AE93
  8
0
 62
     0
 10
353.02848644620917
 20
499.66602231545158
 30
0.0
 11
316.02848644620917
 21
499.66602231545158
 31
0.0
  0
LINE
  5
AE94
  8
0
 62
     0
 10
351.26848644620918
 20
499.09758831545179
 30
0.0
 11
316.02848644620917
 21
499.09758831545179
 31
0.0
  0
LINE
  5
AE95
  8
0
 62
     0
 10
351.26848644620918
 20
497.09880631545178
 30
0.0
 11
316.02848644620917
 21
497.09880631545178
 31
0.0
  0
LINE
  5
AE96
  8
0
 62
     0
 10
351.26848644620918
 20
497.09880631545178
 30
0.0
 11
353.02848644620917
 21
496.47312831545179
 31
0.0
  0
LINE
  5
AE97
  8
0
 62
     0
 10
351.26848644620918
 20
499.09758831545179
 30
0.0
 11
353.02848644620917
 21
499.66602231545158
 31
0.0
  0
LINE
  5
AE98
  8
0
 62
     0
 10
351.26848644620918
 20
499.09758831545179
 30
0.0
 11
351.26848644620918
 21
497.09880631545178
 31
0.0
  0
LINE
  5
AE99
  8
0
 62
     0
 10
353.02848644620917
 20
499.66602231545158
 30
0.0
 11
353.02848644620917
 21
496.47312831545179
 31
0.0
  0
LINE
  5
AE9A
  8
0
 62
     0
 10
219.0284864462092
 20
496.47312831545179
 30
0.0
 11
220.62122844620919
 21
479.1739413154516
 31
0.0
  0
LINE
  5
AE9B
  8
0
 62
     0
 10
219.0284864462092
 20
489.93307431545179
 30
0.0
 11
219.63063144620921
 21
489.93307431545179
 31
0.0
  0
LINE
  5
AE9C
  8
0
 62
     0
 10
219.0284864462092
 20
482.7607223154518
 30
0.0
 11
219.7112634462091
 21
482.7607223154518
 31
0.0
  0
LINE
  5
AE9D
  8
0
 62
     0
 10
219.0284864462092
 20
477.76823731545159
 30
0.0
 11
219.5529994462091
 21
477.76823731545159
 31
0.0
  0
LINE
  5
AE9E
  8
0
 62
     0
 10
219.0284864462092
 20
474.54748131545159
 30
0.0
 11
219.38842844620919
 21
474.54748131545159
 31
0.0
  0
LINE
  5
AE9F
  8
0
 62
     0
 10
218.98170944620921
 20
472.97790031545179
 30
0.0
 11
219.21210044620909
 21
472.97790031545179
 31
0.0
  0
LINE
  5
AEA0
  8
0
 62
     0
 10
219.0284864462092
 20
489.93307431545179
 30
0.0
 11
220.61613844620911
 21
473.25530031545162
 31
0.0
  0
LINE
  5
AEA1
  8
0
 62
     0
 10
219.0284864462092
 20
482.7607223154518
 30
0.0
 11
220.60031944620911
 21
467.79951131545158
 31
0.0
  0
LINE
  5
AEA2
  8
0
 62
     0
 10
219.0284864462092
 20
477.76823731545159
 30
0.0
 11
220.58979744620919
 21
463.7976463154518
 31
0.0
  0
LINE
  5
AEA3
  8
0
 62
     0
 10
219.0284864462092
 20
474.54748131545159
 30
0.0
 11
220.58170544620921
 21
461.27015331545181
 31
0.0
  0
LINE
  5
AEA4
  8
0
 62
     0
 10
218.98170944620921
 20
472.97790031545179
 30
0.0
 11
220.57222544620919
 21
460.0671663154518
 31
0.0
  0
ARC
  5
AEA5
  8
0
 62
     0
 10
222.61280444620911
 20
479.35730631545158
 30
0.0
 40
2.0
 50
185.2604109999981
 51
270.0
  0
ARC
  5
AEA6
  8
0
 62
     0
 10
222.60713644620921
 20
473.4448353154516
 30
0.0
 40
2.0
 50
185.4379219999999
 51
270.0
  0
ARC
  5
AEA7
  8
0
 62
     0
 10
222.58937244620921
 20
468.0084823154516
 30
0.0
 40
2.0
 50
185.99752600000019
 51
270.0
  0
ARC
  5
AEA8
  8
0
 62
     0
 10
222.5774234462092
 20
464.01977731545162
 30
0.0
 40
2.0
 50
186.376742000001
 51
270.0
  0
ARC
  5
AEA9
  8
0
 62
     0
 10
222.56815944620919
 20
461.50253431545178
 30
0.0
 40
2.0
 50
186.67229399999829
 51
270.0
  0
ARC
  5
AEAA
  8
0
 62
     0
 10
222.55721944620919
 20
460.31170431545178
 30
0.0
 40
2.0
 50
187.02306899999661
 51
270.0
  0
LINE
  5
AEAB
  8
0
 62
     0
 10
225.70359244620909
 20
517.87876231545181
 30
0.0
 11
225.70359244620909
 21
505.4920043154516
 31
0.0
  0
LINE
  5
AEAC
  8
0
 62
     0
 10
223.6358624462091
 20
515.8078023154518
 30
0.0
 11
223.6358624462091
 21
505.90763531545178
 31
0.0
  0
LINE
  5
AEAD
  8
0
 62
     0
 10
215.5284864462092
 20
505.4920043154516
 30
0.0
 11
225.70359244620909
 21
505.4920043154516
 31
0.0
  0
LINE
  5
AEAE
  8
0
 62
     0
 10
215.5284864462092
 20
505.90763531545178
 30
0.0
 11
223.6358624462091
 21
505.90763531545178
 31
0.0
  0
LINE
  5
AEAF
  8
0
 62
     0
 10
418.02848644620912
 20
571.77819731545173
 30
0.0
 11
416.26848644620912
 21
572.32819731545169
 31
0.0
  0
LINE
  5
AEB0
  8
0
 62
     0
 10
418.02848644620912
 20
574.41819731545172
 30
0.0
 11
418.02848644620912
 21
571.77819731545173
 31
0.0
  0
LINE
  5
AEB1
  8
0
 62
     0
 10
416.26848644620912
 20
573.92819731545171
 30
0.0
 11
418.02848644620912
 21
574.41819731545172
 31
0.0
  0
LINE
  5
AEB2
  8
0
 62
     0
 10
416.26848644620912
 20
573.92819731545171
 30
0.0
 11
416.26848644620912
 21
572.32819731545169
 31
0.0
  0
LINE
  5
AEB3
  8
0
 62
     0
 10
418.02848644620912
 20
560.77819731545162
 30
0.0
 11
416.26848644620912
 21
561.3281973154518
 31
0.0
  0
LINE
  5
AEB4
  8
0
 62
     0
 10
418.02848644620912
 20
563.41819731545172
 30
0.0
 11
418.02848644620912
 21
560.77819731545162
 31
0.0
  0
LINE
  5
AEB5
  8
0
 62
     0
 10
416.26848644620912
 20
562.92819731545183
 30
0.0
 11
418.02848644620912
 21
563.41819731545172
 31
0.0
  0
LINE
  5
AEB6
  8
0
 62
     0
 10
416.26848644620912
 20
562.92819731545183
 30
0.0
 11
416.26848644620912
 21
561.3281973154518
 31
0.0
  0
LINE
  5
AEB7
  8
0
 62
     0
 10
418.02848644620912
 20
549.77819731545151
 30
0.0
 11
416.26848644620912
 21
550.3281973154518
 31
0.0
  0
LINE
  5
AEB8
  8
0
 62
     0
 10
418.02848644620912
 20
552.41819731545183
 30
0.0
 11
418.02848644620912
 21
549.77819731545151
 31
0.0
  0
LINE
  5
AEB9
  8
0
 62
     0
 10
416.26848644620912
 20
551.92819731545183
 30
0.0
 11
418.02848644620912
 21
552.41819731545183
 31
0.0
  0
LINE
  5
AEBA
  8
0
 62
     0
 10
416.26848644620912
 20
551.92819731545183
 30
0.0
 11
416.26848644620912
 21
550.3281973154518
 31
0.0
  0
LINE
  5
AEBB
  8
0
 62
     0
 10
418.02848644620912
 20
538.77819731545162
 30
0.0
 11
416.26848644620912
 21
539.32819731545158
 31
0.0
  0
LINE
  5
AEBC
  8
0
 62
     0
 10
418.02848644620912
 20
541.41819731545183
 30
0.0
 11
418.02848644620912
 21
538.77819731545162
 31
0.0
  0
LINE
  5
AEBD
  8
0
 62
     0
 10
416.26848644620912
 20
540.92819731545183
 30
0.0
 11
418.02848644620912
 21
541.41819731545183
 31
0.0
  0
LINE
  5
AEBE
  8
0
 62
     0
 10
416.26848644620912
 20
540.92819731545183
 30
0.0
 11
416.26848644620912
 21
539.32819731545158
 31
0.0
  0
LINE
  5
AEBF
  8
0
 62
     0
 10
417.44015544620908
 20
470.08891731545179
 30
0.0
 11
416.40852644620918
 21
461.2701563154518
 31
0.0
  0
LINE
  5
AEC0
  8
0
 62
     0
 10
416.37326944620901
 20
463.79735031545181
 30
0.0
 11
417.42822644620918
 21
473.22433731545181
 31
0.0
  0
LINE
  5
AEC1
  8
0
 62
     0
 10
416.40033944620899
 20
467.79820631545181
 30
0.0
 11
417.4992514462092
 21
478.19238031545171
 31
0.0
  0
LINE
  5
AEC2
  8
0
 62
     0
 10
417.55019244620911
 20
484.7290003154518
 30
0.0
 11
416.42491144620919
 21
473.24971631545162
 31
0.0
  0
LINE
  5
AEC3
  8
0
 62
     0
 10
417.5913594462092
 20
492.13874231545162
 30
0.0
 11
416.35864244620899
 21
479.16808131545179
 31
0.0
  0
LINE
  5
AEC4
  8
0
 62
     0
 10
417.50027844620899
 20
468.9525893154518
 30
0.0
 11
416.42824544620908
 21
460.07201131545162
 31
0.0
  0
LINE
  5
AEC5
  8
0
 62
     0
 10
416.26848644620912
 20
529.92819731545183
 30
0.0
 11
416.26848644620912
 21
528.3281973154518
 31
0.0
  0
LINE
  5
AEC6
  8
0
 62
     0
 10
416.26848644620912
 20
529.92819731545183
 30
0.0
 11
418.02848644620912
 21
530.41819731545183
 31
0.0
  0
LINE
  5
AEC7
  8
0
 62
     0
 10
418.02848644620912
 20
530.41819731545183
 30
0.0
 11
418.02848644620912
 21
527.77819731545162
 31
0.0
  0
LINE
  5
AEC8
  8
0
 62
     0
 10
418.02848644620912
 20
527.77819731545162
 30
0.0
 11
416.26848644620912
 21
528.3281973154518
 31
0.0
  0
LINE
  5
AEC9
  8
0
 62
     0
 10
416.26848644620912
 20
584.92819731545171
 30
0.0
 11
416.26848644620912
 21
583.32819731545169
 31
0.0
  0
LINE
  5
AECA
  8
0
 62
     0
 10
416.26848644620912
 20
584.92819731545171
 30
0.0
 11
418.02848644620912
 21
585.41819731545172
 31
0.0
  0
LINE
  5
AECB
  8
0
 62
     0
 10
418.02848644620912
 20
585.41819731545172
 30
0.0
 11
418.02848644620912
 21
582.77819731545173
 31
0.0
  0
LINE
  5
AECC
  8
0
 62
     0
 10
418.02848644620912
 20
582.77819731545173
 30
0.0
 11
416.26848644620912
 21
583.32819731545169
 31
0.0
  0
LINE
  5
AECD
  8
0
 62
     0
 10
367.98536244620908
 20
582.77819731545173
 30
0.0
 11
367.98536244620908
 21
574.41819731545172
 31
0.0
  0
LINE
  5
AECE
  8
0
 62
     0
 10
384.02848544620917
 20
582.77819731545173
 30
0.0
 11
384.02848544620917
 21
574.41819731545172
 31
0.0
  0
LINE
  5
AECF
  8
0
 62
     0
 10
384.02848544620917
 20
571.77819731545173
 30
0.0
 11
384.02848544620917
 21
563.41819731545172
 31
0.0
  0
LINE
  5
AED0
  8
0
 62
     0
 10
367.98536244620908
 20
571.77819731545173
 30
0.0
 11
367.98536244620908
 21
563.41819731545172
 31
0.0
  0
LINE
  5
AED1
  8
0
 62
     0
 10
367.98536244620908
 20
560.77819731545162
 30
0.0
 11
367.98536244620908
 21
552.41819731545183
 31
0.0
  0
LINE
  5
AED2
  8
0
 62
     0
 10
384.02848544620917
 20
560.77819731545162
 30
0.0
 11
384.02848544620917
 21
552.41819731545183
 31
0.0
  0
LINE
  5
AED3
  8
0
 62
     0
 10
384.02848544620917
 20
549.77819731545151
 30
0.0
 11
384.02848544620917
 21
541.41819731545183
 31
0.0
  0
LINE
  5
AED4
  8
0
 62
     0
 10
367.98536244620908
 20
549.77819731545151
 30
0.0
 11
367.98536244620908
 21
541.41819731545183
 31
0.0
  0
LINE
  5
AED5
  8
0
 62
     0
 10
367.98536244620908
 20
538.77819731545162
 30
0.0
 11
367.98536244620908
 21
530.41819731545183
 31
0.0
  0
LINE
  5
AED6
  8
0
 62
     0
 10
384.02848544620917
 20
538.77819731545162
 30
0.0
 11
384.02848544620917
 21
530.41819731545183
 31
0.0
  0
LINE
  5
AED7
  8
0
 62
     0
 10
384.02848544620917
 20
527.77819731545162
 30
0.0
 11
384.02848544620917
 21
511.98975131545171
 31
0.0
  0
LINE
  5
AED8
  8
0
 62
     0
 10
367.98536244620908
 20
527.77819731545162
 30
0.0
 11
367.98536244620908
 21
496.47312831545179
 31
0.0
  0
LINE
  5
AED9
  8
0
 62
     0
 10
417.5913594462092
 20
492.13874231545162
 30
0.0
 11
384.02848544620917
 21
492.13874231545162
 31
0.0
  0
LINE
  5
AEDA
  8
0
 62
     0
 10
417.55019244620911
 20
484.7290003154518
 30
0.0
 11
416.8871464462091
 21
484.7290003154518
 31
0.0
  0
ARC
  5
AEDB
  8
0
 62
     0
 10
414.36761444620919
 20
479.35730631545158
 30
0.0
 40
2.0
 50
270.0
 51
354.57098099999791
  0
ARC
  5
AEDC
  8
0
 62
     0
 10
414.43445244620898
 20
473.4448353154516
 30
0.0
 40
2.0
 50
270.0
 51
354.40134700000101
  0
ARC
  5
AEDD
  8
0
 62
     0
 10
414.41142444620903
 20
468.0084823154516
 30
0.0
 40
2.0
 50
270.0
 51
353.96488600000038
  0
ARC
  5
AEDE
  8
0
 62
     0
 10
414.38567644620912
 20
464.01977731545162
 30
0.0
 40
2.0
 50
270.0
 51
353.61470099999991
  0
ARC
  5
AEDF
  8
0
 62
     0
 10
414.42207244620897
 20
461.50253431545178
 30
0.0
 40
2.0
 50
270.0
 51
353.32779999999809
  0
ARC
  5
AEE0
  8
0
 62
     0
 10
414.44266144620917
 20
460.31170431545178
 30
0.0
 40
2.0
 50
270.0
 51
353.11676000000142
  0
LINE
  5
AEE1
  8
0
 62
     0
 10
417.4992514462092
 20
478.19238031545171
 30
0.0
 11
416.90942644620912
 21
478.19238031545171
 31
0.0
  0
LINE
  5
AEE2
  8
0
 62
     0
 10
417.42822644620918
 20
473.22433731545181
 30
0.0
 11
416.97401144620909
 21
473.22433731545181
 31
0.0
  0
LINE
  5
AEE3
  8
0
 62
     0
 10
417.44015544620908
 20
470.08891731545179
 30
0.0
 11
417.0773474462091
 21
470.08891731545179
 31
0.0
  0
LINE
  5
AEE4
  8
0
 62
     0
 10
417.50027844620899
 20
468.9525893154518
 30
0.0
 11
417.30722644620897
 21
468.9525893154518
 31
0.0
  0
LINE
  5
AEE5
  8
0
 62
     0
 10
420.02848644620917
 20
516.87549131545177
 30
0.0
 11
403.52848644620917
 21
516.87549131545177
 31
0.0
  0
LINE
  5
AEE6
  8
0
 62
     0
 10
423.02848644620912
 20
506.69619931545162
 30
0.0
 11
405.52848644620912
 21
506.69619931545162
 31
0.0
  0
LINE
  5
AEE7
  8
0
 62
     0
 10
423.02848644620912
 20
494.40891831545179
 30
0.0
 11
405.52848644620912
 21
494.40891831545179
 31
0.0
  0
LINE
  5
AEE8
  8
0
 62
     0
 10
403.52848644620917
 20
515.87549131545165
 30
0.0
 11
403.52848644620917
 21
496.40891831545161
 31
0.0
  0
LINE
  5
AEE9
  8
0
 62
     0
 10
420.02848644620917
 20
516.87549131545177
 30
0.0
 11
423.02848644620912
 21
518.60754231545184
 31
0.0
  0
ARC
  5
AEEA
  8
0
 62
     0
 10
405.52848644620912
 20
508.69619931545179
 30
0.0
 40
2.0
 50
180.0
 51
270.0
  0
ARC
  5
AEEB
  8
0
 62
     0
 10
405.52848644620912
 20
496.40891831545161
 30
0.0
 40
2.0
 50
180.0
 51
270.0
  0
ARC
  5
AEEC
  8
0
 62
     0
 10
405.52848644620912
 20
504.69619931545179
 30
0.0
 40
2.0
 50
90.0
 51
180.0
  0
LINE
  5
AEED
  8
0
 62
     0
 10
384.02848544620917
 20
500.57740131545182
 30
0.0
 11
384.02848544620917
 21
492.13874231545162
 31
0.0
  0
LINE
  5
AEEE
  8
0
 62
     0
 10
367.98536244620908
 20
496.47312831545179
 30
0.0
 11
384.02848544620917
 21
492.13874231545162
 31
0.0
  0
ARC
  5
AEEF
  8
0
 62
     0
 10
402.52848644620917
 20
515.87549131545165
 30
0.0
 40
1.0
 50
0.0
 51
90.0
  0
LINE
  5
AEF0
  8
0
 62
     0
 10
367.98536244620908
 20
496.47312831545179
 30
0.0
 11
316.02848644620917
 21
496.47312831545179
 31
0.0
  0
LINE
  5
AEF1
  8
0
 62
     0
 10
414.44266144620917
 20
458.31170431545161
 30
0.0
 11
222.55721944620919
 21
458.31170431545161
 31
0.0
  0
LINE
  5
AEF2
  8
0
 62
     0
 10
414.42207244620897
 20
459.50253431545161
 30
0.0
 11
222.56815944620919
 21
459.50253431545161
 31
0.0
  0
LINE
  5
AEF3
  8
0
 62
     0
 10
414.38567644620912
 20
462.01977731545179
 30
0.0
 11
222.5774234462092
 21
462.01977731545179
 31
0.0
  0
LINE
  5
AEF4
  8
0
 62
     0
 10
414.41142444620903
 20
466.00848231545177
 30
0.0
 11
222.58937244620921
 21
466.00848231545177
 31
0.0
  0
LINE
  5
AEF5
  8
0
 62
     0
 10
414.43445244620898
 20
471.44483531545183
 30
0.0
 11
222.60713644620921
 21
471.44483531545183
 31
0.0
  0
LINE
  5
AEF6
  8
0
 62
     0
 10
414.36761444620919
 20
477.35730631545158
 30
0.0
 11
222.61280444620911
 21
477.35730631545158
 31
0.0
  0
LINE
  5
AEF7
  8
0
 62
     0
 10
367.98536244620908
 20
630.43567231545171
 30
0.0
 11
367.98536244620908
 21
616.45819731545168
 31
0.0
  0
LINE
  5
AEF8
  8
0
 62
     0
 10
384.02848544620917
 20
635.03553431545174
 30
0.0
 11
384.02848544620917
 21
632.45098431545159
 31
0.0
  0
LINE
  5
AEF9
  8
0
 62
     0
 10
360.82609844620907
 20
585.41819731545172
 30
0.0
 11
418.02848644620912
 21
585.41819731545172
 31
0.0
  0
LINE
  5
AEFA
  8
0
 62
     0
 10
360.8496164462091
 20
584.92819731545171
 30
0.0
 11
416.26848644620912
 21
584.92819731545171
 31
0.0
  0
LINE
  5
AEFB
  8
0
 62
     0
 10
360.92258244620922
 20
583.32819731545169
 30
0.0
 11
416.26848644620912
 21
583.32819731545169
 31
0.0
  0
LINE
  5
AEFC
  8
0
 62
     0
 10
360.92258244620922
 20
582.77819731545173
 30
0.0
 11
418.02848644620912
 21
582.77819731545173
 31
0.0
  0
LINE
  5
AEFD
  8
0
 62
     0
 10
360.96710444620919
 20
530.41819731545183
 30
0.0
 11
418.02848644620912
 21
530.41819731545183
 31
0.0
  0
LINE
  5
AEFE
  8
0
 62
     0
 10
360.94570344620911
 20
529.92819731545183
 30
0.0
 11
416.26848644620912
 21
529.92819731545183
 31
0.0
  0
LINE
  5
AEFF
  8
0
 62
     0
 10
360.8730294462091
 20
528.3281973154518
 30
0.0
 11
416.26848644620912
 21
528.3281973154518
 31
0.0
  0
LINE
  5
AF00
  8
0
 62
     0
 10
360.84706044620918
 20
527.77819731545162
 30
0.0
 11
418.02848644620912
 21
527.77819731545162
 31
0.0
  0
LINE
  5
AF01
  8
0
 62
     0
 10
361.51238244620919
 20
560.77819731545162
 30
0.0
 11
418.02848644620912
 21
560.77819731545162
 31
0.0
  0
LINE
  5
AF02
  8
0
 62
     0
 10
361.50810244620908
 20
561.3281973154518
 30
0.0
 11
416.26848644620912
 21
561.3281973154518
 31
0.0
  0
LINE
  5
AF03
  8
0
 62
     0
 10
361.3420964462091
 20
541.41819731545183
 30
0.0
 11
418.02848644620912
 21
541.41819731545183
 31
0.0
  0
LINE
  5
AF04
  8
0
 62
     0
 10
361.32968644620922
 20
540.92819731545183
 30
0.0
 11
416.26848644620912
 21
540.92819731545183
 31
0.0
  0
LINE
  5
AF05
  8
0
 62
     0
 10
361.28637544620909
 20
539.32819731545158
 30
0.0
 11
416.26848644620912
 21
539.32819731545158
 31
0.0
  0
LINE
  5
AF06
  8
0
 62
     0
 10
361.27050144620921
 20
538.77819731545162
 30
0.0
 11
418.02848644620912
 21
538.77819731545162
 31
0.0
  0
LINE
  5
AF07
  8
0
 62
     0
 10
361.51541944620919
 20
552.41819731545183
 30
0.0
 11
418.02848644620912
 21
552.41819731545183
 31
0.0
  0
LINE
  5
AF08
  8
0
 62
     0
 10
361.5119874462091
 20
551.92819731545183
 30
0.0
 11
416.26848644620912
 21
551.92819731545183
 31
0.0
  0
LINE
  5
AF09
  8
0
 62
     0
 10
361.49799544620919
 20
550.3281973154518
 30
0.0
 11
416.26848644620912
 21
550.3281973154518
 31
0.0
  0
LINE
  5
AF0A
  8
0
 62
     0
 10
361.49220144620932
 20
549.77819731545151
 30
0.0
 11
418.02848644620912
 21
549.77819731545151
 31
0.0
  0
LINE
  5
AF0B
  8
0
 62
     0
 10
361.27207344620911
 20
574.41819731545172
 30
0.0
 11
418.02848644620912
 21
574.41819731545172
 31
0.0
  0
LINE
  5
AF0C
  8
0
 62
     0
 10
361.27207344620911
 20
573.92819731545171
 30
0.0
 11
416.26848644620912
 21
573.92819731545171
 31
0.0
  0
LINE
  5
AF0D
  8
0
 62
     0
 10
361.31670744620919
 20
572.32819731545169
 30
0.0
 11
416.26848644620912
 21
572.32819731545169
 31
0.0
  0
LINE
  5
AF0E
  8
0
 62
     0
 10
361.33106544620921
 20
571.77819731545173
 30
0.0
 11
418.02848644620912
 21
571.77819731545173
 31
0.0
  0
LINE
  5
AF0F
  8
0
 62
     0
 10
361.4872464462091
 20
563.41819731545172
 30
0.0
 11
418.02848644620912
 21
563.41819731545172
 31
0.0
  0
LINE
  5
AF10
  8
0
 62
     0
 10
361.4927894462092
 20
562.92819731545183
 30
0.0
 11
416.26848644620912
 21
562.92819731545183
 31
0.0
  0
LINE
  5
AF11
  8
0
 62
     0
 10
420.02848644620917
 20
468.59819731545161
 30
0.0
 11
420.02848644620917
 21
494.40891831545179
 31
0.0
  0
LINE
  5
AF12
  8
0
 62
     0
 10
417.45749744620917
 20
468.59819731545161
 30
0.0
 11
420.02848644620917
 21
468.59819731545161
 31
0.0
  0
LINE
  5
AF13
  8
0
 62
     0
 10
418.02848644620912
 20
616.45819731545168
 30
0.0
 11
416.26848644620912
 21
615.89819731545174
 31
0.0
  0
LINE
  5
AF14
  8
0
 62
     0
 10
416.26848644620912
 20
614.29819731545172
 30
0.0
 11
418.02848644620912
 21
613.75819731545175
 31
0.0
  0
LINE
  5
AF15
  8
0
 62
     0
 10
418.02848644620912
 20
613.75819731545175
 30
0.0
 11
418.02848644620912
 21
616.45819731545168
 31
0.0
  0
LINE
  5
AF16
  8
0
 62
     0
 10
416.26848644620912
 20
614.29819731545172
 30
0.0
 11
416.26848644620912
 21
615.89819731545174
 31
0.0
  0
LINE
  5
AF17
  8
0
 62
     0
 10
418.02848644620912
 20
608.41319731545173
 30
0.0
 11
416.26848644620912
 21
607.87319731545176
 31
0.0
  0
LINE
  5
AF18
  8
0
 62
     0
 10
416.26848644620912
 20
606.27319731545185
 30
0.0
 11
418.02848644620912
 21
605.78319731545173
 31
0.0
  0
LINE
  5
AF19
  8
0
 62
     0
 10
416.26848644620912
 20
606.27319731545185
 30
0.0
 11
416.26848644620912
 21
607.87319731545176
 31
0.0
  0
LINE
  5
AF1A
  8
0
 62
     0
 10
418.02848644620912
 20
605.78319731545173
 30
0.0
 11
418.02848644620912
 21
608.41319731545173
 31
0.0
  0
LINE
  5
AF1B
  8
0
 62
     0
 10
353.02848644620917
 20
616.72238431545168
 30
0.0
 11
351.40657744620921
 21
633.78812731545167
 31
0.0
  0
LINE
  5
AF1C
  8
0
 62
     0
 10
353.02848644620917
 20
623.26332031545167
 30
0.0
 11
351.40796344620912
 21
639.79468831545171
 31
0.0
  0
LINE
  5
AF1D
  8
0
 62
     0
 10
220.2931654462092
 20
630.43567231545171
 30
0.0
 11
219.0284864462092
 21
630.43567231545171
 31
0.0
  0
LINE
  5
AF1E
  8
0
 62
     0
 10
219.0284864462092
 20
616.45819731545168
 30
0.0
 11
220.78848644620919
 21
615.89819731545174
 31
0.0
  0
LINE
  5
AF1F
  8
0
 62
     0
 10
220.78848644620919
 20
614.29819731545172
 30
0.0
 11
219.0284864462092
 21
613.75819731545175
 31
0.0
  0
LINE
  5
AF20
  8
0
 62
     0
 10
219.0284864462092
 20
608.41319731545173
 30
0.0
 11
220.78848644620919
 21
607.87319731545176
 31
0.0
  0
LINE
  5
AF21
  8
0
 62
     0
 10
220.78848644620919
 20
606.27319731545185
 30
0.0
 11
219.0284864462092
 21
605.78319731545173
 31
0.0
  0
LINE
  5
AF22
  8
0
 62
     0
 10
219.0284864462092
 20
613.75819731545175
 30
0.0
 11
219.0284864462092
 21
616.45819731545168
 31
0.0
  0
LINE
  5
AF23
  8
0
 62
     0
 10
220.78848644620919
 20
614.29819731545172
 30
0.0
 11
220.78848644620919
 21
615.89819731545174
 31
0.0
  0
LINE
  5
AF24
  8
0
 62
     0
 10
220.78848644620919
 20
606.27319731545185
 30
0.0
 11
220.78848644620919
 21
607.87319731545176
 31
0.0
  0
LINE
  5
AF25
  8
0
 62
     0
 10
219.0284864462092
 20
605.78319731545173
 30
0.0
 11
219.0284864462092
 21
608.41319731545173
 31
0.0
  0
LINE
  5
AF26
  8
0
 62
     0
 10
219.0284864462092
 20
595.31763231545165
 30
0.0
 11
271.79197344620923
 21
595.31763231545165
 31
0.0
  0
LINE
  5
AF27
  8
0
 62
     0
 10
227.3984864462092
 20
594.46585931545167
 30
0.0
 11
271.73724344620922
 21
594.46585931545167
 31
0.0
  0
LINE
  5
AF28
  8
0
 62
     0
 10
219.0284864462092
 20
595.31763231545165
 30
0.0
 11
227.3984864462092
 21
594.46585931545167
 31
0.0
  0
LINE
  5
AF29
  8
0
 62
     0
 10
225.70359244620909
 20
517.87876231545181
 30
0.0
 11
271.76377744620908
 21
517.87876231545181
 31
0.0
  0
LINE
  5
AF2A
  8
0
 62
     0
 10
227.3984864462092
 20
518.73053531545179
 30
0.0
 11
271.7096704462092
 21
518.73053531545179
 31
0.0
  0
LINE
  5
AF2B
  8
0
 62
     0
 10
219.0284864462092
 20
522.23940831545178
 30
0.0
 11
219.0284864462092
 21
595.31763231545165
 31
0.0
  0
LINE
  5
AF2C
  8
0
 62
     0
 10
219.0284864462092
 20
522.23940831545178
 30
0.0
 11
224.4916624462092
 21
518.43472231545184
 31
0.0
  0
LINE
  5
AF2D
  8
0
 62
     0
 10
224.4916624462092
 20
518.43472231545184
 30
0.0
 11
225.70359244620909
 21
517.87876231545181
 31
0.0
  0
LINE
  5
AF2E
  8
0
 62
     0
 10
224.4916624462092
 20
518.43472231545184
 30
0.0
 11
227.3984864462092
 21
518.73053531545179
 31
0.0
  0
LINE
  5
AF2F
  8
0
 62
     0
 10
227.3984864462092
 20
518.73053531545179
 30
0.0
 11
227.3984864462092
 21
594.46585931545167
 31
0.0
  0
LINE
  5
AF30
  8
0
 62
     0
 10
215.5284864462092
 20
640.21849431545172
 30
0.0
 11
219.30524544620911
 21
640.21849431545172
 31
0.0
  0
LINE
  5
AF31
  8
0
 62
     0
 10
305.02848644620917
 20
657.59819731545178
 30
0.0
 11
327.02848644620917
 21
657.59819731545178
 31
0.0
  0
LINE
  5
AF32
  8
0
 62
     0
 10
305.02848644620917
 20
657.59819731545178
 30
0.0
 11
305.02848644620917
 21
653.69491631545179
 31
0.0
  0
LINE
  5
AF33
  8
0
 62
     0
 10
327.02848644620917
 20
657.59819731545178
 30
0.0
 11
327.02848644620917
 21
653.69491631545179
 31
0.0
  0
LINE
  5
AF34
  8
0
 62
     0
 10
220.78848644620919
 20
614.29819731545172
 30
0.0
 11
416.26848644620912
 21
614.29819731545172
 31
0.0
  0
LINE
  5
AF35
  8
0
 62
     0
 10
220.78848644620919
 20
615.89819731545174
 30
0.0
 11
416.26848644620912
 21
615.89819731545174
 31
0.0
  0
LINE
  5
AF36
  8
0
 62
     0
 10
219.0284864462092
 20
613.75819731545175
 30
0.0
 11
418.02848644620912
 21
613.75819731545175
 31
0.0
  0
LINE
  5
AF37
  8
0
 62
     0
 10
219.0284864462092
 20
616.45819731545168
 30
0.0
 11
418.02848644620912
 21
616.45819731545168
 31
0.0
  0
LINE
  5
AF38
  8
0
 62
     0
 10
219.0284864462092
 20
605.78319731545173
 30
0.0
 11
272.88015344620919
 21
605.78319731545173
 31
0.0
  0
LINE
  5
AF39
  8
0
 62
     0
 10
219.0284864462092
 20
608.41319731545173
 30
0.0
 11
274.8901024462092
 21
608.41319731545173
 31
0.0
  0
LINE
  5
AF3A
  8
0
 62
     0
 10
220.78848644620919
 20
606.27319731545185
 30
0.0
 11
273.11091044620918
 21
606.27319731545185
 31
0.0
  0
LINE
  5
AF3B
  8
0
 62
     0
 10
220.78848644620919
 20
607.87319731545176
 30
0.0
 11
274.28231244620918
 21
607.87319731545176
 31
0.0
  0
LINE
  5
AF3C
  8
0
 62
     0
 10
423.02848644620912
 20
471.59819731545178
 30
0.0
 11
420.02848644620917
 21
468.59819731545161
 31
0.0
  0
LINE
  5
AF3D
  8
0
 62
     0
 10
423.02848644620912
 20
471.59819731545178
 30
0.0
 11
423.02848644620912
 21
641.59819731545178
 31
0.0
  0
LINE
  5
AF3E
  8
0
 62
     0
 10
423.02848644620912
 20
641.59819731545178
 30
0.0
 11
420.02848644620917
 21
644.59819731545167
 31
0.0
  0
LINE
  5
B3BA
  8
0
 62
     0
 10
144.52848644620909
 20
455.3981973154518
 30
0.0
 11
215.5284864462092
 21
455.3981973154518
 31
0.0
  0
LINE
  5
B9CA
  8
0
  6
AM_ISO08W050
 62
     0
 10
116.8106519778711
 20
1105.37198224392
 30
0.0
 11
907.35147644620929
 21
1105.37198224392
 31
0.0
  0
LINE
  5
BA20
  8
0
  6
CONTINUOUS
 62
     0
 10
456.52857644621042
 20
1199.315842243919
 30
0.0
 11
456.52857644621042
 21
1011.42813224392
 31
0.0
  0
LINE
  5
BA21
  8
0
  6
CONTINUOUS
 62
     0
 10
451.70297644620928
 20
1020.370642243919
 30
0.0
 11
423.02857644620929
 21
1021.37198224392
 31
0.0
  0
LINE
  5
BA22
  8
0
  6
CONTINUOUS
 62
     0
 10
451.70297644620928
 20
1190.3733422439191
 30
0.0
 11
423.02857644620929
 21
1189.371942243919
 31
0.0
  0
LINE
  5
BA28
  8
0
  6
CONTINUOUS
 62
     0
 10
423.02857644620929
 20
1021.37198224392
 30
0.0
 11
423.02857644620929
 21
1189.371942243919
 31
0.0
  0
LINE
  5
BA2D
  8
0
  6
CONTINUOUS
 62
     0
 10
459.81837644621129
 20
1204.014342243918
 30
0.0
 11
482.23857644621108
 21
1212.1746422439189
 31
0.0
  0
LINE
  5
BA2E
  8
0
  6
CONTINUOUS
 62
     0
 10
459.81847644620899
 20
1006.729712243919
 30
0.0
 11
482.23857644621108
 21
998.56943224391944
 31
0.0
  0
ARC
  5
BA76
  8
0
  6
CONTINUOUS
 62
     0
 10
480.52857644621042
 20
1216.8730422439189
 30
0.0
 40
5.0
 50
289.9999999999892
 51
0.0
  0
ARC
  5
BA77
  8
0
  6
CONTINUOUS
 62
     0
 10
461.52857644620951
 20
1199.315842243919
 30
0.0
 40
5.0
 50
109.9999999999892
 51
180.000010000001
  0
ARC
  5
BA78
  8
0
  6
CONTINUOUS
 62
     0
 10
480.52857644621042
 20
993.87094224391967
 30
0.0
 40
5.0
 50
0.0
 51
70.000000000010758
  0
ARC
  5
BA79
  8
0
  6
CONTINUOUS
 62
     0
 10
461.52857644620951
 20
1011.42813224392
 30
0.0
 40
5.0
 50
179.999989999999
 51
250.0000000000108
  0
ARC
  5
BA7B
  8
0
  6
CONTINUOUS
 62
     0
 10
451.52857644621128
 20
1195.3702422439189
 30
0.0
 40
5.0
 50
272.00000000000352
 51
0.0
  0
ARC
  5
BA81
  8
0
  6
CONTINUOUS
 62
     0
 10
451.52857644621128
 20
1015.37369224392
 30
0.0
 40
5.0
 50
0.0
 51
87.999999999996476
  0
LINE
  5
BA82
  8
0
 62
     0
 10
353.52851544620933
 20
1000.3719622439201
 30
0.0
 11
353.52851544620933
 21
1003.3719622439201
 31
0.0
  0
LINE
  5
BA83
  8
0
 62
     0
 10
278.52851544620933
 20
1000.3719622439201
 30
0.0
 11
278.52851544620933
 21
1003.3719622439201
 31
0.0
  0
LINE
  5
BA84
  8
0
 62
     0
 10
353.01251544620919
 20
944.91188224391965
 30
0.0
 11
279.04547544620959
 21
944.91188224391965
 31
0.0
  0
LINE
  5
BA85
  8
0
 62
     0
 10
353.17841544620921
 20
992.18397224392004
 30
0.0
 11
278.6384954462095
 21
992.18397224392004
 31
0.0
  0
LINE
  5
BA86
  8
0
 62
     0
 10
354.5734354462096
 20
995.15297224391998
 30
0.0
 11
277.58344544620962
 21
995.15297224391998
 31
0.0
  0
LINE
  5
BA87
  8
0
 62
     0
 10
354.36444544620952
 20
999.61391224392014
 30
0.0
 11
277.6664554462094
 21
999.61391224392014
 31
0.0
  0
LINE
  5
BA88
  8
0
 62
     0
 10
353.77851544620933
 20
1000.3719622439201
 30
0.0
 11
278.26381844620931
 21
1000.3719622439201
 31
0.0
  0
LINE
  5
BA89
  8
0
 62
     0
 10
278.65851544620938
 20
960.81398224391967
 30
0.0
 11
353.6384954462095
 21
960.81398224391967
 31
0.0
  0
ARC
  5
BA8A
  8
0
 62
     0
 10
-239.07151455379051
 20
970.78688224391965
 30
0.0
 40
600.59997999999973
 50
357.90661999999458
 51
2.5214029999981382
  0
ARC
  5
BA8B
  8
0
 62
     0
 10
353.01251544620919
 20
948.51198224391965
 30
0.0
 40
3.6000000000000001
 50
269.99995999999589
 51
355.68894999999969
  0
ARC
  5
BA8C
  8
0
 62
     0
 10
-239.07151455379051
 20
970.78688224391965
 30
0.0
 40
596.09997999999973
 50
357.83251999999328
 51
1.945678999999225
  0
ARC
  5
BA8D
  8
0
 62
     0
 10
353.77851544620933
 20
996.77199224391995
 30
0.0
 40
3.6000000000000001
 50
53.34059100000168
 51
89.999989000004106
  0
ARC
  5
BA8E
  8
0
 62
     0
 10
355.38349544620939
 20
987.70998224391997
 30
0.0
 40
7.4984399999999969
 50
40.106594000003419
 51
96.966986999996863
  0
ARC
  5
BA8F
  8
0
 62
     0
 10
355.38349544620939
 20
992.18092224392001
 30
0.0
 40
7.4984399999999969
 50
42.099393999997339
 51
96.966986999996863
  0
ARC
  5
BA90
  8
0
 62
     0
 10
353.97540544620949
 20
988.48195224391964
 30
0.0
 40
3.7436899999999982
 50
43.772794000001099
 51
98.86098400000941
  0
ARC
  5
BA91
  8
0
 62
     0
 10
353.97540544620949
 20
957.11488224391996
 30
0.0
 40
3.7436899999999982
 50
43.772794000001099
 51
98.86098400000941
  0
ARC
  5
BA92
  8
0
 62
     0
 10
356.46649544620948
 20
952.20290224391965
 30
0.0
 40
5.7431099999999971
 50
265.1789600000053
 51
324.2509500000005
  0
ARC
  5
BA93
  8
0
 62
     0
 10
871.12845544620939
 20
970.78688224391965
 30
0.0
 40
600.59997999999973
 50
177.4789700000027
 51
182.0929499999929
  0
ARC
  5
BA94
  8
0
 62
     0
 10
279.04547544620959
 20
948.51198224391965
 30
0.0
 40
3.6000000000000001
 50
184.31098
 51
269.99995999999589
  0
ARC
  5
BA95
  8
0
 62
     0
 10
871.12845544620939
 20
970.78688224391965
 30
0.0
 40
596.09997999999973
 50
178.05396999999269
 51
182.16694999999501
  0
ARC
  5
BA96
  8
0
 62
     0
 10
278.27851544620933
 20
996.77199224391995
 30
0.0
 40
3.6000000000000001
 50
89.999989000004106
 51
126.65899000000211
  0
ARC
  5
BA97
  8
0
 62
     0
 10
276.67353544620971
 20
987.70998224391997
 30
0.0
 40
7.4984399999999969
 50
83.032990999994595
 51
139.89297999998959
  0
ARC
  5
BA98
  8
0
 62
     0
 10
276.67353544620971
 20
992.18092224392001
 30
0.0
 40
7.4984399999999969
 50
83.032990999994595
 51
137.90098999999981
  0
ARC
  5
BA99
  8
0
 62
     0
 10
278.08148544620951
 20
988.48195224391964
 30
0.0
 40
3.7436899999999982
 50
81.138986000011414
 51
136.22698000000389
  0
ARC
  5
BA9A
  8
0
 62
     0
 10
278.08148544620951
 20
957.11488224391996
 30
0.0
 40
3.7436899999999982
 50
81.138986000011414
 51
136.22698000000389
  0
ARC
  5
BA9B
  8
0
 62
     0
 10
275.59052544620943
 20
952.20290224391965
 30
0.0
 40
5.7431099999999971
 50
215.7489699999997
 51
274.82095999999348
  0
LINE
  5
BA9C
  8
0
 62
     0
 10
278.52851544620933
 20
1003.3719622439201
 30
0.0
 11
353.52851544620933
 21
1003.3719622439201
 31
0.0
  0
ARC
  5
BA9D
  8
0
 62
     0
 10
144.9285764462096
 20
1019.874588243919
 30
0.0
 40
2.399999999999999
 50
180.0
 51
200.00000000000369
  0
ARC
  5
BA9E
  8
0
 62
     0
 10
149.52304044620939
 20
1007.25140324392
 30
0.0
 40
2.399999999999999
 50
200.00000000000369
 51
270.0
  0
LINE
  5
BA9F
  8
0
 62
     0
 10
147.26777744620941
 20
1006.43055524392
 30
0.0
 11
142.6733144462095
 21
1019.053740243919
 31
0.0
  0
LINE
  5
BAA0
  8
0
 62
     0
 10
215.52857644620951
 20
1004.85140324392
 30
0.0
 11
149.52304044620939
 21
1004.85140324392
 31
0.0
  0
LINE
  5
BAA1
  8
0
 62
     0
 10
215.52857644620951
 20
1205.8925212439201
 30
0.0
 11
215.52857644620951
 21
1004.85140324392
 31
0.0
  0
LINE
  5
BAA2
  8
0
 62
     0
 10
147.26777744620941
 20
1204.3133692439201
 30
0.0
 11
142.6733144462095
 21
1191.6901842439199
 31
0.0
  0
ARC
  5
BAA3
  8
0
 62
     0
 10
149.52304044620939
 20
1203.49252124392
 30
0.0
 40
2.399999999999999
 50
90.0
 51
159.99999999999631
  0
ARC
  5
BAA4
  8
0
 62
     0
 10
144.9285764462096
 20
1190.869336243919
 30
0.0
 40
2.399999999999999
 50
159.99999999999631
 51
180.0
  0
LINE
  5
BAA5
  8
0
 62
     0
 10
147.84254144620979
 20
1205.20597524392
 30
0.0
 11
147.84254144620979
 21
1004.85140324392
 31
0.0
  0
LINE
  5
BAA6
  8
0
 62
     0
 10
142.52857644620951
 20
1190.869336243919
 30
0.0
 11
142.52857644620951
 21
1020.09252124392
 31
0.0
  0
LINE
  5
BAA7
  8
0
 62
     0
 10
215.52857644620951
 20
1205.8925212439201
 30
0.0
 11
149.52304044620939
 21
1205.8925212439201
 31
0.0
  0
ARC
  5
BAA8
  8
0
 62
     0
 10
223.97222044620949
 20
1022.97128224392
 30
0.0
 40
2.0
 50
190.000000000005
 51
270.0
  0
LINE
  5
BAA9
  8
0
 62
     0
 10
222.00260544620949
 20
1022.623986243919
 30
0.0
 11
219.02857644620951
 21
1039.4905402439199
 31
0.0
  0
LINE
  5
BAAA
  8
0
 62
     0
 10
219.02857644620951
 20
1039.4905402439199
 30
0.0
 11
220.0903154462093
 21
1039.4905402439199
 31
0.0
  0
LINE
  5
BAAB
  8
0
 62
     0
 10
417.49271744620938
 20
1191.544269243919
 30
0.0
 11
418.0285764462094
 21
1191.544269243919
 31
0.0
  0
LINE
  5
BAAC
  8
0
 62
     0
 10
417.75310844620958
 20
1193.106526243919
 30
0.0
 11
418.0285764462094
 21
1193.106526243919
 31
0.0
  0
LINE
  5
BAAD
  8
0
 62
     0
 10
419.70677544620952
 20
1017.372113243919
 30
0.0
 11
420.02857644620951
 21
1017.372113243919
 31
0.0
  0
LINE
  5
BAAE
  8
0
 62
     0
 10
415.84918144620929
 20
1022.21997624392
 30
0.0
 11
418.0285764462094
 21
1022.21997624392
 31
0.0
  0
LINE
  5
BAAF
  8
0
 62
     0
 10
416.85526444620962
 20
1034.3255462439199
 30
0.0
 11
418.0285764462094
 21
1034.3255462439199
 31
0.0
  0
LINE
  5
BAB0
  8
0
  6
AM_ISO08W050
 62
     0
 10
316.02857644620951
 20
997.7159972439199
 30
0.0
 11
316.02857644620951
 21
1006.89771324392
 31
0.0
  0
ARC
  5
BAB1
  8
0
 62
     0
 10
414.27145644620907
 20
1194.3802102439199
 30
0.0
 40
2.0
 50
10.00000000000502
 51
90.0
  0
ARC
  5
BAB2
  8
0
 62
     0
 10
414.3374734462094
 20
1197.92100924392
 30
0.0
 40
2.0
 50
10.00000000000502
 51
90.0
  0
ARC
  5
BAB3
  8
0
 62
     0
 10
414.42339144620962
 20
1200.47274624392
 30
0.0
 40
2.0
 50
10.00000000000502
 51
90.0
  0
ARC
  5
BAB4
  8
0
 62
     0
 10
414.45214044620911
 20
1201.8719622439201
 30
0.0
 40
2.0
 50
10.00000000000502
 51
90.0
  0
LINE
  5
BAB5
  8
0
 62
     0
 10
423.02857944620962
 20
1190.3719622439189
 30
0.0
 11
420.02857944620962
 21
1193.3719622439201
 31
0.0
  0
LINE
  5
BAB6
  8
0
 62
     0
 10
417.98177244620928
 20
1193.3719622439201
 30
0.0
 11
420.02857644620951
 21
1193.3719622439201
 31
0.0
  0
LINE
  5
BAB7
  8
0
 62
     0
 10
423.02857644620929
 20
1020.3719622439201
 30
0.0
 11
420.02857644620951
 21
1017.3719622439201
 31
0.0
  0
LINE
  5
BAB8
  8
0
 62
     0
 10
420.02857644620951
 20
1017.3719622439201
 30
0.0
 11
420.02857644620951
 21
1042.9923482439201
 31
0.0
  0
LINE
  5
BAB9
  8
0
 62
     0
 10
423.02857644620929
 20
1020.3719622439201
 30
0.0
 11
423.02857644620929
 21
1190.3719622439189
 31
0.0
  0
CIRCLE
  5
BABA
  8
0
 62
     0
 10
316.02857644620951
 20
1105.3719622439189
 30
0.0
 40
11.0
  0
LINE
  5
BABB
  8
0
 62
     0
 10
223.3146964462093
 20
1203.8719622439201
 30
0.0
 11
275.02857644620951
 21
1203.8719622439201
 31
0.0
  0
LINE
  5
BABC
  8
0
 62
     0
 10
355.02857644620951
 20
1196.3802102439199
 30
0.0
 11
355.02857644620951
 21
1201.8719622439201
 31
0.0
  0
LINE
  5
BABD
  8
0
 62
     0
 10
277.02857644620951
 20
1196.3802102439199
 30
0.0
 11
277.02857644620951
 21
1201.8719622439201
 31
0.0
  0
ARC
  5
BABE
  8
0
 62
     0
 10
275.02857644620951
 20
1201.8719622439201
 30
0.0
 40
2.0
 50
0.0
 51
90.0
  0
ARC
  5
BABF
  8
0
 62
     0
 10
357.02857644620951
 20
1201.8719622439201
 30
0.0
 40
2.0
 50
90.0
 51
180.0
  0
LINE
  5
BAC0
  8
0
 62
     0
 10
357.02857644620951
 20
1203.8719622439201
 30
0.0
 11
414.45214044620911
 21
1203.8719622439201
 31
0.0
  0
LINE
  5
BAC1
  8
0
 62
     0
 10
414.42339144620962
 20
1202.47274624392
 30
0.0
 11
357.02857644620951
 21
1202.47274624392
 31
0.0
  0
LINE
  5
BAC2
  8
0
 62
     0
 10
418.0285764462094
 20
1191.544269243919
 30
0.0
 11
416.39300744620931
 21
1200.8200422439199
 31
0.0
  0
LINE
  5
BAC3
  8
0
 62
     0
 10
418.0285764462094
 20
1193.106526243919
 30
0.0
 11
416.4217554462096
 21
1202.21925824392
 31
0.0
  0
LINE
  5
BAC4
  8
0
 62
     0
 10
219.02857644620951
 20
1189.08170824392
 30
0.0
 11
221.34508144620929
 21
1202.21925824392
 31
0.0
  0
ARC
  5
BAC5
  8
0
 62
     0
 10
223.3146964462093
 20
1201.8719622439201
 30
0.0
 40
2.0
 50
90.0
 51
169.99999999999491
  0
LINE
  5
BAC6
  8
0
 62
     0
 10
219.02857644620951
 20
1187.4226472439191
 30
0.0
 11
221.39089844620941
 21
1200.8200422439199
 31
0.0
  0
ARC
  5
BAC7
  8
0
 62
     0
 10
223.36051444620989
 20
1200.47274624392
 30
0.0
 40
2.0
 50
90.0
 51
169.99999999999491
  0
ARC
  5
BAC8
  8
0
 62
     0
 10
275.02857644620951
 20
1200.47274624392
 30
0.0
 40
2.0
 50
0.0
 51
90.0
  0
ARC
  5
BAC9
  8
0
 62
     0
 10
357.02857644620951
 20
1200.47274624392
 30
0.0
 40
2.0
 50
90.0
 51
180.0
  0
LINE
  5
BACA
  8
0
 62
     0
 10
275.02857644620951
 20
1202.47274624392
 30
0.0
 11
223.36051444620989
 21
1202.47274624392
 31
0.0
  0
LINE
  5
BACB
  8
0
 62
     0
 10
414.3374734462094
 20
1199.92100924392
 30
0.0
 11
357.02857644620951
 21
1199.92100924392
 31
0.0
  0
LINE
  5
BACC
  8
0
 62
     0
 10
417.89979644620939
 20
1189.235611243919
 30
0.0
 11
416.30708844620938
 21
1198.2683062439201
 31
0.0
  0
LINE
  5
BACD
  8
0
 62
     0
 10
219.02857644620951
 20
1184.20185624392
 30
0.0
 11
221.50887144620981
 21
1198.2683062439201
 31
0.0
  0
ARC
  5
BACE
  8
0
 62
     0
 10
223.4784864462093
 20
1197.92100924392
 30
0.0
 40
2.0
 50
90.0
 51
169.99999999999491
  0
ARC
  5
BACF
  8
0
 62
     0
 10
275.02857644620951
 20
1197.92100924392
 30
0.0
 40
2.0
 50
0.0
 51
90.0
  0
ARC
  5
BAD0
  8
0
 62
     0
 10
357.02857644620951
 20
1197.92100924392
 30
0.0
 40
2.0
 50
90.0
 51
180.0
  0
LINE
  5
BAD1
  8
0
 62
     0
 10
275.02857644620951
 20
1199.92100924392
 30
0.0
 11
223.4784864462093
 21
1199.92100924392
 31
0.0
  0
LINE
  5
BAD2
  8
0
 62
     0
 10
414.27145644620907
 20
1196.3802102439199
 30
0.0
 11
223.6399954462093
 21
1196.3802102439199
 31
0.0
  0
LINE
  5
BAD3
  8
0
 62
     0
 10
417.20944144620972
 20
1189.235611243919
 30
0.0
 11
416.24107244620961
 21
1194.7275062439189
 31
0.0
  0
LINE
  5
BAD4
  8
0
 62
     0
 10
219.02857644620951
 20
1179.7450962439191
 30
0.0
 11
221.67037944620949
 21
1194.7275062439189
 31
0.0
  0
ARC
  5
BAD5
  8
0
 62
     0
 10
223.6399954462093
 20
1194.3802102439199
 30
0.0
 40
2.0
 50
90.0
 51
169.99999999999491
  0
LINE
  5
BAD6
  8
0
 62
     0
 10
348.08493244620951
 20
1189.77264224392
 30
0.0
 11
223.97222044620949
 21
1189.77264224392
 31
0.0
  0
LINE
  5
BAD7
  8
0
 62
     0
 10
353.02857644620951
 20
1171.25338424392
 30
0.0
 11
350.0545474462096
 21
1188.1199382439199
 31
0.0
  0
ARC
  5
BAD8
  8
0
 62
     0
 10
348.08493244620951
 20
1187.77264224392
 30
0.0
 40
2.0
 50
10.00000000000502
 51
90.0
  0
LINE
  5
BAD9
  8
0
 62
     0
 10
219.02857644620951
 20
1171.25338424392
 30
0.0
 11
222.00260544620949
 21
1188.1199382439199
 31
0.0
  0
ARC
  5
BADA
  8
0
 62
     0
 10
223.97222044620949
 20
1187.77264224392
 30
0.0
 40
2.0
 50
90.0
 51
169.99999999999491
  0
LINE
  5
BADB
  8
0
 62
     0
 10
347.75466844620939
 20
1184.3705982439201
 30
0.0
 11
224.3024844462096
 21
1184.3705982439201
 31
0.0
  0
LINE
  5
BADC
  8
0
 62
     0
 10
352.80752544620952
 20
1165.23196224392
 30
0.0
 11
349.72428444620971
 21
1182.7178952439201
 31
0.0
  0
ARC
  5
BADD
  8
0
 62
     0
 10
347.75466844620939
 20
1182.3705982439201
 30
0.0
 40
2.0
 50
10.00000000000502
 51
90.0
  0
LINE
  5
BADE
  8
0
 62
     0
 10
219.30557044620929
 20
1165.54923024392
 30
0.0
 11
222.33286844620929
 21
1182.7178952439201
 31
0.0
  0
ARC
  5
BADF
  8
0
 62
     0
 10
224.3024844462096
 20
1182.3705982439201
 30
0.0
 40
2.0
 50
90.0
 51
169.99999999999491
  0
LINE
  5
BAE0
  8
0
 62
     0
 10
418.0285764462094
 20
1110.402114243919
 30
0.0
 11
418.0285764462094
 21
1113.3498062439189
 31
0.0
  0
LINE
  5
BAE1
  8
0
 62
     0
 10
418.0285764462094
 20
1120.4015902439201
 30
0.0
 11
418.0285764462094
 21
1123.3630692439201
 31
0.0
  0
LINE
  5
BAE2
  8
0
 62
     0
 10
418.0285764462094
 20
1131.39377024392
 30
0.0
 11
418.0285764462094
 21
1134.3863972439201
 31
0.0
  0
LINE
  5
BAE3
  8
0
 62
     0
 10
418.0285764462094
 20
1142.3765652439199
 30
0.0
 11
418.0285764462094
 21
1145.42227124392
 31
0.0
  0
LINE
  5
BAE4
  8
0
 62
     0
 10
418.0285764462094
 20
1153.3464442439199
 30
0.0
 11
418.0285764462094
 21
1156.4773572439201
 31
0.0
  0
LINE
  5
BAE5
  8
0
 62
     0
 10
418.0285764462094
 20
1162.304920243919
 30
0.0
 11
418.0285764462094
 21
1165.54923024392
 31
0.0
  0
LINE
  5
BAE6
  8
0
 62
     0
 10
368.02857644620951
 20
1179.7450962439191
 30
0.0
 11
351.53125844620979
 21
1179.7450962439191
 31
0.0
  0
LINE
  5
BAE7
  8
0
 62
     0
 10
399.81535344620931
 20
1184.590064243919
 30
0.0
 11
384.02857644620951
 21
1184.590064243919
 31
0.0
  0
LINE
  5
BAE8
  8
0
 62
     0
 10
368.02857644620951
 20
1179.7450962439191
 30
0.0
 11
384.02857644620951
 21
1184.590064243919
 31
0.0
  0
LINE
  5
BAE9
  8
0
 62
     0
 10
384.02857644620951
 20
1184.590064243919
 30
0.0
 11
384.02857644620951
 21
1181.2247492439201
 31
0.0
  0
LINE
  5
BAEA
  8
0
 62
     0
 10
368.02857644620951
 20
1179.7450962439191
 30
0.0
 11
368.02857644620951
 21
1165.54923024392
 31
0.0
  0
LINE
  5
BAEB
  8
0
 62
     0
 10
403.52857644620951
 20
1168.43792424392
 30
0.0
 11
403.52857644620951
 21
1187.235611243919
 31
0.0
  0
ARC
  5
BAEC
  8
0
 62
     0
 10
405.5285764462094
 20
1187.235611243919
 30
0.0
 40
2.0
 50
90.0
 51
180.0
  0
LINE
  5
BAED
  8
0
 62
     0
 10
403.52857644620951
 20
1172.82802224392
 30
0.0
 11
384.02857644620951
 21
1172.82802224392
 31
0.0
  0
LINE
  5
BAEE
  8
0
 62
     0
 10
398.12858244620958
 20
1181.2247492439201
 30
0.0
 11
384.02857644620951
 21
1181.2247492439201
 31
0.0
  0
LINE
  5
BAEF
  8
0
 62
     0
 10
384.02857644620951
 20
1172.82802224392
 30
0.0
 11
384.02857644620951
 21
1165.54923024392
 31
0.0
  0
ARC
  5
BAF0
  8
0
  6
CONTINUOUS
 62
     0
 10
400.72837544620921
 20
1176.85522824392
 30
0.0
 40
2.6003989999999999
 50
179.99998200000081
 51
269.99997800000818
  0
ARC
  5
BAF1
  8
0
  6
CONTINUOUS
 62
     0
 10
400.72837544620921
 20
1182.15521624392
 30
0.0
 40
2.600403
 50
90.0
 51
179.99998200000081
  0
LINE
  5
BAF2
  8
0
  6
CONTINUOUS
 62
     0
 10
403.52857644620951
 20
1179.57124724392
 30
0.0
 11
402.02857644620929
 21
1178.7052222439199
 31
0.0
  0
LINE
  5
BAF3
  8
0
  6
CONTINUOUS
 62
     0
 10
403.52857644620951
 20
1180.57124724392
 30
0.0
 11
402.02857644620929
 21
1179.7052222439199
 31
0.0
  0
LINE
  5
BAF4
  8
0
  6
CONTINUOUS
 62
     0
 10
403.52857644620951
 20
1185.6052222439189
 30
0.0
 11
403.52857644620951
 21
1173.40522224392
 31
0.0
  0
LINE
  5
BAF5
  8
0
  6
CONTINUOUS
 62
     0
 10
402.02857644620929
 20
1185.6052222439189
 30
0.0
 11
403.52857644620951
 21
1185.6052222439189
 31
0.0
  0
LINE
  5
BAF6
  8
0
  6
CONTINUOUS
 62
     0
 10
402.02857644620929
 20
1173.40522224392
 30
0.0
 11
403.52857644620951
 21
1173.40522224392
 31
0.0
  0
LINE
  5
BAF7
  8
0
  6
CONTINUOUS
 62
     0
 10
398.12858244620958
 20
1182.15521624392
 30
0.0
 11
398.12858244620958
 21
1176.85522824392
 31
0.0
  0
LINE
  5
BAF8
  8
0
  6
CONTINUOUS
 62
     0
 10
402.02857644620929
 20
1185.6052222439189
 30
0.0
 11
402.02857644620929
 21
1173.40522224392
 31
0.0
  0
LINE
  5
BAF9
  8
0
  6
CONTINUOUS
 62
     0
 10
402.02857644620929
 20
1174.2552222439199
 30
0.0
 11
400.72837544620921
 21
1174.2552222439199
 31
0.0
  0
LINE
  5
BAFA
  8
0
  6
CONTINUOUS
 62
     0
 10
402.02857644620929
 20
1184.7552222439199
 30
0.0
 11
400.72837544620921
 21
1184.7552222439199
 31
0.0
  0
LINE
  5
BAFB
  8
0
 62
     0
 10
423.02857644620929
 20
1189.235611243919
 30
0.0
 11
405.5285764462094
 21
1189.235611243919
 31
0.0
  0
LINE
  5
BAFC
  8
0
 62
     0
 10
423.02857644620929
 20
1167.43792424392
 30
0.0
 11
402.52857644620951
 21
1167.43792424392
 31
0.0
  0
ARC
  5
BAFD
  8
0
 62
     0
 10
402.52857644620951
 20
1168.43792424392
 30
0.0
 40
1.0
 50
270.0
 51
0.0
  0
LINE
  5
BAFE
  8
0
 62
     0
 10
423.02857644620929
 20
1181.1116062439201
 30
0.0
 11
405.5285764462094
 21
1181.1116062439201
 31
0.0
  0
LINE
  5
BAFF
  8
0
 62
     0
 10
215.52857644620951
 20
1189.3719622439201
 30
0.0
 11
219.02857644620951
 21
1189.3719622439201
 31
0.0
  0
ARC
  5
BB00
  8
0
 62
     0
 10
419.70677544620952
 20
1015.3719622439201
 30
0.0
 40
2.0
 50
90.0
 51
169.99999999999491
  0
ARC
  5
BB01
  8
0
 62
     0
 10
355.77121844620979
 20
1010.37830524392
 30
0.0
 40
1.9936590000000001
 50
90.075931000003507
 51
178.1702539999921
  0
LINE
  5
BB02
  8
0
 62
     0
 10
355.76857644620929
 20
1012.3719622439201
 30
0.0
 11
415.46874244620932
 21
1012.3719622439201
 31
0.0
  0
LINE
  5
BB03
  8
0
 62
     0
 10
353.52857644620951
 20
1003.3719622439201
 30
0.0
 11
354.14460544620931
 21
1020.97128224392
 31
0.0
  0
LINE
  5
BB04
  8
0
 62
     0
 10
417.73716044620937
 20
1015.71925824392
 30
0.0
 11
417.4383574462093
 21
1014.02466624392
 31
0.0
  0
ARC
  5
BB05
  8
0
 62
     0
 10
415.46874244620932
 20
1014.3719622439201
 30
0.0
 40
2.0
 50
270.0
 51
349.99999999999488
  0
LINE
  5
BB06
  8
0
 62
     0
 10
219.60592644620951
 20
1020.3719622439201
 30
0.0
 11
226.8228054462096
 21
1007.8719622439201
 31
0.0
  0
LINE
  5
BB07
  8
0
 62
     0
 10
228.5548554462097
 20
1006.8719622439201
 30
0.0
 11
276.47354744620941
 21
1006.8719622439201
 31
0.0
  0
LINE
  5
BB08
  8
0
 62
     0
 10
278.52857644620951
 20
1003.3719622439201
 30
0.0
 11
278.47226444620929
 21
1004.94357724392
 31
0.0
  0
ARC
  5
BB09
  8
0
 62
     0
 10
217.87387544620961
 20
1019.3719622439201
 30
0.0
 40
2.0
 50
30.000000000000551
 51
90.0
  0
ARC
  5
BB0A
  8
0
 62
     0
 10
228.5548554462097
 20
1008.8719622439201
 30
0.0
 40
2.0
 50
210.00000000000051
 51
270.0
  0
ARC
  5
BB0B
  8
0
 62
     0
 10
276.47354744620941
 20
1004.8719622439201
 30
0.0
 40
2.0
 50
2.0520649999985339
 51
90.0
  0
LINE
  5
BB0C
  8
0
 62
     0
 10
278.52857644620951
 20
1003.3719622439201
 30
0.0
 11
353.52857644620951
 21
1003.3719622439201
 31
0.0
  0
LINE
  5
BB0D
  8
0
 62
     0
 10
227.5548554462097
 20
1007.13991124392
 30
0.0
 11
227.5548554462097
 21
1020.97128224392
 31
0.0
  0
LINE
  5
BB0E
  8
0
 62
     0
 10
413.9956604462094
 20
1020.97128224392
 30
0.0
 11
223.97222044620949
 21
1020.97128224392
 31
0.0
  0
LINE
  5
BB0F
  8
0
 62
     0
 10
413.77487444620931
 20
1026.37332624392
 30
0.0
 11
224.08143344620959
 21
1026.37332624392
 31
0.0
  0
LINE
  5
BB10
  8
0
 62
     0
 10
418.0285764462094
 20
1040.9797282439199
 30
0.0
 11
384.02857644620951
 21
1040.9797282439199
 31
0.0
  0
LINE
  5
BB11
  8
0
 62
     0
 10
418.0285764462094
 20
1040.9797282439199
 30
0.0
 11
415.74448944620951
 21
1028.02602924392
 31
0.0
  0
ARC
  5
BB12
  8
0
 62
     0
 10
413.77487444620931
 20
1028.37332624392
 30
0.0
 40
2.0
 50
270.0
 51
349.99999999999488
  0
LINE
  5
BB13
  8
0
 62
     0
 10
418.0285764462094
 20
1034.3255462439199
 30
0.0
 11
415.96527544620938
 21
1022.623986243919
 31
0.0
  0
ARC
  5
BB14
  8
0
 62
     0
 10
413.9956604462094
 20
1022.97128224392
 30
0.0
 40
2.0
 50
270.0
 51
349.99999999999488
  0
LINE
  5
BB15
  8
0
 62
     0
 10
222.7713144462094
 20
1021.3719622439201
 30
0.0
 11
215.52857644620951
 21
1021.3719622439201
 31
0.0
  0
LINE
  5
BB16
  8
0
 62
     0
 10
418.0285764462094
 20
1022.21997624392
 30
0.0
 11
416.58352244620971
 21
1014.02466624392
 31
0.0
  0
ARC
  5
BB17
  8
0
 62
     0
 10
414.6139064462094
 20
1014.3719622439201
 30
0.0
 40
2.0
 50
270.0
 51
349.99999999999488
  0
LINE
  5
BB18
  8
0
 62
     0
 10
353.02857644620951
 20
1057.21196224392
 30
0.0
 11
353.02857644620951
 21
1054.511962243919
 31
0.0
  0
LINE
  5
BB19
  8
0
 62
     0
 10
423.02857644620929
 20
1043.1623252439199
 30
0.0
 11
405.5285764462094
 21
1043.1623252439199
 31
0.0
  0
LINE
  5
BB1A
  8
0
 62
     0
 10
423.02857644620929
 20
1055.46996424392
 30
0.0
 11
405.5285764462094
 21
1055.46996424392
 31
0.0
  0
LINE
  5
BB1B
  8
0
 62
     0
 10
423.02857644620929
 20
1065.6492562439189
 30
0.0
 11
418.0285764462094
 21
1065.6492562439189
 31
0.0
  0
LINE
  5
BB1C
  8
0
 62
     0
 10
403.52857644620951
 20
1064.64925624392
 30
0.0
 11
403.52857644620951
 21
1045.1623252439199
 31
0.0
  0
ARC
  5
BB1D
  8
0
 62
     0
 10
402.52857644620951
 20
1064.64925624392
 30
0.0
 40
1.0
 50
0.0
 51
42.252324000004279
  0
ARC
  5
BB1E
  8
0
 62
     0
 10
405.5285764462094
 20
1045.1623252439199
 30
0.0
 40
2.0
 50
180.0
 51
270.0
  0
LINE
  5
BB1F
  8
0
 62
     0
 10
368.02857644620951
 20
1162.304920243919
 30
0.0
 11
368.02857644620951
 21
1156.4773572439201
 31
0.0
  0
LINE
  5
BB20
  8
0
 62
     0
 10
384.02857644620951
 20
1162.304920243919
 30
0.0
 11
384.02857644620951
 21
1156.4773572439201
 31
0.0
  0
LINE
  5
BB21
  8
0
 62
     0
 10
368.02857644620951
 20
1153.3464442439199
 30
0.0
 11
368.02857644620951
 21
1145.42227124392
 31
0.0
  0
LINE
  5
BB22
  8
0
 62
     0
 10
368.02857644620951
 20
1142.3765652439199
 30
0.0
 11
368.02857644620951
 21
1134.3863972439201
 31
0.0
  0
LINE
  5
BB23
  8
0
 62
     0
 10
368.02857644620951
 20
1131.39377024392
 30
0.0
 11
368.02857644620951
 21
1123.3630692439201
 31
0.0
  0
LINE
  5
BB24
  8
0
 62
     0
 10
368.02857644620951
 20
1120.4015902439201
 30
0.0
 11
368.02857644620951
 21
1113.3498062439189
 31
0.0
  0
LINE
  5
BB25
  8
0
 62
     0
 10
368.02857644620951
 20
1110.5319622439199
 30
0.0
 11
368.02857644620951
 21
1100.34181024392
 31
0.0
  0
LINE
  5
BB26
  8
0
 62
     0
 10
384.02857644620951
 20
1110.5319622439199
 30
0.0
 11
384.02857644620951
 21
1100.34181024392
 31
0.0
  0
LINE
  5
BB27
  8
0
 62
     0
 10
384.02857644620951
 20
1120.4015902439201
 30
0.0
 11
384.02857644620951
 21
1113.3498062439189
 31
0.0
  0
LINE
  5
BB28
  8
0
 62
     0
 10
384.02857644620951
 20
1131.39377024392
 30
0.0
 11
384.02857644620951
 21
1123.3630692439201
 31
0.0
  0
LINE
  5
BB29
  8
0
 62
     0
 10
384.02857644620951
 20
1142.3765652439199
 30
0.0
 11
384.02857644620951
 21
1134.3863972439201
 31
0.0
  0
LINE
  5
BB2A
  8
0
 62
     0
 10
384.02857644620951
 20
1153.3464442439199
 30
0.0
 11
384.02857644620951
 21
1145.42227124392
 31
0.0
  0
LINE
  5
BB2B
  8
0
 62
     0
 10
368.02857644620951
 20
1097.3941182439189
 30
0.0
 11
368.02857644620951
 21
1090.34233424392
 31
0.0
  0
LINE
  5
BB2C
  8
0
 62
     0
 10
384.02857644620951
 20
1097.3941182439189
 30
0.0
 11
384.02857644620951
 21
1090.34233424392
 31
0.0
  0
LINE
  5
BB2D
  8
0
 62
     0
 10
384.02857644620951
 20
1087.38085524392
 30
0.0
 11
384.02857644620951
 21
1079.3501542439201
 31
0.0
  0
LINE
  5
BB2E
  8
0
 62
     0
 10
368.02857644620951
 20
1087.38085524392
 30
0.0
 11
368.02857644620951
 21
1079.3501542439201
 31
0.0
  0
LINE
  5
BB2F
  8
0
 62
     0
 10
368.02857644620951
 20
1076.35752724392
 30
0.0
 11
368.02857644620951
 21
1068.36735924392
 31
0.0
  0
LINE
  5
BB30
  8
0
 62
     0
 10
384.02857644620951
 20
1076.35752724392
 30
0.0
 11
384.02857644620951
 21
1068.36735924392
 31
0.0
  0
LINE
  5
BB31
  8
0
 62
     0
 10
398.57797144620952
 20
1049.35116624392
 30
0.0
 11
384.02857544620957
 21
1049.35116624392
 31
0.0
  0
LINE
  5
BB32
  8
0
 62
     0
 10
403.52857644620951
 20
1060.7635162439201
 30
0.0
 11
384.02857544620957
 21
1060.7635162439201
 31
0.0
  0
LINE
  5
BB33
  8
0
 62
     0
 10
368.02857644620951
 20
1065.3216532439201
 30
0.0
 11
368.02857644620951
 21
1045.3216532439201
 31
0.0
  0
LINE
  5
BB34
  8
0
 62
     0
 10
420.02857644620951
 20
1189.235611243919
 30
0.0
 11
420.02857644620951
 21
1193.3719622439201
 31
0.0
  0
LINE
  5
BB35
  8
0
 62
     0
 10
418.0285764462094
 20
1019.17021824392
 30
0.0
 11
417.12127644620961
 21
1014.02466624392
 31
0.0
  0
ARC
  5
BB36
  8
0
 62
     0
 10
415.15166144620969
 20
1014.3719622439201
 30
0.0
 40
2.0
 50
270.0
 51
349.99999999999488
  0
LINE
  5
BB37
  8
0
 62
     0
 10
384.02857644620951
 20
1065.3216532439201
 30
0.0
 11
384.02857644620951
 21
1060.7635162439201
 31
0.0
  0
LINE
  5
BB38
  8
0
 62
     0
 10
420.02857644620951
 20
1065.6492562439189
 30
0.0
 11
420.02857644620951
 21
1167.43792424392
 31
0.0
  0
LINE
  5
BB39
  8
0
 62
     0
 10
219.02857644620951
 20
1045.511962243919
 30
0.0
 11
222.1118184462097
 21
1028.02602924392
 31
0.0
  0
ARC
  5
BB3A
  8
0
 62
     0
 10
224.08143344620959
 20
1028.37332624392
 30
0.0
 40
2.0
 50
190.000000000005
 51
270.0
  0
LINE
  5
BB3B
  8
0
 62
     0
 10
368.73397344620929
 20
1054.06625624392
 30
0.0
 11
384.02857644620951
 21
1049.35116624392
 31
0.0
  0
LINE
  5
BB3C
  8
0
 62
     0
 10
384.02857644620951
 20
1060.7635162439201
 30
0.0
 11
368.99263544620942
 21
1060.2227652439201
 31
0.0
  0
LINE
  5
BB3D
  8
0
 62
     0
 10
384.02857644620951
 20
1049.35116624392
 30
0.0
 11
384.02857644620951
 21
1040.9797282439199
 31
0.0
  0
ARC
  5
BB3E
  8
0
 62
     0
 10
369.02857644620951
 20
1059.2234112439201
 30
0.0
 40
1.0
 50
92.059690999990565
 51
180.0
  0
ARC
  5
BB3F
  8
0
 62
     0
 10
369.02857644620951
 20
1055.0218762439199
 30
0.0
 40
1.0
 50
180.0
 51
252.86627500000029
  0
LINE
  5
BB40
  8
0
 62
     0
 10
384.02857644620951
 20
1181.2247492439201
 30
0.0
 11
368.72811744620952
 21
1176.40488324392
 31
0.0
  0
LINE
  5
BB41
  8
0
 62
     0
 10
369.07713144620931
 20
1172.1012022439199
 30
0.0
 11
384.02857644620951
 21
1172.82802224392
 31
0.0
  0
ARC
  5
BB42
  8
0
 62
     0
 10
369.02857644620951
 20
1175.4510882439199
 30
0.0
 40
1.0
 50
107.4851790000144
 51
180.0
  0
ARC
  5
BB43
  8
0
 62
     0
 10
369.02857644620951
 20
1173.1000232439201
 30
0.0
 40
1.0
 50
180.0
 51
270.0
  0
LINE
  5
BB45
  8
0
 62
     0
 10
418.0285764462094
 20
1165.54923024392
 30
0.0
 11
219.02857644620951
 21
1165.54923024392
 31
0.0
  0
LINE
  5
BB46
  8
0
 62
     0
 10
418.0285764462094
 20
1162.304920243919
 30
0.0
 11
219.02857644620951
 21
1162.304920243919
 31
0.0
  0
LINE
  5
BB47
  8
0
 62
     0
 10
418.0285764462094
 20
1156.4773572439201
 30
0.0
 11
219.02857644620951
 21
1156.4773572439201
 31
0.0
  0
LINE
  5
BB48
  8
0
 62
     0
 10
418.0285764462094
 20
1153.3464442439199
 30
0.0
 11
219.02857644620951
 21
1153.3464442439199
 31
0.0
  0
LINE
  5
BB49
  8
0
 62
     0
 10
418.0285764462094
 20
1145.42227124392
 30
0.0
 11
219.02857644620951
 21
1145.42227124392
 31
0.0
  0
LINE
  5
BB4A
  8
0
 62
     0
 10
418.0285764462094
 20
1142.3765652439199
 30
0.0
 11
219.02857644620951
 21
1142.3765652439199
 31
0.0
  0
LINE
  5
BB4B
  8
0
 62
     0
 10
418.0285764462094
 20
1134.3863972439201
 30
0.0
 11
219.02857644620951
 21
1134.3863972439201
 31
0.0
  0
LINE
  5
BB4C
  8
0
 62
     0
 10
418.0285764462094
 20
1131.39377024392
 30
0.0
 11
219.02857644620951
 21
1131.39377024392
 31
0.0
  0
LINE
  5
BB4D
  8
0
 62
     0
 10
418.0285764462094
 20
1123.3630692439201
 30
0.0
 11
219.02857644620951
 21
1123.3630692439201
 31
0.0
  0
LINE
  5
BB4E
  8
0
 62
     0
 10
418.0285764462094
 20
1120.4015902439201
 30
0.0
 11
219.02857644620951
 21
1120.4015902439201
 31
0.0
  0
LINE
  5
BB4F
  8
0
 62
     0
 10
418.0285764462094
 20
1113.3498062439189
 30
0.0
 11
323.60181944620939
 21
1113.3498062439189
 31
0.0
  0
LINE
  5
BB50
  8
0
 62
     0
 10
418.0285764462094
 20
1110.402114243919
 30
0.0
 11
330.41422344620958
 21
1110.402114243919
 31
0.0
  0
LINE
  5
BB51
  8
0
 62
     0
 10
415.9496554462097
 20
1164.8719622439201
 30
0.0
 11
415.9496554462097
 21
1162.8719622439201
 31
0.0
  0
LINE
  5
BB52
  8
0
 62
     0
 10
221.10749744620981
 20
1162.8719622439201
 30
0.0
 11
415.9496554462097
 21
1162.8719622439201
 31
0.0
  0
LINE
  5
BB53
  8
0
 62
     0
 10
221.10749744620981
 20
1164.8719622439201
 30
0.0
 11
415.9496554462097
 21
1164.8719622439201
 31
0.0
  0
LINE
  5
BB54
  8
0
 62
     0
 10
221.10749744620981
 20
1153.8719622439201
 30
0.0
 11
415.9496554462097
 21
1153.8719622439201
 31
0.0
  0
LINE
  5
BB55
  8
0
 62
     0
 10
221.10749744620981
 20
1155.8719622439201
 30
0.0
 11
415.9496554462097
 21
1155.8719622439201
 31
0.0
  0
LINE
  5
BB56
  8
0
 62
     0
 10
221.10749744620981
 20
1142.8719622439201
 30
0.0
 11
415.9496554462097
 21
1142.8719622439201
 31
0.0
  0
LINE
  5
BB57
  8
0
 62
     0
 10
221.10749744620981
 20
1144.8719622439201
 30
0.0
 11
415.9496554462097
 21
1144.8719622439201
 31
0.0
  0
LINE
  5
BB58
  8
0
 62
     0
 10
221.10749744620981
 20
1131.8719622439201
 30
0.0
 11
415.9496554462097
 21
1131.8719622439201
 31
0.0
  0
LINE
  5
BB59
  8
0
 62
     0
 10
221.10749744620981
 20
1133.8719622439201
 30
0.0
 11
415.9496554462097
 21
1133.8719622439201
 31
0.0
  0
LINE
  5
BB5A
  8
0
 62
     0
 10
221.10749744620981
 20
1120.8719622439201
 30
0.0
 11
415.9496554462097
 21
1120.8719622439201
 31
0.0
  0
LINE
  5
BB5B
  8
0
 62
     0
 10
221.10749744620981
 20
1122.8719622439201
 30
0.0
 11
415.9496554462097
 21
1122.8719622439201
 31
0.0
  0
LINE
  5
BB5C
  8
0
 62
     0
 10
329.80355344620949
 20
1110.8719622439201
 30
0.0
 11
415.9496554462097
 21
1110.8719622439201
 31
0.0
  0
LINE
  5
BB5D
  8
0
 62
     0
 10
324.0753144462094
 20
1112.8719622439201
 30
0.0
 11
415.9496554462097
 21
1112.8719622439201
 31
0.0
  0
LINE
  5
BB5E
  8
0
 62
     0
 10
415.9496554462097
 20
1164.8719622439201
 30
0.0
 11
418.0285764462094
 21
1165.54923024392
 31
0.0
  0
LINE
  5
BB5F
  8
0
 62
     0
 10
415.9496554462097
 20
1162.8719622439201
 30
0.0
 11
418.0285764462094
 21
1162.304920243919
 31
0.0
  0
LINE
  5
BB60
  8
0
 62
     0
 10
415.9496554462097
 20
1155.8719622439201
 30
0.0
 11
418.0285764462094
 21
1156.4773572439201
 31
0.0
  0
LINE
  5
BB61
  8
0
 62
     0
 10
415.9496554462097
 20
1153.8719622439201
 30
0.0
 11
418.0285764462094
 21
1153.3464442439199
 31
0.0
  0
LINE
  5
BB62
  8
0
 62
     0
 10
415.9496554462097
 20
1144.8719622439201
 30
0.0
 11
418.0285764462094
 21
1145.42227124392
 31
0.0
  0
LINE
  5
BB63
  8
0
 62
     0
 10
415.9496554462097
 20
1142.8719622439201
 30
0.0
 11
418.0285764462094
 21
1142.3765652439199
 31
0.0
  0
LINE
  5
BB64
  8
0
 62
     0
 10
415.9496554462097
 20
1133.8719622439201
 30
0.0
 11
418.0285764462094
 21
1134.3863972439201
 31
0.0
  0
LINE
  5
BB65
  8
0
 62
     0
 10
415.9496554462097
 20
1131.8719622439201
 30
0.0
 11
418.0285764462094
 21
1131.39377024392
 31
0.0
  0
LINE
  5
BB66
  8
0
 62
     0
 10
415.9496554462097
 20
1122.8719622439201
 30
0.0
 11
418.0285764462094
 21
1123.3630692439201
 31
0.0
  0
LINE
  5
BB67
  8
0
 62
     0
 10
415.9496554462097
 20
1120.8719622439201
 30
0.0
 11
418.0285764462094
 21
1120.4015902439201
 31
0.0
  0
LINE
  5
BB68
  8
0
 62
     0
 10
415.9496554462097
 20
1112.8719622439201
 30
0.0
 11
418.0285764462094
 21
1113.3498062439189
 31
0.0
  0
LINE
  5
BB69
  8
0
 62
     0
 10
415.9496554462097
 20
1110.8719622439201
 30
0.0
 11
418.0285764462094
 21
1110.402114243919
 31
0.0
  0
LINE
  5
BB6A
  8
0
 62
     0
 10
415.9496554462097
 20
1155.8719622439201
 30
0.0
 11
415.9496554462097
 21
1153.8719622439201
 31
0.0
  0
LINE
  5
BB6B
  8
0
 62
     0
 10
415.9496554462097
 20
1144.8719622439201
 30
0.0
 11
415.9496554462097
 21
1142.8719622439201
 31
0.0
  0
LINE
  5
BB6C
  8
0
 62
     0
 10
415.9496554462097
 20
1133.8719622439201
 30
0.0
 11
415.9496554462097
 21
1131.8719622439201
 31
0.0
  0
LINE
  5
BB6D
  8
0
 62
     0
 10
415.9496554462097
 20
1122.8719622439201
 30
0.0
 11
415.9496554462097
 21
1120.8719622439201
 31
0.0
  0
LINE
  5
BB6E
  8
0
 62
     0
 10
415.9496554462097
 20
1112.8719622439201
 30
0.0
 11
415.9496554462097
 21
1110.8719622439201
 31
0.0
  0
ARC
  5
BB6F
  8
0
 62
     0
 10
329.80355344620949
 20
1107.8719622439201
 30
0.0
 40
3.0
 50
90.0
 51
190.28656100000819
  0
ARC
  5
BB70
  8
0
 62
     0
 10
330.41422344620958
 20
1106.9321142439201
 30
0.0
 40
3.4700000000000002
 50
90.0
 51
186.1896490000004
  0
LINE
  5
BB71
  8
0
 62
     0
 10
236.10749744620981
 20
1112.8719622439201
 30
0.0
 11
236.10749744620981
 21
1110.8719622439201
 31
0.0
  0
LINE
  5
BB72
  8
0
 62
     0
 10
221.10749744620981
 20
1122.8719622439201
 30
0.0
 11
221.10749744620981
 21
1120.8719622439201
 31
0.0
  0
LINE
  5
BB73
  8
0
 62
     0
 10
221.10749744620981
 20
1133.8719622439201
 30
0.0
 11
221.10749744620981
 21
1131.8719622439201
 31
0.0
  0
LINE
  5
BB74
  8
0
 62
     0
 10
221.10749744620981
 20
1144.8719622439201
 30
0.0
 11
221.10749744620981
 21
1142.8719622439201
 31
0.0
  0
LINE
  5
BB75
  8
0
 62
     0
 10
221.10749744620981
 20
1155.8719622439201
 30
0.0
 11
221.10749744620981
 21
1153.8719622439201
 31
0.0
  0
LINE
  5
BB76
  8
0
 62
     0
 10
236.10749744620981
 20
1110.8719622439201
 30
0.0
 11
234.02857644620951
 21
1110.402114243919
 31
0.0
  0
LINE
  5
BB77
  8
0
 62
     0
 10
236.10749744620981
 20
1112.8719622439201
 30
0.0
 11
234.02857644620951
 21
1113.3498062439189
 31
0.0
  0
LINE
  5
BB78
  8
0
 62
     0
 10
221.10749744620981
 20
1120.8719622439201
 30
0.0
 11
219.02857644620951
 21
1120.4015902439201
 31
0.0
  0
LINE
  5
BB79
  8
0
 62
     0
 10
221.10749744620981
 20
1122.8719622439201
 30
0.0
 11
219.02857644620951
 21
1123.3630692439201
 31
0.0
  0
LINE
  5
BB7A
  8
0
 62
     0
 10
221.10749744620981
 20
1131.8719622439201
 30
0.0
 11
219.02857644620951
 21
1131.39377024392
 31
0.0
  0
LINE
  5
BB7B
  8
0
 62
     0
 10
221.10749744620981
 20
1133.8719622439201
 30
0.0
 11
219.02857644620951
 21
1134.3863972439201
 31
0.0
  0
LINE
  5
BB7C
  8
0
 62
     0
 10
221.10749744620981
 20
1142.8719622439201
 30
0.0
 11
219.02857644620951
 21
1142.3765652439199
 31
0.0
  0
LINE
  5
BB7D
  8
0
 62
     0
 10
221.10749744620981
 20
1144.8719622439201
 30
0.0
 11
219.02857644620951
 21
1145.42227124392
 31
0.0
  0
LINE
  5
BB7E
  8
0
 62
     0
 10
221.10749744620981
 20
1153.8719622439201
 30
0.0
 11
219.02857644620951
 21
1153.3464442439199
 31
0.0
  0
LINE
  5
BB7F
  8
0
 62
     0
 10
221.10749744620981
 20
1155.8719622439201
 30
0.0
 11
219.02857644620951
 21
1156.4773572439201
 31
0.0
  0
LINE
  5
BB80
  8
0
 62
     0
 10
221.10749744620981
 20
1162.8719622439201
 30
0.0
 11
219.02857644620951
 21
1162.304920243919
 31
0.0
  0
LINE
  5
BB81
  8
0
 62
     0
 10
221.10749744620981
 20
1164.8719622439201
 30
0.0
 11
219.02857644620951
 21
1165.54923024392
 31
0.0
  0
LINE
  5
BB82
  8
0
 62
     0
 10
221.10749744620981
 20
1164.8719622439201
 30
0.0
 11
221.10749744620981
 21
1162.8719622439201
 31
0.0
  0
LINE
  5
BB83
  8
0
 62
     0
 10
219.02857644620951
 20
1162.304920243919
 30
0.0
 11
219.02857644620951
 21
1165.54923024392
 31
0.0
  0
LINE
  5
BB84
  8
0
 62
     0
 10
219.02857644620951
 20
1153.3464442439199
 30
0.0
 11
219.02857644620951
 21
1156.4773572439201
 31
0.0
  0
LINE
  5
BB85
  8
0
 62
     0
 10
219.02857644620951
 20
1142.3765652439199
 30
0.0
 11
219.02857644620951
 21
1145.42227124392
 31
0.0
  0
LINE
  5
BB86
  8
0
 62
     0
 10
219.02857644620951
 20
1131.39377024392
 30
0.0
 11
219.02857644620951
 21
1134.3863972439201
 31
0.0
  0
LINE
  5
BB87
  8
0
 62
     0
 10
219.02857644620951
 20
1120.4015902439201
 30
0.0
 11
219.02857644620951
 21
1123.3630692439201
 31
0.0
  0
LINE
  5
BB88
  8
0
 62
     0
 10
234.02857644620951
 20
1110.402114243919
 30
0.0
 11
234.02857644620951
 21
1113.3498062439189
 31
0.0
  0
LINE
  5
BB89
  8
0
 62
     0
 10
234.02857644620951
 20
1113.3498062439189
 30
0.0
 11
308.45533344620969
 21
1113.3498062439189
 31
0.0
  0
LINE
  5
BB8A
  8
0
 62
     0
 10
234.02857644620951
 20
1110.402114243919
 30
0.0
 11
301.64292944620951
 21
1110.402114243919
 31
0.0
  0
LINE
  5
BB8B
  8
0
 62
     0
 10
302.25359944620948
 20
1110.8719622439201
 30
0.0
 11
236.10749744620981
 21
1110.8719622439201
 31
0.0
  0
LINE
  5
BB8C
  8
0
 62
     0
 10
307.98183844620951
 20
1112.8719622439201
 30
0.0
 11
236.10749744620981
 21
1112.8719622439201
 31
0.0
  0
ARC
  5
BB8D
  8
0
 62
     0
 10
302.25359944620948
 20
1107.8719622439201
 30
0.0
 40
3.0
 50
349.71343899999181
 51
90.0
  0
ARC
  5
BB8E
  8
0
 62
     0
 10
301.64292944620951
 20
1106.9321142439201
 30
0.0
 40
3.4700000000000002
 50
353.81035099999951
 51
90.0
  0
LINE
  5
BB8F
  8
0
 62
     0
 10
418.0285764462094
 20
1065.3216532439201
 30
0.0
 11
219.02857644620951
 21
1065.3216532439201
 31
0.0
  0
LINE
  5
BB90
  8
0
 62
     0
 10
418.0285764462094
 20
1068.36735924392
 30
0.0
 11
219.02857644620951
 21
1068.36735924392
 31
0.0
  0
LINE
  5
BB91
  8
0
 62
     0
 10
418.0285764462094
 20
1076.35752724392
 30
0.0
 11
219.02857644620951
 21
1076.35752724392
 31
0.0
  0
LINE
  5
BB92
  8
0
 62
     0
 10
418.0285764462094
 20
1079.3501542439201
 30
0.0
 11
219.02857644620951
 21
1079.3501542439201
 31
0.0
  0
LINE
  5
BB93
  8
0
 62
     0
 10
418.0285764462094
 20
1087.38085524392
 30
0.0
 11
219.02857644620951
 21
1087.38085524392
 31
0.0
  0
LINE
  5
BB94
  8
0
 62
     0
 10
418.0285764462094
 20
1090.34233424392
 30
0.0
 11
219.02857644620951
 21
1090.34233424392
 31
0.0
  0
LINE
  5
BB95
  8
0
 62
     0
 10
221.10749744620981
 20
1067.8719622439201
 30
0.0
 11
415.9496554462097
 21
1067.8719622439201
 31
0.0
  0
LINE
  5
BB96
  8
0
 62
     0
 10
221.10749744620981
 20
1065.8719622439201
 30
0.0
 11
415.9496554462097
 21
1065.8719622439201
 31
0.0
  0
LINE
  5
BB97
  8
0
 62
     0
 10
221.10749744620981
 20
1078.8719622439201
 30
0.0
 11
415.9496554462097
 21
1078.8719622439201
 31
0.0
  0
LINE
  5
BB98
  8
0
 62
     0
 10
221.10749744620981
 20
1076.8719622439201
 30
0.0
 11
415.9496554462097
 21
1076.8719622439201
 31
0.0
  0
LINE
  5
BB99
  8
0
 62
     0
 10
221.10749744620981
 20
1089.8719622439201
 30
0.0
 11
415.9496554462097
 21
1089.8719622439201
 31
0.0
  0
LINE
  5
BB9A
  8
0
 62
     0
 10
221.10749744620981
 20
1087.8719622439201
 30
0.0
 11
415.9496554462097
 21
1087.8719622439201
 31
0.0
  0
LINE
  5
BB9B
  8
0
 62
     0
 10
234.02857644620951
 20
1097.3941182439189
 30
0.0
 11
308.45533344620969
 21
1097.3941182439189
 31
0.0
  0
LINE
  5
BB9C
  8
0
 62
     0
 10
234.02857644620951
 20
1100.34181024392
 30
0.0
 11
301.64292944620951
 21
1100.34181024392
 31
0.0
  0
LINE
  5
BB9D
  8
0
 62
     0
 10
302.25359944620948
 20
1099.8719622439201
 30
0.0
 11
236.10749744620981
 21
1099.8719622439201
 31
0.0
  0
LINE
  5
BB9E
  8
0
 62
     0
 10
307.98183844620951
 20
1097.8719622439201
 30
0.0
 11
236.10749744620981
 21
1097.8719622439201
 31
0.0
  0
LINE
  5
BB9F
  8
0
 62
     0
 10
234.02857644620951
 20
1100.34181024392
 30
0.0
 11
234.02857644620951
 21
1097.3941182439189
 31
0.0
  0
LINE
  5
BBA0
  8
0
 62
     0
 10
219.02857644620951
 20
1090.34233424392
 30
0.0
 11
219.02857644620951
 21
1087.38085524392
 31
0.0
  0
LINE
  5
BBA1
  8
0
 62
     0
 10
219.02857644620951
 20
1079.3501542439201
 30
0.0
 11
219.02857644620951
 21
1076.35752724392
 31
0.0
  0
LINE
  5
BBA2
  8
0
 62
     0
 10
219.02857644620951
 20
1068.36735924392
 30
0.0
 11
219.02857644620951
 21
1065.3216532439201
 31
0.0
  0
LINE
  5
BBA3
  8
0
 62
     0
 10
221.10749744620981
 20
1065.8719622439201
 30
0.0
 11
219.02857644620951
 21
1065.3216532439201
 31
0.0
  0
LINE
  5
BBA4
  8
0
 62
     0
 10
221.10749744620981
 20
1067.8719622439201
 30
0.0
 11
219.02857644620951
 21
1068.36735924392
 31
0.0
  0
LINE
  5
BBA5
  8
0
 62
     0
 10
221.10749744620981
 20
1076.8719622439201
 30
0.0
 11
219.02857644620951
 21
1076.35752724392
 31
0.0
  0
LINE
  5
BBA6
  8
0
 62
     0
 10
221.10749744620981
 20
1078.8719622439201
 30
0.0
 11
219.02857644620951
 21
1079.3501542439201
 31
0.0
  0
LINE
  5
BBA7
  8
0
 62
     0
 10
221.10749744620981
 20
1087.8719622439201
 30
0.0
 11
219.02857644620951
 21
1087.38085524392
 31
0.0
  0
LINE
  5
BBA8
  8
0
 62
     0
 10
221.10749744620981
 20
1089.8719622439201
 30
0.0
 11
219.02857644620951
 21
1090.34233424392
 31
0.0
  0
LINE
  5
BBA9
  8
0
 62
     0
 10
236.10749744620981
 20
1097.8719622439201
 30
0.0
 11
234.02857644620951
 21
1097.3941182439189
 31
0.0
  0
LINE
  5
BBAA
  8
0
 62
     0
 10
236.10749744620981
 20
1099.8719622439201
 30
0.0
 11
234.02857644620951
 21
1100.34181024392
 31
0.0
  0
LINE
  5
BBAB
  8
0
 62
     0
 10
221.10749744620981
 20
1065.8719622439201
 30
0.0
 11
221.10749744620981
 21
1067.8719622439201
 31
0.0
  0
LINE
  5
BBAC
  8
0
 62
     0
 10
221.10749744620981
 20
1076.8719622439201
 30
0.0
 11
221.10749744620981
 21
1078.8719622439201
 31
0.0
  0
LINE
  5
BBAD
  8
0
 62
     0
 10
221.10749744620981
 20
1087.8719622439201
 30
0.0
 11
221.10749744620981
 21
1089.8719622439201
 31
0.0
  0
LINE
  5
BBAE
  8
0
 62
     0
 10
236.10749744620981
 20
1097.8719622439201
 30
0.0
 11
236.10749744620981
 21
1099.8719622439201
 31
0.0
  0
ARC
  5
BBAF
  8
0
 62
     0
 10
302.25359944620948
 20
1102.8719622439201
 30
0.0
 40
3.0
 50
270.0
 51
10.28656100000822
  0
ARC
  5
BBB0
  8
0
 62
     0
 10
301.64292944620951
 20
1103.81181024392
 30
0.0
 40
3.4700000000000002
 50
270.0
 51
6.1896490000005366
  0
LINE
  5
BBB1
  8
0
 62
     0
 10
418.0285764462094
 20
1097.3941182439189
 30
0.0
 11
323.60181944620939
 21
1097.3941182439189
 31
0.0
  0
LINE
  5
BBB2
  8
0
 62
     0
 10
418.0285764462094
 20
1100.34181024392
 30
0.0
 11
330.41422344620958
 21
1100.34181024392
 31
0.0
  0
LINE
  5
BBB3
  8
0
 62
     0
 10
329.80355344620949
 20
1099.8719622439201
 30
0.0
 11
415.9496554462097
 21
1099.8719622439201
 31
0.0
  0
LINE
  5
BBB4
  8
0
 62
     0
 10
324.0753144462094
 20
1097.8719622439201
 30
0.0
 11
415.9496554462097
 21
1097.8719622439201
 31
0.0
  0
ARC
  5
BBB5
  8
0
 62
     0
 10
329.80355344620949
 20
1102.8719622439201
 30
0.0
 40
3.0
 50
169.71343899999181
 51
270.0
  0
ARC
  5
BBB6
  8
0
 62
     0
 10
330.41422344620958
 20
1103.81181024392
 30
0.0
 40
3.4700000000000002
 50
173.8103509999994
 51
270.0
  0
LINE
  5
BBB7
  8
0
 62
     0
 10
415.9496554462097
 20
1097.8719622439201
 30
0.0
 11
415.9496554462097
 21
1099.8719622439201
 31
0.0
  0
LINE
  5
BBB8
  8
0
 62
     0
 10
415.9496554462097
 20
1087.8719622439201
 30
0.0
 11
415.9496554462097
 21
1089.8719622439201
 31
0.0
  0
LINE
  5
BBB9
  8
0
 62
     0
 10
415.9496554462097
 20
1076.8719622439201
 30
0.0
 11
415.9496554462097
 21
1078.8719622439201
 31
0.0
  0
LINE
  5
BBBA
  8
0
 62
     0
 10
415.9496554462097
 20
1065.8719622439201
 30
0.0
 11
415.9496554462097
 21
1067.8719622439201
 31
0.0
  0
LINE
  5
BBBB
  8
0
 62
     0
 10
415.9496554462097
 20
1099.8719622439201
 30
0.0
 11
418.0285764462094
 21
1100.34181024392
 31
0.0
  0
LINE
  5
BBBC
  8
0
 62
     0
 10
415.9496554462097
 20
1097.8719622439201
 30
0.0
 11
418.0285764462094
 21
1097.3941182439189
 31
0.0
  0
LINE
  5
BBBD
  8
0
 62
     0
 10
415.9496554462097
 20
1089.8719622439201
 30
0.0
 11
418.0285764462094
 21
1090.34233424392
 31
0.0
  0
LINE
  5
BBBE
  8
0
 62
     0
 10
415.9496554462097
 20
1087.8719622439201
 30
0.0
 11
418.0285764462094
 21
1087.38085524392
 31
0.0
  0
LINE
  5
BBBF
  8
0
 62
     0
 10
415.9496554462097
 20
1078.8719622439201
 30
0.0
 11
418.0285764462094
 21
1079.3501542439201
 31
0.0
  0
LINE
  5
BBC0
  8
0
 62
     0
 10
415.9496554462097
 20
1076.8719622439201
 30
0.0
 11
418.0285764462094
 21
1076.35752724392
 31
0.0
  0
LINE
  5
BBC1
  8
0
 62
     0
 10
415.9496554462097
 20
1067.8719622439201
 30
0.0
 11
418.0285764462094
 21
1068.36735924392
 31
0.0
  0
LINE
  5
BBC2
  8
0
 62
     0
 10
415.9496554462097
 20
1065.8719622439201
 30
0.0
 11
418.0285764462094
 21
1065.3216532439201
 31
0.0
  0
LINE
  5
BBC3
  8
0
 62
     0
 10
418.0285764462094
 20
1068.36735924392
 30
0.0
 11
418.0285764462094
 21
1065.3216532439201
 31
0.0
  0
LINE
  5
BBC4
  8
0
 62
     0
 10
418.0285764462094
 20
1079.3501542439201
 30
0.0
 11
418.0285764462094
 21
1076.35752724392
 31
0.0
  0
LINE
  5
BBC5
  8
0
 62
     0
 10
418.0285764462094
 20
1090.34233424392
 30
0.0
 11
418.0285764462094
 21
1087.38085524392
 31
0.0
  0
LINE
  5
BBC6
  8
0
 62
     0
 10
418.0285764462094
 20
1100.34181024392
 30
0.0
 11
418.0285764462094
 21
1097.3941182439189
 31
0.0
  0
LINE
  5
BBC7
  8
0
 62
     0
 10
350.94965544620931
 20
1056.8719622439201
 30
0.0
 11
353.02857644620951
 21
1057.36735924392
 31
0.0
  0
LINE
  5
BBC8
  8
0
 62
     0
 10
353.02857644620951
 20
1057.36735924392
 30
0.0
 11
219.02857644620951
 21
1057.36735924392
 31
0.0
  0
LINE
  5
BBC9
  8
0
 62
     0
 10
221.10749744620981
 20
1056.8719622439201
 30
0.0
 11
350.94965544620931
 21
1056.8719622439201
 31
0.0
  0
LINE
  5
BBCA
  8
0
 62
     0
 10
350.94965544620931
 20
1054.8719622439201
 30
0.0
 11
350.94965544620931
 21
1056.8719622439201
 31
0.0
  0
LINE
  5
BBCB
  8
0
 62
     0
 10
353.02857644620951
 20
1054.3216532439201
 30
0.0
 11
219.02857644620951
 21
1054.3216532439201
 31
0.0
  0
LINE
  5
BBCC
  8
0
 62
     0
 10
221.10749744620981
 20
1054.8719622439201
 30
0.0
 11
350.94965544620931
 21
1054.8719622439201
 31
0.0
  0
LINE
  5
BBCD
  8
0
 62
     0
 10
350.94965544620931
 20
1054.8719622439201
 30
0.0
 11
353.02857644620951
 21
1054.3216532439201
 31
0.0
  0
LINE
  5
BBCE
  8
0
 62
     0
 10
353.02857644620951
 20
1048.36735924392
 30
0.0
 11
219.02857644620951
 21
1048.36735924392
 31
0.0
  0
LINE
  5
BBCF
  8
0
 62
     0
 10
221.10749744620981
 20
1047.8719622439201
 30
0.0
 11
350.94965544620931
 21
1047.8719622439201
 31
0.0
  0
LINE
  5
BBD0
  8
0
 62
     0
 10
353.02857644620951
 20
1045.3216532439201
 30
0.0
 11
219.06213344620929
 21
1045.3216532439201
 31
0.0
  0
LINE
  5
BBD1
  8
0
 62
     0
 10
221.10749744620981
 20
1045.8719622439201
 30
0.0
 11
350.94965544620931
 21
1045.8719622439201
 31
0.0
  0
LINE
  5
BBD2
  8
0
 62
     0
 10
350.94965544620931
 20
1045.8719622439201
 30
0.0
 11
353.02857644620951
 21
1045.3216532439201
 31
0.0
  0
LINE
  5
BBD3
  8
0
 62
     0
 10
353.02857644620951
 20
1048.36735924392
 30
0.0
 11
353.02857644620951
 21
1045.3216532439201
 31
0.0
  0
LINE
  5
BBD4
  8
0
 62
     0
 10
350.94965544620931
 20
1045.8719622439201
 30
0.0
 11
350.94965544620931
 21
1047.8719622439201
 31
0.0
  0
LINE
  5
BBD5
  8
0
 62
     0
 10
350.94965544620931
 20
1047.8719622439201
 30
0.0
 11
353.02857644620951
 21
1048.36735924392
 31
0.0
  0
LINE
  5
BBD6
  8
0
 62
     0
 10
353.02857644620951
 20
1045.3216532439201
 30
0.0
 11
368.02857644620951
 21
1045.3216532439201
 31
0.0
  0
LINE
  5
BBD7
  8
0
 62
     0
 10
368.02857644620951
 20
1045.3216532439201
 30
0.0
 11
384.02857644620951
 21
1040.9797282439199
 31
0.0
  0
LINE
  5
BBD8
  8
0
 62
     0
 10
219.02857644620951
 20
1057.36735924392
 30
0.0
 11
219.02857644620951
 21
1054.3216532439201
 31
0.0
  0
LINE
  5
BBD9
  8
0
 62
     0
 10
219.02857644620951
 20
1048.36735924392
 30
0.0
 11
219.02857644620951
 21
1045.3216532439201
 31
0.0
  0
LINE
  5
BBDA
  8
0
 62
     0
 10
221.10749744620981
 20
1054.8719622439201
 30
0.0
 11
221.10749744620981
 21
1056.8719622439201
 31
0.0
  0
LINE
  5
BBDB
  8
0
 62
     0
 10
221.10749744620981
 20
1056.8719622439201
 30
0.0
 11
219.02857644620951
 21
1057.36735924392
 31
0.0
  0
LINE
  5
BBDC
  8
0
 62
     0
 10
221.10749744620981
 20
1054.8719622439201
 30
0.0
 11
219.02857644620951
 21
1054.3216532439201
 31
0.0
  0
LINE
  5
BBDD
  8
0
 62
     0
 10
221.10749744620981
 20
1047.8719622439201
 30
0.0
 11
219.02857644620951
 21
1048.36735924392
 31
0.0
  0
LINE
  5
BBDE
  8
0
 62
     0
 10
221.10749744620981
 20
1045.8719622439201
 30
0.0
 11
221.10749744620981
 21
1047.8719622439201
 31
0.0
  0
LINE
  5
BBDF
  8
0
 62
     0
 10
221.10749744620981
 20
1045.8719622439201
 30
0.0
 11
219.02857644620951
 21
1045.3216532439201
 31
0.0
  0
LINE
  5
BBE0
  8
0
 62
     0
 10
215.52857644620951
 20
1113.0157332439201
 30
0.0
 11
222.02857644620951
 21
1113.0157332439201
 31
0.0
  0
LINE
  5
BBE1
  8
0
 62
     0
 10
215.52857644620951
 20
1113.3498112439199
 30
0.0
 11
222.70857644620929
 21
1113.3498112439199
 31
0.0
  0
LINE
  5
BBE2
  8
0
 62
     0
 10
224.02857644620951
 20
1111.0157332439201
 30
0.0
 11
224.02857644620951
 21
1105.37196624392
 31
0.0
  0
LINE
  5
BBE3
  8
0
 62
     0
 10
225.70857644620941
 20
1116.3498112439199
 30
0.0
 11
225.70857644620941
 21
1105.37196624392
 31
0.0
  0
ARC
  5
BBE4
  8
0
 62
     0
 10
222.70857644620929
 20
1116.3498112439199
 30
0.0
 40
3.0
 50
270.0
 51
0.0
  0
LINE
  5
BBE5
  8
0
 62
     0
 10
215.52857644620951
 20
1097.7281982439199
 30
0.0
 11
222.02857644620951
 21
1097.7281982439199
 31
0.0
  0
LINE
  5
BBE6
  8
0
 62
     0
 10
215.52857644620951
 20
1097.39412024392
 30
0.0
 11
222.70857644620929
 21
1097.39412024392
 31
0.0
  0
LINE
  5
BBE7
  8
0
 62
     0
 10
224.02857644620951
 20
1099.7281982439199
 30
0.0
 11
224.02857644620951
 21
1105.37196624392
 31
0.0
  0
LINE
  5
BBE8
  8
0
 62
     0
 10
225.70857644620941
 20
1094.39412024392
 30
0.0
 11
225.70857644620941
 21
1105.37196624392
 31
0.0
  0
ARC
  5
BBE9
  8
0
 62
     0
 10
222.70857644620929
 20
1094.39412024392
 30
0.0
 40
3.0
 50
359.99999799999722
 51
89.999998000010223
  0
ARC
  5
BBEA
  8
0
  6
CONTINUOUS
 62
     0
 10
400.72837544620921
 20
1050.81330124392
 30
0.0
 40
2.6003989999999999
 50
179.99998200000081
 51
269.99997799999852
  0
ARC
  5
BBEB
  8
0
  6
CONTINUOUS
 62
     0
 10
400.72837544620921
 20
1056.11328924392
 30
0.0
 40
2.600403
 50
90.0
 51
179.99998200000081
  0
LINE
  5
BBEC
  8
0
  6
CONTINUOUS
 62
     0
 10
403.52857644620951
 20
1053.52932024392
 30
0.0
 11
402.02857644620929
 21
1052.6632952439199
 31
0.0
  0
LINE
  5
BBED
  8
0
  6
CONTINUOUS
 62
     0
 10
403.52857644620951
 20
1054.52932024392
 30
0.0
 11
402.02857644620929
 21
1053.6632952439199
 31
0.0
  0
LINE
  5
BBEE
  8
0
  6
CONTINUOUS
 62
     0
 10
403.52857644620951
 20
1059.56329524392
 30
0.0
 11
403.52857644620951
 21
1047.36329524392
 31
0.0
  0
LINE
  5
BBEF
  8
0
  6
CONTINUOUS
 62
     0
 10
402.02857644620929
 20
1059.56329524392
 30
0.0
 11
403.52857644620951
 21
1059.56329524392
 31
0.0
  0
LINE
  5
BBF0
  8
0
  6
CONTINUOUS
 62
     0
 10
402.02857644620929
 20
1047.36329524392
 30
0.0
 11
403.52857644620951
 21
1047.36329524392
 31
0.0
  0
LINE
  5
BBF1
  8
0
  6
CONTINUOUS
 62
     0
 10
398.12858244620952
 20
1056.11328924392
 30
0.0
 11
398.12858244620952
 21
1050.81330124392
 31
0.0
  0
LINE
  5
BBF2
  8
0
  6
CONTINUOUS
 62
     0
 10
402.02857644620929
 20
1059.56329524392
 30
0.0
 11
402.02857644620929
 21
1047.36329524392
 31
0.0
  0
LINE
  5
BBF3
  8
0
  6
CONTINUOUS
 62
     0
 10
402.02857644620929
 20
1048.2132952439199
 30
0.0
 11
400.72837544620921
 21
1048.2132952439199
 31
0.0
  0
LINE
  5
BBF4
  8
0
  6
CONTINUOUS
 62
     0
 10
402.02857644620929
 20
1058.7132952439199
 30
0.0
 11
400.72837544620921
 21
1058.7132952439199
 31
0.0
  0
LINE
  5
BD5E
  8
0
  6
CONTINUOUS
 62
     0
 10
423.02857644620929
 20
1181.1116062439201
 30
0.0
 11
456.52857644621042
 21
1181.1116062439201
 31
0.0
  0
LINE
  5
BD5F
  8
0
  6
CONTINUOUS
 62
     0
 10
423.02857644620929
 20
1167.43792424392
 30
0.0
 11
456.52857644621042
 21
1167.43792424392
 31
0.0
  0
LINE
  5
BD60
  8
0
  6
CONTINUOUS
 62
     0
 10
423.02857644620929
 20
1043.1623252439199
 30
0.0
 11
456.52857644621042
 21
1043.1623252439199
 31
0.0
  0
LINE
  5
BD61
  8
0
  6
CONTINUOUS
 62
     0
 10
423.02857644620929
 20
1055.46996424392
 30
0.0
 11
456.52857644621042
 21
1055.46996424392
 31
0.0
  0
LINE
  5
BD62
  8
0
  6
CONTINUOUS
 62
     0
 10
423.02857644620929
 20
1065.6492562439189
 30
0.0
 11
456.52857644621042
 21
1065.6492562439189
 31
0.0
  0
LINE
  5
BE45
  8
0
 62
     0
 10
423.02848644620912
 20
618.66413031545164
 30
0.0
 11
456.52848644620917
 21
618.66413031545164
 31
0.0
  0
LINE
  5
BE46
  8
0
 62
     0
 10
423.02848644620912
 20
632.33784131545167
 30
0.0
 11
456.52848644620917
 21
632.33784131545167
 31
0.0
  0
LINE
  5
BE47
  8
0
 62
     0
 10
423.02848644620912
 20
640.46184631545157
 30
0.0
 11
439.87458413322179
 21
640.46184631545157
 31
0.0
  0
LINE
  5
BE48
  8
0
 62
     0
 10
462.52851137621042
 20
494.40891831545179
 30
0.0
 11
423.02848644620912
 21
494.40891831545179
 31
0.0
  0
LINE
  5
BE49
  8
0
 62
     0
 10
462.52852680760191
 20
506.69619931545162
 30
0.0
 11
423.02848644620912
 21
506.69619931545162
 31
0.0
  0
LINE
  5
BE4A
  8
0
 62
     0
 10
463.87702200876078
 20
516.87549131545177
 30
0.0
 11
423.02848644620912
 21
516.87549131545177
 31
0.0
  0
LINE
  5
BFE8
  8
0
  6
CONTINUOUS
 62
     7
 10
638.02853644620961
 20
1264.31904224392
 30
0.0
 11
638.02853644620961
 21
946.42496224391971
 31
0.0
  0
LINE
  5
BFE9
  8
0
  6
CENTER
 62
     7
 10
598.0285364462095
 20
1088.23709224392
 30
0.0
 11
598.0285364462095
 21
1121.2853122439201
 31
0.0
  0
LINE
  5
BFEA
  8
0
  6
CONTINUOUS
 62
     7
 10
578.02853644620961
 20
1100.37198224392
 30
0.0
 11
618.02853644620961
 21
1100.37198224392
 31
0.0
  0
LINE
  5
BFEB
  8
0
  6
CONTINUOUS
 62
     7
 10
578.02853644620961
 20
1110.37198224392
 30
0.0
 11
618.02853644620961
 21
1110.37198224392
 31
0.0
  0
LINE
  5
BFEC
  8
0
  6
CONTINUOUS
 62
     7
 10
518.52857644621145
 20
993.37198224391989
 30
0.0
 11
558.02847644620942
 21
993.37198224391989
 31
0.0
  0
LINE
  5
BFED
  8
0
  6
CONTINUOUS
 62
     7
 10
487.52857644620951
 20
985.37198224392012
 30
0.0
 11
514.52857644620929
 21
985.37198224392012
 31
0.0
  0
LINE
  5
BFEE
  8
0
  6
CONTINUOUS
 62
     7
 10
487.52857644620951
 20
1225.3719422439201
 30
0.0
 11
514.52857644620929
 21
1225.3719422439201
 31
0.0
  0
LINE
  5
BFEF
  8
0
  6
CONTINUOUS
 62
     7
 10
516.52847644621124
 20
1223.3719422439201
 30
0.0
 11
516.52847644621124
 21
987.37198224392
 31
0.0
  0
LINE
  5
BFF0
  8
0
  6
CONTINUOUS
 62
     7
 10
518.52857644621145
 20
1217.3719422439201
 30
0.0
 11
558.02847644620942
 21
1217.3719422439201
 31
0.0
  0
LINE
  5
BFF1
  8
0
  6
CONTINUOUS
 62
     7
 10
503.52857644620951
 20
1225.3719422439201
 30
0.0
 11
503.52857644620951
 21
985.37198224392012
 31
0.0
  0
LINE
  5
BFF2
  8
0
  6
CONTINUOUS
 62
     7
 10
516.52847644621124
 20
1034.43918224392
 30
0.0
 11
563.02847644620942
 21
1034.43918224392
 31
0.0
  0
LINE
  5
BFF3
  8
0
  6
CONTINUOUS
 62
     7
 10
503.52857644620951
 20
1205.0991422439199
 30
0.0
 11
516.52847644621124
 21
1205.0991422439199
 31
0.0
  0
LINE
  5
BFF4
  8
0
  6
CONTINUOUS
 62
     7
 10
503.52857644620951
 20
1189.54274224392
 30
0.0
 11
516.52847644621124
 21
1189.54274224392
 31
0.0
  0
LINE
  5
BFF5
  8
0
  6
CONTINUOUS
 62
     7
 10
516.52847644621124
 20
1176.3047422439199
 30
0.0
 11
563.02847644620942
 21
1176.3047422439199
 31
0.0
  0
LINE
  5
BFF6
  8
0
  6
CONTINUOUS
 62
     7
 10
503.52857644620951
 20
1181.3685422439189
 30
0.0
 11
516.52847644621124
 21
1181.3685422439189
 31
0.0
  0
LINE
  5
BFF7
  8
0
  6
CONTINUOUS
 62
     7
 10
503.52857644620951
 20
1029.3752722439201
 30
0.0
 11
516.52847644621124
 21
1029.3752722439201
 31
0.0
  0
LINE
  5
BFF8
  8
0
  6
CONTINUOUS
 62
     7
 10
516.52847644621124
 20
1192.0469422439171
 30
0.0
 11
563.02847644620942
 21
1192.0469422439171
 31
0.0
  0
LINE
  5
BFF9
  8
0
  6
CONTINUOUS
 62
     7
 10
503.52857644620951
 20
1021.20108224392
 30
0.0
 11
516.52847644621124
 21
1021.20108224392
 31
0.0
  0
LINE
  5
BFFA
  8
0
  6
CONTINUOUS
 62
     7
 10
503.52857644620951
 20
1005.6447422439199
 30
0.0
 11
516.52847644621124
 21
1005.6447422439199
 31
0.0
  0
LINE
  5
BFFB
  8
0
  6
CONTINUOUS
 62
     7
 10
516.52847644621124
 20
1018.6971122439199
 30
0.0
 11
563.02847644620942
 21
1018.6971122439199
 31
0.0
  0
LINE
  5
BFFC
  8
0
  6
CONTINUOUS
 62
     7
 10
583.02847644620942
 20
953.17404224391987
 30
0.0
 11
583.02847644620942
 21
1100.37198224392
 31
0.0
  0
LINE
  5
BFFD
  8
0
  6
CONTINUOUS
 62
     7
 10
638.02853644620961
 20
946.42496224391971
 30
0.0
 11
587.85397644620934
 21
948.17709224391956
 31
0.0
  0
LINE
  5
BFFE
  8
0
  6
CONTINUOUS
 62
     7
 10
746.70303644620935
 20
1268.11404224392
 30
0.0
 11
638.02853644620961
 21
1264.31904224392
 31
0.0
  0
LINE
  5
BFFF
  8
0
  6
CONTINUOUS
 62
     7
 10
588.02847644620942
 20
1010.42783224392
 30
0.0
 11
614.02853644620916
 21
1010.42783224392
 31
0.0
  0
LINE
  5
C000
  8
0
  6
CONTINUOUS
 62
     7
 10
588.02847644620942
 20
1056.3434122439201
 30
0.0
 11
614.02853644620916
 21
1056.3434122439201
 31
0.0
  0
LINE
  5
C001
  8
0
  6
CONTINUOUS
 62
     7
 10
588.02847644620942
 20
969.07236224392
 30
0.0
 11
614.02853644620916
 21
969.07236224392
 31
0.0
  0
LINE
  5
C002
  8
0
  6
CONTINUOUS
 62
     7
 10
588.02847644620942
 20
958.28195224391959
 30
0.0
 11
614.02853644620916
 21
958.28195224391959
 31
0.0
  0
LINE
  5
C003
  8
0
  6
CONTINUOUS
 62
     7
 10
616.02853644620961
 20
960.2819522439197
 30
0.0
 11
616.02853644620961
 21
967.07236224391988
 31
0.0
  0
LINE
  5
C004
  8
0
  6
CONTINUOUS
 62
     7
 10
616.02853644620961
 20
1012.42783224392
 30
0.0
 11
616.02853644620961
 21
1054.3434122439201
 31
0.0
  0
LINE
  5
C005
  8
0
  6
CONTINUOUS
 62
     7
 10
588.02847644620942
 20
1252.46194224392
 30
0.0
 11
614.02853644620916
 21
1252.46194224392
 31
0.0
  0
LINE
  5
C006
  8
0
  6
CONTINUOUS
 62
     7
 10
616.02853644620961
 20
1198.31624224392
 30
0.0
 11
616.02853644620961
 21
1156.40054224392
 31
0.0
  0
LINE
  5
C007
  8
0
  6
CONTINUOUS
 62
     7
 10
588.02847644620942
 20
1200.31624224392
 30
0.0
 11
614.02853644620916
 21
1200.31624224392
 31
0.0
  0
LINE
  5
C008
  8
0
  6
CONTINUOUS
 62
     7
 10
588.02847644620942
 20
1241.6715422439199
 30
0.0
 11
614.02853644620916
 21
1241.6715422439199
 31
0.0
  0
LINE
  5
C009
  8
0
  6
CONTINUOUS
 62
     7
 10
588.02847644620942
 20
1154.40054224392
 30
0.0
 11
614.02853644620916
 21
1154.40054224392
 31
0.0
  0
LINE
  5
C00A
  8
0
  6
CONTINUOUS
 62
     7
 10
616.02853644620961
 20
1250.46194224392
 30
0.0
 11
616.02853644620961
 21
1243.6715422439199
 31
0.0
  0
LINE
  5
C00B
  8
0
  6
CONTINUOUS
 62
     7
 10
563.02847644620942
 20
980.44058224391961
 30
0.0
 11
563.02847644620942
 21
1230.3033422439189
 31
0.0
  0
LINE
  5
C00C
  8
0
  6
CONTINUOUS
 62
     7
 10
578.3625164462095
 20
974.73740224391986
 30
0.0
 11
567.69449644620931
 21
975.45175224391971
 31
0.0
  0
LINE
  5
C00D
  8
0
  6
CONTINUOUS
 62
     7
 10
578.36258644620943
 20
1236.00654224392
 30
0.0
 11
567.6944264462096
 21
1235.2921422439199
 31
0.0
  0
LINE
  5
C00E
  8
0
  6
CONTINUOUS
 62
     7
 10
583.02847644620942
 20
1110.37198224392
 30
0.0
 11
583.02847644620942
 21
1257.56984224392
 31
0.0
  0
LINE
  5
C00F
  8
0
  6
CONTINUOUS
 62
     7
 10
485.52857644620929
 20
1223.3719422439201
 30
0.0
 11
485.52857644620929
 21
987.37198224392
 31
0.0
  0
LINE
  5
C010
  8
0
  6
CONTINUOUS
 62
     7
 10
786.52853644620961
 20
1075.37198224392
 30
0.0
 11
891.52853644620961
 21
1075.37198224392
 31
0.0
  0
LINE
  5
C011
  8
0
  6
CONTINUOUS
 62
     7
 10
781.52853644620961
 20
1137.87198224392
 30
0.0
 11
786.52853644620961
 21
1137.87198224392
 31
0.0
  0
LINE
  5
C012
  8
0
  6
CONTINUOUS
 62
     7
 10
781.52853644620961
 20
1072.87198224392
 30
0.0
 11
786.52853644620961
 21
1072.87198224392
 31
0.0
  0
LINE
  5
C013
  8
0
  6
CONTINUOUS
 62
     7
 10
891.52853644620961
 20
1135.37198224392
 30
0.0
 11
891.52853644620961
 21
1075.37198224392
 31
0.0
  0
LINE
  5
C014
  8
0
  6
CONTINUOUS
 62
     7
 10
786.52853644620961
 20
1137.87198224392
 30
0.0
 11
786.52853644620961
 21
1072.87198224392
 31
0.0
  0
LINE
  5
C015
  8
0
  6
CONTINUOUS
 62
     7
 10
786.52853644620961
 20
1135.37198224392
 30
0.0
 11
891.52853644620961
 21
1135.37198224392
 31
0.0
  0
LINE
  5
C016
  8
0
  6
CONTINUOUS
 62
     7
 10
810.52853644620961
 20
1114.37198224392
 30
0.0
 11
810.52853644620961
 21
1096.37198224392
 31
0.0
  0
LINE
  5
C017
  8
0
  6
CONTINUOUS
 62
     7
 10
749.16079644620959
 20
1246.0845422439199
 30
0.0
 11
692.8963364462096
 21
1211.2462422439201
 31
0.0
  0
LINE
  5
C018
  8
0
  6
CONTINUOUS
 62
     7
 10
749.16067644620944
 20
1234.1191422439199
 30
0.0
 11
694.22366644620945
 21
1200.1027422439199
 31
0.0
  0
LINE
  5
C019
  8
0
  6
CONTINUOUS
 62
     7
 10
690.52853644620961
 20
1206.995142243919
 30
0.0
 11
690.52853644620961
 21
1202.8146422439199
 31
0.0
  0
LINE
  5
C01A
  8
0
  6
CONTINUOUS
 62
     7
 10
751.52859644620935
 20
1215.2787422439201
 30
0.0
 11
729.35074644620954
 21
1198.8010422439199
 31
0.0
  0
LINE
  5
C01B
  8
0
  6
CONTINUOUS
 62
     7
 10
695.5285364462095
 20
1197.8146422439199
 30
0.0
 11
726.36880644620942
 21
1197.8146422439199
 31
0.0
  0
LINE
  5
C01C
  8
0
  6
CONTINUOUS
 62
     7
 10
753.52853644620961
 20
1253.9308422439201
 30
0.0
 11
758.5285364462095
 21
1253.9308422439201
 31
0.0
  0
LINE
  5
C01D
  8
0
  6
CONTINUOUS
 62
     7
 10
751.52853644620961
 20
1191.64334224392
 30
0.0
 11
758.5285364462095
 21
1191.64334224392
 31
0.0
  0
LINE
  5
C01E
  8
0
  6
CONTINUOUS
 62
     7
 10
754.5285364462095
 20
1290.3719422439201
 30
0.0
 11
776.52853644620961
 21
1290.3719422439201
 31
0.0
  0
LINE
  5
C01F
  8
0
  6
CONTINUOUS
 62
     7
 10
776.52853644620961
 20
1290.3719422439201
 30
0.0
 11
776.52853644620961
 21
920.37198224391966
 31
0.0
  0
LINE
  5
C020
  8
0
  6
CONTINUOUS
 62
     7
 10
760.52853644620961
 20
1251.9308422439201
 30
0.0
 11
760.52853644620961
 21
958.80203224391994
 31
0.0
  0
LINE
  5
C021
  8
0
  6
CONTINUOUS
 62
     7
 10
776.52853644620961
 20
1260.3719422439201
 30
0.0
 11
781.52853644620961
 21
1260.3719422439201
 31
0.0
  0
LINE
  5
C022
  8
0
  6
CONTINUOUS
 62
     7
 10
751.52853644620961
 20
1287.3719422439201
 30
0.0
 11
751.52853644620961
 21
923.37198224392
 31
0.0
  0
LINE
  5
C023
  8
0
  6
CONTINUOUS
 62
     7
 10
781.52853644620961
 20
950.37198224391989
 30
0.0
 11
781.52853644620961
 21
1260.3719422439201
 31
0.0
  0
LINE
  5
C024
  8
0
  6
CONTINUOUS
 62
     7
 10
638.02853644620961
 20
1264.31904224392
 30
0.0
 11
587.85397644620934
 21
1262.56694224392
 31
0.0
  0
LINE
  5
C025
  8
0
  6
CONTINUOUS
 62
     7
 10
746.70303644620935
 20
942.62991224391999
 30
0.0
 11
638.02853644620961
 21
946.42490224391986
 31
0.0
  0
LINE
  5
C026
  8
0
  6
CONTINUOUS
 62
     7
 10
749.16073644620951
 20
964.65933224391983
 30
0.0
 11
692.8963364462096
 21
999.49771224391975
 31
0.0
  0
LINE
  5
C027
  8
0
  6
CONTINUOUS
 62
     7
 10
749.16067644620944
 20
976.62485224391958
 30
0.0
 11
694.22366644620945
 21
1010.64133224392
 31
0.0
  0
LINE
  5
C028
  8
0
  6
CONTINUOUS
 62
     7
 10
690.52853644620961
 20
1003.748812243919
 30
0.0
 11
690.52853644620961
 21
1007.92935224392
 31
0.0
  0
LINE
  5
C029
  8
0
  6
CONTINUOUS
 62
     7
 10
751.52859644620935
 20
995.46518224392014
 30
0.0
 11
729.35074644620954
 21
1011.94284224392
 31
0.0
  0
LINE
  5
C02A
  8
0
  6
CONTINUOUS
 62
     7
 10
695.5285364462095
 20
1012.92935224392
 30
0.0
 11
726.36880644620942
 21
1012.92935224392
 31
0.0
  0
LINE
  5
C02B
  8
0
  6
CONTINUOUS
 62
     7
 10
753.52853644620961
 20
956.81308224391967
 30
0.0
 11
758.5285364462095
 21
956.81308224391967
 31
0.0
  0
LINE
  5
C02C
  8
0
  6
CONTINUOUS
 62
     7
 10
751.52853644620961
 20
1019.10062224392
 30
0.0
 11
758.5285364462095
 21
1019.10062224392
 31
0.0
  0
LINE
  5
C02D
  8
0
  6
CONTINUOUS
 62
     7
 10
754.5285364462095
 20
920.37192224392004
 30
0.0
 11
776.52853644620961
 21
920.37192224392004
 31
0.0
  0
LINE
  5
C02E
  8
0
  6
CONTINUOUS
 62
     7
 10
776.52853644620961
 20
950.37198224391989
 30
0.0
 11
781.52853644620961
 21
950.37198224391989
 31
0.0
  0
LINE
  5
C02F
  8
0
  6
CONTINUOUS
 62
     7
 10
810.52853644620961
 20
1114.37198224392
 30
0.0
 11
891.52853644620961
 21
1114.37198224392
 31
0.0
  0
LINE
  5
C030
  8
0
  6
CONTINUOUS
 62
     7
 10
810.52853644620961
 20
1096.37198224392
 30
0.0
 11
891.52853644620961
 21
1096.37198224392
 31
0.0
  0
ARC
  5
C031
  8
0
  6
CONTINUOUS
 62
     7
 10
618.02853644620961
 20
1105.37198224392
 30
0.0
 40
5.0
 50
270.0
 51
90.00000299999769
  0
ARC
  5
C032
  8
0
  6
CONTINUOUS
 62
     7
 10
578.02853644620961
 20
1105.37198224392
 30
0.0
 40
5.0
 50
90.00000299999769
 51
270.0
  0
ARC
  5
C033
  8
0
  6
CONTINUOUS
 62
     7
 10
598.0285364462095
 20
1105.37198224392
 30
0.0
 40
12.5
 50
23.578179999997541
 51
156.42182000000241
  0
ARC
  5
C034
  8
0
  6
CONTINUOUS
 62
     7
 10
598.0285364462095
 20
1105.37198224392
 30
0.0
 40
12.5
 50
203.5781799999975
 51
336.42182999999483
  0
ARC
  5
C035
  8
0
  6
CONTINUOUS
 62
     7
 10
558.02847644620942
 20
988.37198224392
 30
0.0
 40
5.0
 50
0.0
 51
90.00000299999769
  0
ARC
  5
C036
  8
0
  6
CONTINUOUS
 62
     7
 10
558.02847644620942
 20
1222.3719422439201
 30
0.0
 40
5.0
 50
270.0
 51
0.0
  0
ARC
  5
C037
  8
0
  6
CONTINUOUS
 62
     7
 10
514.52857644620929
 20
1223.3719422439201
 30
0.0
 40
2.0
 50
0.0
 51
90.00000299999769
  0
ARC
  5
C038
  8
0
  6
CONTINUOUS
 62
     7
 10
514.52857644620929
 20
987.37198224392
 30
0.0
 40
2.0
 50
270.0
 51
0.0
  0
ARC
  5
C039
  8
0
  6
CONTINUOUS
 62
     7
 10
518.52857644621145
 20
991.37198224391989
 30
0.0
 40
2.0
 50
90.00000299999769
 51
180.000010000001
  0
ARC
  5
C03A
  8
0
  6
CONTINUOUS
 62
     7
 10
518.52857644621145
 20
1219.371942243919
 30
0.0
 40
2.0
 50
179.999989999999
 51
270.0
  0
ARC
  5
C03B
  8
0
  6
CONTINUOUS
 62
     7
 10
588.02847644620942
 20
953.17404224391987
 30
0.0
 40
5.0
 50
180.000010000001
 51
268.00000999999878
  0
ARC
  5
C03C
  8
0
  6
CONTINUOUS
 62
     7
 10
588.02847644620942
 20
1257.56984224392
 30
0.0
 40
5.0
 50
91.999998000000787
 51
180.000010000001
  0
ARC
  5
C03D
  8
0
  6
CONTINUOUS
 62
     7
 10
614.02853644620916
 20
960.2819522439197
 30
0.0
 40
2.0
 50
270.0
 51
0.0
  0
ARC
  5
C03E
  8
0
  6
CONTINUOUS
 62
     7
 10
614.02853644620916
 20
967.07236224391988
 30
0.0
 40
2.0
 50
0.0
 51
90.00000299999769
  0
ARC
  5
C03F
  8
0
  6
CONTINUOUS
 62
     7
 10
614.02853644620916
 20
1012.42783224392
 30
0.0
 40
2.0
 50
270.0
 51
0.0
  0
ARC
  5
C040
  8
0
  6
CONTINUOUS
 62
     7
 10
614.02853644620916
 20
1054.3434122439201
 30
0.0
 40
2.0
 50
0.0
 51
90.00000299999769
  0
ARC
  5
C041
  8
0
  6
CONTINUOUS
 62
     7
 10
588.02847644620942
 20
1061.3434122439201
 30
0.0
 40
5.0
 50
180.000010000001
 51
270.0
  0
ARC
  5
C042
  8
0
  6
CONTINUOUS
 62
     7
 10
588.02847644620942
 20
1005.42783224392
 30
0.0
 40
5.0
 50
90.00000299999769
 51
180.000010000001
  0
ARC
  5
C043
  8
0
  6
CONTINUOUS
 62
     7
 10
588.02847644620942
 20
974.07236224391988
 30
0.0
 40
5.0
 50
180.000010000001
 51
270.0
  0
ARC
  5
C044
  8
0
  6
CONTINUOUS
 62
     7
 10
588.02847644620942
 20
953.2819522439197
 30
0.0
 40
5.0
 50
90.00000299999769
 51
180.000010000001
  0
ARC
  5
C045
  8
0
  6
CONTINUOUS
 62
     7
 10
588.02847644620942
 20
1257.4619422439191
 30
0.0
 40
5.0
 50
180.000010000001
 51
270.0
  0
ARC
  5
C046
  8
0
  6
CONTINUOUS
 62
     7
 10
614.02853644620916
 20
1156.40054224392
 30
0.0
 40
2.0
 50
270.0
 51
0.0
  0
ARC
  5
C047
  8
0
  6
CONTINUOUS
 62
     7
 10
614.02853644620916
 20
1243.6715422439199
 30
0.0
 40
2.0
 50
270.0
 51
0.0
  0
ARC
  5
C048
  8
0
  6
CONTINUOUS
 62
     7
 10
614.02853644620916
 20
1250.46194224392
 30
0.0
 40
2.0
 50
0.0
 51
90.00000299999769
  0
ARC
  5
C049
  8
0
  6
CONTINUOUS
 62
     7
 10
588.02847644620942
 20
1149.4005422439191
 30
0.0
 40
5.0
 50
90.00000299999769
 51
180.000010000001
  0
ARC
  5
C04A
  8
0
  6
CONTINUOUS
 62
     7
 10
614.02853644620916
 20
1198.31624224392
 30
0.0
 40
2.0
 50
0.0
 51
90.00000299999769
  0
ARC
  5
C04B
  8
0
  6
CONTINUOUS
 62
     7
 10
588.02847644620942
 20
1205.31624224392
 30
0.0
 40
5.0
 50
180.000010000001
 51
270.0
  0
ARC
  5
C04C
  8
0
  6
CONTINUOUS
 62
     7
 10
588.02847644620942
 20
1236.6715422439199
 30
0.0
 40
5.0
 50
90.00000299999769
 51
180.000010000001
  0
ARC
  5
C04D
  8
0
  6
CONTINUOUS
 62
     7
 10
578.02847644620942
 20
969.74857224391997
 30
0.0
 40
5.0
 50
0.0
 51
86.16916099999878
  0
ARC
  5
C04E
  8
0
  6
CONTINUOUS
 62
     7
 10
568.02847644620931
 20
980.44058224391961
 30
0.0
 40
5.0
 50
180.000010000001
 51
266.1691599999977
  0
ARC
  5
C04F
  8
0
  6
CONTINUOUS
 62
     7
 10
568.02847644620931
 20
1230.3033422439189
 30
0.0
 40
5.0
 50
93.830836999998056
 51
180.000010000001
  0
ARC
  5
C050
  8
0
  6
CONTINUOUS
 62
     7
 10
578.02847644620942
 20
1240.9954422439189
 30
0.0
 40
5.0
 50
273.83084000000241
 51
0.0
  0
ARC
  5
C051
  8
0
  6
CONTINUOUS
 62
     7
 10
487.52857644620951
 20
987.37198224392
 30
0.0
 40
2.0
 50
179.999989999999
 51
270.0
  0
ARC
  5
C052
  8
0
  6
CONTINUOUS
 62
     7
 10
487.52857644620951
 20
1223.3719422439201
 30
0.0
 40
2.0
 50
90.00000299999769
 51
180.000010000001
  0
ARC
  5
C053
  8
0
  6
CONTINUOUS
 62
     7
 10
480.52857644621042
 20
1216.8730422439189
 30
0.0
 40
5.0
 50
289.99999999999528
 51
0.0
  0
ARC
  5
C054
  8
0
  6
CONTINUOUS
 62
     7
 10
480.52857644621042
 20
993.87094224392013
 30
0.0
 40
5.0
 50
0.0
 51
70.000000000004647
  0
ARC
  5
C055
  8
0
  6
CONTINUOUS
 62
     7
 10
695.5285364462095
 20
1206.995142243919
 30
0.0
 40
5.0
 50
121.76535999999901
 51
180.000010000001
  0
ARC
  5
C056
  8
0
  6
CONTINUOUS
 62
     7
 10
726.36880644620942
 20
1202.8146422439199
 30
0.0
 40
5.0
 50
270.0
 51
306.61150000000521
  0
ARC
  5
C057
  8
0
  6
CONTINUOUS
 62
     7
 10
695.5285364462095
 20
1202.8146422439199
 30
0.0
 40
5.0
 50
179.999989999999
 51
270.0
  0
ARC
  5
C058
  8
0
  6
CONTINUOUS
 62
     7
 10
746.52853644620961
 20
1250.335642243919
 30
0.0
 40
5.0
 50
301.76536999999581
 51
0.0
  0
ARC
  5
C059
  8
0
  6
CONTINUOUS
 62
     7
 10
754.5285364462095
 20
1287.3719422439201
 30
0.0
 40
3.0
 50
90.00000299999769
 51
180.000010000001
  0
ARC
  5
C05A
  8
0
  6
CONTINUOUS
 62
     7
 10
758.5285364462095
 20
1189.64334224392
 30
0.0
 40
2.0
 50
0.0
 51
90.00000299999769
  0
ARC
  5
C05B
  8
0
  6
CONTINUOUS
 62
     7
 10
758.5285364462095
 20
1251.9308422439201
 30
0.0
 40
2.0
 50
0.0
 51
90.00000299999769
  0
ARC
  5
C05C
  8
0
  6
CONTINUOUS
 62
     7
 10
753.52853644620961
 20
1255.9308422439201
 30
0.0
 40
2.0
 50
179.999989999999
 51
270.0
  0
ARC
  5
C05D
  8
0
  6
CONTINUOUS
 62
     7
 10
746.52853644620961
 20
1273.111042243919
 30
0.0
 40
5.0
 50
271.99999999999699
 51
0.0
  0
ARC
  5
C05E
  8
0
  6
CONTINUOUS
 62
     7
 10
746.52853644620961
 20
937.63303224391984
 30
0.0
 40
5.0
 50
0.0
 51
88.000000000002998
  0
ARC
  5
C05F
  8
0
  6
CONTINUOUS
 62
     7
 10
695.5285364462095
 20
1003.748812243919
 30
0.0
 40
5.0
 50
179.999989999999
 51
238.23464999999629
  0
ARC
  5
C060
  8
0
  6
CONTINUOUS
 62
     7
 10
726.36880644620942
 20
1007.92935224392
 30
0.0
 40
5.0
 50
53.388504999994019
 51
90.00000299999769
  0
ARC
  5
C061
  8
0
  6
CONTINUOUS
 62
     7
 10
695.5285364462095
 20
1007.92935224392
 30
0.0
 40
5.0
 50
90.00000299999769
 51
180.000010000001
  0
ARC
  5
C062
  8
0
  6
CONTINUOUS
 62
     7
 10
746.52853644620961
 20
960.4083622439199
 30
0.0
 40
5.0
 50
0.0
 51
58.234630000004231
  0
ARC
  5
C063
  8
0
  6
CONTINUOUS
 62
     7
 10
754.5285364462095
 20
923.37198224392
 30
0.0
 40
3.0
 50
179.999989999999
 51
270.0
  0
ARC
  5
C064
  8
0
  6
CONTINUOUS
 62
     7
 10
758.5285364462095
 20
1021.10062224392
 30
0.0
 40
2.0
 50
270.0
 51
0.0
  0
ARC
  5
C065
  8
0
  6
CONTINUOUS
 62
     7
 10
758.5285364462095
 20
958.81308224392001
 30
0.0
 40
2.0
 50
270.0
 51
0.0
  0
ARC
  5
C066
  8
0
  6
CONTINUOUS
 62
     7
 10
753.52853644620961
 20
954.81308224391955
 30
0.0
 40
2.0
 50
90.00000299999769
 51
180.000010000001
  0
ARC
  5
C067
  8
0
  6
CONTINUOUS
 62
     7
 10
810.52853644620961
 20
1105.37198224392
 30
0.0
 40
9.0
 50
90.00000299999769
 51
270.0
  0
POLYLINE
  5
C068
  8
0
  6
CONTINUOUS
 62
     7
 66
     1
 10
0.0
 20
0.0
 30
0.0
  0
VERTEX
  5
C069
  8
0
  6
CONTINUOUS
 62
     7
 10
751.52853644620961
 20
1270.3719422439201
 30
0.0
  0
VERTEX
  5
C06A
  8
0
  6
CONTINUOUS
 62
     7
 10
741.70189644620962
 20
1241.46644224392
 30
0.0
 42
-1.0
  0
SEQEND
  5
C06B
  8
0
 62
     7
  0
POLYLINE
  5
C06C
  8
0
  6
CONTINUOUS
 62
     7
 66
     1
 10
0.0
 20
0.0
 30
0.0
  0
VERTEX
  5
C06D
  8
0
  6
CONTINUOUS
 62
     7
 10
730.91203644620941
 20
1199.9611422439179
 30
0.0
 42
0.034282229
  0
VERTEX
  5
C06E
  8
0
  6
CONTINUOUS
 62
     7
 10
721.86773644620962
 20
1137.1148922439199
 30
0.0
 42
0.072426646
  0
VERTEX
  5
C06F
  8
0
  6
CONTINUOUS
 62
     7
 10
730.91203644620941
 20
1010.7828022439199
 30
0.0
  0
SEQEND
  5
C070
  8
0
 62
     7
  0
POLYLINE
  5
C071
  8
0
  6
CONTINUOUS
 62
     7
 66
     1
 10
0.0
 20
0.0
 30
0.0
  0
VERTEX
  5
C072
  8
0
  6
CONTINUOUS
 62
     7
 10
741.70184644620952
 20
969.2776722439196
 30
0.0
 42
0.0050438079
  0
VERTEX
  5
C073
  8
0
  6
CONTINUOUS
 62
     7
 10
744.78385644620971
 20
959.57728224391985
 30
0.0
 42
0.0050105797
  0
VERTEX
  5
C074
  8
0
  6
CONTINUOUS
 62
     7
 10
748.06027644620951
 20
949.94082224392002
 30
0.0
 42
0.0049830203
  0
VERTEX
  5
C075
  8
0
  6
CONTINUOUS
 62
     7
 10
751.52853644620961
 20
940.37198224392
 30
0.0
  0
SEQEND
  5
C076
  8
0
 62
     7
  0
LINE
  5
C13A
  8
AM_0
 10
810.52848644620985
 20
699.09819731545122
 30
0.0
 11
891.52853644620961
 21
699.09819731545122
 31
0.0
  0
LINE
  5
C13B
  8
AM_0
 10
810.52848644620985
 20
699.09819731545122
 30
0.0
 11
810.52848644620985
 21
695.09816731545152
 31
0.0
  0
LINE
  5
C13C
  8
AM_0
 10
786.52848644620997
 20
635.09816731545152
 30
0.0
 11
891.52853644620961
 21
635.09816731545152
 31
0.0
  0
LINE
  5
C13D
  8
AM_0
 10
786.52848644620997
 20
695.09816731545152
 30
0.0
 11
891.52853644620961
 21
695.09816731545152
 31
0.0
  0
LINE
  5
C13E
  8
AM_0
 10
891.52853644620961
 20
699.09819731545122
 30
0.0
 11
891.52853644620961
 21
635.09816731545152
 31
0.0
  0
LINE
  5
C13F
  8
AM_0
 10
786.52848644620997
 20
697.59816731545152
 30
0.0
 11
786.52848644620997
 21
632.59816731545152
 31
0.0
  0
LINE
  5
C140
  8
AM_0
 10
781.52848644620997
 20
632.59816731545152
 30
0.0
 11
786.52848644620997
 21
632.59816731545152
 31
0.0
  0
LINE
  5
C141
  8
AM_0
 10
781.52848644620997
 20
697.59816731545152
 30
0.0
 11
786.52848644620997
 21
697.59816731545152
 31
0.0
  0
LINE
  5
C142
  8
AM_0
 10
579.27548644621027
 20
763.09573731545152
 30
0.0
 11
566.78153644621023
 21
753.10058731545155
 31
0.0
  0
LINE
  5
C143
  8
AM_0
 10
565.99308644621021
 20
488.37814731545132
 30
0.0
 11
580.06393644621016
 21
474.4480023154515
 31
0.0
  0
LINE
  5
C144
  8
AM_0
 10
616.02853644621041
 20
784.84573731545152
 30
0.0
 11
616.02853644621041
 21
772.21883731545154
 31
0.0
  0
LINE
  5
C145
  8
AM_0
 10
518.52853644621052
 20
505.0981623154513
 30
0.0
 11
558.02848644620985
 21
505.0981623154513
 31
0.0
  0
LINE
  5
C146
  8
AM_0
 10
583.02848644620985
 20
795.09818731545124
 30
0.0
 11
583.02848644620985
 21
446.95018231545117
 31
0.0
  0
LINE
  5
C147
  8
AM_0
 10
516.52848644620985
 20
735.09816731545152
 30
0.0
 11
516.52848644620985
 21
499.0981623154513
 31
0.0
  0
LINE
  5
C148
  8
AM_0
 10
518.52853644621052
 20
729.09819731545122
 30
0.0
 11
558.02848644620985
 21
729.09819731545122
 31
0.0
  0
LINE
  5
C149
  8
AM_0
 10
563.02848644620974
 20
745.29193731545138
 30
0.0
 11
563.02848644620974
 21
495.4846673154513
 31
0.0
  0
LINE
  5
C14A
  8
AM_0
 10
587.85413644620974
 20
795.34603731545121
 30
0.0
 11
638.02853644621052
 21
797.09818731545147
 31
0.0
  0
LINE
  5
C14B
  8
AM_0
 10
585.02853644620961
 20
797.09818731545147
 30
0.0
 11
638.02848644620974
 21
797.09818731545147
 31
0.0
  0
LINE
  5
C14C
  8
AM_0
 10
588.23448644620987
 20
806.09818731545124
 30
0.0
 11
607.82258644620993
 21
806.09818731545124
 31
0.0
  0
LINE
  5
C14D
  8
AM_0
 10
585.5286364462097
 20
797.09808731545115
 30
0.0
 11
587.77908644621016
 21
805.49703731545139
 31
0.0
  0
LINE
  5
C14E
  8
AM_0
 10
610.52853644621052
 20
797.09818731545147
 30
0.0
 11
608.27808644620984
 21
805.49708731545161
 31
0.0
  0
LINE
  5
C14F
  8
AM_0
 10
588.5504864462099
 20
806.21913731545146
 30
0.0
 11
598.02848644620974
 21
808.09808731545138
 31
0.0
  0
LINE
  5
C150
  8
AM_0
 10
598.02853644621052
 20
808.09818731545147
 30
0.0
 11
607.50658644621024
 21
806.21918731545156
 31
0.0
  0
LINE
  5
C151
  8
AM_0
 10
516.52848644620985
 20
546.16536231545115
 30
0.0
 11
563.02848644620974
 21
546.16536231545115
 31
0.0
  0
LINE
  5
C152
  8
AM_0
 10
516.52848644620985
 20
530.42329731545146
 30
0.0
 11
563.02848644620974
 21
530.42329731545146
 31
0.0
  0
LINE
  5
C153
  8
AM_0
 10
516.52848644620985
 20
688.03099731545115
 30
0.0
 11
563.02848644620974
 21
688.03099731545115
 31
0.0
  0
LINE
  5
C154
  8
AM_0
 10
516.52848644620985
 20
703.77306231545163
 30
0.0
 11
563.02848644620974
 21
703.77306231545163
 31
0.0
  0
LINE
  5
C155
  8
AM_0
 10
588.02848644620974
 20
527.77168731545135
 30
0.0
 11
614.02848644620974
 21
527.77168731545135
 31
0.0
  0
LINE
  5
C156
  8
AM_0
 10
588.02848644620974
 20
568.04106731545153
 30
0.0
 11
614.02848644620974
 21
568.04106731545153
 31
0.0
  0
LINE
  5
C157
  8
AM_0
 10
588.02848644620974
 20
653.14900731545163
 30
0.0
 11
614.02848644620974
 21
653.14900731545163
 31
0.0
  0
LINE
  5
C158
  8
AM_0
 10
588.02848644620974
 20
690.32320231545157
 30
0.0
 11
614.02848644620974
 21
690.32320231545157
 31
0.0
  0
LINE
  5
C159
  8
AM_0
 10
588.02848644620974
 20
770.21883731545154
 30
0.0
 11
614.02848644620974
 21
770.21883731545154
 31
0.0
  0
LINE
  5
C15A
  8
AM_0
 10
588.02848644620974
 20
786.84573731545152
 30
0.0
 11
614.02848644620974
 21
786.84573731545152
 31
0.0
  0
LINE
  5
C15B
  8
AM_0
 10
616.02853644621041
 20
566.04103731545149
 30
0.0
 11
616.02853644621041
 21
529.7717173154515
 31
0.0
  0
LINE
  5
C15C
  8
AM_0
 10
616.02853644621041
 20
688.32320231545123
 30
0.0
 11
616.02853644621041
 21
655.14900731545163
 31
0.0
  0
LINE
  5
C15D
  8
AM_0
 10
728.02298644620976
 20
757.54073731545111
 30
0.0
 11
751.26608644621035
 21
607.55504231545171
 31
0.0
  0
LINE
  5
C15E
  8
AM_0
 10
638.02848644620974
 20
797.09818731545147
 30
0.0
 11
638.02848644620974
 21
443.09816231545119
 31
0.0
  0
LINE
  5
C15F
  8
AM_0
 10
781.52848644620997
 20
510.09816231545119
 30
0.0
 11
781.52848644620997
 21
820.09818731545136
 31
0.0
  0
LINE
  5
C160
  8
AM_0
 10
671.52848644620974
 20
521.53493231545133
 30
0.0
 11
671.52848644620974
 21
507.88490731545153
 31
0.0
  0
LINE
  5
C161
  8
AM_0
 10
751.52848644620974
 20
847.09818731545136
 30
0.0
 11
751.52848644620974
 21
607.16115231545155
 31
0.0
  0
LINE
  5
C162
  8
AM_0
 10
638.02853644621052
 20
797.09818731545147
 30
0.0
 11
716.7049364462099
 21
799.15833731545115
 31
0.0
  0
LINE
  5
C163
  8
AM_0
 10
721.44138644621023
 20
800.01093731545109
 30
0.0
 11
723.04828644621
 21
789.64218731545145
 31
0.0
  0
LINE
  5
C164
  8
AM_0
 10
701.56103644620976
 20
441.00517561376398
 30
0.0
 11
768.52853644621052
 21
480.0981623154513
 31
0.0
  0
LINE
  5
C165
  8
AM_0
 10
753.52853644621018
 20
516.53929731545122
 30
0.0
 11
758.52853644621052
 21
516.53929731545122
 31
0.0
  0
LINE
  5
C166
  8
AM_0
 10
753.24243644621015
 20
605.86134731545133
 30
0.0
 11
758.52853644621052
 21
605.86134731545133
 31
0.0
  0
LINE
  5
C167
  8
AM_0
 10
776.52848644620974
 20
820.09818731545136
 30
0.0
 11
781.52848644620997
 21
820.09818731545136
 31
0.0
  0
LINE
  5
C168
  8
AM_0
 10
776.52848644620974
 20
510.09816231545119
 30
0.0
 11
781.52848644620997
 21
510.09816231545119
 31
0.0
  0
LINE
  5
C169
  8
AM_0
 10
760.52848644620974
 20
811.65708731545146
 30
0.0
 11
760.52848644620974
 21
518.53929731545122
 31
0.0
  0
LINE
  5
C16A
  8
AM_0
 10
776.52848644620974
 20
850.09823731545123
 30
0.0
 11
776.52848644620974
 21
480.0981623154513
 31
0.0
  0
LINE
  5
C16B
  8
AM_0
 10
751.52848644620974
 20
553.31490231545115
 30
0.0
 11
751.52848644620974
 21
483.0981623154513
 31
0.0
  0
LINE
  5
C16C
  8
AM_0
 10
753.52853644621018
 20
554.50426231545157
 30
0.0
 11
758.52853644621052
 21
554.50426231545157
 31
0.0
  0
LINE
  5
C16D
  8
AM_0
 10
723.51428644621012
 20
802.08388731545165
 30
0.0
 11
750.06408644621013
 21
828.6336873154512
 31
0.0
  0
LINE
  5
C16E
  8
AM_0
 10
754.52848644620974
 20
850.09823731545123
 30
0.0
 11
776.52848644620974
 21
850.09823731545123
 31
0.0
  0
LINE
  5
C16F
  8
AM_0
 10
751.52848644620974
 20
751.36953731545111
 30
0.0
 11
758.52853644621052
 21
751.36953731545111
 31
0.0
  0
LINE
  5
C170
  8
AM_0
 10
753.52853644621018
 20
813.65708731545124
 30
0.0
 11
758.52853644621052
 21
813.65708731545124
 31
0.0
  0
LINE
  5
C171
  8
AM_0
 10
704.90838644620965
 20
535.45366231545154
 30
0.0
 11
751.52848644620974
 21
535.45366231545154
 31
0.0
  0
LINE
  5
C172
  8
AM_0
 10
776.52848644620974
 20
480.0981623154513
 30
0.0
 11
754.52848644620974
 21
480.0981623154513
 31
0.0
  0
LINE
  5
C173
  8
AM_0
 10
704.90838644620965
 20
494.82864731545152
 30
0.0
 11
751.52848644620974
 21
494.82864731545152
 31
0.0
  0
LINE
  5
C174
  8
AM_0
 10
668.44768644621024
 20
523.11983231545116
 30
0.0
 11
686.22848644620967
 21
523.11983231545116
 31
0.0
  0
LINE
  5
C175
  8
AM_0
 10
668.44768644621024
 20
505.99913231545128
 30
0.0
 11
686.76938644620975
 21
505.99913231545128
 31
0.0
  0
LINE
  5
C176
  8
AM_0
 10
706.52848644620997
 20
533.29491231545148
 30
0.0
 11
706.52848644620997
 21
497.17491731545118
 31
0.0
  0
LINE
  5
C177
  8
AM_0
 10
638.02843644621009
 20
443.09817731545121
 30
0.0
 11
701.56103644620976
 21
441.00517561376398
 31
0.0
  0
LINE
  5
C178
  8
AM_0
 10
695.52848644620985
 20
757.54078731545155
 30
0.0
 11
726.36883644621037
 21
757.54078731545155
 31
0.0
  0
LINE
  5
C179
  8
AM_0
 10
751.52853644620961
 20
775.00488731545124
 30
0.0
 11
729.35068644621049
 21
758.52728731545153
 31
0.0
  0
LINE
  5
C17A
  8
AM_0
 10
690.52848644620997
 20
766.72133731545182
 30
0.0
 11
690.52848644620997
 21
762.54078731545155
 31
0.0
  0
LINE
  5
C17B
  8
AM_0
 10
749.16068644620998
 20
793.84523731545119
 30
0.0
 11
694.22363644620953
 21
759.82873731545124
 31
0.0
  0
LINE
  5
C17C
  8
AM_0
 10
749.16068644620998
 20
805.81073731545109
 30
0.0
 11
692.89628644620973
 21
770.97238731545121
 31
0.0
  0
LINE
  5
C17D
  8
AM_0
 10
588.02848644620974
 20
459.0981623154513
 30
0.0
 11
614.02848644620974
 21
459.0981623154513
 31
0.0
  0
LINE
  5
C17E
  8
AM_0
 10
584.95873644621008
 20
444.95141731545118
 30
0.0
 11
638.02848644620974
 21
443.09817731545121
 31
0.0
  0
LINE
  5
C17F
  8
AM_0
 10
616.02853644621041
 20
457.09817731545149
 30
0.0
 11
616.02853644621041
 21
445.79780731545151
 31
0.0
  0
ARC
  5
C180
  8
AM_0
 10
585.02853644620961
 20
795.09818731545124
 30
0.0
 40
2.0000000500000001
 50
90.000002999984659
 51
180.000010000001
  0
ARC
  5
C181
  8
AM_0
 10
573.02848644620974
 20
467.34146231545128
 30
0.0
 40
10.0
 50
0.0
 51
45.287917999983151
  0
ARC
  5
C182
  8
AM_0
 10
558.02848644620985
 20
500.09816231545142
 30
0.0
 40
5.0
 50
0.0
 51
90.000002999984659
  0
ARC
  5
C183
  8
AM_0
 10
573.02848644620974
 20
770.90438731545123
 30
0.0
 40
10.0
 50
308.65981000002392
 51
0.0
  0
ARC
  5
C184
  8
AM_0
 10
588.02848644620974
 20
790.34908731545124
 30
0.0
 40
5.0
 50
91.999997999994051
 51
180.000010000001
  0
ARC
  5
C185
  8
AM_0
 10
558.02848644620985
 20
734.09819731545122
 30
0.0
 40
5.0
 50
270.0
 51
0.0
  0
ARC
  5
C186
  8
AM_0
 10
573.02848644620974
 20
745.29193731545138
 30
0.0
 40
10.0
 50
128.65981000002381
 51
180.000010000001
  0
ARC
  5
C187
  8
AM_0
 10
518.52853644621052
 20
503.0981623154513
 30
0.0
 40
2.0000000500000001
 50
90.000002999984659
 51
180.000010000001
  0
ARC
  5
C188
  8
AM_0
 10
518.52853644621052
 20
731.09816731545152
 30
0.0
 40
2.0000000500000001
 50
179.999989999999
 51
270.0
  0
ARC
  5
C189
  8
AM_0
 10
573.02848644620974
 20
495.4846673154513
 30
0.0
 40
10.0
 50
179.999989999999
 51
225.28791999998839
  0
CIRCLE
  5
C18A
  8
AM_0
 10
598.02848644620974
 20
823.09818731545147
 30
0.0
 40
15.0
  0
ARC
  5
C18B
  8
AM_0
 10
598.02848644620974
 20
823.09818731545147
 30
0.0
 40
25.000000499999999
 50
306.46671999997682
 51
233.53329000002691
  0
ARC
  5
C18C
  8
AM_0
 10
588.74493644620975
 20
805.23828731545154
 30
0.0
 40
1.0
 50
101.2132899999924
 51
164.99998999998439
  0
ARC
  5
C18D
  8
AM_0
 10
607.31213644621016
 20
805.23828731545154
 30
0.0
 40
1.0
 50
14.999999999994451
 51
78.786710000007588
  0
ARC
  5
C18E
  8
AM_0
 10
579.60348644620967
 20
798.16788731545148
 30
0.0
 40
6.0
 50
349.72994999999878
 51
53.533290999981389
  0
ARC
  5
C18F
  8
AM_0
 10
616.45353644620957
 20
798.16788731545148
 30
0.0
 40
6.0
 50
126.4666999999876
 51
190.2700600000056
  0
ARC
  5
C190
  8
AM_0
 10
614.02848644620974
 20
772.21883731545154
 30
0.0
 40
2.0000000500000001
 50
270.0
 51
0.0
  0
ARC
  5
C191
  8
AM_0
 10
614.02848644620974
 20
784.84573731545152
 30
0.0
 40
2.0000000500000001
 50
0.0
 51
90.000002999984659
  0
ARC
  5
C192
  8
AM_0
 10
614.02848644620974
 20
529.7717173154515
 30
0.0
 40
2.0000000500000001
 50
270.0
 51
0.0
  0
ARC
  5
C193
  8
AM_0
 10
614.02848644620974
 20
566.04103731545149
 30
0.0
 40
2.0000000500000001
 50
0.0
 51
90.000002999984659
  0
ARC
  5
C194
  8
AM_0
 10
614.02848644620974
 20
655.14900731545163
 30
0.0
 40
2.0000000500000001
 50
270.0
 51
0.0
  0
ARC
  5
C195
  8
AM_0
 10
614.02848644620974
 20
688.32320231545123
 30
0.0
 40
2.0000000500000001
 50
0.0
 51
90.000002999984659
  0
ARC
  5
C196
  8
AM_0
 10
588.02848644620974
 20
522.77168731545135
 30
0.0
 40
5.0
 50
90.000002999984659
 51
180.000010000001
  0
ARC
  5
C197
  8
AM_0
 10
588.02848644620974
 20
573.04106731545153
 30
0.0
 40
5.0
 50
179.999989999999
 51
270.0
  0
ARC
  5
C198
  8
AM_0
 10
588.02848644620974
 20
648.14900731545163
 30
0.0
 40
5.0
 50
90.000002999984659
 51
180.000010000001
  0
ARC
  5
C199
  8
AM_0
 10
588.02848644620974
 20
695.32320231545179
 30
0.0
 40
5.0
 50
179.999989999999
 51
270.0
  0
ARC
  5
C19A
  8
AM_0
 10
588.02848644620974
 20
765.21883731545154
 30
0.0
 40
5.0
 50
90.000002999984659
 51
180.000010000001
  0
ARC
  5
C19B
  8
AM_0
 10
588.02848644620974
 20
791.84573731545152
 30
0.0
 40
5.0
 50
179.999989999999
 51
270.0
  0
ARC
  5
C19C
  8
AM_0
 10
758.52853644621052
 20
518.53929731545122
 30
0.0
 40
2.0000000500000001
 50
270.0
 51
0.0
  0
ARC
  5
C19D
  8
AM_0
 10
758.52853644621052
 20
603.8613773154517
 30
0.0
 40
2.0000000500000001
 50
0.0
 51
90.000002999984659
  0
ARC
  5
C19E
  8
AM_0
 10
753.52853644621018
 20
815.65708731545135
 30
0.0
 40
2.0000000500000001
 50
179.999989999999
 51
270.0
  0
ARC
  5
C19F
  8
AM_0
 10
758.52853644621052
 20
811.65708731545146
 30
0.0
 40
2.0000000500000001
 50
0.0
 51
90.000002999984659
  0
ARC
  5
C1A0
  8
AM_0
 10
753.52853644621018
 20
514.53926731545153
 30
0.0
 40
2.0000000500000001
 50
90.000002999984659
 51
180.000010000001
  0
ARC
  5
C1A1
  8
AM_0
 10
753.24243644621015
 20
607.86134731545178
 30
0.0
 40
2.0000000500000001
 50
188.80900000000449
 51
270.0
  0
ARC
  5
C1A2
  8
AM_0
 10
752.52853644620961
 20
607.16115231545155
 30
0.0
 40
1.0
 50
179.999989999999
 51
224.44400000001349
  0
ARC
  5
C1A3
  8
AM_0
 10
746.52848644620974
 20
832.16923731545148
 30
0.0
 40
5.0
 50
315.00000000000921
 51
0.0
  0
ARC
  5
C1A4
  8
AM_0
 10
758.52853644621052
 20
556.50426231545134
 30
0.0
 40
2.0000000500000001
 50
270.0
 51
0.0
  0
ARC
  5
C1A5
  8
AM_0
 10
758.52853644621052
 20
749.36953731545145
 30
0.0
 40
2.0000000500000001
 50
0.0
 51
90.000002999984659
  0
ARC
  5
C1A6
  8
AM_0
 10
754.52848644620974
 20
847.09818731545136
 30
0.0
 40
3.0000000500000001
 50
90.000002999984659
 51
180.000010000001
  0
ARC
  5
C1A7
  8
AM_0
 10
754.52848644620974
 20
483.0981623154513
 30
0.0
 40
3.0000000500000001
 50
179.999989999999
 51
270.0
  0
ARC
  5
C1A8
  8
AM_0
 10
716.44318644621012
 20
809.15493731545143
 30
0.0
 40
10.0
 50
271.4999999999896
 51
315.00000000000921
  0
ARC
  5
C1A9
  8
AM_0
 10
704.90838644620965
 20
515.14116231545154
 30
0.0
 40
20.3124945
 50
90.000002999984659
 51
270.0
  0
ARC
  5
C1AA
  8
AM_0
 10
668.44768644621024
 20
514.55949731545161
 30
0.0
 40
8.5603474999999971
 50
90.000002999984659
 51
270.0
  0
ARC
  5
C1AB
  8
AM_0
 10
746.52848644620974
 20
810.06178731545151
 30
0.0
 40
5.0
 50
301.76537000001917
 51
0.0
  0
ARC
  5
C1AC
  8
AM_0
 10
695.52848644620985
 20
762.54078731545155
 30
0.0
 40
5.0
 50
179.999989999999
 51
270.0
  0
ARC
  5
C1AD
  8
AM_0
 10
726.36883644621037
 20
762.54078731545155
 30
0.0
 40
5.0
 50
270.0
 51
306.61150000001038
  0
ARC
  5
C1AE
  8
AM_0
 10
695.52848644620985
 20
766.72133731545182
 30
0.0
 40
5.0
 50
121.76535999998799
 51
180.000010000001
  0
ARC
  5
C1AF
  8
AM_0
 10
585.02853644620961
 20
446.95018231545117
 30
0.0
 40
2.0000000500000001
 50
179.999989999999
 51
268.00000999999207
  0
ARC
  5
C1B0
  8
AM_0
 10
618.02848644620974
 20
445.79780731545151
 30
0.0
 40
2.0000000500000001
 50
179.999989999999
 51
268.00000999999207
  0
ARC
  5
C1B1
  8
AM_0
 10
614.02848644620974
 20
457.09817731545149
 30
0.0
 40
2.0000000500000001
 50
0.0
 51
90.000002999984659
  0
ARC
  5
C1B2
  8
AM_0
 10
588.02848644620974
 20
464.09816231545119
 30
0.0
 40
5.0
 50
179.999989999999
 51
270.0
  0
LINE
  5
C215
  8
0
  6
AM_ISO08W050
 62
     0
 10
995.34597228481755
 20
665.09816731545152
 30
0.0
 11
1383.955802284818
 21
665.09816731545152
 31
0.0
  0
LINE
  5
C216
  8
0
  6
AM_ISO08W050
 62
     0
 10
1188.8666622848179
 20
859.04811731545146
 30
0.0
 11
1188.8666622848179
 21
430.66064731545151
 31
0.0
  0
LINE
  5
C217
  8
0
  6
CONTINUOUS
 62
     7
 10
1179.866662284817
 20
699.09816731545141
 30
0.0
 11
1179.866662284817
 21
688.09816731545152
 31
0.0
  0
LINE
  5
C218
  8
0
  6
CONTINUOUS
 62
     7
 10
1179.866662284817
 20
699.09816731545141
 30
0.0
 11
1197.866662284817
 21
699.09816731545141
 31
0.0
  0
LINE
  5
C219
  8
0
  6
CONTINUOUS
 62
     7
 10
1179.866662284817
 20
688.09816731545152
 30
0.0
 11
1197.866662284817
 21
688.09816731545152
 31
0.0
  0
LINE
  5
C21A
  8
0
  6
CONTINUOUS
 62
     7
 10
1197.866662284817
 20
699.09816731545141
 30
0.0
 11
1197.866662284817
 21
688.09816731545152
 31
0.0
  0
LINE
  5
C21B
  8
0
  6
CONTINUOUS
 62
     7
 10
1259.5980422848179
 20
443.65887731545149
 30
0.0
 11
1295.2227522848179
 21
469.29341731545128
 31
0.0
  0
LINE
  5
C21C
  8
0
  6
CONTINUOUS
 62
     7
 10
1126.3666622848179
 20
441.00515731545153
 30
0.0
 11
1251.3666622848179
 21
441.00515731545153
 31
0.0
  0
LINE
  5
C21D
  8
0
  6
CONTINUOUS
 62
     7
 10
1047.518242284817
 20
645.23185731545141
 30
0.0
 11
1055.773182284817
 21
692.04795731545153
 31
0.0
  0
LINE
  5
C21E
  8
0
  6
CONTINUOUS
 62
     7
 10
1330.2151122848179
 20
645.23182731545148
 30
0.0
 11
1321.9601522848179
 21
692.04795731545153
 31
0.0
  0
LINE
  5
C21F
  8
0
  6
CONTINUOUS
 62
     7
 10
1270.866642284818
 20
665.09816731545152
 30
0.0
 11
1270.866642284818
 21
655.09816731545152
 31
0.0
  0
LINE
  5
C220
  8
0
  6
CONTINUOUS
 62
     7
 10
1121.1674122848181
 20
722.89790731545122
 30
0.0
 11
1086.914362284818
 21
757.15092731545121
 31
0.0
  0
LINE
  5
C221
  8
0
  6
CENTER
 62
     7
 10
1014.564812284818
 20
490.7963773154512
 30
0.0
 11
1044.970392284818
 21
521.20196731545138
 31
0.0
  0
LINE
  5
C222
  8
0
  6
CONTINUOUS
 62
     7
 10
1348.866662284817
 20
480.09816731545101
 30
0.0
 11
1028.866662284817
 21
480.09816731545101
 31
0.0
  0
LINE
  5
C223
  8
0
  6
CENTER
 62
     7
 10
1014.564842284817
 20
839.39997731545145
 30
0.0
 11
1046.249352284817
 21
807.71547731545161
 31
0.0
  0
LINE
  5
C224
  8
0
  6
CONTINUOUS
 62
     7
 10
1048.666802284818
 20
645.09816731545152
 30
0.0
 11
1096.866662284817
 21
645.09816731545152
 31
0.0
  0
LINE
  5
C225
  8
0
  6
CONTINUOUS
 62
     7
 10
1256.565892284817
 20
722.89790731545122
 30
0.0
 11
1290.8189622848181
 21
757.15098731545118
 31
0.0
  0
LINE
  5
C226
  8
0
  6
CENTER
 62
     7
 10
1363.1684632848171
 20
490.7963473154515
 30
0.0
 11
1332.7628722848181
 21
521.20193731545146
 31
0.0
  0
LINE
  5
C227
  8
0
  6
CONTINUOUS
 62
     7
 10
1329.0665022848179
 20
645.09816731545152
 30
0.0
 11
1280.866642284818
 21
645.09816731545152
 31
0.0
  0
LINE
  5
C228
  8
0
  6
CONTINUOUS
 62
     7
 10
1028.866662284817
 20
850.0982273154516
 30
0.0
 11
1348.866662284817
 21
850.0982273154516
 31
0.0
  0
LINE
  5
C229
  8
0
  6
CONTINUOUS
 62
     7
 10
1003.8666622848179
 20
505.09816731545101
 30
0.0
 11
1003.8666622848179
 21
825.09816731545141
 31
0.0
  0
LINE
  5
C22A
  8
0
  6
CONTINUOUS
 62
     7
 10
1246.6664022848181
 20
732.79741731545153
 30
0.0
 11
1280.9194722848181
 21
767.05049731545182
 31
0.0
  0
LINE
  5
C22B
  8
0
  6
CONTINUOUS
 62
     7
 10
1373.8666452848181
 20
825.09816731545141
 30
0.0
 11
1373.8666452848181
 21
505.09816731545101
 31
0.0
  0
LINE
  5
C22C
  8
0
  6
CENTER
 62
     7
 10
1363.168418284818
 20
839.39997731545145
 30
0.0
 11
1330.505972284818
 21
806.73756731545154
 31
0.0
  0
LINE
  5
C22D
  8
0
  6
CONTINUOUS
 62
     7
 10
1106.8666622848179
 20
665.09816731545152
 30
0.0
 11
1106.8666622848179
 21
655.09816731545152
 31
0.0
  0
LINE
  5
C22E
  8
0
  6
CONTINUOUS
 62
     7
 10
1131.066912284818
 20
732.79741731545153
 30
0.0
 11
1096.813862284818
 21
767.05043731545152
 31
0.0
  0
LINE
  5
C22F
  8
0
  6
CONTINUOUS
 62
     7
 10
1118.1352422848181
 20
443.65887731545149
 30
0.0
 11
1082.5105522848171
 21
469.2933973154515
 31
0.0
  0
CIRCLE
  5
C230
  8
0
  6
CONTINUOUS
 62
     7
 10
1188.8666622848179
 20
665.09816731545152
 30
0.0
 40
4.5
  0
CIRCLE
  5
C231
  8
0
  6
CONTINUOUS
 62
     7
 10
1188.8666622848179
 20
665.09816731545152
 30
0.0
 40
6.0
  0
ARC
  5
C232
  8
0
  6
CONTINUOUS
 62
     7
 10
1188.8666622848179
 20
665.09816731545152
 30
0.0
 40
30.0
 50
107.4576000000072
 51
72.542384000004162
  0
ARC
  5
C233
  8
0
  6
CONTINUOUS
 62
     7
 10
1188.8666622848179
 20
617.09816731545152
 30
0.0
 40
182.0929899999999
 50
228.79547000000139
 51
234.26227999999779
  0
ARC
  5
C234
  8
0
  6
CONTINUOUS
 62
     7
 10
1188.8666622848179
 20
665.09816731545152
 30
0.0
 40
82.0
 50
144.59407000000161
 51
180.000010000001
  0
ARC
  5
C235
  8
0
  6
CONTINUOUS
 62
     7
 10
1188.8666622848179
 20
665.09816731545152
 30
0.0
 40
82.0
 50
54.5940669999991
 51
125.40592999999841
  0
ARC
  5
C236
  8
0
  6
CONTINUOUS
 62
     7
 10
1126.3666622848179
 20
455.09816731545101
 30
0.0
 40
14.09299899999999
 50
234.26227999999779
 51
270.0
  0
ARC
  5
C237
  8
0
  6
CONTINUOUS
 62
     7
 10
1251.3666622848179
 20
455.09816731545101
 30
0.0
 40
14.09299899999999
 50
270.0
 51
305.73772000000218
  0
ARC
  5
C238
  8
0
  6
CONTINUOUS
 62
     7
 10
1166.071642284817
 20
672.59938731545128
 30
0.0
 40
112.0
 50
133.04831000000391
 51
169.99998999999769
  0
ARC
  5
C239
  8
0
  6
CONTINUOUS
 62
     7
 10
1211.6616922848179
 20
672.59938731545128
 30
0.0
 40
112.0
 50
9.9999997000027125
 51
46.951683000003783
  0
ARC
  5
C23A
  8
0
  6
CONTINUOUS
 62
     7
 10
1188.8666622848179
 20
617.09816731545152
 30
0.0
 40
172.0
 50
58.77028800000641
 51
121.229710000004
  0
ARC
  5
C23B
  8
0
  6
CONTINUOUS
 62
     7
 10
1241.0095422848181
 20
738.45424731545154
 30
0.0
 40
8.0
 50
234.59407000000161
 51
314.9999999999954
  0
ARC
  5
C23C
  8
0
  6
CONTINUOUS
 62
     7
 10
1188.8666622848179
 20
665.09816731545152
 30
0.0
 40
82.0
 50
0.0
 51
35.405932000002593
  0
ARC
  5
C23D
  8
0
  6
CONTINUOUS
 62
     7
 10
1348.866662284817
 20
825.09816731545141
 30
0.0
 40
25.0
 50
0.0
 51
90.00000299999769
  0
ARC
  5
C23E
  8
0
  6
CONTINUOUS
 62
     7
 10
1048.666802284818
 20
650.09816731545152
 30
0.0
 40
5.0
 50
186.1068500000045
 51
270.0
  0
ARC
  5
C23F
  8
0
  6
CONTINUOUS
 62
     7
 10
1102.470662284818
 20
772.70732731545115
 30
0.0
 40
8.0
 50
128.759870000001
 51
225.0000000000046
  0
ARC
  5
C240
  8
0
  6
CONTINUOUS
 62
     7
 10
1188.8666622848179
 20
665.09816731545152
 30
0.0
 40
146.0
 50
270.0
 51
90.00000299999769
  0
ARC
  5
C241
  8
0
  6
CONTINUOUS
 62
     7
 10
1188.8666622848179
 20
665.09816731545152
 30
0.0
 40
146.0
 50
90.00000299999769
 51
270.0
  0
ARC
  5
C242
  8
0
  6
CONTINUOUS
 62
     7
 10
1275.262622284818
 20
772.70732731545115
 30
0.0
 40
8.0
 50
314.9999999999954
 51
51.240129999994892
  0
ARC
  5
C243
  8
0
  6
CONTINUOUS
 62
     7
 10
1262.2227522848179
 20
717.24107731545121
 30
0.0
 40
8.0
 50
134.9999999999954
 51
215.40592999999839
  0
ARC
  5
C244
  8
0
  6
CONTINUOUS
 62
     7
 10
1329.0665022848179
 20
650.09816731545152
 30
0.0
 40
5.0
 50
270.0
 51
353.8931499999955
  0
ARC
  5
C245
  8
0
  6
CONTINUOUS
 62
     7
 10
1028.866662284817
 20
505.09816731545101
 30
0.0
 40
25.0
 50
179.999989999999
 51
270.0
  0
ARC
  5
C246
  8
0
  6
CONTINUOUS
 62
     7
 10
1348.866662284817
 20
505.09816731545101
 30
0.0
 40
25.0
 50
270.0
 51
0.0
  0
ARC
  5
C247
  8
0
  6
CONTINUOUS
 62
     7
 10
1028.866662284817
 20
825.09816731545141
 30
0.0
 40
25.0
 50
90.00000299999769
 51
180.000010000001
  0
ARC
  5
C248
  8
0
  6
CONTINUOUS
 62
     7
 10
1136.723742284817
 20
738.45424731545154
 30
0.0
 40
8.0
 50
225.0000000000046
 51
305.40592999999842
  0
ARC
  5
C249
  8
0
  6
CONTINUOUS
 62
     7
 10
1188.8666622848179
 20
665.09816731545152
 30
0.0
 40
65.0
 50
90.00000299999769
 51
270.0
  0
CIRCLE
  5
C24A
  8
0
  6
CONTINUOUS
 62
     7
 10
1029.767632284817
 20
505.99913731545149
 30
0.0
 40
12.0
  0
ARC
  5
C24B
  8
0
  6
CENTER
 62
     7
 10
1188.8666622848179
 20
665.09816731545152
 30
0.0
 40
225.0
 50
128.43889000000109
 51
141.1473999999987
  0
CIRCLE
  5
C24C
  8
0
  6
CONTINUOUS
 62
     7
 10
1029.767632284817
 20
824.19722731545119
 30
0.0
 40
12.0
  0
ARC
  5
C24D
  8
0
  6
CONTINUOUS
 62
     7
 10
1188.8666622848179
 20
665.09816731545152
 30
0.0
 40
155.0
 50
270.0
 51
90.00000299999769
  0
ARC
  5
C24E
  8
0
  6
CENTER
 62
     7
 10
1188.8666622848179
 20
665.09816731545152
 30
0.0
 40
225.0
 50
219.522979999998
 51
230.477020000002
  0
ARC
  5
C24F
  8
0
  6
CONTINUOUS
 62
     7
 10
1280.866642284818
 20
655.09816731545152
 30
0.0
 40
10.0
 50
179.999989999999
 51
270.0
  0
ARC
  5
C250
  8
0
  6
CONTINUOUS
 62
     7
 10
1081.257502284818
 20
751.4941573154515
 30
0.0
 40
8.0
 50
45.000000999994569
 51
141.240130000004
  0
ARC
  5
C251
  8
0
  6
CONTINUOUS
 62
     7
 10
1115.5105822848179
 20
717.24107731545121
 30
0.0
 40
8.0
 50
324.59407000000158
 51
45.000000999994569
  0
ARC
  5
C252
  8
0
  6
CONTINUOUS
 62
     7
 10
1096.866662284817
 20
655.09816731545152
 30
0.0
 40
10.0
 50
270.0
 51
0.0
  0
ARC
  5
C253
  8
0
  6
CONTINUOUS
 62
     7
 10
1188.8666622848179
 20
665.09816731545152
 30
0.0
 40
65.0
 50
270.0
 51
90.00000299999769
  0
CIRCLE
  5
C254
  8
0
  6
CONTINUOUS
 62
     7
 10
1347.9656822848181
 20
505.99913731545149
 30
0.0
 40
12.0
  0
ARC
  5
C255
  8
0
  6
CENTER
 62
     7
 10
1188.8666622848179
 20
665.09816731545152
 30
0.0
 40
225.0
 50
38.696152999996329
 51
51.127439000001473
  0
CIRCLE
  5
C256
  8
0
  6
CONTINUOUS
 62
     7
 10
1347.9656822848181
 20
824.19722731545119
 30
0.0
 40
12.0
  0
ARC
  5
C257
  8
0
  6
CENTER
 62
     7
 10
1188.8666622848179
 20
665.09816731545152
 30
0.0
 40
225.0
 50
308.20956000000223
 51
320.8512499999955
  0
ARC
  5
C258
  8
0
  6
CONTINUOUS
 62
     7
 10
1296.475832284817
 20
751.4941573154515
 30
0.0
 40
8.0
 50
38.759869000004251
 51
134.9999999999954
  0
ARC
  5
C259
  8
0
  6
CONTINUOUS
 62
     7
 10
1188.8666622848179
 20
665.09816731545152
 30
0.0
 40
155.0
 50
90.00000299999769
 51
270.0
  0
ARC
  5
C25A
  8
0
  6
CONTINUOUS
 62
     7
 10
1188.8666622848179
 20
617.09816731545152
 30
0.0
 40
182.0929899999999
 50
305.73772000000218
 51
311.20452999999861
  0
TEXT
  5
C4A8
  8
0
  6
CONTINUOUS
 62
     0
 10
1039.379266984723
 20
1090.1716540956049
 30
0.0
 40
15.0
  1
VX22-240EMF~VX22-300EMF
  0
ENDSEC
  0
EOF
