  0
SECTION
  2
HEADER
  9
$ACADVER
  1
AC1009
  9
$INSBASE
 10
0.0
 20
0.0
 30
0.0
  9
$EXTMIN
 10
32.297977582422838
 20
347.11799894357091
 30
-0.000000000000013
  9
$EXTMAX
 10
1195.285495590857
 20
1152.5696267450251
 30
0.0000000000000023
  9
$LIMMIN
 10
0.0000005999945643
 20
-0.0000005963913736
  9
$LIMMAX
 10
1422.5000005999941
 20
924.99999940360874
  9
$ORTHOMODE
 70
     1
  9
$REGENMODE
 70
     1
  9
$FILLMODE
 70
     1
  9
$QTEXTMODE
 70
     0
  9
$MIRRTEXT
 70
     0
  9
$DRAGMODE
 70
     2
  9
$LTSCALE
 40
1.0
  9
$OSMODE
 70
   551
  9
$ATTMODE
 70
     1
  9
$TEXTSIZE
 40
12.5
  9
$TRACEWID
 40
1.0
  9
$TEXTSTYLE
  7
USER1
  9
$CLAYER
  8
0
  9
$CELTYPE
  6
BYLAYER
  9
$CECOLOR
 62
     4
  9
$DIMSCALE
 40
1.0
  9
$DIMASZ
 40
2.0
  9
$DIMEXO
 40
1.0
  9
$DIMDLI
 40
8.0
  9
$DIMRND
 40
0.0
  9
$DIMDLE
 40
0.0
  9
$DIMEXE
 40
1.0
  9
$DIMTP
 40
-0.025
  9
$DIMTM
 40
0.043
  9
$DIMTXT
 40
2.5
  9
$DIMCEN
 40
0.0
  9
$DIMTSZ
 40
0.0
  9
$DIMTOL
 70
     0
  9
$DIMLIM
 70
     0
  9
$DIMTIH
 70
     0
  9
$DIMTOH
 70
     0
  9
$DIMSE1
 70
     0
  9
$DIMSE2
 70
     0
  9
$DIMTAD
 70
     3
  9
$DIMZIN
 70
     8
  9
$DIMBLK
  1

  9
$DIMASO
 70
     1
  9
$DIMSHO
 70
     1
  9
$DIMPOST
  1

  9
$DIMAPOST
  1
"
  9
$DIMALT
 70
     0
  9
$DIMALTD
 70
     2
  9
$DIMALTF
 40
0.0393701
  9
$DIMLFAC
 40
1.0
  9
$DIMTOFL
 70
     1
  9
$DIMTVP
 40
0.0
  9
$DIMTIX
 70
     0
  9
$DIMSOXD
 70
     0
  9
$DIMSAH
 70
     0
  9
$DIMBLK1
  1

  9
$DIMBLK2
  1

  9
$DIMSTYLE
  2
AM_JIS
  9
$DIMCLRD
 70
     2
  9
$DIMCLRE
 70
     2
  9
$DIMCLRT
 70
     4
  9
$DIMTFAC
 40
0.71
  9
$DIMGAP
 40
1.5
  9
$LUNITS
 70
     2
  9
$LUPREC
 70
     2
  9
$SKETCHINC
 40
1.0
  9
$FILLETRAD
 40
0.0
  9
$AUNITS
 70
     0
  9
$AUPREC
 70
     0
  9
$MENU
  1
.
  9
$ELEVATION
 40
0.0
  9
$PELEVATION
 40
0.0
  9
$THICKNESS
 40
0.0
  9
$LIMCHECK
 70
     0
  9
$BLIPMODE
 70
     0
  9
$CHAMFERA
 40
2.5
  9
$CHAMFERB
 40
2.5
  9
$SKPOLY
 70
     0
  9
$TDCREATE
 40
2456829.3841110538
  9
$TDUPDATE
 40
2458540.6703423732
  9
$TDINDWG
 40
0.551365081
  9
$TDUSRTIMER
 40
0.5513646875
  9
$USRTIMER
 70
     1
  9
$ANGBASE
 50
0.0
  9
$ANGDIR
 70
     0
  9
$PDMODE
 70
     0
  9
$PDSIZE
 40
0.0
  9
$PLINEWID
 40
0.0
  9
$COORDS
 70
     1
  9
$SPLFRAME
 70
     0
  9
$SPLINETYPE
 70
     6
  9
$SPLINESEGS
 70
     8
  9
$ATTDIA
 70
     1
  9
$ATTREQ
 70
     1
  9
$HANDLING
 70
     1
  9
$HANDSEED
  5
BDAB
  9
$SURFTAB1
 70
     6
  9
$SURFTAB2
 70
     6
  9
$SURFTYPE
 70
     6
  9
$SURFU
 70
     6
  9
$SURFV
 70
     6
  9
$UCSNAME
  2

  9
$UCSORG
 10
0.0
 20
0.0
 30
0.0
  9
$UCSXDIR
 10
1.0
 20
0.0
 30
0.0
  9
$UCSYDIR
 10
0.0
 20
1.0
 30
0.0
  9
$PUCSNAME
  2

  9
$PUCSORG
 10
0.0
 20
0.0
 30
0.0
  9
$PUCSXDIR
 10
1.0
 20
0.0
 30
0.0
  9
$PUCSYDIR
 10
0.0
 20
1.0
 30
0.0
  9
$USERI1
 70
     0
  9
$USERI2
 70
     0
  9
$USERI3
 70
     0
  9
$USERI4
 70
     0
  9
$USERI5
 70
     0
  9
$USERR1
 40
0.0
  9
$USERR2
 40
0.0
  9
$USERR3
 40
0.0
  9
$USERR4
 40
0.0
  9
$USERR5
 40
0.0
  9
$WORLDVIEW
 70
     1
  9
$SHADEDGE
 70
     3
  9
$SHADEDIF
 70
    70
  9
$TILEMODE
 70
     1
  9
$MAXACTVP
 70
    64
  9
$PLIMCHECK
 70
     0
  9
$PEXTMIN
 10
1.0000000000000000E+020
 20
1.0000000000000000E+020
 30
1.0000000000000000E+020
  9
$PEXTMAX
 10
-1.0000000000000000E+020
 20
-1.0000000000000000E+020
 30
-1.0000000000000000E+020
  9
$PLIMMIN
 10
0.0
 20
0.0
  9
$PLIMMAX
 10
420.0
 20
297.0
  9
$UNITMODE
 70
     0
  9
$VISRETAIN
 70
     1
  9
$PLINEGEN
 70
     0
  9
$PSLTSCALE
 70
     1
  0
ENDSEC
  0
SECTION
  2
TABLES
  0
TABLE
  2
VPORT
 70
     1
  0
VPORT
  2
*ACTIVE
 70
     0
 10
0.0
 20
0.0
 11
1.0
 21
1.0
 12
613.7917365866399
 22
749.84381284429799
 13
0.0
 23
0.0
 14
12.5
 24
12.5
 15
50.0
 25
50.0
 16
0.0
 26
0.0
 36
1.0
 17
0.0
 27
0.0
 37
0.0
 40
810.98104401061755
 41
1.7571592210767459
 42
50.0
 43
0.0
 44
0.0
 50
0.0
 51
0.0
 71
     0
 72
  1000
 73
     1
 74
     3
 75
     0
 76
     0
 77
     0
 78
     0
  0
ENDTAB
  0
TABLE
  2
LTYPE
 70
    24
  0
LTYPE
  2
CONTINUOUS
 70
     0
  3
Solid line
 72
    65
 73
     0
 40
0.0
  0
LTYPE
  2
CENTER
 70
     0
  3
Center ____ _ ____ _ ____ _ ____ _ ____ _ ____
 72
    65
 73
     4
 40
50.799999999999997
 49
31.75
 49
-6.3499999999999979
 49
6.3499999999999979
 49
-6.3499999999999979
  0
LTYPE
  2
AM_ISO02W050
 70
     0
  3
__ __ __ __ __ __ __ __ __ __ __ __ __ __ __
 72
    65
 73
     2
 40
7.5
 49
6.0
 49
-1.5
  0
LTYPE
  2
AM_ISO08W050
 70
     0
  3
____ . ____ . ____ . ____ . ____ . ____ . ____
 72
    65
 73
     4
 40
18.0
 49
12.0
 49
-1.5
 49
3.0
 49
-1.5
  0
LTYPE
  2
AM_ISO09W050
 70
     0
  3
_____ . . _____ . . _____ . . ____ .. ____
 72
    65
 73
     6
 40
22.5
 49
12.0
 49
-1.5
 49
3.0
 49
-1.5
 49
3.0
 49
-1.5
  0
LTYPE
  2
AMCONSTR
 70
     0
  3
_______________________
 72
    65
 73
     2
 40
9999.0
 49
9999.0
 49
0.0
  0
LTYPE
  2
AM_ISO08W050X2
 70
     0
  3
__ . __ . __ . __ . __ . __
 72
    65
 73
     4
 40
9.0
 49
6.0
 49
-0.75
 49
1.5
 49
-0.75
  0
LTYPE
  2
AM_ISO02W050X2
 70
     0
  3
 _ _ _ _ _ _ _ _ _ _ _ _
 72
    65
 73
     2
 40
3.75
 49
3.0
 49
-0.75
  0
LTYPE
  2
AMZIGZAG
 70
     0
  3
/\/-/\/-/\/-/\/-/\/-/\/
 72
    65
 73
     2
 40
11.0001
 49
0.0001
 49
-11.0
  0
LTYPE
  2
ACANSTGBM
 70
     0
  3
__ . . __ . .
 72
    65
 73
     6
 40
9.0
 49
4.0
 49
-1.0
 49
1.0
 49
-1.0
 49
1.0
 49
-1.0
  0
LTYPE
  2
ACANSTGLM
 70
     0
  3
_ _ _ _ _
 72
    65
 73
     2
 40
3.0
 49
2.0
 49
-1.0
  0
LTYPE
  2
ACISOWELD
 70
     0
  3
_ _ _ _ _
 72
    65
 73
     2
 40
2.0
 49
2.0
 49
-1.0
  0
LTYPE
  2
ACISOTGB
 70
     0
  3
__ . . __ . .
 72
    65
 73
     6
 40
9.0
 49
4.0
 49
-1.0
 49
1.0
 49
-1.0
 49
1.0
 49
-1.0
  0
LTYPE
  2
ACISOTGL
 70
     0
  3
_ _ _ _ _
 72
    65
 73
     2
 40
3.0
 49
2.0
 49
-1.0
  0
LTYPE
  2
ACJISTGB
 70
     0
  3
__ . . __ . .
 72
    65
 73
     6
 40
9.0
 49
4.0
 49
-1.0
 49
1.0
 49
-1.0
 49
1.0
 49
-1.0
  0
LTYPE
  2
ACJISTGL
 70
     0
  3
_ _ _ _ _
 72
    65
 73
     2
 40
3.0
 49
2.0
 49
-1.0
  0
LTYPE
  2
HIDDEN
 70
     0
  3
Hidden __ __ __ __ __ __ __ __ __ __ __ __ __ _
 72
    65
 73
     2
 40
9.5249999999999968
 49
6.3499999999999979
 49
-3.174999999999998
  0
LTYPE
  2
PHANTOM2
 70
     0
  3
Phantom (.5x) ___ _ _ ___ _ _ ___ _ _ ___ _ _
 72
    65
 73
     6
 40
31.75
 49
15.875
 49
-3.174999999999998
 49
3.174999999999998
 49
-3.174999999999998
 49
3.174999999999998
 49
-3.174999999999998
  0
LTYPE
  2
CENTER2
 70
     0
  3
Center (.5x) ___ _ ___ _ ___ _ ___ _ ___ _ ___
 72
    65
 73
     4
 40
1.125
 49
0.75
 49
-0.125
 49
0.125
 49
-0.125
  0
LTYPE
  2
HIDDEN2
 70
     0
  3
Hidden (.5x) _ _ _ _ _ _ _ _ _ _ _ _ _ _ _ _ _
 72
    65
 73
     2
 40
0.1875
 49
0.125
 49
-0.0625
  0
LTYPE
  2
AMZIGZAG2
 70
     0
  3
/\/-/\/-/\/-/\/-/\/-/\/
 72
    65
 73
     2
 40
0.4401
 49
0.0001
 49
-0.4400000000000003
  0
LTYPE
  2
ACANSTGB
 70
     0
  3
__ . . __ . .
 72
    65
 73
     6
 40
0.35433070866
 49
0.15748031496
 49
-0.03937007874
 49
0.03937007874
 49
-0.03937007874
 49
0.03937007874
 49
-0.03937007874
  0
LTYPE
  2
ACANSTGL
 70
     0
  3
_ _ _ _ _
 72
    65
 73
     2
 40
0.11811023622
 49
0.07874015748
 49
-0.03937007874
  0
ENDTAB
  0
TABLE
  2
LAYER
 70
     4
  0
LAYER
  2
0
 70
     0
 62
     7
  6
CONTINUOUS
  0
LAYER
  2
DEFPOINTS
 70
     0
 62
     7
  6
CONTINUOUS
  0
LAYER
  2
AM_5
 70
     0
 62
     2
  6
CONTINUOUS
  0
LAYER
  2
AM_CL
 70
     0
 62
     1
  6
AMCONSTR
  0
ENDTAB
  0
TABLE
  2
STYLE
 70
     9
  0
STYLE
  2
STANDARD
 70
     0
 40
0.0
 41
0.7400000000000003
 50
0.0
 71
     0
 42
2.5
  3
txt.shx
  4
bigfont.shx
  0
STYLE
  2

 70
     1
 40
0.0
 41
1.0
 50
0.0
 71
     0
 42
2.5
  3
ltypeshp.shx
  4

  0
STYLE
  2
ACANSTS
 70
     0
 40
1.0
 41
1.0
 50
0.0
 71
     0
 42
2.5
  3
romans.shx
  4
bigfont.shx
  0
STYLE
  2
ACANSGDT
 70
     0
 40
0.0
 41
1.0
 50
0.0
 71
     0
 42
2.5
  3
amgdtans.shx
  4

  0
STYLE
  2
ACISOTS
 70
     0
 40
1.0
 41
1.0
 50
0.0
 71
     0
 42
2.5
  3
isocp.shx
  4
extfont.shx
  0
STYLE
  2
ACISOGDT
 70
     0
 40
0.0
 41
1.0
 50
0.0
 71
     0
 42
2.5
  3
amgdt.shx
  4

  0
STYLE
  2
ACJISGDT
 70
     0
 40
0.0
 41
1.0
 50
0.0
 71
     0
 42
2.5
  3
amgdt.shx
  4

  0
STYLE
  2
ACJISTS
 70
     0
 40
1.0
 41
1.0
 50
0.0
 71
     0
 42
2.5
  3
isocp.shx
  4
extfont.shx
  0
STYLE
  2
USER1
 70
     0
 40
0.0
 41
1.0
 50
0.0
 71
     0
 42
12.5
  3
TXT.SHX
  4

  0
ENDTAB
  0
TABLE
  2
VIEW
 70
     6
  0
VIEW
  2
AM_VIEW1
 70
     0
 40
462.5
 10
488.83452017294832
 20
693.74999940360874
 41
977.66903914590773
 11
0.0
 21
0.0
 31
1.0
 12
0.0
 22
0.0
 32
0.0
 42
50.0
 43
0.0
 44
0.0
 50
0.0
 71
     0
  0
VIEW
  2
AM_VIEW2
 70
     0
 40
462.5
 10
933.66548102704076
 20
693.74999940360874
 41
977.66903914590773
 11
0.0
 21
0.0
 31
1.0
 12
0.0
 22
0.0
 32
0.0
 42
50.0
 43
0.0
 44
0.0
 50
0.0
 71
     0
  0
VIEW
  2
AM_VIEW3
 70
     0
 40
462.5
 10
488.83452017294832
 20
231.24999940360871
 41
977.66903914590773
 11
0.0
 21
0.0
 31
1.0
 12
0.0
 22
0.0
 32
0.0
 42
50.0
 43
0.0
 44
0.0
 50
0.0
 71
     0
  0
VIEW
  2
AM_VIEW4
 70
     0
 40
462.5
 10
933.66548102704076
 20
231.24999940360871
 41
977.66903914590773
 11
0.0
 21
0.0
 31
1.0
 12
0.0
 22
0.0
 32
0.0
 42
50.0
 43
0.0
 44
0.0
 50
0.0
 71
     0
  0
VIEW
  2
AM_VIEW5
 70
     0
 40
462.5
 10
711.25000059999468
 20
462.49999940360868
 41
977.66903914590773
 11
0.0
 21
0.0
 31
1.0
 12
0.0
 22
0.0
 32
0.0
 42
50.0
 43
0.0
 44
0.0
 50
0.0
 71
     0
  0
VIEW
  2
AM_VIEW6
 70
     0
 40
924.99075000000016
 10
711.25000059999468
 20
462.49999940360868
 41
1955.318524911032
 11
0.0
 21
0.0
 31
1.0
 12
0.0
 22
0.0
 32
0.0
 42
50.0
 43
0.0
 44
0.0
 50
0.0
 71
     0
  0
ENDTAB
  0
TABLE
  2
UCS
 70
     0
  0
ENDTAB
  0
TABLE
  2
APPID
 70
   157
  0
APPID
  2
ACAD
 70
     0
  0
APPID
  2
ACADANNOTATIVE
 70
     0
  0
APPID
  2
ACAD_MLEADERVER
 70
     0
  0
APPID
  2
MCAD_NO_VIS
 70
     0
  0
APPID
  2
ACAD_TEMP_GRAPHIC
 70
     0
  0
APPID
  2
AD_DRAW
 70
     0
  0
APPID
  2
ACATTRIBSERVICES
 70
     0
  0
APPID
  2
DESIGNERASSEMBLIES
 70
     0
  0
APPID
  2
ACADM_DIM_EDIT
 70
     0
  0
APPID
  2
AMDT_DM_ADJ
 70
     0
  0
APPID
  2
GENIUS_GENDIMSH_14
 70
     0
  0
APPID
  2
GEVID1057795304
 70
     0
  0
APPID
  2
GEVDC
 70
     0
  0
APPID
  2
GEVCON
 70
     0
  0
APPID
  2
GENIUS_GENBH_13
 70
     0
  0
APPID
  2
GENIUS_GENOENT_13
 70
     0
  0
APPID
  2
GENIUS_GENOBJ-NBEHI-BHF_13
 70
     0
  0
APPID
  2
GENIUS_GENOLIS_13
 70
     0
  0
APPID
  2
GENIUS_GENODEF_13
 70
     0
  0
APPID
  2
GENIUS_GENOREF_13
 70
     0
  0
APPID
  2
GENIUS_GENOBJ-NBEHI-BHB_13
 70
     0
  0
APPID
  2
GENIUS_GENOBJ-F-SCPASSM_13
 70
     0
  0
APPID
  2
GENIUS_GENDTOL_13
 70
     0
  0
APPID
  2
GENIUS_GENTRA_14
 70
     0
  0
APPID
  2
ASURF_PCURVE_APPNAME
 70
     0
  0
APPID
  2
GENIUS_GENCFG_13
 70
     0
  0
APPID
  2
GENIUS_GE3CFG0_13
 70
     0
  0
APPID
  2
GENIUS_GENCFG0_13
 70
     0
  0
APPID
  2
GENIUS_GENCFG1_13
 70
     0
  0
APPID
  2
GENIUS_GENCFG2_13
 70
     0
  0
APPID
  2
GENIUS_GENCFG3_13
 70
     0
  0
APPID
  2
GENIUS_GENCFG4_13
 70
     0
  0
APPID
  2
GENIUS_GEVCFG0_13
 70
     0
  0
APPID
  2
GENIUS_GENOBJ-N-TIT_13
 70
     0
  0
APPID
  2
GENIUS_GENTITLE_13
 70
     0
  0
APPID
  2
GENIUS_GENSCREG_15
 70
     0
  0
APPID
  2
GENIUS_GENOBJ-N-SDF_13
 70
     0
  0
APPID
  2
GENIUS_GENFIL_13
 70
     0
  0
APPID
  2
GENIUS_GENOBJ-N-CHA_13
 70
     0
  0
APPID
  2
GENIUS_GEFSH_13
 70
     0
  0
APPID
  2
GENIUS_GENOBJ-F-SHS_13
 70
     0
  0
APPID
  2
GENIUS_GENOBJ-N-CEN_13
 70
     0
  0
APPID
  2
GENIUS_GENREC_14
 70
     0
  0
APPID
  2
GENIUS_GENOBJ-N-REC_13
 70
     0
  0
APPID
  2
GENIUS_GENOBJ-N-HTC_13
 70
     0
  0
APPID
  2
GENIUS_GENHATCH_13
 70
     0
  0
APPID
  2
ACAD_PSEXT
 70
     0
  0
APPID
  2
ACAD_EXEMPT_FROM_CAD_STANDARDS
 70
     0
  0
APPID
  2
ACAECLAYERSTANDARD
 70
     0
  0
APPID
  2
GENIUS_GENCEN_19
 70
     0
  0
APPID
  2
ACAD_DSTYLE_DIMINSPECT
 70
     0
  0
APPID
  2
ACAD_DSTYLE_DIMANGULAR_EXT
 70
     0
  0
APPID
  2
ACADANNOPO
 70
     0
  0
APPID
  2
ACAD_NAV_VCDISPLAY
 70
     0
  0
APPID
  2
GENIUS_GENOBJ-N-FIL_13
 70
     0
  0
APPID
  2
ACAD_DSTYLE_DIMBREAK
 70
     0
  0
APPID
  2
ACAD_DSTYLE_DIMJAG
 70
     0
  0
APPID
  2
ACAD_DSTYLE_DIMRADIAL_EXTENSION
 70
     0
  0
APPID
  2
GENIUS_GENHINW_13
 70
     0
  0
APPID
  2
GENIUS_FIRSTVISTXT_14
 70
     0
  0
APPID
  2
GENIUS_GENOBJ-N-LEADER_13
 70
     0
  0
APPID
  2
GENIUS_DUMCFG0_13
 70
     0
  0
APPID
  2
ACAD_DSTYLE_DIMTEXT_FILL
 70
     0
  0
APPID
  2
AMG_2DHIDE
 70
     0
  0
APPID
  2
GENIUS_GEFSHEP_13
 70
     0
  0
APPID
  2
GENIUS_GENOBJ-F-SHE_13
 70
     0
  0
APPID
  2
GENIUS_GEFSHE_13
 70
     0
  0
APPID
  2
ACAD_DIMASSOC_DIMLFAC
 70
     0
  0
APPID
  2
ACAD_DIMASSOC_CALC_DIMLFAC
 70
     0
  0
APPID
  2
ACAD_DIMASSOC_OVERRIDDEN_D
 70
     0
  0
APPID
  2
GENIUS_GENOBJ-F-SHSV_13
 70
     0
  0
APPID
  2
GENIUS_GEFWELD_13
 70
     0
  0
APPID
  2
GENIUS_GENOBJ-N-CRS_13
 70
     0
  0
APPID
  2
GENIUS_GENOBJ-N-RSBK_13
 70
     0
  0
APPID
  2
GENIUS_GENOBJ-N-LIB_13
 70
     0
  0
APPID
  2
GENIUS_GENSCALE_13
 70
     0
  0
APPID
  2
GENIUS_GENDREL_13
 70
     0
  0
APPID
  2
GEVPT
 70
     0
  0
APPID
  2
GEVIT
 70
     0
  0
APPID
  2
VCC
 70
     0
  0
APPID
  2
GENBH
 70
     0
  0
APPID
  2
GEVMK
 70
     0
  0
APPID
  2
GENIUS_GENOBJ-F-DESC_13
 70
     0
  0
APPID
  2
GENIUS_GEFDESC_14
 70
     0
  0
APPID
  2
GENIUS_GENOBJ-F-FEAT_13
 70
     0
  0
APPID
  2
GENIUS_GEFFEAT_14
 70
     0
  0
APPID
  2
GENIUS_GEFPARTINS_13
 70
     0
  0
APPID
  2
GENIUS_GENSCREG_13
 70
     0
  0
APPID
  2
GENIUS_GEFSHP_13
 70
     0
  0
APPID
  2
GEVID1025574798
 70
     0
  0
APPID
  2
GEVID1025574769
 70
     0
  0
APPID
  2
GEVID1025757451
 70
     0
  0
APPID
  2
GEVID1240528327
 70
     0
  0
APPID
  2
AMG_2DSTRUCT_BTR
 70
     0
  0
APPID
  2
ACADM_2DVIEW_IGN_NOTIFY
 70
     0
  0
APPID
  2
GEVID1240528328
 70
     0
  0
APPID
  2
GEVID1240528329
 70
     0
  0
APPID
  2
GEVRADREF
 70
     0
  0
APPID
  2
GEVID1240528330
 70
     0
  0
APPID
  2
GEVID1240528331
 70
     0
  0
APPID
  2
GEVID1240528332
 70
     0
  0
APPID
  2
GEVID1240791080
 70
     0
  0
APPID
  2
GEVID1240791081
 70
     0
  0
APPID
  2
GEVID1240791082
 70
     0
  0
APPID
  2
GEVID1240791083
 70
     0
  0
APPID
  2
GEVID1240791084
 70
     0
  0
APPID
  2
GEVID1240791085
 70
     0
  0
APPID
  2
GEVID1240791086
 70
     0
  0
APPID
  2
GEVID1240791087
 70
     0
  0
APPID
  2
GEVID1240791088
 70
     0
  0
APPID
  2
GEVID1240791089
 70
     0
  0
APPID
  2
GEVID1240791090
 70
     0
  0
APPID
  2
GEVID1240791091
 70
     0
  0
APPID
  2
GEVID1240791092
 70
     0
  0
APPID
  2
GEVID1240791093
 70
     0
  0
APPID
  2
GEVID1240791094
 70
     0
  0
APPID
  2
GEVID1240791095
 70
     0
  0
APPID
  2
GEVID1240791096
 70
     0
  0
APPID
  2
GEVID1240791097
 70
     0
  0
APPID
  2
GEVID1240791098
 70
     0
  0
APPID
  2
GEVID1240791099
 70
     0
  0
APPID
  2
GEVID1240791100
 70
     0
  0
APPID
  2
GEVID1240791101
 70
     0
  0
APPID
  2
GEVID1240791102
 70
     0
  0
APPID
  2
GEVID1240791103
 70
     0
  0
APPID
  2
GEVID1240791104
 70
     0
  0
APPID
  2
GEVID1240791105
 70
     0
  0
APPID
  2
GEVID1240875381
 70
     0
  0
APPID
  2
GEVID1240875382
 70
     0
  0
APPID
  2
GEVID1240875383
 70
     0
  0
APPID
  2
GEVID1240875384
 70
     0
  0
APPID
  2
GEVID1240875385
 70
     0
  0
APPID
  2
GEVID1240875386
 70
     0
  0
APPID
  2
GEVID1240875387
 70
     0
  0
APPID
  2
GEVID1240875388
 70
     0
  0
APPID
  2
GEVID1240875389
 70
     0
  0
APPID
  2
GEVID1240875390
 70
     0
  0
APPID
  2
GEVID1240875391
 70
     0
  0
APPID
  2
GEVID1240875392
 70
     0
  0
APPID
  2
GEVID1240875393
 70
     0
  0
APPID
  2
GEVID1240875394
 70
     0
  0
APPID
  2
GEVID1240875395
 70
     0
  0
APPID
  2
GEVID1240875396
 70
     0
  0
APPID
  2
GEVID1240875397
 70
     0
  0
APPID
  2
GEVID1240875398
 70
     0
  0
APPID
  2
GEVID1240875399
 70
     0
  0
APPID
  2
GEVID1240908996
 70
     0
  0
APPID
  2
GEVID1240908997
 70
     0
  0
APPID
  2
GEVID1240908998
 70
     0
  0
APPID
  2
GEVID1240908999
 70
     0
  0
APPID
  2
GEVID1240909000
 70
     0
  0
APPID
  2
GENIUS_GENOBJ-N-ZOO_13
 70
     0
  0
APPID
  2
GENIUS_GENZOO_17
 70
     0
  0
APPID
  2
GENIUS_GE3SECT_13
 70
     0
  0
APPID
  2
GEV_VCCNULL_SWITCH_OFF
 70
     0
  0
APPID
  2
ACAD_DSTYLE_DIMTALN
 70
     0
  0
APPID
  2
DCO15
 70
     0
  0
ENDTAB
  0
TABLE
  2
DIMSTYLE
 70
    22
  0
DIMSTYLE
  2
AM_ANSI
 70
     0
  3

  4
"
  5

  6

  7

 40
1.0
 41
2.5
 42
1.0
 43
10.0
 44
1.0
 45
0.0
 46
0.0
 47
0.1
 48
0.1
140
3.5
141
0.0
142
0.0
143
0.0393701
144
1.0
145
0.0
146
0.71
147
1.5
 71
     0
 72
     0
 73
     1
 74
     1
 75
     0
 76
     0
 77
     0
 78
     8
170
     0
171
     2
172
     0
173
     0
174
     0
175
     0
176
     2
177
     2
178
     4
  0
DIMSTYLE
  2
AM_ANSI$3
 70
     0
  3

  4
"
  5

  6

  7

 40
1.0
 41
2.5
 42
1.0
 43
10.0
 44
1.0
 45
0.0
 46
0.0
 47
0.1
 48
0.1
140
3.5
141
0.0
142
0.0
143
0.0393701
144
1.0
145
0.0
146
0.71
147
1.5
 71
     0
 72
     0
 73
     1
 74
     1
 75
     0
 76
     0
 77
     0
 78
     8
170
     0
171
     2
172
     0
173
     0
174
     0
175
     0
176
     2
177
     2
178
     4
  0
DIMSTYLE
  2
AM_ANSI$4
 70
     0
  3

  4
"
  5

  6

  7

 40
1.0
 41
2.5
 42
1.0
 43
10.0
 44
1.0
 45
0.0
 46
0.0
 47
0.1
 48
0.1
140
3.5
141
0.0
142
0.0
143
0.0393701
144
1.0
145
0.0
146
0.71
147
1.5
 71
     0
 72
     0
 73
     1
 74
     1
 75
     0
 76
     0
 77
     0
 78
     8
170
     0
171
     2
172
     0
173
     0
174
     0
175
     0
176
     2
177
     2
178
     4
  0
DIMSTYLE
  2
AM_ANSI$7
 70
     0
  3

  4
"
  5

  6

  7

 40
1.0
 41
2.5
 42
1.0
 43
10.0
 44
1.0
 45
0.0
 46
0.0
 47
0.1
 48
0.1
140
5.0
141
0.0
142
0.0
143
0.0393701
144
1.0
145
0.0
146
0.71
147
1.5
 71
     0
 72
     0
 73
     1
 74
     1
 75
     0
 76
     0
 77
     0
 78
     8
170
     0
171
     2
172
     0
173
     0
174
     0
175
     0
176
     2
177
     2
178
     4
  0
DIMSTYLE
  2
AM_ANSI$SF
 70
     0
  3

  4
"
  5

  6

  7

 40
1.0
 41
2.5
 42
1.0
 43
10.0
 44
1.0
 45
0.0
 46
0.0
 47
0.1
 48
0.1
140
3.5
141
0.0
142
0.0
143
0.0393701
144
1.0
145
0.0
146
0.71
147
1.5
 71
     0
 72
     0
 73
     1
 74
     1
 75
     1
 76
     1
 77
     0
 78
     8
170
     0
171
     2
172
     0
173
     0
174
     0
175
     0
176
     2
177
     2
178
     4
  0
DIMSTYLE
  2
AM_ANSI$SH
 70
     0
  3

  4
"
  5

  6
GENAXEH
  7

 40
1.0
 41
2.5
 42
1.0
 43
10.0
 44
1.0
 45
0.0
 46
0.0
 47
0.1
 48
0.1
140
3.5
141
0.0
142
0.0
143
0.0393701
144
1.0
145
0.0
146
0.71
147
1.5
 71
     0
 72
     0
 73
     1
 74
     1
 75
     1
 76
     1
 77
     0
 78
     8
170
     0
171
     2
172
     0
173
     1
174
     0
175
     0
176
     2
177
     2
178
     4
  0
DIMSTYLE
  2
AM_ISO
 70
     0
  3

  4
"
  5

  6

  7

 40
1.0
 41
2.5
 42
1.0
 43
10.0
 44
1.0
 45
0.0
 46
0.0
 47
0.1
 48
0.1
140
3.5
141
0.0
142
0.0
143
0.0393701
144
1.0
145
0.0
146
0.71
147
1.5
 71
     0
 72
     0
 73
     0
 74
     0
 75
     0
 76
     0
 77
     1
 78
     8
170
     0
171
     2
172
     1
173
     0
174
     0
175
     0
176
   256
177
   256
178
     2
  0
DIMSTYLE
  2
AM_ISO$3
 70
     0
  3

  4
"
  5

  6

  7

 40
1.0
 41
2.5
 42
1.0
 43
10.0
 44
1.0
 45
0.0
 46
0.0
 47
0.1
 48
0.1
140
3.5
141
0.0
142
0.0
143
0.0393701
144
1.0
145
0.0
146
0.71
147
1.5
 71
     0
 72
     0
 73
     0
 74
     1
 75
     0
 76
     0
 77
     1
 78
     8
170
     0
171
     2
172
     0
173
     0
174
     0
175
     0
176
   256
177
   256
178
     2
  0
DIMSTYLE
  2
AM_ISO$4
 70
     0
  3

  4
"
  5

  6

  7

 40
1.0
 41
2.5
 42
1.0
 43
10.0
 44
1.0
 45
0.0
 46
0.0
 47
0.1
 48
0.1
140
3.5
141
0.0
142
0.0
143
0.0393701
144
1.0
145
0.0
146
0.71
147
1.5
 71
     0
 72
     0
 73
     0
 74
     1
 75
     0
 76
     0
 77
     1
 78
     8
170
     0
171
     2
172
     0
173
     0
174
     0
175
     0
176
   256
177
   256
178
     2
  0
DIMSTYLE
  2
AM_ISO$6
 70
     0
  3

  4
"
  5

  6

  7

 40
1.0
 41
2.5
 42
1.0
 43
10.0
 44
1.0
 45
0.0
 46
0.0
 47
0.1
 48
0.1
140
3.5
141
0.0
142
0.0
143
0.0393701
144
1.0
145
0.0
146
0.71
147
1.5
 71
     0
 72
     0
 73
     0
 74
     0
 75
     0
 76
     0
 77
     0
 78
     8
170
     0
171
     2
172
     1
173
     0
174
     0
175
     0
176
   256
177
   256
178
     2
  0
DIMSTYLE
  2
AM_ISO$7
 70
     0
  3

  4
"
  5

  6

  7

 40
1.0
 41
2.5
 42
1.0
 43
10.0
 44
1.0
 45
0.0
 46
0.0
 47
0.1
 48
0.1
140
5.0
141
0.0
142
0.0
143
0.0393701
144
1.0
145
0.0
146
0.71
147
1.5
 71
     0
 72
     0
 73
     0
 74
     0
 75
     0
 76
     0
 77
     1
 78
     8
170
     0
171
     2
172
     1
173
     0
174
     0
175
     0
176
   256
177
   256
178
     2
  0
DIMSTYLE
  2
AM_ISO$SF
 70
     0
  3

  4
"
  5

  6

  7

 40
1.0
 41
2.5
 42
1.0
 43
10.0
 44
1.0
 45
0.0
 46
0.0
 47
0.1
 48
0.1
140
3.5
141
0.0
142
0.0
143
0.0393701
144
1.0
145
0.0
146
0.71
147
1.5
 71
     0
 72
     0
 73
     0
 74
     0
 75
     1
 76
     1
 77
     1
 78
     8
170
     0
171
     2
172
     1
173
     0
174
     0
175
     0
176
   256
177
   256
178
     2
  0
DIMSTYLE
  2
AM_ISO$SH
 70
     0
  3

  4
"
  5

  6
GENAXEH
  7

 40
1.0
 41
2.5
 42
1.0
 43
10.0
 44
1.0
 45
0.0
 46
0.0
 47
0.1
 48
0.1
140
3.5
141
0.0
142
0.0
143
0.0393701
144
2.0
145
0.0
146
0.71
147
1.5
 71
     0
 72
     0
 73
     0
 74
     0
 75
     1
 76
     1
 77
     1
 78
     8
170
     0
171
     2
172
     1
173
     1
174
     0
175
     0
176
   256
177
   256
178
     2
  0
DIMSTYLE
  2
AM_JIS
 70
     0
  3

  4
"
  5

  6

  7

 40
1.0
 41
2.0
 42
1.0
 43
8.0
 44
1.0
 45
0.0
 46
0.0
 47
0.1
 48
0.1
140
2.5
141
0.0
142
0.0
143
0.0393701
144
1.0
145
0.0
146
0.71
147
1.5
 71
     0
 72
     0
 73
     0
 74
     0
 75
     0
 76
     0
 77
     3
 78
     8
170
     0
171
     2
172
     1
173
     0
174
     0
175
     0
176
     2
177
     2
178
     4
  0
DIMSTYLE
  2
AM_JIS$3
 70
     0
  3

  4
"
  5

  6

  7

 40
1.0
 41
2.0
 42
1.0
 43
10.0
 44
1.0
 45
0.0
 46
0.0
 47
0.1
 48
0.1
140
2.5
141
0.0
142
0.0
143
0.0393701
144
1.0
145
0.0
146
0.71
147
1.5
 71
     0
 72
     0
 73
     0
 74
     1
 75
     0
 76
     0
 77
     3
 78
     8
170
     0
171
     2
172
     0
173
     0
174
     0
175
     0
176
     2
177
     2
178
     4
  0
DIMSTYLE
  2
AM_JIS$4
 70
     0
  3

  4
"
  5

  6

  7

 40
1.0
 41
2.0
 42
1.0
 43
10.0
 44
1.0
 45
0.0
 46
0.0
 47
0.1
 48
0.1
140
2.5
141
0.0
142
0.0
143
0.0393701
144
1.0
145
0.0
146
0.71
147
1.5
 71
     0
 72
     0
 73
     0
 74
     0
 75
     0
 76
     0
 77
     3
 78
     8
170
     0
171
     2
172
     0
173
     0
174
     0
175
     0
176
     2
177
     2
178
     4
  0
DIMSTYLE
  2
AM_JIS$6
 70
     0
  3

  4
"
  5

  6

  7

 40
1.0
 41
2.0
 42
1.0
 43
10.0
 44
1.0
 45
0.0
 46
0.0
 47
0.1
 48
0.1
140
2.5
141
0.0
142
0.0
143
0.0393701
144
1.0
145
0.0
146
0.71
147
1.5
 71
     0
 72
     0
 73
     0
 74
     0
 75
     0
 76
     0
 77
     0
 78
     8
170
     0
171
     2
172
     1
173
     0
174
     0
175
     0
176
     2
177
     2
178
     4
  0
DIMSTYLE
  2
AM_JIS$7
 70
     0
  3

  4
"
  5

  6
OPEN30
  7
OPEN30
 40
1.0
 41
2.0
 42
1.0
 43
10.0
 44
1.0
 45
0.0
 46
0.0
 47
0.1
 48
0.1
140
2.5
141
0.0
142
0.0
143
0.0393701
144
1.0
145
0.0
146
0.71
147
1.5
 71
     0
 72
     0
 73
     0
 74
     0
 75
     0
 76
     0
 77
     3
 78
     8
170
     0
171
     2
172
     1
173
     0
174
     0
175
     0
176
     2
177
     2
178
     4
  0
DIMSTYLE
  2
AM_JIS$SF
 70
     0
  3

  4
"
  5

  6

  7

 40
1.0
 41
2.0
 42
1.0
 43
10.0
 44
1.0
 45
0.0
 46
0.0
 47
0.1
 48
0.1
140
2.5
141
0.0
142
0.0
143
0.0393701
144
1.0
145
0.0
146
0.71
147
1.5
 71
     0
 72
     0
 73
     0
 74
     0
 75
     1
 76
     1
 77
     3
 78
     8
170
     0
171
     2
172
     1
173
     0
174
     0
175
     0
176
     2
177
     2
178
     4
  0
DIMSTYLE
  2
AM_JIS$SH
 70
     0
  3

  4
"
  5

  6
GENAXEH
  7

 40
1.0
 41
2.0
 42
1.0
 43
10.0
 44
1.0
 45
0.0
 46
0.0
 47
0.1
 48
0.1
140
2.5
141
0.0
142
0.0
143
0.0393701
144
2.0
145
0.0
146
0.71
147
1.5
 71
     0
 72
     0
 73
     0
 74
     0
 75
     1
 76
     1
 77
     3
 78
     8
170
     0
171
     2
172
     1
173
     1
174
     0
175
     0
176
     2
177
     2
178
     4
  0
DIMSTYLE
  2
AM_JIS$0
 70
     0
  3

  4
"
  5

  6

  7

 40
1.0
 41
2.0
 42
1.0
 43
8.0
 44
1.0
 45
0.0
 46
0.0
 47
0.1
 48
0.1
140
2.5
141
0.0
142
0.0
143
0.0393701
144
1.0
145
0.0
146
0.71
147
1.5
 71
     0
 72
     0
 73
     0
 74
     0
 75
     0
 76
     0
 77
     3
 78
     8
170
     0
171
     2
172
     1
173
     0
174
     0
175
     0
176
     2
177
     2
178
     4
  0
DIMSTYLE
  2
STANDARD
 70
     0
  3

  4

  5

  6

  7

 40
1.0
 41
0.18
 42
0.0625
 43
0.38
 44
0.18
 45
0.0
 46
0.0
 47
0.0
 48
0.0
140
0.18
141
0.09
142
0.0
143
25.399999999999999
144
1.0
145
0.0
146
1.0
147
0.09
 71
     0
 72
     0
 73
     1
 74
     1
 75
     0
 76
     0
 77
     0
 78
     0
170
     0
171
     2
172
     0
173
     0
174
     0
175
     0
176
     0
177
     0
178
     0
  0
ENDTAB
  0
ENDSEC
  0
SECTION
  2
BLOCKS
  0
BLOCK
  8
0
  2
$MODEL_SPACE
 70
     0
 10
0.0
 20
0.0
 30
0.0
  3
$MODEL_SPACE
  1

  0
ENDBLK
  5
77
  8
0
  0
BLOCK
 67
     1
  8
0
  2
$PAPER_SPACE
 70
     0
 10
0.0
 20
0.0
 30
0.0
  3
$PAPER_SPACE
  1

  0
ENDBLK
  5
73
 67
     1
  8
0
  0
BLOCK
  8
0
  2
GENAXEH
 70
     0
 10
0.0
 20
0.0
 30
0.0
  3
GENAXEH
  1

  0
LINE
  5
B9E3
  8
0
 10
-1.0
 20
0.0
 30
0.0
 11
1.0
 21
0.0
 31
0.0
  0
ENDBLK
  5
B9E4
  8
0
  0
BLOCK
  8
0
  2
_OPEN30
 70
     0
 10
0.0
 20
0.0
 30
0.0
  3
_OPEN30
  1

  0
LINE
  5
BA2A
  8
0
  6
BYBLOCK
 62
     0
 10
-1.0
 20
0.26794919
 30
0.0
 11
0.0
 21
0.0
 31
0.0
  0
LINE
  5
BA2B
  8
0
  6
BYBLOCK
 62
     0
 10
0.0
 20
0.0
 30
0.0
 11
-1.0
 21
-0.26794919
 31
0.0
  0
LINE
  5
BA2C
  8
0
  6
BYBLOCK
 62
     0
 10
0.0
 20
0.0
 30
0.0
 11
-1.0
 21
0.0
 31
0.0
  0
ENDBLK
  5
BA2D
  8
0
  0
BLOCK
  8
0
  2
_ACMFILLEDHALF
 70
     0
 10
0.0
 20
0.0
 30
0.0
  3
_ACMFILLEDHALF
  1

  0
TRACE
  5
BB04
  8
0
  6
CONTINUOUS
 62
     0
 10
-0.8
 20
0.0
 30
0.0
 11
-1.0
 21
0.166666666
 31
0.0
 12
0.0
 22
0.0
 32
0.0
 13
0.0
 23
0.0
 33
0.0
  0
LINE
  5
BB05
  8
0
  6
CONTINUOUS
 62
     0
 10
-1.0
 20
0.0
 30
0.0
 11
-0.8
 21
0.0
 31
0.0
  0
ENDBLK
  5
BB06
  8
0
  0
BLOCK
  8
0
 62
     4
  2
*U7
 70
     1
 10
0.0
 20
0.0
 30
0.0
  3
*U7
  1

  0
TEXT
  5
BBA0
  8
0
 62
     0
 10
5.1211371559201648
 20
5.9826223594979657
 30
0.0
 40
15.0
  1
ＶＸ０８－００３ＥＭ～ＶＸ０８－０３０ＥＭ
 41
0.7400000000000003
  0
ENDBLK
  5
BBA2
  8
0
 62
     4
  0
ENDSEC
  0
SECTION
  2
ENTITIES
  0
LINE
  5
9D2E
  8
0
 62
     0
 10
417.19173167908582
 20
388.44041837927472
 30
0.0
 11
428.19168167908532
 21
388.44041837927472
 31
0.0
  0
LINE
  5
9D2F
  8
0
 62
     0
 10
417.19173167908582
 20
628.44045837927467
 30
0.0
 11
428.19168167908532
 21
628.44045837927467
 31
0.0
  0
LINE
  5
9D3C
  8
0
 62
     0
 10
418.17058167908527
 20
582.87737337927445
 30
0.0
 11
429.19948167908569
 21
582.87737337927445
 31
0.0
  0
LINE
  5
9D3D
  8
0
 62
     0
 10
417.19173167908582
 20
608.1676083792745
 30
0.0
 11
428.19168167908532
 21
608.1676083792745
 31
0.0
  0
LINE
  5
9D3E
  8
0
 62
     0
 10
417.19173167908582
 20
592.61125837927455
 30
0.0
 11
428.19168167908532
 21
592.61125837927455
 31
0.0
  0
LINE
  5
9D3F
  8
0
 62
     0
 10
417.19173167908582
 20
408.71321837927451
 30
0.0
 11
428.19168167908532
 21
408.71321837927451
 31
0.0
  0
LINE
  5
9D40
  8
0
 62
     0
 10
417.19173167908582
 20
424.26955337927461
 30
0.0
 11
428.19168167908532
 21
424.26955337927461
 31
0.0
  0
LINE
  5
9D41
  8
0
 62
     0
 10
418.17058167908527
 20
434.00346837927458
 30
0.0
 11
429.19948167908569
 21
434.00346837927458
 31
0.0
  0
LINE
  5
9DBB
  8
0
  6
AM_ISO08W050
 62
     0
 10
451.26190464565832
 20
553.15769075960111
 30
0.0
 11
745.17911281926524
 21
553.15769075960111
 31
0.0
  0
LINE
  5
9DC2
  8
0
  6
AM_ISO08W050
 62
     0
 10
470.80575173689061
 20
508.15769325960099
 30
0.0
 11
56.470382656888411
 21
508.15769325960099
 31
0.0
  0
ARC
  5
ABE4
  8
0
 62
     0
 10
179.19171967908591
 20
639.70769725960099
 30
0.0
 40
2.0
 50
90.000002999984659
 51
159.5034000000031
  0
ARC
  5
ABE5
  8
0
 62
     0
 10
174.10707567908591
 20
620.16170625960103
 30
0.0
 40
10.0
 50
90.000002999984659
 51
98.136523000008793
  0
ARC
  5
ABE6
  8
0
 62
     0
 10
174.29462567908601
 20
630.40799925960096
 30
0.0
 40
10.0
 50
90.000002999984659
 51
99.223570000004059
  0
ARC
  5
ABE7
  8
0
 62
     0
 10
174.224373679086
 20
626.53420325960076
 30
0.0
 40
10.0
 50
89.999996999989278
 51
98.816015000012186
  0
ARC
  5
ABE8
  8
0
 62
     0
 10
173.94240267908589
 20
611.41449825960103
 30
0.0
 40
10.0
 50
90.000002999984659
 51
97.184508999991394
  0
ARC
  5
ABE9
  8
0
 62
     0
 10
173.73042767908601
 20
600.46293025960097
 30
0.0
 40
10.0
 50
90.000002999984659
 51
95.961922000009963
  0
LINE
  5
ABEA
  8
0
 62
     0
 10
172.69175267908551
 20
562.47736525960113
 30
0.0
 11
241.1750856790859
 21
562.47736525960113
 31
0.0
  0
ARC
  5
ABEB
  8
0
 62
     0
 10
190.1103106790861
 20
555.09971025960101
 30
0.0
 40
3.0
 50
89.999998999979056
 51
180.00000899999949
  0
ARC
  5
ABEC
  8
0
 62
     0
 10
184.11031067908601
 20
554.13923025960094
 30
0.0
 40
3.0
 50
0.0
 51
105.7135969999852
  0
LINE
  5
ABED
  8
0
 62
     0
 10
187.11027067908589
 20
558.09969125960106
 30
0.0
 11
172.69175267908551
 21
554.04313625960094
 31
0.0
  0
LINE
  5
ABEE
  8
0
 62
     0
 10
187.1103106790861
 20
558.0997102596009
 30
0.0
 11
234.32444367908599
 21
558.0997102596009
 31
0.0
  0
LINE
  5
ABEF
  8
0
 62
     0
 10
187.1103106790861
 20
508.15769325960099
 30
0.0
 11
187.1103106790861
 21
554.13923025960094
 31
0.0
  0
LINE
  5
ABF0
  8
0
 62
     0
 10
327.99856767908608
 20
437.46804125960091
 30
0.0
 11
396.31905167908599
 21
437.46804125960091
 31
0.0
  0
LINE
  5
ABF1
  8
0
 62
     0
 10
172.69175267908551
 20
372.15769325960099
 30
0.0
 11
172.69175267908551
 21
644.15769325960093
 31
0.0
  0
ARC
  5
ABF2
  8
0
 62
     0
 10
78.341752679085857
 20
468.08769325960083
 30
0.0
 40
3.0
 50
180.0
 51
270.0
  0
ARC
  5
ABF3
  8
0
 62
     0
 10
81.691752679085994
 20
393.92096325960102
 30
0.0
 40
11.0
 50
180.0
 51
199.99999999999949
  0
ARC
  5
ABF4
  8
0
 62
     0
 10
80.007602679086176
 20
375.1576932596011
 30
0.0
 40
3.0
 50
199.99999999999949
 51
270.0
  0
LINE
  5
ABF5
  8
0
 62
     0
 10
71.355134679085936
 20
390.1587412596009
 30
0.0
 11
77.188524679085944
 21
374.13163325960102
 31
0.0
  0
LINE
  5
ABF6
  8
0
 62
     0
 10
77.906979679085907
 20
377.2995112596011
 30
0.0
 11
77.906979679085907
 21
462.00006825960099
 31
0.0
  0
LINE
  5
ABF7
  8
0
 62
     0
 10
172.69175267908551
 20
465.087693259601
 30
0.0
 11
78.341752679085857
 21
465.087693259601
 31
0.0
  0
LINE
  5
ABF8
  8
0
 62
     0
 10
80.007602679086176
 20
372.15769325960099
 30
0.0
 11
172.69175267908551
 21
372.15769325960099
 31
0.0
  0
ARC
  5
ABF9
  8
0
 62
     0
 10
78.341752679085857
 20
548.22769325960087
 30
0.0
 40
3.0
 50
90.0
 51
180.0
  0
LINE
  5
ABFA
  8
0
 62
     0
 10
71.355134679085936
 20
626.15664525960074
 30
0.0
 11
77.188524679085944
 21
642.18375325960085
 31
0.0
  0
ARC
  5
ABFB
  8
0
 62
     0
 10
80.007602679086176
 20
641.15769325960093
 30
0.0
 40
3.0
 50
90.0
 51
160.00000000000051
  0
ARC
  5
ABFC
  8
0
 62
     0
 10
81.691752679085994
 20
622.39442325960101
 30
0.0
 40
11.0
 50
160.00000000000051
 51
180.0
  0
LINE
  5
ABFD
  8
0
 62
     0
 10
77.906979679085907
 20
639.01587525960088
 30
0.0
 11
77.906979679085907
 21
554.3153182596011
 31
0.0
  0
LINE
  5
ABFE
  8
0
 62
     0
 10
70.691752679085994
 20
393.92096325960102
 30
0.0
 11
70.691752679085994
 21
622.39442325960101
 31
0.0
  0
LINE
  5
ABFF
  8
0
 62
     0
 10
75.341752679085857
 20
468.08769325960083
 30
0.0
 11
75.341752679085857
 21
548.22769325960087
 31
0.0
  0
LINE
  5
AC00
  8
0
 62
     0
 10
172.69175267908551
 20
551.22769325960098
 30
0.0
 11
78.341752679085857
 21
551.22769325960098
 31
0.0
  0
LINE
  5
AC01
  8
0
 62
     0
 10
80.007602679086176
 20
644.15769325960093
 30
0.0
 11
172.69175267908551
 21
644.15769325960093
 31
0.0
  0
ARC
  5
AC02
  8
0
 62
     0
 10
173.94240267908589
 20
404.90088825960112
 30
0.0
 40
10.0
 50
262.81549099998227
 51
269.99999699998932
  0
ARC
  5
AC03
  8
0
 62
     0
 10
174.10707567908591
 20
396.15368025960112
 30
0.0
 40
10.0
 50
261.86347699999118
 51
269.99999699998932
  0
ARC
  5
AC04
  8
0
 62
     0
 10
184.11031067908601
 20
462.17615625960099
 30
0.0
 40
3.0
 50
254.28640300001479
 51
0.0
  0
ARC
  5
AC05
  8
0
 62
     0
 10
190.1103106790861
 20
461.21567625960103
 30
0.0
 40
3.0
 50
179.99999100000039
 51
270.00000099999488
  0
ARC
  5
AC06
  8
0
 62
     0
 10
173.73042767908601
 20
415.85245625960079
 30
0.0
 40
10.0
 50
264.03807799999009
 51
269.99999699998932
  0
LINE
  5
AC07
  8
0
 62
     0
 10
187.11027067908589
 20
458.21569525960092
 30
0.0
 11
172.69175267908551
 21
462.27225025960092
 31
0.0
  0
LINE
  5
AC08
  8
0
 62
     0
 10
187.1103106790861
 20
458.2156762596008
 30
0.0
 11
229.1917316790859
 21
458.2156762596008
 31
0.0
  0
LINE
  5
AC09
  8
0
 62
     0
 10
187.1103106790861
 20
508.15769325960099
 30
0.0
 11
187.1103106790861
 21
462.17615625960099
 31
0.0
  0
LINE
  5
AC0A
  8
0
 62
     0
 10
172.69175267908551
 20
449.31470625960071
 30
0.0
 11
229.95642767908589
 21
449.31470625960071
 31
0.0
  0
LINE
  5
AC0B
  8
0
 62
     0
 10
172.69175267908551
 20
453.83802125960108
 30
0.0
 11
229.20411167908611
 21
453.83802125960108
 31
0.0
  0
LINE
  5
AC0C
  8
0
 62
     0
 10
236.1917316790859
 20
455.12269725960078
 30
0.0
 11
236.1917316790859
 21
547.65770125960103
 31
0.0
  0
LINE
  5
AC0D
  8
0
 62
     0
 10
229.1917316790859
 20
545.51269625960094
 30
0.0
 11
229.1917316790859
 21
523.63969525960101
 31
0.0
  0
LINE
  5
AC0E
  8
0
 62
     0
 10
229.1917316790859
 20
485.39089325960077
 30
0.0
 11
229.1917316790859
 21
454.50549425960082
 31
0.0
  0
LINE
  5
AC0F
  8
0
 62
     0
 10
333.1912276790859
 20
455.12269725960078
 30
0.0
 11
333.1912276790859
 21
547.65770125960103
 31
0.0
  0
LINE
  5
AC10
  8
0
 62
     0
 10
340.19122767908578
 20
545.51269625960094
 30
0.0
 11
340.19122767908578
 21
523.67069325960097
 31
0.0
  0
LINE
  5
AC11
  8
0
 62
     0
 10
340.19122767908578
 20
485.39539425960078
 30
0.0
 11
340.19122767908578
 21
454.50549425960082
 31
0.0
  0
LINE
  5
AC12
  8
0
 62
     0
 10
322.19122767908578
 20
563.51269625960094
 30
0.0
 11
247.1917316790859
 21
563.51269625960094
 31
0.0
  0
LINE
  5
AC13
  8
0
 62
     0
 10
322.19122767908578
 20
558.65770125960103
 30
0.0
 11
247.1917316790859
 21
558.65770125960103
 31
0.0
  0
LINE
  5
AC14
  8
0
 62
     0
 10
322.19122767908578
 20
520.68769225960114
 30
0.0
 11
247.1917316790859
 21
520.68769225960114
 31
0.0
  0
LINE
  5
AC15
  8
0
 62
     0
 10
322.19122767908578
 20
444.12282725960108
 30
0.0
 11
247.1917316790859
 21
444.12282725960108
 31
0.0
  0
LINE
  5
AC16
  8
0
 62
     0
 10
322.19122767908578
 20
438.47269525960093
 30
0.0
 11
247.1917316790859
 21
438.47269525960093
 31
0.0
  0
LINE
  5
AC17
  8
0
 62
     0
 10
322.19122767908578
 20
436.50549425960088
 30
0.0
 11
247.1917316790859
 21
436.50549425960088
 31
0.0
  0
ARC
  5
AC18
  8
0
 62
     0
 10
247.1917316790859
 20
545.51269625960094
 30
0.0
 40
18.0
 50
90.0
 51
179.99998199999749
  0
ARC
  5
AC19
  8
0
 62
     0
 10
247.1917316790859
 20
547.65770125960103
 30
0.0
 40
11.0
 50
90.0
 51
179.99998199999749
  0
ARC
  5
AC1A
  8
0
 62
     0
 10
247.1917316790859
 20
455.12269725960078
 30
0.0
 40
11.0
 50
179.99998199999749
 51
269.99996400000163
  0
ARC
  5
AC1B
  8
0
 62
     0
 10
247.1917316790859
 20
454.50549425960082
 30
0.0
 40
18.0
 50
179.99998199999749
 51
269.99996400000163
  0
ARC
  5
AC1C
  8
0
 62
     0
 10
247.1917316790859
 20
456.47269525960098
 30
0.0
 40
18.0
 50
179.99998199999749
 51
269.99996400000163
  0
ARC
  5
AC1D
  8
0
 62
     0
 10
234.6917316790859
 20
504.51569525960088
 30
0.0
 40
15.000003
 50
127.16889200000681
 51
232.83097600000301
  0
ARC
  5
AC1E
  8
0
 62
     0
 10
322.19122767908578
 20
545.51269625960094
 30
0.0
 40
18.0
 50
359.99993599999812
 51
89.999950999989878
  0
ARC
  5
AC1F
  8
0
 62
     0
 10
322.19122767908578
 20
547.65770125960103
 30
0.0
 40
11.0
 50
0.0000179999992061
 51
89.999959999995966
  0
ARC
  5
AC20
  8
0
 62
     0
 10
322.19122767908578
 20
455.12269725960078
 30
0.0
 40
11.0
 50
269.9999949999995
 51
359.99994299999821
  0
ARC
  5
AC21
  8
0
 62
     0
 10
322.19122767908578
 20
454.50549425960082
 30
0.0
 40
18.0
 50
270.00000899998008
 51
359.99994299999821
  0
ARC
  5
AC22
  8
0
 62
     0
 10
322.19122767908578
 20
456.47269525960098
 30
0.0
 40
18.0
 50
270.00000899998008
 51
359.99994299999821
  0
ARC
  5
AC23
  8
0
 62
     0
 10
247.1917316790859
 20
509.68769225960091
 30
0.0
 40
11.0
 50
90.0
 51
179.99998199999749
  0
ARC
  5
AC24
  8
0
 62
     0
 10
322.19122767908578
 20
509.68769225960091
 30
0.0
 40
11.0
 50
359.99994299999821
 51
89.999959999995966
  0
ARC
  5
AC25
  8
0
 62
     0
 10
220.1917316790859
 20
523.63969525960101
 30
0.0
 40
9.000003999999997
 50
307.16898300000742
 51
359.99993599999812
  0
ARC
  5
AC26
  8
0
 62
     0
 10
220.1917316790859
 20
485.39089325960077
 30
0.0
 40
9.0
 50
359.99993599999812
 51
52.830968000003928
  0
ARC
  5
AC27
  8
0
 62
     0
 10
349.19122767908578
 20
523.63969525960101
 30
0.0
 40
9.0
 50
179.99998199999749
 51
232.83098999999589
  0
ARC
  5
AC28
  8
0
 62
     0
 10
334.69122767908578
 20
504.51569525960088
 30
0.0
 40
15.0
 50
307.16895599999509
 51
52.830964000003732
  0
ARC
  5
AC29
  8
0
 62
     0
 10
349.19122767908578
 20
485.39089325960077
 30
0.0
 40
9.0000009999999975
 50
127.16889600000439
 51
179.99998199999749
  0
LINE
  5
AC2A
  8
0
 62
     0
 10
174.29462567908601
 20
375.90738725960102
 30
0.0
 11
395.08881567908571
 21
375.90738725960102
 31
0.0
  0
LINE
  5
AC2B
  8
0
 62
     0
 10
179.19171967908591
 20
374.60768925960099
 30
0.0
 11
390.19171967908602
 21
374.60768925960099
 31
0.0
  0
ARC
  5
AC2C
  8
0
 62
     0
 10
179.19171967908591
 20
376.60768925960099
 30
0.0
 40
2.0
 50
200.4965999999969
 51
269.99999699998932
  0
ARC
  5
AC2D
  8
0
 62
     0
 10
174.29462567908601
 20
385.90738725960102
 30
0.0
 40
10.0
 50
260.77642999999591
 51
269.99999699998932
  0
LINE
  5
AC2E
  8
0
 62
     0
 10
417.19173167908582
 20
623.15770725960101
 30
0.0
 11
415.19175967908581
 21
623.17170525960114
 31
0.0
  0
LINE
  5
AC2F
  8
0
 62
     0
 10
415.19173167908582
 20
628.83135325960075
 30
0.0
 11
415.19173167908582
 21
612.712061259601
 31
0.0
  0
LINE
  5
AC30
  8
0
 62
     0
 10
399.35040967908623
 20
578.37686125960113
 30
0.0
 11
413.79805567908539
 21
573.78112125960104
 31
0.0
  0
LINE
  5
AC31
  8
0
 62
     0
 10
399.05569567908623
 20
562.18393725960095
 30
0.0
 11
413.67269567908562
 21
558.56264525960091
 31
0.0
  0
LINE
  5
AC32
  8
0
 62
     0
 10
398.6933436790859
 20
544.83098925960076
 30
0.0
 11
413.52286967908577
 21
542.34123125960093
 31
0.0
  0
LINE
  5
AC33
  8
0
 62
     0
 10
398.29279767908611
 20
526.70849325960103
 30
0.0
 11
413.36063967908598
 21
525.43116125960103
 31
0.0
  0
LINE
  5
AC34
  8
0
 62
     0
 10
340.19122767908578
 20
544.96903325960102
 30
0.0
 11
397.03755767908609
 21
544.96903325960102
 31
0.0
  0
LINE
  5
AC35
  8
0
 62
     0
 10
415.19173167908582
 20
567.00068125960104
 30
0.0
 11
415.19173167908582
 21
571.87519125960102
 31
0.0
  0
LINE
  5
AC36
  8
0
 62
     0
 10
415.19173167908582
 20
552.54755525960093
 30
0.0
 11
415.19173167908582
 21
556.62131725960103
 31
0.0
  0
LINE
  5
AC37
  8
0
 62
     0
 10
415.19173167908582
 20
537.23041725960093
 30
0.0
 11
415.19173167908582
 21
540.36884525960102
 31
0.0
  0
LINE
  5
AC38
  8
0
 62
     0
 10
340.19122767908578
 20
537.23041725960093
 30
0.0
 11
412.19173167908582
 21
537.23041725960093
 31
0.0
  0
LINE
  5
AC39
  8
0
 62
     0
 10
338.75959467908569
 20
552.54755525960093
 30
0.0
 11
412.19173167908582
 21
552.54755525960093
 31
0.0
  0
LINE
  5
AC3A
  8
0
 62
     0
 10
172.69175267908551
 20
567.00068125960104
 30
0.0
 11
412.19173167908582
 21
567.00068125960104
 31
0.0
  0
LINE
  5
AC3B
  8
0
 62
     0
 10
340.48804867908581
 20
521.34739125960095
 30
0.0
 11
412.19173167908582
 21
521.34739125960095
 31
0.0
  0
LINE
  5
AC3C
  8
0
 62
     0
 10
397.87124567908592
 20
510.22446525960089
 30
0.0
 11
413.74653367908581
 21
509.65670725960092
 31
0.0
  0
LINE
  5
AC3D
  8
0
 62
     0
 10
397.87117567908581
 20
510.22450525960107
 30
0.0
 11
348.23886567908579
 21
510.9547572596008
 31
0.0
  0
LINE
  5
AC3E
  8
0
 62
     0
 10
415.19173167908582
 20
521.34739125960095
 30
0.0
 11
415.19173167908582
 21
523.43833325960077
 31
0.0
  0
LINE
  5
AC3F
  8
0
 62
     0
 10
340.19122767908578
 20
526.74424125960093
 30
0.0
 11
397.44807967908582
 21
526.74424125960093
 31
0.0
  0
LINE
  5
AC40
  8
0
 62
     0
 10
299.69173167908599
 20
595.0019612596011
 30
0.0
 11
299.69173167908599
 21
609.46292925960086
 31
0.0
  0
LINE
  5
AC41
  8
0
 62
     0
 10
172.69175267908551
 20
580.30848125960097
 30
0.0
 11
417.19173167908582
 21
580.30848125960097
 31
0.0
  0
LINE
  5
AC42
  8
0
 62
     0
 10
172.69175267908551
 20
594.00196125960076
 30
0.0
 11
395.98341967908573
 21
594.00196125960076
 31
0.0
  0
LINE
  5
AC43
  8
0
 62
     0
 10
407.07240967908592
 20
590.39948325960074
 30
0.0
 11
417.19173167908582
 21
590.39948325960074
 31
0.0
  0
LINE
  5
AC44
  8
0
 62
     0
 10
407.07235967908582
 20
590.39948325960074
 30
0.0
 11
399.6291716790862
 21
593.31368125960103
 31
0.0
  0
LINE
  5
AC45
  8
0
 62
     0
 10
173.73042767908601
 20
610.46292925960074
 30
0.0
 11
395.6530356790858
 21
610.46292925960074
 31
0.0
  0
LINE
  5
AC46
  8
0
 62
     0
 10
407.07239767908578
 20
606.16968125960102
 30
0.0
 11
399.8814376790861
 21
609.52499925960103
 31
0.0
  0
LINE
  5
AC47
  8
0
 62
     0
 10
300.69173167908588
 20
606.16967125960093
 30
0.0
 11
417.19173167908582
 21
606.16967125960093
 31
0.0
  0
LINE
  5
AC48
  8
0
 62
     0
 10
173.94240267908589
 20
621.41449925960103
 30
0.0
 11
395.44106167908598
 21
621.41449925960103
 31
0.0
  0
LINE
  5
AC49
  8
0
 62
     0
 10
414.10959767908611
 20
613.02654325960111
 30
0.0
 11
400.03041567908571
 21
620.29916125960119
 31
0.0
  0
LINE
  5
AC4A
  8
0
 62
     0
 10
415.19173167908582
 20
611.24962725960086
 30
0.0
 11
415.19173167908582
 21
606.16967125960093
 31
0.0
  0
LINE
  5
AC4B
  8
0
 62
     0
 10
174.10707567908591
 20
630.16170725960114
 30
0.0
 11
395.27638767908587
 21
630.16170725960114
 31
0.0
  0
LINE
  5
AC4C
  8
0
 62
     0
 10
400.13875367908571
 20
628.89992925960098
 30
0.0
 11
414.16418567908607
 21
621.09551325960115
 31
0.0
  0
LINE
  5
AC4D
  8
0
 62
     0
 10
174.224373679086
 20
636.5342032596011
 30
0.0
 11
395.1590776790859
 21
636.5342032596011
 31
0.0
  0
LINE
  5
AC4E
  8
0
 62
     0
 10
414.202241679086
 20
626.97220325960097
 30
0.0
 11
400.21174767908582
 21
635.16379125960111
 31
0.0
  0
LINE
  5
AC4F
  8
0
 62
     0
 10
174.29462567908601
 20
640.40799925960107
 30
0.0
 11
395.08882767908608
 21
640.40799925960107
 31
0.0
  0
LINE
  5
AC50
  8
0
 62
     0
 10
414.2247176790861
 20
630.54396125960102
 30
0.0
 11
400.25380167908571
 21
638.97092725960101
 31
0.0
  0
LINE
  5
AC51
  8
0
 62
     0
 10
179.19171967908591
 20
641.70769725960065
 30
0.0
 11
390.19173167908582
 21
641.70769725960065
 31
0.0
  0
LINE
  5
AC52
  8
0
 62
     0
 10
268.69173167908588
 20
606.16967125960093
 30
0.0
 11
172.69175267908551
 21
606.16967125960093
 31
0.0
  0
LINE
  5
AC53
  8
0
 62
     0
 10
269.69173167908588
 20
595.0019612596011
 30
0.0
 11
269.69173167908588
 21
609.46292925960086
 31
0.0
  0
LINE
  5
AC54
  8
0
 62
     0
 10
273.19173167908588
 20
645.15769325960093
 30
0.0
 11
296.19173167908588
 21
645.15769325960093
 31
0.0
  0
LINE
  5
AC55
  8
0
 62
     0
 10
273.19173167908588
 20
645.15769325960093
 30
0.0
 11
273.19173167908588
 21
641.70769725960065
 31
0.0
  0
LINE
  5
AC56
  8
0
 62
     0
 10
296.19173167908588
 20
645.15769325960093
 30
0.0
 11
296.19173167908588
 21
641.70769725960065
 31
0.0
  0
ARC
  5
AC57
  8
0
 62
     0
 10
413.19173167908582
 20
523.43833325960077
 30
0.0
 40
2.0
 50
0.0
 51
85.154496000004926
  0
ARC
  5
AC58
  8
0
 62
     0
 10
413.19173167908582
 20
540.36884525960102
 30
0.0
 40
2.0
 50
0.0
 51
80.469389000002764
  0
ARC
  5
AC59
  8
0
 62
     0
 10
413.19173167908582
 20
556.62131725960103
 30
0.0
 40
2.0
 50
0.0
 51
76.085411000000207
  0
ARC
  5
AC5A
  8
0
 62
     0
 10
413.19173167908582
 20
571.87519125960102
 30
0.0
 40
2.0
 50
0.0
 51
72.354331999997086
  0
ARC
  5
AC5B
  8
0
 62
     0
 10
396.31905167908599
 20
568.84735925960103
 30
0.0
 40
10.0
 50
72.354331999997086
 51
90.000002999984659
  0
ARC
  5
AC5C
  8
0
 62
     0
 10
396.65096167908592
 20
552.47736525960113
 30
0.0
 40
10.0
 50
76.085411000000207
 51
90.000002999984659
  0
ARC
  5
AC5D
  8
0
 62
     0
 10
397.03755767908609
 20
534.96903325960102
 30
0.0
 40
10.0
 50
80.469389000002764
 51
90.000002999984659
  0
ARC
  5
AC5E
  8
0
 62
     0
 10
397.44807967908582
 20
516.74424125960093
 30
0.0
 40
10.0
 50
85.154496000004926
 51
90.000002999984659
  0
ARC
  5
AC5F
  8
0
 62
     0
 10
413.6929536790858
 20
508.15650325960092
 30
0.0
 40
1.498794
 50
0.0454979999978255
 51
90.000002999984659
  0
ARC
  5
AC60
  8
0
 62
     0
 10
395.98341967908573
 20
584.0019612596011
 30
0.0
 40
10.0
 50
68.618381999996089
 51
90.000002999984659
  0
ARC
  5
AC61
  8
0
 62
     0
 10
395.6530356790858
 20
600.46292925960097
 30
0.0
 40
10.0
 50
64.986141999999674
 51
90.000002999984659
  0
ARC
  5
AC62
  8
0
 62
     0
 10
395.44106167908598
 20
611.41449925960103
 30
0.0
 40
10.0
 50
62.681328999998208
 51
90.000002999984659
  0
ARC
  5
AC63
  8
0
 62
     0
 10
413.19173167908582
 20
611.24962725960086
 30
0.0
 40
2.0
 50
0.0
 51
62.681328999998208
  0
ARC
  5
AC64
  8
0
 62
     0
 10
395.27638767908587
 20
620.16170725960114
 30
0.0
 40
10.0
 50
60.90636100001155
 51
90.000002999984659
  0
ARC
  5
AC65
  8
0
 62
     0
 10
413.19173167908582
 20
619.34787925960086
 30
0.0
 40
2.0
 50
0.0
 51
60.90636100001155
  0
ARC
  5
AC66
  8
0
 62
     0
 10
395.1590776790859
 20
626.53420325960076
 30
0.0
 40
10.0
 50
59.650562000004939
 51
90.000002999984659
  0
ARC
  5
AC67
  8
0
 62
     0
 10
413.19173167908582
 20
625.24630125960107
 30
0.0
 40
2.0
 50
0.0
 51
59.650562000004939
  0
ARC
  5
AC68
  8
0
 62
     0
 10
413.19173167908582
 20
628.83135325960075
 30
0.0
 40
2.0
 50
0.0
 51
58.902493000011233
  0
ARC
  5
AC69
  8
0
 62
     0
 10
395.08882767908608
 20
630.40799925960096
 30
0.0
 40
10.0
 50
58.902493000011233
 51
90.000002999984659
  0
ARC
  5
AC6A
  8
0
 62
     0
 10
390.19173167908582
 20
639.70769725960099
 30
0.0
 40
2.0
 50
20.496599000003329
 51
90.000002999984659
  0
ARC
  5
AC6B
  8
0
 62
     0
 10
300.69173167908588
 20
595.0019612596011
 30
0.0
 40
1.0
 50
179.9999949999995
 51
269.99999699998932
  0
ARC
  5
AC6C
  8
0
 62
     0
 10
268.69173167908588
 20
595.0019612596011
 30
0.0
 40
1.0
 50
269.99999699998932
 51
0.0
  0
ARC
  5
AC6D
  8
0
 62
     0
 10
300.69173167908588
 20
605.16967125960093
 30
0.0
 40
1.0
 50
89.999998999979056
 51
180.00000899999949
  0
ARC
  5
AC6E
  8
0
 62
     0
 10
268.69173167908588
 20
605.16967125960093
 30
0.0
 40
1.0
 50
0.0
 51
90.000002999984659
  0
ARC
  5
AC6F
  8
0
 62
     0
 10
300.69173167908588
 20
609.46292925960086
 30
0.0
 40
1.0
 50
89.999998999979056
 51
180.00000899999949
  0
ARC
  5
AC70
  8
0
 62
     0
 10
268.69173167908588
 20
609.46292925960086
 30
0.0
 40
1.0
 50
0.0
 51
90.000002999984659
  0
LINE
  5
AC71
  8
0
 62
     0
 10
328.20787367908588
 20
562.47736525960113
 30
0.0
 11
396.65096167908592
 21
562.47736525960113
 31
0.0
  0
LINE
  5
AC72
  8
0
 62
     0
 10
172.69175267908551
 20
578.84734525960107
 30
0.0
 11
396.31905167908599
 21
578.84734525960107
 31
0.0
  0
LINE
  5
AC73
  8
0
 62
     0
 10
417.19173167908582
 20
393.15767925960103
 30
0.0
 11
415.19175967908581
 21
393.14368125960112
 31
0.0
  0
LINE
  5
AC74
  8
0
 62
     0
 10
415.19173167908582
 20
387.48403325960112
 30
0.0
 11
415.19173167908582
 21
403.60332525960092
 31
0.0
  0
LINE
  5
AC75
  8
0
 62
     0
 10
172.69175267908551
 20
437.46804125960091
 30
0.0
 11
241.38439267908601
 21
437.46804125960091
 31
0.0
  0
LINE
  5
AC76
  8
0
 62
     0
 10
399.35040967908623
 20
437.93852525960091
 30
0.0
 11
413.79805567908539
 21
442.53426525960077
 31
0.0
  0
LINE
  5
AC77
  8
0
 62
     0
 10
399.05569567908623
 20
454.13144925960103
 30
0.0
 11
413.67269567908562
 21
457.75274125960101
 31
0.0
  0
LINE
  5
AC78
  8
0
 62
     0
 10
398.6933436790859
 20
471.484397259601
 30
0.0
 11
413.52286967908577
 21
473.97415525960099
 31
0.0
  0
LINE
  5
AC79
  8
0
 62
     0
 10
398.29279767908611
 20
489.60689325960078
 30
0.0
 11
413.36063967908598
 21
490.88422525960078
 31
0.0
  0
LINE
  5
AC7A
  8
0
 62
     0
 10
340.19122767908578
 20
471.3463532596009
 30
0.0
 11
397.03755767908609
 21
471.3463532596009
 31
0.0
  0
LINE
  5
AC7B
  8
0
 62
     0
 10
415.19173167908582
 20
449.31470525960071
 30
0.0
 11
415.19173167908582
 21
444.44019525960113
 31
0.0
  0
LINE
  5
AC7C
  8
0
 62
     0
 10
415.19173167908582
 20
463.76783125960071
 30
0.0
 11
415.19173167908582
 21
459.69406925960089
 31
0.0
  0
LINE
  5
AC7D
  8
0
 62
     0
 10
415.19173167908582
 20
479.084969259601
 30
0.0
 11
415.19173167908582
 21
475.94654125960108
 31
0.0
  0
LINE
  5
AC7E
  8
0
 62
     0
 10
340.19122767908578
 20
479.084969259601
 30
0.0
 11
412.19173167908582
 21
479.084969259601
 31
0.0
  0
LINE
  5
AC7F
  8
0
 62
     0
 10
340.19122767908578
 20
463.76783125960071
 30
0.0
 11
412.19173167908582
 21
463.76783125960071
 31
0.0
  0
LINE
  5
AC80
  8
0
 62
     0
 10
346.26021367908618
 20
494.9679952596008
 30
0.0
 11
412.19173167908582
 21
494.9679952596008
 31
0.0
  0
LINE
  5
AC81
  8
0
 62
     0
 10
397.87124567908592
 20
506.0909212596008
 30
0.0
 11
413.74653367908581
 21
506.65867925960112
 31
0.0
  0
LINE
  5
AC82
  8
0
 62
     0
 10
397.87117567908581
 20
506.09088125960091
 30
0.0
 11
349.66621267908567
 21
505.38163025960091
 31
0.0
  0
LINE
  5
AC83
  8
0
 62
     0
 10
415.19173167908582
 20
494.9679952596008
 30
0.0
 11
415.19173167908582
 21
492.87705325960098
 31
0.0
  0
LINE
  5
AC84
  8
0
 62
     0
 10
341.22093867908598
 20
489.57114525960088
 30
0.0
 11
397.44807967908582
 21
489.57114525960088
 31
0.0
  0
LINE
  5
AC85
  8
0
 62
     0
 10
299.69173167908599
 20
421.31342525960099
 30
0.0
 11
299.69173167908599
 21
406.85245725960078
 31
0.0
  0
LINE
  5
AC86
  8
0
 62
     0
 10
172.69175267908551
 20
436.0069052596009
 30
0.0
 11
417.19173167908582
 21
436.0069052596009
 31
0.0
  0
LINE
  5
AC87
  8
0
 62
     0
 10
172.69175267908551
 20
422.31342525960088
 30
0.0
 11
395.98341967908573
 21
422.31342525960088
 31
0.0
  0
LINE
  5
AC88
  8
0
 62
     0
 10
407.07240967908592
 20
425.91590325960078
 30
0.0
 11
417.19173167908582
 21
425.91590325960078
 31
0.0
  0
LINE
  5
AC89
  8
0
 62
     0
 10
407.07235967908582
 20
425.91590325960078
 30
0.0
 11
399.6291716790862
 21
423.00170525960101
 31
0.0
  0
LINE
  5
AC8A
  8
0
 62
     0
 10
173.73042767908601
 20
405.8524572596009
 30
0.0
 11
395.6530356790858
 21
405.8524572596009
 31
0.0
  0
LINE
  5
AC8B
  8
0
 62
     0
 10
407.07239767908578
 20
410.14570525960107
 30
0.0
 11
399.8814376790861
 21
406.79038725960089
 31
0.0
  0
LINE
  5
AC8C
  8
0
 62
     0
 10
300.69173167908588
 20
410.14571525960099
 30
0.0
 11
417.19173167908582
 21
410.14571525960099
 31
0.0
  0
LINE
  5
AC8D
  8
0
 62
     0
 10
173.94240267908589
 20
394.90088725960101
 30
0.0
 11
395.44106167908598
 21
394.90088725960101
 31
0.0
  0
LINE
  5
AC8E
  8
0
 62
     0
 10
414.10959767908611
 20
403.28884325960092
 30
0.0
 11
400.03041567908571
 21
396.01622525960101
 31
0.0
  0
LINE
  5
AC8F
  8
0
 62
     0
 10
415.19173167908582
 20
405.06575925960078
 30
0.0
 11
415.19173167908582
 21
410.14571525960099
 31
0.0
  0
LINE
  5
AC90
  8
0
 62
     0
 10
174.10707567908591
 20
386.15367925960112
 30
0.0
 11
395.27638767908587
 21
386.15367925960112
 31
0.0
  0
LINE
  5
AC91
  8
0
 62
     0
 10
400.13875367908571
 20
387.415457259601
 30
0.0
 11
414.16418567908607
 21
395.21987325960112
 31
0.0
  0
LINE
  5
AC92
  8
0
 62
     0
 10
174.224373679086
 20
379.78118325960111
 30
0.0
 11
395.1590776790859
 21
379.78118325960111
 31
0.0
  0
LINE
  5
AC93
  8
0
 62
     0
 10
414.202241679086
 20
389.34318325960112
 30
0.0
 11
400.21174767908582
 21
381.15159525960098
 31
0.0
  0
LINE
  5
AC94
  8
0
 62
     0
 10
414.2247176790861
 20
385.77142525960107
 30
0.0
 11
400.25380167908571
 21
377.34445925960108
 31
0.0
  0
LINE
  5
AC95
  8
0
 62
     0
 10
268.69173167908588
 20
410.14571525960099
 30
0.0
 11
172.69175267908551
 21
410.14571525960099
 31
0.0
  0
LINE
  5
AC96
  8
0
 62
     0
 10
269.69173167908588
 20
421.31342525960099
 30
0.0
 11
269.69173167908588
 21
406.85245725960078
 31
0.0
  0
LINE
  5
AC97
  8
0
 62
     0
 10
273.19173167908588
 20
371.1576932596011
 30
0.0
 11
296.19173167908588
 21
371.1576932596011
 31
0.0
  0
LINE
  5
AC98
  8
0
 62
     0
 10
273.19173167908588
 20
371.1576932596011
 30
0.0
 11
273.19173167908588
 21
374.60768925960099
 31
0.0
  0
LINE
  5
AC99
  8
0
 62
     0
 10
296.19173167908588
 20
371.1576932596011
 30
0.0
 11
296.19173167908588
 21
374.60768925960099
 31
0.0
  0
ARC
  5
AC9A
  8
0
 62
     0
 10
413.19173167908582
 20
492.87705325960098
 30
0.0
 40
2.0
 50
274.84550399999512
 51
0.0
  0
ARC
  5
AC9B
  8
0
 62
     0
 10
413.19173167908582
 20
475.94654125960108
 30
0.0
 40
2.0
 50
279.53061099999741
 51
0.0
  0
ARC
  5
AC9C
  8
0
 62
     0
 10
413.19173167908582
 20
459.69406925960089
 30
0.0
 40
2.0
 50
283.91458899999981
 51
0.0
  0
ARC
  5
AC9D
  8
0
 62
     0
 10
413.19173167908582
 20
444.44019525960113
 30
0.0
 40
2.0
 50
287.64566800000279
 51
0.0
  0
ARC
  5
AC9E
  8
0
 62
     0
 10
396.31905167908599
 20
447.46802725960089
 30
0.0
 40
10.0
 50
269.99999699998932
 51
287.64566800000279
  0
ARC
  5
AC9F
  8
0
 62
     0
 10
396.65096167908592
 20
463.83802125960079
 30
0.0
 40
10.0
 50
269.99999699998932
 51
283.91458899999981
  0
ARC
  5
ACA0
  8
0
 62
     0
 10
397.03755767908609
 20
481.3463532596009
 30
0.0
 40
10.0
 50
269.99999699998932
 51
279.53061099999741
  0
ARC
  5
ACA1
  8
0
 62
     0
 10
397.44807967908582
 20
499.571145259601
 30
0.0
 40
10.0
 50
269.99999699998932
 51
274.84550399999512
  0
ARC
  5
ACA2
  8
0
 62
     0
 10
413.6929536790858
 20
508.15888325960088
 30
0.0
 40
1.498794
 50
272.04545799998698
 51
359.95450199999891
  0
ARC
  5
ACA3
  8
0
 62
     0
 10
395.98341967908573
 20
432.31342525960099
 30
0.0
 40
10.0
 50
269.99999699998932
 51
291.38161800000381
  0
ARC
  5
ACA4
  8
0
 62
     0
 10
395.6530356790858
 20
415.85245725960101
 30
0.0
 40
10.0
 50
269.99999699998932
 51
295.01385800000031
  0
ARC
  5
ACA5
  8
0
 62
     0
 10
395.44106167908598
 20
404.90088725960101
 30
0.0
 40
10.0
 50
269.99999699998932
 51
297.31867100000181
  0
ARC
  5
ACA6
  8
0
 62
     0
 10
413.19173167908582
 20
405.06575925960078
 30
0.0
 40
2.0
 50
297.31867100000181
 51
0.0
  0
ARC
  5
ACA7
  8
0
 62
     0
 10
395.27638767908587
 20
396.15367925960112
 30
0.0
 40
10.0
 50
269.99999699998932
 51
299.0936389999884
  0
ARC
  5
ACA8
  8
0
 62
     0
 10
413.19173167908582
 20
396.96750725960112
 30
0.0
 40
2.0
 50
299.0936389999884
 51
0.0
  0
ARC
  5
ACA9
  8
0
 62
     0
 10
395.1590776790859
 20
389.78118325960111
 30
0.0
 40
10.0
 50
269.99999699998932
 51
300.34943799999508
  0
ARC
  5
ACAA
  8
0
 62
     0
 10
413.19173167908582
 20
391.06908525960102
 30
0.0
 40
2.0
 50
300.34943799999508
 51
0.0
  0
ARC
  5
ACAB
  8
0
 62
     0
 10
413.19173167908582
 20
387.48403325960112
 30
0.0
 40
2.0
 50
301.0975069999887
 51
0.0
  0
ARC
  5
ACAC
  8
0
 62
     0
 10
395.08882767908608
 20
385.90738725960102
 30
0.0
 40
10.0
 50
269.99999699998932
 51
301.0975069999887
  0
ARC
  5
ACAD
  8
0
 62
     0
 10
390.19173167908582
 20
376.60768925960099
 30
0.0
 40
2.0
 50
269.99999699998932
 51
339.5034009999967
  0
ARC
  5
ACAE
  8
0
 62
     0
 10
300.69173167908588
 20
421.31342525960099
 30
0.0
 40
1.0
 50
90.000002999984659
 51
180.0000050000005
  0
ARC
  5
ACAF
  8
0
 62
     0
 10
268.69173167908588
 20
421.31342525960099
 30
0.0
 40
1.0
 50
0.0
 51
90.000002999984659
  0
ARC
  5
ACB0
  8
0
 62
     0
 10
300.69173167908588
 20
411.14571525960099
 30
0.0
 40
1.0
 50
179.99999100000039
 51
270.00000099999488
  0
ARC
  5
ACB1
  8
0
 62
     0
 10
268.69173167908588
 20
411.14571525960099
 30
0.0
 40
1.0
 50
269.99999699998932
 51
0.0
  0
ARC
  5
ACB2
  8
0
 62
     0
 10
300.69173167908588
 20
406.85245725960078
 30
0.0
 40
1.0
 50
179.99999100000039
 51
270.00000099999488
  0
ARC
  5
ACB3
  8
0
 62
     0
 10
268.69173167908588
 20
406.85245725960078
 30
0.0
 40
1.0
 50
269.99999699998932
 51
0.0
  0
LINE
  5
ACB4
  8
0
 62
     0
 10
340.17884867908612
 20
453.83802125960108
 30
0.0
 11
396.65096167908592
 21
453.83802125960108
 31
0.0
  0
LINE
  5
ACB5
  8
0
 62
     0
 10
339.42653267908599
 20
449.31470525960071
 30
0.0
 11
412.19173167908582
 21
449.31470525960071
 31
0.0
  0
LINE
  5
ACB6
  8
0
 62
     0
 10
417.19173167908582
 20
628.44045837927456
 30
0.0
 11
417.19173167908582
 21
388.44041837927472
 31
0.0
  0
ARC
  5
ACB7
  8
0
 62
     0
 10
174.224373679086
 20
389.78118325960111
 30
0.0
 40
10.0
 50
261.18398499998779
 51
270.00000299998459
  0
LINE
  5
B3F3
  8
0
  6
AM_ISO08W050
 62
     0
 10
32.369986665273132
 20
987.49543851899261
 30
0.0
 11
741.8089316790855
 21
987.49543851899261
 31
0.0
  0
LINE
  5
B42C
  8
0
  6
CONTINUOUS
 62
     0
 10
418.17062167908517
 20
913.05848851899293
 30
0.0
 11
429.19949167908612
 21
913.05848851899293
 31
0.0
  0
LINE
  5
B42D
  8
0
  6
CONTINUOUS
 62
     0
 10
417.19174167908528
 20
903.32453851899231
 30
0.0
 11
428.19174167908562
 21
903.32453851899231
 31
0.0
  0
LINE
  5
B42E
  8
0
  6
CONTINUOUS
 62
     0
 10
417.19174167908528
 20
887.76819851899279
 30
0.0
 11
428.19174167908562
 21
887.76819851899279
 31
0.0
  0
LINE
  5
B42F
  8
0
  6
CONTINUOUS
 62
     0
 10
417.19174167908528
 20
1071.666268518992
 30
0.0
 11
428.19174167908562
 21
1071.666268518992
 31
0.0
  0
LINE
  5
B430
  8
0
  6
CONTINUOUS
 62
     0
 10
417.19174167908528
 20
1087.222608518993
 30
0.0
 11
428.19174167908562
 21
1087.222608518993
 31
0.0
  0
LINE
  5
B431
  8
0
  6
CONTINUOUS
 62
     0
 10
418.17062167908517
 20
1061.9323885189931
 30
0.0
 11
429.19949167908612
 21
1061.9323885189931
 31
0.0
  0
LINE
  5
B434
  8
0
  6
CONTINUOUS
 62
     0
 10
417.19174167908528
 20
1107.4954385189919
 30
0.0
 11
417.19174167908528
 21
867.4954385189925
 31
0.0
  0
LINE
  5
B436
  8
0
  6
CONTINUOUS
 62
     0
 10
417.19174167908528
 20
867.4954385189925
 30
0.0
 11
428.19174167908562
 21
867.4954385189925
 31
0.0
  0
LINE
  5
B437
  8
0
  6
CONTINUOUS
 62
     0
 10
417.19174167908528
 20
1107.4954385189919
 30
0.0
 11
428.19174167908562
 21
1107.4954385189919
 31
0.0
  0
LINE
  5
B47F
  8
0
  6
CONTINUOUS
 62
     0
 10
417.19174167908528
 20
871.49543851899261
 30
0.0
 11
415.27878468455179
 21
871.49543851899261
 31
0.0
  0
CIRCLE
  5
B480
  8
0
 62
     0
 10
284.69174167908551
 20
987.49538551899275
 30
0.0
 40
4.0
  0
CIRCLE
  5
B481
  8
0
 62
     0
 10
284.69174167908551
 20
987.49538551899275
 30
0.0
 40
5.0
  0
ARC
  5
B482
  8
0
 62
     0
 10
77.459820679085055
 20
861.49543851899273
 30
0.0
 40
3.0
 50
200.00000000000989
 51
270.0
  0
LINE
  5
B483
  8
0
 62
     0
 10
77.459820679085055
 20
858.4954385189925
 30
0.0
 11
172.6917626790854
 21
858.4954385189925
 31
0.0
  0
ARC
  5
B484
  8
0
 62
     0
 10
81.691762679085414
 20
873.25870851899276
 30
0.0
 40
11.0
 50
180.0
 51
200.00000000000989
  0
LINE
  5
B485
  8
0
 62
     0
 10
71.355144679085114
 20
869.49648651899292
 30
0.0
 11
74.640742679085506
 21
860.46937851899258
 31
0.0
  0
LINE
  5
B486
  8
0
 62
     0
 10
172.6917626790854
 20
858.4954385189925
 30
0.0
 11
172.6917626790854
 21
1123.4954385189919
 31
0.0
  0
ARC
  5
B487
  8
0
 62
     0
 10
81.691762679085414
 20
1101.732168518992
 30
0.0
 40
11.0
 50
159.99999999999011
 51
180.0
  0
ARC
  5
B488
  8
0
 62
     0
 10
80.007612679085355
 20
1120.4954385189919
 30
0.0
 40
3.0
 50
90.0
 51
159.99999999999011
  0
LINE
  5
B489
  8
0
 62
     0
 10
71.355144679085114
 20
1105.4943905189921
 30
0.0
 11
77.188534679085805
 21
1121.5214985189921
 31
0.0
  0
LINE
  5
B48A
  8
0
 62
     0
 10
77.906989679085996
 20
860.46937851899258
 30
0.0
 11
77.906989679085996
 21
1118.353620518993
 31
0.0
  0
LINE
  5
B48B
  8
0
 62
     0
 10
70.691762679085443
 20
873.25870851899276
 30
0.0
 11
70.691762679085443
 21
1101.732168518992
 31
0.0
  0
LINE
  5
B48C
  8
0
 62
     0
 10
80.007612679085355
 20
1123.4954385189919
 30
0.0
 11
172.6917626790854
 21
1123.4954385189919
 31
0.0
  0
ARC
  5
B48D
  8
0
 62
     0
 10
413.19174167908528
 20
869.33133351899266
 30
0.0
 40
2.0
 50
299.99999800001319
 51
0.0
  0
LINE
  5
B48E
  8
0
 62
     0
 10
414.19174267908579
 20
867.59930751899265
 30
0.0
 11
408.85202867908509
 21
864.51642151899273
 31
0.0
  0
ARC
  5
B48F
  8
0
 62
     0
 10
403.8520196790858
 20
873.17667051899275
 30
0.0
 40
10.0
 50
269.99999700001541
 51
299.99999800001319
  0
LINE
  5
B490
  8
0
 62
     0
 10
332.74995667908559
 20
863.17667051899275
 30
0.0
 11
403.8520196790858
 21
863.17667051899275
 31
0.0
  0
LINE
  5
B491
  8
0
 62
     0
 10
417.19172067908562
 20
1102.4954515189929
 30
0.0
 11
415.1918026790853
 21
1102.5094515189919
 31
0.0
  0
LINE
  5
B492
  8
0
 62
     0
 10
415.1918026790853
 20
1110.5653855189919
 30
0.0
 11
398.99703967908579
 21
1120.4954385189919
 31
0.0
  0
LINE
  5
B493
  8
0
 62
     0
 10
172.6917626790854
 20
1120.4954385189919
 30
0.0
 11
398.99691767908541
 21
1120.4954385189919
 31
0.0
  0
LINE
  5
B494
  8
0
  6
AM_ISO08W050
 62
     0
 10
284.69174167908551
 20
845.88366851899218
 30
0.0
 11
284.69174167908551
 21
860.3287005189926
 31
0.0
  0
ARC
  5
B495
  8
0
 62
     0
 10
349.66674767908518
 20
806.38941551899256
 30
0.0
 40
9.0
 50
117.9770600000161
 51
180.10395799999739
  0
ARC
  5
B496
  8
0
 62
     0
 10
349.6177516790857
 20
833.26441551899245
 30
0.0
 40
9.0
 50
180.10395799999739
 51
243.265312000026
  0
LINE
  5
B497
  8
0
 62
     0
 10
347.53832367908569
 20
828.57965451899258
 30
0.0
 11
345.56858167908553
 21
829.69674151899267
 31
0.0
  0
LINE
  5
B498
  8
0
 62
     0
 10
349.69174167908562
 20
821.40271851899274
 30
0.0
 11
349.69174167908562
 21
825.1506145189926
 31
0.0
  0
LINE
  5
B499
  8
0
  6
AM_ISO08W050
 62
     0
 10
345.14775067908522
 20
820.68043151899269
 30
0.0
 11
334.41474867908607
 21
820.68043151899269
 31
0.0
  0
LINE
  5
B49A
  8
0
  6
AM_ISO08W050
 62
     0
 10
339.69174167908562
 20
814.75742751899259
 30
0.0
 11
339.69174167908562
 21
827.24244251899245
 31
0.0
  0
LINE
  5
B49B
  8
0
 62
     0
 10
340.6667666790853
 20
806.37245151899265
 30
0.0
 11
340.66876567908542
 21
805.45247051899264
 31
0.0
  0
ARC
  5
B49C
  8
0
 62
     0
 10
341.69174167908562
 20
821.40271851899274
 30
0.0
 40
8.0
 50
297.97706000001608
 51
0.0
  0
ARC
  5
B49D
  8
0
 62
     0
 10
345.44174167908562
 20
824.88278551899259
 30
0.0
 40
4.25
 50
0.0
 51
60.441404999990397
  0
LINE
  5
B49E
  8
0
 62
     0
 10
347.53832367908569
 20
824.10965351899245
 30
0.0
 11
345.56858167908553
 21
825.22674051899219
 31
0.0
  0
ARC
  5
B49F
  8
0
 62
     0
 10
345.44174167908562
 20
820.41278351899268
 30
0.0
 40
4.25
 50
5.6335919999969368
 51
60.441404999990397
  0
ARC
  5
B4A0
  8
0
 62
     0
 10
323.19174167908562
 20
799.62645051899278
 30
0.0
 40
10.0
 50
270.00003599997228
 51
0.0000179999992061
  0
ARC
  5
B4A1
  8
0
 62
     0
 10
322.6687466790853
 20
805.45243451899273
 30
0.0
 40
18.0
 50
270.0
 51
0.0000179999992061
  0
ARC
  5
B4A2
  8
0
 62
     0
 10
323.19174167908562
 20
812.44642251899245
 30
0.0
 40
10.0
 50
0.0000179999992061
 51
90.0
  0
LINE
  5
B4A3
  8
0
 62
     0
 10
333.19174167908562
 20
835.53242051899258
 30
0.0
 11
333.19174167908562
 21
799.62645051899278
 31
0.0
  0
LINE
  5
B4A4
  8
0
 62
     0
 10
340.59975567908521
 20
843.03243251899266
 30
0.0
 11
340.61776067908602
 21
833.24845251899262
 31
0.0
  0
ARC
  5
B4A5
  8
0
 62
     0
 10
323.19174167908562
 20
835.53242051899258
 30
0.0
 40
10.0
 50
0.0000179999992061
 51
90.0
  0
ARC
  5
B4A6
  8
0
 62
     0
 10
349.6177516790857
 20
837.73441651899259
 30
0.0
 40
9.0
 50
180.10395799999739
 51
243.26223399999091
  0
POLYLINE
  5
B4A7
  8
0
 62
     0
 10
340.59971980764101
 20
843.03243252212508
 30
0.0
 66
     1
 70
     8
  0
VERTEX
  8
0
  5
BBA3
 10
340.600
 20
843.032
 30
0.000000
  70
    32
  0
VERTEX
  8
0
  5
BBA4
 10
340.598
 20
843.165
 30
0.000000
  70
    32
  0
VERTEX
  8
0
  5
BBA5
 10
340.594
 20
843.298
 30
0.000000
  70
    32
  0
VERTEX
  8
0
  5
BBA6
 10
340.587
 20
843.430
 30
0.000000
  70
    32
  0
VERTEX
  8
0
  5
BBA7
 10
340.578
 20
843.563
 30
0.000000
  70
    32
  0
VERTEX
  8
0
  5
BBA8
 10
340.565
 20
843.695
 30
0.000000
  70
    32
  0
VERTEX
  8
0
  5
BBA9
 10
340.550
 20
843.827
 30
0.000000
  70
    32
  0
VERTEX
  8
0
  5
BBAA
 10
340.532
 20
843.959
 30
0.000000
  70
    32
  0
VERTEX
  8
0
  5
BBAB
 10
340.511
 20
844.091
 30
0.000000
  70
    32
  0
VERTEX
  8
0
  5
BBAC
 10
340.488
 20
844.223
 30
0.000000
  70
    32
  0
VERTEX
  8
0
  5
BBAD
 10
340.461
 20
844.355
 30
0.000000
  70
    32
  0
VERTEX
  8
0
  5
BBAE
 10
340.432
 20
844.486
 30
0.000000
  70
    32
  0
VERTEX
  8
0
  5
BBAF
 10
340.400
 20
844.618
 30
0.000000
  70
    32
  0
VERTEX
  8
0
  5
BBB0
 10
340.366
 20
844.749
 30
0.000000
  70
    32
  0
VERTEX
  8
0
  5
BBB1
 10
340.329
 20
844.880
 30
0.000000
  70
    32
  0
VERTEX
  8
0
  5
BBB2
 10
340.289
 20
845.010
 30
0.000000
  70
    32
  0
VERTEX
  8
0
  5
BBB3
 10
340.246
 20
845.140
 30
0.000000
  70
    32
  0
VERTEX
  8
0
  5
BBB4
 10
340.201
 20
845.270
 30
0.000000
  70
    32
  0
VERTEX
  8
0
  5
BBB5
 10
340.152
 20
845.400
 30
0.000000
  70
    32
  0
VERTEX
  8
0
  5
BBB6
 10
340.102
 20
845.529
 30
0.000000
  70
    32
  0
VERTEX
  8
0
  5
BBB7
 10
340.048
 20
845.658
 30
0.000000
  70
    32
  0
VERTEX
  8
0
  5
BBB8
 10
339.992
 20
845.786
 30
0.000000
  70
    32
  0
VERTEX
  8
0
  5
BBB9
 10
339.933
 20
845.914
 30
0.000000
  70
    32
  0
VERTEX
  8
0
  5
BBBA
 10
339.871
 20
846.042
 30
0.000000
  70
    32
  0
VERTEX
  8
0
  5
BBBB
 10
339.807
 20
846.169
 30
0.000000
  70
    32
  0
VERTEX
  8
0
  5
BBBC
 10
339.740
 20
846.295
 30
0.000000
  70
    32
  0
VERTEX
  8
0
  5
BBBD
 10
339.671
 20
846.421
 30
0.000000
  70
    32
  0
VERTEX
  8
0
  5
BBBE
 10
339.598
 20
846.547
 30
0.000000
  70
    32
  0
VERTEX
  8
0
  5
BBBF
 10
339.524
 20
846.672
 30
0.000000
  70
    32
  0
VERTEX
  8
0
  5
BBC0
 10
339.446
 20
846.797
 30
0.000000
  70
    32
  0
VERTEX
  8
0
  5
BBC1
 10
339.366
 20
846.921
 30
0.000000
  70
    32
  0
VERTEX
  8
0
  5
BBC2
 10
339.284
 20
847.044
 30
0.000000
  70
    32
  0
VERTEX
  8
0
  5
BBC3
 10
339.198
 20
847.167
 30
0.000000
  70
    32
  0
VERTEX
  8
0
  5
BBC4
 10
339.111
 20
847.289
 30
0.000000
  70
    32
  0
VERTEX
  8
0
  5
BBC5
 10
339.020
 20
847.411
 30
0.000000
  70
    32
  0
VERTEX
  8
0
  5
BBC6
 10
338.928
 20
847.532
 30
0.000000
  70
    32
  0
VERTEX
  8
0
  5
BBC7
 10
338.832
 20
847.652
 30
0.000000
  70
    32
  0
VERTEX
  8
0
  5
BBC8
 10
338.735
 20
847.771
 30
0.000000
  70
    32
  0
VERTEX
  8
0
  5
BBC9
 10
338.634
 20
847.890
 30
0.000000
  70
    32
  0
VERTEX
  8
0
  5
BBCA
 10
338.531
 20
848.008
 30
0.000000
  70
    32
  0
VERTEX
  8
0
  5
BBCB
 10
338.426
 20
848.125
 30
0.000000
  70
    32
  0
VERTEX
  8
0
  5
BBCC
 10
338.318
 20
848.242
 30
0.000000
  70
    32
  0
VERTEX
  8
0
  5
BBCD
 10
338.208
 20
848.358
 30
0.000000
  70
    32
  0
VERTEX
  8
0
  5
BBCE
 10
338.096
 20
848.473
 30
0.000000
  70
    32
  0
VERTEX
  8
0
  5
BBCF
 10
337.981
 20
848.587
 30
0.000000
  70
    32
  0
VERTEX
  8
0
  5
BBD0
 10
337.863
 20
848.700
 30
0.000000
  70
    32
  0
VERTEX
  8
0
  5
BBD1
 10
337.744
 20
848.813
 30
0.000000
  70
    32
  0
VERTEX
  8
0
  5
BBD2
 10
337.622
 20
848.924
 30
0.000000
  70
    32
  0
VERTEX
  8
0
  5
BBD3
 10
337.497
 20
849.035
 30
0.000000
  70
    32
  0
VERTEX
  8
0
  5
BBD4
 10
337.371
 20
849.145
 30
0.000000
  70
    32
  0
VERTEX
  8
0
  5
BBD5
 10
337.242
 20
849.253
 30
0.000000
  70
    32
  0
VERTEX
  8
0
  5
BBD6
 10
337.111
 20
849.361
 30
0.000000
  70
    32
  0
VERTEX
  8
0
  5
BBD7
 10
336.977
 20
849.468
 30
0.000000
  70
    32
  0
VERTEX
  8
0
  5
BBD8
 10
336.841
 20
849.574
 30
0.000000
  70
    32
  0
VERTEX
  8
0
  5
BBD9
 10
336.704
 20
849.679
 30
0.000000
  70
    32
  0
VERTEX
  8
0
  5
BBDA
 10
336.564
 20
849.783
 30
0.000000
  70
    32
  0
VERTEX
  8
0
  5
BBDB
 10
336.421
 20
849.886
 30
0.000000
  70
    32
  0
VERTEX
  8
0
  5
BBDC
 10
336.277
 20
849.988
 30
0.000000
  70
    32
  0
VERTEX
  8
0
  5
BBDD
 10
336.130
 20
850.089
 30
0.000000
  70
    32
  0
VERTEX
  8
0
  5
BBDE
 10
335.982
 20
850.189
 30
0.000000
  70
    32
  0
VERTEX
  8
0
  5
BBDF
 10
335.831
 20
850.288
 30
0.000000
  70
    32
  0
VERTEX
  8
0
  5
BBE0
 10
335.678
 20
850.386
 30
0.000000
  70
    32
  0
VERTEX
  8
0
  5
BBE1
 10
335.524
 20
850.482
 30
0.000000
  70
    32
  0
VERTEX
  8
0
  5
BBE2
 10
335.367
 20
850.578
 30
0.000000
  70
    32
  0
VERTEX
  8
0
  5
BBE3
 10
335.208
 20
850.672
 30
0.000000
  70
    32
  0
VERTEX
  8
0
  5
BBE4
 10
335.047
 20
850.765
 30
0.000000
  70
    32
  0
VERTEX
  8
0
  5
BBE5
 10
334.885
 20
850.857
 30
0.000000
  70
    32
  0
VERTEX
  8
0
  5
BBE6
 10
334.720
 20
850.948
 30
0.000000
  70
    32
  0
VERTEX
  8
0
  5
BBE7
 10
334.554
 20
851.038
 30
0.000000
  70
    32
  0
VERTEX
  8
0
  5
BBE8
 10
334.385
 20
851.126
 30
0.000000
  70
    32
  0
VERTEX
  8
0
  5
BBE9
 10
334.215
 20
851.213
 30
0.000000
  70
    32
  0
VERTEX
  8
0
  5
BBEA
 10
334.043
 20
851.299
 30
0.000000
  70
    32
  0
VERTEX
  8
0
  5
BBEB
 10
333.870
 20
851.384
 30
0.000000
  70
    32
  0
VERTEX
  8
0
  5
BBEC
 10
333.694
 20
851.468
 30
0.000000
  70
    32
  0
VERTEX
  8
0
  5
BBED
 10
333.517
 20
851.550
 30
0.000000
  70
    32
  0
VERTEX
  8
0
  5
BBEE
 10
333.338
 20
851.631
 30
0.000000
  70
    32
  0
VERTEX
  8
0
  5
BBEF
 10
333.157
 20
851.710
 30
0.000000
  70
    32
  0
VERTEX
  8
0
  5
BBF0
 10
332.975
 20
851.789
 30
0.000000
  70
    32
  0
VERTEX
  8
0
  5
BBF1
 10
332.791
 20
851.866
 30
0.000000
  70
    32
  0
VERTEX
  8
0
  5
BBF2
 10
332.606
 20
851.941
 30
0.000000
  70
    32
  0
VERTEX
  8
0
  5
BBF3
 10
332.419
 20
852.016
 30
0.000000
  70
    32
  0
VERTEX
  8
0
  5
BBF4
 10
332.230
 20
852.089
 30
0.000000
  70
    32
  0
VERTEX
  8
0
  5
BBF5
 10
332.040
 20
852.160
 30
0.000000
  70
    32
  0
VERTEX
  8
0
  5
BBF6
 10
331.848
 20
852.230
 30
0.000000
  70
    32
  0
VERTEX
  8
0
  5
BBF7
 10
331.655
 20
852.299
 30
0.000000
  70
    32
  0
VERTEX
  8
0
  5
BBF8
 10
331.461
 20
852.367
 30
0.000000
  70
    32
  0
VERTEX
  8
0
  5
BBF9
 10
331.265
 20
852.433
 30
0.000000
  70
    32
  0
VERTEX
  8
0
  5
BBFA
 10
331.068
 20
852.497
 30
0.000000
  70
    32
  0
VERTEX
  8
0
  5
BBFB
 10
330.869
 20
852.561
 30
0.000000
  70
    32
  0
VERTEX
  8
0
  5
BBFC
 10
330.669
 20
852.622
 30
0.000000
  70
    32
  0
VERTEX
  8
0
  5
BBFD
 10
330.468
 20
852.683
 30
0.000000
  70
    32
  0
VERTEX
  8
0
  5
BBFE
 10
330.266
 20
852.742
 30
0.000000
  70
    32
  0
VERTEX
  8
0
  5
BBFF
 10
330.062
 20
852.799
 30
0.000000
  70
    32
  0
VERTEX
  8
0
  5
BC00
 10
329.857
 20
852.855
 30
0.000000
  70
    32
  0
VERTEX
  8
0
  5
BC01
 10
329.651
 20
852.910
 30
0.000000
  70
    32
  0
VERTEX
  8
0
  5
BC02
 10
329.444
 20
852.963
 30
0.000000
  70
    32
  0
VERTEX
  8
0
  5
BC03
 10
329.236
 20
853.014
 30
0.000000
  70
    32
  0
VERTEX
  8
0
  5
BC04
 10
329.027
 20
853.064
 30
0.000000
  70
    32
  0
VERTEX
  8
0
  5
BC05
 10
328.817
 20
853.112
 30
0.000000
  70
    32
  0
VERTEX
  8
0
  5
BC06
 10
328.605
 20
853.159
 30
0.000000
  70
    32
  0
VERTEX
  8
0
  5
BC07
 10
328.393
 20
853.205
 30
0.000000
  70
    32
  0
VERTEX
  8
0
  5
BC08
 10
328.180
 20
853.249
 30
0.000000
  70
    32
  0
VERTEX
  8
0
  5
BC09
 10
327.966
 20
853.291
 30
0.000000
  70
    32
  0
VERTEX
  8
0
  5
BC0A
 10
327.751
 20
853.332
 30
0.000000
  70
    32
  0
VERTEX
  8
0
  5
BC0B
 10
327.535
 20
853.371
 30
0.000000
  70
    32
  0
VERTEX
  8
0
  5
BC0C
 10
327.319
 20
853.409
 30
0.000000
  70
    32
  0
VERTEX
  8
0
  5
BC0D
 10
327.101
 20
853.445
 30
0.000000
  70
    32
  0
VERTEX
  8
0
  5
BC0E
 10
326.883
 20
853.480
 30
0.000000
  70
    32
  0
VERTEX
  8
0
  5
BC0F
 10
326.665
 20
853.513
 30
0.000000
  70
    32
  0
VERTEX
  8
0
  5
BC10
 10
326.445
 20
853.544
 30
0.000000
  70
    32
  0
VERTEX
  8
0
  5
BC11
 10
326.225
 20
853.574
 30
0.000000
  70
    32
  0
VERTEX
  8
0
  5
BC12
 10
326.004
 20
853.602
 30
0.000000
  70
    32
  0
VERTEX
  8
0
  5
BC13
 10
325.783
 20
853.629
 30
0.000000
  70
    32
  0
VERTEX
  8
0
  5
BC14
 10
325.561
 20
853.654
 30
0.000000
  70
    32
  0
VERTEX
  8
0
  5
BC15
 10
325.339
 20
853.677
 30
0.000000
  70
    32
  0
VERTEX
  8
0
  5
BC16
 10
325.116
 20
853.699
 30
0.000000
  70
    32
  0
VERTEX
  8
0
  5
BC17
 10
324.893
 20
853.719
 30
0.000000
  70
    32
  0
VERTEX
  8
0
  5
BC18
 10
324.669
 20
853.738
 30
0.000000
  70
    32
  0
VERTEX
  8
0
  5
BC19
 10
324.445
 20
853.755
 30
0.000000
  70
    32
  0
VERTEX
  8
0
  5
BC1A
 10
324.221
 20
853.771
 30
0.000000
  70
    32
  0
VERTEX
  8
0
  5
BC1B
 10
323.996
 20
853.784
 30
0.000000
  70
    32
  0
VERTEX
  8
0
  5
BC1C
 10
323.771
 20
853.797
 30
0.000000
  70
    32
  0
VERTEX
  8
0
  5
BC1D
 10
323.546
 20
853.807
 30
0.000000
  70
    32
  0
VERTEX
  8
0
  5
BC1E
 10
323.321
 20
853.816
 30
0.000000
  70
    32
  0
VERTEX
  8
0
  5
BC1F
 10
323.095
 20
853.823
 30
0.000000
  70
    32
  0
VERTEX
  8
0
  5
BC20
 10
322.869
 20
853.829
 30
0.000000
  70
    32
  0
VERTEX
  8
0
  5
BC21
 10
322.643
 20
853.833
 30
0.000000
  70
    32
  0
VERTEX
  8
0
  5
BC22
 10
322.418
 20
853.836
 30
0.000000
  70
    32
  0
VERTEX
  8
0
  5
BC23
 10
322.192
 20
853.836
 30
0.000000
  70
    32
  0
SEQEND
  8
0
  5
BC24
  0
POLYLINE
  5
B4A8
  8
0
 62
     0
 10
340.6044380799641
 20
840.48787959844901
 30
0.0
 66
     1
 70
     8
  0
VERTEX
  8
0
  5
BC25
 10
340.604
 20
840.488
 30
0.000000
  70
    32
  0
VERTEX
  8
0
  5
BC26
 10
340.603
 20
840.605
 30
0.000000
  70
    32
  0
VERTEX
  8
0
  5
BC27
 10
340.599
 20
840.722
 30
0.000000
  70
    32
  0
VERTEX
  8
0
  5
BC28
 10
340.592
 20
840.839
 30
0.000000
  70
    32
  0
VERTEX
  8
0
  5
BC29
 10
340.582
 20
840.956
 30
0.000000
  70
    32
  0
VERTEX
  8
0
  5
BC2A
 10
340.570
 20
841.073
 30
0.000000
  70
    32
  0
VERTEX
  8
0
  5
BC2B
 10
340.555
 20
841.190
 30
0.000000
  70
    32
  0
VERTEX
  8
0
  5
BC2C
 10
340.536
 20
841.307
 30
0.000000
  70
    32
  0
VERTEX
  8
0
  5
BC2D
 10
340.516
 20
841.423
 30
0.000000
  70
    32
  0
VERTEX
  8
0
  5
BC2E
 10
340.492
 20
841.540
 30
0.000000
  70
    32
  0
VERTEX
  8
0
  5
BC2F
 10
340.466
 20
841.656
 30
0.000000
  70
    32
  0
VERTEX
  8
0
  5
BC30
 10
340.437
 20
841.772
 30
0.000000
  70
    32
  0
VERTEX
  8
0
  5
BC31
 10
340.405
 20
841.888
 30
0.000000
  70
    32
  0
VERTEX
  8
0
  5
BC32
 10
340.371
 20
842.004
 30
0.000000
  70
    32
  0
VERTEX
  8
0
  5
BC33
 10
340.333
 20
842.120
 30
0.000000
  70
    32
  0
VERTEX
  8
0
  5
BC34
 10
340.293
 20
842.235
 30
0.000000
  70
    32
  0
VERTEX
  8
0
  5
BC35
 10
340.251
 20
842.350
 30
0.000000
  70
    32
  0
VERTEX
  8
0
  5
BC36
 10
340.205
 20
842.465
 30
0.000000
  70
    32
  0
VERTEX
  8
0
  5
BC37
 10
340.157
 20
842.579
 30
0.000000
  70
    32
  0
VERTEX
  8
0
  5
BC38
 10
340.106
 20
842.693
 30
0.000000
  70
    32
  0
VERTEX
  8
0
  5
BC39
 10
340.052
 20
842.807
 30
0.000000
  70
    32
  0
VERTEX
  8
0
  5
BC3A
 10
339.996
 20
842.920
 30
0.000000
  70
    32
  0
VERTEX
  8
0
  5
BC3B
 10
339.937
 20
843.034
 30
0.000000
  70
    32
  0
VERTEX
  8
0
  5
BC3C
 10
339.876
 20
843.146
 30
0.000000
  70
    32
  0
VERTEX
  8
0
  5
BC3D
 10
339.811
 20
843.259
 30
0.000000
  70
    32
  0
VERTEX
  8
0
  5
BC3E
 10
339.745
 20
843.370
 30
0.000000
  70
    32
  0
VERTEX
  8
0
  5
BC3F
 10
339.675
 20
843.482
 30
0.000000
  70
    32
  0
VERTEX
  8
0
  5
BC40
 10
339.603
 20
843.593
 30
0.000000
  70
    32
  0
VERTEX
  8
0
  5
BC41
 10
339.528
 20
843.703
 30
0.000000
  70
    32
  0
VERTEX
  8
0
  5
BC42
 10
339.450
 20
843.813
 30
0.000000
  70
    32
  0
VERTEX
  8
0
  5
BC43
 10
339.370
 20
843.923
 30
0.000000
  70
    32
  0
VERTEX
  8
0
  5
BC44
 10
339.288
 20
844.032
 30
0.000000
  70
    32
  0
VERTEX
  8
0
  5
BC45
 10
339.203
 20
844.140
 30
0.000000
  70
    32
  0
VERTEX
  8
0
  5
BC46
 10
339.115
 20
844.248
 30
0.000000
  70
    32
  0
VERTEX
  8
0
  5
BC47
 10
339.025
 20
844.356
 30
0.000000
  70
    32
  0
VERTEX
  8
0
  5
BC48
 10
338.932
 20
844.463
 30
0.000000
  70
    32
  0
VERTEX
  8
0
  5
BC49
 10
338.836
 20
844.569
 30
0.000000
  70
    32
  0
VERTEX
  8
0
  5
BC4A
 10
338.739
 20
844.674
 30
0.000000
  70
    32
  0
VERTEX
  8
0
  5
BC4B
 10
338.638
 20
844.779
 30
0.000000
  70
    32
  0
VERTEX
  8
0
  5
BC4C
 10
338.535
 20
844.884
 30
0.000000
  70
    32
  0
VERTEX
  8
0
  5
BC4D
 10
338.430
 20
844.987
 30
0.000000
  70
    32
  0
VERTEX
  8
0
  5
BC4E
 10
338.322
 20
845.090
 30
0.000000
  70
    32
  0
VERTEX
  8
0
  5
BC4F
 10
338.212
 20
845.192
 30
0.000000
  70
    32
  0
VERTEX
  8
0
  5
BC50
 10
338.100
 20
845.294
 30
0.000000
  70
    32
  0
VERTEX
  8
0
  5
BC51
 10
337.985
 20
845.395
 30
0.000000
  70
    32
  0
VERTEX
  8
0
  5
BC52
 10
337.867
 20
845.495
 30
0.000000
  70
    32
  0
VERTEX
  8
0
  5
BC53
 10
337.748
 20
845.594
 30
0.000000
  70
    32
  0
VERTEX
  8
0
  5
BC54
 10
337.625
 20
845.693
 30
0.000000
  70
    32
  0
VERTEX
  8
0
  5
BC55
 10
337.501
 20
845.791
 30
0.000000
  70
    32
  0
VERTEX
  8
0
  5
BC56
 10
337.374
 20
845.888
 30
0.000000
  70
    32
  0
VERTEX
  8
0
  5
BC57
 10
337.245
 20
845.984
 30
0.000000
  70
    32
  0
VERTEX
  8
0
  5
BC58
 10
337.114
 20
846.079
 30
0.000000
  70
    32
  0
VERTEX
  8
0
  5
BC59
 10
336.981
 20
846.174
 30
0.000000
  70
    32
  0
VERTEX
  8
0
  5
BC5A
 10
336.845
 20
846.267
 30
0.000000
  70
    32
  0
VERTEX
  8
0
  5
BC5B
 10
336.707
 20
846.360
 30
0.000000
  70
    32
  0
VERTEX
  8
0
  5
BC5C
 10
336.567
 20
846.452
 30
0.000000
  70
    32
  0
VERTEX
  8
0
  5
BC5D
 10
336.425
 20
846.543
 30
0.000000
  70
    32
  0
VERTEX
  8
0
  5
BC5E
 10
336.280
 20
846.633
 30
0.000000
  70
    32
  0
VERTEX
  8
0
  5
BC5F
 10
336.134
 20
846.722
 30
0.000000
  70
    32
  0
VERTEX
  8
0
  5
BC60
 10
335.985
 20
846.810
 30
0.000000
  70
    32
  0
VERTEX
  8
0
  5
BC61
 10
335.834
 20
846.898
 30
0.000000
  70
    32
  0
VERTEX
  8
0
  5
BC62
 10
335.682
 20
846.984
 30
0.000000
  70
    32
  0
VERTEX
  8
0
  5
BC63
 10
335.527
 20
847.069
 30
0.000000
  70
    32
  0
VERTEX
  8
0
  5
BC64
 10
335.370
 20
847.154
 30
0.000000
  70
    32
  0
VERTEX
  8
0
  5
BC65
 10
335.211
 20
847.237
 30
0.000000
  70
    32
  0
VERTEX
  8
0
  5
BC66
 10
335.050
 20
847.319
 30
0.000000
  70
    32
  0
VERTEX
  8
0
  5
BC67
 10
334.888
 20
847.400
 30
0.000000
  70
    32
  0
VERTEX
  8
0
  5
BC68
 10
334.723
 20
847.481
 30
0.000000
  70
    32
  0
VERTEX
  8
0
  5
BC69
 10
334.557
 20
847.560
 30
0.000000
  70
    32
  0
VERTEX
  8
0
  5
BC6A
 10
334.388
 20
847.638
 30
0.000000
  70
    32
  0
VERTEX
  8
0
  5
BC6B
 10
334.218
 20
847.715
 30
0.000000
  70
    32
  0
VERTEX
  8
0
  5
BC6C
 10
334.046
 20
847.791
 30
0.000000
  70
    32
  0
VERTEX
  8
0
  5
BC6D
 10
333.872
 20
847.866
 30
0.000000
  70
    32
  0
VERTEX
  8
0
  5
BC6E
 10
333.697
 20
847.940
 30
0.000000
  70
    32
  0
VERTEX
  8
0
  5
BC6F
 10
333.520
 20
848.012
 30
0.000000
  70
    32
  0
VERTEX
  8
0
  5
BC70
 10
333.341
 20
848.084
 30
0.000000
  70
    32
  0
VERTEX
  8
0
  5
BC71
 10
333.160
 20
848.154
 30
0.000000
  70
    32
  0
VERTEX
  8
0
  5
BC72
 10
332.978
 20
848.223
 30
0.000000
  70
    32
  0
VERTEX
  8
0
  5
BC73
 10
332.794
 20
848.291
 30
0.000000
  70
    32
  0
VERTEX
  8
0
  5
BC74
 10
332.608
 20
848.358
 30
0.000000
  70
    32
  0
VERTEX
  8
0
  5
BC75
 10
332.421
 20
848.424
 30
0.000000
  70
    32
  0
VERTEX
  8
0
  5
BC76
 10
332.232
 20
848.488
 30
0.000000
  70
    32
  0
VERTEX
  8
0
  5
BC77
 10
332.042
 20
848.552
 30
0.000000
  70
    32
  0
VERTEX
  8
0
  5
BC78
 10
331.851
 20
848.614
 30
0.000000
  70
    32
  0
VERTEX
  8
0
  5
BC79
 10
331.658
 20
848.675
 30
0.000000
  70
    32
  0
VERTEX
  8
0
  5
BC7A
 10
331.463
 20
848.734
 30
0.000000
  70
    32
  0
VERTEX
  8
0
  5
BC7B
 10
331.267
 20
848.792
 30
0.000000
  70
    32
  0
VERTEX
  8
0
  5
BC7C
 10
331.070
 20
848.850
 30
0.000000
  70
    32
  0
VERTEX
  8
0
  5
BC7D
 10
330.871
 20
848.905
 30
0.000000
  70
    32
  0
VERTEX
  8
0
  5
BC7E
 10
330.671
 20
848.960
 30
0.000000
  70
    32
  0
VERTEX
  8
0
  5
BC7F
 10
330.470
 20
849.013
 30
0.000000
  70
    32
  0
VERTEX
  8
0
  5
BC80
 10
330.268
 20
849.065
 30
0.000000
  70
    32
  0
VERTEX
  8
0
  5
BC81
 10
330.064
 20
849.116
 30
0.000000
  70
    32
  0
VERTEX
  8
0
  5
BC82
 10
329.859
 20
849.165
 30
0.000000
  70
    32
  0
VERTEX
  8
0
  5
BC83
 10
329.653
 20
849.214
 30
0.000000
  70
    32
  0
VERTEX
  8
0
  5
BC84
 10
329.446
 20
849.260
 30
0.000000
  70
    32
  0
VERTEX
  8
0
  5
BC85
 10
329.238
 20
849.306
 30
0.000000
  70
    32
  0
VERTEX
  8
0
  5
BC86
 10
329.029
 20
849.350
 30
0.000000
  70
    32
  0
VERTEX
  8
0
  5
BC87
 10
328.818
 20
849.393
 30
0.000000
  70
    32
  0
VERTEX
  8
0
  5
BC88
 10
328.607
 20
849.434
 30
0.000000
  70
    32
  0
VERTEX
  8
0
  5
BC89
 10
328.395
 20
849.474
 30
0.000000
  70
    32
  0
VERTEX
  8
0
  5
BC8A
 10
328.181
 20
849.513
 30
0.000000
  70
    32
  0
VERTEX
  8
0
  5
BC8B
 10
327.967
 20
849.551
 30
0.000000
  70
    32
  0
VERTEX
  8
0
  5
BC8C
 10
327.752
 20
849.587
 30
0.000000
  70
    32
  0
VERTEX
  8
0
  5
BC8D
 10
327.537
 20
849.621
 30
0.000000
  70
    32
  0
VERTEX
  8
0
  5
BC8E
 10
327.320
 20
849.655
 30
0.000000
  70
    32
  0
VERTEX
  8
0
  5
BC8F
 10
327.103
 20
849.687
 30
0.000000
  70
    32
  0
VERTEX
  8
0
  5
BC90
 10
326.884
 20
849.717
 30
0.000000
  70
    32
  0
VERTEX
  8
0
  5
BC91
 10
326.666
 20
849.746
 30
0.000000
  70
    32
  0
VERTEX
  8
0
  5
BC92
 10
326.446
 20
849.774
 30
0.000000
  70
    32
  0
VERTEX
  8
0
  5
BC93
 10
326.226
 20
849.801
 30
0.000000
  70
    32
  0
VERTEX
  8
0
  5
BC94
 10
326.005
 20
849.825
 30
0.000000
  70
    32
  0
VERTEX
  8
0
  5
BC95
 10
325.784
 20
849.849
 30
0.000000
  70
    32
  0
VERTEX
  8
0
  5
BC96
 10
325.562
 20
849.871
 30
0.000000
  70
    32
  0
VERTEX
  8
0
  5
BC97
 10
325.340
 20
849.892
 30
0.000000
  70
    32
  0
VERTEX
  8
0
  5
BC98
 10
325.117
 20
849.911
 30
0.000000
  70
    32
  0
VERTEX
  8
0
  5
BC99
 10
324.893
 20
849.929
 30
0.000000
  70
    32
  0
VERTEX
  8
0
  5
BC9A
 10
324.670
 20
849.946
 30
0.000000
  70
    32
  0
VERTEX
  8
0
  5
BC9B
 10
324.446
 20
849.961
 30
0.000000
  70
    32
  0
VERTEX
  8
0
  5
BC9C
 10
324.221
 20
849.974
 30
0.000000
  70
    32
  0
VERTEX
  8
0
  5
BC9D
 10
323.996
 20
849.986
 30
0.000000
  70
    32
  0
VERTEX
  8
0
  5
BC9E
 10
323.771
 20
849.997
 30
0.000000
  70
    32
  0
VERTEX
  8
0
  5
BC9F
 10
323.546
 20
850.007
 30
0.000000
  70
    32
  0
VERTEX
  8
0
  5
BCA0
 10
323.321
 20
850.014
 30
0.000000
  70
    32
  0
VERTEX
  8
0
  5
BCA1
 10
323.095
 20
850.021
 30
0.000000
  70
    32
  0
VERTEX
  8
0
  5
BCA2
 10
322.869
 20
850.026
 30
0.000000
  70
    32
  0
VERTEX
  8
0
  5
BCA3
 10
322.644
 20
850.030
 30
0.000000
  70
    32
  0
VERTEX
  8
0
  5
BCA4
 10
322.418
 20
850.032
 30
0.000000
  70
    32
  0
VERTEX
  8
0
  5
BCA5
 10
322.192
 20
850.032
 30
0.000000
  70
    32
  0
SEQEND
  8
0
  5
BCA6
  0
LINE
  5
B4A9
  8
0
 62
     0
 10
330.69174167908562
 20
853.99543851899261
 30
0.0
 11
330.69174167908562
 21
855.49543851899261
 31
0.0
  0
LINE
  5
B4AA
  8
0
 62
     0
 10
330.69174167908562
 20
853.99543851899261
 30
0.0
 11
238.6917416790856
 21
853.99543851899261
 31
0.0
  0
LINE
  5
B4AB
  8
0
 62
     0
 10
323.19174167908562
 20
789.62645051899256
 30
0.0
 11
246.1917416790856
 21
789.62645051899256
 31
0.0
  0
ARC
  5
B4AC
  8
0
 62
     0
 10
223.9417416790856
 20
820.41278351899268
 30
0.0
 40
4.25
 50
119.5585950000096
 51
174.36640800000299
  0
LINE
  5
B4AD
  8
0
 62
     0
 10
221.84515967908541
 20
824.10965351899245
 30
0.0
 11
223.81490167908569
 21
825.22674051899219
 31
0.0
  0
ARC
  5
B4AE
  8
0
 62
     0
 10
223.9417416790856
 20
824.88278551899259
 30
0.0
 40
4.25
 50
119.5585950000096
 51
180.0
  0
ARC
  5
B4AF
  8
0
 62
     0
 10
227.6917416790856
 20
821.40271851899274
 30
0.0
 40
8.0
 50
180.0
 51
242.02293999998389
  0
POLYLINE
  5
B4B0
  8
0
 62
     0
 10
247.19174167908551
 20
853.8364300422121
 30
0.0
 66
     1
 70
     8
  0
VERTEX
  8
0
  5
BCA7
 10
247.192
 20
853.836
 30
0.000000
  70
    32
  0
VERTEX
  8
0
  5
BCA8
 10
246.966
 20
853.836
 30
0.000000
  70
    32
  0
VERTEX
  8
0
  5
BCA9
 10
246.740
 20
853.833
 30
0.000000
  70
    32
  0
VERTEX
  8
0
  5
BCAA
 10
246.514
 20
853.829
 30
0.000000
  70
    32
  0
VERTEX
  8
0
  5
BCAB
 10
246.289
 20
853.823
 30
0.000000
  70
    32
  0
VERTEX
  8
0
  5
BCAC
 10
246.063
 20
853.816
 30
0.000000
  70
    32
  0
VERTEX
  8
0
  5
BCAD
 10
245.838
 20
853.807
 30
0.000000
  70
    32
  0
VERTEX
  8
0
  5
BCAE
 10
245.612
 20
853.797
 30
0.000000
  70
    32
  0
VERTEX
  8
0
  5
BCAF
 10
245.387
 20
853.784
 30
0.000000
  70
    32
  0
VERTEX
  8
0
  5
BCB0
 10
245.163
 20
853.771
 30
0.000000
  70
    32
  0
VERTEX
  8
0
  5
BCB1
 10
244.938
 20
853.755
 30
0.000000
  70
    32
  0
VERTEX
  8
0
  5
BCB2
 10
244.714
 20
853.738
 30
0.000000
  70
    32
  0
VERTEX
  8
0
  5
BCB3
 10
244.491
 20
853.719
 30
0.000000
  70
    32
  0
VERTEX
  8
0
  5
BCB4
 10
244.267
 20
853.699
 30
0.000000
  70
    32
  0
VERTEX
  8
0
  5
BCB5
 10
244.045
 20
853.677
 30
0.000000
  70
    32
  0
VERTEX
  8
0
  5
BCB6
 10
243.822
 20
853.654
 30
0.000000
  70
    32
  0
VERTEX
  8
0
  5
BCB7
 10
243.601
 20
853.629
 30
0.000000
  70
    32
  0
VERTEX
  8
0
  5
BCB8
 10
243.379
 20
853.602
 30
0.000000
  70
    32
  0
VERTEX
  8
0
  5
BCB9
 10
243.159
 20
853.574
 30
0.000000
  70
    32
  0
VERTEX
  8
0
  5
BCBA
 10
242.938
 20
853.544
 30
0.000000
  70
    32
  0
VERTEX
  8
0
  5
BCBB
 10
242.719
 20
853.513
 30
0.000000
  70
    32
  0
VERTEX
  8
0
  5
BCBC
 10
242.500
 20
853.480
 30
0.000000
  70
    32
  0
VERTEX
  8
0
  5
BCBD
 10
242.282
 20
853.445
 30
0.000000
  70
    32
  0
VERTEX
  8
0
  5
BCBE
 10
242.065
 20
853.409
 30
0.000000
  70
    32
  0
VERTEX
  8
0
  5
BCBF
 10
241.848
 20
853.371
 30
0.000000
  70
    32
  0
VERTEX
  8
0
  5
BCC0
 10
241.632
 20
853.332
 30
0.000000
  70
    32
  0
VERTEX
  8
0
  5
BCC1
 10
241.417
 20
853.291
 30
0.000000
  70
    32
  0
VERTEX
  8
0
  5
BCC2
 10
241.203
 20
853.249
 30
0.000000
  70
    32
  0
VERTEX
  8
0
  5
BCC3
 10
240.990
 20
853.205
 30
0.000000
  70
    32
  0
VERTEX
  8
0
  5
BCC4
 10
240.778
 20
853.159
 30
0.000000
  70
    32
  0
VERTEX
  8
0
  5
BCC5
 10
240.567
 20
853.112
 30
0.000000
  70
    32
  0
VERTEX
  8
0
  5
BCC6
 10
240.357
 20
853.064
 30
0.000000
  70
    32
  0
VERTEX
  8
0
  5
BCC7
 10
240.147
 20
853.014
 30
0.000000
  70
    32
  0
VERTEX
  8
0
  5
BCC8
 10
239.939
 20
852.963
 30
0.000000
  70
    32
  0
VERTEX
  8
0
  5
BCC9
 10
239.732
 20
852.910
 30
0.000000
  70
    32
  0
VERTEX
  8
0
  5
BCCA
 10
239.526
 20
852.855
 30
0.000000
  70
    32
  0
VERTEX
  8
0
  5
BCCB
 10
239.321
 20
852.799
 30
0.000000
  70
    32
  0
VERTEX
  8
0
  5
BCCC
 10
239.118
 20
852.742
 30
0.000000
  70
    32
  0
VERTEX
  8
0
  5
BCCD
 10
238.915
 20
852.683
 30
0.000000
  70
    32
  0
VERTEX
  8
0
  5
BCCE
 10
238.714
 20
852.622
 30
0.000000
  70
    32
  0
VERTEX
  8
0
  5
BCCF
 10
238.514
 20
852.561
 30
0.000000
  70
    32
  0
VERTEX
  8
0
  5
BCD0
 10
238.316
 20
852.497
 30
0.000000
  70
    32
  0
VERTEX
  8
0
  5
BCD1
 10
238.118
 20
852.433
 30
0.000000
  70
    32
  0
VERTEX
  8
0
  5
BCD2
 10
237.923
 20
852.367
 30
0.000000
  70
    32
  0
VERTEX
  8
0
  5
BCD3
 10
237.728
 20
852.299
 30
0.000000
  70
    32
  0
VERTEX
  8
0
  5
BCD4
 10
237.535
 20
852.230
 30
0.000000
  70
    32
  0
VERTEX
  8
0
  5
BCD5
 10
237.344
 20
852.160
 30
0.000000
  70
    32
  0
VERTEX
  8
0
  5
BCD6
 10
237.153
 20
852.089
 30
0.000000
  70
    32
  0
VERTEX
  8
0
  5
BCD7
 10
236.965
 20
852.016
 30
0.000000
  70
    32
  0
VERTEX
  8
0
  5
BCD8
 10
236.778
 20
851.941
 30
0.000000
  70
    32
  0
VERTEX
  8
0
  5
BCD9
 10
236.592
 20
851.866
 30
0.000000
  70
    32
  0
VERTEX
  8
0
  5
BCDA
 10
236.408
 20
851.789
 30
0.000000
  70
    32
  0
VERTEX
  8
0
  5
BCDB
 10
236.226
 20
851.710
 30
0.000000
  70
    32
  0
VERTEX
  8
0
  5
BCDC
 10
236.046
 20
851.631
 30
0.000000
  70
    32
  0
VERTEX
  8
0
  5
BCDD
 10
235.867
 20
851.550
 30
0.000000
  70
    32
  0
VERTEX
  8
0
  5
BCDE
 10
235.689
 20
851.468
 30
0.000000
  70
    32
  0
VERTEX
  8
0
  5
BCDF
 10
235.514
 20
851.384
 30
0.000000
  70
    32
  0
VERTEX
  8
0
  5
BCE0
 10
235.340
 20
851.299
 30
0.000000
  70
    32
  0
VERTEX
  8
0
  5
BCE1
 10
235.168
 20
851.213
 30
0.000000
  70
    32
  0
VERTEX
  8
0
  5
BCE2
 10
234.998
 20
851.126
 30
0.000000
  70
    32
  0
VERTEX
  8
0
  5
BCE3
 10
234.830
 20
851.038
 30
0.000000
  70
    32
  0
VERTEX
  8
0
  5
BCE4
 10
234.663
 20
850.948
 30
0.000000
  70
    32
  0
VERTEX
  8
0
  5
BCE5
 10
234.499
 20
850.857
 30
0.000000
  70
    32
  0
VERTEX
  8
0
  5
BCE6
 10
234.336
 20
850.765
 30
0.000000
  70
    32
  0
VERTEX
  8
0
  5
BCE7
 10
234.175
 20
850.672
 30
0.000000
  70
    32
  0
VERTEX
  8
0
  5
BCE8
 10
234.017
 20
850.578
 30
0.000000
  70
    32
  0
VERTEX
  8
0
  5
BCE9
 10
233.860
 20
850.482
 30
0.000000
  70
    32
  0
VERTEX
  8
0
  5
BCEA
 10
233.705
 20
850.386
 30
0.000000
  70
    32
  0
VERTEX
  8
0
  5
BCEB
 10
233.552
 20
850.288
 30
0.000000
  70
    32
  0
VERTEX
  8
0
  5
BCEC
 10
233.402
 20
850.189
 30
0.000000
  70
    32
  0
VERTEX
  8
0
  5
BCED
 10
233.253
 20
850.089
 30
0.000000
  70
    32
  0
VERTEX
  8
0
  5
BCEE
 10
233.107
 20
849.988
 30
0.000000
  70
    32
  0
VERTEX
  8
0
  5
BCEF
 10
232.962
 20
849.886
 30
0.000000
  70
    32
  0
VERTEX
  8
0
  5
BCF0
 10
232.820
 20
849.783
 30
0.000000
  70
    32
  0
VERTEX
  8
0
  5
BCF1
 10
232.680
 20
849.679
 30
0.000000
  70
    32
  0
VERTEX
  8
0
  5
BCF2
 10
232.542
 20
849.574
 30
0.000000
  70
    32
  0
VERTEX
  8
0
  5
BCF3
 10
232.406
 20
849.468
 30
0.000000
  70
    32
  0
VERTEX
  8
0
  5
BCF4
 10
232.273
 20
849.361
 30
0.000000
  70
    32
  0
VERTEX
  8
0
  5
BCF5
 10
232.142
 20
849.253
 30
0.000000
  70
    32
  0
VERTEX
  8
0
  5
BCF6
 10
232.013
 20
849.145
 30
0.000000
  70
    32
  0
VERTEX
  8
0
  5
BCF7
 10
231.886
 20
849.035
 30
0.000000
  70
    32
  0
VERTEX
  8
0
  5
BCF8
 10
231.762
 20
848.924
 30
0.000000
  70
    32
  0
VERTEX
  8
0
  5
BCF9
 10
231.640
 20
848.813
 30
0.000000
  70
    32
  0
VERTEX
  8
0
  5
BCFA
 10
231.520
 20
848.700
 30
0.000000
  70
    32
  0
VERTEX
  8
0
  5
BCFB
 10
231.403
 20
848.587
 30
0.000000
  70
    32
  0
VERTEX
  8
0
  5
BCFC
 10
231.288
 20
848.473
 30
0.000000
  70
    32
  0
VERTEX
  8
0
  5
BCFD
 10
231.175
 20
848.358
 30
0.000000
  70
    32
  0
VERTEX
  8
0
  5
BCFE
 10
231.065
 20
848.242
 30
0.000000
  70
    32
  0
VERTEX
  8
0
  5
BCFF
 10
230.957
 20
848.125
 30
0.000000
  70
    32
  0
VERTEX
  8
0
  5
BD00
 10
230.852
 20
848.008
 30
0.000000
  70
    32
  0
VERTEX
  8
0
  5
BD01
 10
230.749
 20
847.890
 30
0.000000
  70
    32
  0
VERTEX
  8
0
  5
BD02
 10
230.649
 20
847.771
 30
0.000000
  70
    32
  0
VERTEX
  8
0
  5
BD03
 10
230.551
 20
847.652
 30
0.000000
  70
    32
  0
VERTEX
  8
0
  5
BD04
 10
230.456
 20
847.532
 30
0.000000
  70
    32
  0
VERTEX
  8
0
  5
BD05
 10
230.363
 20
847.411
 30
0.000000
  70
    32
  0
VERTEX
  8
0
  5
BD06
 10
230.273
 20
847.289
 30
0.000000
  70
    32
  0
VERTEX
  8
0
  5
BD07
 10
230.185
 20
847.167
 30
0.000000
  70
    32
  0
VERTEX
  8
0
  5
BD08
 10
230.100
 20
847.044
 30
0.000000
  70
    32
  0
VERTEX
  8
0
  5
BD09
 10
230.017
 20
846.921
 30
0.000000
  70
    32
  0
VERTEX
  8
0
  5
BD0A
 10
229.937
 20
846.797
 30
0.000000
  70
    32
  0
VERTEX
  8
0
  5
BD0B
 10
229.860
 20
846.672
 30
0.000000
  70
    32
  0
VERTEX
  8
0
  5
BD0C
 10
229.785
 20
846.547
 30
0.000000
  70
    32
  0
VERTEX
  8
0
  5
BD0D
 10
229.713
 20
846.421
 30
0.000000
  70
    32
  0
VERTEX
  8
0
  5
BD0E
 10
229.643
 20
846.295
 30
0.000000
  70
    32
  0
VERTEX
  8
0
  5
BD0F
 10
229.576
 20
846.169
 30
0.000000
  70
    32
  0
VERTEX
  8
0
  5
BD10
 10
229.512
 20
846.042
 30
0.000000
  70
    32
  0
VERTEX
  8
0
  5
BD11
 10
229.451
 20
845.914
 30
0.000000
  70
    32
  0
VERTEX
  8
0
  5
BD12
 10
229.392
 20
845.786
 30
0.000000
  70
    32
  0
VERTEX
  8
0
  5
BD13
 10
229.335
 20
845.658
 30
0.000000
  70
    32
  0
VERTEX
  8
0
  5
BD14
 10
229.282
 20
845.529
 30
0.000000
  70
    32
  0
VERTEX
  8
0
  5
BD15
 10
229.231
 20
845.400
 30
0.000000
  70
    32
  0
VERTEX
  8
0
  5
BD16
 10
229.183
 20
845.270
 30
0.000000
  70
    32
  0
VERTEX
  8
0
  5
BD17
 10
229.137
 20
845.140
 30
0.000000
  70
    32
  0
VERTEX
  8
0
  5
BD18
 10
229.095
 20
845.010
 30
0.000000
  70
    32
  0
VERTEX
  8
0
  5
BD19
 10
229.055
 20
844.880
 30
0.000000
  70
    32
  0
VERTEX
  8
0
  5
BD1A
 10
229.018
 20
844.749
 30
0.000000
  70
    32
  0
VERTEX
  8
0
  5
BD1B
 10
228.983
 20
844.618
 30
0.000000
  70
    32
  0
VERTEX
  8
0
  5
BD1C
 10
228.951
 20
844.486
 30
0.000000
  70
    32
  0
VERTEX
  8
0
  5
BD1D
 10
228.922
 20
844.355
 30
0.000000
  70
    32
  0
VERTEX
  8
0
  5
BD1E
 10
228.896
 20
844.223
 30
0.000000
  70
    32
  0
VERTEX
  8
0
  5
BD1F
 10
228.872
 20
844.091
 30
0.000000
  70
    32
  0
VERTEX
  8
0
  5
BD20
 10
228.852
 20
843.959
 30
0.000000
  70
    32
  0
VERTEX
  8
0
  5
BD21
 10
228.834
 20
843.827
 30
0.000000
  70
    32
  0
VERTEX
  8
0
  5
BD22
 10
228.818
 20
843.695
 30
0.000000
  70
    32
  0
VERTEX
  8
0
  5
BD23
 10
228.806
 20
843.563
 30
0.000000
  70
    32
  0
VERTEX
  8
0
  5
BD24
 10
228.796
 20
843.430
 30
0.000000
  70
    32
  0
VERTEX
  8
0
  5
BD25
 10
228.789
 20
843.298
 30
0.000000
  70
    32
  0
VERTEX
  8
0
  5
BD26
 10
228.785
 20
843.165
 30
0.000000
  70
    32
  0
VERTEX
  8
0
  5
BD27
 10
228.784
 20
843.032
 30
0.000000
  70
    32
  0
SEQEND
  8
0
  5
BD28
  0
POLYLINE
  5
B4B1
  8
0
 62
     0
 10
247.19174167908551
 20
850.0324115619519
 30
0.0
 66
     1
 70
     8
  0
VERTEX
  8
0
  5
BD29
 10
247.192
 20
850.032
 30
0.000000
  70
    32
  0
VERTEX
  8
0
  5
BD2A
 10
246.966
 20
850.032
 30
0.000000
  70
    32
  0
VERTEX
  8
0
  5
BD2B
 10
246.740
 20
850.030
 30
0.000000
  70
    32
  0
VERTEX
  8
0
  5
BD2C
 10
246.514
 20
850.026
 30
0.000000
  70
    32
  0
VERTEX
  8
0
  5
BD2D
 10
246.288
 20
850.021
 30
0.000000
  70
    32
  0
VERTEX
  8
0
  5
BD2E
 10
246.063
 20
850.014
 30
0.000000
  70
    32
  0
VERTEX
  8
0
  5
BD2F
 10
245.837
 20
850.007
 30
0.000000
  70
    32
  0
VERTEX
  8
0
  5
BD30
 10
245.612
 20
849.997
 30
0.000000
  70
    32
  0
VERTEX
  8
0
  5
BD31
 10
245.387
 20
849.986
 30
0.000000
  70
    32
  0
VERTEX
  8
0
  5
BD32
 10
245.162
 20
849.974
 30
0.000000
  70
    32
  0
VERTEX
  8
0
  5
BD33
 10
244.938
 20
849.961
 30
0.000000
  70
    32
  0
VERTEX
  8
0
  5
BD34
 10
244.714
 20
849.946
 30
0.000000
  70
    32
  0
VERTEX
  8
0
  5
BD35
 10
244.490
 20
849.929
 30
0.000000
  70
    32
  0
VERTEX
  8
0
  5
BD36
 10
244.267
 20
849.911
 30
0.000000
  70
    32
  0
VERTEX
  8
0
  5
BD37
 10
244.044
 20
849.892
 30
0.000000
  70
    32
  0
VERTEX
  8
0
  5
BD38
 10
243.822
 20
849.871
 30
0.000000
  70
    32
  0
VERTEX
  8
0
  5
BD39
 10
243.600
 20
849.849
 30
0.000000
  70
    32
  0
VERTEX
  8
0
  5
BD3A
 10
243.378
 20
849.825
 30
0.000000
  70
    32
  0
VERTEX
  8
0
  5
BD3B
 10
243.158
 20
849.801
 30
0.000000
  70
    32
  0
VERTEX
  8
0
  5
BD3C
 10
242.937
 20
849.774
 30
0.000000
  70
    32
  0
VERTEX
  8
0
  5
BD3D
 10
242.718
 20
849.746
 30
0.000000
  70
    32
  0
VERTEX
  8
0
  5
BD3E
 10
242.499
 20
849.717
 30
0.000000
  70
    32
  0
VERTEX
  8
0
  5
BD3F
 10
242.281
 20
849.687
 30
0.000000
  70
    32
  0
VERTEX
  8
0
  5
BD40
 10
242.064
 20
849.655
 30
0.000000
  70
    32
  0
VERTEX
  8
0
  5
BD41
 10
241.847
 20
849.621
 30
0.000000
  70
    32
  0
VERTEX
  8
0
  5
BD42
 10
241.631
 20
849.587
 30
0.000000
  70
    32
  0
VERTEX
  8
0
  5
BD43
 10
241.416
 20
849.551
 30
0.000000
  70
    32
  0
VERTEX
  8
0
  5
BD44
 10
241.202
 20
849.513
 30
0.000000
  70
    32
  0
VERTEX
  8
0
  5
BD45
 10
240.989
 20
849.474
 30
0.000000
  70
    32
  0
VERTEX
  8
0
  5
BD46
 10
240.777
 20
849.434
 30
0.000000
  70
    32
  0
VERTEX
  8
0
  5
BD47
 10
240.565
 20
849.393
 30
0.000000
  70
    32
  0
VERTEX
  8
0
  5
BD48
 10
240.355
 20
849.350
 30
0.000000
  70
    32
  0
VERTEX
  8
0
  5
BD49
 10
240.146
 20
849.306
 30
0.000000
  70
    32
  0
VERTEX
  8
0
  5
BD4A
 10
239.937
 20
849.260
 30
0.000000
  70
    32
  0
VERTEX
  8
0
  5
BD4B
 10
239.730
 20
849.214
 30
0.000000
  70
    32
  0
VERTEX
  8
0
  5
BD4C
 10
239.524
 20
849.165
 30
0.000000
  70
    32
  0
VERTEX
  8
0
  5
BD4D
 10
239.319
 20
849.116
 30
0.000000
  70
    32
  0
VERTEX
  8
0
  5
BD4E
 10
239.116
 20
849.065
 30
0.000000
  70
    32
  0
VERTEX
  8
0
  5
BD4F
 10
238.913
 20
849.013
 30
0.000000
  70
    32
  0
VERTEX
  8
0
  5
BD50
 10
238.712
 20
848.960
 30
0.000000
  70
    32
  0
VERTEX
  8
0
  5
BD51
 10
238.512
 20
848.905
 30
0.000000
  70
    32
  0
VERTEX
  8
0
  5
BD52
 10
238.314
 20
848.850
 30
0.000000
  70
    32
  0
VERTEX
  8
0
  5
BD53
 10
238.116
 20
848.792
 30
0.000000
  70
    32
  0
VERTEX
  8
0
  5
BD54
 10
237.920
 20
848.734
 30
0.000000
  70
    32
  0
VERTEX
  8
0
  5
BD55
 10
237.726
 20
848.675
 30
0.000000
  70
    32
  0
VERTEX
  8
0
  5
BD56
 10
237.533
 20
848.614
 30
0.000000
  70
    32
  0
VERTEX
  8
0
  5
BD57
 10
237.341
 20
848.552
 30
0.000000
  70
    32
  0
VERTEX
  8
0
  5
BD58
 10
237.151
 20
848.488
 30
0.000000
  70
    32
  0
VERTEX
  8
0
  5
BD59
 10
236.962
 20
848.424
 30
0.000000
  70
    32
  0
VERTEX
  8
0
  5
BD5A
 10
236.775
 20
848.358
 30
0.000000
  70
    32
  0
VERTEX
  8
0
  5
BD5B
 10
236.590
 20
848.291
 30
0.000000
  70
    32
  0
VERTEX
  8
0
  5
BD5C
 10
236.406
 20
848.223
 30
0.000000
  70
    32
  0
VERTEX
  8
0
  5
BD5D
 10
236.224
 20
848.154
 30
0.000000
  70
    32
  0
VERTEX
  8
0
  5
BD5E
 10
236.043
 20
848.084
 30
0.000000
  70
    32
  0
VERTEX
  8
0
  5
BD5F
 10
235.864
 20
848.012
 30
0.000000
  70
    32
  0
VERTEX
  8
0
  5
BD60
 10
235.687
 20
847.940
 30
0.000000
  70
    32
  0
VERTEX
  8
0
  5
BD61
 10
235.511
 20
847.866
 30
0.000000
  70
    32
  0
VERTEX
  8
0
  5
BD62
 10
235.337
 20
847.791
 30
0.000000
  70
    32
  0
VERTEX
  8
0
  5
BD63
 10
235.165
 20
847.715
 30
0.000000
  70
    32
  0
VERTEX
  8
0
  5
BD64
 10
234.995
 20
847.638
 30
0.000000
  70
    32
  0
VERTEX
  8
0
  5
BD65
 10
234.827
 20
847.560
 30
0.000000
  70
    32
  0
VERTEX
  8
0
  5
BD66
 10
234.660
 20
847.481
 30
0.000000
  70
    32
  0
VERTEX
  8
0
  5
BD67
 10
234.496
 20
847.400
 30
0.000000
  70
    32
  0
VERTEX
  8
0
  5
BD68
 10
234.333
 20
847.319
 30
0.000000
  70
    32
  0
VERTEX
  8
0
  5
BD69
 10
234.172
 20
847.237
 30
0.000000
  70
    32
  0
VERTEX
  8
0
  5
BD6A
 10
234.013
 20
847.154
 30
0.000000
  70
    32
  0
VERTEX
  8
0
  5
BD6B
 10
233.857
 20
847.069
 30
0.000000
  70
    32
  0
VERTEX
  8
0
  5
BD6C
 10
233.702
 20
846.984
 30
0.000000
  70
    32
  0
VERTEX
  8
0
  5
BD6D
 10
233.549
 20
846.898
 30
0.000000
  70
    32
  0
VERTEX
  8
0
  5
BD6E
 10
233.398
 20
846.810
 30
0.000000
  70
    32
  0
VERTEX
  8
0
  5
BD6F
 10
233.250
 20
846.722
 30
0.000000
  70
    32
  0
VERTEX
  8
0
  5
BD70
 10
233.103
 20
846.633
 30
0.000000
  70
    32
  0
VERTEX
  8
0
  5
BD71
 10
232.959
 20
846.543
 30
0.000000
  70
    32
  0
VERTEX
  8
0
  5
BD72
 10
232.817
 20
846.452
 30
0.000000
  70
    32
  0
VERTEX
  8
0
  5
BD73
 10
232.676
 20
846.360
 30
0.000000
  70
    32
  0
VERTEX
  8
0
  5
BD74
 10
232.538
 20
846.267
 30
0.000000
  70
    32
  0
VERTEX
  8
0
  5
BD75
 10
232.403
 20
846.174
 30
0.000000
  70
    32
  0
VERTEX
  8
0
  5
BD76
 10
232.269
 20
846.079
 30
0.000000
  70
    32
  0
VERTEX
  8
0
  5
BD77
 10
232.138
 20
845.984
 30
0.000000
  70
    32
  0
VERTEX
  8
0
  5
BD78
 10
232.009
 20
845.888
 30
0.000000
  70
    32
  0
VERTEX
  8
0
  5
BD79
 10
231.882
 20
845.791
 30
0.000000
  70
    32
  0
VERTEX
  8
0
  5
BD7A
 10
231.758
 20
845.693
 30
0.000000
  70
    32
  0
VERTEX
  8
0
  5
BD7B
 10
231.636
 20
845.594
 30
0.000000
  70
    32
  0
VERTEX
  8
0
  5
BD7C
 10
231.516
 20
845.495
 30
0.000000
  70
    32
  0
VERTEX
  8
0
  5
BD7D
 10
231.399
 20
845.395
 30
0.000000
  70
    32
  0
VERTEX
  8
0
  5
BD7E
 10
231.284
 20
845.294
 30
0.000000
  70
    32
  0
VERTEX
  8
0
  5
BD7F
 10
231.171
 20
845.192
 30
0.000000
  70
    32
  0
VERTEX
  8
0
  5
BD80
 10
231.061
 20
845.090
 30
0.000000
  70
    32
  0
VERTEX
  8
0
  5
BD81
 10
230.953
 20
844.987
 30
0.000000
  70
    32
  0
VERTEX
  8
0
  5
BD82
 10
230.848
 20
844.884
 30
0.000000
  70
    32
  0
VERTEX
  8
0
  5
BD83
 10
230.745
 20
844.779
 30
0.000000
  70
    32
  0
VERTEX
  8
0
  5
BD84
 10
230.645
 20
844.674
 30
0.000000
  70
    32
  0
VERTEX
  8
0
  5
BD85
 10
230.547
 20
844.569
 30
0.000000
  70
    32
  0
VERTEX
  8
0
  5
BD86
 10
230.452
 20
844.463
 30
0.000000
  70
    32
  0
VERTEX
  8
0
  5
BD87
 10
230.359
 20
844.356
 30
0.000000
  70
    32
  0
VERTEX
  8
0
  5
BD88
 10
230.269
 20
844.248
 30
0.000000
  70
    32
  0
VERTEX
  8
0
  5
BD89
 10
230.181
 20
844.140
 30
0.000000
  70
    32
  0
VERTEX
  8
0
  5
BD8A
 10
230.096
 20
844.032
 30
0.000000
  70
    32
  0
VERTEX
  8
0
  5
BD8B
 10
230.013
 20
843.923
 30
0.000000
  70
    32
  0
VERTEX
  8
0
  5
BD8C
 10
229.933
 20
843.813
 30
0.000000
  70
    32
  0
VERTEX
  8
0
  5
BD8D
 10
229.856
 20
843.703
 30
0.000000
  70
    32
  0
VERTEX
  8
0
  5
BD8E
 10
229.781
 20
843.593
 30
0.000000
  70
    32
  0
VERTEX
  8
0
  5
BD8F
 10
229.709
 20
843.482
 30
0.000000
  70
    32
  0
VERTEX
  8
0
  5
BD90
 10
229.639
 20
843.370
 30
0.000000
  70
    32
  0
VERTEX
  8
0
  5
BD91
 10
229.572
 20
843.259
 30
0.000000
  70
    32
  0
VERTEX
  8
0
  5
BD92
 10
229.508
 20
843.146
 30
0.000000
  70
    32
  0
VERTEX
  8
0
  5
BD93
 10
229.446
 20
843.034
 30
0.000000
  70
    32
  0
VERTEX
  8
0
  5
BD94
 10
229.387
 20
842.920
 30
0.000000
  70
    32
  0
VERTEX
  8
0
  5
BD95
 10
229.331
 20
842.807
 30
0.000000
  70
    32
  0
VERTEX
  8
0
  5
BD96
 10
229.277
 20
842.693
 30
0.000000
  70
    32
  0
VERTEX
  8
0
  5
BD97
 10
229.227
 20
842.579
 30
0.000000
  70
    32
  0
VERTEX
  8
0
  5
BD98
 10
229.178
 20
842.465
 30
0.000000
  70
    32
  0
VERTEX
  8
0
  5
BD99
 10
229.133
 20
842.350
 30
0.000000
  70
    32
  0
VERTEX
  8
0
  5
BD9A
 10
229.090
 20
842.235
 30
0.000000
  70
    32
  0
VERTEX
  8
0
  5
BD9B
 10
229.050
 20
842.120
 30
0.000000
  70
    32
  0
VERTEX
  8
0
  5
BD9C
 10
229.013
 20
842.004
 30
0.000000
  70
    32
  0
VERTEX
  8
0
  5
BD9D
 10
228.978
 20
841.888
 30
0.000000
  70
    32
  0
VERTEX
  8
0
  5
BD9E
 10
228.947
 20
841.772
 30
0.000000
  70
    32
  0
VERTEX
  8
0
  5
BD9F
 10
228.918
 20
841.656
 30
0.000000
  70
    32
  0
VERTEX
  8
0
  5
BDA0
 10
228.891
 20
841.540
 30
0.000000
  70
    32
  0
VERTEX
  8
0
  5
BDA1
 10
228.868
 20
841.423
 30
0.000000
  70
    32
  0
VERTEX
  8
0
  5
BDA2
 10
228.847
 20
841.307
 30
0.000000
  70
    32
  0
VERTEX
  8
0
  5
BDA3
 10
228.829
 20
841.190
 30
0.000000
  70
    32
  0
VERTEX
  8
0
  5
BDA4
 10
228.814
 20
841.073
 30
0.000000
  70
    32
  0
VERTEX
  8
0
  5
BDA5
 10
228.801
 20
840.956
 30
0.000000
  70
    32
  0
VERTEX
  8
0
  5
BDA6
 10
228.792
 20
840.839
 30
0.000000
  70
    32
  0
VERTEX
  8
0
  5
BDA7
 10
228.785
 20
840.722
 30
0.000000
  70
    32
  0
VERTEX
  8
0
  5
BDA8
 10
228.780
 20
840.605
 30
0.000000
  70
    32
  0
VERTEX
  8
0
  5
BDA9
 10
228.779
 20
840.488
 30
0.000000
  70
    32
  0
SEQEND
  8
0
  5
BDAA
  0
LINE
  5
B4B2
  8
0
 62
     0
 10
322.6687466790853
 20
787.45243451899273
 30
0.0
 11
246.7147366790858
 21
787.45243451899273
 31
0.0
  0
LINE
  5
B4B3
  8
0
 62
     0
 10
322.19174167908551
 20
850.03242051899258
 30
0.0
 11
247.19174167908551
 21
850.03242051899258
 31
0.0
  0
LINE
  5
B4B4
  8
0
 62
     0
 10
322.19174167908551
 20
853.83643751899262
 30
0.0
 11
247.19174167908551
 21
853.83643751899262
 31
0.0
  0
LINE
  5
B4B5
  8
0
 62
     0
 10
284.69174167908551
 20
853.83643751899262
 30
0.0
 11
285.1677396790854
 21
853.83643751899262
 31
0.0
  0
LINE
  5
B4B6
  8
0
 62
     0
 10
238.6917416790856
 20
855.49543851899261
 30
0.0
 11
330.69123767908587
 21
855.49543851899261
 31
0.0
  0
LINE
  5
B4B7
  8
0
 62
     0
 10
236.1917416790856
 20
835.53242051899258
 30
0.0
 11
236.1917416790856
 21
799.62645051899278
 31
0.0
  0
LINE
  5
B4B8
  8
0
 62
     0
 10
238.6917416790856
 20
853.99543851899261
 30
0.0
 11
238.6917416790856
 21
855.49543851899261
 31
0.0
  0
LINE
  5
B4B9
  8
0
 62
     0
 10
228.7837276790859
 20
843.03243251899266
 30
0.0
 11
228.76572267908509
 21
833.24845251899262
 31
0.0
  0
LINE
  5
B4BA
  8
0
 62
     0
 10
228.71671667908581
 20
806.37245151899265
 30
0.0
 11
228.71471767908571
 21
805.45247051899264
 31
0.0
  0
LINE
  5
B4BB
  8
0
  6
AM_ISO08W050
 62
     0
 10
229.6917416790856
 20
814.75742751899259
 30
0.0
 11
229.6917416790856
 21
827.24244251899245
 31
0.0
  0
LINE
  5
B4BC
  8
0
  6
AM_ISO08W050
 62
     0
 10
224.235732679086
 20
820.68043151899269
 30
0.0
 11
234.96873467908509
 21
820.68043151899269
 31
0.0
  0
LINE
  5
B4BD
  8
0
 62
     0
 10
284.69174167908551
 20
853.83643751899262
 30
0.0
 11
284.21473667908577
 21
853.83643751899262
 31
0.0
  0
LINE
  5
B4BE
  8
0
 62
     0
 10
246.1917416790856
 20
822.44642251899256
 30
0.0
 11
323.19174167908562
 21
822.44642251899256
 31
0.0
  0
LINE
  5
B4BF
  8
0
 62
     0
 10
323.19174167908562
 20
845.53242051899258
 30
0.0
 11
246.1917416790856
 21
845.53242051899258
 31
0.0
  0
LINE
  5
B4C0
  8
0
 62
     0
 10
219.6917416790856
 20
821.40271851899274
 30
0.0
 11
219.6917416790856
 21
825.1506145189926
 31
0.0
  0
LINE
  5
B4C1
  8
0
 62
     0
 10
221.84515967908541
 20
828.57965451899258
 30
0.0
 11
223.81490167908569
 21
829.69674151899267
 31
0.0
  0
ARC
  5
B4C2
  8
0
 62
     0
 10
246.1917416790856
 20
799.62645051899278
 30
0.0
 40
10.0
 50
179.99998200000081
 51
269.99996399997548
  0
ARC
  5
B4C3
  8
0
 62
     0
 10
246.7147366790858
 20
805.45243451899273
 30
0.0
 40
18.0
 50
179.99998200000081
 51
270.0
  0
ARC
  5
B4C4
  8
0
 62
     0
 10
246.1917416790856
 20
835.53242051899258
 30
0.0
 40
10.0
 50
90.0
 51
179.99998200000081
  0
ARC
  5
B4C5
  8
0
 62
     0
 10
246.1917416790856
 20
812.44642251899245
 30
0.0
 40
10.0
 50
90.0
 51
179.99998200000081
  0
ARC
  5
B4C6
  8
0
 62
     0
 10
219.76573167908541
 20
833.26441551899245
 30
0.0
 40
9.0
 50
296.73468799997403
 51
359.89604200000252
  0
ARC
  5
B4C7
  8
0
 62
     0
 10
219.7167356790859
 20
806.38941551899256
 30
0.0
 40
9.0
 50
359.89604200000252
 51
62.02293999998389
  0
ARC
  5
B4C8
  8
0
 62
     0
 10
219.76573167908541
 20
837.73441651899259
 30
0.0
 40
9.0
 50
296.737766000009
 51
359.89604200000252
  0
LINE
  5
B4C9
  8
0
 62
     0
 10
417.19172067908562
 20
872.49542551899276
 30
0.0
 11
410.2415076790856
 21
872.44677351899247
 31
0.0
  0
ARC
  5
B4CA
  8
0
 62
     0
 10
403.8520196790858
 20
869.49543851899273
 30
0.0
 40
10.0
 50
269.99999700001541
 51
299.99999800001319
  0
ARC
  5
B4CB
  8
0
 62
     0
 10
416.6917416790854
 20
870.99189851899268
 30
0.0
 40
1.5
 50
90.401064000021833
 51
180.0000050000005
  0
ARC
  5
B4CC
  8
0
 62
     0
 10
413.19174167908528
 20
865.65010151899264
 30
0.0
 40
2.0
 50
299.99999800001319
 51
0.0
  0
LINE
  5
B4CD
  8
0
 62
     0
 10
414.19174267908579
 20
863.91807551899285
 30
0.0
 11
408.85202867908509
 21
860.83518951899259
 31
0.0
  0
LINE
  5
B4CE
  8
0
 62
     0
 10
415.19174167908562
 20
865.65010151899264
 30
0.0
 11
415.19174167908562
 21
870.99189851899268
 31
0.0
  0
LINE
  5
B4CF
  8
0
 62
     0
 10
331.76351867908568
 20
859.4954385189925
 30
0.0
 11
403.8520196790858
 21
859.4954385189925
 31
0.0
  0
LINE
  5
B4D0
  8
0
 62
     0
 10
330.6917756790852
 20
855.49543651899262
 30
0.0
 11
333.46972067908598
 21
865.86286851899263
 31
0.0
  0
ARC
  5
B4D1
  8
0
 62
     0
 10
234.9160456790859
 20
857.99543851899261
 30
0.0
 40
3.0
 50
15.000000000000741
 51
90.000002999984659
  0
ARC
  5
B4D2
  8
0
 62
     0
 10
188.45004267908541
 20
865.99543851899261
 30
0.0
 40
5.0
 50
239.99999700001851
 51
269.99999700001541
  0
LINE
  5
B4D3
  8
0
 62
     0
 10
238.69173067908551
 20
855.49548651899272
 30
0.0
 11
237.81380867908581
 21
858.77193451899257
 31
0.0
  0
LINE
  5
B4D4
  8
0
 62
     0
 10
188.45004267908541
 20
860.99543851899261
 30
0.0
 11
234.9160456790859
 21
860.99543851899261
 31
0.0
  0
LINE
  5
B4D5
  8
0
 62
     0
 10
178.67970867908559
 20
865.86286851899263
 30
0.0
 11
185.95008367908551
 21
861.66531551899266
 31
0.0
  0
LINE
  5
B4D7
  8
0
 62
     0
 10
403.15322867908583
 20
917.90657351899256
 30
0.0
 11
417.19174167908528
 21
917.90657351899256
 31
0.0
  0
LINE
  5
B4D8
  8
0
 62
     0
 10
415.1918026790853
 20
888.29329151899242
 30
0.0
 11
398.99703967908579
 21
885.45491251899261
 31
0.0
  0
LINE
  5
B4D9
  8
0
 62
     0
 10
398.99710067908552
 20
902.0139945189926
 30
0.0
 11
415.1918026790853
 21
905.04524451899215
 31
0.0
  0
LINE
  5
B4DA
  8
0
 62
     0
 10
415.1918026790853
 20
921.79402451899273
 30
0.0
 11
398.99703967908579
 21
916.56453251899268
 31
0.0
  0
LINE
  5
B4DB
  8
0
 62
     0
 10
415.1918026790853
 20
937.72908251899275
 30
0.0
 11
398.99703967908579
 21
934.72310151899285
 31
0.0
  0
LINE
  5
B4DC
  8
0
 62
     0
 10
415.1918026790853
 20
953.10237351899264
 30
0.0
 11
398.99703967908579
 21
951.37251551899271
 31
0.0
  0
LINE
  5
B4DD
  8
0
 62
     0
 10
415.1918026790853
 20
970.31624151899268
 30
0.0
 11
398.99703967908579
 21
969.08503951899274
 31
0.0
  0
LINE
  5
B4DE
  8
0
 62
     0
 10
403.15322867908583
 20
1057.084307518993
 30
0.0
 11
417.19174167908528
 21
1057.084307518993
 31
0.0
  0
LINE
  5
B4DF
  8
0
 62
     0
 10
415.1918026790853
 20
1004.674639518992
 30
0.0
 11
398.99703967908579
 21
1005.905840518992
 31
0.0
  0
LINE
  5
B4E0
  8
0
 62
     0
 10
415.1918026790853
 20
1021.888506518992
 30
0.0
 11
398.99703967908579
 21
1023.6183655189921
 31
0.0
  0
LINE
  5
B4E1
  8
0
 62
     0
 10
415.1918026790853
 20
1037.2617975189919
 30
0.0
 11
398.99703967908579
 21
1040.267779518992
 31
0.0
  0
LINE
  5
B4E2
  8
0
 62
     0
 10
415.1918026790853
 20
1053.1968565189929
 30
0.0
 11
398.99703967908579
 21
1058.4263485189931
 31
0.0
  0
LINE
  5
B4E3
  8
0
 62
     0
 10
398.99710067908552
 20
1072.976885518992
 30
0.0
 11
415.1918026790853
 21
1069.945635518992
 31
0.0
  0
LINE
  5
B4E4
  8
0
 62
     0
 10
415.1918026790853
 20
1086.697588518992
 30
0.0
 11
398.99703967908579
 21
1089.5359675189929
 31
0.0
  0
LINE
  5
B4E5
  8
0
 62
     0
 10
415.1918026790853
 20
1091.5335265189919
 30
0.0
 11
398.99703967908579
 21
1100.3855765189919
 31
0.0
  0
LINE
  5
B4E6
  8
0
 62
     0
 10
415.1918026790853
 20
1099.645586518993
 30
0.0
 11
398.99703967908579
 21
1109.1280085189919
 31
0.0
  0
LINE
  5
B4E7
  8
0
 62
     0
 10
415.1918026790853
 20
1105.699785518992
 30
0.0
 11
398.99703967908579
 21
1115.3407775189919
 31
0.0
  0
LINE
  5
B4E8
  8
0
 62
     0
 10
415.1918026790853
 20
1109.2710755189919
 30
0.0
 11
398.99703967908579
 21
1119.2011285189919
 31
0.0
  0
LINE
  5
B4E9
  8
0
 62
     0
 10
172.6917626790854
 20
1119.2011285189919
 30
0.0
 11
398.99691767908541
 21
1119.2011285189919
 31
0.0
  0
LINE
  5
B4EA
  8
0
 62
     0
 10
172.6917626790854
 20
1115.3407775189919
 30
0.0
 11
398.99703967908579
 21
1115.3407775189919
 31
0.0
  0
LINE
  5
B4EB
  8
0
 62
     0
 10
172.6917626790854
 20
1109.1280085189919
 30
0.0
 11
398.99710067908552
 21
1109.1280085189919
 31
0.0
  0
LINE
  5
B4EC
  8
0
 62
     0
 10
172.6917626790854
 20
1100.3855765189919
 30
0.0
 11
398.99710067908552
 21
1100.3855765189919
 31
0.0
  0
LINE
  5
B4ED
  8
0
 62
     0
 10
172.6917626790854
 20
1089.5357085189919
 30
0.0
 11
398.9965516790852
 21
1089.5359675189929
 31
0.0
  0
LINE
  5
B4EE
  8
0
 62
     0
 10
172.6917626790854
 20
1072.976885518992
 30
0.0
 11
398.99679567908589
 21
1072.976885518992
 31
0.0
  0
LINE
  5
B4EF
  8
0
 62
     0
 10
172.6917626790854
 20
1058.4263485189931
 30
0.0
 11
398.99710067908552
 21
1058.4263485189931
 31
0.0
  0
LINE
  5
B4F0
  8
0
 62
     0
 10
172.6917626790854
 20
1040.267657518993
 30
0.0
 11
398.99722267908578
 21
1040.267657518993
 31
0.0
  0
LINE
  5
B4F1
  8
0
 62
     0
 10
172.6917626790854
 20
1023.619198518992
 30
0.0
 11
398.99697867908623
 21
1023.6183655189921
 31
0.0
  0
LINE
  5
B4F2
  8
0
 62
     0
 10
172.6917626790854
 20
1005.905840518992
 30
0.0
 11
398.99771067908563
 21
1005.905840518992
 31
0.0
  0
LINE
  5
B4F4
  8
0
 62
     0
 10
172.6917626790854
 20
902.0139945189926
 30
0.0
 11
398.99679567908589
 21
902.0139945189926
 31
0.0
  0
LINE
  5
B4F5
  8
0
 62
     0
 10
172.6917626790854
 20
916.56453251899268
 30
0.0
 11
398.99710067908552
 21
916.56453251899268
 31
0.0
  0
LINE
  5
B4F6
  8
0
 62
     0
 10
172.6917626790854
 20
934.72322351899265
 30
0.0
 11
398.99722267908578
 21
934.72322351899265
 31
0.0
  0
LINE
  5
B4F7
  8
0
 62
     0
 10
172.6917626790854
 20
951.37168251899266
 30
0.0
 11
398.99697867908623
 21
951.37251551899271
 31
0.0
  0
LINE
  5
B4F8
  8
0
 62
     0
 10
172.6917626790854
 20
969.08503951899274
 30
0.0
 11
398.99771067908563
 21
969.08503951899274
 31
0.0
  0
CIRCLE
  5
B4F9
  8
0
 62
     0
 10
284.69174167908551
 20
987.49538551899275
 30
0.0
 40
11.5
  0
LINE
  5
B4FA
  8
0
 62
     0
 10
172.6917626790854
 20
885.45517151899276
 30
0.0
 11
398.99703967908579
 21
885.45491251899261
 31
0.0
  0
LINE
  5
B4FB
  8
0
 62
     0
 10
415.1918026790853
 20
1086.697588518992
 30
0.0
 11
415.1918026790853
 21
1110.5653855189919
 31
0.0
  0
LINE
  5
B4FC
  8
0
 62
     0
 10
415.19192467908562
 20
1069.945391518992
 30
0.0
 11
417.19174167908528
 21
1069.945391518992
 31
0.0
  0
LINE
  5
B4FD
  8
0
 62
     0
 10
415.1918026790853
 20
1033.948321518993
 30
0.0
 11
415.19186367908497
 21
1037.2617975189919
 31
0.0
  0
LINE
  5
B4FE
  8
0
 62
     0
 10
415.19186367908497
 20
1048.689409518993
 30
0.0
 11
415.1918026790853
 21
1053.1968565189929
 31
0.0
  0
LINE
  5
B4FF
  8
0
 62
     0
 10
415.1918026790853
 20
1021.888506518992
 30
0.0
 11
415.1918026790853
 21
1018.967364518992
 31
0.0
  0
LINE
  5
B500
  8
0
 62
     0
 10
415.1918026790853
 20
1004.674639518992
 30
0.0
 11
415.1918026790853
 21
1003.672686518993
 31
0.0
  0
LINE
  5
B501
  8
0
 62
     0
 10
415.19192467908562
 20
905.04548951899244
 30
0.0
 11
417.19174167908528
 21
905.04548951899244
 31
0.0
  0
LINE
  5
B502
  8
0
 62
     0
 10
415.19186367908497
 20
926.30147051899269
 30
0.0
 11
415.1918026790853
 21
921.79402451899273
 31
0.0
  0
LINE
  5
B503
  8
0
 62
     0
 10
415.1918026790853
 20
941.04255951899268
 30
0.0
 11
415.19186367908497
 21
937.72908251899275
 31
0.0
  0
LINE
  5
B504
  8
0
 62
     0
 10
415.1918026790853
 20
953.10237351899264
 30
0.0
 11
415.1918026790853
 21
956.02351651899255
 31
0.0
  0
LINE
  5
B505
  8
0
 62
     0
 10
415.1918026790853
 20
970.31624151899268
 30
0.0
 11
415.1918026790853
 21
971.31819451899264
 31
0.0
  0
LINE
  5
B506
  8
0
 62
     0
 10
415.1918026790853
 20
883.4573505189926
 30
0.0
 11
398.99703967908579
 21
874.60530051899264
 31
0.0
  0
LINE
  5
B507
  8
0
 62
     0
 10
172.6917626790854
 20
874.60530051899264
 30
0.0
 11
398.99710067908552
 21
874.60530051899264
 31
0.0
  0
LINE
  5
B508
  8
0
 62
     0
 10
415.1918026790853
 20
888.29329151899242
 30
0.0
 11
415.1918026790853
 21
875.34529051899267
 31
0.0
  0
LINE
  5
B509
  8
0
 62
     0
 10
415.1918026790853
 20
875.34529051899267
 30
0.0
 11
398.99703967908579
 21
865.86286851899263
 31
0.0
  0
LINE
  5
B50A
  8
0
 62
     0
 10
172.6917626790854
 20
865.86286851899263
 30
0.0
 11
398.99710067908552
 21
865.86286851899263
 31
0.0
  0
LINE
  5
B50B
  8
0
 62
     0
 10
417.19174167908528
 20
1102.4954515189929
 30
0.0
 11
417.19174167908528
 21
872.49543851899261
 31
0.0
  0
LINE
  5
B704
  8
0
  6
CONTINUOUS
 62
     7
 10
496.19174167908523
 20
1120.4954385189919
 30
0.0
 11
496.19174167908523
 21
992.49543851899216
 31
0.0
  0
LINE
  5
B705
  8
0
  6
CONTINUOUS
 62
     7
 10
496.19174167908523
 20
854.49543851899261
 30
0.0
 11
489.08700167908512
 21
854.74353851899264
 31
0.0
  0
LINE
  5
B706
  8
0
  6
CONTINUOUS
 62
     7
 10
496.19168167908538
 20
1120.4954385189919
 30
0.0
 11
489.08700167908512
 21
1120.2473285189919
 31
0.0
  0
LINE
  5
B707
  8
0
  6
CENTER
 62
     7
 10
478.19174167908528
 20
972.31513851899274
 30
0.0
 11
478.19174167908528
 21
1002.049998518993
 31
0.0
  0
LINE
  5
B708
  8
0
  6
CONTINUOUS
 62
     7
 10
458.19174167908511
 20
982.49543851899261
 30
0.0
 11
498.19174167908511
 21
982.49543851899261
 31
0.0
  0
LINE
  5
B709
  8
0
  6
CONTINUOUS
 62
     7
 10
458.19174167908511
 20
992.49543851899216
 30
0.0
 11
498.19174167908511
 21
992.49543851899216
 31
0.0
  0
LINE
  5
B70A
  8
0
  6
CONTINUOUS
 62
     7
 10
496.19174167908523
 20
982.49543851899261
 30
0.0
 11
496.19174167908523
 21
854.49543851899261
 31
0.0
  0
LINE
  5
B70B
  8
0
  6
CONTINUOUS
 62
     7
 10
432.19174167908511
 20
875.4954385189925
 30
0.0
 11
484.19168167908532
 21
875.4954385189925
 31
0.0
  0
LINE
  5
B70C
  8
0
  6
CONTINUOUS
 62
     7
 10
430.19168167908532
 20
1105.4954385189931
 30
0.0
 11
430.19168167908532
 21
869.49543851899273
 31
0.0
  0
LINE
  5
B70D
  8
0
  6
CONTINUOUS
 62
     7
 10
432.19174167908511
 20
1099.495378518993
 30
0.0
 11
484.19168167908532
 21
1099.495378518993
 31
0.0
  0
LINE
  5
B70E
  8
0
  6
CONTINUOUS
 62
     7
 10
430.19168167908532
 20
1074.1702985189929
 30
0.0
 11
476.69174167908528
 21
1074.1702985189929
 31
0.0
  0
LINE
  5
B70F
  8
0
  6
CONTINUOUS
 62
     7
 10
430.19168167908532
 20
1058.428238518992
 30
0.0
 11
476.69174167908528
 21
1058.428238518992
 31
0.0
  0
LINE
  5
B710
  8
0
  6
CONTINUOUS
 62
     7
 10
430.19168167908532
 20
916.56257851899215
 30
0.0
 11
476.69174167908528
 21
916.56257851899215
 31
0.0
  0
LINE
  5
B711
  8
0
  6
CONTINUOUS
 62
     7
 10
430.19168167908532
 20
900.8205085189926
 30
0.0
 11
476.69174167908528
 21
900.8205085189926
 31
0.0
  0
LINE
  5
B712
  8
0
  6
CONTINUOUS
 62
     7
 10
486.19168167908532
 20
857.7417085189926
 30
0.0
 11
486.19168167908532
 21
964.49543851899261
 31
0.0
  0
LINE
  5
B713
  8
0
  6
CONTINUOUS
 62
     7
 10
484.72726167908507
 20
876.95984851899266
 30
0.0
 11
478.15622167908521
 21
883.53089851899267
 31
0.0
  0
LINE
  5
B714
  8
0
  6
CONTINUOUS
 62
     7
 10
478.15615167908533
 20
1091.4599085189921
 30
0.0
 11
484.7272016790854
 21
1098.0309585189921
 31
0.0
  0
LINE
  5
B715
  8
0
  6
CONTINUOUS
 62
     7
 10
476.69174167908528
 20
887.06647851899277
 30
0.0
 11
476.69174167908528
 21
968.58112851899261
 31
0.0
  0
LINE
  5
B716
  8
0
  6
CONTINUOUS
 62
     7
 10
486.19168167908532
 20
1010.495438518992
 30
0.0
 11
486.19168167908532
 21
1117.2491585189921
 31
0.0
  0
LINE
  5
B717
  8
0
  6
CONTINUOUS
 62
     7
 10
476.69174167908528
 20
1006.409678518993
 30
0.0
 11
476.69174167908528
 21
1087.9243885189919
 31
0.0
  0
LINE
  5
B718
  8
0
  6
CONTINUOUS
 62
     7
 10
669.19174167908523
 20
995.49537851899265
 30
0.0
 11
731.19168167908515
 21
995.49537851899265
 31
0.0
  0
LINE
  5
B719
  8
0
  6
CONTINUOUS
 62
     7
 10
496.19180167908507
 20
854.49537851899277
 30
0.0
 11
612.3485416790852
 21
850.43909851899252
 31
0.0
  0
LINE
  5
B71A
  8
0
  6
CONTINUOUS
 62
     7
 10
607.84195167908535
 20
1074.3369885189929
 30
0.0
 11
619.19180167908485
 21
1082.660718518993
 31
0.0
  0
LINE
  5
B71B
  8
0
  6
CONTINUOUS
 62
     7
 10
615.70956167908525
 20
848.97767851899278
 30
0.0
 11
619.19180167908485
 21
845.49543851899261
 31
0.0
  0
LINE
  5
B71C
  8
0
  6
CONTINUOUS
 62
     7
 10
669.19174167908523
 20
979.49537851899277
 30
0.0
 11
731.19168167908515
 21
979.49537851899277
 31
0.0
  0
LINE
  5
B71D
  8
0
  6
CONTINUOUS
 62
     7
 10
649.19168167908515
 20
1017.495438518992
 30
0.0
 11
649.19168167908515
 21
957.49543851899261
 31
0.0
  0
LINE
  5
B71E
  8
0
  6
CONTINUOUS
 62
     7
 10
646.19174167908523
 20
1017.495438518992
 30
0.0
 11
649.19168167908515
 21
1017.495438518992
 31
0.0
  0
LINE
  5
B71F
  8
0
  6
CONTINUOUS
 62
     7
 10
669.19168167908515
 20
995.49537851899265
 30
0.0
 11
669.19168167908515
 21
979.49537851899277
 31
0.0
  0
LINE
  5
B720
  8
0
  6
CONTINUOUS
 62
     7
 10
731.19168167908515
 20
1014.995438518992
 30
0.0
 11
731.19168167908515
 21
959.99543851899261
 31
0.0
  0
LINE
  5
B721
  8
0
  6
CONTINUOUS
 62
     7
 10
649.19168167908515
 20
959.99543851899261
 30
0.0
 11
731.19168167908515
 21
959.99543851899261
 31
0.0
  0
LINE
  5
B722
  8
0
  6
CONTINUOUS
 62
     7
 10
649.19168167908515
 20
1014.995438518992
 30
0.0
 11
731.19168167908515
 21
1014.995438518992
 31
0.0
  0
LINE
  5
B723
  8
0
  6
CONTINUOUS
 62
     7
 10
607.84188167908508
 20
900.65375851899262
 30
0.0
 11
619.19180167908485
 21
892.33002851899266
 31
0.0
  0
LINE
  5
B724
  8
0
  6
CONTINUOUS
 62
     7
 10
641.19174167908523
 20
847.49543851899284
 30
0.0
 11
646.19174167908523
 21
847.49543851899284
 31
0.0
  0
LINE
  5
B725
  8
0
  6
CONTINUOUS
 62
     7
 10
578.54129167908525
 20
890.13135851899278
 30
0.0
 11
616.78054167908522
 21
866.9889085189925
 31
0.0
  0
LINE
  5
B726
  8
0
  6
CONTINUOUS
 62
     7
 10
581.1301516790852
 20
901.62189851899279
 30
0.0
 11
604.8849716790852
 21
901.62189851899279
 31
0.0
  0
LINE
  5
B727
  8
0
  6
CONTINUOUS
 62
     7
 10
581.12088167908485
 20
899.84498851899275
 30
0.0
 11
616.68997167908549
 21
878.31849851899278
 31
0.0
  0
LINE
  5
B728
  8
0
  6
CONTINUOUS
 62
     7
 10
576.1301516790852
 20
894.40900851899266
 30
0.0
 11
576.1301516790852
 21
896.62189851899268
 31
0.0
  0
LINE
  5
B729
  8
0
  6
CONTINUOUS
 62
     7
 10
496.19174167908523
 20
1120.4954385189919
 30
0.0
 11
612.34848167908524
 21
1124.5517085189931
 31
0.0
  0
LINE
  5
B72A
  8
0
  6
CONTINUOUS
 62
     7
 10
619.19174167908523
 20
1146.898698518992
 30
0.0
 11
619.19174167908523
 21
828.0921785189928
 31
0.0
  0
LINE
  5
B72B
  8
0
  6
CONTINUOUS
 62
     7
 10
646.19174167908523
 20
957.49543851899261
 30
0.0
 11
649.19168167908515
 21
957.49543851899261
 31
0.0
  0
LINE
  5
B72C
  8
0
  6
CONTINUOUS
 62
     7
 10
615.70956167908525
 20
1126.0130785189931
 30
0.0
 11
619.19180167908485
 21
1129.495378518993
 31
0.0
  0
LINE
  5
B72D
  8
0
  6
CONTINUOUS
 62
     7
 10
624.01736167908484
 20
1151.895598518993
 30
0.0
 11
641.19180167908485
 21
1152.495398518992
 31
0.0
  0
LINE
  5
B72E
  8
0
  6
CONTINUOUS
 62
     7
 10
624.01730167908522
 20
823.0951685189923
 30
0.0
 11
641.19186167908526
 21
822.49537851899277
 31
0.0
  0
LINE
  5
B72F
  8
0
  6
CONTINUOUS
 62
     7
 10
641.19174167908523
 20
1152.495398518992
 30
0.0
 11
641.19174167908523
 21
822.49537851899277
 31
0.0
  0
LINE
  5
B730
  8
0
  6
CONTINUOUS
 62
     7
 10
641.19174167908523
 20
1127.4954385189931
 30
0.0
 11
646.19174167908523
 21
1127.4954385189931
 31
0.0
  0
LINE
  5
B731
  8
0
  6
CONTINUOUS
 62
     7
 10
646.19174167908523
 20
1127.4954385189931
 30
0.0
 11
646.19174167908523
 21
847.49543851899284
 31
0.0
  0
LINE
  5
B732
  8
0
  6
CONTINUOUS
 62
     7
 10
628.19180167908485
 20
1111.8445585189929
 30
0.0
 11
628.19180167908485
 21
863.14631851899264
 31
0.0
  0
LINE
  5
B733
  8
0
  6
CONTINUOUS
 62
     7
 10
581.1301516790852
 20
1073.3689685189929
 30
0.0
 11
604.8849716790852
 21
1073.3689685189929
 31
0.0
  0
LINE
  5
B734
  8
0
  6
CONTINUOUS
 62
     7
 10
576.1301516790852
 20
1080.5817985189919
 30
0.0
 11
576.1301516790852
 21
1078.3689685189929
 31
0.0
  0
LINE
  5
B735
  8
0
  6
CONTINUOUS
 62
     7
 10
581.12088167908485
 20
1075.1458285189919
 30
0.0
 11
616.68997167908549
 21
1096.6722585189921
 31
0.0
  0
LINE
  5
B736
  8
0
  6
CONTINUOUS
 62
     7
 10
578.54129167908525
 20
1084.8594485189931
 30
0.0
 11
616.78054167908522
 21
1108.0019085189931
 31
0.0
  0
ARC
  5
B737
  8
0
  6
CONTINUOUS
 62
     7
 10
478.19174167908528
 20
987.49543851899227
 30
0.0
 40
15.0
 50
90.000146000002957
 51
160.5287699999993
  0
ARC
  5
B738
  8
0
  6
CONTINUOUS
 62
     7
 10
478.19174167908528
 20
987.49543851899227
 30
0.0
 40
12.5
 50
23.578179999997541
 51
156.42182000000241
  0
ARC
  5
B739
  8
0
  6
CONTINUOUS
 62
     7
 10
458.19174167908511
 20
987.49543851899227
 30
0.0
 40
5.0
 50
90.00000299999769
 51
270.0
  0
ARC
  5
B73A
  8
0
  6
CONTINUOUS
 62
     7
 10
498.19174167908511
 20
987.49543851899227
 30
0.0
 40
5.0
 50
270.0
 51
90.00000299999769
  0
ARC
  5
B73B
  8
0
  6
CONTINUOUS
 62
     7
 10
478.19174167908528
 20
987.49543851899227
 30
0.0
 40
12.5
 50
203.5781799999975
 51
336.4218300000008
  0
ARC
  5
B73C
  8
0
  6
CONTINUOUS
 62
     7
 10
478.19174167908528
 20
987.49543851899227
 30
0.0
 40
15.0
 50
199.4712300000007
 51
269.99984999999788
  0
ARC
  5
B73D
  8
0
  6
CONTINUOUS
 62
     7
 10
428.19174167908511
 20
889.7681385189926
 30
0.0
 40
2.0
 50
269.999989999999
 51
0.0000006832495047
  0
ARC
  5
B73E
  8
0
  6
CONTINUOUS
 62
     7
 10
428.19174167908511
 20
905.32453851899277
 30
0.0
 40
2.0
 50
269.999989999999
 51
0.0000006832495047
  0
ARC
  5
B73F
  8
0
  6
CONTINUOUS
 62
     7
 10
428.19174167908511
 20
1069.6662085189921
 30
0.0
 40
2.0
 50
0.0
 51
90.00000299999769
  0
ARC
  5
B740
  8
0
  6
CONTINUOUS
 62
     7
 10
428.19174167908511
 20
1085.222608518993
 30
0.0
 40
2.0
 50
0.0
 51
90.00000299999769
  0
ARC
  5
B741
  8
0
  6
CONTINUOUS
 62
     7
 10
432.19174167908511
 20
1101.4953785189921
 30
0.0
 40
2.0
 50
179.999989999999
 51
270.0
  0
ARC
  5
B742
  8
0
  6
CONTINUOUS
 62
     7
 10
428.19174167908511
 20
1105.4954385189931
 30
0.0
 40
2.0
 50
0.0
 51
90.00000299999769
  0
ARC
  5
B743
  8
0
  6
CONTINUOUS
 62
     7
 10
428.19174167908511
 20
869.49543851899273
 30
0.0
 40
2.0
 50
269.999989999999
 51
0.0000006832495047
  0
ARC
  5
B744
  8
0
  6
CONTINUOUS
 62
     7
 10
432.19174167908511
 20
873.49543851899261
 30
0.0
 40
2.0
 50
90.00000299999769
 51
180.000010000001
  0
ARC
  5
B745
  8
0
  6
CONTINUOUS
 62
     7
 10
489.19168167908521
 20
857.7417085189926
 30
0.0
 40
3.0
 50
180.000010000001
 51
268.0000000000029
  0
ARC
  5
B746
  8
0
  6
CONTINUOUS
 62
     7
 10
489.19168167908521
 20
1117.2491585189921
 30
0.0
 40
3.0
 50
91.999998000000545
 51
180.000010000001
  0
ARC
  5
B747
  8
0
  6
CONTINUOUS
 62
     7
 10
481.69174167908483
 20
887.06647851899277
 30
0.0
 40
5.0
 50
180.000010000001
 51
225.0
  0
ARC
  5
B748
  8
0
  6
CONTINUOUS
 62
     7
 10
481.69174167908483
 20
1087.9243885189919
 30
0.0
 40
5.0
 50
135.0
 51
180.000010000001
  0
ARC
  5
B749
  8
0
  6
CONTINUOUS
 62
     7
 10
481.19168167908532
 20
873.4243885189926
 30
0.0
 40
5.0
 50
0.0
 51
44.999998000001611
  0
ARC
  5
B74A
  8
0
  6
CONTINUOUS
 62
     7
 10
481.19168167908532
 20
1101.5664785189931
 30
0.0
 40
5.0
 50
315.0
 51
0.0
  0
ARC
  5
B74B
  8
0
  6
CONTINUOUS
 62
     7
 10
478.19168167908532
 20
964.49543851899261
 30
0.0
 40
8.0
 50
0.0
 51
89.999858999997556
  0
ARC
  5
B74C
  8
0
  6
CONTINUOUS
 62
     7
 10
478.19168167908532
 20
1010.495438518992
 30
0.0
 40
8.0
 50
270.00015000000212
 51
0.0
  0
ARC
  5
B74D
  8
0
  6
CONTINUOUS
 62
     7
 10
471.69174167908523
 20
968.58112851899261
 30
0.0
 40
5.0
 50
0.0
 51
71.034342999998159
  0
ARC
  5
B74E
  8
0
  6
CONTINUOUS
 62
     7
 10
471.69174167908523
 20
1006.409678518993
 30
0.0
 40
5.0
 50
288.9656600000007
 51
0.0
  0
ARC
  5
B74F
  8
0
  6
CONTINUOUS
 62
     7
 10
484.19168167908532
 20
873.49543851899261
 30
0.0
 40
2.0
 50
0.0
 51
90.00000299999769
  0
ARC
  5
B750
  8
0
  6
CONTINUOUS
 62
     7
 10
484.19168167908532
 20
1101.4953785189921
 30
0.0
 40
2.0
 50
270.0
 51
0.0
  0
ARC
  5
B751
  8
0
  6
CONTINUOUS
 62
     7
 10
604.8849716790852
 20
1078.3689685189929
 30
0.0
 40
5.0
 50
270.0
 51
306.25554999999889
  0
ARC
  5
B752
  8
0
  6
CONTINUOUS
 62
     7
 10
612.17398167908516
 20
845.44220851899274
 30
0.0
 40
5.0
 50
45.000001000003799
 51
88.000000000002785
  0
ARC
  5
B753
  8
0
  6
CONTINUOUS
 62
     7
 10
612.17398167908516
 20
1129.5486585189919
 30
0.0
 40
5.0
 50
271.99999999999721
 51
315.0
  0
ARC
  5
B754
  8
0
  6
CONTINUOUS
 62
     7
 10
624.19174167908523
 20
828.0921785189928
 30
0.0
 40
5.0
 50
179.999989999999
 51
268.00000999999861
  0
ARC
  5
B755
  8
0
  6
CONTINUOUS
 62
     7
 10
669.19174167908523
 20
987.49537851899277
 30
0.0
 40
8.0000113999999982
 50
90.00000299999769
 51
270.0
  0
ARC
  5
B756
  8
0
  6
CONTINUOUS
 62
     7
 10
581.1301516790852
 20
1080.5817985189919
 30
0.0
 40
5.0
 50
121.18235999999629
 51
180.000010000001
  0
ARC
  5
B757
  8
0
  6
CONTINUOUS
 62
     7
 10
614.19174167908523
 20
1112.279488518993
 30
0.0
 40
5.0
 50
301.18235999999632
 51
0.0
  0
ARC
  5
B758
  8
0
  6
CONTINUOUS
 62
     7
 10
581.1301516790852
 20
1078.3689685189929
 30
0.0
 40
5.0
 50
179.999989999999
 51
270.0
  0
ARC
  5
B759
  8
0
  6
CONTINUOUS
 62
     7
 10
581.1301516790852
 20
896.62189851899268
 30
0.0
 40
5.0
 50
90.00000299999769
 51
180.000010000001
  0
ARC
  5
B75A
  8
0
  6
CONTINUOUS
 62
     7
 10
614.19174167908523
 20
862.71131851899281
 30
0.0
 40
5.0
 50
0.0
 51
58.817640999998339
  0
ARC
  5
B75B
  8
0
  6
CONTINUOUS
 62
     7
 10
581.1301516790852
 20
894.40900851899266
 30
0.0
 40
5.0
 50
179.999989999999
 51
238.81764999999709
  0
ARC
  5
B75C
  8
0
  6
CONTINUOUS
 62
     7
 10
620.19174167908523
 20
921.1587685189927
 30
0.0
 40
8.0
 50
270.0
 51
0.0
  0
ARC
  5
B75D
  8
0
  6
CONTINUOUS
 62
     7
 10
604.8849716790852
 20
896.62189851899268
 30
0.0
 40
5.0
 50
53.744453000003212
 51
90.00000299999769
  0
ARC
  5
B75E
  8
0
  6
CONTINUOUS
 62
     7
 10
620.19174167908523
 20
863.14631851899264
 30
0.0
 40
8.0
 50
270.0
 51
0.0
  0
ARC
  5
B75F
  8
0
  6
CONTINUOUS
 62
     7
 10
624.19174167908523
 20
1146.898698518992
 30
0.0
 40
5.0
 50
91.999998000000545
 51
180.000010000001
  0
ARC
  5
B760
  8
0
  6
CONTINUOUS
 62
     7
 10
620.19174167908523
 20
1053.8320485189929
 30
0.0
 40
8.0
 50
0.0
 51
90.00000299999769
  0
ARC
  5
B761
  8
0
  6
CONTINUOUS
 62
     7
 10
620.19174167908523
 20
1111.8445585189929
 30
0.0
 40
8.0
 50
0.0
 51
90.00000299999769
  0
POLYLINE
  5
B762
  8
0
  6
CONTINUOUS
 62
     7
 66
     1
 10
0.0
 20
0.0
 30
0.0
  0
VERTEX
  5
B763
  8
0
  6
CONTINUOUS
 62
     7
 10
609.27528167908508
 20
871.53113851899218
 30
0.0
 42
0.0020909347
  0
VERTEX
  5
B764
  8
0
  6
CONTINUOUS
 62
     7
 10
610.24113167908524
 20
864.49062851899293
 30
0.0
 42
0.0020881749
  0
VERTEX
  5
B765
  8
0
  6
CONTINUOUS
 62
     7
 10
611.26571167908514
 20
857.45900851899262
 30
0.0
 42
0.0020849591
  0
VERTEX
  5
B766
  8
0
  6
CONTINUOUS
 62
     7
 10
612.34848167908524
 20
850.4391585189926
 30
0.0
  0
SEQEND
  5
B767
  8
0
 62
     7
  0
POLYLINE
  5
B768
  8
0
  6
CONTINUOUS
 62
     7
 66
     1
 10
0.0
 20
0.0
 30
0.0
  0
VERTEX
  5
B769
  8
0
  6
CONTINUOUS
 62
     7
 10
607.09457167908522
 20
1073.883688518993
 30
0.0
 42
0.01720808
  0
VERTEX
  5
B76A
  8
0
  6
CONTINUOUS
 62
     7
 10
602.67830167908539
 20
1016.508498518992
 30
0.0
 42
0.0088311605
  0
VERTEX
  5
B76B
  8
0
  6
CONTINUOUS
 62
     7
 10
601.96145167908514
 20
987.49543851899227
 30
0.0
 42
0.025919753
  0
VERTEX
  5
B76C
  8
0
  6
CONTINUOUS
 62
     7
 10
605.83028167908526
 20
901.5317485189928
 30
0.0
  0
SEQEND
  5
B76D
  8
0
 62
     7
  0
POLYLINE
  5
B76E
  8
0
  6
CONTINUOUS
 62
     7
 66
     1
 10
0.0
 20
0.0
 30
0.0
  0
VERTEX
  5
B76F
  8
0
  6
CONTINUOUS
 62
     7
 10
614.31686167908549
 20
1124.6204385189919
 30
0.0
  0
VERTEX
  5
B770
  8
0
  6
CONTINUOUS
 62
     7
 10
611.08660167908511
 20
1104.5559285189929
 30
0.0
 42
-1.0
  0
SEQEND
  5
B771
  8
0
 62
     7
  0
LINE
  5
B7D6
  8
0
  6
CONTINUOUS
 62
     7
 10
649.19162167908507
 20
580.65769075960111
 30
0.0
 11
731.19168167908492
 21
580.65769075960111
 31
0.0
  0
LINE
  5
B7D7
  8
0
  6
CONTINUOUS
 62
     7
 10
731.19168167908492
 20
584.6576507596011
 30
0.0
 11
731.19168167908492
 21
525.65769075960111
 31
0.0
  0
LINE
  5
B7D8
  8
0
  6
CONTINUOUS
 62
     7
 10
649.19162167908507
 20
525.65769075960111
 30
0.0
 11
731.19168167908492
 21
525.65769075960111
 31
0.0
  0
LINE
  5
B7D9
  8
0
  6
CONTINUOUS
 62
     7
 10
669.19162167908507
 20
584.6576507596011
 30
0.0
 11
731.19168167908492
 21
584.6576507596011
 31
0.0
  0
LINE
  5
B7DA
  8
0
  6
CONTINUOUS
 62
     7
 10
669.19162167908507
 20
584.6576507596011
 30
0.0
 11
669.19162167908507
 21
580.65769075960111
 31
0.0
  0
LINE
  5
B7DB
  8
0
  6
CONTINUOUS
 62
     7
 10
430.1916216790853
 20
421.48279075960107
 30
0.0
 11
476.69168167908509
 21
421.48279075960107
 31
0.0
  0
LINE
  5
B7DC
  8
0
  6
CONTINUOUS
 62
     7
 10
430.1916216790853
 20
437.22485075960083
 30
0.0
 11
476.69168167908509
 21
437.22485075960083
 31
0.0
  0
LINE
  5
B7DD
  8
0
  6
CONTINUOUS
 62
     7
 10
430.1916216790853
 20
579.09049075960115
 30
0.0
 11
476.69168167908509
 21
579.09049075960115
 31
0.0
  0
LINE
  5
B7DE
  8
0
  6
CONTINUOUS
 62
     7
 10
430.1916216790853
 20
594.83255075960108
 30
0.0
 11
476.69168167908509
 21
594.83255075960108
 31
0.0
  0
LINE
  5
B7DF
  8
0
  6
CONTINUOUS
 62
     7
 10
485.4157416790851
 20
652.93256075960085
 30
0.0
 11
477.46756167908512
 21
640.38278075960102
 31
0.0
  0
LINE
  5
B7E0
  8
0
  6
CONTINUOUS
 62
     7
 10
461.19162167908502
 20
620.15765075960076
 30
0.0
 11
474.69168167908509
 21
620.15765075960076
 31
0.0
  0
LINE
  5
B7E1
  8
0
  6
CONTINUOUS
 62
     7
 10
476.69168167908509
 20
637.70752075960104
 30
0.0
 11
476.69168167908509
 21
390.60783075960097
 31
0.0
  0
LINE
  5
B7E2
  8
0
  6
CONTINUOUS
 62
     7
 10
432.19168167908509
 20
620.15765075960076
 30
0.0
 11
461.19162167908502
 21
620.15765075960076
 31
0.0
  0
LINE
  5
B7E3
  8
0
  6
CONTINUOUS
 62
     7
 10
430.1916216790853
 20
626.15769075960065
 30
0.0
 11
430.1916216790853
 21
390.15767075960122
 31
0.0
  0
LINE
  5
B7E4
  8
0
  6
CONTINUOUS
 62
     7
 10
432.19168167908509
 20
396.157690759601
 30
0.0
 11
474.32022167908542
 21
396.157690759601
 31
0.0
  0
LINE
  5
B7E5
  8
0
  6
CONTINUOUS
 62
     7
 10
488.12179167908482
 20
674.87589075960102
 30
0.0
 11
495.89169167908511
 21
675.14722075960117
 31
0.0
  0
LINE
  5
B7E6
  8
0
  6
CONTINUOUS
 62
     7
 10
468.19168167908521
 20
675.15765075960076
 30
0.0
 11
495.89163167908509
 21
675.15765075960076
 31
0.0
  0
LINE
  5
B7E7
  8
0
  6
CONTINUOUS
 62
     7
 10
463.19168167908532
 20
670.15765075960076
 30
0.0
 11
463.19168167908532
 21
622.1576507596011
 31
0.0
  0
LINE
  5
B7E8
  8
0
  6
CONTINUOUS
 62
     7
 10
486.19162167908502
 20
672.87708075960074
 30
0.0
 11
486.19162167908502
 21
362.43825075960098
 31
0.0
  0
LINE
  5
B7E9
  8
0
  6
CONTINUOUS
 62
     7
 10
468.39761167908517
 20
684.15765075960076
 30
0.0
 11
487.98568167908508
 21
684.15765075960076
 31
0.0
  0
LINE
  5
B7EA
  8
0
  6
CONTINUOUS
 62
     7
 10
465.47702167908523
 20
674.35654075960065
 30
0.0
 11
467.94217167908528
 21
683.55658075960048
 31
0.0
  0
LINE
  5
B7EB
  8
0
  6
CONTINUOUS
 62
     7
 10
490.69168167908509
 20
675.15765075960076
 30
0.0
 11
488.44119167908531
 21
683.55664075960101
 31
0.0
  0
LINE
  5
B7EC
  8
0
  6
CONTINUOUS
 62
     7
 10
468.71359167908508
 20
684.27860075960098
 30
0.0
 11
478.19168167908509
 21
686.15759075960113
 31
0.0
  0
LINE
  5
B7ED
  8
0
  6
CONTINUOUS
 62
     7
 10
478.1916216790853
 20
686.15769075960111
 30
0.0
 11
487.66964167908509
 21
684.27869075960109
 31
0.0
  0
LINE
  5
B7EE
  8
0
  6
CONTINUOUS
 62
     7
 10
495.89163167908509
 20
675.15765075960076
 30
0.0
 11
496.19162167908519
 21
675.15765075960076
 31
0.0
  0
LINE
  5
B7EF
  8
0
  6
CONTINUOUS
 62
     7
 10
486.19162167908502
 20
561.62405075960123
 30
0.0
 11
613.79294167908529
 21
561.62405075960123
 31
0.0
  0
LINE
  5
B7F0
  8
0
  6
CONTINUOUS
 62
     7
 10
536.19162167908507
 20
428.40360075960058
 30
0.0
 11
536.19162167908507
 21
413.7587407596011
 31
0.0
  0
LINE
  5
B7F1
  8
0
  6
CONTINUOUS
 62
     7
 10
496.19162167908519
 20
360.15767075960122
 30
0.0
 11
578.03494167908525
 21
358.01453075960097
 31
0.0
  0
LINE
  5
B7F2
  8
0
  6
CONTINUOUS
 62
     7
 10
604.78238167908523
 20
680.74841075960103
 30
0.0
 11
619.19162167908507
 21
695.157690759601
 31
0.0
  0
LINE
  5
B7F3
  8
0
  6
CONTINUOUS
 62
     7
 10
496.19162167908519
 20
675.15765075960076
 30
0.0
 11
496.19162167908519
 21
360.15767075960122
 31
0.0
  0
LINE
  5
B7F4
  8
0
  6
CONTINUOUS
 62
     7
 10
624.01712167908522
 20
717.55795075960054
 30
0.0
 11
641.19162167908507
 21
718.15769075960065
 31
0.0
  0
LINE
  5
B7F5
  8
0
  6
CONTINUOUS
 62
     7
 10
624.19162167908507
 20
388.1576707596011
 30
0.0
 11
641.19162167908507
 21
388.1576707596011
 31
0.0
  0
LINE
  5
B7F6
  8
0
  6
CONTINUOUS
 62
     7
 10
496.19168167908509
 20
675.15769075960088
 30
0.0
 11
597.97311167908504
 21
677.82291075960086
 31
0.0
  0
LINE
  5
B7F7
  8
0
  6
CONTINUOUS
 62
     7
 10
541.19162167908507
 20
433.40360075960109
 30
0.0
 11
619.19162167908507
 21
433.40360075960109
 31
0.0
  0
LINE
  5
B7F8
  8
0
  6
CONTINUOUS
 62
     7
 10
541.19162167908507
 20
408.75874075960053
 30
0.0
 11
619.19162167908507
 21
408.75874075960053
 31
0.0
  0
LINE
  5
B7F9
  8
0
  6
CONTINUOUS
 62
     7
 10
619.19162167908507
 20
712.56094075960073
 30
0.0
 11
619.19162167908507
 21
518.89432075960076
 31
0.0
  0
LINE
  5
B7FA
  8
0
  6
CONTINUOUS
 62
     7
 10
641.19162167908507
 20
718.15769075960065
 30
0.0
 11
641.19162167908507
 21
388.1576707596011
 31
0.0
  0
LINE
  5
B7FB
  8
0
  6
CONTINUOUS
 62
     7
 10
641.19162167908507
 20
413.1576707596011
 30
0.0
 11
646.19162167908519
 21
413.1576707596011
 31
0.0
  0
LINE
  5
B7FC
  8
0
  6
CONTINUOUS
 62
     7
 10
641.19162167908507
 20
693.15769075960065
 30
0.0
 11
646.19162167908519
 21
693.15769075960065
 31
0.0
  0
LINE
  5
B7FD
  8
0
  6
CONTINUOUS
 62
     7
 10
646.19162167908519
 20
693.15769075960065
 30
0.0
 11
646.19162167908519
 21
413.1576707596011
 31
0.0
  0
LINE
  5
B7FE
  8
0
  6
CONTINUOUS
 62
     7
 10
583.29678167908503
 20
359.35085075960097
 30
0.0
 11
633.19168167908504
 21
388.1576707596011
 31
0.0
  0
LINE
  5
B7FF
  8
0
  6
CONTINUOUS
 62
     7
 10
486.19162167908502
 20
459.8284907596011
 30
0.0
 11
619.19162167908507
 21
459.8284907596011
 31
0.0
  0
LINE
  5
B800
  8
0
  6
CONTINUOUS
 62
     7
 10
628.19168167908504
 20
677.50681075960074
 30
0.0
 11
628.19168167908504
 21
428.80853075960079
 31
0.0
  0
LINE
  5
B801
  8
0
  6
CONTINUOUS
 62
     7
 10
619.19162167908507
 20
460.88379075960108
 30
0.0
 11
619.19162167908507
 21
393.15767075960122
 31
0.0
  0
LINE
  5
B802
  8
0
  6
CONTINUOUS
 62
     7
 10
618.5183416790851
 20
510.66959075960091
 30
0.0
 11
606.61453167908508
 21
639.03122075960096
 31
0.0
  0
LINE
  5
B803
  8
0
  6
CONTINUOUS
 62
     7
 10
576.13003167908505
 20
646.24408075960059
 30
0.0
 11
576.13003167908505
 21
644.03122075960096
 31
0.0
  0
LINE
  5
B804
  8
0
  6
CONTINUOUS
 62
     7
 10
581.12076167908504
 20
640.80811075960059
 30
0.0
 11
616.68985167908522
 21
662.33453075960074
 31
0.0
  0
LINE
  5
B805
  8
0
  6
CONTINUOUS
 62
     7
 10
581.13003167908505
 20
639.03122075960096
 30
0.0
 11
604.88485167908505
 21
639.03122075960096
 31
0.0
  0
LINE
  5
B806
  8
0
  6
CONTINUOUS
 62
     7
 10
578.54117167908544
 20
650.52173075960093
 30
0.0
 11
616.78042167908518
 21
673.66419075960096
 31
0.0
  0
LINE
  5
B807
  8
0
  6
CONTINUOUS
 62
     7
 10
607.84176167908504
 20
639.99930075960094
 30
0.0
 11
619.19168167908504
 21
648.32306075960093
 31
0.0
  0
LINE
  5
B808
  8
0
  6
CONTINUOUS
 62
     7
 10
603.98959167908504
 20
667.33707075960092
 30
0.0
 11
602.91867167908504
 21
678.88467075960102
 31
0.0
  0
LINE
  5
B809
  8
0
  6
CONTINUOUS
 62
     7
 10
488.12179167908482
 20
360.43947075960102
 30
0.0
 11
496.19168167908509
 21
360.15767075960122
 31
0.0
  0
LINE
  5
B80A
  8
0
  6
CONTINUOUS
 62
     7
 10
485.4158016790854
 20
375.38278075960108
 30
0.0
 11
477.46762167908543
 21
387.93256075960107
 31
0.0
  0
LINE
  5
B80B
  8
0
  6
CONTINUOUS
 62
     7
 10
646.19162167908519
 20
583.15769075960088
 30
0.0
 11
649.19162167908507
 21
583.15769075960088
 31
0.0
  0
LINE
  5
B80C
  8
0
  6
CONTINUOUS
 62
     7
 10
646.19162167908519
 20
523.15769075960111
 30
0.0
 11
649.19162167908507
 21
523.15769075960111
 31
0.0
  0
LINE
  5
B80D
  8
0
  6
CONTINUOUS
 62
     7
 10
649.19162167908507
 20
583.15769075960088
 30
0.0
 11
649.19162167908507
 21
523.15769075960111
 31
0.0
  0
ARC
  5
B80E
  8
0
  6
CONTINUOUS
 62
     7
 10
481.69168167908509
 20
390.60783075960097
 30
0.0
 40
5.0
 50
179.999989999999
 51
212.3474399999966
  0
ARC
  5
B80F
  8
0
  6
CONTINUOUS
 62
     7
 10
474.69168167908509
 20
394.1576707596011
 30
0.0
 40
2.0
 50
0.0
 51
90.00000299999769
  0
ARC
  5
B810
  8
0
  6
CONTINUOUS
 62
     7
 10
474.69168167908509
 20
622.1576507596011
 30
0.0
 40
2.0
 50
270.0
 51
0.0
  0
ARC
  5
B811
  8
0
  6
CONTINUOUS
 62
     7
 10
461.19162167908502
 20
622.1576507596011
 30
0.0
 40
2.0
 50
270.0
 51
0.0
  0
ARC
  5
B812
  8
0
  6
CONTINUOUS
 62
     7
 10
432.19168167908509
 20
394.1576707596011
 30
0.0
 40
2.0
 50
90.00000299999769
 51
180.000010000001
  0
ARC
  5
B813
  8
0
  6
CONTINUOUS
 62
     7
 10
428.19168167908509
 20
390.15767075960122
 30
0.0
 40
2.0
 50
270.0
 51
0.0
  0
ARC
  5
B814
  8
0
  6
CONTINUOUS
 62
     7
 10
481.69168167908509
 20
637.70752075960104
 30
0.0
 40
5.0
 50
147.65256000000329
 51
180.000010000001
  0
ARC
  5
B815
  8
0
  6
CONTINUOUS
 62
     7
 10
481.19162167908519
 20
655.60782075960094
 30
0.0
 40
5.0
 50
327.6525600000034
 51
0.0
  0
ARC
  5
B816
  8
0
  6
CONTINUOUS
 62
     7
 10
468.19168167908521
 20
670.15765075960076
 30
0.0
 40
5.0
 50
90.00000299999769
 51
180.000010000001
  0
ARC
  5
B817
  8
0
  6
CONTINUOUS
 62
     7
 10
428.19168167908509
 20
626.15769075960065
 30
0.0
 40
2.0
 50
0.0
 51
90.00000299999769
  0
ARC
  5
B818
  8
0
  6
CONTINUOUS
 62
     7
 10
432.19168167908509
 20
622.1576507596011
 30
0.0
 40
2.0
 50
179.999989999999
 51
270.0
  0
ARC
  5
B819
  8
0
  6
CONTINUOUS
 62
     7
 10
488.19168167908532
 20
672.87708075960074
 30
0.0
 40
2.0
 50
91.999998000000545
 51
180.000010000001
  0
CIRCLE
  5
B81A
  8
0
  6
CONTINUOUS
 62
     7
 10
478.19168167908509
 20
701.15769075960065
 30
0.0
 40
15.0
  0
ARC
  5
B81B
  8
0
  6
CONTINUOUS
 62
     7
 10
478.19168167908509
 20
701.15769075960065
 30
0.0
 40
25.0
 50
306.46672000000018
 51
233.53329000000349
  0
ARC
  5
B81C
  8
0
  6
CONTINUOUS
 62
     7
 10
468.90805167908547
 20
683.29776075960092
 30
0.0
 40
1.0
 50
101.21328999999881
 51
164.999990000005
  0
ARC
  5
B81D
  8
0
  6
CONTINUOUS
 62
     7
 10
487.47525167908509
 20
683.29776075960092
 30
0.0
 40
1.0
 50
15.000000000000741
 51
78.786710000001207
  0
ARC
  5
B81E
  8
0
  6
CONTINUOUS
 62
     7
 10
459.76663167908509
 20
676.22742075960093
 30
0.0
 40
6.0
 50
349.72994999999878
 51
53.533291000004859
  0
ARC
  5
B81F
  8
0
  6
CONTINUOUS
 62
     7
 10
496.61667167908507
 20
676.22742075960093
 30
0.0
 40
6.0
 50
126.46669999999671
 51
190.27005999999921
  0
ARC
  5
B820
  8
0
  6
CONTINUOUS
 62
     7
 10
428.19168167908509
 20
605.88489075960103
 30
0.0
 40
2.0
 50
0.0
 51
90.00000299999769
  0
ARC
  5
B821
  8
0
  6
CONTINUOUS
 62
     7
 10
428.19168167908509
 20
590.32852075960102
 30
0.0
 40
2.0
 50
0.0
 51
90.00000299999769
  0
ARC
  5
B822
  8
0
  6
CONTINUOUS
 62
     7
 10
428.19168167908509
 20
425.98682075960079
 30
0.0
 40
2.0
 50
270.0
 51
0.0
  0
ARC
  5
B823
  8
0
  6
CONTINUOUS
 62
     7
 10
428.19168167908509
 20
410.43047075960101
 30
0.0
 40
2.0
 50
270.0
 51
0.0
  0
ARC
  5
B824
  8
0
  6
CONTINUOUS
 62
     7
 10
541.19162167908507
 20
413.7587407596011
 30
0.0
 40
5.0
 50
179.999989999999
 51
270.0
  0
ARC
  5
B825
  8
0
  6
CONTINUOUS
 62
     7
 10
624.19162167908507
 20
712.56094075960073
 30
0.0
 40
5.0
 50
91.999998000000545
 51
180.000010000001
  0
ARC
  5
B826
  8
0
  6
CONTINUOUS
 62
     7
 10
624.19162167908507
 20
393.15767075960122
 30
0.0
 40
5.0
 50
179.999989999999
 51
270.0
  0
ARC
  5
B827
  8
0
  6
CONTINUOUS
 62
     7
 10
541.19162167908507
 20
428.40360075960058
 30
0.0
 40
5.0
 50
90.00000299999769
 51
180.000010000001
  0
ARC
  5
B828
  8
0
  6
CONTINUOUS
 62
     7
 10
620.19162167908507
 20
468.82103075960077
 30
0.0
 40
8.0
 50
270.0
 51
0.0
  0
ARC
  5
B829
  8
0
  6
CONTINUOUS
 62
     7
 10
620.19162167908507
 20
428.80853075960079
 30
0.0
 40
8.0
 50
270.0
 51
0.0
  0
ARC
  5
B82A
  8
0
  6
CONTINUOUS
 62
     7
 10
620.19162167908507
 20
619.49432075960101
 30
0.0
 40
8.0
 50
0.0
 51
90.00000299999769
  0
ARC
  5
B82B
  8
0
  6
CONTINUOUS
 62
     7
 10
620.19162167908507
 20
677.50681075960074
 30
0.0
 40
8.0
 50
0.0
 51
90.00000299999769
  0
ARC
  5
B82C
  8
0
  6
CONTINUOUS
 62
     7
 10
626.48404167908518
 20
511.40830075960088
 30
0.0
 40
8.0
 50
185.2982400000015
 51
270.0
  0
ARC
  5
B82D
  8
0
  6
CONTINUOUS
 62
     7
 10
597.71133167908545
 20
687.8194607596007
 30
0.0
 40
10.0
 50
271.50000000000267
 51
315.0
  0
ARC
  5
B82E
  8
0
  6
CONTINUOUS
 62
     7
 10
578.29678167908503
 20
368.01111075960091
 30
0.0
 40
10.0
 50
268.49999999999733
 51
300.00000000000051
  0
ARC
  5
B82F
  8
0
  6
CONTINUOUS
 62
     7
 10
604.88485167908505
 20
644.03122075960096
 30
0.0
 40
5.0
 50
270.0
 51
306.25554999999889
  0
ARC
  5
B830
  8
0
  6
CONTINUOUS
 62
     7
 10
581.13003167908505
 20
644.03122075960096
 30
0.0
 40
5.0
 50
179.999989999999
 51
270.0
  0
ARC
  5
B831
  8
0
  6
CONTINUOUS
 62
     7
 10
581.13003167908505
 20
646.24408075960059
 30
0.0
 40
5.0
 50
121.18235999999629
 51
180.000010000001
  0
ARC
  5
B832
  8
0
  6
CONTINUOUS
 62
     7
 10
614.19162167908519
 20
677.94177075960101
 30
0.0
 40
5.0
 50
301.18235999999632
 51
0.0
  0
ARC
  5
B833
  8
0
  6
CONTINUOUS
 62
     7
 10
488.19168167908532
 20
362.43825075960098
 30
0.0
 40
2.0
 50
179.999989999999
 51
268.00000999999861
  0
ARC
  5
B834
  8
0
  6
CONTINUOUS
 62
     7
 10
481.19162167908519
 20
372.70754075960099
 30
0.0
 40
5.0
 50
0.0
 51
32.347444999999489
  0
LINE
  5
B896
  8
0
  6
AM_ISO08W050
 62
     0
 10
1189.965993619026
 20
553.15769075960111
 30
0.0
 11
844.43217361902623
 21
553.15769075960111
 31
0.0
  0
LINE
  5
B897
  8
0
  6
AM_ISO08W050
 62
     0
 10
1016.467763619026
 20
347.15765075960121
 30
0.0
 11
1016.467763619026
 21
729.15698075960063
 31
0.0
  0
LINE
  5
B898
  8
0
  6
CONTINUOUS
 62
     7
 10
947.26752361902618
 20
359.6561407596011
 30
0.0
 11
924.49262361902629
 21
375.60329075960112
 31
0.0
  0
LINE
  5
B899
  8
0
  6
CONTINUOUS
 62
     7
 10
893.11762361902618
 20
676.50781075960117
 30
0.0
 11
864.35126361902621
 21
705.27417075960102
 31
0.0
  0
LINE
  5
B89A
  8
0
  6
CONTINUOUS
 62
     7
 10
954.62073361902617
 20
357.33768075960108
 30
0.0
 11
1078.3147636190261
 21
357.33768075960108
 31
0.0
  0
LINE
  5
B89B
  8
0
  6
CONTINUOUS
 62
     7
 10
1085.6680236190259
 20
359.65613075960113
 30
0.0
 11
1108.4428936190261
 21
375.60326075960108
 31
0.0
  0
LINE
  5
B89D
  8
0
  6
CONTINUOUS
 62
     7
 10
889.86210361902613
 20
538.15769075960111
 30
0.0
 11
936.46778361902625
 21
538.15769075960111
 31
0.0
  0
LINE
  5
B89E
  8
0
  6
CONTINUOUS
 62
     7
 10
1143.073449619026
 20
538.15769075960111
 30
0.0
 11
1096.4677536190261
 21
538.15769075960111
 31
0.0
  0
LINE
  5
B89F
  8
0
  6
CONTINUOUS
 62
     7
 10
961.46778361902625
 20
388.1576707596011
 30
0.0
 11
1071.4677536190261
 21
388.1576707596011
 31
0.0
  0
LINE
  5
B8A0
  8
0
  6
CONTINUOUS
 62
     7
 10
961.46778361902625
 20
718.15769075960065
 30
0.0
 11
1071.4677536190261
 21
718.15769075960065
 31
0.0
  0
LINE
  5
B8A1
  8
0
  6
CONTINUOUS
 62
     7
 10
851.46778361902636
 20
498.15769075960111
 30
0.0
 11
851.46778361902636
 21
608.15769075960088
 31
0.0
  0
LINE
  5
B8A2
  8
0
  6
CONTINUOUS
 62
     7
 10
961.46772361902617
 20
388.1576707596011
 30
0.0
 11
874.92893361902622
 21
392.69298075960108
 31
0.0
  0
LINE
  5
B8A3
  8
0
  6
CONTINUOUS
 62
     7
 10
1181.4677556190261
 20
498.15769075960111
 30
0.0
 11
1181.4677556190261
 21
608.15769075960088
 31
0.0
  0
LINE
  5
B8A4
  8
0
  6
CONTINUOUS
 62
     7
 10
1068.256343619026
 20
613.43155075960101
 30
0.0
 11
1101.6901836190259
 21
646.86539075960093
 31
0.0
  0
LINE
  5
B8A5
  8
0
  6
CONTINUOUS
 62
     7
 10
941.46778361902614
 20
553.15769075960111
 30
0.0
 11
941.46778361902614
 21
543.15769075960111
 31
0.0
  0
LINE
  5
B8A6
  8
0
  6
CONTINUOUS
 62
     7
 10
1138.144213619026
 20
431.48122075960077
 30
0.0
 11
1168.5842756190259
 21
401.04115075960101
 31
0.0
  0
LINE
  5
B8A7
  8
0
  6
CONTINUOUS
 62
     7
 10
1091.4677536190261
 20
553.15769075960111
 30
0.0
 11
1091.4677536190261
 21
543.15769075960111
 31
0.0
  0
LINE
  5
B8A8
  8
0
  6
CONTINUOUS
 62
     7
 10
1076.7416336190261
 20
604.94629075960097
 30
0.0
 11
1110.175453619026
 21
638.38010075960096
 31
0.0
  0
LINE
  5
B8A9
  8
0
  6
CONTINUOUS
 62
     7
 10
1139.0462536190259
 20
675.73615075960095
 30
0.0
 11
1168.5842836190261
 21
705.27417075960102
 31
0.0
  0
LINE
  5
B8AA
  8
0
  6
CONTINUOUS
 62
     7
 10
964.67917361902619
 20
613.43155075960101
 30
0.0
 11
931.24531361902643
 21
646.86539075960093
 31
0.0
  0
LINE
  5
B8AB
  8
0
  6
CONTINUOUS
 62
     7
 10
956.19388361902634
 20
604.94626075960093
 30
0.0
 11
922.76005361902617
 21
638.38010075960096
 31
0.0
  0
LINE
  5
B8AC
  8
0
  6
CONTINUOUS
 62
     7
 10
894.79130361902605
 20
431.48120075960082
 30
0.0
 11
864.35126361902621
 21
401.04115075960101
 31
0.0
  0
LINE
  5
B8AD
  8
0
  6
CONTINUOUS
 62
     7
 10
851.46775361902621
 20
608.15769075960088
 30
0.0
 11
856.00306361902619
 21
694.69647075960063
 31
0.0
  0
LINE
  5
B8AE
  8
0
  6
CONTINUOUS
 62
     7
 10
1071.4677536190261
 20
718.15769075960065
 30
0.0
 11
1158.006570619026
 21
713.62238075960113
 31
0.0
  0
LINE
  5
B8AF
  8
0
  6
CONTINUOUS
 62
     7
 10
1071.4677536190261
 20
388.1576707596011
 30
0.0
 11
1158.0065856190261
 21
392.69298075960108
 31
0.0
  0
LINE
  5
B8B0
  8
0
  6
CONTINUOUS
 62
     7
 10
1181.4677596190261
 20
608.1576507596011
 30
0.0
 11
1176.932450619026
 21
694.69647075960063
 31
0.0
  0
LINE
  5
B8B1
  8
0
  6
CONTINUOUS
 62
     7
 10
1181.467752619026
 20
498.15769075960111
 30
0.0
 11
1176.9324436190259
 21
411.61885075960078
 31
0.0
  0
LINE
  5
B8B2
  8
0
  6
CONTINUOUS
 62
     7
 10
851.46775361902621
 20
498.15769075960111
 30
0.0
 11
856.00306361902619
 21
411.61885075960078
 31
0.0
  0
LINE
  5
B8B3
  8
0
  6
CONTINUOUS
 62
     7
 10
961.46775361902621
 20
718.1576507596011
 30
0.0
 11
874.92893361902622
 21
713.62238075960113
 31
0.0
  0
LINE
  5
B8B4
  8
0
  6
CONTINUOUS
 62
     7
 10
1008.467733619026
 20
574.65765075960076
 30
0.0
 11
1024.4677536190261
 21
574.65765075960076
 31
0.0
  0
LINE
  5
B8B5
  8
0
  6
CONTINUOUS
 62
     7
 10
1008.467733619026
 20
584.6576507596011
 30
0.0
 11
1024.4677536190261
 21
584.6576507596011
 31
0.0
  0
LINE
  5
B8B6
  8
0
  6
CONTINUOUS
 62
     7
 10
1008.467733619026
 20
574.65765075960076
 30
0.0
 11
1008.467733619026
 21
584.6576507596011
 31
0.0
  0
LINE
  5
B8B7
  8
0
  6
CONTINUOUS
 62
     7
 10
1024.4677536190261
 20
574.65765075960076
 30
0.0
 11
1024.4677536190261
 21
584.6576507596011
 31
0.0
  0
LINE
  5
B8B8
  8
0
  6
CONTINUOUS
 62
     7
 10
1021.467753619026
 20
721.15769075960111
 30
0.0
 11
1021.467753619026
 21
718.15769075960065
 31
0.0
  0
LINE
  5
B8B9
  8
0
  6
CONTINUOUS
 62
     7
 10
1011.467763619026
 20
721.15769075960111
 30
0.0
 11
1011.467763619026
 21
718.15769075960065
 31
0.0
  0
ARC
  5
B8BA
  8
0
  6
CONTINUOUS
 62
     7
 10
1016.467763619026
 20
553.15769075960111
 30
0.0
 40
75.0
 50
52.903206000003003
 51
127.0967900000017
  0
ARC
  5
B8BB
  8
0
  6
CONTINUOUS
 62
     7
 10
1016.467763619026
 20
553.15769075960111
 30
0.0
 40
75.0
 50
142.9032099999983
 51
180.000010000001
  0
ARC
  5
B8BC
  8
0
  6
CONTINUOUS
 62
     7
 10
1098.154653619026
 20
650.40091075960117
 30
0.0
 40
5.0
 50
315.0
 51
49.96885100000106
  0
ARC
  5
B8BD
  8
0
  6
CONTINUOUS
 62
     7
 10
1064.7208236190261
 20
616.96707075960103
 30
0.0
 40
5.0
 50
232.9032099999983
 51
315.0
  0
ARC
  5
B8BE
  8
0
  6
CONTINUOUS
 62
     7
 10
968.21467361902614
 20
616.96707075960103
 30
0.0
 40
5.0
 50
225.0
 51
307.0967900000017
  0
ARC
  5
B8BF
  8
0
  6
CONTINUOUS
 62
     7
 10
983.46775361902621
 20
459.8284907596011
 30
0.0
 40
102.81999
 50
222.0151799999984
 51
235.00000000000259
  0
ARC
  5
B8C0
  8
0
  6
CONTINUOUS
 62
     7
 10
954.62073361902617
 20
370.15767075960122
 30
0.0
 40
12.82
 50
235.00000000000259
 51
270.0
  0
ARC
  5
B8C1
  8
0
  6
CONTINUOUS
 62
     7
 10
1078.3147636190261
 20
370.15767075960122
 30
0.0
 40
12.82
 50
270.0
 51
304.99999999999739
  0
ARC
  5
B8C2
  8
0
  6
CONTINUOUS
 62
     7
 10
1049.4677536190261
 20
459.8284907596011
 30
0.0
 40
102.81999
 50
304.99999999999739
 51
317.98482000000149
  0
ARC
  5
B8C3
  8
0
  6
CONTINUOUS
 62
     7
 10
1080.277153619026
 20
601.41074075960091
 30
0.0
 40
5.0
 50
135.0
 51
217.09680000000171
  0
CIRCLE
  5
B8C4
  8
0
  6
CONTINUOUS
 62
     7
 10
1016.467763619026
 20
553.15769075960111
 30
0.0
 40
132.0
  0
ARC
  5
B8C5
  8
0
  6
CONTINUOUS
 62
     7
 10
889.86210361902613
 20
543.15769075960111
 30
0.0
 40
5.0
 50
184.5161599999995
 51
270.0
  0
ARC
  5
B8C6
  8
0
  6
CONTINUOUS
 62
     7
 10
934.78086361902626
 20
650.40091075960117
 30
0.0
 40
5.0
 50
130.03114999999781
 51
225.0
  0
ARC
  5
B8C7
  8
0
  6
CONTINUOUS
 62
     7
 10
1016.467763619026
 20
553.15769075960111
 30
0.0
 40
60.0
 50
90.00000299999769
 51
270.0
  0
ARC
  5
B8C8
  8
0
  6
CONTINUOUS
 62
     7
 10
952.65833361902605
 20
601.41074075960091
 30
0.0
 40
5.0
 50
322.9032099999983
 51
45.000001000003799
  0
ARC
  5
B8C9
  8
0
  6
CONTINUOUS
 62
     7
 10
1016.467763619026
 20
553.15769075960111
 30
0.0
 40
60.0
 50
270.0
 51
90.00000299999769
  0
CIRCLE
  5
B8CA
  8
0
  6
CONTINUOUS
 62
     7
 10
1016.467763619026
 20
553.15769075960111
 30
0.0
 40
140.0
  0
ARC
  5
B8CB
  8
0
  6
CONTINUOUS
 62
     7
 10
919.22449361902602
 20
634.84457075960108
 30
0.0
 40
5.0
 50
45.000001000003799
 51
139.96885000000219
  0
ARC
  5
B8CC
  8
0
  6
CONTINUOUS
 62
     7
 10
1113.7109936190261
 20
634.84457075960108
 30
0.0
 40
5.0
 50
40.031148000000073
 51
135.0
  0
ARC
  5
B8CD
  8
0
  6
CONTINUOUS
 62
     7
 10
936.46778361902625
 20
543.15769075960111
 30
0.0
 40
5.0
 50
270.0
 51
0.0
  0
ARC
  5
B8CE
  8
0
  6
CONTINUOUS
 62
     7
 10
1096.4677536190261
 20
543.15769075960111
 30
0.0
 40
5.0
 50
179.999989999999
 51
270.0
  0
CIRCLE
  5
B8CF
  8
0
  6
CONTINUOUS
 62
     7
 10
1154.353585619026
 20
691.04349075960101
 30
0.0
 40
9.5
  0
CIRCLE
  5
B8D0
  8
0
  6
CONTINUOUS
 62
     7
 10
878.58195361902619
 20
691.04349075960101
 30
0.0
 40
9.5
  0
ARC
  5
B8D1
  8
0
  6
CONTINUOUS
 62
     7
 10
1016.467763619026
 20
553.15769075960111
 30
0.0
 40
195.0
 50
308.54983999999848
 51
320.46632999999719
  0
CIRCLE
  5
B8D2
  8
0
  6
CONTINUOUS
 62
     7
 10
878.58195361902619
 20
415.2718507596008
 30
0.0
 40
9.5
  0
ARC
  5
B8D3
  8
0
  6
CONTINUOUS
 62
     7
 10
1016.467763619026
 20
553.15769075960111
 30
0.0
 40
195.0
 50
39.367219000001789
 51
50.896188999998408
  0
CIRCLE
  5
B8D4
  8
0
  6
CONTINUOUS
 62
     7
 10
1154.353585619026
 20
415.2718507596008
 30
0.0
 40
9.5
  0
ARC
  5
B8D5
  8
0
  6
CONTINUOUS
 62
     7
 10
1016.467763619026
 20
553.15769075960111
 30
0.0
 40
195.0
 50
128.48366000000189
 51
140.9156299999969
  0
ARC
  5
B8D6
  8
0
  6
CONTINUOUS
 62
     7
 10
1016.467763619026
 20
553.15769075960111
 30
0.0
 40
195.0
 50
218.1653200000016
 51
232.1288600000004
  0
ARC
  5
B8D7
  8
0
  6
CONTINUOUS
 62
     7
 10
1156.959863619026
 20
693.64978075960084
 30
0.0
 40
20.0
 50
3.0000000999988461
 51
86.999999000003484
  0
ARC
  5
B8D8
  8
0
  6
CONTINUOUS
 62
     7
 10
875.97568361902609
 20
693.64978075960084
 30
0.0
 40
20.0
 50
92.999999000001679
 51
176.99999000000031
  0
ARC
  5
B8D9
  8
0
  6
CONTINUOUS
 62
     7
 10
1156.959863619026
 20
412.66557075960111
 30
0.0
 40
20.0
 50
272.99999999999892
 51
357.00000000000108
  0
ARC
  5
B8DA
  8
0
  6
CONTINUOUS
 62
     7
 10
1016.467763619026
 20
553.15769075960111
 30
0.0
 40
75.0
 50
0.0
 51
37.096792999996879
  0
ARC
  5
B8DB
  8
0
  6
CONTINUOUS
 62
     7
 10
875.97568361902609
 20
412.66557075960111
 30
0.0
 40
20.0
 50
183.00000999999969
 51
267.00000000000102
  0
ARC
  5
B8DC
  8
0
  6
CONTINUOUS
 62
     7
 10
1143.073449619026
 20
543.15769075960111
 30
0.0
 40
5.0
 50
270.0
 51
355.48384999999843
  0
CIRCLE
  5
B8DD
  8
0
  6
CONTINUOUS
 62
     7
 10
1016.467763619026
 20
553.15769075960111
 30
0.0
 40
6.0
  0
CIRCLE
  5
B8DE
  8
0
  6
CONTINUOUS
 62
     7
 10
1016.467763619026
 20
553.15769075960111
 30
0.0
 40
4.5
  0
ARC
  5
B8DF
  8
0
  6
CONTINUOUS
 62
     7
 10
1016.467763619026
 20
553.15769075960111
 30
0.0
 40
27.5
 50
106.9123899999986
 51
73.087596999999832
  0
ARC
  5
B8E0
  8
0
  6
CONTINUOUS
 62
     7
 10
1016.467763619026
 20
721.15769075960111
 30
0.0
 40
5.0
 50
359.999989999999
 51
179.999989999999
  0
LINE
  5
B8E1
  8
0
  6
CONTINUOUS
 62
     7
 10
815.64149861902683
 20
452.2481407596004
 30
0.0
 11
815.64149861902683
 21
528.82920075960055
 31
0.0
  0
LINE
  5
B8E2
  8
0
  6
CONTINUOUS
 62
     7
 10
817.43079861902663
 20
444.6475257596008
 30
0.0
 11
851.46778361902636
 21
512.91525949262973
 31
0.0
  0
LINE
  5
B8E3
  8
0
  6
CONTINUOUS
 62
     7
 10
813.63214861902645
 20
448.21747075960087
 30
0.0
 11
851.46778361902636
 21
524.11477452049098
 31
0.0
  0
LINE
  5
B8E4
  8
0
  6
CONTINUOUS
 62
     7
 10
820.4990486190261
 20
450.8015507596009
 30
0.0
 11
853.94957004448975
 21
450.80182874519568
 31
0.0
  0
LINE
  5
B8E5
  8
0
  6
CONTINUOUS
 62
     7
 10
814.30529861902664
 20
446.20584575960112
 30
0.0
 11
817.43074861902619
 21
444.64755575960078
 31
0.0
  0
ARC
  5
B8E6
  8
0
  6
CONTINUOUS
 62
     7
 10
814.97464861902654
 20
447.54825075960099
 30
0.0
 40
1.5
 50
153.50322999999511
 51
243.50011999999981
  0
LINE
  5
B8E7
  8
0
  6
CONTINUOUS
 62
     7
 10
854.05438542236539
 20
448.80183288702909
 30
0.0
 11
831.01104861902661
 21
448.8016407596009
 31
0.0
  0
ARC
  5
B8E8
  8
0
  6
CONTINUOUS
 62
     7
 10
830.01104861902661
 20
449.8016407596009
 30
0.0
 40
1.0
 50
359.99976000000191
 51
90.000097999994225
  0
LINE
  5
B8E9
  8
0
  6
CONTINUOUS
 62
     7
 10
831.01104861902661
 20
449.80161075960052
 30
0.0
 11
831.01104861902661
 21
448.801670759601
 31
0.0
  0
LINE
  5
B8EA
  8
0
  6
CONTINUOUS
 62
     7
 10
849.01099861902651
 20
454.45633575960079
 30
0.0
 11
849.01099861902651
 21
444.29678575960082
 31
0.0
  0
LINE
  5
B8EB
  8
0
  6
CONTINUOUS
 62
     7
 10
844.83379861902642
 20
562.99219575960092
 30
0.0
 11
819.1561986190261
 21
537.31452075960067
 31
0.0
  0
ARC
  5
B8EC
  8
0
  6
CONTINUOUS
 62
     7
 10
827.64149861902661
 20
528.82920075960055
 30
0.0
 40
12.0
 50
135.0000000000046
 51
180.000010000001
  0
ARC
  5
B8ED
  8
0
  6
CONTINUOUS
 62
     7
 10
854.02624861902609
 20
553.7997507596009
 30
0.0
 40
12.99999899999999
 50
101.3501868805095
 51
135.0000000000046
  0
TEXT
  5
BB3C
  8
0
  6
CONTINUOUS
 62
     0
 10
855.21861416196725
 20
952.43402276746986
 30
0.0
 40
15.0
  1
VX75-003EMF~VX75-020EMF
  0
ENDSEC
  0
EOF
