  0
SECTION
  2
HEADER
  9
$ACADVER
  1
AC1009
  9
$INSBASE
 10
0.0
 20
0.0
 30
0.0
  9
$EXTMIN
 10
137.86546799174579
 20
424.17544208696518
 30
-0.000000000000013
  9
$EXTMAX
 10
1356.7232707682001
 20
1257.6342176468629
 30
0.0000000000000023
  9
$LIMMIN
 10
0.0000005999945643
 20
-0.0000005963913736
  9
$LIMMAX
 10
1707.000000599995
 20
1109.9999994036091
  9
$ORTHOMODE
 70
     1
  9
$REGENMODE
 70
     1
  9
$FILLMODE
 70
     1
  9
$QTEXTMODE
 70
     0
  9
$MIRRTEXT
 70
     0
  9
$DRAGMODE
 70
     2
  9
$LTSCALE
 40
1.0
  9
$OSMODE
 70
   551
  9
$ATTMODE
 70
     1
  9
$TEXTSIZE
 40
2.5
  9
$TRACEWID
 40
1.0
  9
$TEXTSTYLE
  7
STANDARD
  9
$CLAYER
  8
0
  9
$CELTYPE
  6
BYLAYER
  9
$CECOLOR
 62
   256
  9
$DIMSCALE
 40
1.0
  9
$DIMASZ
 40
2.0
  9
$DIMEXO
 40
1.0
  9
$DIMDLI
 40
8.0
  9
$DIMRND
 40
0.0
  9
$DIMDLE
 40
0.0
  9
$DIMEXE
 40
1.0
  9
$DIMTP
 40
-0.025
  9
$DIMTM
 40
0.043
  9
$DIMTXT
 40
2.5
  9
$DIMCEN
 40
0.0
  9
$DIMTSZ
 40
0.0
  9
$DIMTOL
 70
     0
  9
$DIMLIM
 70
     0
  9
$DIMTIH
 70
     0
  9
$DIMTOH
 70
     0
  9
$DIMSE1
 70
     0
  9
$DIMSE2
 70
     0
  9
$DIMTAD
 70
     3
  9
$DIMZIN
 70
     8
  9
$DIMBLK
  1

  9
$DIMASO
 70
     1
  9
$DIMSHO
 70
     1
  9
$DIMPOST
  1

  9
$DIMAPOST
  1
"
  9
$DIMALT
 70
     0
  9
$DIMALTD
 70
     2
  9
$DIMALTF
 40
0.0393701
  9
$DIMLFAC
 40
1.0
  9
$DIMTOFL
 70
     1
  9
$DIMTVP
 40
0.0
  9
$DIMTIX
 70
     0
  9
$DIMSOXD
 70
     0
  9
$DIMSAH
 70
     0
  9
$DIMBLK1
  1

  9
$DIMBLK2
  1

  9
$DIMSTYLE
  2
AM_JIS
  9
$DIMCLRD
 70
     2
  9
$DIMCLRE
 70
     2
  9
$DIMCLRT
 70
     4
  9
$DIMTFAC
 40
0.71
  9
$DIMGAP
 40
1.5
  9
$LUNITS
 70
     2
  9
$LUPREC
 70
     2
  9
$SKETCHINC
 40
1.0
  9
$FILLETRAD
 40
0.0
  9
$AUNITS
 70
     0
  9
$AUPREC
 70
     0
  9
$MENU
  1
.
  9
$ELEVATION
 40
0.0
  9
$PELEVATION
 40
0.0
  9
$THICKNESS
 40
0.0
  9
$LIMCHECK
 70
     0
  9
$BLIPMODE
 70
     0
  9
$CHAMFERA
 40
3.0
  9
$CHAMFERB
 40
3.0
  9
$SKPOLY
 70
     0
  9
$TDCREATE
 40
2456829.3841110538
  9
$TDUPDATE
 40
2458540.670907327
  9
$TDINDWG
 40
0.5688984722
  9
$TDUSRTIMER
 40
0.5688981019
  9
$USRTIMER
 70
     1
  9
$ANGBASE
 50
0.0
  9
$ANGDIR
 70
     0
  9
$PDMODE
 70
     0
  9
$PDSIZE
 40
0.0
  9
$PLINEWID
 40
0.0
  9
$COORDS
 70
     1
  9
$SPLFRAME
 70
     0
  9
$SPLINETYPE
 70
     6
  9
$SPLINESEGS
 70
     8
  9
$ATTDIA
 70
     1
  9
$ATTREQ
 70
     1
  9
$HANDLING
 70
     1
  9
$HANDSEED
  5
C522
  9
$SURFTAB1
 70
     6
  9
$SURFTAB2
 70
     6
  9
$SURFTYPE
 70
     6
  9
$SURFU
 70
     6
  9
$SURFV
 70
     6
  9
$UCSNAME
  2

  9
$UCSORG
 10
0.0
 20
0.0
 30
0.0
  9
$UCSXDIR
 10
1.0
 20
0.0
 30
0.0
  9
$UCSYDIR
 10
0.0
 20
1.0
 30
0.0
  9
$PUCSNAME
  2

  9
$PUCSORG
 10
0.0
 20
0.0
 30
0.0
  9
$PUCSXDIR
 10
1.0
 20
0.0
 30
0.0
  9
$PUCSYDIR
 10
0.0
 20
1.0
 30
0.0
  9
$USERI1
 70
     0
  9
$USERI2
 70
     0
  9
$USERI3
 70
     0
  9
$USERI4
 70
     0
  9
$USERI5
 70
     0
  9
$USERR1
 40
0.0
  9
$USERR2
 40
0.0
  9
$USERR3
 40
0.0
  9
$USERR4
 40
0.0
  9
$USERR5
 40
0.0
  9
$WORLDVIEW
 70
     1
  9
$SHADEDGE
 70
     3
  9
$SHADEDIF
 70
    70
  9
$TILEMODE
 70
     1
  9
$MAXACTVP
 70
    64
  9
$PLIMCHECK
 70
     0
  9
$PEXTMIN
 10
1.0000000000000000E+020
 20
1.0000000000000000E+020
 30
1.0000000000000000E+020
  9
$PEXTMAX
 10
-1.0000000000000000E+020
 20
-1.0000000000000000E+020
 30
-1.0000000000000000E+020
  9
$PLIMMIN
 10
0.0
 20
0.0
  9
$PLIMMAX
 10
420.0
 20
297.0
  9
$UNITMODE
 70
     0
  9
$VISRETAIN
 70
     1
  9
$PLINEGEN
 70
     0
  9
$PSLTSCALE
 70
     1
  0
ENDSEC
  0
SECTION
  2
TABLES
  0
TABLE
  2
VPORT
 70
     1
  0
VPORT
  2
*ACTIVE
 70
     0
 10
0.0
 20
0.0
 11
1.0
 21
1.0
 12
747.29436937997332
 22
840.90482986691416
 13
0.0
 23
0.0
 14
15.0
 24
15.0
 15
60.0
 25
60.0
 16
0.0
 26
0.0
 36
1.0
 17
0.0
 27
0.0
 37
0.0
 40
839.18046051797478
 41
1.7571592210767459
 42
50.0
 43
0.0
 44
0.0
 50
0.0
 51
0.0
 71
     0
 72
  1000
 73
     1
 74
     3
 75
     0
 76
     0
 77
     0
 78
     0
  0
ENDTAB
  0
TABLE
  2
LTYPE
 70
    24
  0
LTYPE
  2
CONTINUOUS
 70
     0
  3
Solid line
 72
    65
 73
     0
 40
0.0
  0
LTYPE
  2
CENTER
 70
     0
  3
Center ____ _ ____ _ ____ _ ____ _ ____ _ ____
 72
    65
 73
     4
 40
50.799999999999997
 49
31.75
 49
-6.3499999999999979
 49
6.3499999999999979
 49
-6.3499999999999979
  0
LTYPE
  2
AM_ISO02W050
 70
     0
  3
__ __ __ __ __ __ __ __ __ __ __ __ __ __ __
 72
    65
 73
     2
 40
7.5
 49
6.0
 49
-1.5
  0
LTYPE
  2
AM_ISO08W050
 70
     0
  3
____ . ____ . ____ . ____ . ____ . ____ . ____
 72
    65
 73
     4
 40
18.0
 49
12.0
 49
-1.5
 49
3.0
 49
-1.5
  0
LTYPE
  2
AM_ISO09W050
 70
     0
  3
_____ . . _____ . . _____ . . ____ .. ____
 72
    65
 73
     6
 40
22.5
 49
12.0
 49
-1.5
 49
3.0
 49
-1.5
 49
3.0
 49
-1.5
  0
LTYPE
  2
AMCONSTR
 70
     0
  3
_______________________
 72
    65
 73
     2
 40
9999.0
 49
9999.0
 49
0.0
  0
LTYPE
  2
AM_ISO08W050X2
 70
     0
  3
__ . __ . __ . __ . __ . __
 72
    65
 73
     4
 40
9.0
 49
6.0
 49
-0.75
 49
1.5
 49
-0.75
  0
LTYPE
  2
AM_ISO02W050X2
 70
     0
  3
 _ _ _ _ _ _ _ _ _ _ _ _
 72
    65
 73
     2
 40
3.75
 49
3.0
 49
-0.75
  0
LTYPE
  2
AMZIGZAG
 70
     0
  3
/\/-/\/-/\/-/\/-/\/-/\/
 72
    65
 73
     2
 40
11.0001
 49
0.0001
 49
-11.0
  0
LTYPE
  2
ACANSTGBM
 70
     0
  3
__ . . __ . .
 72
    65
 73
     6
 40
9.0
 49
4.0
 49
-1.0
 49
1.0
 49
-1.0
 49
1.0
 49
-1.0
  0
LTYPE
  2
ACANSTGLM
 70
     0
  3
_ _ _ _ _
 72
    65
 73
     2
 40
3.0
 49
2.0
 49
-1.0
  0
LTYPE
  2
ACISOWELD
 70
     0
  3
_ _ _ _ _
 72
    65
 73
     2
 40
2.0
 49
2.0
 49
-1.0
  0
LTYPE
  2
ACISOTGB
 70
     0
  3
__ . . __ . .
 72
    65
 73
     6
 40
9.0
 49
4.0
 49
-1.0
 49
1.0
 49
-1.0
 49
1.0
 49
-1.0
  0
LTYPE
  2
ACISOTGL
 70
     0
  3
_ _ _ _ _
 72
    65
 73
     2
 40
3.0
 49
2.0
 49
-1.0
  0
LTYPE
  2
ACJISTGB
 70
     0
  3
__ . . __ . .
 72
    65
 73
     6
 40
9.0
 49
4.0
 49
-1.0
 49
1.0
 49
-1.0
 49
1.0
 49
-1.0
  0
LTYPE
  2
ACJISTGL
 70
     0
  3
_ _ _ _ _
 72
    65
 73
     2
 40
3.0
 49
2.0
 49
-1.0
  0
LTYPE
  2
HIDDEN
 70
     0
  3
Hidden __ __ __ __ __ __ __ __ __ __ __ __ __ _
 72
    65
 73
     2
 40
9.5249999999999968
 49
6.3499999999999979
 49
-3.174999999999998
  0
LTYPE
  2
PHANTOM2
 70
     0
  3
Phantom (.5x) ___ _ _ ___ _ _ ___ _ _ ___ _ _
 72
    65
 73
     6
 40
31.75
 49
15.875
 49
-3.174999999999998
 49
3.174999999999998
 49
-3.174999999999998
 49
3.174999999999998
 49
-3.174999999999998
  0
LTYPE
  2
CENTER2
 70
     0
  3
Center (.5x) ___ _ ___ _ ___ _ ___ _ ___ _ ___
 72
    65
 73
     4
 40
1.125
 49
0.75
 49
-0.125
 49
0.125
 49
-0.125
  0
LTYPE
  2
HIDDEN2
 70
     0
  3
Hidden (.5x) _ _ _ _ _ _ _ _ _ _ _ _ _ _ _ _ _
 72
    65
 73
     2
 40
0.1875
 49
0.125
 49
-0.0625
  0
LTYPE
  2
AMZIGZAG2
 70
     0
  3
/\/-/\/-/\/-/\/-/\/-/\/
 72
    65
 73
     2
 40
0.4401
 49
0.0001
 49
-0.4400000000000003
  0
LTYPE
  2
ACANSTGB
 70
     0
  3
__ . . __ . .
 72
    65
 73
     6
 40
0.35433070866
 49
0.15748031496
 49
-0.03937007874
 49
0.03937007874
 49
-0.03937007874
 49
0.03937007874
 49
-0.03937007874
  0
LTYPE
  2
ACANSTGL
 70
     0
  3
_ _ _ _ _
 72
    65
 73
     2
 40
0.11811023622
 49
0.07874015748
 49
-0.03937007874
  0
ENDTAB
  0
TABLE
  2
LAYER
 70
     4
  0
LAYER
  2
0
 70
     0
 62
     7
  6
CONTINUOUS
  0
LAYER
  2
DEFPOINTS
 70
     0
 62
     7
  6
CONTINUOUS
  0
LAYER
  2
AM_5
 70
     0
 62
     2
  6
CONTINUOUS
  0
LAYER
  2
AM_CL
 70
     0
 62
     1
  6
AMCONSTR
  0
ENDTAB
  0
TABLE
  2
STYLE
 70
     8
  0
STYLE
  2
STANDARD
 70
     0
 40
0.0
 41
0.7400000000000003
 50
0.0
 71
     0
 42
2.5
  3
txt.shx
  4
bigfont.shx
  0
STYLE
  2

 70
     1
 40
0.0
 41
1.0
 50
0.0
 71
     0
 42
2.5
  3
ltypeshp.shx
  4

  0
STYLE
  2
ACANSTS
 70
     0
 40
1.0
 41
1.0
 50
0.0
 71
     0
 42
2.5
  3
romans.shx
  4
bigfont.shx
  0
STYLE
  2
ACANSGDT
 70
     0
 40
0.0
 41
1.0
 50
0.0
 71
     0
 42
2.5
  3
amgdtans.shx
  4

  0
STYLE
  2
ACISOTS
 70
     0
 40
1.0
 41
1.0
 50
0.0
 71
     0
 42
2.5
  3
isocp.shx
  4
extfont.shx
  0
STYLE
  2
ACISOGDT
 70
     0
 40
0.0
 41
1.0
 50
0.0
 71
     0
 42
2.5
  3
amgdt.shx
  4

  0
STYLE
  2
ACJISGDT
 70
     0
 40
0.0
 41
1.0
 50
0.0
 71
     0
 42
2.5
  3
amgdt.shx
  4

  0
STYLE
  2
ACJISTS
 70
     0
 40
1.0
 41
1.0
 50
0.0
 71
     0
 42
2.5
  3
isocp.shx
  4
extfont.shx
  0
ENDTAB
  0
TABLE
  2
VIEW
 70
     6
  0
VIEW
  2
AM_VIEW1
 70
     0
 40
555.00000000000011
 10
586.60142408753904
 20
832.49999940360885
 41
1173.202846975089
 11
0.0
 21
0.0
 31
1.0
 12
0.0
 22
0.0
 32
0.0
 42
50.0
 43
0.0
 44
0.0
 50
0.0
 71
     0
  0
VIEW
  2
AM_VIEW2
 70
     0
 40
555.00000000000011
 10
1120.3985771124501
 20
832.49999940360885
 41
1173.202846975089
 11
0.0
 21
0.0
 31
1.0
 12
0.0
 22
0.0
 32
0.0
 42
50.0
 43
0.0
 44
0.0
 50
0.0
 71
     0
  0
VIEW
  2
AM_VIEW3
 70
     0
 40
555.00000000000011
 10
586.60142408753904
 20
277.49999940360868
 41
1173.202846975089
 11
0.0
 21
0.0
 31
1.0
 12
0.0
 22
0.0
 32
0.0
 42
50.0
 43
0.0
 44
0.0
 50
0.0
 71
     0
  0
VIEW
  2
AM_VIEW4
 70
     0
 40
555.00000000000011
 10
1120.3985771124501
 20
277.49999940360868
 41
1173.202846975089
 11
0.0
 21
0.0
 31
1.0
 12
0.0
 22
0.0
 32
0.0
 42
50.0
 43
0.0
 44
0.0
 50
0.0
 71
     0
  0
VIEW
  2
AM_VIEW5
 70
     0
 40
555.00000000000011
 10
853.50000059999445
 20
554.99999940360874
 41
1173.202846975089
 11
0.0
 21
0.0
 31
1.0
 12
0.0
 22
0.0
 32
0.0
 42
50.0
 43
0.0
 44
0.0
 50
0.0
 71
     0
  0
VIEW
  2
AM_VIEW6
 70
     0
 40
1109.9889000000001
 10
853.50000059999445
 20
554.99999940360874
 41
2346.3822298932391
 11
0.0
 21
0.0
 31
1.0
 12
0.0
 22
0.0
 32
0.0
 42
50.0
 43
0.0
 44
0.0
 50
0.0
 71
     0
  0
ENDTAB
  0
TABLE
  2
UCS
 70
     0
  0
ENDTAB
  0
TABLE
  2
APPID
 70
   157
  0
APPID
  2
ACAD
 70
     0
  0
APPID
  2
ACADANNOTATIVE
 70
     0
  0
APPID
  2
ACAD_MLEADERVER
 70
     0
  0
APPID
  2
MCAD_NO_VIS
 70
     0
  0
APPID
  2
ACAD_TEMP_GRAPHIC
 70
     0
  0
APPID
  2
AD_DRAW
 70
     0
  0
APPID
  2
ACATTRIBSERVICES
 70
     0
  0
APPID
  2
DESIGNERASSEMBLIES
 70
     0
  0
APPID
  2
ACADM_DIM_EDIT
 70
     0
  0
APPID
  2
AMDT_DM_ADJ
 70
     0
  0
APPID
  2
GENIUS_GENDIMSH_14
 70
     0
  0
APPID
  2
GEVID1057795304
 70
     0
  0
APPID
  2
GEVDC
 70
     0
  0
APPID
  2
GEVCON
 70
     0
  0
APPID
  2
GENIUS_GENBH_13
 70
     0
  0
APPID
  2
GENIUS_GENOENT_13
 70
     0
  0
APPID
  2
GENIUS_GENOBJ-NBEHI-BHF_13
 70
     0
  0
APPID
  2
GENIUS_GENOLIS_13
 70
     0
  0
APPID
  2
GENIUS_GENODEF_13
 70
     0
  0
APPID
  2
GENIUS_GENOREF_13
 70
     0
  0
APPID
  2
GENIUS_GENOBJ-NBEHI-BHB_13
 70
     0
  0
APPID
  2
GENIUS_GENOBJ-F-SCPASSM_13
 70
     0
  0
APPID
  2
GENIUS_GENDTOL_13
 70
     0
  0
APPID
  2
GENIUS_GENTRA_14
 70
     0
  0
APPID
  2
ASURF_PCURVE_APPNAME
 70
     0
  0
APPID
  2
GENIUS_GENCFG_13
 70
     0
  0
APPID
  2
GENIUS_GE3CFG0_13
 70
     0
  0
APPID
  2
GENIUS_GENCFG0_13
 70
     0
  0
APPID
  2
GENIUS_GENCFG1_13
 70
     0
  0
APPID
  2
GENIUS_GENCFG2_13
 70
     0
  0
APPID
  2
GENIUS_GENCFG3_13
 70
     0
  0
APPID
  2
GENIUS_GENCFG4_13
 70
     0
  0
APPID
  2
GENIUS_GEVCFG0_13
 70
     0
  0
APPID
  2
GENIUS_GENOBJ-N-TIT_13
 70
     0
  0
APPID
  2
GENIUS_GENTITLE_13
 70
     0
  0
APPID
  2
GENIUS_GENSCREG_15
 70
     0
  0
APPID
  2
GENIUS_GENOBJ-N-SDF_13
 70
     0
  0
APPID
  2
GENIUS_GENFIL_13
 70
     0
  0
APPID
  2
GENIUS_GENOBJ-N-CHA_13
 70
     0
  0
APPID
  2
GENIUS_GEFSH_13
 70
     0
  0
APPID
  2
GENIUS_GENOBJ-F-SHS_13
 70
     0
  0
APPID
  2
GENIUS_GENOBJ-N-CEN_13
 70
     0
  0
APPID
  2
GENIUS_GENREC_14
 70
     0
  0
APPID
  2
GENIUS_GENOBJ-N-REC_13
 70
     0
  0
APPID
  2
GENIUS_GENOBJ-N-HTC_13
 70
     0
  0
APPID
  2
GENIUS_GENHATCH_13
 70
     0
  0
APPID
  2
ACAD_PSEXT
 70
     0
  0
APPID
  2
ACAD_EXEMPT_FROM_CAD_STANDARDS
 70
     0
  0
APPID
  2
ACAECLAYERSTANDARD
 70
     0
  0
APPID
  2
GENIUS_GENCEN_19
 70
     0
  0
APPID
  2
ACAD_DSTYLE_DIMINSPECT
 70
     0
  0
APPID
  2
ACAD_DSTYLE_DIMANGULAR_EXT
 70
     0
  0
APPID
  2
ACADANNOPO
 70
     0
  0
APPID
  2
ACAD_NAV_VCDISPLAY
 70
     0
  0
APPID
  2
GENIUS_GENOBJ-N-FIL_13
 70
     0
  0
APPID
  2
ACAD_DSTYLE_DIMBREAK
 70
     0
  0
APPID
  2
ACAD_DSTYLE_DIMJAG
 70
     0
  0
APPID
  2
ACAD_DSTYLE_DIMRADIAL_EXTENSION
 70
     0
  0
APPID
  2
GENIUS_GENHINW_13
 70
     0
  0
APPID
  2
GENIUS_FIRSTVISTXT_14
 70
     0
  0
APPID
  2
GENIUS_GENOBJ-N-LEADER_13
 70
     0
  0
APPID
  2
GENIUS_DUMCFG0_13
 70
     0
  0
APPID
  2
ACAD_DSTYLE_DIMTEXT_FILL
 70
     0
  0
APPID
  2
AMG_2DHIDE
 70
     0
  0
APPID
  2
GENIUS_GEFSHEP_13
 70
     0
  0
APPID
  2
GENIUS_GENOBJ-F-SHE_13
 70
     0
  0
APPID
  2
GENIUS_GEFSHE_13
 70
     0
  0
APPID
  2
ACAD_DIMASSOC_DIMLFAC
 70
     0
  0
APPID
  2
ACAD_DIMASSOC_CALC_DIMLFAC
 70
     0
  0
APPID
  2
ACAD_DIMASSOC_OVERRIDDEN_D
 70
     0
  0
APPID
  2
GENIUS_GENOBJ-F-SHSV_13
 70
     0
  0
APPID
  2
GENIUS_GEFWELD_13
 70
     0
  0
APPID
  2
GENIUS_GENOBJ-N-CRS_13
 70
     0
  0
APPID
  2
GENIUS_GENOBJ-N-RSBK_13
 70
     0
  0
APPID
  2
GENIUS_GENOBJ-N-LIB_13
 70
     0
  0
APPID
  2
GENIUS_GENSCALE_13
 70
     0
  0
APPID
  2
GENIUS_GENDREL_13
 70
     0
  0
APPID
  2
GEVPT
 70
     0
  0
APPID
  2
GEVIT
 70
     0
  0
APPID
  2
VCC
 70
     0
  0
APPID
  2
GENBH
 70
     0
  0
APPID
  2
GEVMK
 70
     0
  0
APPID
  2
GENIUS_GENOBJ-F-DESC_13
 70
     0
  0
APPID
  2
GENIUS_GEFDESC_14
 70
     0
  0
APPID
  2
GENIUS_GENOBJ-F-FEAT_13
 70
     0
  0
APPID
  2
GENIUS_GEFFEAT_14
 70
     0
  0
APPID
  2
GENIUS_GEFPARTINS_13
 70
     0
  0
APPID
  2
GENIUS_GENSCREG_13
 70
     0
  0
APPID
  2
GENIUS_GEFSHP_13
 70
     0
  0
APPID
  2
GEVID1025574798
 70
     0
  0
APPID
  2
GEVID1025574769
 70
     0
  0
APPID
  2
GEVID1025757451
 70
     0
  0
APPID
  2
GEVID1240528327
 70
     0
  0
APPID
  2
AMG_2DSTRUCT_BTR
 70
     0
  0
APPID
  2
ACADM_2DVIEW_IGN_NOTIFY
 70
     0
  0
APPID
  2
GEVID1240528328
 70
     0
  0
APPID
  2
GEVID1240528329
 70
     0
  0
APPID
  2
GEVRADREF
 70
     0
  0
APPID
  2
GEVID1240528330
 70
     0
  0
APPID
  2
GEVID1240528331
 70
     0
  0
APPID
  2
GEVID1240528332
 70
     0
  0
APPID
  2
GEVID1240791080
 70
     0
  0
APPID
  2
GEVID1240791081
 70
     0
  0
APPID
  2
GEVID1240791082
 70
     0
  0
APPID
  2
GEVID1240791083
 70
     0
  0
APPID
  2
GEVID1240791084
 70
     0
  0
APPID
  2
GEVID1240791085
 70
     0
  0
APPID
  2
GEVID1240791086
 70
     0
  0
APPID
  2
GEVID1240791087
 70
     0
  0
APPID
  2
GEVID1240791088
 70
     0
  0
APPID
  2
GEVID1240791089
 70
     0
  0
APPID
  2
GEVID1240791090
 70
     0
  0
APPID
  2
GEVID1240791091
 70
     0
  0
APPID
  2
GEVID1240791092
 70
     0
  0
APPID
  2
GEVID1240791093
 70
     0
  0
APPID
  2
GEVID1240791094
 70
     0
  0
APPID
  2
GEVID1240791095
 70
     0
  0
APPID
  2
GEVID1240791096
 70
     0
  0
APPID
  2
GEVID1240791097
 70
     0
  0
APPID
  2
GEVID1240791098
 70
     0
  0
APPID
  2
GEVID1240791099
 70
     0
  0
APPID
  2
GEVID1240791100
 70
     0
  0
APPID
  2
GEVID1240791101
 70
     0
  0
APPID
  2
GEVID1240791102
 70
     0
  0
APPID
  2
GEVID1240791103
 70
     0
  0
APPID
  2
GEVID1240791104
 70
     0
  0
APPID
  2
GEVID1240791105
 70
     0
  0
APPID
  2
GEVID1240875381
 70
     0
  0
APPID
  2
GEVID1240875382
 70
     0
  0
APPID
  2
GEVID1240875383
 70
     0
  0
APPID
  2
GEVID1240875384
 70
     0
  0
APPID
  2
GEVID1240875385
 70
     0
  0
APPID
  2
GEVID1240875386
 70
     0
  0
APPID
  2
GEVID1240875387
 70
     0
  0
APPID
  2
GEVID1240875388
 70
     0
  0
APPID
  2
GEVID1240875389
 70
     0
  0
APPID
  2
GEVID1240875390
 70
     0
  0
APPID
  2
GEVID1240875391
 70
     0
  0
APPID
  2
GEVID1240875392
 70
     0
  0
APPID
  2
GEVID1240875393
 70
     0
  0
APPID
  2
GEVID1240875394
 70
     0
  0
APPID
  2
GEVID1240875395
 70
     0
  0
APPID
  2
GEVID1240875396
 70
     0
  0
APPID
  2
GEVID1240875397
 70
     0
  0
APPID
  2
GEVID1240875398
 70
     0
  0
APPID
  2
GEVID1240875399
 70
     0
  0
APPID
  2
GEVID1240908996
 70
     0
  0
APPID
  2
GEVID1240908997
 70
     0
  0
APPID
  2
GEVID1240908998
 70
     0
  0
APPID
  2
GEVID1240908999
 70
     0
  0
APPID
  2
GEVID1240909000
 70
     0
  0
APPID
  2
GENIUS_GENOBJ-N-ZOO_13
 70
     0
  0
APPID
  2
GENIUS_GENZOO_17
 70
     0
  0
APPID
  2
GENIUS_GE3SECT_13
 70
     0
  0
APPID
  2
GEV_VCCNULL_SWITCH_OFF
 70
     0
  0
APPID
  2
ACAD_DSTYLE_DIMTALN
 70
     0
  0
APPID
  2
DCO15
 70
     0
  0
ENDTAB
  0
TABLE
  2
DIMSTYLE
 70
    22
  0
DIMSTYLE
  2
AM_ANSI
 70
     0
  3

  4
"
  5

  6

  7

 40
1.0
 41
2.5
 42
1.0
 43
10.0
 44
1.0
 45
0.0
 46
0.0
 47
0.1
 48
0.1
140
3.5
141
0.0
142
0.0
143
0.0393701
144
1.0
145
0.0
146
0.71
147
1.5
 71
     0
 72
     0
 73
     1
 74
     1
 75
     0
 76
     0
 77
     0
 78
     8
170
     0
171
     2
172
     0
173
     0
174
     0
175
     0
176
     2
177
     2
178
     4
  0
DIMSTYLE
  2
AM_ANSI$3
 70
     0
  3

  4
"
  5

  6

  7

 40
1.0
 41
2.5
 42
1.0
 43
10.0
 44
1.0
 45
0.0
 46
0.0
 47
0.1
 48
0.1
140
3.5
141
0.0
142
0.0
143
0.0393701
144
1.0
145
0.0
146
0.71
147
1.5
 71
     0
 72
     0
 73
     1
 74
     1
 75
     0
 76
     0
 77
     0
 78
     8
170
     0
171
     2
172
     0
173
     0
174
     0
175
     0
176
     2
177
     2
178
     4
  0
DIMSTYLE
  2
AM_ANSI$4
 70
     0
  3

  4
"
  5

  6

  7

 40
1.0
 41
2.5
 42
1.0
 43
10.0
 44
1.0
 45
0.0
 46
0.0
 47
0.1
 48
0.1
140
3.5
141
0.0
142
0.0
143
0.0393701
144
1.0
145
0.0
146
0.71
147
1.5
 71
     0
 72
     0
 73
     1
 74
     1
 75
     0
 76
     0
 77
     0
 78
     8
170
     0
171
     2
172
     0
173
     0
174
     0
175
     0
176
     2
177
     2
178
     4
  0
DIMSTYLE
  2
AM_ANSI$7
 70
     0
  3

  4
"
  5

  6

  7

 40
1.0
 41
2.5
 42
1.0
 43
10.0
 44
1.0
 45
0.0
 46
0.0
 47
0.1
 48
0.1
140
5.0
141
0.0
142
0.0
143
0.0393701
144
1.0
145
0.0
146
0.71
147
1.5
 71
     0
 72
     0
 73
     1
 74
     1
 75
     0
 76
     0
 77
     0
 78
     8
170
     0
171
     2
172
     0
173
     0
174
     0
175
     0
176
     2
177
     2
178
     4
  0
DIMSTYLE
  2
AM_ANSI$SF
 70
     0
  3

  4
"
  5

  6

  7

 40
1.0
 41
2.5
 42
1.0
 43
10.0
 44
1.0
 45
0.0
 46
0.0
 47
0.1
 48
0.1
140
3.5
141
0.0
142
0.0
143
0.0393701
144
1.0
145
0.0
146
0.71
147
1.5
 71
     0
 72
     0
 73
     1
 74
     1
 75
     1
 76
     1
 77
     0
 78
     8
170
     0
171
     2
172
     0
173
     0
174
     0
175
     0
176
     2
177
     2
178
     4
  0
DIMSTYLE
  2
AM_ANSI$SH
 70
     0
  3

  4
"
  5

  6
GENAXEH
  7

 40
1.0
 41
2.5
 42
1.0
 43
10.0
 44
1.0
 45
0.0
 46
0.0
 47
0.1
 48
0.1
140
3.5
141
0.0
142
0.0
143
0.0393701
144
1.0
145
0.0
146
0.71
147
1.5
 71
     0
 72
     0
 73
     1
 74
     1
 75
     1
 76
     1
 77
     0
 78
     8
170
     0
171
     2
172
     0
173
     1
174
     0
175
     0
176
     2
177
     2
178
     4
  0
DIMSTYLE
  2
AM_ISO
 70
     0
  3

  4
"
  5

  6

  7

 40
1.0
 41
2.5
 42
1.0
 43
10.0
 44
1.0
 45
0.0
 46
0.0
 47
0.1
 48
0.1
140
3.5
141
0.0
142
0.0
143
0.0393701
144
1.0
145
0.0
146
0.71
147
1.5
 71
     0
 72
     0
 73
     0
 74
     0
 75
     0
 76
     0
 77
     1
 78
     8
170
     0
171
     2
172
     1
173
     0
174
     0
175
     0
176
   256
177
   256
178
     2
  0
DIMSTYLE
  2
AM_ISO$3
 70
     0
  3

  4
"
  5

  6

  7

 40
1.0
 41
2.5
 42
1.0
 43
10.0
 44
1.0
 45
0.0
 46
0.0
 47
0.1
 48
0.1
140
3.5
141
0.0
142
0.0
143
0.0393701
144
1.0
145
0.0
146
0.71
147
1.5
 71
     0
 72
     0
 73
     0
 74
     1
 75
     0
 76
     0
 77
     1
 78
     8
170
     0
171
     2
172
     0
173
     0
174
     0
175
     0
176
   256
177
   256
178
     2
  0
DIMSTYLE
  2
AM_ISO$4
 70
     0
  3

  4
"
  5

  6

  7

 40
1.0
 41
2.5
 42
1.0
 43
10.0
 44
1.0
 45
0.0
 46
0.0
 47
0.1
 48
0.1
140
3.5
141
0.0
142
0.0
143
0.0393701
144
1.0
145
0.0
146
0.71
147
1.5
 71
     0
 72
     0
 73
     0
 74
     1
 75
     0
 76
     0
 77
     1
 78
     8
170
     0
171
     2
172
     0
173
     0
174
     0
175
     0
176
   256
177
   256
178
     2
  0
DIMSTYLE
  2
AM_ISO$6
 70
     0
  3

  4
"
  5

  6

  7

 40
1.0
 41
2.5
 42
1.0
 43
10.0
 44
1.0
 45
0.0
 46
0.0
 47
0.1
 48
0.1
140
3.5
141
0.0
142
0.0
143
0.0393701
144
1.0
145
0.0
146
0.71
147
1.5
 71
     0
 72
     0
 73
     0
 74
     0
 75
     0
 76
     0
 77
     0
 78
     8
170
     0
171
     2
172
     1
173
     0
174
     0
175
     0
176
   256
177
   256
178
     2
  0
DIMSTYLE
  2
AM_ISO$7
 70
     0
  3

  4
"
  5

  6

  7

 40
1.0
 41
2.5
 42
1.0
 43
10.0
 44
1.0
 45
0.0
 46
0.0
 47
0.1
 48
0.1
140
5.0
141
0.0
142
0.0
143
0.0393701
144
1.0
145
0.0
146
0.71
147
1.5
 71
     0
 72
     0
 73
     0
 74
     0
 75
     0
 76
     0
 77
     1
 78
     8
170
     0
171
     2
172
     1
173
     0
174
     0
175
     0
176
   256
177
   256
178
     2
  0
DIMSTYLE
  2
AM_ISO$SF
 70
     0
  3

  4
"
  5

  6

  7

 40
1.0
 41
2.5
 42
1.0
 43
10.0
 44
1.0
 45
0.0
 46
0.0
 47
0.1
 48
0.1
140
3.5
141
0.0
142
0.0
143
0.0393701
144
1.0
145
0.0
146
0.71
147
1.5
 71
     0
 72
     0
 73
     0
 74
     0
 75
     1
 76
     1
 77
     1
 78
     8
170
     0
171
     2
172
     1
173
     0
174
     0
175
     0
176
   256
177
   256
178
     2
  0
DIMSTYLE
  2
AM_ISO$SH
 70
     0
  3

  4
"
  5

  6
GENAXEH
  7

 40
1.0
 41
2.5
 42
1.0
 43
10.0
 44
1.0
 45
0.0
 46
0.0
 47
0.1
 48
0.1
140
3.5
141
0.0
142
0.0
143
0.0393701
144
2.0
145
0.0
146
0.71
147
1.5
 71
     0
 72
     0
 73
     0
 74
     0
 75
     1
 76
     1
 77
     1
 78
     8
170
     0
171
     2
172
     1
173
     1
174
     0
175
     0
176
   256
177
   256
178
     2
  0
DIMSTYLE
  2
AM_JIS
 70
     0
  3

  4
"
  5

  6

  7

 40
1.0
 41
2.0
 42
1.0
 43
8.0
 44
1.0
 45
0.0
 46
0.0
 47
0.1
 48
0.1
140
2.5
141
0.0
142
0.0
143
0.0393701
144
1.0
145
0.0
146
0.71
147
1.5
 71
     0
 72
     0
 73
     0
 74
     0
 75
     0
 76
     0
 77
     3
 78
     8
170
     0
171
     2
172
     1
173
     0
174
     0
175
     0
176
     2
177
     2
178
     4
  0
DIMSTYLE
  2
AM_JIS$3
 70
     0
  3

  4
"
  5

  6

  7

 40
1.0
 41
2.0
 42
1.0
 43
10.0
 44
1.0
 45
0.0
 46
0.0
 47
0.1
 48
0.1
140
2.5
141
0.0
142
0.0
143
0.0393701
144
1.0
145
0.0
146
0.71
147
1.5
 71
     0
 72
     0
 73
     0
 74
     1
 75
     0
 76
     0
 77
     3
 78
     8
170
     0
171
     2
172
     0
173
     0
174
     0
175
     0
176
     2
177
     2
178
     4
  0
DIMSTYLE
  2
AM_JIS$4
 70
     0
  3

  4
"
  5

  6

  7

 40
1.0
 41
2.0
 42
1.0
 43
10.0
 44
1.0
 45
0.0
 46
0.0
 47
0.1
 48
0.1
140
2.5
141
0.0
142
0.0
143
0.0393701
144
1.0
145
0.0
146
0.71
147
1.5
 71
     0
 72
     0
 73
     0
 74
     0
 75
     0
 76
     0
 77
     3
 78
     8
170
     0
171
     2
172
     0
173
     0
174
     0
175
     0
176
     2
177
     2
178
     4
  0
DIMSTYLE
  2
AM_JIS$6
 70
     0
  3

  4
"
  5

  6

  7

 40
1.0
 41
2.0
 42
1.0
 43
10.0
 44
1.0
 45
0.0
 46
0.0
 47
0.1
 48
0.1
140
2.5
141
0.0
142
0.0
143
0.0393701
144
1.0
145
0.0
146
0.71
147
1.5
 71
     0
 72
     0
 73
     0
 74
     0
 75
     0
 76
     0
 77
     0
 78
     8
170
     0
171
     2
172
     1
173
     0
174
     0
175
     0
176
     2
177
     2
178
     4
  0
DIMSTYLE
  2
AM_JIS$7
 70
     0
  3

  4
"
  5

  6
OPEN30
  7
OPEN30
 40
1.0
 41
2.0
 42
1.0
 43
10.0
 44
1.0
 45
0.0
 46
0.0
 47
0.1
 48
0.1
140
2.5
141
0.0
142
0.0
143
0.0393701
144
1.0
145
0.0
146
0.71
147
1.5
 71
     0
 72
     0
 73
     0
 74
     0
 75
     0
 76
     0
 77
     3
 78
     8
170
     0
171
     2
172
     1
173
     0
174
     0
175
     0
176
     2
177
     2
178
     4
  0
DIMSTYLE
  2
AM_JIS$SF
 70
     0
  3

  4
"
  5

  6

  7

 40
1.0
 41
2.0
 42
1.0
 43
10.0
 44
1.0
 45
0.0
 46
0.0
 47
0.1
 48
0.1
140
2.5
141
0.0
142
0.0
143
0.0393701
144
1.0
145
0.0
146
0.71
147
1.5
 71
     0
 72
     0
 73
     0
 74
     0
 75
     1
 76
     1
 77
     3
 78
     8
170
     0
171
     2
172
     1
173
     0
174
     0
175
     0
176
     2
177
     2
178
     4
  0
DIMSTYLE
  2
AM_JIS$SH
 70
     0
  3

  4
"
  5

  6
GENAXEH
  7

 40
1.0
 41
2.0
 42
1.0
 43
10.0
 44
1.0
 45
0.0
 46
0.0
 47
0.1
 48
0.1
140
2.5
141
0.0
142
0.0
143
0.0393701
144
2.0
145
0.0
146
0.71
147
1.5
 71
     0
 72
     0
 73
     0
 74
     0
 75
     1
 76
     1
 77
     3
 78
     8
170
     0
171
     2
172
     1
173
     1
174
     0
175
     0
176
     2
177
     2
178
     4
  0
DIMSTYLE
  2
AM_JIS$0
 70
     0
  3

  4
"
  5

  6

  7

 40
1.0
 41
2.0
 42
1.0
 43
8.0
 44
1.0
 45
0.0
 46
0.0
 47
0.1
 48
0.1
140
2.5
141
0.0
142
0.0
143
0.0393701
144
1.0
145
0.0
146
0.71
147
1.5
 71
     0
 72
     0
 73
     0
 74
     0
 75
     0
 76
     0
 77
     3
 78
     8
170
     0
171
     2
172
     1
173
     0
174
     0
175
     0
176
     2
177
     2
178
     4
  0
DIMSTYLE
  2
STANDARD
 70
     0
  3

  4

  5

  6

  7

 40
1.0
 41
0.18
 42
0.0625
 43
0.38
 44
0.18
 45
0.0
 46
0.0
 47
0.0
 48
0.0
140
0.18
141
0.09
142
0.0
143
25.399999999999999
144
1.0
145
0.0
146
1.0
147
0.09
 71
     0
 72
     0
 73
     1
 74
     1
 75
     0
 76
     0
 77
     0
 78
     0
170
     0
171
     2
172
     0
173
     0
174
     0
175
     0
176
     0
177
     0
178
     0
  0
ENDTAB
  0
ENDSEC
  0
SECTION
  2
BLOCKS
  0
BLOCK
  8
0
  2
$MODEL_SPACE
 70
     0
 10
0.0
 20
0.0
 30
0.0
  3
$MODEL_SPACE
  1

  0
ENDBLK
  5
77
  8
0
  0
BLOCK
 67
     1
  8
0
  2
$PAPER_SPACE
 70
     0
 10
0.0
 20
0.0
 30
0.0
  3
$PAPER_SPACE
  1

  0
ENDBLK
  5
73
 67
     1
  8
0
  0
BLOCK
  8
0
  2
GENAXEH
 70
     0
 10
0.0
 20
0.0
 30
0.0
  3
GENAXEH
  1

  0
LINE
  5
C15A
  8
0
 10
-1.0
 20
0.0
 30
0.0
 11
1.0
 21
0.0
 31
0.0
  0
ENDBLK
  5
C15B
  8
0
  0
BLOCK
  8
0
  2
_OPEN30
 70
     0
 10
0.0
 20
0.0
 30
0.0
  3
_OPEN30
  1

  0
LINE
  5
C1A1
  8
0
  6
BYBLOCK
 62
     0
 10
-1.0
 20
0.26794919
 30
0.0
 11
0.0
 21
0.0
 31
0.0
  0
LINE
  5
C1A2
  8
0
  6
BYBLOCK
 62
     0
 10
0.0
 20
0.0
 30
0.0
 11
-1.0
 21
-0.26794919
 31
0.0
  0
LINE
  5
C1A3
  8
0
  6
BYBLOCK
 62
     0
 10
0.0
 20
0.0
 30
0.0
 11
-1.0
 21
0.0
 31
0.0
  0
ENDBLK
  5
C1A4
  8
0
  0
BLOCK
  8
0
  2
_ACMFILLEDHALF
 70
     0
 10
0.0
 20
0.0
 30
0.0
  3
_ACMFILLEDHALF
  1

  0
TRACE
  5
C27B
  8
0
  6
CONTINUOUS
 62
     0
 10
-0.8
 20
0.0
 30
0.0
 11
-1.0
 21
0.166666666
 31
0.0
 12
0.0
 22
0.0
 32
0.0
 13
0.0
 23
0.0
 33
0.0
  0
LINE
  5
C27C
  8
0
  6
CONTINUOUS
 62
     0
 10
-1.0
 20
0.0
 30
0.0
 11
-0.8
 21
0.0
 31
0.0
  0
ENDBLK
  5
C27D
  8
0
  0
BLOCK
  8
0
  2
*U7
 70
     1
 10
0.0
 20
0.0
 30
0.0
  3
*U7
  1

  0
TEXT
  5
C317
  8
0
 62
     0
 10
5.1211371559201648
 20
5.9826223594979657
 30
0.0
 40
15.0
  1
ＶＸ０８－００３ＥＭ～ＶＸ０８－０３０ＥＭ
 41
0.7400000000000003
  0
ENDBLK
  5
C319
  8
0
  0
ENDSEC
  0
SECTION
  2
ENTITIES
  0
LINE
  5
A690
  8
0
 62
     0
 10
522.72551958511167
 20
490.66966348455333
 30
0.0
 11
533.72546958511157
 21
490.66966348455333
 31
0.0
  0
LINE
  5
A691
  8
0
 62
     0
 10
522.72551958511167
 20
730.66968848455349
 30
0.0
 11
533.72546958511157
 21
730.66968848455349
 31
0.0
  0
LINE
  5
A699
  8
0
 62
     0
 10
522.72551958511167
 20
710.39688848455353
 30
0.0
 11
535.72546958511134
 21
710.39688848455353
 31
0.0
  0
LINE
  5
A69A
  8
0
 62
     0
 10
522.72551958511167
 20
694.8404884845537
 30
0.0
 11
535.72546958511134
 21
694.8404884845537
 31
0.0
  0
LINE
  5
A69B
  8
0
 62
     0
 10
522.72551958511167
 20
686.68633848455352
 30
0.0
 11
535.72546958511134
 21
686.68633848455352
 31
0.0
  0
LINE
  5
A69C
  8
0
 62
     0
 10
522.72551958511167
 20
534.6529734845534
 30
0.0
 11
535.72546958511134
 21
534.6529734845534
 31
0.0
  0
LINE
  5
A69D
  8
0
 62
     0
 10
522.72551958511167
 20
526.49879848455362
 30
0.0
 11
535.72546958511134
 21
526.49879848455362
 31
0.0
  0
LINE
  5
A69E
  8
0
 62
     0
 10
522.72551958511167
 20
510.94246348455363
 30
0.0
 11
535.72546958511134
 21
510.94246348455363
 31
0.0
  0
LINE
  5
A703
  8
0
  6
AM_ISO08W050
 62
     0
 10
881.99947733563874
 20
658.66966848455354
 30
0.0
 11
563.51529594030819
 21
658.66966848455354
 31
0.0
  0
LINE
  5
A70A
  8
0
  6
AM_ISO08W050
 62
     0
 10
572.70991694513452
 20
610.66967598455324
 30
0.0
 11
157.56311227658489
 21
610.66967598455324
 31
0.0
  0
ARC
  5
B359
  8
0
 62
     0
 10
284.7255075851117
 20
742.21967998455295
 30
0.0
 40
2.0
 50
90.000002999984659
 51
159.503400000005
  0
ARC
  5
B35A
  8
0
 62
     0
 10
279.64086358511167
 20
722.67368898455322
 30
0.0
 40
10.0
 50
90.000002999984659
 51
98.136523000008793
  0
ARC
  5
B35B
  8
0
 62
     0
 10
279.82841358511189
 20
732.91998198455315
 30
0.0
 40
10.0
 50
90.000002999984659
 51
99.223570000003505
  0
ARC
  5
B35C
  8
0
 62
     0
 10
279.75816158511179
 20
729.04618598455318
 30
0.0
 40
10.0
 50
89.999996999989278
 51
98.816015000012186
  0
ARC
  5
B35D
  8
0
 62
     0
 10
279.47619058511168
 20
713.92648098455322
 30
0.0
 40
10.0
 50
90.000002999984659
 51
97.184508999990982
  0
ARC
  5
B35E
  8
0
 62
     0
 10
279.2642155851118
 20
702.97491298455338
 30
0.0
 40
10.0
 50
90.000002999984659
 51
95.961922000009963
  0
LINE
  5
B35F
  8
0
 62
     0
 10
278.2255405851115
 20
664.98934798455298
 30
0.0
 11
346.70887358511158
 21
664.98934798455298
 31
0.0
  0
ARC
  5
B360
  8
0
 62
     0
 10
295.64409858511181
 20
657.61169298455309
 30
0.0
 40
3.0
 50
89.999998999979056
 51
180.00000899999949
  0
ARC
  5
B361
  8
0
 62
     0
 10
289.64409858511181
 20
656.65121298455324
 30
0.0
 40
3.0
 50
0.0
 51
105.7135969999852
  0
LINE
  5
B362
  8
0
 62
     0
 10
292.64405858511168
 20
660.61167398455325
 30
0.0
 11
278.2255405851115
 21
656.55511898455336
 31
0.0
  0
LINE
  5
B363
  8
0
 62
     0
 10
292.64409858511181
 20
660.6116929845532
 30
0.0
 11
339.8582315851117
 21
660.6116929845532
 31
0.0
  0
LINE
  5
B364
  8
0
 62
     0
 10
292.64409858511181
 20
610.66967598455324
 30
0.0
 11
292.64409858511181
 21
656.65121298455324
 31
0.0
  0
LINE
  5
B365
  8
0
 62
     0
 10
433.53235558511182
 20
539.98002398455333
 30
0.0
 11
501.85283958511172
 21
539.98002398455333
 31
0.0
  0
LINE
  5
B366
  8
0
 62
     0
 10
278.2255405851115
 20
474.66967598455329
 30
0.0
 11
278.2255405851115
 21
746.66967598455324
 31
0.0
  0
ARC
  5
B367
  8
0
 62
     0
 10
183.87554058511159
 20
570.59967598455319
 30
0.0
 40
3.0
 50
180.0
 51
270.0
  0
ARC
  5
B368
  8
0
 62
     0
 10
187.2255405851117
 20
496.43294598455321
 30
0.0
 40
11.0
 50
180.0
 51
199.99999999999761
  0
ARC
  5
B369
  8
0
 62
     0
 10
185.54139058511191
 20
477.66967598455329
 30
0.0
 40
3.0
 50
199.99999999999761
 51
270.0
  0
LINE
  5
B36A
  8
0
 62
     0
 10
176.88892258511169
 20
492.67072398455332
 30
0.0
 11
182.72231258511169
 21
476.64361598455321
 31
0.0
  0
LINE
  5
B36B
  8
0
 62
     0
 10
183.44076758511159
 20
479.81149398455318
 30
0.0
 11
183.44076758511159
 21
564.51205098455318
 31
0.0
  0
LINE
  5
B36C
  8
0
 62
     0
 10
278.2255405851115
 20
567.59967598455341
 30
0.0
 11
183.87554058511159
 21
567.59967598455341
 31
0.0
  0
LINE
  5
B36D
  8
0
 62
     0
 10
185.54139058511191
 20
474.66967598455329
 30
0.0
 11
278.2255405851115
 21
474.66967598455329
 31
0.0
  0
ARC
  5
B36E
  8
0
 62
     0
 10
183.87554058511159
 20
650.73967598455317
 30
0.0
 40
3.0
 50
90.0
 51
180.0
  0
LINE
  5
B36F
  8
0
 62
     0
 10
176.88892258511169
 20
728.66862798455315
 30
0.0
 11
182.72231258511169
 21
744.69573598455338
 31
0.0
  0
ARC
  5
B370
  8
0
 62
     0
 10
185.54139058511191
 20
743.66967598455324
 30
0.0
 40
3.0
 50
90.0
 51
160.00000000000239
  0
ARC
  5
B371
  8
0
 62
     0
 10
187.2255405851117
 20
724.90640598455298
 30
0.0
 40
11.0
 50
160.00000000000239
 51
180.0
  0
LINE
  5
B372
  8
0
 62
     0
 10
183.44076758511159
 20
741.52785798455318
 30
0.0
 11
183.44076758511159
 21
656.82730098455306
 31
0.0
  0
LINE
  5
B373
  8
0
 62
     0
 10
176.2255405851117
 20
496.43294598455321
 30
0.0
 11
176.2255405851117
 21
724.90640598455298
 31
0.0
  0
LINE
  5
B374
  8
0
 62
     0
 10
180.87554058511159
 20
570.59967598455319
 30
0.0
 11
180.87554058511159
 21
650.73967598455317
 31
0.0
  0
LINE
  5
B375
  8
0
 62
     0
 10
278.2255405851115
 20
653.73967598455306
 30
0.0
 11
183.87554058511159
 21
653.73967598455306
 31
0.0
  0
LINE
  5
B376
  8
0
 62
     0
 10
185.54139058511191
 20
746.66967598455324
 30
0.0
 11
278.2255405851115
 21
746.66967598455324
 31
0.0
  0
ARC
  5
B377
  8
0
 62
     0
 10
279.47619058511168
 20
507.41287098455331
 30
0.0
 40
10.0
 50
262.81549099998227
 51
269.99999699998932
  0
ARC
  5
B378
  8
0
 62
     0
 10
279.64086358511167
 20
498.66566298455331
 30
0.0
 40
10.0
 50
261.86347699999118
 51
269.99999699998932
  0
ARC
  5
B379
  8
0
 62
     0
 10
289.64409858511181
 20
564.68813898455323
 30
0.0
 40
3.0
 50
254.28640300001479
 51
0.0
  0
ARC
  5
B37A
  8
0
 62
     0
 10
295.64409858511181
 20
563.72765898455339
 30
0.0
 40
3.0
 50
179.99999100000039
 51
270.00000099999488
  0
ARC
  5
B37B
  8
0
 62
     0
 10
279.2642155851118
 20
518.36443898455309
 30
0.0
 40
10.0
 50
264.03807799999009
 51
269.99999699998932
  0
LINE
  5
B37C
  8
0
 62
     0
 10
292.64405858511168
 20
560.72767798455334
 30
0.0
 11
278.2255405851115
 21
564.78423298455323
 31
0.0
  0
LINE
  5
B37D
  8
0
 62
     0
 10
292.64409858511181
 20
560.72765898455327
 30
0.0
 11
334.72551958511173
 21
560.72765898455327
 31
0.0
  0
LINE
  5
B37E
  8
0
 62
     0
 10
292.64409858511181
 20
610.66967598455324
 30
0.0
 11
292.64409858511181
 21
564.68813898455323
 31
0.0
  0
LINE
  5
B37F
  8
0
 62
     0
 10
278.2255405851115
 20
551.82668898455324
 30
0.0
 11
335.49021558511163
 21
551.82668898455324
 31
0.0
  0
LINE
  5
B380
  8
0
 62
     0
 10
278.2255405851115
 20
556.35000398455338
 30
0.0
 11
334.73789958511179
 21
556.35000398455338
 31
0.0
  0
LINE
  5
B381
  8
0
 62
     0
 10
341.72551958511173
 20
557.63467998455315
 30
0.0
 11
341.72551958511173
 21
650.16968398455322
 31
0.0
  0
LINE
  5
B382
  8
0
 62
     0
 10
334.72551958511173
 20
648.02467898455336
 30
0.0
 11
334.72551958511173
 21
626.1516779845532
 31
0.0
  0
LINE
  5
B383
  8
0
 62
     0
 10
334.72551958511173
 20
587.90287598455325
 30
0.0
 11
334.72551958511173
 21
557.01747698455335
 31
0.0
  0
LINE
  5
B384
  8
0
 62
     0
 10
438.72501558511141
 20
557.63467998455315
 30
0.0
 11
438.72501558511141
 21
650.16968398455322
 31
0.0
  0
LINE
  5
B385
  8
0
 62
     0
 10
445.72501558511158
 20
648.02467898455336
 30
0.0
 11
445.72501558511158
 21
626.18267598455338
 31
0.0
  0
LINE
  5
B386
  8
0
 62
     0
 10
445.72501558511158
 20
587.90737698455325
 30
0.0
 11
445.72501558511158
 21
557.01747698455335
 31
0.0
  0
LINE
  5
B387
  8
0
 62
     0
 10
427.72501558511118
 20
666.02467898455325
 30
0.0
 11
352.72551958511173
 21
666.02467898455325
 31
0.0
  0
LINE
  5
B388
  8
0
 62
     0
 10
427.72501558511118
 20
661.16968398455322
 30
0.0
 11
352.72551958511173
 21
661.16968398455322
 31
0.0
  0
LINE
  5
B389
  8
0
 62
     0
 10
427.72501558511118
 20
623.1996749845531
 30
0.0
 11
352.72551958511173
 21
623.1996749845531
 31
0.0
  0
LINE
  5
B38A
  8
0
 62
     0
 10
427.72501558511118
 20
546.63480998455316
 30
0.0
 11
352.72551958511173
 21
546.63480998455316
 31
0.0
  0
LINE
  5
B38B
  8
0
 62
     0
 10
427.72501558511118
 20
540.98467798455317
 30
0.0
 11
352.72551958511173
 21
540.98467798455317
 31
0.0
  0
LINE
  5
B38C
  8
0
 62
     0
 10
427.72501558511118
 20
539.01747698455335
 30
0.0
 11
352.72551958511173
 21
539.01747698455335
 31
0.0
  0
ARC
  5
B38D
  8
0
 62
     0
 10
352.72551958511173
 20
648.02467898455336
 30
0.0
 40
18.0
 50
90.0
 51
179.9999819999943
  0
ARC
  5
B38E
  8
0
 62
     0
 10
352.72551958511173
 20
650.16968398455322
 30
0.0
 40
11.0
 50
90.0
 51
179.9999819999943
  0
ARC
  5
B38F
  8
0
 62
     0
 10
352.72551958511173
 20
557.63467998455315
 30
0.0
 40
11.0
 50
179.9999819999943
 51
269.99996400000163
  0
ARC
  5
B390
  8
0
 62
     0
 10
352.72551958511173
 20
557.01747698455335
 30
0.0
 40
18.0
 50
179.9999819999943
 51
269.99996400000163
  0
ARC
  5
B391
  8
0
 62
     0
 10
352.72551958511173
 20
558.9846779845534
 30
0.0
 40
18.0
 50
179.9999819999943
 51
269.99996400000163
  0
ARC
  5
B392
  8
0
 62
     0
 10
340.22551958511173
 20
607.02767798455307
 30
0.0
 40
15.000003
 50
127.16889200000681
 51
232.83097600000301
  0
ARC
  5
B393
  8
0
 62
     0
 10
427.72501558511118
 20
648.02467898455336
 30
0.0
 40
18.0
 50
359.99993599999488
 51
89.999950999989878
  0
ARC
  5
B394
  8
0
 62
     0
 10
427.72501558511118
 20
650.16968398455322
 30
0.0
 40
11.0
 50
0.0000179999992061
 51
89.999959999995966
  0
ARC
  5
B395
  8
0
 62
     0
 10
427.72501558511118
 20
557.63467998455315
 30
0.0
 40
11.0
 50
269.9999949999995
 51
359.99994299999821
  0
ARC
  5
B396
  8
0
 62
     0
 10
427.72501558511118
 20
557.01747698455335
 30
0.0
 40
18.0
 50
270.00000899998008
 51
359.99994299999821
  0
ARC
  5
B397
  8
0
 62
     0
 10
427.72501558511118
 20
558.9846779845534
 30
0.0
 40
18.0
 50
270.00000899998008
 51
359.99994299999821
  0
ARC
  5
B398
  8
0
 62
     0
 10
352.72551958511173
 20
612.19967498455321
 30
0.0
 40
11.0
 50
90.0
 51
179.9999819999943
  0
ARC
  5
B399
  8
0
 62
     0
 10
427.72501558511118
 20
612.19967498455321
 30
0.0
 40
11.0
 50
359.99994299999821
 51
89.999959999995966
  0
ARC
  5
B39A
  8
0
 62
     0
 10
325.72551958511173
 20
626.1516779845532
 30
0.0
 40
9.000003999999997
 50
307.1689830000048
 51
359.99993599999488
  0
ARC
  5
B39B
  8
0
 62
     0
 10
325.72551958511173
 20
587.90287598455325
 30
0.0
 40
9.0
 50
359.99993599999488
 51
52.830968000006543
  0
ARC
  5
B39C
  8
0
 62
     0
 10
454.72501558511158
 20
626.1516779845532
 30
0.0
 40
9.0
 50
179.9999819999943
 51
232.83098999999589
  0
ARC
  5
B39D
  8
0
 62
     0
 10
440.22501558511118
 20
607.02767798455307
 30
0.0
 40
15.0
 50
307.16895599999509
 51
52.830964000001131
  0
ARC
  5
B39E
  8
0
 62
     0
 10
454.72501558511158
 20
587.90287598455325
 30
0.0
 40
9.0000009999999975
 50
127.16889600000439
 51
179.9999819999943
  0
LINE
  5
B39F
  8
0
 62
     0
 10
279.82841358511189
 20
478.4193699845531
 30
0.0
 11
500.62260358511128
 21
478.4193699845531
 31
0.0
  0
LINE
  5
B3A0
  8
0
 62
     0
 10
284.7255075851117
 20
477.11967198455329
 30
0.0
 11
495.7255075851117
 21
477.11967198455329
 31
0.0
  0
ARC
  5
B3A1
  8
0
 62
     0
 10
284.7255075851117
 20
479.11967198455318
 30
0.0
 40
2.0
 50
200.496599999995
 51
269.99999699998932
  0
ARC
  5
B3A2
  8
0
 62
     0
 10
279.82841358511189
 20
488.41936998455321
 30
0.0
 40
10.0
 50
260.77642999999648
 51
269.99999699998932
  0
LINE
  5
B3A3
  8
0
 62
     0
 10
522.72551958511167
 20
725.6696899845532
 30
0.0
 11
520.72554758511137
 21
725.68368798455322
 31
0.0
  0
LINE
  5
B3A4
  8
0
 62
     0
 10
520.72551958511156
 20
731.34333598455316
 30
0.0
 11
520.72551958511156
 21
715.22404398455342
 31
0.0
  0
LINE
  5
B3A5
  8
0
 62
     0
 10
504.88419758511179
 20
680.8888439845532
 30
0.0
 11
519.3318435851113
 21
676.29310398455323
 31
0.0
  0
LINE
  5
B3A6
  8
0
 62
     0
 10
504.5894835851114
 20
664.69591998455326
 30
0.0
 11
519.2064835851113
 21
661.07462798455322
 31
0.0
  0
LINE
  5
B3A7
  8
0
 62
     0
 10
504.22713158511169
 20
647.34297198455306
 30
0.0
 11
519.05665758511134
 21
644.85321398455324
 31
0.0
  0
LINE
  5
B3A8
  8
0
 62
     0
 10
503.82658558511179
 20
629.22047598455322
 30
0.0
 11
518.89442758511188
 21
627.94314398455322
 31
0.0
  0
LINE
  5
B3A9
  8
0
 62
     0
 10
445.72501558511158
 20
647.48101598455321
 30
0.0
 11
502.57134558511183
 21
647.48101598455321
 31
0.0
  0
LINE
  5
B3AA
  8
0
 62
     0
 10
520.72551958511156
 20
669.51266398455323
 30
0.0
 11
520.72551958511156
 21
674.3871739845531
 31
0.0
  0
LINE
  5
B3AB
  8
0
 62
     0
 10
520.72551958511156
 20
655.05953798455323
 30
0.0
 11
520.72551958511156
 21
659.13329998455322
 31
0.0
  0
LINE
  5
B3AC
  8
0
 62
     0
 10
520.72551958511156
 20
639.74239998455323
 30
0.0
 11
520.72551958511156
 21
642.88082798455321
 31
0.0
  0
LINE
  5
B3AD
  8
0
 62
     0
 10
445.72501558511158
 20
639.74239998455323
 30
0.0
 11
517.72551958511156
 21
639.74239998455323
 31
0.0
  0
LINE
  5
B3AE
  8
0
 62
     0
 10
444.29338258511109
 20
655.05953798455323
 30
0.0
 11
517.72551958511156
 21
655.05953798455323
 31
0.0
  0
LINE
  5
B3AF
  8
0
 62
     0
 10
278.2255405851115
 20
669.51266398455323
 30
0.0
 11
517.72551958511156
 21
669.51266398455323
 31
0.0
  0
LINE
  5
B3B0
  8
0
 62
     0
 10
446.02183658511137
 20
623.85937398455337
 30
0.0
 11
517.72551958511156
 21
623.85937398455337
 31
0.0
  0
LINE
  5
B3B1
  8
0
 62
     0
 10
503.4050335851116
 20
612.73644798455337
 30
0.0
 11
519.28032158511166
 21
612.16868998455323
 31
0.0
  0
LINE
  5
B3B2
  8
0
 62
     0
 10
503.40496358511149
 20
612.73648798455338
 30
0.0
 11
453.77265358511119
 21
613.46673998455321
 31
0.0
  0
LINE
  5
B3B3
  8
0
 62
     0
 10
520.72551958511156
 20
623.85937398455337
 30
0.0
 11
520.72551958511156
 21
625.95031598455307
 31
0.0
  0
LINE
  5
B3B4
  8
0
 62
     0
 10
445.72501558511158
 20
629.25622398455323
 30
0.0
 11
502.98186758511162
 21
629.25622398455323
 31
0.0
  0
LINE
  5
B3B5
  8
0
 62
     0
 10
405.22551958511161
 20
697.51394398455341
 30
0.0
 11
405.22551958511161
 21
711.97491198455327
 31
0.0
  0
LINE
  5
B3B6
  8
0
 62
     0
 10
278.2255405851115
 20
682.82046398455316
 30
0.0
 11
522.72551958511167
 21
682.82046398455316
 31
0.0
  0
LINE
  5
B3B7
  8
0
 62
     0
 10
278.2255405851115
 20
696.51394398455318
 30
0.0
 11
501.51720758511141
 21
696.51394398455318
 31
0.0
  0
LINE
  5
B3B8
  8
0
 62
     0
 10
512.60619758511154
 20
692.91146598455327
 30
0.0
 11
522.72551958511167
 21
692.91146598455327
 31
0.0
  0
LINE
  5
B3B9
  8
0
 62
     0
 10
512.60614758511144
 20
692.91146598455327
 30
0.0
 11
505.16295958511171
 21
695.82566398455322
 31
0.0
  0
LINE
  5
B3BA
  8
0
 62
     0
 10
279.2642155851118
 20
712.97491198455316
 30
0.0
 11
501.1868235851116
 21
712.97491198455316
 31
0.0
  0
LINE
  5
B3BB
  8
0
 62
     0
 10
512.60618558511169
 20
708.6816639845531
 30
0.0
 11
505.41522558511178
 21
712.03698198455322
 31
0.0
  0
LINE
  5
B3BC
  8
0
 62
     0
 10
406.22551958511173
 20
708.68165398455324
 30
0.0
 11
522.72551958511167
 21
708.68165398455324
 31
0.0
  0
LINE
  5
B3BD
  8
0
 62
     0
 10
279.47619058511168
 20
723.92648198455322
 30
0.0
 11
500.97484958511171
 21
723.92648198455322
 31
0.0
  0
LINE
  5
B3BE
  8
0
 62
     0
 10
519.64338558511179
 20
715.53852598455342
 30
0.0
 11
505.56420358511127
 21
722.81114398455338
 31
0.0
  0
LINE
  5
B3BF
  8
0
 62
     0
 10
520.72551958511156
 20
713.76160998455339
 30
0.0
 11
520.72551958511156
 21
708.68165398455324
 31
0.0
  0
LINE
  5
B3C0
  8
0
 62
     0
 10
279.64086358511167
 20
732.67368998455322
 30
0.0
 11
500.81017558511138
 21
732.67368998455322
 31
0.0
  0
LINE
  5
B3C1
  8
0
 62
     0
 10
505.67254158511128
 20
731.4119119845534
 30
0.0
 11
519.69797358511175
 21
723.60749598455322
 31
0.0
  0
LINE
  5
B3C2
  8
0
 62
     0
 10
279.75816158511179
 20
739.0461859845534
 30
0.0
 11
500.69286558511152
 21
739.0461859845534
 31
0.0
  0
LINE
  5
B3C3
  8
0
 62
     0
 10
519.73602958511174
 20
729.48418598455328
 30
0.0
 11
505.74553558511161
 21
737.67577398455342
 31
0.0
  0
LINE
  5
B3C4
  8
0
 62
     0
 10
279.82841358511189
 20
742.91998198455337
 30
0.0
 11
500.62261558511182
 21
742.91998198455337
 31
0.0
  0
LINE
  5
B3C5
  8
0
 62
     0
 10
519.75850558511183
 20
733.05594398455321
 30
0.0
 11
505.78758958511162
 21
741.48290998455309
 31
0.0
  0
LINE
  5
B3C6
  8
0
 62
     0
 10
284.7255075851117
 20
744.21967998455318
 30
0.0
 11
495.72551958511161
 21
744.21967998455318
 31
0.0
  0
LINE
  5
B3C7
  8
0
 62
     0
 10
374.22551958511173
 20
708.68165398455324
 30
0.0
 11
278.2255405851115
 21
708.68165398455324
 31
0.0
  0
LINE
  5
B3C8
  8
0
 62
     0
 10
375.22551958511161
 20
697.51394398455341
 30
0.0
 11
375.22551958511161
 21
711.97491198455327
 31
0.0
  0
LINE
  5
B3C9
  8
0
 62
     0
 10
378.72551958511173
 20
747.66967598455324
 30
0.0
 11
401.72551958511173
 21
747.66967598455324
 31
0.0
  0
LINE
  5
B3CA
  8
0
 62
     0
 10
378.72551958511173
 20
747.66967598455324
 30
0.0
 11
378.72551958511173
 21
744.21967998455318
 31
0.0
  0
LINE
  5
B3CB
  8
0
 62
     0
 10
401.72551958511173
 20
747.66967598455324
 30
0.0
 11
401.72551958511173
 21
744.21967998455318
 31
0.0
  0
ARC
  5
B3CC
  8
0
 62
     0
 10
518.72551958511167
 20
625.95031598455307
 30
0.0
 40
2.0
 50
0.0
 51
85.154496000005196
  0
ARC
  5
B3CD
  8
0
 62
     0
 10
518.72551958511167
 20
642.88082798455321
 30
0.0
 40
2.0
 50
0.0
 51
80.469389000002764
  0
ARC
  5
B3CE
  8
0
 62
     0
 10
518.72551958511167
 20
659.13329998455322
 30
0.0
 40
2.0
 50
0.0
 51
76.085411000000207
  0
ARC
  5
B3CF
  8
0
 62
     0
 10
518.72551958511167
 20
674.3871739845531
 30
0.0
 40
2.0
 50
0.0
 51
72.354331999996134
  0
ARC
  5
B3D0
  8
0
 62
     0
 10
501.85283958511172
 20
671.35934198455323
 30
0.0
 40
10.0
 50
72.354331999996134
 51
90.000002999984659
  0
ARC
  5
B3D1
  8
0
 62
     0
 10
502.18474958511149
 20
654.98934798455321
 30
0.0
 40
10.0
 50
76.085411000000207
 51
90.000002999984659
  0
ARC
  5
B3D2
  8
0
 62
     0
 10
502.57134558511183
 20
637.48101598455321
 30
0.0
 40
10.0
 50
80.469389000002764
 51
90.000002999984659
  0
ARC
  5
B3D3
  8
0
 62
     0
 10
502.98186758511162
 20
619.25622398455323
 30
0.0
 40
10.0
 50
85.154496000005196
 51
90.000002999984659
  0
ARC
  5
B3D4
  8
0
 62
     0
 10
519.22674158511143
 20
610.66848598455317
 30
0.0
 40
1.498794
 50
0.0454979999978281
 51
90.000002999984659
  0
ARC
  5
B3D5
  8
0
 62
     0
 10
501.51720758511141
 20
686.51394398455341
 30
0.0
 40
10.0
 50
68.618381999994909
 51
90.000002999984659
  0
ARC
  5
B3D6
  8
0
 62
     0
 10
501.1868235851116
 20
702.97491198455327
 30
0.0
 40
10.0
 50
64.986142000001053
 51
90.000002999984659
  0
ARC
  5
B3D7
  8
0
 62
     0
 10
500.97484958511171
 20
713.92648198455322
 30
0.0
 40
10.0
 50
62.681328999998208
 51
90.000002999984659
  0
ARC
  5
B3D8
  8
0
 62
     0
 10
518.72551958511167
 20
713.76160998455339
 30
0.0
 40
2.0
 50
0.0
 51
62.681328999998208
  0
ARC
  5
B3D9
  8
0
 62
     0
 10
500.81017558511138
 20
722.67368998455322
 30
0.0
 40
10.0
 50
60.906361000012808
 51
90.000002999984659
  0
ARC
  5
B3DA
  8
0
 62
     0
 10
518.72551958511167
 20
721.85986198455339
 30
0.0
 40
2.0
 50
0.0
 51
60.906361000012808
  0
ARC
  5
B3DB
  8
0
 62
     0
 10
500.69286558511152
 20
729.04618598455318
 30
0.0
 40
10.0
 50
59.650562000004939
 51
90.000002999984659
  0
ARC
  5
B3DC
  8
0
 62
     0
 10
518.72551958511167
 20
727.75828398455337
 30
0.0
 40
2.0
 50
0.0
 51
59.650562000004939
  0
ARC
  5
B3DD
  8
0
 62
     0
 10
518.72551958511167
 20
731.34333598455316
 30
0.0
 40
2.0
 50
0.0
 51
58.902493000008448
  0
ARC
  5
B3DE
  8
0
 62
     0
 10
500.62261558511182
 20
732.91998198455315
 30
0.0
 40
10.0
 50
58.902493000008448
 51
90.000002999984659
  0
ARC
  5
B3DF
  8
0
 62
     0
 10
495.72551958511161
 20
742.21967998455295
 30
0.0
 40
2.0
 50
20.49659900000524
 51
90.000002999984659
  0
ARC
  5
B3E0
  8
0
 62
     0
 10
406.22551958511173
 20
697.51394398455341
 30
0.0
 40
1.0
 50
179.9999949999995
 51
269.99999699998932
  0
ARC
  5
B3E1
  8
0
 62
     0
 10
374.22551958511173
 20
697.51394398455341
 30
0.0
 40
1.0
 50
269.99999699998932
 51
0.0
  0
ARC
  5
B3E2
  8
0
 62
     0
 10
406.22551958511173
 20
707.68165398455324
 30
0.0
 40
1.0
 50
89.999998999979056
 51
180.00000899999949
  0
ARC
  5
B3E3
  8
0
 62
     0
 10
374.22551958511173
 20
707.68165398455324
 30
0.0
 40
1.0
 50
0.0
 51
90.000002999984659
  0
ARC
  5
B3E4
  8
0
 62
     0
 10
406.22551958511173
 20
711.97491198455327
 30
0.0
 40
1.0
 50
89.999998999979056
 51
180.00000899999949
  0
ARC
  5
B3E5
  8
0
 62
     0
 10
374.22551958511173
 20
711.97491198455327
 30
0.0
 40
1.0
 50
0.0
 51
90.000002999984659
  0
LINE
  5
B3E6
  8
0
 62
     0
 10
433.74166158511161
 20
664.98934798455298
 30
0.0
 11
502.18474958511149
 21
664.98934798455298
 31
0.0
  0
LINE
  5
B3E7
  8
0
 62
     0
 10
278.2255405851115
 20
681.35932798455337
 30
0.0
 11
501.85283958511172
 21
681.35932798455337
 31
0.0
  0
LINE
  5
B3E8
  8
0
 62
     0
 10
522.72551958511167
 20
495.66966198455327
 30
0.0
 11
520.72554758511137
 21
495.6556639845532
 31
0.0
  0
LINE
  5
B3E9
  8
0
 62
     0
 10
520.72551958511156
 20
489.99601598455331
 30
0.0
 11
520.72551958511156
 21
506.11530798455311
 31
0.0
  0
LINE
  5
B3EA
  8
0
 62
     0
 10
278.2255405851115
 20
539.98002398455333
 30
0.0
 11
346.91818058511171
 21
539.98002398455333
 31
0.0
  0
LINE
  5
B3EB
  8
0
 62
     0
 10
504.88419758511179
 20
540.45050798455338
 30
0.0
 11
519.3318435851113
 21
545.04624798455325
 31
0.0
  0
LINE
  5
B3EC
  8
0
 62
     0
 10
504.5894835851114
 20
556.64343198455333
 30
0.0
 11
519.2064835851113
 21
560.26472398455326
 31
0.0
  0
LINE
  5
B3ED
  8
0
 62
     0
 10
504.22713158511169
 20
573.99637998455341
 30
0.0
 11
519.05665758511134
 21
576.48613798455324
 31
0.0
  0
LINE
  5
B3EE
  8
0
 62
     0
 10
503.82658558511179
 20
592.11887598455326
 30
0.0
 11
518.89442758511188
 21
593.39620798455326
 31
0.0
  0
LINE
  5
B3EF
  8
0
 62
     0
 10
445.72501558511158
 20
573.85833598455338
 30
0.0
 11
502.57134558511183
 21
573.85833598455338
 31
0.0
  0
LINE
  5
B3F0
  8
0
 62
     0
 10
520.72551958511156
 20
551.82668798455325
 30
0.0
 11
520.72551958511156
 21
546.95217798455337
 31
0.0
  0
LINE
  5
B3F1
  8
0
 62
     0
 10
520.72551958511156
 20
566.27981398455324
 30
0.0
 11
520.72551958511156
 21
562.20605198455337
 31
0.0
  0
LINE
  5
B3F2
  8
0
 62
     0
 10
520.72551958511156
 20
581.59695198455324
 30
0.0
 11
520.72551958511156
 21
578.45852398455315
 31
0.0
  0
LINE
  5
B3F3
  8
0
 62
     0
 10
445.72501558511158
 20
581.59695198455324
 30
0.0
 11
517.72551958511156
 21
581.59695198455324
 31
0.0
  0
LINE
  5
B3F4
  8
0
 62
     0
 10
445.72501558511158
 20
566.27981398455324
 30
0.0
 11
517.72551958511156
 21
566.27981398455324
 31
0.0
  0
LINE
  5
B3F5
  8
0
 62
     0
 10
451.7940015851118
 20
597.47997798455322
 30
0.0
 11
517.72551958511156
 21
597.47997798455322
 31
0.0
  0
LINE
  5
B3F6
  8
0
 62
     0
 10
503.4050335851116
 20
608.60290398455322
 30
0.0
 11
519.28032158511166
 21
609.17066198455325
 31
0.0
  0
LINE
  5
B3F7
  8
0
 62
     0
 10
503.40496358511149
 20
608.60286398455298
 30
0.0
 11
455.20000058511118
 21
607.89361298455322
 31
0.0
  0
LINE
  5
B3F8
  8
0
 62
     0
 10
520.72551958511156
 20
597.47997798455322
 30
0.0
 11
520.72551958511156
 21
595.3890359845534
 31
0.0
  0
LINE
  5
B3F9
  8
0
 62
     0
 10
446.75472658511148
 20
592.08312798455336
 30
0.0
 11
502.98186758511162
 21
592.08312798455336
 31
0.0
  0
LINE
  5
B3FA
  8
0
 62
     0
 10
405.22551958511161
 20
523.82540798455329
 30
0.0
 11
405.22551958511161
 21
509.3644399845532
 31
0.0
  0
LINE
  5
B3FB
  8
0
 62
     0
 10
278.2255405851115
 20
538.51888798455343
 30
0.0
 11
522.72551958511167
 21
538.51888798455343
 31
0.0
  0
LINE
  5
B3FC
  8
0
 62
     0
 10
278.2255405851115
 20
524.82540798455329
 30
0.0
 11
501.51720758511141
 21
524.82540798455329
 31
0.0
  0
LINE
  5
B3FD
  8
0
 62
     0
 10
512.60619758511154
 20
528.42788598455331
 30
0.0
 11
522.72551958511167
 21
528.42788598455331
 31
0.0
  0
LINE
  5
B3FE
  8
0
 62
     0
 10
512.60614758511144
 20
528.42788598455331
 30
0.0
 11
505.16295958511171
 21
525.51368798455314
 31
0.0
  0
LINE
  5
B3FF
  8
0
 62
     0
 10
279.2642155851118
 20
508.36443998455343
 30
0.0
 11
501.1868235851116
 21
508.36443998455343
 31
0.0
  0
LINE
  5
B400
  8
0
 62
     0
 10
512.60618558511169
 20
512.65768798455338
 30
0.0
 11
505.41522558511178
 21
509.30236998455342
 31
0.0
  0
LINE
  5
B401
  8
0
 62
     0
 10
406.22551958511173
 20
512.65769798455335
 30
0.0
 11
522.72551958511167
 21
512.65769798455335
 31
0.0
  0
LINE
  5
B402
  8
0
 62
     0
 10
279.47619058511168
 20
497.4128699845532
 30
0.0
 11
500.97484958511171
 21
497.4128699845532
 31
0.0
  0
LINE
  5
B403
  8
0
 62
     0
 10
519.64338558511179
 20
505.80082598455323
 30
0.0
 11
505.56420358511127
 21
498.52820798455332
 31
0.0
  0
LINE
  5
B404
  8
0
 62
     0
 10
520.72551958511156
 20
507.5777419845532
 30
0.0
 11
520.72551958511156
 21
512.65769798455335
 31
0.0
  0
LINE
  5
B405
  8
0
 62
     0
 10
279.64086358511167
 20
488.66566198455331
 30
0.0
 11
500.81017558511138
 21
488.66566198455331
 31
0.0
  0
LINE
  5
B406
  8
0
 62
     0
 10
505.67254158511128
 20
489.92743998455319
 30
0.0
 11
519.69797358511175
 21
497.73185598455319
 31
0.0
  0
LINE
  5
B407
  8
0
 62
     0
 10
279.75816158511179
 20
482.2931659845533
 30
0.0
 11
500.69286558511152
 21
482.2931659845533
 31
0.0
  0
LINE
  5
B408
  8
0
 62
     0
 10
519.73602958511174
 20
491.85516598455308
 30
0.0
 11
505.74553558511161
 21
483.66357798455329
 31
0.0
  0
LINE
  5
B409
  8
0
 62
     0
 10
519.75850558511183
 20
488.28340798455332
 30
0.0
 11
505.78758958511162
 21
479.85644198455338
 31
0.0
  0
LINE
  5
B40A
  8
0
 62
     0
 10
374.22551958511173
 20
512.65769798455335
 30
0.0
 11
278.2255405851115
 21
512.65769798455335
 31
0.0
  0
LINE
  5
B40B
  8
0
 62
     0
 10
375.22551958511161
 20
523.82540798455329
 30
0.0
 11
375.22551958511161
 21
509.3644399845532
 31
0.0
  0
LINE
  5
B40C
  8
0
 62
     0
 10
378.72551958511173
 20
473.66967598455329
 30
0.0
 11
401.72551958511173
 21
473.66967598455329
 31
0.0
  0
LINE
  5
B40D
  8
0
 62
     0
 10
378.72551958511173
 20
473.66967598455329
 30
0.0
 11
378.72551958511173
 21
477.11967198455329
 31
0.0
  0
LINE
  5
B40E
  8
0
 62
     0
 10
401.72551958511173
 20
473.66967598455329
 30
0.0
 11
401.72551958511173
 21
477.11967198455329
 31
0.0
  0
ARC
  5
B40F
  8
0
 62
     0
 10
518.72551958511167
 20
595.3890359845534
 30
0.0
 40
2.0
 50
274.84550399999489
 51
0.0
  0
ARC
  5
B410
  8
0
 62
     0
 10
518.72551958511167
 20
578.45852398455315
 30
0.0
 40
2.0
 50
279.53061099999741
 51
0.0
  0
ARC
  5
B411
  8
0
 62
     0
 10
518.72551958511167
 20
562.20605198455337
 30
0.0
 40
2.0
 50
283.91458899999981
 51
0.0
  0
ARC
  5
B412
  8
0
 62
     0
 10
518.72551958511167
 20
546.95217798455337
 30
0.0
 40
2.0
 50
287.64566800000392
 51
0.0
  0
ARC
  5
B413
  8
0
 62
     0
 10
501.85283958511172
 20
549.98000998455336
 30
0.0
 40
10.0
 50
269.99999699998932
 51
287.64566800000392
  0
ARC
  5
B414
  8
0
 62
     0
 10
502.18474958511149
 20
566.35000398455327
 30
0.0
 40
10.0
 50
269.99999699998932
 51
283.91458899999981
  0
ARC
  5
B415
  8
0
 62
     0
 10
502.57134558511183
 20
583.85833598455315
 30
0.0
 40
10.0
 50
269.99999699998932
 51
279.53061099999741
  0
ARC
  5
B416
  8
0
 62
     0
 10
502.98186758511162
 20
602.08312798455324
 30
0.0
 40
10.0
 50
269.99999699998932
 51
274.84550399999489
  0
ARC
  5
B417
  8
0
 62
     0
 10
519.22674158511143
 20
610.67086598455319
 30
0.0
 40
1.498794
 50
272.04545799998709
 51
359.95450199999573
  0
ARC
  5
B418
  8
0
 62
     0
 10
501.51720758511141
 20
534.82540798455307
 30
0.0
 40
10.0
 50
269.99999699998932
 51
291.38161800000512
  0
ARC
  5
B419
  8
0
 62
     0
 10
501.1868235851116
 20
518.36443998455309
 30
0.0
 40
10.0
 50
269.99999699998932
 51
295.013857999999
  0
ARC
  5
B41A
  8
0
 62
     0
 10
500.97484958511171
 20
507.41286998455331
 30
0.0
 40
10.0
 50
269.99999699998932
 51
297.31867100000181
  0
ARC
  5
B41B
  8
0
 62
     0
 10
518.72551958511167
 20
507.5777419845532
 30
0.0
 40
2.0
 50
297.31867100000181
 51
0.0
  0
ARC
  5
B41C
  8
0
 62
     0
 10
500.81017558511138
 20
498.66566198455331
 30
0.0
 40
10.0
 50
269.99999699998932
 51
299.09363899998721
  0
ARC
  5
B41D
  8
0
 62
     0
 10
518.72551958511167
 20
499.4794899845532
 30
0.0
 40
2.0
 50
299.09363899998721
 51
0.0
  0
ARC
  5
B41E
  8
0
 62
     0
 10
500.69286558511152
 20
492.2931659845533
 30
0.0
 40
10.0
 50
269.99999699998932
 51
300.34943799999508
  0
ARC
  5
B41F
  8
0
 62
     0
 10
518.72551958511167
 20
493.5810679845531
 30
0.0
 40
2.0
 50
300.34943799999508
 51
0.0
  0
ARC
  5
B420
  8
0
 62
     0
 10
518.72551958511167
 20
489.99601598455331
 30
0.0
 40
2.0
 50
301.09750699999148
 51
0.0
  0
ARC
  5
B421
  8
0
 62
     0
 10
500.62261558511182
 20
488.41936998455321
 30
0.0
 40
10.0
 50
269.99999699998932
 51
301.09750699999148
  0
ARC
  5
B422
  8
0
 62
     0
 10
495.72551958511161
 20
479.11967198455318
 30
0.0
 40
2.0
 50
269.99999699998932
 51
339.50340099999482
  0
ARC
  5
B423
  8
0
 62
     0
 10
406.22551958511173
 20
523.82540798455329
 30
0.0
 40
1.0
 50
90.000002999984659
 51
180.0000050000005
  0
ARC
  5
B424
  8
0
 62
     0
 10
374.22551958511173
 20
523.82540798455329
 30
0.0
 40
1.0
 50
0.0
 51
90.000002999984659
  0
ARC
  5
B425
  8
0
 62
     0
 10
406.22551958511173
 20
513.65769798455335
 30
0.0
 40
1.0
 50
179.99999100000039
 51
270.00000099999488
  0
ARC
  5
B426
  8
0
 62
     0
 10
374.22551958511173
 20
513.65769798455335
 30
0.0
 40
1.0
 50
269.99999699998932
 51
0.0
  0
ARC
  5
B427
  8
0
 62
     0
 10
406.22551958511173
 20
509.3644399845532
 30
0.0
 40
1.0
 50
179.99999100000039
 51
270.00000099999488
  0
ARC
  5
B428
  8
0
 62
     0
 10
374.22551958511173
 20
509.3644399845532
 30
0.0
 40
1.0
 50
269.99999699998932
 51
0.0
  0
LINE
  5
B429
  8
0
 62
     0
 10
445.71263658511168
 20
556.35000398455338
 30
0.0
 11
502.18474958511149
 21
556.35000398455338
 31
0.0
  0
LINE
  5
B42A
  8
0
 62
     0
 10
444.96032058511167
 20
551.82668798455325
 30
0.0
 11
517.72551958511156
 21
551.82668798455325
 31
0.0
  0
LINE
  5
B42B
  8
0
 62
     0
 10
522.72551958511167
 20
730.6696884845536
 30
0.0
 11
522.72551958511167
 21
490.66966348455333
 31
0.0
  0
ARC
  5
B42C
  8
0
 62
     0
 10
279.75816158511179
 20
492.2931659845533
 30
0.0
 40
10.0
 50
261.18398499998779
 51
270.00000299998459
  0
LINE
  5
BB90
  8
0
  6
AM_ISO08W050
 62
     0
 10
137.90376457129921
 20
1072.609109938099
 30
0.0
 11
889.04845958511066
 21
1072.609109938099
 31
0.0
  0
LINE
  5
BB92
  8
0
  6
CONTINUOUS
 62
     0
 10
522.72551958511167
 20
1192.6091099380969
 30
0.0
 11
522.72551958511167
 21
952.60914993809899
 31
0.0
  0
LINE
  5
BBA2
  8
0
  6
CONTINUOUS
 62
     0
 10
522.72551958511167
 20
972.8819099380986
 30
0.0
 11
535.72541958511147
 21
972.8819099380986
 31
0.0
  0
LINE
  5
BBA3
  8
0
  6
CONTINUOUS
 62
     0
 10
522.72551958511167
 20
952.60914993809899
 30
0.0
 11
533.72551958511258
 21
952.60914993809899
 31
0.0
  0
LINE
  5
BBA6
  8
0
  6
CONTINUOUS
 62
     0
 10
522.72551958511167
 20
988.43824993809881
 30
0.0
 11
535.72541958511147
 21
988.43824993809881
 31
0.0
  0
LINE
  5
BBA7
  8
0
  6
CONTINUOUS
 62
     0
 10
522.72551958511167
 20
996.61243993809921
 30
0.0
 11
535.72541958511147
 21
996.61243993809921
 31
0.0
  0
LINE
  5
BBCB
  8
0
  6
CONTINUOUS
 62
     0
 10
522.72551958511167
 20
1148.605709938098
 30
0.0
 11
535.72541958511147
 21
1148.605709938098
 31
0.0
  0
LINE
  5
BBCC
  8
0
  6
CONTINUOUS
 62
     0
 10
522.72551958511167
 20
1156.7799099380991
 30
0.0
 11
535.72541958511147
 21
1156.7799099380991
 31
0.0
  0
LINE
  5
BBCD
  8
0
  6
CONTINUOUS
 62
     0
 10
522.72551958511167
 20
1172.3363099380981
 30
0.0
 11
535.72541958511147
 21
1172.3363099380981
 31
0.0
  0
LINE
  5
BBCE
  8
0
  6
CONTINUOUS
 62
     0
 10
522.72551958511167
 20
1192.6091099380969
 30
0.0
 11
533.72551958511258
 21
1192.6091099380969
 31
0.0
  0
CIRCLE
  5
BC0A
  8
0
 62
     0
 10
390.22551958511173
 20
1072.609056938099
 30
0.0
 40
4.0
  0
CIRCLE
  5
BC0B
  8
0
 62
     0
 10
390.22551958511173
 20
1072.609056938099
 30
0.0
 40
5.0
  0
ARC
  5
BC0C
  8
0
 62
     0
 10
182.9935985851111
 20
946.60910993809921
 30
0.0
 40
3.0
 50
200.00000000000369
 51
270.0
  0
LINE
  5
BC0D
  8
0
 62
     0
 10
182.9935985851111
 20
943.6091099380991
 30
0.0
 11
278.2255405851115
 21
943.6091099380991
 31
0.0
  0
ARC
  5
BC0E
  8
0
 62
     0
 10
187.2255405851115
 20
958.37237993809924
 30
0.0
 40
11.0
 50
180.0
 51
200.00000000000369
  0
LINE
  5
BC0F
  8
0
 62
     0
 10
176.8889225851112
 20
954.61015793809906
 30
0.0
 11
180.17452058511159
 21
945.58304993809918
 31
0.0
  0
LINE
  5
BC10
  8
0
 62
     0
 10
278.2255405851115
 20
943.6091099380991
 30
0.0
 11
278.2255405851115
 21
1208.609109938099
 31
0.0
  0
ARC
  5
BC11
  8
0
 62
     0
 10
187.2255405851115
 20
1186.8458399380991
 30
0.0
 40
11.0
 50
159.99999999999631
 51
180.0
  0
ARC
  5
BC12
  8
0
 62
     0
 10
185.5413905851114
 20
1205.609109938099
 30
0.0
 40
3.0
 50
90.0
 51
159.99999999999631
  0
LINE
  5
BC13
  8
0
 62
     0
 10
176.8889225851112
 20
1190.6080619380989
 30
0.0
 11
182.72231258511189
 21
1206.6351699380989
 31
0.0
  0
LINE
  5
BC14
  8
0
 62
     0
 10
183.4407675851121
 20
945.58304993809918
 30
0.0
 11
183.4407675851121
 21
1203.4672919380989
 31
0.0
  0
LINE
  5
BC15
  8
0
 62
     0
 10
176.2255405851115
 20
958.37237993809924
 30
0.0
 11
176.2255405851115
 21
1186.8458399380991
 31
0.0
  0
LINE
  5
BC16
  8
0
 62
     0
 10
185.5413905851114
 20
1208.609109938099
 30
0.0
 11
278.2255405851115
 21
1208.609109938099
 31
0.0
  0
ARC
  5
BC17
  8
0
 62
     0
 10
518.72551958511167
 20
954.44500493809915
 30
0.0
 40
2.0
 50
299.99999800001649
 51
0.0
  0
LINE
  5
BC18
  8
0
 62
     0
 10
519.72552058511201
 20
952.71297893809924
 30
0.0
 11
514.38580658511125
 21
949.6300929380991
 31
0.0
  0
ARC
  5
BC19
  8
0
 62
     0
 10
509.38579758511179
 20
958.29034193809923
 30
0.0
 40
10.0
 50
269.99999700001541
 51
299.99999800001649
  0
LINE
  5
BC1A
  8
0
 62
     0
 10
438.28373458511157
 20
948.29034193809923
 30
0.0
 11
509.38579758511179
 21
948.29034193809923
 31
0.0
  0
LINE
  5
BC1B
  8
0
 62
     0
 10
522.72549858511184
 20
1187.6091229380991
 30
0.0
 11
520.72558058511117
 21
1187.623122938099
 31
0.0
  0
LINE
  5
BC1C
  8
0
 62
     0
 10
520.72558058511117
 20
1195.6790569380989
 30
0.0
 11
504.53081758511178
 21
1205.609109938099
 31
0.0
  0
LINE
  5
BC1D
  8
0
 62
     0
 10
278.2255405851115
 20
1205.609109938099
 30
0.0
 11
504.53069558511118
 21
1205.609109938099
 31
0.0
  0
LINE
  5
BC1E
  8
0
  6
AM_ISO08W050
 62
     0
 10
390.22551958511173
 20
930.99733993809912
 30
0.0
 11
390.22551958511173
 21
945.4423719380992
 31
0.0
  0
ARC
  5
BC1F
  8
0
 62
     0
 10
455.20052558511128
 20
891.50308693809905
 30
0.0
 40
9.0
 50
117.977060000013
 51
180.10395799999091
  0
ARC
  5
BC20
  8
0
 62
     0
 10
455.1515295851118
 20
918.37808693809916
 30
0.0
 40
9.0
 50
180.10395799999091
 51
243.26531200002881
  0
LINE
  5
BC21
  8
0
 62
     0
 10
453.0721015851118
 20
913.69332593809918
 30
0.0
 11
451.1023595851114
 21
914.81041293809926
 31
0.0
  0
LINE
  5
BC22
  8
0
 62
     0
 10
455.22551958511161
 20
906.51638993809922
 30
0.0
 11
455.22551958511161
 21
910.26428593809919
 31
0.0
  0
LINE
  5
BC23
  8
0
  6
AM_ISO08W050
 62
     0
 10
450.6815285851111
 20
905.79410293809906
 30
0.0
 11
439.94852658511212
 21
905.79410293809906
 31
0.0
  0
LINE
  5
BC24
  8
0
  6
AM_ISO08W050
 62
     0
 10
445.22551958511139
 20
899.87109893809918
 30
0.0
 11
445.22551958511139
 21
912.35611393809916
 31
0.0
  0
LINE
  5
BC25
  8
0
 62
     0
 10
446.20054458511117
 20
891.48612293809924
 30
0.0
 11
446.2025435851113
 21
890.56614193809924
 31
0.0
  0
ARC
  5
BC26
  8
0
 62
     0
 10
447.22551958511173
 20
906.51638993809922
 30
0.0
 40
8.0
 50
297.97706000001313
 51
0.0
  0
ARC
  5
BC27
  8
0
 62
     0
 10
450.97551958511139
 20
909.99645693809919
 30
0.0
 40
4.25
 50
0.0
 51
60.441404999993601
  0
LINE
  5
BC28
  8
0
 62
     0
 10
453.0721015851118
 20
909.22332493809915
 30
0.0
 11
451.1023595851114
 21
910.34041193809935
 31
0.0
  0
ARC
  5
BC29
  8
0
 62
     0
 10
450.97551958511139
 20
905.52645493809905
 30
0.0
 40
4.25
 50
5.6335919999969368
 51
60.441404999993601
  0
ARC
  5
BC2A
  8
0
 62
     0
 10
428.72551958511139
 20
884.74012193809915
 30
0.0
 40
10.0
 50
270.00003599997228
 51
0.0000179999992061
  0
ARC
  5
BC2B
  8
0
 62
     0
 10
428.20252458511141
 20
890.56610593809921
 30
0.0
 40
18.0
 50
270.0
 51
0.0000179999992061
  0
ARC
  5
BC2C
  8
0
 62
     0
 10
428.72551958511139
 20
897.56009393809916
 30
0.0
 40
10.0
 50
0.0000179999992061
 51
90.0
  0
LINE
  5
BC2D
  8
0
 62
     0
 10
438.72551958511173
 20
920.64609193809918
 30
0.0
 11
438.72551958511173
 21
884.74012193809915
 31
0.0
  0
LINE
  5
BC2E
  8
0
 62
     0
 10
446.13353358511131
 20
928.14610393809915
 30
0.0
 11
446.15153858511218
 21
918.3621239380991
 31
0.0
  0
ARC
  5
BC2F
  8
0
 62
     0
 10
428.72551958511139
 20
920.64609193809918
 30
0.0
 40
10.0
 50
0.0000179999992061
 51
90.0
  0
ARC
  5
BC30
  8
0
 62
     0
 10
455.1515295851118
 20
922.84808793809941
 30
0.0
 40
9.0
 50
180.10395799999091
 51
243.2622339999939
  0
POLYLINE
  5
BC31
  8
0
 62
     0
 10
446.13349771366711
 20
928.14610394123179
 30
0.0
 66
     1
 70
     8
  0
VERTEX
  8
0
  5
C31A
 10
446.133
 20
928.146
 30
0.000000
  70
    32
  0
VERTEX
  8
0
  5
C31B
 10
446.132
 20
928.279
 30
0.000000
  70
    32
  0
VERTEX
  8
0
  5
C31C
 10
446.128
 20
928.411
 30
0.000000
  70
    32
  0
VERTEX
  8
0
  5
C31D
 10
446.121
 20
928.544
 30
0.000000
  70
    32
  0
VERTEX
  8
0
  5
C31E
 10
446.111
 20
928.676
 30
0.000000
  70
    32
  0
VERTEX
  8
0
  5
C31F
 10
446.099
 20
928.809
 30
0.000000
  70
    32
  0
VERTEX
  8
0
  5
C320
 10
446.084
 20
928.941
 30
0.000000
  70
    32
  0
VERTEX
  8
0
  5
C321
 10
446.066
 20
929.073
 30
0.000000
  70
    32
  0
VERTEX
  8
0
  5
C322
 10
446.045
 20
929.205
 30
0.000000
  70
    32
  0
VERTEX
  8
0
  5
C323
 10
446.021
 20
929.337
 30
0.000000
  70
    32
  0
VERTEX
  8
0
  5
C324
 10
445.995
 20
929.469
 30
0.000000
  70
    32
  0
VERTEX
  8
0
  5
C325
 10
445.966
 20
929.600
 30
0.000000
  70
    32
  0
VERTEX
  8
0
  5
C326
 10
445.934
 20
929.731
 30
0.000000
  70
    32
  0
VERTEX
  8
0
  5
C327
 10
445.900
 20
929.862
 30
0.000000
  70
    32
  0
VERTEX
  8
0
  5
C328
 10
445.862
 20
929.993
 30
0.000000
  70
    32
  0
VERTEX
  8
0
  5
C329
 10
445.823
 20
930.124
 30
0.000000
  70
    32
  0
VERTEX
  8
0
  5
C32A
 10
445.780
 20
930.254
 30
0.000000
  70
    32
  0
VERTEX
  8
0
  5
C32B
 10
445.734
 20
930.384
 30
0.000000
  70
    32
  0
VERTEX
  8
0
  5
C32C
 10
445.686
 20
930.513
 30
0.000000
  70
    32
  0
VERTEX
  8
0
  5
C32D
 10
445.635
 20
930.642
 30
0.000000
  70
    32
  0
VERTEX
  8
0
  5
C32E
 10
445.582
 20
930.771
 30
0.000000
  70
    32
  0
VERTEX
  8
0
  5
C32F
 10
445.526
 20
930.900
 30
0.000000
  70
    32
  0
VERTEX
  8
0
  5
C330
 10
445.467
 20
931.028
 30
0.000000
  70
    32
  0
VERTEX
  8
0
  5
C331
 10
445.405
 20
931.155
 30
0.000000
  70
    32
  0
VERTEX
  8
0
  5
C332
 10
445.341
 20
931.282
 30
0.000000
  70
    32
  0
VERTEX
  8
0
  5
C333
 10
445.274
 20
931.409
 30
0.000000
  70
    32
  0
VERTEX
  8
0
  5
C334
 10
445.204
 20
931.535
 30
0.000000
  70
    32
  0
VERTEX
  8
0
  5
C335
 10
445.132
 20
931.661
 30
0.000000
  70
    32
  0
VERTEX
  8
0
  5
C336
 10
445.057
 20
931.786
 30
0.000000
  70
    32
  0
VERTEX
  8
0
  5
C337
 10
444.980
 20
931.910
 30
0.000000
  70
    32
  0
VERTEX
  8
0
  5
C338
 10
444.900
 20
932.034
 30
0.000000
  70
    32
  0
VERTEX
  8
0
  5
C339
 10
444.817
 20
932.158
 30
0.000000
  70
    32
  0
VERTEX
  8
0
  5
C33A
 10
444.732
 20
932.281
 30
0.000000
  70
    32
  0
VERTEX
  8
0
  5
C33B
 10
444.645
 20
932.403
 30
0.000000
  70
    32
  0
VERTEX
  8
0
  5
C33C
 10
444.554
 20
932.524
 30
0.000000
  70
    32
  0
VERTEX
  8
0
  5
C33D
 10
444.461
 20
932.645
 30
0.000000
  70
    32
  0
VERTEX
  8
0
  5
C33E
 10
444.366
 20
932.765
 30
0.000000
  70
    32
  0
VERTEX
  8
0
  5
C33F
 10
444.268
 20
932.885
 30
0.000000
  70
    32
  0
VERTEX
  8
0
  5
C340
 10
444.168
 20
933.004
 30
0.000000
  70
    32
  0
VERTEX
  8
0
  5
C341
 10
444.065
 20
933.122
 30
0.000000
  70
    32
  0
VERTEX
  8
0
  5
C342
 10
443.960
 20
933.239
 30
0.000000
  70
    32
  0
VERTEX
  8
0
  5
C343
 10
443.852
 20
933.356
 30
0.000000
  70
    32
  0
VERTEX
  8
0
  5
C344
 10
443.742
 20
933.471
 30
0.000000
  70
    32
  0
VERTEX
  8
0
  5
C345
 10
443.630
 20
933.586
 30
0.000000
  70
    32
  0
VERTEX
  8
0
  5
C346
 10
443.515
 20
933.700
 30
0.000000
  70
    32
  0
VERTEX
  8
0
  5
C347
 10
443.397
 20
933.814
 30
0.000000
  70
    32
  0
VERTEX
  8
0
  5
C348
 10
443.278
 20
933.926
 30
0.000000
  70
    32
  0
VERTEX
  8
0
  5
C349
 10
443.156
 20
934.038
 30
0.000000
  70
    32
  0
VERTEX
  8
0
  5
C34A
 10
443.031
 20
934.148
 30
0.000000
  70
    32
  0
VERTEX
  8
0
  5
C34B
 10
442.905
 20
934.258
 30
0.000000
  70
    32
  0
VERTEX
  8
0
  5
C34C
 10
442.776
 20
934.367
 30
0.000000
  70
    32
  0
VERTEX
  8
0
  5
C34D
 10
442.644
 20
934.475
 30
0.000000
  70
    32
  0
VERTEX
  8
0
  5
C34E
 10
442.511
 20
934.582
 30
0.000000
  70
    32
  0
VERTEX
  8
0
  5
C34F
 10
442.375
 20
934.688
 30
0.000000
  70
    32
  0
VERTEX
  8
0
  5
C350
 10
442.237
 20
934.793
 30
0.000000
  70
    32
  0
VERTEX
  8
0
  5
C351
 10
442.097
 20
934.897
 30
0.000000
  70
    32
  0
VERTEX
  8
0
  5
C352
 10
441.955
 20
935.000
 30
0.000000
  70
    32
  0
VERTEX
  8
0
  5
C353
 10
441.811
 20
935.102
 30
0.000000
  70
    32
  0
VERTEX
  8
0
  5
C354
 10
441.664
 20
935.203
 30
0.000000
  70
    32
  0
VERTEX
  8
0
  5
C355
 10
441.516
 20
935.303
 30
0.000000
  70
    32
  0
VERTEX
  8
0
  5
C356
 10
441.365
 20
935.402
 30
0.000000
  70
    32
  0
VERTEX
  8
0
  5
C357
 10
441.212
 20
935.499
 30
0.000000
  70
    32
  0
VERTEX
  8
0
  5
C358
 10
441.057
 20
935.596
 30
0.000000
  70
    32
  0
VERTEX
  8
0
  5
C359
 10
440.901
 20
935.691
 30
0.000000
  70
    32
  0
VERTEX
  8
0
  5
C35A
 10
440.742
 20
935.786
 30
0.000000
  70
    32
  0
VERTEX
  8
0
  5
C35B
 10
440.581
 20
935.879
 30
0.000000
  70
    32
  0
VERTEX
  8
0
  5
C35C
 10
440.419
 20
935.971
 30
0.000000
  70
    32
  0
VERTEX
  8
0
  5
C35D
 10
440.254
 20
936.062
 30
0.000000
  70
    32
  0
VERTEX
  8
0
  5
C35E
 10
440.088
 20
936.151
 30
0.000000
  70
    32
  0
VERTEX
  8
0
  5
C35F
 10
439.919
 20
936.240
 30
0.000000
  70
    32
  0
VERTEX
  8
0
  5
C360
 10
439.749
 20
936.327
 30
0.000000
  70
    32
  0
VERTEX
  8
0
  5
C361
 10
439.577
 20
936.413
 30
0.000000
  70
    32
  0
VERTEX
  8
0
  5
C362
 10
439.403
 20
936.498
 30
0.000000
  70
    32
  0
VERTEX
  8
0
  5
C363
 10
439.228
 20
936.581
 30
0.000000
  70
    32
  0
VERTEX
  8
0
  5
C364
 10
439.051
 20
936.663
 30
0.000000
  70
    32
  0
VERTEX
  8
0
  5
C365
 10
438.872
 20
936.744
 30
0.000000
  70
    32
  0
VERTEX
  8
0
  5
C366
 10
438.691
 20
936.824
 30
0.000000
  70
    32
  0
VERTEX
  8
0
  5
C367
 10
438.509
 20
936.902
 30
0.000000
  70
    32
  0
VERTEX
  8
0
  5
C368
 10
438.325
 20
936.979
 30
0.000000
  70
    32
  0
VERTEX
  8
0
  5
C369
 10
438.139
 20
937.055
 30
0.000000
  70
    32
  0
VERTEX
  8
0
  5
C36A
 10
437.952
 20
937.129
 30
0.000000
  70
    32
  0
VERTEX
  8
0
  5
C36B
 10
437.764
 20
937.202
 30
0.000000
  70
    32
  0
VERTEX
  8
0
  5
C36C
 10
437.574
 20
937.274
 30
0.000000
  70
    32
  0
VERTEX
  8
0
  5
C36D
 10
437.382
 20
937.344
 30
0.000000
  70
    32
  0
VERTEX
  8
0
  5
C36E
 10
437.189
 20
937.413
 30
0.000000
  70
    32
  0
VERTEX
  8
0
  5
C36F
 10
436.995
 20
937.480
 30
0.000000
  70
    32
  0
VERTEX
  8
0
  5
C370
 10
436.799
 20
937.547
 30
0.000000
  70
    32
  0
VERTEX
  8
0
  5
C371
 10
436.602
 20
937.611
 30
0.000000
  70
    32
  0
VERTEX
  8
0
  5
C372
 10
436.403
 20
937.674
 30
0.000000
  70
    32
  0
VERTEX
  8
0
  5
C373
 10
436.203
 20
937.736
 30
0.000000
  70
    32
  0
VERTEX
  8
0
  5
C374
 10
436.002
 20
937.796
 30
0.000000
  70
    32
  0
VERTEX
  8
0
  5
C375
 10
435.800
 20
937.855
 30
0.000000
  70
    32
  0
VERTEX
  8
0
  5
C376
 10
435.596
 20
937.913
 30
0.000000
  70
    32
  0
VERTEX
  8
0
  5
C377
 10
435.391
 20
937.969
 30
0.000000
  70
    32
  0
VERTEX
  8
0
  5
C378
 10
435.185
 20
938.023
 30
0.000000
  70
    32
  0
VERTEX
  8
0
  5
C379
 10
434.978
 20
938.076
 30
0.000000
  70
    32
  0
VERTEX
  8
0
  5
C37A
 10
434.770
 20
938.128
 30
0.000000
  70
    32
  0
VERTEX
  8
0
  5
C37B
 10
434.561
 20
938.178
 30
0.000000
  70
    32
  0
VERTEX
  8
0
  5
C37C
 10
434.350
 20
938.226
 30
0.000000
  70
    32
  0
VERTEX
  8
0
  5
C37D
 10
434.139
 20
938.273
 30
0.000000
  70
    32
  0
VERTEX
  8
0
  5
C37E
 10
433.927
 20
938.319
 30
0.000000
  70
    32
  0
VERTEX
  8
0
  5
C37F
 10
433.714
 20
938.362
 30
0.000000
  70
    32
  0
VERTEX
  8
0
  5
C380
 10
433.500
 20
938.405
 30
0.000000
  70
    32
  0
VERTEX
  8
0
  5
C381
 10
433.285
 20
938.446
 30
0.000000
  70
    32
  0
VERTEX
  8
0
  5
C382
 10
433.069
 20
938.485
 30
0.000000
  70
    32
  0
VERTEX
  8
0
  5
C383
 10
432.853
 20
938.523
 30
0.000000
  70
    32
  0
VERTEX
  8
0
  5
C384
 10
432.635
 20
938.559
 30
0.000000
  70
    32
  0
VERTEX
  8
0
  5
C385
 10
432.417
 20
938.593
 30
0.000000
  70
    32
  0
VERTEX
  8
0
  5
C386
 10
432.198
 20
938.626
 30
0.000000
  70
    32
  0
VERTEX
  8
0
  5
C387
 10
431.979
 20
938.658
 30
0.000000
  70
    32
  0
VERTEX
  8
0
  5
C388
 10
431.759
 20
938.688
 30
0.000000
  70
    32
  0
VERTEX
  8
0
  5
C389
 10
431.538
 20
938.716
 30
0.000000
  70
    32
  0
VERTEX
  8
0
  5
C38A
 10
431.317
 20
938.743
 30
0.000000
  70
    32
  0
VERTEX
  8
0
  5
C38B
 10
431.095
 20
938.768
 30
0.000000
  70
    32
  0
VERTEX
  8
0
  5
C38C
 10
430.873
 20
938.791
 30
0.000000
  70
    32
  0
VERTEX
  8
0
  5
C38D
 10
430.650
 20
938.813
 30
0.000000
  70
    32
  0
VERTEX
  8
0
  5
C38E
 10
430.427
 20
938.833
 30
0.000000
  70
    32
  0
VERTEX
  8
0
  5
C38F
 10
430.203
 20
938.852
 30
0.000000
  70
    32
  0
VERTEX
  8
0
  5
C390
 10
429.979
 20
938.869
 30
0.000000
  70
    32
  0
VERTEX
  8
0
  5
C391
 10
429.754
 20
938.884
 30
0.000000
  70
    32
  0
VERTEX
  8
0
  5
C392
 10
429.530
 20
938.898
 30
0.000000
  70
    32
  0
VERTEX
  8
0
  5
C393
 10
429.305
 20
938.910
 30
0.000000
  70
    32
  0
VERTEX
  8
0
  5
C394
 10
429.080
 20
938.921
 30
0.000000
  70
    32
  0
VERTEX
  8
0
  5
C395
 10
428.854
 20
938.930
 30
0.000000
  70
    32
  0
VERTEX
  8
0
  5
C396
 10
428.629
 20
938.937
 30
0.000000
  70
    32
  0
VERTEX
  8
0
  5
C397
 10
428.403
 20
938.943
 30
0.000000
  70
    32
  0
VERTEX
  8
0
  5
C398
 10
428.177
 20
938.947
 30
0.000000
  70
    32
  0
VERTEX
  8
0
  5
C399
 10
427.951
 20
938.949
 30
0.000000
  70
    32
  0
VERTEX
  8
0
  5
C39A
 10
427.726
 20
938.950
 30
0.000000
  70
    32
  0
SEQEND
  8
0
  5
C39B
  0
POLYLINE
  5
BC32
  8
0
 62
     0
 10
446.1382159859902
 20
925.60155101755561
 30
0.0
 66
     1
 70
     8
  0
VERTEX
  8
0
  5
C39C
 10
446.138
 20
925.602
 30
0.000000
  70
    32
  0
VERTEX
  8
0
  5
C39D
 10
446.137
 20
925.719
 30
0.000000
  70
    32
  0
VERTEX
  8
0
  5
C39E
 10
446.133
 20
925.836
 30
0.000000
  70
    32
  0
VERTEX
  8
0
  5
C39F
 10
446.126
 20
925.953
 30
0.000000
  70
    32
  0
VERTEX
  8
0
  5
C3A0
 10
446.116
 20
926.070
 30
0.000000
  70
    32
  0
VERTEX
  8
0
  5
C3A1
 10
446.104
 20
926.187
 30
0.000000
  70
    32
  0
VERTEX
  8
0
  5
C3A2
 10
446.088
 20
926.304
 30
0.000000
  70
    32
  0
VERTEX
  8
0
  5
C3A3
 10
446.070
 20
926.420
 30
0.000000
  70
    32
  0
VERTEX
  8
0
  5
C3A4
 10
446.049
 20
926.537
 30
0.000000
  70
    32
  0
VERTEX
  8
0
  5
C3A5
 10
446.026
 20
926.654
 30
0.000000
  70
    32
  0
VERTEX
  8
0
  5
C3A6
 10
446.000
 20
926.770
 30
0.000000
  70
    32
  0
VERTEX
  8
0
  5
C3A7
 10
445.971
 20
926.886
 30
0.000000
  70
    32
  0
VERTEX
  8
0
  5
C3A8
 10
445.939
 20
927.002
 30
0.000000
  70
    32
  0
VERTEX
  8
0
  5
C3A9
 10
445.904
 20
927.118
 30
0.000000
  70
    32
  0
VERTEX
  8
0
  5
C3AA
 10
445.867
 20
927.233
 30
0.000000
  70
    32
  0
VERTEX
  8
0
  5
C3AB
 10
445.827
 20
927.349
 30
0.000000
  70
    32
  0
VERTEX
  8
0
  5
C3AC
 10
445.784
 20
927.464
 30
0.000000
  70
    32
  0
VERTEX
  8
0
  5
C3AD
 10
445.739
 20
927.578
 30
0.000000
  70
    32
  0
VERTEX
  8
0
  5
C3AE
 10
445.691
 20
927.693
 30
0.000000
  70
    32
  0
VERTEX
  8
0
  5
C3AF
 10
445.640
 20
927.807
 30
0.000000
  70
    32
  0
VERTEX
  8
0
  5
C3B0
 10
445.586
 20
927.921
 30
0.000000
  70
    32
  0
VERTEX
  8
0
  5
C3B1
 10
445.530
 20
928.034
 30
0.000000
  70
    32
  0
VERTEX
  8
0
  5
C3B2
 10
445.471
 20
928.147
 30
0.000000
  70
    32
  0
VERTEX
  8
0
  5
C3B3
 10
445.409
 20
928.260
 30
0.000000
  70
    32
  0
VERTEX
  8
0
  5
C3B4
 10
445.345
 20
928.372
 30
0.000000
  70
    32
  0
VERTEX
  8
0
  5
C3B5
 10
445.278
 20
928.484
 30
0.000000
  70
    32
  0
VERTEX
  8
0
  5
C3B6
 10
445.209
 20
928.596
 30
0.000000
  70
    32
  0
VERTEX
  8
0
  5
C3B7
 10
445.137
 20
928.707
 30
0.000000
  70
    32
  0
VERTEX
  8
0
  5
C3B8
 10
445.062
 20
928.817
 30
0.000000
  70
    32
  0
VERTEX
  8
0
  5
C3B9
 10
444.984
 20
928.927
 30
0.000000
  70
    32
  0
VERTEX
  8
0
  5
C3BA
 10
444.904
 20
929.037
 30
0.000000
  70
    32
  0
VERTEX
  8
0
  5
C3BB
 10
444.822
 20
929.146
 30
0.000000
  70
    32
  0
VERTEX
  8
0
  5
C3BC
 10
444.736
 20
929.254
 30
0.000000
  70
    32
  0
VERTEX
  8
0
  5
C3BD
 10
444.649
 20
929.362
 30
0.000000
  70
    32
  0
VERTEX
  8
0
  5
C3BE
 10
444.558
 20
929.469
 30
0.000000
  70
    32
  0
VERTEX
  8
0
  5
C3BF
 10
444.466
 20
929.576
 30
0.000000
  70
    32
  0
VERTEX
  8
0
  5
C3C0
 10
444.370
 20
929.682
 30
0.000000
  70
    32
  0
VERTEX
  8
0
  5
C3C1
 10
444.272
 20
929.788
 30
0.000000
  70
    32
  0
VERTEX
  8
0
  5
C3C2
 10
444.172
 20
929.893
 30
0.000000
  70
    32
  0
VERTEX
  8
0
  5
C3C3
 10
444.069
 20
929.997
 30
0.000000
  70
    32
  0
VERTEX
  8
0
  5
C3C4
 10
443.964
 20
930.101
 30
0.000000
  70
    32
  0
VERTEX
  8
0
  5
C3C5
 10
443.856
 20
930.204
 30
0.000000
  70
    32
  0
VERTEX
  8
0
  5
C3C6
 10
443.746
 20
930.306
 30
0.000000
  70
    32
  0
VERTEX
  8
0
  5
C3C7
 10
443.633
 20
930.408
 30
0.000000
  70
    32
  0
VERTEX
  8
0
  5
C3C8
 10
443.518
 20
930.508
 30
0.000000
  70
    32
  0
VERTEX
  8
0
  5
C3C9
 10
443.401
 20
930.609
 30
0.000000
  70
    32
  0
VERTEX
  8
0
  5
C3CA
 10
443.281
 20
930.708
 30
0.000000
  70
    32
  0
VERTEX
  8
0
  5
C3CB
 10
443.159
 20
930.806
 30
0.000000
  70
    32
  0
VERTEX
  8
0
  5
C3CC
 10
443.035
 20
930.904
 30
0.000000
  70
    32
  0
VERTEX
  8
0
  5
C3CD
 10
442.908
 20
931.001
 30
0.000000
  70
    32
  0
VERTEX
  8
0
  5
C3CE
 10
442.779
 20
931.097
 30
0.000000
  70
    32
  0
VERTEX
  8
0
  5
C3CF
 10
442.648
 20
931.193
 30
0.000000
  70
    32
  0
VERTEX
  8
0
  5
C3D0
 10
442.514
 20
931.287
 30
0.000000
  70
    32
  0
VERTEX
  8
0
  5
C3D1
 10
442.379
 20
931.381
 30
0.000000
  70
    32
  0
VERTEX
  8
0
  5
C3D2
 10
442.241
 20
931.474
 30
0.000000
  70
    32
  0
VERTEX
  8
0
  5
C3D3
 10
442.101
 20
931.566
 30
0.000000
  70
    32
  0
VERTEX
  8
0
  5
C3D4
 10
441.958
 20
931.657
 30
0.000000
  70
    32
  0
VERTEX
  8
0
  5
C3D5
 10
441.814
 20
931.747
 30
0.000000
  70
    32
  0
VERTEX
  8
0
  5
C3D6
 10
441.668
 20
931.836
 30
0.000000
  70
    32
  0
VERTEX
  8
0
  5
C3D7
 10
441.519
 20
931.924
 30
0.000000
  70
    32
  0
VERTEX
  8
0
  5
C3D8
 10
441.368
 20
932.011
 30
0.000000
  70
    32
  0
VERTEX
  8
0
  5
C3D9
 10
441.215
 20
932.098
 30
0.000000
  70
    32
  0
VERTEX
  8
0
  5
C3DA
 10
441.061
 20
932.183
 30
0.000000
  70
    32
  0
VERTEX
  8
0
  5
C3DB
 10
440.904
 20
932.267
 30
0.000000
  70
    32
  0
VERTEX
  8
0
  5
C3DC
 10
440.745
 20
932.351
 30
0.000000
  70
    32
  0
VERTEX
  8
0
  5
C3DD
 10
440.584
 20
932.433
 30
0.000000
  70
    32
  0
VERTEX
  8
0
  5
C3DE
 10
440.422
 20
932.514
 30
0.000000
  70
    32
  0
VERTEX
  8
0
  5
C3DF
 10
440.257
 20
932.594
 30
0.000000
  70
    32
  0
VERTEX
  8
0
  5
C3E0
 10
440.090
 20
932.674
 30
0.000000
  70
    32
  0
VERTEX
  8
0
  5
C3E1
 10
439.922
 20
932.752
 30
0.000000
  70
    32
  0
VERTEX
  8
0
  5
C3E2
 10
439.752
 20
932.829
 30
0.000000
  70
    32
  0
VERTEX
  8
0
  5
C3E3
 10
439.580
 20
932.905
 30
0.000000
  70
    32
  0
VERTEX
  8
0
  5
C3E4
 10
439.406
 20
932.980
 30
0.000000
  70
    32
  0
VERTEX
  8
0
  5
C3E5
 10
439.231
 20
933.053
 30
0.000000
  70
    32
  0
VERTEX
  8
0
  5
C3E6
 10
439.053
 20
933.126
 30
0.000000
  70
    32
  0
VERTEX
  8
0
  5
C3E7
 10
438.874
 20
933.197
 30
0.000000
  70
    32
  0
VERTEX
  8
0
  5
C3E8
 10
438.694
 20
933.268
 30
0.000000
  70
    32
  0
VERTEX
  8
0
  5
C3E9
 10
438.511
 20
933.337
 30
0.000000
  70
    32
  0
VERTEX
  8
0
  5
C3EA
 10
438.327
 20
933.405
 30
0.000000
  70
    32
  0
VERTEX
  8
0
  5
C3EB
 10
438.142
 20
933.472
 30
0.000000
  70
    32
  0
VERTEX
  8
0
  5
C3EC
 10
437.955
 20
933.538
 30
0.000000
  70
    32
  0
VERTEX
  8
0
  5
C3ED
 10
437.766
 20
933.602
 30
0.000000
  70
    32
  0
VERTEX
  8
0
  5
C3EE
 10
437.576
 20
933.665
 30
0.000000
  70
    32
  0
VERTEX
  8
0
  5
C3EF
 10
437.384
 20
933.727
 30
0.000000
  70
    32
  0
VERTEX
  8
0
  5
C3F0
 10
437.191
 20
933.788
 30
0.000000
  70
    32
  0
VERTEX
  8
0
  5
C3F1
 10
436.997
 20
933.848
 30
0.000000
  70
    32
  0
VERTEX
  8
0
  5
C3F2
 10
436.801
 20
933.906
 30
0.000000
  70
    32
  0
VERTEX
  8
0
  5
C3F3
 10
436.604
 20
933.963
 30
0.000000
  70
    32
  0
VERTEX
  8
0
  5
C3F4
 10
436.405
 20
934.019
 30
0.000000
  70
    32
  0
VERTEX
  8
0
  5
C3F5
 10
436.205
 20
934.074
 30
0.000000
  70
    32
  0
VERTEX
  8
0
  5
C3F6
 10
436.004
 20
934.127
 30
0.000000
  70
    32
  0
VERTEX
  8
0
  5
C3F7
 10
435.801
 20
934.179
 30
0.000000
  70
    32
  0
VERTEX
  8
0
  5
C3F8
 10
435.598
 20
934.230
 30
0.000000
  70
    32
  0
VERTEX
  8
0
  5
C3F9
 10
435.393
 20
934.279
 30
0.000000
  70
    32
  0
VERTEX
  8
0
  5
C3FA
 10
435.187
 20
934.327
 30
0.000000
  70
    32
  0
VERTEX
  8
0
  5
C3FB
 10
434.980
 20
934.374
 30
0.000000
  70
    32
  0
VERTEX
  8
0
  5
C3FC
 10
434.772
 20
934.420
 30
0.000000
  70
    32
  0
VERTEX
  8
0
  5
C3FD
 10
434.562
 20
934.464
 30
0.000000
  70
    32
  0
VERTEX
  8
0
  5
C3FE
 10
434.352
 20
934.507
 30
0.000000
  70
    32
  0
VERTEX
  8
0
  5
C3FF
 10
434.141
 20
934.548
 30
0.000000
  70
    32
  0
VERTEX
  8
0
  5
C400
 10
433.928
 20
934.588
 30
0.000000
  70
    32
  0
VERTEX
  8
0
  5
C401
 10
433.715
 20
934.627
 30
0.000000
  70
    32
  0
VERTEX
  8
0
  5
C402
 10
433.501
 20
934.664
 30
0.000000
  70
    32
  0
VERTEX
  8
0
  5
C403
 10
433.286
 20
934.700
 30
0.000000
  70
    32
  0
VERTEX
  8
0
  5
C404
 10
433.070
 20
934.735
 30
0.000000
  70
    32
  0
VERTEX
  8
0
  5
C405
 10
432.854
 20
934.768
 30
0.000000
  70
    32
  0
VERTEX
  8
0
  5
C406
 10
432.636
 20
934.800
 30
0.000000
  70
    32
  0
VERTEX
  8
0
  5
C407
 10
432.418
 20
934.831
 30
0.000000
  70
    32
  0
VERTEX
  8
0
  5
C408
 10
432.199
 20
934.860
 30
0.000000
  70
    32
  0
VERTEX
  8
0
  5
C409
 10
431.980
 20
934.888
 30
0.000000
  70
    32
  0
VERTEX
  8
0
  5
C40A
 10
431.760
 20
934.914
 30
0.000000
  70
    32
  0
VERTEX
  8
0
  5
C40B
 10
431.539
 20
934.939
 30
0.000000
  70
    32
  0
VERTEX
  8
0
  5
C40C
 10
431.318
 20
934.963
 30
0.000000
  70
    32
  0
VERTEX
  8
0
  5
C40D
 10
431.096
 20
934.985
 30
0.000000
  70
    32
  0
VERTEX
  8
0
  5
C40E
 10
430.873
 20
935.006
 30
0.000000
  70
    32
  0
VERTEX
  8
0
  5
C40F
 10
430.650
 20
935.025
 30
0.000000
  70
    32
  0
VERTEX
  8
0
  5
C410
 10
430.427
 20
935.043
 30
0.000000
  70
    32
  0
VERTEX
  8
0
  5
C411
 10
430.203
 20
935.059
 30
0.000000
  70
    32
  0
VERTEX
  8
0
  5
C412
 10
429.979
 20
935.074
 30
0.000000
  70
    32
  0
VERTEX
  8
0
  5
C413
 10
429.755
 20
935.088
 30
0.000000
  70
    32
  0
VERTEX
  8
0
  5
C414
 10
429.530
 20
935.100
 30
0.000000
  70
    32
  0
VERTEX
  8
0
  5
C415
 10
429.305
 20
935.111
 30
0.000000
  70
    32
  0
VERTEX
  8
0
  5
C416
 10
429.080
 20
935.120
 30
0.000000
  70
    32
  0
VERTEX
  8
0
  5
C417
 10
428.855
 20
935.128
 30
0.000000
  70
    32
  0
VERTEX
  8
0
  5
C418
 10
428.629
 20
935.135
 30
0.000000
  70
    32
  0
VERTEX
  8
0
  5
C419
 10
428.403
 20
935.140
 30
0.000000
  70
    32
  0
VERTEX
  8
0
  5
C41A
 10
428.177
 20
935.143
 30
0.000000
  70
    32
  0
VERTEX
  8
0
  5
C41B
 10
427.951
 20
935.145
 30
0.000000
  70
    32
  0
VERTEX
  8
0
  5
C41C
 10
427.726
 20
935.146
 30
0.000000
  70
    32
  0
SEQEND
  8
0
  5
C41D
  0
LINE
  5
BC33
  8
0
 62
     0
 10
436.22551958511139
 20
939.1091099380991
 30
0.0
 11
436.22551958511139
 21
940.60910993809921
 31
0.0
  0
LINE
  5
BC34
  8
0
 62
     0
 10
436.22551958511139
 20
939.1091099380991
 30
0.0
 11
344.22551958511173
 21
939.1091099380991
 31
0.0
  0
LINE
  5
BC35
  8
0
 62
     0
 10
428.72551958511139
 20
874.74012193809926
 30
0.0
 11
351.72551958511173
 21
874.74012193809926
 31
0.0
  0
ARC
  5
BC36
  8
0
 62
     0
 10
329.47551958511173
 20
905.52645493809905
 30
0.0
 40
4.25
 50
119.55859500000641
 51
174.36640800000299
  0
LINE
  5
BC37
  8
0
 62
     0
 10
327.37893758511149
 20
909.22332493809915
 30
0.0
 11
329.34867958511182
 21
910.34041193809935
 31
0.0
  0
ARC
  5
BC38
  8
0
 62
     0
 10
329.47551958511173
 20
909.99645693809919
 30
0.0
 40
4.25
 50
119.55859500000641
 51
180.0
  0
ARC
  5
BC39
  8
0
 62
     0
 10
333.22551958511173
 20
906.51638993809922
 30
0.0
 40
8.0
 50
180.0
 51
242.02293999998699
  0
POLYLINE
  5
BC3A
  8
0
 62
     0
 10
352.72551958511173
 20
938.95010146131881
 30
0.0
 66
     1
 70
     8
  0
VERTEX
  8
0
  5
C41E
 10
352.726
 20
938.950
 30
0.000000
  70
    32
  0
VERTEX
  8
0
  5
C41F
 10
352.500
 20
938.949
 30
0.000000
  70
    32
  0
VERTEX
  8
0
  5
C420
 10
352.274
 20
938.947
 30
0.000000
  70
    32
  0
VERTEX
  8
0
  5
C421
 10
352.048
 20
938.943
 30
0.000000
  70
    32
  0
VERTEX
  8
0
  5
C422
 10
351.822
 20
938.937
 30
0.000000
  70
    32
  0
VERTEX
  8
0
  5
C423
 10
351.597
 20
938.930
 30
0.000000
  70
    32
  0
VERTEX
  8
0
  5
C424
 10
351.371
 20
938.921
 30
0.000000
  70
    32
  0
VERTEX
  8
0
  5
C425
 10
351.146
 20
938.910
 30
0.000000
  70
    32
  0
VERTEX
  8
0
  5
C426
 10
350.921
 20
938.898
 30
0.000000
  70
    32
  0
VERTEX
  8
0
  5
C427
 10
350.697
 20
938.884
 30
0.000000
  70
    32
  0
VERTEX
  8
0
  5
C428
 10
350.472
 20
938.869
 30
0.000000
  70
    32
  0
VERTEX
  8
0
  5
C429
 10
350.248
 20
938.852
 30
0.000000
  70
    32
  0
VERTEX
  8
0
  5
C42A
 10
350.025
 20
938.833
 30
0.000000
  70
    32
  0
VERTEX
  8
0
  5
C42B
 10
349.801
 20
938.813
 30
0.000000
  70
    32
  0
VERTEX
  8
0
  5
C42C
 10
349.578
 20
938.791
 30
0.000000
  70
    32
  0
VERTEX
  8
0
  5
C42D
 10
349.356
 20
938.768
 30
0.000000
  70
    32
  0
VERTEX
  8
0
  5
C42E
 10
349.134
 20
938.743
 30
0.000000
  70
    32
  0
VERTEX
  8
0
  5
C42F
 10
348.913
 20
938.716
 30
0.000000
  70
    32
  0
VERTEX
  8
0
  5
C430
 10
348.692
 20
938.688
 30
0.000000
  70
    32
  0
VERTEX
  8
0
  5
C431
 10
348.472
 20
938.658
 30
0.000000
  70
    32
  0
VERTEX
  8
0
  5
C432
 10
348.253
 20
938.626
 30
0.000000
  70
    32
  0
VERTEX
  8
0
  5
C433
 10
348.034
 20
938.593
 30
0.000000
  70
    32
  0
VERTEX
  8
0
  5
C434
 10
347.816
 20
938.559
 30
0.000000
  70
    32
  0
VERTEX
  8
0
  5
C435
 10
347.599
 20
938.523
 30
0.000000
  70
    32
  0
VERTEX
  8
0
  5
C436
 10
347.382
 20
938.485
 30
0.000000
  70
    32
  0
VERTEX
  8
0
  5
C437
 10
347.166
 20
938.446
 30
0.000000
  70
    32
  0
VERTEX
  8
0
  5
C438
 10
346.951
 20
938.405
 30
0.000000
  70
    32
  0
VERTEX
  8
0
  5
C439
 10
346.737
 20
938.362
 30
0.000000
  70
    32
  0
VERTEX
  8
0
  5
C43A
 10
346.524
 20
938.319
 30
0.000000
  70
    32
  0
VERTEX
  8
0
  5
C43B
 10
346.312
 20
938.273
 30
0.000000
  70
    32
  0
VERTEX
  8
0
  5
C43C
 10
346.101
 20
938.226
 30
0.000000
  70
    32
  0
VERTEX
  8
0
  5
C43D
 10
345.890
 20
938.178
 30
0.000000
  70
    32
  0
VERTEX
  8
0
  5
C43E
 10
345.681
 20
938.128
 30
0.000000
  70
    32
  0
VERTEX
  8
0
  5
C43F
 10
345.473
 20
938.076
 30
0.000000
  70
    32
  0
VERTEX
  8
0
  5
C440
 10
345.266
 20
938.023
 30
0.000000
  70
    32
  0
VERTEX
  8
0
  5
C441
 10
345.060
 20
937.969
 30
0.000000
  70
    32
  0
VERTEX
  8
0
  5
C442
 10
344.855
 20
937.913
 30
0.000000
  70
    32
  0
VERTEX
  8
0
  5
C443
 10
344.651
 20
937.855
 30
0.000000
  70
    32
  0
VERTEX
  8
0
  5
C444
 10
344.449
 20
937.796
 30
0.000000
  70
    32
  0
VERTEX
  8
0
  5
C445
 10
344.248
 20
937.736
 30
0.000000
  70
    32
  0
VERTEX
  8
0
  5
C446
 10
344.048
 20
937.674
 30
0.000000
  70
    32
  0
VERTEX
  8
0
  5
C447
 10
343.849
 20
937.611
 30
0.000000
  70
    32
  0
VERTEX
  8
0
  5
C448
 10
343.652
 20
937.547
 30
0.000000
  70
    32
  0
VERTEX
  8
0
  5
C449
 10
343.456
 20
937.480
 30
0.000000
  70
    32
  0
VERTEX
  8
0
  5
C44A
 10
343.262
 20
937.413
 30
0.000000
  70
    32
  0
VERTEX
  8
0
  5
C44B
 10
343.069
 20
937.344
 30
0.000000
  70
    32
  0
VERTEX
  8
0
  5
C44C
 10
342.877
 20
937.274
 30
0.000000
  70
    32
  0
VERTEX
  8
0
  5
C44D
 10
342.687
 20
937.202
 30
0.000000
  70
    32
  0
VERTEX
  8
0
  5
C44E
 10
342.499
 20
937.129
 30
0.000000
  70
    32
  0
VERTEX
  8
0
  5
C44F
 10
342.312
 20
937.055
 30
0.000000
  70
    32
  0
VERTEX
  8
0
  5
C450
 10
342.126
 20
936.979
 30
0.000000
  70
    32
  0
VERTEX
  8
0
  5
C451
 10
341.942
 20
936.902
 30
0.000000
  70
    32
  0
VERTEX
  8
0
  5
C452
 10
341.760
 20
936.824
 30
0.000000
  70
    32
  0
VERTEX
  8
0
  5
C453
 10
341.579
 20
936.744
 30
0.000000
  70
    32
  0
VERTEX
  8
0
  5
C454
 10
341.400
 20
936.663
 30
0.000000
  70
    32
  0
VERTEX
  8
0
  5
C455
 10
341.223
 20
936.581
 30
0.000000
  70
    32
  0
VERTEX
  8
0
  5
C456
 10
341.048
 20
936.498
 30
0.000000
  70
    32
  0
VERTEX
  8
0
  5
C457
 10
340.874
 20
936.413
 30
0.000000
  70
    32
  0
VERTEX
  8
0
  5
C458
 10
340.702
 20
936.327
 30
0.000000
  70
    32
  0
VERTEX
  8
0
  5
C459
 10
340.532
 20
936.240
 30
0.000000
  70
    32
  0
VERTEX
  8
0
  5
C45A
 10
340.363
 20
936.151
 30
0.000000
  70
    32
  0
VERTEX
  8
0
  5
C45B
 10
340.197
 20
936.062
 30
0.000000
  70
    32
  0
VERTEX
  8
0
  5
C45C
 10
340.032
 20
935.971
 30
0.000000
  70
    32
  0
VERTEX
  8
0
  5
C45D
 10
339.870
 20
935.879
 30
0.000000
  70
    32
  0
VERTEX
  8
0
  5
C45E
 10
339.709
 20
935.786
 30
0.000000
  70
    32
  0
VERTEX
  8
0
  5
C45F
 10
339.550
 20
935.691
 30
0.000000
  70
    32
  0
VERTEX
  8
0
  5
C460
 10
339.394
 20
935.596
 30
0.000000
  70
    32
  0
VERTEX
  8
0
  5
C461
 10
339.239
 20
935.499
 30
0.000000
  70
    32
  0
VERTEX
  8
0
  5
C462
 10
339.086
 20
935.402
 30
0.000000
  70
    32
  0
VERTEX
  8
0
  5
C463
 10
338.935
 20
935.303
 30
0.000000
  70
    32
  0
VERTEX
  8
0
  5
C464
 10
338.787
 20
935.203
 30
0.000000
  70
    32
  0
VERTEX
  8
0
  5
C465
 10
338.640
 20
935.102
 30
0.000000
  70
    32
  0
VERTEX
  8
0
  5
C466
 10
338.496
 20
935.000
 30
0.000000
  70
    32
  0
VERTEX
  8
0
  5
C467
 10
338.354
 20
934.897
 30
0.000000
  70
    32
  0
VERTEX
  8
0
  5
C468
 10
338.214
 20
934.793
 30
0.000000
  70
    32
  0
VERTEX
  8
0
  5
C469
 10
338.076
 20
934.688
 30
0.000000
  70
    32
  0
VERTEX
  8
0
  5
C46A
 10
337.940
 20
934.582
 30
0.000000
  70
    32
  0
VERTEX
  8
0
  5
C46B
 10
337.807
 20
934.475
 30
0.000000
  70
    32
  0
VERTEX
  8
0
  5
C46C
 10
337.675
 20
934.367
 30
0.000000
  70
    32
  0
VERTEX
  8
0
  5
C46D
 10
337.547
 20
934.258
 30
0.000000
  70
    32
  0
VERTEX
  8
0
  5
C46E
 10
337.420
 20
934.148
 30
0.000000
  70
    32
  0
VERTEX
  8
0
  5
C46F
 10
337.296
 20
934.038
 30
0.000000
  70
    32
  0
VERTEX
  8
0
  5
C470
 10
337.173
 20
933.926
 30
0.000000
  70
    32
  0
VERTEX
  8
0
  5
C471
 10
337.054
 20
933.814
 30
0.000000
  70
    32
  0
VERTEX
  8
0
  5
C472
 10
336.936
 20
933.700
 30
0.000000
  70
    32
  0
VERTEX
  8
0
  5
C473
 10
336.822
 20
933.586
 30
0.000000
  70
    32
  0
VERTEX
  8
0
  5
C474
 10
336.709
 20
933.471
 30
0.000000
  70
    32
  0
VERTEX
  8
0
  5
C475
 10
336.599
 20
933.356
 30
0.000000
  70
    32
  0
VERTEX
  8
0
  5
C476
 10
336.491
 20
933.239
 30
0.000000
  70
    32
  0
VERTEX
  8
0
  5
C477
 10
336.386
 20
933.122
 30
0.000000
  70
    32
  0
VERTEX
  8
0
  5
C478
 10
336.283
 20
933.004
 30
0.000000
  70
    32
  0
VERTEX
  8
0
  5
C479
 10
336.183
 20
932.885
 30
0.000000
  70
    32
  0
VERTEX
  8
0
  5
C47A
 10
336.085
 20
932.765
 30
0.000000
  70
    32
  0
VERTEX
  8
0
  5
C47B
 10
335.990
 20
932.645
 30
0.000000
  70
    32
  0
VERTEX
  8
0
  5
C47C
 10
335.897
 20
932.524
 30
0.000000
  70
    32
  0
VERTEX
  8
0
  5
C47D
 10
335.806
 20
932.403
 30
0.000000
  70
    32
  0
VERTEX
  8
0
  5
C47E
 10
335.719
 20
932.281
 30
0.000000
  70
    32
  0
VERTEX
  8
0
  5
C47F
 10
335.634
 20
932.158
 30
0.000000
  70
    32
  0
VERTEX
  8
0
  5
C480
 10
335.551
 20
932.034
 30
0.000000
  70
    32
  0
VERTEX
  8
0
  5
C481
 10
335.471
 20
931.910
 30
0.000000
  70
    32
  0
VERTEX
  8
0
  5
C482
 10
335.394
 20
931.786
 30
0.000000
  70
    32
  0
VERTEX
  8
0
  5
C483
 10
335.319
 20
931.661
 30
0.000000
  70
    32
  0
VERTEX
  8
0
  5
C484
 10
335.247
 20
931.535
 30
0.000000
  70
    32
  0
VERTEX
  8
0
  5
C485
 10
335.177
 20
931.409
 30
0.000000
  70
    32
  0
VERTEX
  8
0
  5
C486
 10
335.110
 20
931.282
 30
0.000000
  70
    32
  0
VERTEX
  8
0
  5
C487
 10
335.046
 20
931.155
 30
0.000000
  70
    32
  0
VERTEX
  8
0
  5
C488
 10
334.984
 20
931.028
 30
0.000000
  70
    32
  0
VERTEX
  8
0
  5
C489
 10
334.925
 20
930.900
 30
0.000000
  70
    32
  0
VERTEX
  8
0
  5
C48A
 10
334.869
 20
930.771
 30
0.000000
  70
    32
  0
VERTEX
  8
0
  5
C48B
 10
334.816
 20
930.642
 30
0.000000
  70
    32
  0
VERTEX
  8
0
  5
C48C
 10
334.765
 20
930.513
 30
0.000000
  70
    32
  0
VERTEX
  8
0
  5
C48D
 10
334.717
 20
930.384
 30
0.000000
  70
    32
  0
VERTEX
  8
0
  5
C48E
 10
334.671
 20
930.254
 30
0.000000
  70
    32
  0
VERTEX
  8
0
  5
C48F
 10
334.629
 20
930.124
 30
0.000000
  70
    32
  0
VERTEX
  8
0
  5
C490
 10
334.589
 20
929.993
 30
0.000000
  70
    32
  0
VERTEX
  8
0
  5
C491
 10
334.551
 20
929.862
 30
0.000000
  70
    32
  0
VERTEX
  8
0
  5
C492
 10
334.517
 20
929.731
 30
0.000000
  70
    32
  0
VERTEX
  8
0
  5
C493
 10
334.485
 20
929.600
 30
0.000000
  70
    32
  0
VERTEX
  8
0
  5
C494
 10
334.456
 20
929.469
 30
0.000000
  70
    32
  0
VERTEX
  8
0
  5
C495
 10
334.430
 20
929.337
 30
0.000000
  70
    32
  0
VERTEX
  8
0
  5
C496
 10
334.406
 20
929.205
 30
0.000000
  70
    32
  0
VERTEX
  8
0
  5
C497
 10
334.385
 20
929.073
 30
0.000000
  70
    32
  0
VERTEX
  8
0
  5
C498
 10
334.367
 20
928.941
 30
0.000000
  70
    32
  0
VERTEX
  8
0
  5
C499
 10
334.352
 20
928.809
 30
0.000000
  70
    32
  0
VERTEX
  8
0
  5
C49A
 10
334.340
 20
928.676
 30
0.000000
  70
    32
  0
VERTEX
  8
0
  5
C49B
 10
334.330
 20
928.544
 30
0.000000
  70
    32
  0
VERTEX
  8
0
  5
C49C
 10
334.323
 20
928.411
 30
0.000000
  70
    32
  0
VERTEX
  8
0
  5
C49D
 10
334.319
 20
928.279
 30
0.000000
  70
    32
  0
VERTEX
  8
0
  5
C49E
 10
334.318
 20
928.146
 30
0.000000
  70
    32
  0
SEQEND
  8
0
  5
C49F
  0
POLYLINE
  5
BC3B
  8
0
 62
     0
 10
352.72551958511173
 20
935.1460829810585
 30
0.0
 66
     1
 70
     8
  0
VERTEX
  8
0
  5
C4A0
 10
352.726
 20
935.146
 30
0.000000
  70
    32
  0
VERTEX
  8
0
  5
C4A1
 10
352.500
 20
935.145
 30
0.000000
  70
    32
  0
VERTEX
  8
0
  5
C4A2
 10
352.274
 20
935.143
 30
0.000000
  70
    32
  0
VERTEX
  8
0
  5
C4A3
 10
352.048
 20
935.140
 30
0.000000
  70
    32
  0
VERTEX
  8
0
  5
C4A4
 10
351.822
 20
935.135
 30
0.000000
  70
    32
  0
VERTEX
  8
0
  5
C4A5
 10
351.596
 20
935.128
 30
0.000000
  70
    32
  0
VERTEX
  8
0
  5
C4A6
 10
351.371
 20
935.120
 30
0.000000
  70
    32
  0
VERTEX
  8
0
  5
C4A7
 10
351.146
 20
935.111
 30
0.000000
  70
    32
  0
VERTEX
  8
0
  5
C4A8
 10
350.921
 20
935.100
 30
0.000000
  70
    32
  0
VERTEX
  8
0
  5
C4A9
 10
350.696
 20
935.088
 30
0.000000
  70
    32
  0
VERTEX
  8
0
  5
C4AA
 10
350.472
 20
935.074
 30
0.000000
  70
    32
  0
VERTEX
  8
0
  5
C4AB
 10
350.248
 20
935.059
 30
0.000000
  70
    32
  0
VERTEX
  8
0
  5
C4AC
 10
350.024
 20
935.043
 30
0.000000
  70
    32
  0
VERTEX
  8
0
  5
C4AD
 10
349.801
 20
935.025
 30
0.000000
  70
    32
  0
VERTEX
  8
0
  5
C4AE
 10
349.578
 20
935.006
 30
0.000000
  70
    32
  0
VERTEX
  8
0
  5
C4AF
 10
349.355
 20
934.985
 30
0.000000
  70
    32
  0
VERTEX
  8
0
  5
C4B0
 10
349.133
 20
934.963
 30
0.000000
  70
    32
  0
VERTEX
  8
0
  5
C4B1
 10
348.912
 20
934.939
 30
0.000000
  70
    32
  0
VERTEX
  8
0
  5
C4B2
 10
348.691
 20
934.914
 30
0.000000
  70
    32
  0
VERTEX
  8
0
  5
C4B3
 10
348.471
 20
934.888
 30
0.000000
  70
    32
  0
VERTEX
  8
0
  5
C4B4
 10
348.252
 20
934.860
 30
0.000000
  70
    32
  0
VERTEX
  8
0
  5
C4B5
 10
348.033
 20
934.831
 30
0.000000
  70
    32
  0
VERTEX
  8
0
  5
C4B6
 10
347.815
 20
934.800
 30
0.000000
  70
    32
  0
VERTEX
  8
0
  5
C4B7
 10
347.597
 20
934.768
 30
0.000000
  70
    32
  0
VERTEX
  8
0
  5
C4B8
 10
347.381
 20
934.735
 30
0.000000
  70
    32
  0
VERTEX
  8
0
  5
C4B9
 10
347.165
 20
934.700
 30
0.000000
  70
    32
  0
VERTEX
  8
0
  5
C4BA
 10
346.950
 20
934.664
 30
0.000000
  70
    32
  0
VERTEX
  8
0
  5
C4BB
 10
346.736
 20
934.627
 30
0.000000
  70
    32
  0
VERTEX
  8
0
  5
C4BC
 10
346.523
 20
934.588
 30
0.000000
  70
    32
  0
VERTEX
  8
0
  5
C4BD
 10
346.310
 20
934.548
 30
0.000000
  70
    32
  0
VERTEX
  8
0
  5
C4BE
 10
346.099
 20
934.507
 30
0.000000
  70
    32
  0
VERTEX
  8
0
  5
C4BF
 10
345.889
 20
934.464
 30
0.000000
  70
    32
  0
VERTEX
  8
0
  5
C4C0
 10
345.679
 20
934.420
 30
0.000000
  70
    32
  0
VERTEX
  8
0
  5
C4C1
 10
345.471
 20
934.374
 30
0.000000
  70
    32
  0
VERTEX
  8
0
  5
C4C2
 10
345.264
 20
934.327
 30
0.000000
  70
    32
  0
VERTEX
  8
0
  5
C4C3
 10
345.058
 20
934.279
 30
0.000000
  70
    32
  0
VERTEX
  8
0
  5
C4C4
 10
344.853
 20
934.230
 30
0.000000
  70
    32
  0
VERTEX
  8
0
  5
C4C5
 10
344.650
 20
934.179
 30
0.000000
  70
    32
  0
VERTEX
  8
0
  5
C4C6
 10
344.447
 20
934.127
 30
0.000000
  70
    32
  0
VERTEX
  8
0
  5
C4C7
 10
344.246
 20
934.074
 30
0.000000
  70
    32
  0
VERTEX
  8
0
  5
C4C8
 10
344.046
 20
934.019
 30
0.000000
  70
    32
  0
VERTEX
  8
0
  5
C4C9
 10
343.847
 20
933.963
 30
0.000000
  70
    32
  0
VERTEX
  8
0
  5
C4CA
 10
343.650
 20
933.906
 30
0.000000
  70
    32
  0
VERTEX
  8
0
  5
C4CB
 10
343.454
 20
933.848
 30
0.000000
  70
    32
  0
VERTEX
  8
0
  5
C4CC
 10
343.260
 20
933.788
 30
0.000000
  70
    32
  0
VERTEX
  8
0
  5
C4CD
 10
343.067
 20
933.727
 30
0.000000
  70
    32
  0
VERTEX
  8
0
  5
C4CE
 10
342.875
 20
933.665
 30
0.000000
  70
    32
  0
VERTEX
  8
0
  5
C4CF
 10
342.685
 20
933.602
 30
0.000000
  70
    32
  0
VERTEX
  8
0
  5
C4D0
 10
342.496
 20
933.538
 30
0.000000
  70
    32
  0
VERTEX
  8
0
  5
C4D1
 10
342.309
 20
933.472
 30
0.000000
  70
    32
  0
VERTEX
  8
0
  5
C4D2
 10
342.124
 20
933.405
 30
0.000000
  70
    32
  0
VERTEX
  8
0
  5
C4D3
 10
341.940
 20
933.337
 30
0.000000
  70
    32
  0
VERTEX
  8
0
  5
C4D4
 10
341.757
 20
933.268
 30
0.000000
  70
    32
  0
VERTEX
  8
0
  5
C4D5
 10
341.577
 20
933.197
 30
0.000000
  70
    32
  0
VERTEX
  8
0
  5
C4D6
 10
341.398
 20
933.126
 30
0.000000
  70
    32
  0
VERTEX
  8
0
  5
C4D7
 10
341.220
 20
933.053
 30
0.000000
  70
    32
  0
VERTEX
  8
0
  5
C4D8
 10
341.045
 20
932.980
 30
0.000000
  70
    32
  0
VERTEX
  8
0
  5
C4D9
 10
340.871
 20
932.905
 30
0.000000
  70
    32
  0
VERTEX
  8
0
  5
C4DA
 10
340.699
 20
932.829
 30
0.000000
  70
    32
  0
VERTEX
  8
0
  5
C4DB
 10
340.529
 20
932.752
 30
0.000000
  70
    32
  0
VERTEX
  8
0
  5
C4DC
 10
340.361
 20
932.674
 30
0.000000
  70
    32
  0
VERTEX
  8
0
  5
C4DD
 10
340.194
 20
932.594
 30
0.000000
  70
    32
  0
VERTEX
  8
0
  5
C4DE
 10
340.029
 20
932.514
 30
0.000000
  70
    32
  0
VERTEX
  8
0
  5
C4DF
 10
339.867
 20
932.433
 30
0.000000
  70
    32
  0
VERTEX
  8
0
  5
C4E0
 10
339.706
 20
932.351
 30
0.000000
  70
    32
  0
VERTEX
  8
0
  5
C4E1
 10
339.547
 20
932.267
 30
0.000000
  70
    32
  0
VERTEX
  8
0
  5
C4E2
 10
339.390
 20
932.183
 30
0.000000
  70
    32
  0
VERTEX
  8
0
  5
C4E3
 10
339.236
 20
932.098
 30
0.000000
  70
    32
  0
VERTEX
  8
0
  5
C4E4
 10
339.083
 20
932.011
 30
0.000000
  70
    32
  0
VERTEX
  8
0
  5
C4E5
 10
338.932
 20
931.924
 30
0.000000
  70
    32
  0
VERTEX
  8
0
  5
C4E6
 10
338.784
 20
931.836
 30
0.000000
  70
    32
  0
VERTEX
  8
0
  5
C4E7
 10
338.637
 20
931.747
 30
0.000000
  70
    32
  0
VERTEX
  8
0
  5
C4E8
 10
338.493
 20
931.657
 30
0.000000
  70
    32
  0
VERTEX
  8
0
  5
C4E9
 10
338.350
 20
931.566
 30
0.000000
  70
    32
  0
VERTEX
  8
0
  5
C4EA
 10
338.210
 20
931.474
 30
0.000000
  70
    32
  0
VERTEX
  8
0
  5
C4EB
 10
338.072
 20
931.381
 30
0.000000
  70
    32
  0
VERTEX
  8
0
  5
C4EC
 10
337.937
 20
931.287
 30
0.000000
  70
    32
  0
VERTEX
  8
0
  5
C4ED
 10
337.803
 20
931.193
 30
0.000000
  70
    32
  0
VERTEX
  8
0
  5
C4EE
 10
337.672
 20
931.097
 30
0.000000
  70
    32
  0
VERTEX
  8
0
  5
C4EF
 10
337.543
 20
931.001
 30
0.000000
  70
    32
  0
VERTEX
  8
0
  5
C4F0
 10
337.416
 20
930.904
 30
0.000000
  70
    32
  0
VERTEX
  8
0
  5
C4F1
 10
337.292
 20
930.806
 30
0.000000
  70
    32
  0
VERTEX
  8
0
  5
C4F2
 10
337.170
 20
930.708
 30
0.000000
  70
    32
  0
VERTEX
  8
0
  5
C4F3
 10
337.050
 20
930.609
 30
0.000000
  70
    32
  0
VERTEX
  8
0
  5
C4F4
 10
336.933
 20
930.508
 30
0.000000
  70
    32
  0
VERTEX
  8
0
  5
C4F5
 10
336.818
 20
930.408
 30
0.000000
  70
    32
  0
VERTEX
  8
0
  5
C4F6
 10
336.705
 20
930.306
 30
0.000000
  70
    32
  0
VERTEX
  8
0
  5
C4F7
 10
336.595
 20
930.204
 30
0.000000
  70
    32
  0
VERTEX
  8
0
  5
C4F8
 10
336.487
 20
930.101
 30
0.000000
  70
    32
  0
VERTEX
  8
0
  5
C4F9
 10
336.382
 20
929.997
 30
0.000000
  70
    32
  0
VERTEX
  8
0
  5
C4FA
 10
336.279
 20
929.893
 30
0.000000
  70
    32
  0
VERTEX
  8
0
  5
C4FB
 10
336.179
 20
929.788
 30
0.000000
  70
    32
  0
VERTEX
  8
0
  5
C4FC
 10
336.081
 20
929.682
 30
0.000000
  70
    32
  0
VERTEX
  8
0
  5
C4FD
 10
335.985
 20
929.576
 30
0.000000
  70
    32
  0
VERTEX
  8
0
  5
C4FE
 10
335.893
 20
929.469
 30
0.000000
  70
    32
  0
VERTEX
  8
0
  5
C4FF
 10
335.802
 20
929.362
 30
0.000000
  70
    32
  0
VERTEX
  8
0
  5
C500
 10
335.715
 20
929.254
 30
0.000000
  70
    32
  0
VERTEX
  8
0
  5
C501
 10
335.629
 20
929.146
 30
0.000000
  70
    32
  0
VERTEX
  8
0
  5
C502
 10
335.547
 20
929.037
 30
0.000000
  70
    32
  0
VERTEX
  8
0
  5
C503
 10
335.467
 20
928.927
 30
0.000000
  70
    32
  0
VERTEX
  8
0
  5
C504
 10
335.389
 20
928.817
 30
0.000000
  70
    32
  0
VERTEX
  8
0
  5
C505
 10
335.315
 20
928.707
 30
0.000000
  70
    32
  0
VERTEX
  8
0
  5
C506
 10
335.242
 20
928.596
 30
0.000000
  70
    32
  0
VERTEX
  8
0
  5
C507
 10
335.173
 20
928.484
 30
0.000000
  70
    32
  0
VERTEX
  8
0
  5
C508
 10
335.106
 20
928.372
 30
0.000000
  70
    32
  0
VERTEX
  8
0
  5
C509
 10
335.042
 20
928.260
 30
0.000000
  70
    32
  0
VERTEX
  8
0
  5
C50A
 10
334.980
 20
928.147
 30
0.000000
  70
    32
  0
VERTEX
  8
0
  5
C50B
 10
334.921
 20
928.034
 30
0.000000
  70
    32
  0
VERTEX
  8
0
  5
C50C
 10
334.865
 20
927.921
 30
0.000000
  70
    32
  0
VERTEX
  8
0
  5
C50D
 10
334.811
 20
927.807
 30
0.000000
  70
    32
  0
VERTEX
  8
0
  5
C50E
 10
334.760
 20
927.693
 30
0.000000
  70
    32
  0
VERTEX
  8
0
  5
C50F
 10
334.712
 20
927.578
 30
0.000000
  70
    32
  0
VERTEX
  8
0
  5
C510
 10
334.667
 20
927.464
 30
0.000000
  70
    32
  0
VERTEX
  8
0
  5
C511
 10
334.624
 20
927.349
 30
0.000000
  70
    32
  0
VERTEX
  8
0
  5
C512
 10
334.584
 20
927.233
 30
0.000000
  70
    32
  0
VERTEX
  8
0
  5
C513
 10
334.547
 20
927.118
 30
0.000000
  70
    32
  0
VERTEX
  8
0
  5
C514
 10
334.512
 20
927.002
 30
0.000000
  70
    32
  0
VERTEX
  8
0
  5
C515
 10
334.480
 20
926.886
 30
0.000000
  70
    32
  0
VERTEX
  8
0
  5
C516
 10
334.451
 20
926.770
 30
0.000000
  70
    32
  0
VERTEX
  8
0
  5
C517
 10
334.425
 20
926.654
 30
0.000000
  70
    32
  0
VERTEX
  8
0
  5
C518
 10
334.402
 20
926.537
 30
0.000000
  70
    32
  0
VERTEX
  8
0
  5
C519
 10
334.381
 20
926.420
 30
0.000000
  70
    32
  0
VERTEX
  8
0
  5
C51A
 10
334.363
 20
926.304
 30
0.000000
  70
    32
  0
VERTEX
  8
0
  5
C51B
 10
334.348
 20
926.187
 30
0.000000
  70
    32
  0
VERTEX
  8
0
  5
C51C
 10
334.335
 20
926.070
 30
0.000000
  70
    32
  0
VERTEX
  8
0
  5
C51D
 10
334.325
 20
925.953
 30
0.000000
  70
    32
  0
VERTEX
  8
0
  5
C51E
 10
334.318
 20
925.836
 30
0.000000
  70
    32
  0
VERTEX
  8
0
  5
C51F
 10
334.314
 20
925.719
 30
0.000000
  70
    32
  0
VERTEX
  8
0
  5
C520
 10
334.313
 20
925.602
 30
0.000000
  70
    32
  0
SEQEND
  8
0
  5
C521
  0
LINE
  5
BC3C
  8
0
 62
     0
 10
428.20252458511141
 20
872.56610593809933
 30
0.0
 11
352.24851458511182
 21
872.56610593809933
 31
0.0
  0
LINE
  5
BC3D
  8
0
 62
     0
 10
427.72551958511161
 20
935.14609193809918
 30
0.0
 11
352.72551958511173
 21
935.14609193809918
 31
0.0
  0
LINE
  5
BC3E
  8
0
 62
     0
 10
427.72551958511161
 20
938.95010893809922
 30
0.0
 11
352.72551958511173
 21
938.95010893809922
 31
0.0
  0
LINE
  5
BC3F
  8
0
 62
     0
 10
390.22551958511173
 20
938.95010893809922
 30
0.0
 11
390.70151758511162
 21
938.95010893809922
 31
0.0
  0
LINE
  5
BC40
  8
0
 62
     0
 10
344.22551958511173
 20
940.60910993809921
 30
0.0
 11
436.22501558511192
 21
940.60910993809921
 31
0.0
  0
LINE
  5
BC41
  8
0
 62
     0
 10
341.72551958511173
 20
920.64609193809918
 30
0.0
 11
341.72551958511173
 21
884.74012193809915
 31
0.0
  0
LINE
  5
BC42
  8
0
 62
     0
 10
344.22551958511173
 20
939.1091099380991
 30
0.0
 11
344.22551958511173
 21
940.60910993809921
 31
0.0
  0
LINE
  5
BC43
  8
0
 62
     0
 10
334.31750558511197
 20
928.14610393809915
 30
0.0
 11
334.29950058511122
 21
918.3621239380991
 31
0.0
  0
LINE
  5
BC44
  8
0
 62
     0
 10
334.25049458511199
 20
891.48612293809924
 30
0.0
 11
334.24849558511193
 21
890.56614193809924
 31
0.0
  0
LINE
  5
BC45
  8
0
  6
AM_ISO08W050
 62
     0
 10
335.22551958511173
 20
899.87109893809918
 30
0.0
 11
335.22551958511173
 21
912.35611393809916
 31
0.0
  0
LINE
  5
BC46
  8
0
  6
AM_ISO08W050
 62
     0
 10
329.76951058511207
 20
905.79410293809906
 30
0.0
 11
340.50251258511111
 21
905.79410293809906
 31
0.0
  0
LINE
  5
BC47
  8
0
 62
     0
 10
390.22551958511173
 20
938.95010893809922
 30
0.0
 11
389.74851458511182
 21
938.95010893809922
 31
0.0
  0
LINE
  5
BC48
  8
0
 62
     0
 10
351.72551958511173
 20
907.56009393809916
 30
0.0
 11
428.72551958511139
 21
907.56009393809916
 31
0.0
  0
LINE
  5
BC49
  8
0
 62
     0
 10
428.72551958511139
 20
930.64609193809918
 30
0.0
 11
351.72551958511173
 21
930.64609193809918
 31
0.0
  0
LINE
  5
BC4A
  8
0
 62
     0
 10
325.22551958511161
 20
906.51638993809922
 30
0.0
 11
325.22551958511161
 21
910.26428593809919
 31
0.0
  0
LINE
  5
BC4B
  8
0
 62
     0
 10
327.37893758511149
 20
913.69332593809918
 30
0.0
 11
329.34867958511182
 21
914.81041293809926
 31
0.0
  0
ARC
  5
BC4C
  8
0
 62
     0
 10
351.72551958511173
 20
884.74012193809915
 30
0.0
 40
10.0
 50
179.99998200000081
 51
269.99996399997548
  0
ARC
  5
BC4D
  8
0
 62
     0
 10
352.24851458511182
 20
890.56610593809921
 30
0.0
 40
18.0
 50
179.99998200000081
 51
270.0
  0
ARC
  5
BC4E
  8
0
 62
     0
 10
351.72551958511173
 20
920.64609193809918
 30
0.0
 40
10.0
 50
90.0
 51
179.99998200000081
  0
ARC
  5
BC4F
  8
0
 62
     0
 10
351.72551958511173
 20
897.56009393809916
 30
0.0
 40
10.0
 50
90.0
 51
179.99998200000081
  0
ARC
  5
BC50
  8
0
 62
     0
 10
325.29950958511148
 20
918.37808693809916
 30
0.0
 40
9.0
 50
296.73468799997107
 51
359.89604200000917
  0
ARC
  5
BC51
  8
0
 62
     0
 10
325.250513585112
 20
891.50308693809905
 30
0.0
 40
9.0
 50
359.89604200000917
 51
62.022939999986953
  0
ARC
  5
BC52
  8
0
 62
     0
 10
325.29950958511148
 20
922.84808793809941
 30
0.0
 40
9.0
 50
296.73776600000622
 51
359.89604200000917
  0
LINE
  5
BC53
  8
0
 62
     0
 10
522.72549858511184
 20
957.60909693809924
 30
0.0
 11
515.77528558511165
 21
957.56044493809907
 31
0.0
  0
ARC
  5
BC54
  8
0
 62
     0
 10
509.38579758511179
 20
954.60910993809921
 30
0.0
 40
10.0
 50
269.99999700001541
 51
299.99999800001649
  0
ARC
  5
BC55
  8
0
 62
     0
 10
522.22551958511167
 20
956.10556993809905
 30
0.0
 40
1.5
 50
90.401064000021776
 51
180.0000050000005
  0
ARC
  5
BC56
  8
0
 62
     0
 10
518.72551958511167
 20
950.76377293809912
 30
0.0
 40
2.0
 50
299.99999800001649
 51
0.0
  0
LINE
  5
BC57
  8
0
 62
     0
 10
519.72552058511201
 20
949.0317469380991
 30
0.0
 11
514.38580658511125
 21
945.94886093809919
 31
0.0
  0
LINE
  5
BC58
  8
0
 62
     0
 10
520.72551958511156
 20
950.76377293809912
 30
0.0
 11
520.72551958511156
 21
956.10556993809905
 31
0.0
  0
LINE
  5
BC59
  8
0
 62
     0
 10
437.29729658511178
 20
944.6091099380991
 30
0.0
 11
509.38579758511179
 21
944.6091099380991
 31
0.0
  0
LINE
  5
BC5A
  8
0
 62
     0
 10
436.2255535851113
 20
940.60910793809921
 30
0.0
 11
439.00349858511203
 21
950.97653993809922
 31
0.0
  0
ARC
  5
BC5B
  8
0
 62
     0
 10
340.44982358511197
 20
943.10910993809921
 30
0.0
 40
3.0
 50
14.999999999994451
 51
90.000002999984659
  0
ARC
  5
BC5C
  8
0
 62
     0
 10
293.98382058511152
 20
951.10910993809921
 30
0.0
 40
5.0
 50
239.99999700002189
 51
269.99999700001541
  0
LINE
  5
BC5D
  8
0
 62
     0
 10
344.22550858511158
 20
940.6091579380992
 30
0.0
 11
343.34758658511191
 21
943.88560593809916
 31
0.0
  0
LINE
  5
BC5E
  8
0
 62
     0
 10
293.98382058511152
 20
946.10910993809921
 30
0.0
 11
340.44982358511197
 21
946.10910993809921
 31
0.0
  0
LINE
  5
BC5F
  8
0
 62
     0
 10
284.2134865851117
 20
950.97653993809922
 30
0.0
 11
291.48386158511181
 21
946.77898693809914
 31
0.0
  0
LINE
  5
BC61
  8
0
 62
     0
 10
508.68700658511221
 20
1003.020244938099
 30
0.0
 11
522.72551958511167
 21
1003.020244938099
 31
0.0
  0
LINE
  5
BC62
  8
0
 62
     0
 10
520.72558058511117
 20
973.40696293809935
 30
0.0
 11
504.53081758511178
 21
970.56858393809921
 31
0.0
  0
LINE
  5
BC63
  8
0
 62
     0
 10
504.53087858511162
 20
987.1276659380992
 30
0.0
 11
520.72558058511117
 21
990.15891593809908
 31
0.0
  0
LINE
  5
BC64
  8
0
 62
     0
 10
520.72558058511117
 20
1006.907695938099
 30
0.0
 11
504.53081758511178
 21
1001.678203938099
 31
0.0
  0
LINE
  5
BC65
  8
0
 62
     0
 10
520.72558058511117
 20
1022.842753938099
 30
0.0
 11
504.53081758511178
 21
1019.836772938099
 31
0.0
  0
LINE
  5
BC66
  8
0
 62
     0
 10
520.72558058511117
 20
1038.216044938099
 30
0.0
 11
504.53081758511178
 21
1036.4861869380991
 31
0.0
  0
LINE
  5
BC67
  8
0
 62
     0
 10
520.72558058511117
 20
1055.4299129380991
 30
0.0
 11
504.53081758511178
 21
1054.1987109380991
 31
0.0
  0
LINE
  5
BC68
  8
0
 62
     0
 10
508.68700658511221
 20
1142.1979789380989
 30
0.0
 11
522.72551958511167
 21
1142.1979789380989
 31
0.0
  0
LINE
  5
BC69
  8
0
 62
     0
 10
520.72558058511117
 20
1089.7883109380989
 30
0.0
 11
504.53081758511178
 21
1091.019511938099
 31
0.0
  0
LINE
  5
BC6A
  8
0
 62
     0
 10
520.72558058511117
 20
1107.0021779380991
 30
0.0
 11
504.53081758511178
 21
1108.7320369380991
 31
0.0
  0
LINE
  5
BC6B
  8
0
 62
     0
 10
520.72558058511117
 20
1122.3754689380989
 30
0.0
 11
504.53081758511178
 21
1125.3814509380991
 31
0.0
  0
LINE
  5
BC6C
  8
0
 62
     0
 10
520.72558058511117
 20
1138.3105279380991
 30
0.0
 11
504.53081758511178
 21
1143.540019938099
 31
0.0
  0
LINE
  5
BC6D
  8
0
 62
     0
 10
504.53087858511162
 20
1158.0905569380991
 30
0.0
 11
520.72558058511117
 21
1155.0593069380991
 31
0.0
  0
LINE
  5
BC6E
  8
0
 62
     0
 10
520.72558058511117
 20
1171.8112599380991
 30
0.0
 11
504.53081758511178
 21
1174.6496389380991
 31
0.0
  0
LINE
  5
BC6F
  8
0
 62
     0
 10
520.72558058511117
 20
1176.647197938099
 30
0.0
 11
504.53081758511178
 21
1185.499247938099
 31
0.0
  0
LINE
  5
BC70
  8
0
 62
     0
 10
520.72558058511117
 20
1184.7592579380989
 30
0.0
 11
504.53081758511178
 21
1194.241679938099
 31
0.0
  0
LINE
  5
BC71
  8
0
 62
     0
 10
520.72558058511117
 20
1190.8134569380991
 30
0.0
 11
504.53081758511178
 21
1200.4544489380989
 31
0.0
  0
LINE
  5
BC72
  8
0
 62
     0
 10
520.72558058511117
 20
1194.3847469380989
 30
0.0
 11
504.53081758511178
 21
1204.314799938099
 31
0.0
  0
LINE
  5
BC73
  8
0
 62
     0
 10
278.2255405851115
 20
1204.314799938099
 30
0.0
 11
504.53069558511118
 21
1204.314799938099
 31
0.0
  0
LINE
  5
BC74
  8
0
 62
     0
 10
278.2255405851115
 20
1200.4544489380989
 30
0.0
 11
504.53081758511178
 21
1200.4544489380989
 31
0.0
  0
LINE
  5
BC75
  8
0
 62
     0
 10
278.2255405851115
 20
1194.241679938099
 30
0.0
 11
504.53087858511162
 21
1194.241679938099
 31
0.0
  0
LINE
  5
BC76
  8
0
 62
     0
 10
278.2255405851115
 20
1185.499247938099
 30
0.0
 11
504.53087858511162
 21
1185.499247938099
 31
0.0
  0
LINE
  5
BC77
  8
0
 62
     0
 10
278.2255405851115
 20
1174.6493799380989
 30
0.0
 11
504.5303295851113
 21
1174.6496389380991
 31
0.0
  0
LINE
  5
BC78
  8
0
 62
     0
 10
278.2255405851115
 20
1158.0905569380991
 30
0.0
 11
504.53057358511199
 21
1158.0905569380991
 31
0.0
  0
LINE
  5
BC79
  8
0
 62
     0
 10
278.2255405851115
 20
1143.540019938099
 30
0.0
 11
504.53087858511162
 21
1143.540019938099
 31
0.0
  0
LINE
  5
BC7A
  8
0
 62
     0
 10
278.2255405851115
 20
1125.3813289380989
 30
0.0
 11
504.531000585112
 21
1125.3813289380989
 31
0.0
  0
LINE
  5
BC7B
  8
0
 62
     0
 10
278.2255405851115
 20
1108.7328699380989
 30
0.0
 11
504.5307565851121
 21
1108.7320369380991
 31
0.0
  0
LINE
  5
BC7C
  8
0
 62
     0
 10
278.2255405851115
 20
1091.019511938099
 30
0.0
 11
504.53148858511167
 21
1091.019511938099
 31
0.0
  0
LINE
  5
BC7E
  8
0
 62
     0
 10
278.2255405851115
 20
987.1276659380992
 30
0.0
 11
504.53057358511199
 21
987.1276659380992
 31
0.0
  0
LINE
  5
BC7F
  8
0
 62
     0
 10
278.2255405851115
 20
1001.678203938099
 30
0.0
 11
504.53087858511162
 21
1001.678203938099
 31
0.0
  0
LINE
  5
BC80
  8
0
 62
     0
 10
278.2255405851115
 20
1019.836894938099
 30
0.0
 11
504.531000585112
 21
1019.836894938099
 31
0.0
  0
LINE
  5
BC81
  8
0
 62
     0
 10
278.2255405851115
 20
1036.485353938099
 30
0.0
 11
504.5307565851121
 21
1036.4861869380991
 31
0.0
  0
LINE
  5
BC82
  8
0
 62
     0
 10
278.2255405851115
 20
1054.1987109380991
 30
0.0
 11
504.53148858511167
 21
1054.1987109380991
 31
0.0
  0
CIRCLE
  5
BC83
  8
0
 62
     0
 10
390.22551958511173
 20
1072.609056938099
 30
0.0
 40
11.5
  0
LINE
  5
BC84
  8
0
 62
     0
 10
278.2255405851115
 20
970.56884293809935
 30
0.0
 11
504.53081758511178
 21
970.56858393809921
 31
0.0
  0
LINE
  5
BC85
  8
0
 62
     0
 10
520.72558058511117
 20
1171.8112599380991
 30
0.0
 11
520.72558058511117
 21
1195.6790569380989
 31
0.0
  0
LINE
  5
BC86
  8
0
 62
     0
 10
520.72570258511166
 20
1155.059062938099
 30
0.0
 11
522.72551958511167
 21
1155.059062938099
 31
0.0
  0
LINE
  5
BC87
  8
0
 62
     0
 10
520.72558058511117
 20
1119.0619929380989
 30
0.0
 11
520.72564158511113
 21
1122.3754689380989
 31
0.0
  0
LINE
  5
BC88
  8
0
 62
     0
 10
520.72564158511113
 20
1133.8030809380989
 30
0.0
 11
520.72558058511117
 21
1138.3105279380991
 31
0.0
  0
LINE
  5
BC89
  8
0
 62
     0
 10
520.72558058511117
 20
1107.0021779380991
 30
0.0
 11
520.72558058511117
 21
1104.0810359380989
 31
0.0
  0
LINE
  5
BC8A
  8
0
 62
     0
 10
520.72558058511117
 20
1089.7883109380989
 30
0.0
 11
520.72558058511117
 21
1088.7863579380989
 31
0.0
  0
LINE
  5
BC8B
  8
0
 62
     0
 10
520.72570258511166
 20
990.15916093809926
 30
0.0
 11
522.72551958511167
 21
990.15916093809926
 31
0.0
  0
LINE
  5
BC8C
  8
0
 62
     0
 10
520.72564158511113
 20
1011.4151419380991
 30
0.0
 11
520.72558058511117
 21
1006.907695938099
 31
0.0
  0
LINE
  5
BC8D
  8
0
 62
     0
 10
520.72558058511117
 20
1026.156230938099
 30
0.0
 11
520.72564158511113
 21
1022.842753938099
 31
0.0
  0
LINE
  5
BC8E
  8
0
 62
     0
 10
520.72558058511117
 20
1038.216044938099
 30
0.0
 11
520.72558058511117
 21
1041.137187938099
 31
0.0
  0
LINE
  5
BC8F
  8
0
 62
     0
 10
520.72558058511117
 20
1055.4299129380991
 30
0.0
 11
520.72558058511117
 21
1056.431865938099
 31
0.0
  0
LINE
  5
BC90
  8
0
 62
     0
 10
520.72558058511117
 20
968.57102193809908
 30
0.0
 11
504.53081758511178
 21
959.71897193809923
 31
0.0
  0
LINE
  5
BC91
  8
0
 62
     0
 10
278.2255405851115
 20
959.71897193809923
 30
0.0
 11
504.53087858511162
 21
959.71897193809923
 31
0.0
  0
LINE
  5
BC92
  8
0
 62
     0
 10
520.72558058511117
 20
973.40696293809935
 30
0.0
 11
520.72558058511117
 21
960.45896193809926
 31
0.0
  0
LINE
  5
BC93
  8
0
 62
     0
 10
520.72558058511117
 20
960.45896193809926
 30
0.0
 11
504.53081758511178
 21
950.97653993809922
 31
0.0
  0
LINE
  5
BC94
  8
0
 62
     0
 10
278.2255405851115
 20
950.97653993809922
 30
0.0
 11
504.53087858511162
 21
950.97653993809922
 31
0.0
  0
LINE
  5
BC95
  8
0
 62
     0
 10
522.72551958511167
 20
1187.6091229380991
 30
0.0
 11
522.72551958511167
 21
957.60910993809921
 31
0.0
  0
LINE
  5
BE8B
  8
0
  6
CONTINUOUS
 62
     7
 10
619.72551958511156
 20
1231.556139938099
 30
0.0
 11
619.72551958511156
 21
1077.609109938099
 31
0.0
  0
LINE
  5
BE8C
  8
0
  6
CENTER
 62
     7
 10
601.72551958511178
 20
1055.4742299380989
 30
0.0
 11
601.72551958511178
 21
1088.5224399380991
 31
0.0
  0
LINE
  5
BE8D
  8
0
  6
CONTINUOUS
 62
     7
 10
581.72551958511156
 20
1067.609109938099
 30
0.0
 11
621.72551958511156
 21
1067.609109938099
 31
0.0
  0
LINE
  5
BE8E
  8
0
  6
CONTINUOUS
 62
     7
 10
581.72551958511156
 20
1077.609109938099
 30
0.0
 11
621.72551958511156
 21
1077.609109938099
 31
0.0
  0
LINE
  5
BE8F
  8
0
  6
CONTINUOUS
 62
     7
 10
619.72551958511156
 20
913.66214993809865
 30
0.0
 11
604.55095958511151
 21
914.19205993809908
 31
0.0
  0
LINE
  5
BE90
  8
0
  6
CONTINUOUS
 62
     7
 10
619.72551958511156
 20
1231.556139938099
 30
0.0
 11
604.55095958511151
 21
1231.0262399380979
 31
0.0
  0
LINE
  5
BE91
  8
0
  6
CONTINUOUS
 62
     7
 10
535.72545958511148
 20
985.93424993809867
 30
0.0
 11
579.72545958511125
 21
985.93424993809867
 31
0.0
  0
LINE
  5
BE92
  8
0
  6
CONTINUOUS
 62
     7
 10
535.72545958511148
 20
1001.676309938098
 30
0.0
 11
579.72545958511125
 21
1001.676309938098
 31
0.0
  0
LINE
  5
BE93
  8
0
  6
CONTINUOUS
 62
     7
 10
535.72545958511148
 20
1143.541839938099
 30
0.0
 11
579.72545958511125
 21
1143.541839938099
 31
0.0
  0
LINE
  5
BE94
  8
0
  6
CONTINUOUS
 62
     7
 10
535.72545958511148
 20
1159.2839399380989
 30
0.0
 11
579.72545958511125
 21
1159.2839399380989
 31
0.0
  0
LINE
  5
BE95
  8
0
  6
CONTINUOUS
 62
     7
 10
535.72545958511148
 20
1190.6091399380989
 30
0.0
 11
535.72545958511148
 21
954.60910993809875
 31
0.0
  0
LINE
  5
BE96
  8
0
  6
CONTINUOUS
 62
     7
 10
537.72551958511156
 20
960.60910993809875
 30
0.0
 11
574.72545958511137
 21
960.60910993809875
 31
0.0
  0
LINE
  5
BE97
  8
0
  6
CONTINUOUS
 62
     7
 10
537.72551958511156
 20
1184.6091399380989
 30
0.0
 11
574.72545958511137
 21
1184.6091399380989
 31
0.0
  0
LINE
  5
BE98
  8
0
  6
CONTINUOUS
 62
     7
 10
599.72545958511182
 20
919.18894993809874
 30
0.0
 11
599.72545958511182
 21
1053.874129938099
 31
0.0
  0
LINE
  5
BE99
  8
0
  6
CONTINUOUS
 62
     7
 10
579.72545958511125
 20
947.67771993809902
 30
0.0
 11
579.72545958511125
 21
1068.026529938099
 31
0.0
  0
LINE
  5
BE9A
  8
0
  6
CONTINUOUS
 62
     7
 10
584.39147958511126
 20
942.68888993809901
 30
0.0
 11
595.05949958511155
 21
941.97452993809907
 31
0.0
  0
LINE
  5
BE9B
  8
0
  6
CONTINUOUS
 62
     7
 10
584.39140958511143
 20
1202.529239938098
 30
0.0
 11
595.05949958511155
 21
1203.243639938099
 31
0.0
  0
LINE
  5
BE9C
  8
0
  6
CONTINUOUS
 62
     7
 10
619.72551958511156
 20
1067.609109938099
 30
0.0
 11
619.72551958511156
 21
913.6620899380988
 31
0.0
  0
LINE
  5
BE9D
  8
0
  6
CONTINUOUS
 62
     7
 10
599.72545958511182
 20
1091.3440999380989
 30
0.0
 11
599.72545958511182
 21
1226.029239938099
 31
0.0
  0
LINE
  5
BE9E
  8
0
  6
CONTINUOUS
 62
     7
 10
579.72545958511125
 20
1077.191689938099
 30
0.0
 11
579.72545958511125
 21
1197.5405399380991
 31
0.0
  0
LINE
  5
BE9F
  8
0
  6
CONTINUOUS
 62
     7
 10
730.85777958511164
 20
1213.3216399380981
 30
0.0
 11
674.59331958511154
 21
1178.4832399380989
 31
0.0
  0
LINE
  5
BEA0
  8
0
  6
CONTINUOUS
 62
     7
 10
730.85765958511115
 20
1201.356339938098
 30
0.0
 11
675.92064958511151
 21
1167.3398399380969
 31
0.0
  0
LINE
  5
BEA1
  8
0
  6
CONTINUOUS
 62
     7
 10
672.22551958511178
 20
1174.232239938098
 30
0.0
 11
672.22551958511178
 21
1170.051739938099
 31
0.0
  0
LINE
  5
BEA2
  8
0
  6
CONTINUOUS
 62
     7
 10
733.22557958511152
 20
1182.5158399380989
 30
0.0
 11
711.04772958511126
 21
1166.038339938098
 31
0.0
  0
LINE
  5
BEA3
  8
0
  6
CONTINUOUS
 62
     7
 10
873.22551958511156
 20
1102.609109938099
 30
0.0
 11
873.22551958511156
 21
1042.609109938099
 31
0.0
  0
LINE
  5
BEA4
  8
0
  6
CONTINUOUS
 62
     7
 10
677.22551958511167
 20
1165.0517399380981
 30
0.0
 11
708.06578958511125
 21
1165.0517399380981
 31
0.0
  0
LINE
  5
BEA5
  8
0
  6
CONTINUOUS
 62
     7
 10
768.22551958511167
 20
1105.109109938099
 30
0.0
 11
768.22551958511167
 21
1040.109109938099
 31
0.0
  0
LINE
  5
BEA6
  8
0
  6
CONTINUOUS
 62
     7
 10
768.22551958511167
 20
1102.609109938099
 30
0.0
 11
873.22551958511156
 21
1102.609109938099
 31
0.0
  0
LINE
  5
BEA7
  8
0
  6
CONTINUOUS
 62
     7
 10
735.22551958511167
 20
1221.1679399380971
 30
0.0
 11
740.22551958511156
 21
1221.1679399380971
 31
0.0
  0
LINE
  5
BEA8
  8
0
  6
CONTINUOUS
 62
     7
 10
792.22551958511121
 20
1081.609109938099
 30
0.0
 11
792.22551958511121
 21
1063.609109938099
 31
0.0
  0
LINE
  5
BEA9
  8
0
  6
CONTINUOUS
 62
     7
 10
733.22551958511156
 20
1158.880439938099
 30
0.0
 11
740.22551958511156
 21
1158.880439938099
 31
0.0
  0
LINE
  5
BEAA
  8
0
  6
CONTINUOUS
 62
     7
 10
736.22551958511156
 20
1257.6091399380989
 30
0.0
 11
758.22551958511156
 21
1257.6091399380989
 31
0.0
  0
LINE
  5
BEAB
  8
0
  6
CONTINUOUS
 62
     7
 10
758.22551958511156
 20
1257.6091399380989
 30
0.0
 11
758.22551958511156
 21
887.60910993809887
 31
0.0
  0
LINE
  5
BEAC
  8
0
  6
CONTINUOUS
 62
     7
 10
728.39995958511156
 20
909.8670499380986
 30
0.0
 11
619.72551958511156
 21
913.6620899380988
 31
0.0
  0
LINE
  5
BEAD
  8
0
  6
CONTINUOUS
 62
     7
 10
742.22551958511156
 20
1219.1679399380971
 30
0.0
 11
742.22551958511156
 21
926.03916993809901
 31
0.0
  0
LINE
  5
BEAE
  8
0
  6
CONTINUOUS
 62
     7
 10
758.22551958511156
 20
1227.6091399380989
 30
0.0
 11
763.22551958511156
 21
1227.6091399380989
 31
0.0
  0
LINE
  5
BEAF
  8
0
  6
CONTINUOUS
 62
     7
 10
728.39995958511156
 20
1235.3510399380989
 30
0.0
 11
619.72551958511156
 21
1231.556139938099
 31
0.0
  0
LINE
  5
BEB0
  8
0
  6
CONTINUOUS
 62
     7
 10
733.22551958511156
 20
1254.6091399380989
 30
0.0
 11
733.22551958511156
 21
890.60910993809864
 31
0.0
  0
LINE
  5
BEB1
  8
0
  6
CONTINUOUS
 62
     7
 10
763.22551958511156
 20
917.60910993809875
 30
0.0
 11
763.22551958511156
 21
1227.6091399380989
 31
0.0
  0
LINE
  5
BEB2
  8
0
  6
CONTINUOUS
 62
     7
 10
730.85771958511168
 20
931.89652993809875
 30
0.0
 11
674.59331958511154
 21
966.73490993809844
 31
0.0
  0
LINE
  5
BEB3
  8
0
  6
CONTINUOUS
 62
     7
 10
730.85765958511115
 20
943.86203993809875
 30
0.0
 11
675.92064958511151
 21
977.87845993809867
 31
0.0
  0
LINE
  5
BEB4
  8
0
  6
CONTINUOUS
 62
     7
 10
672.22551958511178
 20
970.98593993809902
 30
0.0
 11
672.22551958511178
 21
975.16648993809895
 31
0.0
  0
LINE
  5
BEB5
  8
0
  6
CONTINUOUS
 62
     7
 10
733.22551958511156
 20
962.70230993809878
 30
0.0
 11
711.04778958511167
 21
979.17990993809883
 31
0.0
  0
LINE
  5
BEB6
  8
0
  6
CONTINUOUS
 62
     7
 10
677.22551958511167
 20
980.16648993809906
 30
0.0
 11
708.06578958511125
 21
980.16648993809906
 31
0.0
  0
LINE
  5
BEB7
  8
0
  6
CONTINUOUS
 62
     7
 10
735.22551958511167
 20
924.05020993809876
 30
0.0
 11
740.22551958511156
 21
924.05020993809876
 31
0.0
  0
LINE
  5
BEB8
  8
0
  6
CONTINUOUS
 62
     7
 10
733.22551958511156
 20
986.33774993809925
 30
0.0
 11
740.22551958511156
 21
986.33774993809925
 31
0.0
  0
LINE
  5
BEBA
  8
0
  6
CONTINUOUS
 62
     7
 10
758.22551958511156
 20
917.60910993809875
 30
0.0
 11
763.22551958511156
 21
917.60910993809875
 31
0.0
  0
LINE
  5
BEBB
  8
0
  6
CONTINUOUS
 62
     7
 10
792.22551958511121
 20
1063.609109938099
 30
0.0
 11
873.22551958511156
 21
1063.609109938099
 31
0.0
  0
LINE
  5
BEBC
  8
0
  6
CONTINUOUS
 62
     7
 10
792.22551958511121
 20
1081.609109938099
 30
0.0
 11
873.22551958511156
 21
1081.609109938099
 31
0.0
  0
LINE
  5
BEBD
  8
0
  6
CONTINUOUS
 62
     7
 10
768.22551958511167
 20
1042.609109938099
 30
0.0
 11
873.22551958511156
 21
1042.609109938099
 31
0.0
  0
LINE
  5
BEBE
  8
0
  6
CONTINUOUS
 62
     7
 10
763.22551958511156
 20
1105.109109938099
 30
0.0
 11
768.22551958511167
 21
1105.109109938099
 31
0.0
  0
LINE
  5
BEBF
  8
0
  6
CONTINUOUS
 62
     7
 10
763.22551958511156
 20
1040.109109938099
 30
0.0
 11
768.22551958511167
 21
1040.109109938099
 31
0.0
  0
ARC
  5
BEC0
  8
0
  6
CONTINUOUS
 62
     7
 10
621.72551958511156
 20
1072.609109938099
 30
0.0
 40
5.0
 50
270.0
 51
90.00000299999769
  0
ARC
  5
BEC1
  8
0
  6
CONTINUOUS
 62
     7
 10
581.72551958511156
 20
1072.609109938099
 30
0.0
 40
5.0
 50
90.00000299999769
 51
270.0
  0
ARC
  5
BEC2
  8
0
  6
CONTINUOUS
 62
     7
 10
601.72551958511178
 20
1072.609109938099
 30
0.0
 40
12.5
 50
23.578179999997541
 51
156.42182000000241
  0
ARC
  5
BEC3
  8
0
  6
CONTINUOUS
 62
     7
 10
601.72551958511178
 20
1072.609109938099
 30
0.0
 40
12.5
 50
203.5781799999975
 51
336.42182999999483
  0
ARC
  5
BEC4
  8
0
  6
CONTINUOUS
 62
     7
 10
533.72551958511144
 20
1190.6091399380989
 30
0.0
 40
2.0
 50
0.0
 51
90.00000299999769
  0
ARC
  5
BEC5
  8
0
  6
CONTINUOUS
 62
     7
 10
533.72551958511144
 20
954.60910993809875
 30
0.0
 40
2.0
 50
270.0
 51
0.0
  0
ARC
  5
BEC6
  8
0
  6
CONTINUOUS
 62
     7
 10
574.72545958511137
 20
955.60910993809875
 30
0.0
 40
5.0
 50
0.0
 51
90.00000299999769
  0
ARC
  5
BEC7
  8
0
  6
CONTINUOUS
 62
     7
 10
537.72551958511156
 20
1186.6091399380989
 30
0.0
 40
2.0
 50
179.999989999999
 51
270.0
  0
ARC
  5
BEC8
  8
0
  6
CONTINUOUS
 62
     7
 10
574.72545958511137
 20
1189.6091399380989
 30
0.0
 40
5.0
 50
270.0
 51
0.0
  0
ARC
  5
BEC9
  8
0
  6
CONTINUOUS
 62
     7
 10
537.72551958511156
 20
958.60910993809875
 30
0.0
 40
2.0
 50
90.00000299999769
 51
180.000010000001
  0
ARC
  5
BECA
  8
0
  6
CONTINUOUS
 62
     7
 10
584.72545958511125
 20
947.67771993809902
 30
0.0
 40
5.0
 50
180.000010000001
 51
266.1691599999977
  0
ARC
  5
BECB
  8
0
  6
CONTINUOUS
 62
     7
 10
594.72545958511148
 20
936.98569993809872
 30
0.0
 40
5.0
 50
0.0
 51
86.16916099999878
  0
ARC
  5
BECC
  8
0
  6
CONTINUOUS
 62
     7
 10
604.72545958511125
 20
919.18894993809874
 30
0.0
 40
5.0
 50
180.000010000001
 51
268.00000999999878
  0
ARC
  5
BECD
  8
0
  6
CONTINUOUS
 62
     7
 10
604.72545958511125
 20
1226.029239938099
 30
0.0
 40
5.0
 50
91.999998000000787
 51
180.000010000001
  0
ARC
  5
BECE
  8
0
  6
CONTINUOUS
 62
     7
 10
584.72545958511125
 20
1197.5405399380991
 30
0.0
 40
5.0
 50
93.830836999998056
 51
180.000010000001
  0
ARC
  5
BECF
  8
0
  6
CONTINUOUS
 62
     7
 10
594.72545958511148
 20
1208.2325399380991
 30
0.0
 40
5.0
 50
273.83084000000241
 51
0.0
  0
ARC
  5
BED0
  8
0
  6
CONTINUOUS
 62
     7
 10
601.72551958511178
 20
1072.609109938099
 30
0.0
 40
15.0
 50
110.4873699999977
 51
160.5287699999993
  0
ARC
  5
BED1
  8
0
  6
CONTINUOUS
 62
     7
 10
594.72545958511148
 20
1053.874129938099
 30
0.0
 40
5.0
 50
0.0
 51
69.512624999999204
  0
ARC
  5
BED2
  8
0
  6
CONTINUOUS
 62
     7
 10
594.72545958511148
 20
1091.3440999380989
 30
0.0
 40
5.0
 50
290.4873799999977
 51
0.0
  0
ARC
  5
BED3
  8
0
  6
CONTINUOUS
 62
     7
 10
601.72551958511178
 20
1072.609109938099
 30
0.0
 40
15.0
 50
199.4712300000007
 51
249.51263000000219
  0
ARC
  5
BED4
  8
0
  6
CONTINUOUS
 62
     7
 10
677.22551958511167
 20
1170.051739938099
 30
0.0
 40
5.0
 50
179.999989999999
 51
270.0
  0
ARC
  5
BED5
  8
0
  6
CONTINUOUS
 62
     7
 10
728.22551958511156
 20
1217.572739938098
 30
0.0
 40
5.0
 50
301.76536999999581
 51
0.0
  0
ARC
  5
BED6
  8
0
  6
CONTINUOUS
 62
     7
 10
736.22551958511156
 20
1254.6091399380989
 30
0.0
 40
3.0
 50
90.00000299999769
 51
180.000010000001
  0
ARC
  5
BED7
  8
0
  6
CONTINUOUS
 62
     7
 10
740.22551958511156
 20
1156.880439938099
 30
0.0
 40
2.0
 50
0.0
 51
90.00000299999769
  0
ARC
  5
BED8
  8
0
  6
CONTINUOUS
 62
     7
 10
792.22551958511121
 20
1072.609109938099
 30
0.0
 40
9.0
 50
90.00000299999769
 51
270.0
  0
ARC
  5
BED9
  8
0
  6
CONTINUOUS
 62
     7
 10
677.22551958511167
 20
970.98593993809902
 30
0.0
 40
5.0
 50
179.999989999999
 51
238.23464999999629
  0
ARC
  5
BEDA
  8
0
  6
CONTINUOUS
 62
     7
 10
677.22551958511167
 20
1174.232239938098
 30
0.0
 40
5.0
 50
121.76535999999901
 51
180.000010000001
  0
ARC
  5
BEDB
  8
0
  6
CONTINUOUS
 62
     7
 10
728.22551958511156
 20
904.87015993809905
 30
0.0
 40
5.0
 50
0.0
 51
88.000000000002998
  0
ARC
  5
BEDC
  8
0
  6
CONTINUOUS
 62
     7
 10
708.06578958511125
 20
1170.051739938099
 30
0.0
 40
5.0
 50
270.0
 51
306.61150000000521
  0
ARC
  5
BEDD
  8
0
  6
CONTINUOUS
 62
     7
 10
740.22551958511156
 20
1219.1679399380971
 30
0.0
 40
2.0
 50
0.0
 51
90.00000299999769
  0
ARC
  5
BEDE
  8
0
  6
CONTINUOUS
 62
     7
 10
735.22551958511167
 20
1223.167939938098
 30
0.0
 40
2.0
 50
179.999989999999
 51
270.0
  0
ARC
  5
BEDF
  8
0
  6
CONTINUOUS
 62
     7
 10
677.22551958511167
 20
975.16648993809895
 30
0.0
 40
5.0
 50
90.00000299999769
 51
180.000010000001
  0
ARC
  5
BEE0
  8
0
  6
CONTINUOUS
 62
     7
 10
728.22551958511156
 20
927.64548993809876
 30
0.0
 40
5.0
 50
0.0
 51
58.234630000004231
  0
ARC
  5
BEE1
  8
0
  6
CONTINUOUS
 62
     7
 10
728.22551958511156
 20
1240.348139938098
 30
0.0
 40
5.0
 50
271.99999999999699
 51
0.0
  0
ARC
  5
BEE2
  8
0
  6
CONTINUOUS
 62
     7
 10
736.22551958511156
 20
890.60910993809864
 30
0.0
 40
3.0
 50
179.999989999999
 51
270.0
  0
ARC
  5
BEE3
  8
0
  6
CONTINUOUS
 62
     7
 10
740.22551958511156
 20
988.33774993809925
 30
0.0
 40
2.0
 50
270.0
 51
0.0
  0
ARC
  5
BEE4
  8
0
  6
CONTINUOUS
 62
     7
 10
740.22551958511156
 20
926.05020993809865
 30
0.0
 40
2.0
 50
270.0
 51
0.0
  0
ARC
  5
BEE5
  8
0
  6
CONTINUOUS
 62
     7
 10
735.22551958511167
 20
922.05020993809876
 30
0.0
 40
2.0
 50
90.00000299999769
 51
180.000010000001
  0
ARC
  5
BEE6
  8
0
  6
CONTINUOUS
 62
     7
 10
708.06578958511125
 20
975.16648993809895
 30
0.0
 40
5.0
 50
53.388504999994019
 51
90.00000299999769
  0
POLYLINE
  5
BEE7
  8
0
  6
CONTINUOUS
 62
     7
 66
     1
 10
0.0
 20
0.0
 30
0.0
  0
VERTEX
  5
BEE8
  8
0
  6
CONTINUOUS
 62
     7
 10
723.39882958511168
 20
936.51479993809903
 30
0.0
 42
0.0050438079
  0
VERTEX
  5
BEE9
  8
0
  6
CONTINUOUS
 62
     7
 10
726.48083958511165
 20
926.81440993809906
 30
0.0
 42
0.0050105797
  0
VERTEX
  5
BEEA
  8
0
  6
CONTINUOUS
 62
     7
 10
729.75725958511157
 20
917.177949938099
 30
0.0
 42
0.0049830203
  0
VERTEX
  5
BEEB
  8
0
  6
CONTINUOUS
 62
     7
 10
733.22551958511156
 20
907.60910993809864
 30
0.0
  0
SEQEND
  5
BEEC
  8
0
 62
     7
  0
POLYLINE
  5
BEED
  8
0
  6
CONTINUOUS
 62
     7
 66
     1
 10
0.0
 20
0.0
 30
0.0
  0
VERTEX
  5
BEEE
  8
0
  6
CONTINUOUS
 62
     7
 10
712.60901958511124
 20
1167.198339938099
 30
0.0
 42
0.034282229
  0
VERTEX
  5
BEEF
  8
0
  6
CONTINUOUS
 62
     7
 10
703.56471958511156
 20
1104.3520299380989
 30
0.0
 42
0.072426646
  0
VERTEX
  5
BEF0
  8
0
  6
CONTINUOUS
 62
     7
 10
712.60901958511124
 20
978.01993993809879
 30
0.0
  0
SEQEND
  5
BEF1
  8
0
 62
     7
  0
POLYLINE
  5
BEF2
  8
0
  6
CONTINUOUS
 62
     7
 66
     1
 10
0.0
 20
0.0
 30
0.0
  0
VERTEX
  5
BEF3
  8
0
  6
CONTINUOUS
 62
     7
 10
733.22551958511156
 20
1237.6091399380989
 30
0.0
  0
VERTEX
  5
BEF4
  8
0
  6
CONTINUOUS
 62
     7
 10
723.39887958511156
 20
1208.7035399380991
 30
0.0
 42
-1.0
  0
SEQEND
  5
BEF5
  8
0
 62
     7
  0
LINE
  5
BF5F
  8
0
  6
CONTINUOUS
 62
     7
 10
598.59960958511124
 20
458.6944284845531
 30
0.0
 11
584.02403958511172
 21
470.35488848455361
 31
0.0
  0
LINE
  5
BF60
  8
0
  6
CONTINUOUS
 62
     7
 10
768.22551958511167
 20
628.66966848455354
 30
0.0
 11
873.22551958511156
 21
628.66966848455354
 31
0.0
  0
LINE
  5
BF61
  8
0
  6
CONTINUOUS
 62
     7
 10
873.22551958511156
 20
692.66966848455354
 30
0.0
 11
873.22551958511156
 21
628.66966848455354
 31
0.0
  0
LINE
  5
BF62
  8
0
  6
CONTINUOUS
 62
     7
 10
768.22551958511167
 20
688.66966848455354
 30
0.0
 11
873.22551958511156
 21
688.66966848455354
 31
0.0
  0
LINE
  5
BF63
  8
0
  6
CONTINUOUS
 62
     7
 10
792.22551958511121
 20
692.66966848455354
 30
0.0
 11
792.22551958511121
 21
688.66966848455354
 31
0.0
  0
LINE
  5
BF64
  8
0
  6
CONTINUOUS
 62
     7
 10
792.22551958511121
 20
692.66966848455354
 30
0.0
 11
873.22551958511156
 21
692.66966848455354
 31
0.0
  0
LINE
  5
BF65
  8
0
  6
CONTINUOUS
 62
     7
 10
598.59966958511143
 20
758.76893848455325
 30
0.0
 11
583.47856958511125
 21
746.67210848455352
 31
0.0
  0
LINE
  5
BF66
  8
0
  6
CONTINUOUS
 62
     7
 10
537.72557958511152
 20
722.66966848455354
 30
0.0
 11
574.72551958511144
 21
722.66966848455354
 31
0.0
  0
LINE
  5
BF67
  8
0
  6
CONTINUOUS
 62
     7
 10
535.72551958511156
 20
728.66966848455354
 30
0.0
 11
535.72551958511156
 21
492.6696684845532
 31
0.0
  0
LINE
  5
BF68
  8
0
  6
CONTINUOUS
 62
     7
 10
537.72557958511152
 20
498.66966848455331
 30
0.0
 11
574.72551958511144
 21
498.66966848455331
 31
0.0
  0
LINE
  5
BF69
  8
0
  6
CONTINUOUS
 62
     7
 10
588.72551958511178
 20
790.66966848455365
 30
0.0
 11
619.42552958511124
 21
790.66966848455365
 31
0.0
  0
LINE
  5
BF6A
  8
0
  6
CONTINUOUS
 62
     7
 10
579.72551958511156
 20
738.86341848455345
 30
0.0
 11
579.72551958511156
 21
478.57026848455348
 31
0.0
  0
LINE
  5
BF6B
  8
0
  6
CONTINUOUS
 62
     7
 10
599.72551958511156
 20
788.05033848455355
 30
0.0
 11
599.72551958511156
 21
439.2994584845535
 31
0.0
  0
LINE
  5
BF6C
  8
0
  6
CONTINUOUS
 62
     7
 10
586.7255795851114
 20
788.66966848455354
 30
0.0
 11
586.7255795851114
 21
751.67277848455342
 31
0.0
  0
LINE
  5
BF6D
  8
0
  6
CONTINUOUS
 62
     7
 10
601.65563958511154
 20
790.04911848455356
 30
0.0
 11
619.42552958511124
 21
790.66966848455365
 31
0.0
  0
LINE
  5
BF6E
  8
0
  6
CONTINUOUS
 62
     7
 10
591.93150958511114
 20
799.66966848455354
 30
0.0
 11
611.51958958511148
 21
799.66966848455354
 31
0.0
  0
LINE
  5
BF6F
  8
0
  6
CONTINUOUS
 62
     7
 10
589.22551958511144
 20
790.6697284845535
 30
0.0
 11
591.47600958511134
 21
799.06858848455306
 31
0.0
  0
LINE
  5
BF70
  8
0
  6
CONTINUOUS
 62
     7
 10
614.22551958511178
 20
790.66966848455365
 30
0.0
 11
611.97502958511166
 21
799.06858848455306
 31
0.0
  0
LINE
  5
BF71
  8
0
  6
CONTINUOUS
 62
     7
 10
592.24748958511157
 20
799.79069848455367
 30
0.0
 11
601.72551958511178
 21
801.66972848455384
 31
0.0
  0
LINE
  5
BF72
  8
0
  6
CONTINUOUS
 62
     7
 10
601.72551958511178
 20
801.66966848455365
 30
0.0
 11
611.20360958511151
 21
799.79063848455348
 31
0.0
  0
LINE
  5
BF73
  8
0
  6
CONTINUOUS
 62
     7
 10
535.72551958511156
 20
697.34455848455309
 30
0.0
 11
579.72551958511156
 21
697.34455848455309
 31
0.0
  0
LINE
  5
BF74
  8
0
  6
CONTINUOUS
 62
     7
 10
535.72551958511156
 20
681.60246848455324
 30
0.0
 11
579.72551958511156
 21
681.60246848455324
 31
0.0
  0
LINE
  5
BF75
  8
0
  6
CONTINUOUS
 62
     7
 10
535.72551958511156
 20
539.73686848455316
 30
0.0
 11
579.72551958511156
 21
539.73686848455316
 31
0.0
  0
LINE
  5
BF76
  8
0
  6
CONTINUOUS
 62
     7
 10
535.72551958511156
 20
523.99479848455326
 30
0.0
 11
579.72551958511156
 21
523.99479848455326
 31
0.0
  0
LINE
  5
BF77
  8
0
  6
CONTINUOUS
 62
     7
 10
619.42552958511124
 20
790.66966848455365
 30
0.0
 11
619.72551958511156
 21
790.66966848455365
 31
0.0
  0
LINE
  5
BF78
  8
0
  6
CONTINUOUS
 62
     7
 10
601.65575958511124
 20
437.30067848455349
 30
0.0
 11
619.7255795851114
 21
436.66966848455331
 31
0.0
  0
LINE
  5
BF79
  8
0
  6
CONTINUOUS
 62
     7
 10
619.72551958511156
 20
790.66966848455365
 30
0.0
 11
619.72551958511156
 21
436.66966848455331
 31
0.0
  0
LINE
  5
BF7A
  8
0
  6
CONTINUOUS
 62
     7
 10
709.71990958511151
 20
751.11225848455354
 30
0.0
 11
732.9630695851115
 21
601.12653848455352
 31
0.0
  0
LINE
  5
BF7B
  8
0
  6
CONTINUOUS
 62
     7
 10
763.22551958511156
 20
503.6696684845532
 30
0.0
 11
763.22551958511156
 21
813.66966848455354
 31
0.0
  0
LINE
  5
BF7C
  8
0
  6
CONTINUOUS
 62
     7
 10
653.22551958511156
 20
515.10642848455359
 30
0.0
 11
653.22551958511156
 21
501.45641848455352
 31
0.0
  0
LINE
  5
BF7D
  8
0
  6
CONTINUOUS
 62
     7
 10
733.22551958511156
 20
840.66966848455354
 30
0.0
 11
733.22551958511156
 21
600.73264848455358
 31
0.0
  0
LINE
  5
BF7E
  8
0
  6
CONTINUOUS
 62
     7
 10
619.7255795851114
 20
790.66966848455365
 30
0.0
 11
698.40196958511149
 21
792.72984848455326
 31
0.0
  0
LINE
  5
BF7F
  8
0
  6
CONTINUOUS
 62
     7
 10
703.13835958511152
 20
793.58256848455312
 30
0.0
 11
704.74516958511174
 21
783.21372848455349
 31
0.0
  0
LINE
  5
BF80
  8
0
  6
CONTINUOUS
 62
     7
 10
758.22551958511156
 20
503.6696684845532
 30
0.0
 11
763.22551958511156
 21
503.6696684845532
 31
0.0
  0
LINE
  5
BF81
  8
0
  6
CONTINUOUS
 62
     7
 10
683.25810958511124
 20
435.00601848455318
 30
0.0
 11
750.22551958511156
 21
473.66967848455351
 31
0.0
  0
LINE
  5
BF82
  8
0
  6
CONTINUOUS
 62
     7
 10
735.22551958511167
 20
510.11079848455319
 30
0.0
 11
740.22551958511156
 21
510.11079848455319
 31
0.0
  0
LINE
  5
BF83
  8
0
  6
CONTINUOUS
 62
     7
 10
734.93944958511156
 20
599.43284848455323
 30
0.0
 11
740.22551958511156
 21
599.43284848455323
 31
0.0
  0
LINE
  5
BF84
  8
0
  6
CONTINUOUS
 62
     7
 10
758.22551958511156
 20
813.66966848455354
 30
0.0
 11
763.22551958511156
 21
813.66966848455354
 31
0.0
  0
LINE
  5
BF85
  8
0
  6
CONTINUOUS
 62
     7
 10
742.22551958511156
 20
805.22855848455345
 30
0.0
 11
742.22551958511156
 21
512.11079848455358
 31
0.0
  0
LINE
  5
BF86
  8
0
  6
CONTINUOUS
 62
     7
 10
758.22551958511156
 20
843.66972848455373
 30
0.0
 11
758.22551958511156
 21
473.66966848455331
 31
0.0
  0
LINE
  5
BF87
  8
0
  6
CONTINUOUS
 62
     7
 10
733.22551958511156
 20
546.88639848455318
 30
0.0
 11
733.22551958511156
 21
476.66966848455309
 31
0.0
  0
LINE
  5
BF88
  8
0
  6
CONTINUOUS
 62
     7
 10
735.22551958511167
 20
548.07575848455315
 30
0.0
 11
740.22551958511156
 21
548.07575848455315
 31
0.0
  0
LINE
  5
BF89
  8
0
  6
CONTINUOUS
 62
     7
 10
705.21129958511153
 20
795.65537848455324
 30
0.0
 11
731.76109958511154
 21
822.20518848455345
 31
0.0
  0
LINE
  5
BF8A
  8
0
  6
CONTINUOUS
 62
     7
 10
736.22551958511156
 20
843.66972848455373
 30
0.0
 11
758.22551958511156
 21
843.66972848455373
 31
0.0
  0
LINE
  5
BF8B
  8
0
  6
CONTINUOUS
 62
     7
 10
733.22551958511156
 20
744.9410284845535
 30
0.0
 11
740.22551958511156
 21
744.9410284845535
 31
0.0
  0
LINE
  5
BF8C
  8
0
  6
CONTINUOUS
 62
     7
 10
735.22551958511167
 20
807.22855848455356
 30
0.0
 11
740.22551958511156
 21
807.22855848455356
 31
0.0
  0
LINE
  5
BF8D
  8
0
  6
CONTINUOUS
 62
     7
 10
686.60539958511151
 20
529.02516848455355
 30
0.0
 11
733.22551958511156
 21
529.02516848455355
 31
0.0
  0
LINE
  5
BF8E
  8
0
  6
CONTINUOUS
 62
     7
 10
758.22551958511156
 20
473.66966848455331
 30
0.0
 11
736.22551958511156
 21
473.66966848455331
 31
0.0
  0
LINE
  5
BF8F
  8
0
  6
CONTINUOUS
 62
     7
 10
686.60539958511151
 20
488.40012848455331
 30
0.0
 11
733.22551958511156
 21
488.40012848455331
 31
0.0
  0
LINE
  5
BF90
  8
0
  6
CONTINUOUS
 62
     7
 10
650.14464958511178
 20
516.69132848455331
 30
0.0
 11
667.92552958511124
 21
516.69132848455331
 31
0.0
  0
LINE
  5
BF91
  8
0
  6
CONTINUOUS
 62
     7
 10
650.14464958511178
 20
499.5706384845534
 30
0.0
 11
668.46642958511165
 21
499.5706384845534
 31
0.0
  0
LINE
  5
BF92
  8
0
  6
CONTINUOUS
 62
     7
 10
688.22551958511156
 20
526.86640848455352
 30
0.0
 11
688.22551958511156
 21
490.74639848455348
 31
0.0
  0
LINE
  5
BF93
  8
0
  6
CONTINUOUS
 62
     7
 10
619.72551958511156
 20
436.66967848455351
 30
0.0
 11
683.25810958511124
 21
435.00601848455318
 31
0.0
  0
LINE
  5
BF94
  8
0
  6
CONTINUOUS
 62
     7
 10
677.22551958511167
 20
751.11228848455346
 30
0.0
 11
708.06578958511125
 21
751.11228848455346
 31
0.0
  0
LINE
  5
BF95
  8
0
  6
CONTINUOUS
 62
     7
 10
733.22557958511152
 20
768.57646848455352
 30
0.0
 11
711.04772958511126
 21
752.09882848455322
 31
0.0
  0
LINE
  5
BF96
  8
0
  6
CONTINUOUS
 62
     7
 10
672.22551958511178
 20
760.29286848455354
 30
0.0
 11
672.22551958511178
 21
756.11228848455323
 31
0.0
  0
LINE
  5
BF97
  8
0
  6
CONTINUOUS
 62
     7
 10
730.85777958511164
 20
787.41673848455321
 30
0.0
 11
675.92070958511124
 21
753.40025848455321
 31
0.0
  0
LINE
  5
BF98
  8
0
  6
CONTINUOUS
 62
     7
 10
730.85777958511164
 20
799.38224848455366
 30
0.0
 11
674.59337958511151
 21
764.54389848455355
 31
0.0
  0
LINE
  5
BF99
  8
0
  6
CONTINUOUS
 62
     7
 10
768.22551958511167
 20
691.16966848455354
 30
0.0
 11
768.22551958511167
 21
626.16966848455354
 31
0.0
  0
LINE
  5
BF9A
  8
0
  6
CONTINUOUS
 62
     7
 10
763.22551958511156
 20
626.16966848455354
 30
0.0
 11
768.22551958511167
 21
626.16966848455354
 31
0.0
  0
LINE
  5
BF9B
  8
0
  6
CONTINUOUS
 62
     7
 10
763.22551958511156
 20
691.16966848455354
 30
0.0
 11
768.22551958511167
 21
691.16966848455354
 31
0.0
  0
ARC
  5
BF9C
  8
0
  6
CONTINUOUS
 62
     7
 10
596.72557958511152
 20
456.3517884845532
 30
0.0
 40
3.0
 50
0.0
 51
51.340192999995487
  0
ARC
  5
BF9D
  8
0
  6
CONTINUOUS
 62
     7
 10
601.7255795851114
 20
439.2994584845535
 30
0.0
 40
2.0
 50
179.999989999999
 51
268.00000999999861
  0
ARC
  5
BF9E
  8
0
  6
CONTINUOUS
 62
     7
 10
601.7255795851114
 20
788.05033848455355
 30
0.0
 40
2.0
 50
91.999998000000545
 51
180.000010000001
  0
ARC
  5
BF9F
  8
0
  6
CONTINUOUS
 62
     7
 10
537.72557958511152
 20
724.6696384845535
 30
0.0
 40
2.0
 50
179.999989999999
 51
270.0
  0
ARC
  5
BFA0
  8
0
  6
CONTINUOUS
 62
     7
 10
537.72557958511152
 20
496.6696684845532
 30
0.0
 40
2.0
 50
90.00000299999769
 51
180.000010000001
  0
ARC
  5
BFA1
  8
0
  6
CONTINUOUS
 62
     7
 10
589.72551958511167
 20
478.57026848455348
 30
0.0
 40
10.0
 50
179.999989999999
 51
235.2394999999984
  0
ARC
  5
BFA2
  8
0
  6
CONTINUOUS
 62
     7
 10
574.72551958511144
 20
727.66966848455354
 30
0.0
 40
5.0
 50
270.0
 51
0.0
  0
ARC
  5
BFA3
  8
0
  6
CONTINUOUS
 62
     7
 10
574.72551958511144
 20
493.66966848455331
 30
0.0
 40
5.0
 50
0.0
 51
90.00000299999769
  0
ARC
  5
BFA4
  8
0
  6
CONTINUOUS
 62
     7
 10
581.72557958511152
 20
751.67277848455342
 30
0.0
 40
5.0
 50
308.65987999999749
 51
0.0
  0
ARC
  5
BFA5
  8
0
  6
CONTINUOUS
 62
     7
 10
533.72551958511144
 20
492.6696684845532
 30
0.0
 40
2.0
 50
270.0
 51
0.0
  0
ARC
  5
BFA6
  8
0
  6
CONTINUOUS
 62
     7
 10
533.72551958511144
 20
728.66966848455354
 30
0.0
 40
2.0
 50
0.0
 51
90.00000299999769
  0
ARC
  5
BFA7
  8
0
  6
CONTINUOUS
 62
     7
 10
596.72557958511152
 20
761.11152848455345
 30
0.0
 40
3.0
 50
308.65980999999641
 51
0.0
  0
ARC
  5
BFA8
  8
0
  6
CONTINUOUS
 62
     7
 10
588.72551958511178
 20
788.66966848455354
 30
0.0
 40
2.0
 50
90.00000299999769
 51
180.000010000001
  0
ARC
  5
BFA9
  8
0
  6
CONTINUOUS
 62
     7
 10
589.72551958511167
 20
738.86341848455345
 30
0.0
 40
10.0
 50
128.65980999999641
 51
180.000010000001
  0
CIRCLE
  5
BFAA
  8
0
  6
CONTINUOUS
 62
     7
 10
601.7255795851114
 20
816.66966848455343
 30
0.0
 40
15.0
  0
ARC
  5
BFAB
  8
0
  6
CONTINUOUS
 62
     7
 10
601.7255795851114
 20
816.66966848455343
 30
0.0
 40
25.0
 50
306.46672000000018
 51
233.53329000000349
  0
ARC
  5
BFAC
  8
0
  6
CONTINUOUS
 62
     7
 10
592.4419495851115
 20
798.80979848455354
 30
0.0
 40
1.0
 50
101.21328999999881
 51
164.999990000005
  0
ARC
  5
BFAD
  8
0
  6
CONTINUOUS
 62
     7
 10
611.00908958511161
 20
798.80979848455354
 30
0.0
 40
1.0
 50
15.000000000000741
 51
78.786710000001207
  0
ARC
  5
BFAE
  8
0
  6
CONTINUOUS
 62
     7
 10
583.30052958511146
 20
791.73936848455355
 30
0.0
 40
6.0
 50
349.72994999999878
 51
53.533291000004859
  0
ARC
  5
BFAF
  8
0
  6
CONTINUOUS
 62
     7
 10
620.15056958511161
 20
791.73936848455355
 30
0.0
 40
6.0
 50
126.46669999999671
 51
190.27005999999921
  0
ARC
  5
BFB0
  8
0
  6
CONTINUOUS
 62
     7
 10
740.22551958511156
 20
512.11079848455358
 30
0.0
 40
2.0
 50
270.0
 51
0.0
  0
ARC
  5
BFB1
  8
0
  6
CONTINUOUS
 62
     7
 10
740.22551958511156
 20
597.4328784845535
 30
0.0
 40
2.0
 50
0.0
 51
90.00000299999769
  0
ARC
  5
BFB2
  8
0
  6
CONTINUOUS
 62
     7
 10
735.22551958511167
 20
809.22855848455345
 30
0.0
 40
2.0
 50
179.999989999999
 51
270.0
  0
ARC
  5
BFB3
  8
0
  6
CONTINUOUS
 62
     7
 10
740.22551958511156
 20
805.22855848455345
 30
0.0
 40
2.0
 50
0.0
 51
90.00000299999769
  0
ARC
  5
BFB4
  8
0
  6
CONTINUOUS
 62
     7
 10
735.22551958511167
 20
508.11079848455353
 30
0.0
 40
2.0
 50
90.00000299999769
 51
180.000010000001
  0
ARC
  5
BFB5
  8
0
  6
CONTINUOUS
 62
     7
 10
734.93944958511156
 20
601.43284848455357
 30
0.0
 40
2.0
 50
188.80900000000449
 51
270.0
  0
ARC
  5
BFB6
  8
0
  6
CONTINUOUS
 62
     7
 10
734.22557958511152
 20
600.73264848455358
 30
0.0
 40
1.0
 50
179.999989999999
 51
224.44400000000431
  0
ARC
  5
BFB7
  8
0
  6
CONTINUOUS
 62
     7
 10
728.22551958511156
 20
825.74070848455324
 30
0.0
 40
5.0
 50
315.0
 51
0.0
  0
ARC
  5
BFB8
  8
0
  6
CONTINUOUS
 62
     7
 10
740.22551958511156
 20
550.07575848455326
 30
0.0
 40
2.0
 50
270.0
 51
0.0
  0
ARC
  5
BFB9
  8
0
  6
CONTINUOUS
 62
     7
 10
740.22551958511156
 20
742.9410284845535
 30
0.0
 40
2.0
 50
0.0
 51
90.00000299999769
  0
ARC
  5
BFBA
  8
0
  6
CONTINUOUS
 62
     7
 10
736.22551958511156
 20
840.66966848455354
 30
0.0
 40
3.0
 50
90.00000299999769
 51
180.000010000001
  0
ARC
  5
BFBB
  8
0
  6
CONTINUOUS
 62
     7
 10
736.22551958511156
 20
476.66966848455309
 30
0.0
 40
3.0
 50
179.999989999999
 51
270.0
  0
ARC
  5
BFBC
  8
0
  6
CONTINUOUS
 62
     7
 10
698.14018958511156
 20
802.72642848455337
 30
0.0
 40
10.0
 50
271.50000000000267
 51
315.0
  0
ARC
  5
BFBD
  8
0
  6
CONTINUOUS
 62
     7
 10
686.60539958511151
 20
508.71262848455331
 30
0.0
 40
20.312494000000001
 50
90.00000299999769
 51
270.0
  0
ARC
  5
BFBE
  8
0
  6
CONTINUOUS
 62
     7
 10
650.14464958511178
 20
508.1309984845534
 30
0.0
 40
8.5603476000000001
 50
90.00000299999769
 51
270.0
  0
ARC
  5
BFBF
  8
0
  6
CONTINUOUS
 62
     7
 10
728.22551958511156
 20
803.63328848455353
 30
0.0
 40
5.0
 50
301.76536999999581
 51
0.0
  0
ARC
  5
BFC0
  8
0
  6
CONTINUOUS
 62
     7
 10
677.22551958511167
 20
756.11228848455323
 30
0.0
 40
5.0
 50
179.999989999999
 51
270.0
  0
ARC
  5
BFC1
  8
0
  6
CONTINUOUS
 62
     7
 10
708.06578958511125
 20
756.11228848455323
 30
0.0
 40
5.0
 50
270.0
 51
306.61150000000129
  0
ARC
  5
BFC2
  8
0
  6
CONTINUOUS
 62
     7
 10
677.22551958511167
 20
760.29286848455354
 30
0.0
 40
5.0
 50
121.7653600000025
 51
180.000010000001
  0
LINE
  5
BFC3
  8
0
  6
CONTINUOUS
 62
     7
 10
736.22551958511156
 20
887.60910993809887
 30
0.0
 11
758.22551958511156
 21
887.60910993809887
 31
0.0
  0
LINE
  5
C018
  8
0
  6
AM_ISO08W050
 62
     0
 10
965.41494046123557
 20
658.66966848455354
 30
0.0
 11
1356.6238524612349
 21
658.66966848455354
 31
0.0
  0
LINE
  5
C019
  8
0
  6
AM_ISO08W050
 62
     0
 10
1162.0270604612349
 20
856.02360848455339
 30
0.0
 11
1162.0270604612349
 21
424.23214848455348
 31
0.0
  0
LINE
  5
C01A
  8
0
  6
CONTINUOUS
 62
     7
 10
959.19143046123565
 20
550.72944848455325
 30
0.0
 11
977.02703046123509
 21
586.50718848455347
 31
0.0
  0
LINE
  5
C01B
  8
0
  6
CONTINUOUS
 62
     7
 10
966.05834046123562
 20
553.31349848455352
 30
0.0
 11
977.02703046123509
 21
553.31358848455329
 31
0.0
  0
LINE
  5
C01C
  8
0
  6
CONTINUOUS
 62
     7
 10
962.99010046123578
 20
547.15949848455352
 30
0.0
 11
977.02706046123558
 21
575.31333848455324
 31
0.0
  0
LINE
  5
C01D
  8
0
  6
CONTINUOUS
 62
     7
 10
959.86461046123532
 20
548.71781848455316
 30
0.0
 11
962.99013046123582
 21
547.15949848455352
 31
0.0
  0
LINE
  5
C01E
  8
0
  6
CONTINUOUS
 62
     7
 10
961.20079046123533
 20
554.76014848455361
 30
0.0
 11
961.20076046123563
 21
631.34120848455359
 31
0.0
  0
LINE
  5
C01F
  8
0
  6
CONTINUOUS
 62
     7
 10
977.02706046123558
 20
652.13804848455345
 30
0.0
 11
964.71550046123559
 21
639.82646848455352
 31
0.0
  0
LINE
  5
C020
  8
0
  6
CONTINUOUS
 62
     7
 10
1091.2956404612351
 20
437.23039848455318
 30
0.0
 11
1055.6709504612361
 21
462.86491848455319
 31
0.0
  0
LINE
  5
C021
  8
0
  6
CONTINUOUS
 62
     7
 10
1104.2272504612349
 20
726.36897848455305
 30
0.0
 11
1069.9742304612359
 21
760.62199848455373
 31
0.0
  0
LINE
  5
C022
  8
0
  6
CONTINUOUS
 62
     7
 10
1080.0270604612349
 20
658.66966848455354
 30
0.0
 11
1080.0270604612349
 21
648.66966848455354
 31
0.0
  0
LINE
  5
C023
  8
0
  6
CENTER
 62
     7
 10
1336.328861461235
 20
832.97147848455347
 30
0.0
 11
1300.2419504612351
 21
796.88456848455337
 31
0.0
  0
LINE
  5
C024
  8
0
  6
CONTINUOUS
 62
     7
 10
1347.0270434612351
 20
818.66966848455365
 30
0.0
 11
1347.0270434612351
 21
498.66966848455331
 31
0.0
  0
LINE
  5
C025
  8
0
  6
CONTINUOUS
 62
     7
 10
1219.8267904612351
 20
726.36891848455321
 30
0.0
 11
1254.0798504612351
 21
760.62199848455373
 31
0.0
  0
LINE
  5
C026
  8
0
  6
CONTINUOUS
 62
     7
 10
977.02706046123558
 20
498.66966848455331
 30
0.0
 11
977.02706046123558
 21
818.66966848455365
 31
0.0
  0
LINE
  5
C027
  8
0
  6
CENTER
 62
     7
 10
1336.3288694612349
 20
484.36784848455329
 30
0.0
 11
1305.923290461235
 21
514.77342848455351
 31
0.0
  0
LINE
  5
C028
  8
0
  6
CONTINUOUS
 62
     7
 10
1002.027060461236
 20
843.66972848455373
 30
0.0
 11
1322.0270604612349
 21
843.66972848455373
 31
0.0
  0
LINE
  5
C029
  8
0
  6
CONTINUOUS
 62
     7
 10
1302.2269004612349
 20
638.66966848455354
 30
0.0
 11
1254.0270404612361
 21
638.66966848455354
 31
0.0
  0
LINE
  5
C02A
  8
0
  6
CONTINUOUS
 62
     7
 10
1229.726310461235
 20
716.46940848455336
 30
0.0
 11
1263.9793704612359
 21
750.72248848455297
 31
0.0
  0
LINE
  5
C02B
  8
0
  6
CENTER
 62
     7
 10
987.72524046123556
 20
832.97147848455347
 30
0.0
 11
1022.645160461235
 21
798.05155848455342
 31
0.0
  0
LINE
  5
C02C
  8
0
  6
CONTINUOUS
 62
     7
 10
1021.827200461236
 20
638.66966848455354
 30
0.0
 11
1070.0270604612349
 21
638.66966848455354
 31
0.0
  0
LINE
  5
C02D
  8
0
  6
CONTINUOUS
 62
     7
 10
1322.0270604612349
 20
473.66966848455331
 30
0.0
 11
1002.027060461236
 21
473.66966848455331
 31
0.0
  0
LINE
  5
C02E
  8
0
  6
CENTER
 62
     7
 10
987.72521046123541
 20
484.36785848455349
 30
0.0
 11
1018.130820461236
 21
514.77345848455343
 31
0.0
  0
LINE
  5
C030
  8
0
  6
CONTINUOUS
 62
     7
 10
1094.3277504612349
 20
716.46946848455354
 30
0.0
 11
1060.074730461235
 21
750.72248848455297
 31
0.0
  0
LINE
  5
C031
  8
0
  6
CONTINUOUS
 62
     7
 10
1244.0270404612361
 20
658.66966848455354
 30
0.0
 11
1244.0270404612361
 21
648.66966848455354
 31
0.0
  0
LINE
  5
C032
  8
0
  6
CONTINUOUS
 62
     7
 10
1303.375490461236
 20
638.80335848455354
 30
0.0
 11
1295.1205504612351
 21
685.61945848455321
 31
0.0
  0
LINE
  5
C033
  8
0
  6
CONTINUOUS
 62
     7
 10
1020.678640461235
 20
638.80335848455354
 30
0.0
 11
1028.9335804612349
 21
685.61949848455356
 31
0.0
  0
LINE
  5
C034
  8
0
  6
CONTINUOUS
 62
     7
 10
1099.5270604612349
 20
434.57665848455349
 30
0.0
 11
1224.5270604612349
 21
434.57665848455349
 31
0.0
  0
LINE
  5
C035
  8
0
  6
CONTINUOUS
 62
     7
 10
1232.758440461236
 20
437.23037848455328
 30
0.0
 11
1268.383170461236
 21
462.86491848455319
 31
0.0
  0
LINE
  5
C036
  8
0
  6
CONTINUOUS
 62
     7
 10
1171.0270604612349
 20
692.66966848455354
 30
0.0
 11
1171.0270604612349
 21
681.66966848455354
 31
0.0
  0
LINE
  5
C037
  8
0
  6
CONTINUOUS
 62
     7
 10
1153.0270604612349
 20
681.66966848455354
 30
0.0
 11
1171.0270604612349
 21
681.66966848455354
 31
0.0
  0
LINE
  5
C038
  8
0
  6
CONTINUOUS
 62
     7
 10
1153.0270604612349
 20
692.66966848455354
 30
0.0
 11
1171.0270604612349
 21
692.66966848455354
 31
0.0
  0
LINE
  5
C039
  8
0
  6
CONTINUOUS
 62
     7
 10
1153.0270604612349
 20
692.66966848455354
 30
0.0
 11
1153.0270604612349
 21
681.66966848455354
 31
0.0
  0
ARC
  5
C03A
  8
0
  6
CONTINUOUS
 62
     7
 10
973.20079046123567
 20
631.34116848455324
 30
0.0
 40
12.0
 50
134.9999999999954
 51
180.000010000001
  0
ARC
  5
C03B
  8
0
  6
CONTINUOUS
 62
     7
 10
1162.0270604612349
 20
610.66966848455354
 30
0.0
 40
182.0929899999997
 50
305.73772000000218
 51
311.20452999999861
  0
ARC
  5
C03C
  8
0
  6
CONTINUOUS
 62
     7
 10
1162.0270604612349
 20
658.66966848455354
 30
0.0
 40
155.0
 50
90.00000299999769
 51
270.0
  0
ARC
  5
C03D
  8
0
  6
CENTER
 62
     7
 10
1162.0270604612349
 20
658.66966848455354
 30
0.0
 40
225.0
 50
307.92462999999441
 51
320.8512499999955
  0
ARC
  5
C03E
  8
0
  6
CONTINUOUS
 62
     7
 10
1269.6362304612351
 20
745.06565848455352
 30
0.0
 40
8.0
 50
38.759869000004251
 51
134.9999999999954
  0
CIRCLE
  5
C03F
  8
0
  6
CONTINUOUS
 62
     7
 10
1321.126080461235
 20
817.76872848455321
 30
0.0
 40
12.0
  0
ARC
  5
C040
  8
0
  6
CENTER
 62
     7
 10
1162.0270604612349
 20
658.66966848455354
 30
0.0
 40
225.0
 50
38.696152999996329
 51
50.477013999996551
  0
CIRCLE
  5
C041
  8
0
  6
CONTINUOUS
 62
     7
 10
1321.126080461235
 20
499.5706384845534
 30
0.0
 40
12.0
  0
ARC
  5
C042
  8
0
  6
CONTINUOUS
 62
     7
 10
1162.0270604612349
 20
658.66966848455354
 30
0.0
 40
65.0
 50
270.0
 51
90.00000299999769
  0
ARC
  5
C043
  8
0
  6
CONTINUOUS
 62
     7
 10
1070.0270604612349
 20
648.66966848455354
 30
0.0
 40
10.0
 50
270.0
 51
0.0
  0
ARC
  5
C044
  8
0
  6
CONTINUOUS
 62
     7
 10
1088.6709804612351
 20
710.81257848455323
 30
0.0
 40
8.0
 50
324.59407000000158
 51
45.000000999994569
  0
ARC
  5
C045
  8
0
  6
CONTINUOUS
 62
     7
 10
1054.4179004612349
 20
745.06565848455352
 30
0.0
 40
8.0
 50
45.000000999994569
 51
141.240130000004
  0
ARC
  5
C046
  8
0
  6
CONTINUOUS
 62
     7
 10
1254.0270404612361
 20
648.66966848455354
 30
0.0
 40
10.0
 50
179.999989999999
 51
270.0
  0
ARC
  5
C047
  8
0
  6
CENTER
 62
     7
 10
1162.0270604612349
 20
658.66966848455354
 30
0.0
 40
225.0
 50
219.522979999998
 51
230.477020000002
  0
ARC
  5
C048
  8
0
  6
CONTINUOUS
 62
     7
 10
1162.0270604612349
 20
658.66966848455354
 30
0.0
 40
155.0
 50
270.0
 51
90.00000299999769
  0
CIRCLE
  5
C049
  8
0
  6
CONTINUOUS
 62
     7
 10
1002.928030461235
 20
817.76872848455321
 30
0.0
 40
12.0
  0
ARC
  5
C04A
  8
0
  6
CENTER
 62
     7
 10
1162.0270604612349
 20
658.66966848455354
 30
0.0
 40
225.0
 50
129.14755000000119
 51
141.1473999999987
  0
CIRCLE
  5
C04B
  8
0
  6
CONTINUOUS
 62
     7
 10
1002.928030461235
 20
499.5706384845534
 30
0.0
 40
12.0
  0
ARC
  5
C04C
  8
0
  6
CONTINUOUS
 62
     7
 10
1162.0270604612349
 20
658.66966848455354
 30
0.0
 40
65.0
 50
90.00000299999769
 51
270.0
  0
ARC
  5
C04D
  8
0
  6
CONTINUOUS
 62
     7
 10
1002.027060461236
 20
498.66966848455331
 30
0.0
 40
25.0
 50
179.999989999999
 51
270.0
  0
ARC
  5
C04E
  8
0
  6
CONTINUOUS
 62
     7
 10
1109.8841404612349
 20
732.02574848455345
 30
0.0
 40
8.0
 50
225.0000000000046
 51
305.40592999999842
  0
ARC
  5
C04F
  8
0
  6
CONTINUOUS
 62
     7
 10
1002.027060461236
 20
818.66966848455365
 30
0.0
 40
25.0
 50
90.00000299999769
 51
180.000010000001
  0
ARC
  5
C050
  8
0
  6
CONTINUOUS
 62
     7
 10
1322.0270604612349
 20
498.66966848455331
 30
0.0
 40
25.0
 50
270.0
 51
0.0
  0
ARC
  5
C051
  8
0
  6
CONTINUOUS
 62
     7
 10
1302.2269004612349
 20
643.66966848455354
 30
0.0
 40
5.0
 50
270.0
 51
353.8931499999955
  0
ARC
  5
C052
  8
0
  6
CONTINUOUS
 62
     7
 10
1235.383150461236
 20
710.81257848455323
 30
0.0
 40
8.0
 50
134.9999999999954
 51
215.40592999999839
  0
ARC
  5
C053
  8
0
  6
CONTINUOUS
 62
     7
 10
1248.4230204612361
 20
766.2788584845531
 30
0.0
 40
8.0
 50
314.9999999999954
 51
51.240129999994892
  0
ARC
  5
C054
  8
0
  6
CONTINUOUS
 62
     7
 10
1162.0270604612349
 20
658.66966848455354
 30
0.0
 40
146.0
 50
90.00000299999769
 51
270.0
  0
ARC
  5
C055
  8
0
  6
CONTINUOUS
 62
     7
 10
1162.0270604612349
 20
658.66966848455354
 30
0.0
 40
146.0
 50
270.0
 51
90.00000299999769
  0
ARC
  5
C056
  8
0
  6
CONTINUOUS
 62
     7
 10
1075.6310604612349
 20
766.2788584845531
 30
0.0
 40
8.0
 50
128.759870000001
 51
225.0000000000046
  0
ARC
  5
C057
  8
0
  6
CONTINUOUS
 62
     7
 10
1021.827200461236
 20
643.66966848455354
 30
0.0
 40
5.0
 50
186.1068500000045
 51
270.0
  0
ARC
  5
C058
  8
0
  6
CONTINUOUS
 62
     7
 10
1322.0270604612349
 20
818.66966848455365
 30
0.0
 40
25.0
 50
0.0
 51
90.00000299999769
  0
ARC
  5
C059
  8
0
  6
CONTINUOUS
 62
     7
 10
1162.0270604612349
 20
658.66966848455354
 30
0.0
 40
82.0
 50
0.0
 51
35.405932000002593
  0
ARC
  5
C05A
  8
0
  6
CONTINUOUS
 62
     7
 10
1214.1699404612359
 20
732.02574848455345
 30
0.0
 40
8.0
 50
234.59407000000161
 51
314.9999999999954
  0
ARC
  5
C05B
  8
0
  6
CONTINUOUS
 62
     7
 10
1162.0270604612349
 20
610.66966848455354
 30
0.0
 40
172.0
 50
58.77028800000641
 51
121.229710000004
  0
ARC
  5
C05C
  8
0
  6
CONTINUOUS
 62
     7
 10
1184.8220904612349
 20
666.17088848455342
 30
0.0
 40
112.0
 50
9.9999997000027125
 51
46.951683000003783
  0
ARC
  5
C05D
  8
0
  6
CONTINUOUS
 62
     7
 10
1139.2320404612351
 20
666.17088848455342
 30
0.0
 40
112.0
 50
133.04831000000391
 51
169.99998999999769
  0
ARC
  5
C05E
  8
0
  6
CONTINUOUS
 62
     7
 10
1224.5270604612349
 20
448.66966848455331
 30
0.0
 40
14.09299899999999
 50
270.0
 51
305.73772000000218
  0
ARC
  5
C05F
  8
0
  6
CONTINUOUS
 62
     7
 10
1099.5270604612349
 20
448.66966848455331
 30
0.0
 40
14.09299899999999
 50
234.26227999999779
 51
270.0
  0
ARC
  5
C060
  8
0
  6
CONTINUOUS
 62
     7
 10
1162.0270604612349
 20
658.66966848455354
 30
0.0
 40
82.0
 50
54.5940669999991
 51
125.40592999999841
  0
ARC
  5
C061
  8
0
  6
CONTINUOUS
 62
     7
 10
1162.0270604612349
 20
658.66966848455354
 30
0.0
 40
82.0
 50
144.59407000000161
 51
180.000010000001
  0
ARC
  5
C062
  8
0
  6
CONTINUOUS
 62
     7
 10
1162.0270604612349
 20
610.66966848455354
 30
0.0
 40
182.0929899999997
 50
228.79547000000139
 51
234.26227999999779
  0
ARC
  5
C063
  8
0
  6
CONTINUOUS
 62
     7
 10
1162.0270604612349
 20
658.66966848455354
 30
0.0
 40
30.0
 50
107.4576000000072
 51
72.542384000004162
  0
CIRCLE
  5
C064
  8
0
  6
CONTINUOUS
 62
     7
 10
1162.0270604612349
 20
658.66966848455354
 30
0.0
 40
6.0
  0
CIRCLE
  5
C065
  8
0
  6
CONTINUOUS
 62
     7
 10
1162.0270604612349
 20
658.66966848455354
 30
0.0
 40
4.5
  0
TEXT
  5
C2B3
  8
0
  6
CONTINUOUS
 62
     0
 10
993.28142849578126
 20
1048.996106280455
 30
0.0
 40
15.0
  1
VX75-025EMF~VX75-030EMF
  0
ENDSEC
  0
EOF
