  0
SECTION
  2
HEADER
  9
$ACADVER
  1
AC1009
  9
$INSBASE
 10
0.0
 20
0.0
 30
0.0
  9
$EXTMIN
 10
223.13819671972811
 20
517.16808051108092
 30
-0.000000000000013
  9
$EXTMAX
 10
1672.639996625868
 20
1544.527897275208
 30
0.0000000000000023
  9
$LIMMIN
 10
0.0000005999945643
 20
-0.0000005963913736
  9
$LIMMAX
 10
1991.5000005999941
 20
1294.9999994036091
  9
$ORTHOMODE
 70
     1
  9
$REGENMODE
 70
     1
  9
$FILLMODE
 70
     1
  9
$QTEXTMODE
 70
     0
  9
$MIRRTEXT
 70
     0
  9
$DRAGMODE
 70
     2
  9
$LTSCALE
 40
1.0
  9
$OSMODE
 70
   551
  9
$ATTMODE
 70
     1
  9
$TEXTSIZE
 40
2.5
  9
$TRACEWID
 40
1.0
  9
$TEXTSTYLE
  7
STANDARD
  9
$CLAYER
  8
0
  9
$CELTYPE
  6
BYLAYER
  9
$CECOLOR
 62
   256
  9
$DIMSCALE
 40
1.0
  9
$DIMASZ
 40
2.0
  9
$DIMEXO
 40
1.0
  9
$DIMDLI
 40
8.0
  9
$DIMRND
 40
0.0
  9
$DIMDLE
 40
0.0
  9
$DIMEXE
 40
1.0
  9
$DIMTP
 40
-0.025
  9
$DIMTM
 40
0.043
  9
$DIMTXT
 40
2.5
  9
$DIMCEN
 40
0.0
  9
$DIMTSZ
 40
0.0
  9
$DIMTOL
 70
     0
  9
$DIMLIM
 70
     0
  9
$DIMTIH
 70
     0
  9
$DIMTOH
 70
     0
  9
$DIMSE1
 70
     0
  9
$DIMSE2
 70
     0
  9
$DIMTAD
 70
     3
  9
$DIMZIN
 70
     8
  9
$DIMBLK
  1

  9
$DIMASO
 70
     1
  9
$DIMSHO
 70
     1
  9
$DIMPOST
  1

  9
$DIMAPOST
  1
"
  9
$DIMALT
 70
     0
  9
$DIMALTD
 70
     2
  9
$DIMALTF
 40
0.0393701
  9
$DIMLFAC
 40
1.0
  9
$DIMTOFL
 70
     1
  9
$DIMTVP
 40
0.0
  9
$DIMTIX
 70
     0
  9
$DIMSOXD
 70
     0
  9
$DIMSAH
 70
     0
  9
$DIMBLK1
  1

  9
$DIMBLK2
  1

  9
$DIMSTYLE
  2
AM_JIS
  9
$DIMCLRD
 70
     2
  9
$DIMCLRE
 70
     2
  9
$DIMCLRT
 70
     4
  9
$DIMTFAC
 40
0.71
  9
$DIMGAP
 40
1.5
  9
$LUNITS
 70
     2
  9
$LUPREC
 70
     2
  9
$SKETCHINC
 40
1.0
  9
$FILLETRAD
 40
0.0
  9
$AUNITS
 70
     0
  9
$AUPREC
 70
     0
  9
$MENU
  1
.
  9
$ELEVATION
 40
0.0
  9
$PELEVATION
 40
0.0
  9
$THICKNESS
 40
0.0
  9
$LIMCHECK
 70
     0
  9
$BLIPMODE
 70
     0
  9
$CHAMFERA
 40
3.5
  9
$CHAMFERB
 40
3.5
  9
$SKPOLY
 70
     0
  9
$TDCREATE
 40
2456829.3841110538
  9
$TDUPDATE
 40
2458540.6715086922
  9
$TDINDWG
 40
0.6239384838000001
  9
$TDUSRTIMER
 40
0.6239380787
  9
$USRTIMER
 70
     1
  9
$ANGBASE
 50
0.0
  9
$ANGDIR
 70
     0
  9
$PDMODE
 70
     0
  9
$PDSIZE
 40
0.0
  9
$PLINEWID
 40
0.0
  9
$COORDS
 70
     1
  9
$SPLFRAME
 70
     0
  9
$SPLINETYPE
 70
     6
  9
$SPLINESEGS
 70
     8
  9
$ATTDIA
 70
     1
  9
$ATTREQ
 70
     1
  9
$HANDLING
 70
     1
  9
$HANDSEED
  5
EC0F
  9
$SURFTAB1
 70
     6
  9
$SURFTAB2
 70
     6
  9
$SURFTYPE
 70
     6
  9
$SURFU
 70
     6
  9
$SURFV
 70
     6
  9
$UCSNAME
  2

  9
$UCSORG
 10
0.0
 20
0.0
 30
0.0
  9
$UCSXDIR
 10
1.0
 20
0.0
 30
0.0
  9
$UCSYDIR
 10
0.0
 20
1.0
 30
0.0
  9
$PUCSNAME
  2

  9
$PUCSORG
 10
0.0
 20
0.0
 30
0.0
  9
$PUCSXDIR
 10
1.0
 20
0.0
 30
0.0
  9
$PUCSYDIR
 10
0.0
 20
1.0
 30
0.0
  9
$USERI1
 70
     0
  9
$USERI2
 70
     0
  9
$USERI3
 70
     0
  9
$USERI4
 70
     0
  9
$USERI5
 70
     0
  9
$USERR1
 40
0.0
  9
$USERR2
 40
0.0
  9
$USERR3
 40
0.0
  9
$USERR4
 40
0.0
  9
$USERR5
 40
0.0
  9
$WORLDVIEW
 70
     1
  9
$SHADEDGE
 70
     3
  9
$SHADEDIF
 70
    70
  9
$TILEMODE
 70
     1
  9
$MAXACTVP
 70
    64
  9
$PLIMCHECK
 70
     0
  9
$PEXTMIN
 10
1.0000000000000000E+020
 20
1.0000000000000000E+020
 30
1.0000000000000000E+020
  9
$PEXTMAX
 10
-1.0000000000000000E+020
 20
-1.0000000000000000E+020
 30
-1.0000000000000000E+020
  9
$PLIMMIN
 10
0.0
 20
0.0
  9
$PLIMMAX
 10
420.0
 20
297.0
  9
$UNITMODE
 70
     0
  9
$VISRETAIN
 70
     1
  9
$PLINEGEN
 70
     0
  9
$PSLTSCALE
 70
     1
  0
ENDSEC
  0
SECTION
  2
TABLES
  0
TABLE
  2
VPORT
 70
     1
  0
VPORT
  2
*ACTIVE
 70
     0
 10
0.0
 20
0.0
 11
1.0
 21
1.0
 12
947.88909667279813
 22
1030.847988893144
 13
0.0
 23
0.0
 14
17.5
 24
17.5
 15
70.0
 25
70.0
 16
0.0
 26
0.0
 36
1.0
 17
0.0
 27
0.0
 37
0.0
 40
1034.4126301515239
 41
1.7571592210767459
 42
50.0
 43
0.0
 44
0.0
 50
0.0
 51
0.0
 71
     0
 72
  1000
 73
     1
 74
     3
 75
     0
 76
     0
 77
     0
 78
     0
  0
ENDTAB
  0
TABLE
  2
LTYPE
 70
    20
  0
LTYPE
  2
CONTINUOUS
 70
     0
  3
Solid line
 72
    65
 73
     0
 40
0.0
  0
LTYPE
  2
CENTER
 70
     0
  3
Center ____ _ ____ _ ____ _ ____ _ ____ _ ____
 72
    65
 73
     4
 40
50.799999999999997
 49
31.75
 49
-6.349999999999997
 49
6.349999999999997
 49
-6.349999999999997
  0
LTYPE
  2
AM_ISO08W050
 70
     0
  3
____ . ____ . ____ . ____ . ____ . ____ . ____
 72
    65
 73
     4
 40
18.0
 49
12.0
 49
-1.5
 49
3.0
 49
-1.5
  0
LTYPE
  2
AMCONSTR
 70
     0
  3
_______________________
 72
    65
 73
     2
 40
9999.0
 49
9999.0
 49
0.0
  0
LTYPE
  2
HIDDEN
 70
     0
  3
Hidden __ __ __ __ __ __ __ __ __ __ __ __ __ _
 72
    65
 73
     2
 40
0.375
 49
0.25
 49
-0.125
  0
LTYPE
  2
PHANTOM2
 70
     0
  3
Phantom (.5x) ___ _ _ ___ _ _ ___ _ _ ___ _ _
 72
    65
 73
     6
 40
1.25
 49
0.625
 49
-0.125
 49
0.125
 49
-0.125
 49
0.125
 49
-0.125
  0
LTYPE
  2
CENTER2
 70
     0
  3
Center (.5x) ___ _ ___ _ ___ _ ___ _ ___ _ ___
 72
    65
 73
     4
 40
1.125
 49
0.75
 49
-0.125
 49
0.125
 49
-0.125
  0
LTYPE
  2
HIDDEN2
 70
     0
  3
Hidden (.5x) _ _ _ _ _ _ _ _ _ _ _ _ _ _ _ _ _
 72
    65
 73
     2
 40
0.1875
 49
0.125
 49
-0.0625
  0
LTYPE
  2
AMZIGZAG2
 70
     0
  3
/\/-/\/-/\/-/\/-/\/-/\/
 72
    65
 73
     2
 40
0.4401
 49
0.0001
 49
-0.4400000000000003
  0
LTYPE
  2
ACANSTGB
 70
     0
  3
__ . . __ . .
 72
    65
 73
     6
 40
0.35433070866
 49
0.15748031496
 49
-0.03937007874
 49
0.03937007874
 49
-0.03937007874
 49
0.03937007874
 49
-0.03937007874
  0
LTYPE
  2
ACANSTGL
 70
     0
  3
_ _ _ _ _
 72
    65
 73
     2
 40
0.11811023622
 49
0.07874015748
 49
-0.03937007874
  0
LTYPE
  2
AM_ISO02W050
 70
     0
  3
__ __ __ __ __ __ __ __ __ __ __ __ __ __ __
 72
    65
 73
     2
 40
7.5
 49
6.0
 49
-1.5
  0
LTYPE
  2
AM_ISO09W050
 70
     0
  3
_____ . . _____ . . _____ . . ____ .. ____
 72
    65
 73
     6
 40
22.5
 49
12.0
 49
-1.5
 49
3.0
 49
-1.5
 49
3.0
 49
-1.5
  0
LTYPE
  2
AM_ISO08W050X2
 70
     0
  3
__ . __ . __ . __ . __ . __
 72
    65
 73
     4
 40
9.0
 49
6.0
 49
-0.75
 49
1.5
 49
-0.75
  0
LTYPE
  2
AM_ISO02W050X2
 70
     0
  3
 _ _ _ _ _ _ _ _ _ _ _ _
 72
    65
 73
     2
 40
3.75
 49
3.0
 49
-0.75
  0
LTYPE
  2
AMZIGZAG
 70
     0
  3
/\/-/\/-/\/-/\/-/\/-/\/
 72
    65
 73
     2
 40
11.0001
 49
0.0001
 49
-11.0
  0
LTYPE
  2
ACISOWELD
 70
     0
  3
_ _ _ _ _
 72
    65
 73
     2
 40
2.0
 49
2.0
 49
-1.0
  0
LTYPE
  2
ACISOTGB
 70
     0
  3
__ . . __ . .
 72
    65
 73
     6
 40
9.0
 49
4.0
 49
-1.0
 49
1.0
 49
-1.0
 49
1.0
 49
-1.0
  0
LTYPE
  2
ACISOTGL
 70
     0
  3
_ _ _ _ _
 72
    65
 73
     2
 40
3.0
 49
2.0
 49
-1.0
  0
ENDTAB
  0
TABLE
  2
LAYER
 70
     4
  0
LAYER
  2
0
 70
     0
 62
     7
  6
CONTINUOUS
  0
LAYER
  2
DEFPOINTS
 70
     0
 62
     7
  6
CONTINUOUS
  0
LAYER
  2
AM_5
 70
     0
 62
     3
  6
CONTINUOUS
  0
LAYER
  2
AM_CL
 70
     0
 62
     1
  6
AMCONSTR
  0
ENDTAB
  0
TABLE
  2
STYLE
 70
     6
  0
STYLE
  2
STANDARD
 70
     0
 40
0.0
 41
0.7400000000000003
 50
0.0
 71
     0
 42
2.5
  3
txt.shx
  4
bigfont.shx
  0
STYLE
  2
ACANSGDT
 70
     0
 40
0.0
 41
1.0
 50
0.0
 71
     0
 42
2.5
  3
amgdt.shx
  4

  0
STYLE
  2

 70
     1
 40
0.0
 41
1.0
 50
0.0
 71
     0
 42
2.5
  3
genltshp.shx
  4

  0
STYLE
  2
ACANSTS
 70
     0
 40
1.0
 41
1.0
 50
0.0
 71
     0
 42
2.5
  3
romans.shx
  4
extfont.shx
  0
STYLE
  2

 70
     1
 40
0.0
 41
1.0
 50
0.0
 71
     0
 42
2.5
  3
ltypeshp.shx
  4

  0
STYLE
  2
ACISOGDT
 70
     0
 40
0.0
 41
1.0
 50
0.0
 71
     0
 42
2.5
  3
amgdt.shx
  4

  0
ENDTAB
  0
TABLE
  2
VIEW
 70
     6
  0
VIEW
  2
AM_VIEW1
 70
     0
 40
647.50000000000011
 10
684.36832800212994
 20
971.24999940360885
 41
1368.7366548042701
 11
0.0
 21
0.0
 31
1.0
 12
0.0
 22
0.0
 32
0.0
 42
50.0
 43
0.0
 44
0.0
 50
0.0
 71
     0
  0
VIEW
  2
AM_VIEW2
 70
     0
 40
647.50000000000011
 10
1307.1316731978591
 20
971.24999940360885
 41
1368.7366548042701
 11
0.0
 21
0.0
 31
1.0
 12
0.0
 22
0.0
 32
0.0
 42
50.0
 43
0.0
 44
0.0
 50
0.0
 71
     0
  0
VIEW
  2
AM_VIEW3
 70
     0
 40
647.50000000000011
 10
684.36832800212994
 20
323.74999940360868
 41
1368.7366548042701
 11
0.0
 21
0.0
 31
1.0
 12
0.0
 22
0.0
 32
0.0
 42
50.0
 43
0.0
 44
0.0
 50
0.0
 71
     0
  0
VIEW
  2
AM_VIEW4
 70
     0
 40
647.50000000000011
 10
1307.1316731978591
 20
323.74999940360868
 41
1368.7366548042701
 11
0.0
 21
0.0
 31
1.0
 12
0.0
 22
0.0
 32
0.0
 42
50.0
 43
0.0
 44
0.0
 50
0.0
 71
     0
  0
VIEW
  2
AM_VIEW5
 70
     0
 40
647.50000000000011
 10
995.75000059999434
 20
647.49999940360874
 41
1368.736654804271
 11
0.0
 21
0.0
 31
1.0
 12
0.0
 22
0.0
 32
0.0
 42
50.0
 43
0.0
 44
0.0
 50
0.0
 71
     0
  0
VIEW
  2
AM_VIEW6
 70
     0
 40
1294.98705
 10
995.75000059999434
 20
647.49999940360863
 41
2737.4459348754458
 11
0.0
 21
0.0
 31
1.0
 12
0.0
 22
0.0
 32
0.0
 42
50.0
 43
0.0
 44
0.0
 50
0.0
 71
     0
  0
ENDTAB
  0
TABLE
  2
UCS
 70
     0
  0
ENDTAB
  0
TABLE
  2
APPID
 70
   158
  0
APPID
  2
ACAD
 70
     0
  0
APPID
  2
ACADANNOTATIVE
 70
     0
  0
APPID
  2
ACAD_MLEADERVER
 70
     0
  0
APPID
  2
MCAD_NO_VIS
 70
     0
  0
APPID
  2
ACAD_TEMP_GRAPHIC
 70
     0
  0
APPID
  2
AD_DRAW
 70
     0
  0
APPID
  2
ACATTRIBSERVICES
 70
     0
  0
APPID
  2
DESIGNERASSEMBLIES
 70
     0
  0
APPID
  2
ACADM_DIM_EDIT
 70
     0
  0
APPID
  2
AMDT_DM_ADJ
 70
     0
  0
APPID
  2
GENIUS_GENDIMSH_14
 70
     0
  0
APPID
  2
GEVID1057795304
 70
     0
  0
APPID
  2
GEVDC
 70
     0
  0
APPID
  2
GEVCON
 70
     0
  0
APPID
  2
GENIUS_GENBH_13
 70
     0
  0
APPID
  2
GENIUS_GENOENT_13
 70
     0
  0
APPID
  2
GENIUS_GENOBJ-NBEHI-BHF_13
 70
     0
  0
APPID
  2
GENIUS_GENOLIS_13
 70
     0
  0
APPID
  2
GENIUS_GENODEF_13
 70
     0
  0
APPID
  2
GENIUS_GENOREF_13
 70
     0
  0
APPID
  2
GENIUS_GENOBJ-NBEHI-BHB_13
 70
     0
  0
APPID
  2
GENIUS_GENOBJ-F-SCPASSM_13
 70
     0
  0
APPID
  2
GENIUS_GENDTOL_13
 70
     0
  0
APPID
  2
GENIUS_GENTRA_14
 70
     0
  0
APPID
  2
ASURF_PCURVE_APPNAME
 70
     0
  0
APPID
  2
GENIUS_GENCFG_13
 70
     0
  0
APPID
  2
GENIUS_GE3CFG0_13
 70
     0
  0
APPID
  2
GENIUS_GENCFG0_13
 70
     0
  0
APPID
  2
GENIUS_GENCFG1_13
 70
     0
  0
APPID
  2
GENIUS_GENCFG2_13
 70
     0
  0
APPID
  2
GENIUS_GENCFG3_13
 70
     0
  0
APPID
  2
GENIUS_GENCFG4_13
 70
     0
  0
APPID
  2
GENIUS_GEVCFG0_13
 70
     0
  0
APPID
  2
GENIUS_GENOBJ-N-TIT_13
 70
     0
  0
APPID
  2
GENIUS_GENTITLE_13
 70
     0
  0
APPID
  2
GENIUS_GENSCREG_15
 70
     0
  0
APPID
  2
GENIUS_GENOBJ-N-SDF_13
 70
     0
  0
APPID
  2
GENIUS_GENFIL_13
 70
     0
  0
APPID
  2
GENIUS_GENOBJ-N-CHA_13
 70
     0
  0
APPID
  2
GENIUS_GEFSH_13
 70
     0
  0
APPID
  2
GENIUS_GENOBJ-F-SHS_13
 70
     0
  0
APPID
  2
GENIUS_GENOBJ-N-CEN_13
 70
     0
  0
APPID
  2
GENIUS_GENREC_14
 70
     0
  0
APPID
  2
GENIUS_GENOBJ-N-REC_13
 70
     0
  0
APPID
  2
GENIUS_GENOBJ-N-HTC_13
 70
     0
  0
APPID
  2
GENIUS_GENHATCH_13
 70
     0
  0
APPID
  2
ACAD_PSEXT
 70
     0
  0
APPID
  2
ACAD_EXEMPT_FROM_CAD_STANDARDS
 70
     0
  0
APPID
  2
ACAECLAYERSTANDARD
 70
     0
  0
APPID
  2
GENIUS_GENCEN_19
 70
     0
  0
APPID
  2
ACAD_DSTYLE_DIMINSPECT
 70
     0
  0
APPID
  2
ACAD_DSTYLE_DIMANGULAR_EXT
 70
     0
  0
APPID
  2
ACADANNOPO
 70
     0
  0
APPID
  2
ACAD_NAV_VCDISPLAY
 70
     0
  0
APPID
  2
GENIUS_GENOBJ-N-FIL_13
 70
     0
  0
APPID
  2
ACAD_DSTYLE_DIMBREAK
 70
     0
  0
APPID
  2
ACAD_DSTYLE_DIMJAG
 70
     0
  0
APPID
  2
ACAD_DSTYLE_DIMRADIAL_EXTENSION
 70
     0
  0
APPID
  2
GENIUS_GENHINW_13
 70
     0
  0
APPID
  2
GENIUS_FIRSTVISTXT_14
 70
     0
  0
APPID
  2
GENIUS_GENOBJ-N-LEADER_13
 70
     0
  0
APPID
  2
GENIUS_DUMCFG0_13
 70
     0
  0
APPID
  2
ACAD_DSTYLE_DIMTEXT_FILL
 70
     0
  0
APPID
  2
AMG_2DHIDE
 70
     0
  0
APPID
  2
GENIUS_GEFSHEP_13
 70
     0
  0
APPID
  2
GENIUS_GENOBJ-F-SHE_13
 70
     0
  0
APPID
  2
GENIUS_GEFSHE_13
 70
     0
  0
APPID
  2
ACAD_DIMASSOC_DIMLFAC
 70
     0
  0
APPID
  2
ACAD_DIMASSOC_CALC_DIMLFAC
 70
     0
  0
APPID
  2
ACAD_DIMASSOC_OVERRIDDEN_D
 70
     0
  0
APPID
  2
GENIUS_GENOBJ-F-SHSV_13
 70
     0
  0
APPID
  2
GENIUS_GEFWELD_13
 70
     0
  0
APPID
  2
GENIUS_GENOBJ-N-CRS_13
 70
     0
  0
APPID
  2
GENIUS_GENOBJ-N-RSBK_13
 70
     0
  0
APPID
  2
GENIUS_GENOBJ-N-LIB_13
 70
     0
  0
APPID
  2
GENIUS_GENSCALE_13
 70
     0
  0
APPID
  2
GENIUS_GENDREL_13
 70
     0
  0
APPID
  2
GEVPT
 70
     0
  0
APPID
  2
GEVIT
 70
     0
  0
APPID
  2
VCC
 70
     0
  0
APPID
  2
GENBH
 70
     0
  0
APPID
  2
GEVMK
 70
     0
  0
APPID
  2
GENIUS_GENOBJ-F-DESC_13
 70
     0
  0
APPID
  2
GENIUS_GEFDESC_14
 70
     0
  0
APPID
  2
GENIUS_GENOBJ-F-FEAT_13
 70
     0
  0
APPID
  2
GENIUS_GEFFEAT_14
 70
     0
  0
APPID
  2
GENIUS_GEFPARTINS_13
 70
     0
  0
APPID
  2
GENIUS_GENSCREG_13
 70
     0
  0
APPID
  2
GENIUS_GEFSHP_13
 70
     0
  0
APPID
  2
GEVID1025574798
 70
     0
  0
APPID
  2
GEVID1025574769
 70
     0
  0
APPID
  2
GEVID1025757451
 70
     0
  0
APPID
  2
GEVID1240528327
 70
     0
  0
APPID
  2
AMG_2DSTRUCT_BTR
 70
     0
  0
APPID
  2
ACADM_2DVIEW_IGN_NOTIFY
 70
     0
  0
APPID
  2
GEVID1240528328
 70
     0
  0
APPID
  2
GEVID1240528329
 70
     0
  0
APPID
  2
GEVRADREF
 70
     0
  0
APPID
  2
GEVID1240528330
 70
     0
  0
APPID
  2
GEVID1240528331
 70
     0
  0
APPID
  2
GEVID1240528332
 70
     0
  0
APPID
  2
GEVID1240791080
 70
     0
  0
APPID
  2
GEVID1240791081
 70
     0
  0
APPID
  2
GEVID1240791082
 70
     0
  0
APPID
  2
GEVID1240791083
 70
     0
  0
APPID
  2
GEVID1240791084
 70
     0
  0
APPID
  2
GEVID1240791085
 70
     0
  0
APPID
  2
GEVID1240791086
 70
     0
  0
APPID
  2
GEVID1240791087
 70
     0
  0
APPID
  2
GEVID1240791088
 70
     0
  0
APPID
  2
GEVID1240791089
 70
     0
  0
APPID
  2
GEVID1240791090
 70
     0
  0
APPID
  2
GEVID1240791091
 70
     0
  0
APPID
  2
GEVID1240791092
 70
     0
  0
APPID
  2
GEVID1240791093
 70
     0
  0
APPID
  2
GEVID1240791094
 70
     0
  0
APPID
  2
GEVID1240791095
 70
     0
  0
APPID
  2
GEVID1240791096
 70
     0
  0
APPID
  2
GEVID1240791097
 70
     0
  0
APPID
  2
GEVID1240791098
 70
     0
  0
APPID
  2
GEVID1240791099
 70
     0
  0
APPID
  2
GEVID1240791100
 70
     0
  0
APPID
  2
GEVID1240791101
 70
     0
  0
APPID
  2
GEVID1240791102
 70
     0
  0
APPID
  2
GEVID1240791103
 70
     0
  0
APPID
  2
GEVID1240791104
 70
     0
  0
APPID
  2
GEVID1240791105
 70
     0
  0
APPID
  2
GEVID1240875381
 70
     0
  0
APPID
  2
GEVID1240875382
 70
     0
  0
APPID
  2
GEVID1240875383
 70
     0
  0
APPID
  2
GEVID1240875384
 70
     0
  0
APPID
  2
GEVID1240875385
 70
     0
  0
APPID
  2
GEVID1240875386
 70
     0
  0
APPID
  2
GEVID1240875387
 70
     0
  0
APPID
  2
GEVID1240875388
 70
     0
  0
APPID
  2
GEVID1240875389
 70
     0
  0
APPID
  2
GEVID1240875390
 70
     0
  0
APPID
  2
GEVID1240875391
 70
     0
  0
APPID
  2
GEVID1240875392
 70
     0
  0
APPID
  2
GEVID1240875393
 70
     0
  0
APPID
  2
GEVID1240875394
 70
     0
  0
APPID
  2
GEVID1240875395
 70
     0
  0
APPID
  2
GEVID1240875396
 70
     0
  0
APPID
  2
GEVID1240875397
 70
     0
  0
APPID
  2
GEVID1240875398
 70
     0
  0
APPID
  2
GEVID1240875399
 70
     0
  0
APPID
  2
GEVID1240908996
 70
     0
  0
APPID
  2
GEVID1240908997
 70
     0
  0
APPID
  2
GEVID1240908998
 70
     0
  0
APPID
  2
GEVID1240908999
 70
     0
  0
APPID
  2
GEVID1240909000
 70
     0
  0
APPID
  2
GENIUS_GENOBJ-N-ZOO_13
 70
     0
  0
APPID
  2
GENIUS_GENZOO_17
 70
     0
  0
APPID
  2
GENIUS_GE3SECT_13
 70
     0
  0
APPID
  2
GEV_VCCNULL_SWITCH_OFF
 70
     0
  0
APPID
  2
ACAD_DSTYLE_DIMTALN
 70
     0
  0
APPID
  2
DCO15
 70
     0
  0
APPID
  2
CONTENTBLOCKDESCRIPTION
 70
     0
  0
ENDTAB
  0
TABLE
  2
DIMSTYLE
 70
    15
  0
DIMSTYLE
  2
STANDARD
 70
     0
  3

  4

  5

  6

  7

 40
1.0
 41
0.18
 42
0.0625
 43
0.38
 44
0.18
 45
0.0
 46
0.0
 47
0.0
 48
0.0
140
0.18
141
0.09
142
0.0
143
25.399999999999999
144
1.0
145
0.0
146
1.0
147
0.09
 71
     0
 72
     0
 73
     1
 74
     1
 75
     0
 76
     0
 77
     0
 78
     0
170
     0
171
     2
172
     0
173
     0
174
     0
175
     0
176
     0
177
     0
178
     0
  0
DIMSTYLE
  2
AM_ANSI
 70
     0
  3

  4
"
  5

  6

  7

 40
1.0
 41
2.5
 42
1.0
 43
10.0
 44
1.0
 45
0.0
 46
0.0
 47
0.1
 48
0.1
140
3.5
141
0.0
142
0.0
143
0.0393701
144
1.0
145
0.0
146
0.71
147
1.5
 71
     0
 72
     0
 73
     1
 74
     1
 75
     0
 76
     0
 77
     0
 78
     8
170
     0
171
     2
172
     0
173
     0
174
     0
175
     0
176
     2
177
     2
178
     4
  0
DIMSTYLE
  2
AM_ANSI$3
 70
     0
  3

  4
"
  5

  6

  7

 40
1.0
 41
2.5
 42
1.0
 43
10.0
 44
1.0
 45
0.0
 46
0.0
 47
0.1
 48
0.1
140
3.5
141
0.0
142
0.0
143
0.0393701
144
1.0
145
0.0
146
0.71
147
1.5
 71
     0
 72
     0
 73
     1
 74
     1
 75
     0
 76
     0
 77
     0
 78
     8
170
     0
171
     2
172
     0
173
     0
174
     0
175
     0
176
     2
177
     2
178
     4
  0
DIMSTYLE
  2
AM_ANSI$4
 70
     0
  3

  4
"
  5

  6

  7

 40
1.0
 41
2.5
 42
1.0
 43
10.0
 44
1.0
 45
0.0
 46
0.0
 47
0.1
 48
0.1
140
3.5
141
0.0
142
0.0
143
0.0393701
144
1.0
145
0.0
146
0.71
147
1.5
 71
     0
 72
     0
 73
     1
 74
     1
 75
     0
 76
     0
 77
     0
 78
     8
170
     0
171
     2
172
     0
173
     0
174
     0
175
     0
176
     2
177
     2
178
     4
  0
DIMSTYLE
  2
AM_ANSI$7
 70
     0
  3

  4
"
  5

  6

  7

 40
1.0
 41
2.5
 42
1.0
 43
10.0
 44
1.0
 45
0.0
 46
0.0
 47
0.1
 48
0.1
140
5.0
141
0.0
142
0.0
143
0.0393701
144
1.0
145
0.0
146
0.71
147
1.5
 71
     0
 72
     0
 73
     1
 74
     1
 75
     0
 76
     0
 77
     0
 78
     8
170
     0
171
     2
172
     0
173
     0
174
     0
175
     0
176
     2
177
     2
178
     4
  0
DIMSTYLE
  2
AM_ANSI$SF
 70
     0
  3

  4
"
  5

  6

  7

 40
1.0
 41
2.5
 42
1.0
 43
10.0
 44
1.0
 45
0.0
 46
0.0
 47
0.1
 48
0.1
140
3.5
141
0.0
142
0.0
143
0.0393701
144
1.0
145
0.0
146
0.71
147
1.5
 71
     0
 72
     0
 73
     1
 74
     1
 75
     1
 76
     1
 77
     0
 78
     8
170
     0
171
     2
172
     0
173
     0
174
     0
175
     0
176
     2
177
     2
178
     4
  0
DIMSTYLE
  2
AM_ANSI$SH
 70
     0
  3

  4
"
  5

  6

  7

 40
1.0
 41
2.5
 42
1.0
 43
10.0
 44
1.0
 45
0.0
 46
0.0
 47
0.1
 48
0.1
140
3.5
141
0.0
142
0.0
143
0.0393701
144
1.0
145
0.0
146
0.71
147
1.5
 71
     0
 72
     0
 73
     1
 74
     1
 75
     1
 76
     1
 77
     0
 78
     8
170
     0
171
     2
172
     0
173
     1
174
     0
175
     0
176
     2
177
     2
178
     4
  0
DIMSTYLE
  2
AM_JIS
 70
     0
  3

  4
"
  5

  6

  7

 40
1.0
 41
2.0
 42
1.0
 43
8.0
 44
1.0
 45
0.0
 46
0.0
 47
0.1
 48
0.1
140
2.5
141
0.0
142
0.0
143
0.0393701
144
1.0
145
0.0
146
0.71
147
1.5
 71
     0
 72
     0
 73
     0
 74
     0
 75
     0
 76
     0
 77
     3
 78
     8
170
     0
171
     2
172
     1
173
     0
174
     0
175
     0
176
     2
177
     2
178
     4
  0
DIMSTYLE
  2
AM_ISO
 70
     0
  3

  4
"
  5

  6

  7

 40
1.0
 41
2.5
 42
1.0
 43
10.0
 44
1.0
 45
0.0
 46
0.0
 47
0.1
 48
0.1
140
3.5
141
0.0
142
0.0
143
0.0393701
144
1.0
145
0.0
146
0.71
147
1.5
 71
     0
 72
     0
 73
     0
 74
     0
 75
     0
 76
     0
 77
     1
 78
     8
170
     0
171
     2
172
     1
173
     0
174
     0
175
     0
176
   256
177
   256
178
     2
  0
DIMSTYLE
  2
AM_ISO$3
 70
     0
  3

  4
"
  5

  6

  7

 40
1.0
 41
2.5
 42
1.0
 43
10.0
 44
1.0
 45
0.0
 46
0.0
 47
0.1
 48
0.1
140
3.5
141
0.0
142
0.0
143
0.0393701
144
1.0
145
0.0
146
0.71
147
1.5
 71
     0
 72
     0
 73
     0
 74
     1
 75
     0
 76
     0
 77
     1
 78
     8
170
     0
171
     2
172
     0
173
     0
174
     0
175
     0
176
   256
177
   256
178
     2
  0
DIMSTYLE
  2
AM_ISO$4
 70
     0
  3

  4
"
  5

  6

  7

 40
1.0
 41
2.5
 42
1.0
 43
10.0
 44
1.0
 45
0.0
 46
0.0
 47
0.1
 48
0.1
140
3.5
141
0.0
142
0.0
143
0.0393701
144
1.0
145
0.0
146
0.71
147
1.5
 71
     0
 72
     0
 73
     0
 74
     1
 75
     0
 76
     0
 77
     1
 78
     8
170
     0
171
     2
172
     0
173
     0
174
     0
175
     0
176
   256
177
   256
178
     2
  0
DIMSTYLE
  2
AM_ISO$6
 70
     0
  3

  4
"
  5

  6

  7

 40
1.0
 41
2.5
 42
1.0
 43
10.0
 44
1.0
 45
0.0
 46
0.0
 47
0.1
 48
0.1
140
3.5
141
0.0
142
0.0
143
0.0393701
144
1.0
145
0.0
146
0.71
147
1.5
 71
     0
 72
     0
 73
     0
 74
     0
 75
     0
 76
     0
 77
     0
 78
     8
170
     0
171
     2
172
     1
173
     0
174
     0
175
     0
176
   256
177
   256
178
     2
  0
DIMSTYLE
  2
AM_ISO$7
 70
     0
  3

  4
"
  5

  6

  7

 40
1.0
 41
2.5
 42
1.0
 43
10.0
 44
1.0
 45
0.0
 46
0.0
 47
0.1
 48
0.1
140
5.0
141
0.0
142
0.0
143
0.0393701
144
1.0
145
0.0
146
0.71
147
1.5
 71
     0
 72
     0
 73
     0
 74
     0
 75
     0
 76
     0
 77
     1
 78
     8
170
     0
171
     2
172
     1
173
     0
174
     0
175
     0
176
   256
177
   256
178
     2
  0
DIMSTYLE
  2
AM_ISO$SF
 70
     0
  3

  4
"
  5

  6

  7

 40
1.0
 41
2.5
 42
1.0
 43
10.0
 44
1.0
 45
0.0
 46
0.0
 47
0.1
 48
0.1
140
3.5
141
0.0
142
0.0
143
0.0393701
144
1.0
145
0.0
146
0.71
147
1.5
 71
     0
 72
     0
 73
     0
 74
     0
 75
     1
 76
     1
 77
     1
 78
     8
170
     0
171
     2
172
     1
173
     0
174
     0
175
     0
176
   256
177
   256
178
     2
  0
DIMSTYLE
  2
AM_ISO$SH
 70
     0
  3

  4
"
  5

  6
GENAXEH
  7

 40
1.0
 41
2.5
 42
1.0
 43
10.0
 44
1.0
 45
0.0
 46
0.0
 47
0.1
 48
0.1
140
3.5
141
0.0
142
0.0
143
0.0393701
144
2.0
145
0.0
146
0.71
147
1.5
 71
     0
 72
     0
 73
     0
 74
     0
 75
     1
 76
     1
 77
     1
 78
     8
170
     0
171
     2
172
     1
173
     1
174
     0
175
     0
176
   256
177
   256
178
     2
  0
ENDTAB
  0
ENDSEC
  0
SECTION
  2
BLOCKS
  0
BLOCK
  8
0
  2
$MODEL_SPACE
 70
     0
 10
0.0
 20
0.0
 30
0.0
  3
$MODEL_SPACE
  1

  0
ENDBLK
  5
DCAA
  8
0
  0
BLOCK
 67
     1
  8
0
  2
$PAPER_SPACE
 70
     0
 10
0.0
 20
0.0
 30
0.0
  3
$PAPER_SPACE
  1

  0
ENDBLK
  5
DCA6
 67
     1
  8
0
  0
BLOCK
  8
0
  2
_ACMFILLEDHALF
 70
     0
 10
0.0
 20
0.0
 30
0.0
  3
_ACMFILLEDHALF
  1

  0
TRACE
  5
DDDF
  8
0
 62
     0
 10
-0.8
 20
0.0
 30
0.0
 11
-1.0
 21
0.166666666
 31
0.0
 12
0.0
 22
0.0
 32
0.0
 13
0.0
 23
0.0
 33
0.0
  0
LINE
  5
DDE0
  8
0
 62
     0
 10
-1.0
 20
0.0
 30
0.0
 11
-0.8
 21
0.0
 31
0.0
  0
ENDBLK
  5
DDDE
  8
0
  0
BLOCK
  8
0
  2
GENAXEH
 70
     0
 10
0.0
 20
0.0
 30
0.0
  3
GENAXEH
  1

  0
LINE
  5
E953
  8
0
 10
-1.0
 20
0.0
 30
0.0
 11
1.0
 21
0.0
 31
0.0
  0
ENDBLK
  5
E954
  8
0
  0
BLOCK
  8
0
  2
*U5
 70
     1
 10
0.0
 20
0.0
 30
0.0
  3
*U5
  1

  0
TEXT
  5
EA04
  8
0
 62
     0
 10
5.1211371559201648
 20
5.9826223594979657
 30
0.0
 40
15.0
  1
ＶＸ０８－００３ＥＭ～ＶＸ０８－０３０ＥＭ
 41
0.7400000000000003
  0
ENDBLK
  5
EA06
  8
0
  0
ENDSEC
  0
SECTION
  2
ENTITIES
  0
LINE
  5
B098
  8
0
 62
     0
 10
607.58299783696111
 20
611.84441047619521
 30
0.0
 11
620.08299783696111
 21
611.84441047619521
 31
0.0
  0
LINE
  5
B09B
  8
0
 62
     0
 10
607.58299783696111
 20
630.11717547619514
 30
0.0
 11
619.08304783696121
 21
630.11717547619514
 31
0.0
  0
LINE
  5
B0A1
  8
0
 62
     0
 10
609.06189783696118
 20
655.40746047619541
 30
0.0
 11
620.09079783696097
 21
655.40746047619541
 31
0.0
  0
LINE
  5
B0A2
  8
0
 62
     0
 10
607.58299783696111
 20
645.67351047619525
 30
0.0
 11
619.08304783696121
 21
645.67351047619525
 31
0.0
  0
LINE
  5
B0C1
  8
0
 62
     0
 10
607.58299783696111
 20
814.01519547619534
 30
0.0
 11
619.08304783696121
 21
814.01519547619534
 31
0.0
  0
LINE
  5
B0C2
  8
0
 62
     0
 10
609.06189783696118
 20
804.28134547619527
 30
0.0
 11
620.09079783696097
 21
804.28134547619527
 31
0.0
  0
LINE
  5
B0C4
  8
0
 62
     0
 10
607.58299783696111
 20
829.5715954761954
 30
0.0
 11
619.08304783696121
 21
829.5715954761954
 31
0.0
  0
LINE
  5
B0C8
  8
0
 62
     0
 10
607.58299783696111
 20
847.8443954761949
 30
0.0
 11
620.08299783696111
 21
847.8443954761949
 31
0.0
  0
LINE
  5
B119
  8
0
  6
CENTER
 62
     0
 10
694.67969783696071
 20
792.19408730335283
 30
0.0
 11
1034.58299783696
 21
792.19408730335283
 31
0.0
  0
LINE
  5
B11B
  8
0
  6
CENTER
 62
     0
 10
244.72327825356251
 20
729.59406730335263
 30
0.0
 11
725.55063832292774
 21
729.59406730335263
 31
0.0
  0
ARC
  5
C0AB
  8
0
 62
     0
 10
369.5829858369612
 20
861.14407130335292
 30
0.0
 40
2.0
 50
90.000002999984659
 51
159.5034000000048
  0
ARC
  5
C0AC
  8
0
 62
     0
 10
364.49834183696112
 20
841.59808030335284
 30
0.0
 40
10.0
 50
90.000002999984659
 51
98.136523000008779
  0
ARC
  5
C0AD
  8
0
 62
     0
 10
364.68589183696122
 20
851.84437330335265
 30
0.0
 40
10.0
 50
90.000002999984659
 51
99.223570000003505
  0
ARC
  5
C0AE
  8
0
 62
     0
 10
364.61563983696118
 20
847.97057730335268
 30
0.0
 40
10.0
 50
89.999996999989278
 51
98.816015000012243
  0
ARC
  5
C0AF
  8
0
 62
     0
 10
364.33366883696112
 20
832.85087230335284
 30
0.0
 40
10.0
 50
90.000002999984659
 51
97.184508999990996
  0
ARC
  5
C0B0
  8
0
 62
     0
 10
364.12169383696119
 20
821.89930430335278
 30
0.0
 40
10.0
 50
90.000002999984659
 51
95.961922000009963
  0
LINE
  5
C0B1
  8
0
 62
     0
 10
363.083018836961
 20
783.91373930335283
 30
0.0
 11
431.56635183696108
 21
783.91373930335283
 31
0.0
  0
ARC
  5
C0B2
  8
0
 62
     0
 10
380.50157683696119
 20
776.53608430335282
 30
0.0
 40
3.0
 50
89.999998999979056
 51
180.00000899999949
  0
ARC
  5
C0B3
  8
0
 62
     0
 10
374.50157683696119
 20
775.57560430335263
 30
0.0
 40
3.0
 50
0.0
 51
105.7135969999852
  0
LINE
  5
C0B4
  8
0
 62
     0
 10
377.50153683696112
 20
779.53606530335264
 30
0.0
 11
363.083018836961
 21
775.47951030335264
 31
0.0
  0
LINE
  5
C0B5
  8
0
 62
     0
 10
377.50157683696119
 20
779.53608430335282
 30
0.0
 11
424.7157098369608
 21
779.53608430335282
 31
0.0
  0
LINE
  5
C0B6
  8
0
 62
     0
 10
377.50157683696119
 20
729.59406730335263
 30
0.0
 11
377.50157683696119
 21
775.57560430335263
 31
0.0
  0
LINE
  5
C0B7
  8
0
 62
     0
 10
518.3898338369612
 20
658.90441530335272
 30
0.0
 11
586.71031783696094
 21
658.90441530335272
 31
0.0
  0
LINE
  5
C0B8
  8
0
 62
     0
 10
363.083018836961
 20
593.59406730335274
 30
0.0
 11
363.083018836961
 21
865.59406730335263
 31
0.0
  0
ARC
  5
C0B9
  8
0
 62
     0
 10
268.73301883696098
 20
689.52406730335269
 30
0.0
 40
3.0
 50
180.0
 51
270.0
  0
ARC
  5
C0BA
  8
0
 62
     0
 10
272.08301883696117
 20
615.35733730335278
 30
0.0
 40
11.0
 50
180.0
 51
199.99999999999741
  0
ARC
  5
C0BB
  8
0
 62
     0
 10
270.39886883696141
 20
596.59406730335274
 30
0.0
 40
3.0
 50
199.99999999999741
 51
270.0
  0
LINE
  5
C0BC
  8
0
 62
     0
 10
261.74640083696107
 20
611.59511530335271
 30
0.0
 11
267.57979083696108
 21
595.5680073033526
 31
0.0
  0
LINE
  5
C0BD
  8
0
 62
     0
 10
268.29824583696109
 20
598.73588530335292
 30
0.0
 11
268.29824583696109
 21
683.43644230335269
 31
0.0
  0
LINE
  5
C0BE
  8
0
 62
     0
 10
363.083018836961
 20
686.52406730335292
 30
0.0
 11
268.82196183696118
 21
686.52406730335292
 31
0.0
  0
LINE
  5
C0BF
  8
0
 62
     0
 10
270.39886883696141
 20
593.59406730335274
 30
0.0
 11
363.083018836961
 21
593.59406730335274
 31
0.0
  0
ARC
  5
C0C0
  8
0
 62
     0
 10
268.73301883696098
 20
769.66406730335268
 30
0.0
 40
3.0
 50
90.0
 51
180.0
  0
LINE
  5
C0C1
  8
0
 62
     0
 10
261.74640083696107
 20
847.59301930335255
 30
0.0
 11
267.57979083696108
 21
863.62012730335277
 31
0.0
  0
ARC
  5
C0C2
  8
0
 62
     0
 10
270.39886883696141
 20
862.59406730335286
 30
0.0
 40
3.0
 50
90.0
 51
160.0000000000025
  0
ARC
  5
C0C3
  8
0
 62
     0
 10
272.08301883696117
 20
843.83079730335271
 30
0.0
 40
11.0
 50
160.0000000000025
 51
180.0
  0
LINE
  5
C0C4
  8
0
 62
     0
 10
268.29824583696109
 20
860.4522493033528
 30
0.0
 11
268.29824583696109
 21
775.7516923033528
 31
0.0
  0
LINE
  5
C0C5
  8
0
 62
     0
 10
261.08301883696117
 20
615.35733730335278
 30
0.0
 11
261.08301883696117
 21
843.83079730335271
 31
0.0
  0
LINE
  5
C0C6
  8
0
 62
     0
 10
265.73301883696098
 20
689.52406730335269
 30
0.0
 11
265.73301883696098
 21
769.66406730335268
 31
0.0
  0
LINE
  5
C0C7
  8
0
 62
     0
 10
363.083018836961
 20
772.66406730335279
 30
0.0
 11
268.73301883696098
 21
772.66406730335279
 31
0.0
  0
LINE
  5
C0C8
  8
0
 62
     0
 10
270.39886883696141
 20
865.59406730335263
 30
0.0
 11
363.083018836961
 21
865.59406730335263
 31
0.0
  0
ARC
  5
C0C9
  8
0
 62
     0
 10
364.33366883696112
 20
626.33726230335287
 30
0.0
 40
10.0
 50
262.81549099998227
 51
269.99999699998932
  0
ARC
  5
C0CA
  8
0
 62
     0
 10
364.49834183696112
 20
617.59005430335264
 30
0.0
 40
10.0
 50
261.86347699999118
 51
269.99999699998932
  0
ARC
  5
C0CB
  8
0
 62
     0
 10
374.50157683696119
 20
683.61253030335274
 30
0.0
 40
3.0
 50
254.28640300001479
 51
0.0
  0
ARC
  5
C0CC
  8
0
 62
     0
 10
380.50157683696119
 20
682.65205030335278
 30
0.0
 40
3.0
 50
179.99999100000039
 51
270.00000099999488
  0
ARC
  5
C0CD
  8
0
 62
     0
 10
364.12169383696119
 20
637.2888303033526
 30
0.0
 40
10.0
 50
264.03807799998998
 51
269.99999699998932
  0
LINE
  5
C0CE
  8
0
 62
     0
 10
377.50153683696112
 20
679.65206930335273
 30
0.0
 11
363.083018836961
 21
683.70862430335274
 31
0.0
  0
LINE
  5
C0CF
  8
0
 62
     0
 10
377.50157683696119
 20
679.65205030335267
 30
0.0
 11
419.582997836961
 21
679.65205030335267
 31
0.0
  0
LINE
  5
C0D0
  8
0
 62
     0
 10
377.50157683696119
 20
729.59406730335263
 30
0.0
 11
377.50157683696119
 21
683.61253030335274
 31
0.0
  0
LINE
  5
C0D1
  8
0
 62
     0
 10
363.083018836961
 20
670.75108030335275
 30
0.0
 11
420.34769383696079
 21
670.75108030335275
 31
0.0
  0
LINE
  5
C0D2
  8
0
 62
     0
 10
363.083018836961
 20
675.27439530335289
 30
0.0
 11
419.59537783696118
 21
675.27439530335289
 31
0.0
  0
LINE
  5
C0D3
  8
0
 62
     0
 10
426.58299783696111
 20
676.55907130335265
 30
0.0
 11
426.58299783696111
 21
769.09407530335284
 31
0.0
  0
LINE
  5
C0D4
  8
0
 62
     0
 10
419.582997836961
 20
766.94907030335264
 30
0.0
 11
419.582997836961
 21
745.07606930335282
 31
0.0
  0
LINE
  5
C0D5
  8
0
 62
     0
 10
419.582997836961
 20
706.82726730335276
 30
0.0
 11
419.582997836961
 21
675.94186830335275
 31
0.0
  0
LINE
  5
C0D6
  8
0
 62
     0
 10
523.58249383696091
 20
676.55907130335265
 30
0.0
 11
523.58249383696091
 21
769.09407530335284
 31
0.0
  0
LINE
  5
C0D7
  8
0
 62
     0
 10
530.58249383696091
 20
766.94907030335264
 30
0.0
 11
530.58249383696091
 21
745.10706730335278
 31
0.0
  0
LINE
  5
C0D8
  8
0
 62
     0
 10
530.58249383696091
 20
706.83176830335265
 30
0.0
 11
530.58249383696091
 21
675.94186830335275
 31
0.0
  0
LINE
  5
C0D9
  8
0
 62
     0
 10
512.58249383696091
 20
784.94907030335264
 30
0.0
 11
437.58299783696111
 21
784.94907030335264
 31
0.0
  0
LINE
  5
C0DA
  8
0
 62
     0
 10
512.58249383696091
 20
780.09407530335284
 30
0.0
 11
437.58299783696111
 21
780.09407530335284
 31
0.0
  0
LINE
  5
C0DB
  8
0
 62
     0
 10
512.58249383696091
 20
742.12406630335283
 30
0.0
 11
437.58299783696111
 21
742.12406630335283
 31
0.0
  0
LINE
  5
C0DC
  8
0
 62
     0
 10
512.58249383696091
 20
665.55920130335289
 30
0.0
 11
437.58299783696111
 21
665.55920130335289
 31
0.0
  0
LINE
  5
C0DD
  8
0
 62
     0
 10
512.58249383696091
 20
659.90906930335291
 30
0.0
 11
437.58299783696111
 21
659.90906930335291
 31
0.0
  0
LINE
  5
C0DE
  8
0
 62
     0
 10
512.58249383696091
 20
657.94186830335275
 30
0.0
 11
437.58299783696111
 21
657.94186830335275
 31
0.0
  0
ARC
  5
C0DF
  8
0
 62
     0
 10
437.58299783696111
 20
766.94907030335264
 30
0.0
 40
18.0
 50
90.0
 51
179.9999819999943
  0
ARC
  5
C0E0
  8
0
 62
     0
 10
437.58299783696111
 20
769.09407530335284
 30
0.0
 40
11.0
 50
90.0
 51
179.9999819999943
  0
ARC
  5
C0E1
  8
0
 62
     0
 10
437.58299783696111
 20
676.55907130335265
 30
0.0
 40
11.0
 50
179.9999819999943
 51
269.99996400000163
  0
ARC
  5
C0E2
  8
0
 62
     0
 10
437.58299783696111
 20
675.94186830335275
 30
0.0
 40
18.0
 50
179.9999819999943
 51
269.99996400000163
  0
ARC
  5
C0E3
  8
0
 62
     0
 10
437.58299783696111
 20
677.90906930335291
 30
0.0
 40
18.0
 50
179.9999819999943
 51
269.99996400000163
  0
ARC
  5
C0E4
  8
0
 62
     0
 10
425.08299783696111
 20
725.9520693033528
 30
0.0
 40
15.000003
 50
127.16889200000669
 51
232.83097600000301
  0
ARC
  5
C0E5
  8
0
 62
     0
 10
512.58249383696091
 20
766.94907030335264
 30
0.0
 40
18.0
 50
359.99993599999488
 51
89.999950999989849
  0
ARC
  5
C0E6
  8
0
 62
     0
 10
512.58249383696091
 20
769.09407530335284
 30
0.0
 40
11.0
 50
0.0000179999992061
 51
89.999959999995966
  0
ARC
  5
C0E7
  8
0
 62
     0
 10
512.58249383696091
 20
676.55907130335265
 30
0.0
 40
11.0
 50
269.9999949999995
 51
359.99994299999821
  0
ARC
  5
C0E8
  8
0
 62
     0
 10
512.58249383696091
 20
675.94186830335275
 30
0.0
 40
18.0
 50
270.00000899998008
 51
359.99994299999821
  0
ARC
  5
C0E9
  8
0
 62
     0
 10
512.58249383696091
 20
677.90906930335291
 30
0.0
 40
18.0
 50
270.00000899998008
 51
359.99994299999821
  0
ARC
  5
C0EA
  8
0
 62
     0
 10
437.58299783696111
 20
731.12406630335283
 30
0.0
 40
11.0
 50
90.0
 51
179.9999819999943
  0
ARC
  5
C0EB
  8
0
 62
     0
 10
512.58249383696091
 20
731.12406630335283
 30
0.0
 40
11.0
 50
359.99994299999821
 51
89.999959999995966
  0
ARC
  5
C0EC
  8
0
 62
     0
 10
410.58299783696111
 20
745.07606930335282
 30
0.0
 40
9.000003999999997
 50
307.16898300000469
 51
359.99993599999488
  0
ARC
  5
C0ED
  8
0
 62
     0
 10
410.58299783696111
 20
706.82726730335276
 30
0.0
 40
9.0
 50
359.99993599999488
 51
52.83096800000645
  0
ARC
  5
C0EE
  8
0
 62
     0
 10
539.58249383696068
 20
745.07606930335282
 30
0.0
 40
9.0
 50
179.9999819999943
 51
232.83098999999581
  0
ARC
  5
C0EF
  8
0
 62
     0
 10
525.08249383696091
 20
725.9520693033528
 30
0.0
 40
15.0
 50
307.16895599999492
 51
52.830964000001153
  0
ARC
  5
C0F0
  8
0
 62
     0
 10
539.58249383696068
 20
706.82726730335276
 30
0.0
 40
9.0000009999999975
 50
127.16889600000439
 51
179.9999819999943
  0
LINE
  5
C0F1
  8
0
 62
     0
 10
364.68589183696122
 20
597.34376130335272
 30
0.0
 11
585.48008183696072
 21
597.34376130335272
 31
0.0
  0
LINE
  5
C0F2
  8
0
 62
     0
 10
369.5829858369612
 20
596.04406330335269
 30
0.0
 11
580.58298583696114
 21
596.04406330335269
 31
0.0
  0
ARC
  5
C0F3
  8
0
 62
     0
 10
369.5829858369612
 20
598.04406330335291
 30
0.0
 40
2.0
 50
200.49659999999491
 51
269.99999699998932
  0
ARC
  5
C0F4
  8
0
 62
     0
 10
364.68589183696122
 20
607.34376130335272
 30
0.0
 40
10.0
 50
260.77642999999648
 51
269.99999699998932
  0
LINE
  5
C0F5
  8
0
 62
     0
 10
607.58299783696111
 20
844.59408130335282
 30
0.0
 11
605.58302583696093
 21
844.60807930335284
 31
0.0
  0
LINE
  5
C0F6
  8
0
 62
     0
 10
605.58299783696111
 20
850.26772730335279
 30
0.0
 11
605.58299783696111
 21
834.14843530335281
 31
0.0
  0
LINE
  5
C0F7
  8
0
 62
     0
 10
589.74167583696124
 20
799.81323530335283
 30
0.0
 11
604.18932183696074
 21
795.21749530335285
 31
0.0
  0
LINE
  5
C0F8
  8
0
 62
     0
 10
589.44696183696124
 20
783.62031130335265
 30
0.0
 11
604.06396183696097
 21
779.99901930335284
 31
0.0
  0
LINE
  5
C0F9
  8
0
 62
     0
 10
589.08460983696114
 20
766.26736330335257
 30
0.0
 11
603.91413583696112
 21
763.77760530335263
 31
0.0
  0
LINE
  5
C0FA
  8
0
 62
     0
 10
588.68406383696106
 20
748.14486730335284
 30
0.0
 11
603.7519058369611
 21
746.86753530335284
 31
0.0
  0
LINE
  5
C0FB
  8
0
 62
     0
 10
530.58249383696091
 20
766.40540730335283
 30
0.0
 11
587.42882383696121
 21
766.40540730335283
 31
0.0
  0
LINE
  5
C0FC
  8
0
 62
     0
 10
605.58299783696111
 20
788.43705530335285
 30
0.0
 11
605.58299783696111
 21
793.31156530335284
 31
0.0
  0
LINE
  5
C0FD
  8
0
 62
     0
 10
605.58299783696111
 20
773.98392930335285
 30
0.0
 11
605.58299783696111
 21
778.05769130335284
 31
0.0
  0
LINE
  5
C0FE
  8
0
 62
     0
 10
605.58299783696111
 20
758.66679130335285
 30
0.0
 11
605.58299783696111
 21
761.80521930335283
 31
0.0
  0
LINE
  5
C0FF
  8
0
 62
     0
 10
530.58249383696091
 20
758.66679130335285
 30
0.0
 11
602.582997836961
 21
758.66679130335285
 31
0.0
  0
LINE
  5
C100
  8
0
 62
     0
 10
529.15086083696087
 20
773.98392930335285
 30
0.0
 11
602.582997836961
 21
773.98392930335285
 31
0.0
  0
LINE
  5
C101
  8
0
 62
     0
 10
363.083018836961
 20
788.43705530335285
 30
0.0
 11
602.582997836961
 21
788.43705530335285
 31
0.0
  0
LINE
  5
C102
  8
0
 62
     0
 10
530.87931483696093
 20
742.78376530335265
 30
0.0
 11
602.582997836961
 21
742.78376530335265
 31
0.0
  0
LINE
  5
C103
  8
0
 62
     0
 10
588.26251183696104
 20
731.66083930335265
 30
0.0
 11
604.13779983696122
 21
731.09308130335285
 31
0.0
  0
LINE
  5
C104
  8
0
 62
     0
 10
588.26244183696087
 20
731.66087930335277
 30
0.0
 11
538.63013183696091
 21
732.39113130335284
 31
0.0
  0
LINE
  5
C105
  8
0
 62
     0
 10
605.58299783696111
 20
742.78376530335265
 30
0.0
 11
605.58299783696111
 21
744.87470730335281
 31
0.0
  0
LINE
  5
C106
  8
0
 62
     0
 10
530.58249383696091
 20
748.18061530335285
 30
0.0
 11
587.83934583696077
 21
748.18061530335285
 31
0.0
  0
LINE
  5
C107
  8
0
 62
     0
 10
490.082997836961
 20
816.4383353033528
 30
0.0
 11
490.082997836961
 21
830.89930330335267
 31
0.0
  0
LINE
  5
C108
  8
0
 62
     0
 10
363.083018836961
 20
801.74485530335255
 30
0.0
 11
607.58299783696111
 21
801.74485530335255
 31
0.0
  0
LINE
  5
C109
  8
0
 62
     0
 10
363.083018836961
 20
815.4383353033528
 30
0.0
 11
586.37468583696091
 21
815.4383353033528
 31
0.0
  0
LINE
  5
C10A
  8
0
 62
     0
 10
597.46367583696099
 20
811.83585730335278
 30
0.0
 11
607.58299783696111
 21
811.83585730335278
 31
0.0
  0
LINE
  5
C10B
  8
0
 62
     0
 10
597.463625836961
 20
811.83585730335278
 30
0.0
 11
590.02043783696115
 21
814.75005530335295
 31
0.0
  0
LINE
  5
C10C
  8
0
 62
     0
 10
364.12169383696119
 20
831.89930330335255
 30
0.0
 11
586.04430183696104
 21
831.89930330335255
 31
0.0
  0
LINE
  5
C10D
  8
0
 62
     0
 10
597.46366383696113
 20
827.60605530335249
 30
0.0
 11
590.27270383696111
 21
830.96137330335262
 31
0.0
  0
LINE
  5
C10E
  8
0
 62
     0
 10
491.08299783696111
 20
827.60604530335263
 30
0.0
 11
607.58299783696111
 21
827.60604530335263
 31
0.0
  0
LINE
  5
C10F
  8
0
 62
     0
 10
364.33366883696112
 20
842.85087330335261
 30
0.0
 11
585.83232783696121
 21
842.85087330335261
 31
0.0
  0
LINE
  5
C110
  8
0
 62
     0
 10
604.50086383696123
 20
834.46291730335304
 30
0.0
 11
590.42168183696094
 21
841.73553530335255
 31
0.0
  0
LINE
  5
C111
  8
0
 62
     0
 10
605.58299783696111
 20
832.68600130335267
 30
0.0
 11
605.58299783696111
 21
827.60604530335263
 31
0.0
  0
LINE
  5
C112
  8
0
 62
     0
 10
364.49834183696112
 20
851.59808130335296
 30
0.0
 11
585.66765383696111
 21
851.59808130335296
 31
0.0
  0
LINE
  5
C113
  8
0
 62
     0
 10
590.53001983696095
 20
850.33630330335279
 30
0.0
 11
604.5554518369612
 21
842.53188730335285
 31
0.0
  0
LINE
  5
C114
  8
0
 62
     0
 10
364.61563983696118
 20
857.97057730335268
 30
0.0
 11
585.55034383696102
 21
857.97057730335268
 31
0.0
  0
LINE
  5
C115
  8
0
 62
     0
 10
604.59350783696118
 20
848.40857730335267
 30
0.0
 11
590.60301383696094
 21
856.6001653033527
 31
0.0
  0
LINE
  5
C116
  8
0
 62
     0
 10
364.68589183696122
 20
861.84437330335265
 30
0.0
 11
585.48009383696126
 21
861.84437330335265
 31
0.0
  0
LINE
  5
C117
  8
0
 62
     0
 10
604.61598383696105
 20
851.98033530335294
 30
0.0
 11
590.64506783696095
 21
860.40730130335271
 31
0.0
  0
LINE
  5
C118
  8
0
 62
     0
 10
369.5829858369612
 20
863.1440713033528
 30
0.0
 11
580.58299783696111
 21
863.1440713033528
 31
0.0
  0
LINE
  5
C119
  8
0
 62
     0
 10
459.08299783696111
 20
827.60604530335263
 30
0.0
 11
363.083018836961
 21
827.60604530335263
 31
0.0
  0
LINE
  5
C11A
  8
0
 62
     0
 10
460.08299783696111
 20
816.4383353033528
 30
0.0
 11
460.08299783696111
 21
830.89930330335267
 31
0.0
  0
LINE
  5
C11B
  8
0
 62
     0
 10
463.58299783696111
 20
866.59406730335263
 30
0.0
 11
486.58299783696089
 21
866.59406730335263
 31
0.0
  0
LINE
  5
C11C
  8
0
 62
     0
 10
463.58299783696111
 20
866.59406730335263
 30
0.0
 11
463.58299783696111
 21
863.1440713033528
 31
0.0
  0
LINE
  5
C11D
  8
0
 62
     0
 10
486.58299783696089
 20
866.59406730335263
 30
0.0
 11
486.58299783696089
 21
863.1440713033528
 31
0.0
  0
ARC
  5
C11E
  8
0
 62
     0
 10
603.58299783696111
 20
744.87470730335281
 30
0.0
 40
2.0
 50
0.0
 51
85.154496000005182
  0
ARC
  5
C11F
  8
0
 62
     0
 10
603.58299783696111
 20
761.80521930335283
 30
0.0
 40
2.0
 50
0.0
 51
80.469389000002721
  0
ARC
  5
C120
  8
0
 62
     0
 10
603.58299783696111
 20
778.05769130335284
 30
0.0
 40
2.0
 50
0.0
 51
76.085411000000221
  0
ARC
  5
C121
  8
0
 62
     0
 10
603.58299783696111
 20
793.31156530335284
 30
0.0
 40
2.0
 50
0.0
 51
72.354331999996091
  0
ARC
  5
C122
  8
0
 62
     0
 10
586.71031783696094
 20
790.28373330335285
 30
0.0
 40
10.0
 50
72.354331999996091
 51
90.000002999984659
  0
ARC
  5
C123
  8
0
 62
     0
 10
587.04222783696093
 20
773.91373930335283
 30
0.0
 40
10.0
 50
76.085411000000221
 51
90.000002999984659
  0
ARC
  5
C124
  8
0
 62
     0
 10
587.42882383696121
 20
756.40540730335283
 30
0.0
 40
10.0
 50
80.469389000002721
 51
90.000002999984659
  0
ARC
  5
C125
  8
0
 62
     0
 10
587.83934583696077
 20
738.18061530335285
 30
0.0
 40
10.0
 50
85.154496000005182
 51
90.000002999984659
  0
ARC
  5
C126
  8
0
 62
     0
 10
604.08421983696098
 20
729.59287730335302
 30
0.0
 40
1.498794
 50
0.0454979999978262
 51
90.000002999984659
  0
ARC
  5
C127
  8
0
 62
     0
 10
586.37468583696091
 20
805.43833530335269
 30
0.0
 40
10.0
 50
68.618381999994952
 51
90.000002999984659
  0
ARC
  5
C128
  8
0
 62
     0
 10
586.04430183696104
 20
821.89930330335267
 30
0.0
 40
10.0
 50
64.986142000000967
 51
90.000002999984659
  0
ARC
  5
C129
  8
0
 62
     0
 10
585.83232783696121
 20
832.85087330335284
 30
0.0
 40
10.0
 50
62.681328999998122
 51
90.000002999984659
  0
ARC
  5
C12A
  8
0
 62
     0
 10
603.58299783696111
 20
832.68600130335267
 30
0.0
 40
2.0
 50
0.0
 51
62.681328999998122
  0
ARC
  5
C12B
  8
0
 62
     0
 10
585.66765383696111
 20
841.59808130335273
 30
0.0
 40
10.0
 50
60.906361000012808
 51
90.000002999984659
  0
ARC
  5
C12C
  8
0
 62
     0
 10
603.58299783696111
 20
840.78425330335267
 30
0.0
 40
2.0
 50
0.0
 51
60.906361000012808
  0
ARC
  5
C12D
  8
0
 62
     0
 10
585.55034383696102
 20
847.97057730335268
 30
0.0
 40
10.0
 50
59.65056200000496
 51
90.000002999984659
  0
ARC
  5
C12E
  8
0
 62
     0
 10
603.58299783696111
 20
846.68267530335265
 30
0.0
 40
2.0
 50
0.0
 51
59.65056200000496
  0
ARC
  5
C12F
  8
0
 62
     0
 10
603.58299783696111
 20
850.26772730335279
 30
0.0
 40
2.0
 50
0.0
 51
58.902493000008462
  0
ARC
  5
C130
  8
0
 62
     0
 10
585.48009383696126
 20
851.84437330335265
 30
0.0
 40
10.0
 50
58.902493000008462
 51
90.000002999984659
  0
ARC
  5
C131
  8
0
 62
     0
 10
580.58299783696111
 20
861.14407130335292
 30
0.0
 40
2.0
 50
20.496599000005361
 51
90.000002999984659
  0
ARC
  5
C132
  8
0
 62
     0
 10
491.08299783696111
 20
816.4383353033528
 30
0.0
 40
1.0
 50
179.9999949999995
 51
269.99999699998932
  0
ARC
  5
C133
  8
0
 62
     0
 10
459.08299783696111
 20
816.4383353033528
 30
0.0
 40
1.0
 50
269.99999699998932
 51
0.0
  0
ARC
  5
C134
  8
0
 62
     0
 10
491.08299783696111
 20
826.60604530335263
 30
0.0
 40
1.0
 50
89.999998999979056
 51
180.00000899999949
  0
ARC
  5
C135
  8
0
 62
     0
 10
459.08299783696111
 20
826.60604530335263
 30
0.0
 40
1.0
 50
0.0
 51
90.000002999984659
  0
ARC
  5
C136
  8
0
 62
     0
 10
491.08299783696111
 20
830.89930330335267
 30
0.0
 40
1.0
 50
89.999998999979056
 51
180.00000899999949
  0
ARC
  5
C137
  8
0
 62
     0
 10
459.08299783696111
 20
830.89930330335267
 30
0.0
 40
1.0
 50
0.0
 51
90.000002999984659
  0
LINE
  5
C138
  8
0
 62
     0
 10
518.59913983696094
 20
783.91373930335283
 30
0.0
 11
587.04222783696093
 21
783.91373930335283
 31
0.0
  0
LINE
  5
C139
  8
0
 62
     0
 10
363.083018836961
 20
800.28371930335265
 30
0.0
 11
586.71031783696094
 21
800.28371930335265
 31
0.0
  0
LINE
  5
C13A
  8
0
 62
     0
 10
607.58299783696111
 20
614.59405330335267
 30
0.0
 11
605.58302583696093
 21
614.58005530335265
 31
0.0
  0
LINE
  5
C13B
  8
0
 62
     0
 10
605.58299783696111
 20
608.92040730335293
 30
0.0
 11
605.58299783696111
 21
625.03969930335268
 31
0.0
  0
LINE
  5
C13C
  8
0
 62
     0
 10
363.083018836961
 20
658.90441530335272
 30
0.0
 11
431.7756588369611
 21
658.90441530335272
 31
0.0
  0
LINE
  5
C13D
  8
0
 62
     0
 10
589.74167583696124
 20
659.37489930335278
 30
0.0
 11
604.18932183696074
 21
663.97063930335275
 31
0.0
  0
LINE
  5
C13E
  8
0
 62
     0
 10
589.44696183696124
 20
675.56782330335272
 30
0.0
 11
604.06396183696097
 21
679.18911530335265
 31
0.0
  0
LINE
  5
C13F
  8
0
 62
     0
 10
589.08460983696114
 20
692.92077130335281
 30
0.0
 11
603.91413583696112
 21
695.41052930335275
 31
0.0
  0
LINE
  5
C140
  8
0
 62
     0
 10
588.68406383696106
 20
711.04326730335265
 30
0.0
 11
603.7519058369611
 21
712.32059930335265
 31
0.0
  0
LINE
  5
C141
  8
0
 62
     0
 10
530.58249383696091
 20
692.78272730335266
 30
0.0
 11
587.42882383696121
 21
692.78272730335266
 31
0.0
  0
LINE
  5
C142
  8
0
 62
     0
 10
605.58299783696111
 20
670.75107930335275
 30
0.0
 11
605.58299783696111
 21
665.87656930335288
 31
0.0
  0
LINE
  5
C143
  8
0
 62
     0
 10
605.58299783696111
 20
685.20420530335275
 30
0.0
 11
605.58299783696111
 21
681.13044330335265
 31
0.0
  0
LINE
  5
C144
  8
0
 62
     0
 10
605.58299783696111
 20
700.52134330335275
 30
0.0
 11
605.58299783696111
 21
697.38291530335266
 31
0.0
  0
LINE
  5
C145
  8
0
 62
     0
 10
530.58249383696091
 20
700.52134330335275
 30
0.0
 11
602.582997836961
 21
700.52134330335275
 31
0.0
  0
LINE
  5
C146
  8
0
 62
     0
 10
530.58249383696091
 20
685.20420530335275
 30
0.0
 11
602.582997836961
 21
685.20420530335275
 31
0.0
  0
LINE
  5
C147
  8
0
 62
     0
 10
536.65147983696124
 20
716.40436930335284
 30
0.0
 11
602.582997836961
 21
716.40436930335284
 31
0.0
  0
LINE
  5
C148
  8
0
 62
     0
 10
588.26251183696104
 20
727.52729530335284
 30
0.0
 11
604.13779983696122
 21
728.09505330335287
 31
0.0
  0
LINE
  5
C149
  8
0
 62
     0
 10
588.26244183696087
 20
727.52725530335283
 30
0.0
 11
540.05747883696085
 21
726.81800430335284
 31
0.0
  0
LINE
  5
C14A
  8
0
 62
     0
 10
605.58299783696111
 20
716.40436930335284
 30
0.0
 11
605.58299783696111
 21
714.3134273033528
 31
0.0
  0
LINE
  5
C14B
  8
0
 62
     0
 10
531.61220483696127
 20
711.00751930335275
 30
0.0
 11
587.83934583696077
 21
711.00751930335275
 31
0.0
  0
LINE
  5
C14C
  8
0
 62
     0
 10
490.082997836961
 20
642.74979930335269
 30
0.0
 11
490.082997836961
 21
628.28883130335294
 31
0.0
  0
LINE
  5
C14D
  8
0
 62
     0
 10
363.083018836961
 20
657.44327930335294
 30
0.0
 11
607.58299783696111
 21
657.44327930335294
 31
0.0
  0
LINE
  5
C14E
  8
0
 62
     0
 10
363.083018836961
 20
643.74979930335257
 30
0.0
 11
586.37468583696091
 21
643.74979930335257
 31
0.0
  0
LINE
  5
C14F
  8
0
 62
     0
 10
597.46367583696099
 20
647.35227730335259
 30
0.0
 11
607.58299783696111
 21
647.35227730335259
 31
0.0
  0
LINE
  5
C150
  8
0
 62
     0
 10
597.463625836961
 20
647.35227730335259
 30
0.0
 11
590.02043783696115
 21
644.43807930335288
 31
0.0
  0
LINE
  5
C151
  8
0
 62
     0
 10
364.12169383696119
 20
627.28883130335294
 30
0.0
 11
586.04430183696104
 21
627.28883130335294
 31
0.0
  0
LINE
  5
C152
  8
0
 62
     0
 10
597.46366383696113
 20
631.58207930335288
 30
0.0
 11
590.27270383696111
 21
628.22676130335265
 31
0.0
  0
LINE
  5
C153
  8
0
 62
     0
 10
491.08299783696111
 20
631.58208930335275
 30
0.0
 11
607.58299783696111
 21
631.58208930335275
 31
0.0
  0
LINE
  5
C154
  8
0
 62
     0
 10
364.33366883696112
 20
616.33726130335265
 30
0.0
 11
585.83232783696121
 21
616.33726130335265
 31
0.0
  0
LINE
  5
C155
  8
0
 62
     0
 10
604.50086383696123
 20
624.72521730335279
 30
0.0
 11
590.42168183696094
 21
617.45259930335271
 31
0.0
  0
LINE
  5
C156
  8
0
 62
     0
 10
605.58299783696111
 20
626.50213330335259
 30
0.0
 11
605.58299783696111
 21
631.58208930335275
 31
0.0
  0
LINE
  5
C157
  8
0
 62
     0
 10
364.49834183696112
 20
607.59005330335287
 30
0.0
 11
585.66765383696111
 21
607.59005330335287
 31
0.0
  0
LINE
  5
C158
  8
0
 62
     0
 10
590.53001983696095
 20
608.85183130335258
 30
0.0
 11
604.5554518369612
 21
616.65624730335276
 31
0.0
  0
LINE
  5
C159
  8
0
 62
     0
 10
364.61563983696118
 20
601.21755730335269
 30
0.0
 11
585.55034383696102
 21
601.21755730335269
 31
0.0
  0
LINE
  5
C15A
  8
0
 62
     0
 10
604.59350783696118
 20
610.77955730335293
 30
0.0
 11
590.60301383696094
 21
602.58796930335279
 31
0.0
  0
LINE
  5
C15B
  8
0
 62
     0
 10
604.61598383696105
 20
607.20779930335289
 30
0.0
 11
590.64506783696095
 21
598.78083330335278
 31
0.0
  0
LINE
  5
C15C
  8
0
 62
     0
 10
459.08299783696111
 20
631.58208930335275
 30
0.0
 11
363.083018836961
 21
631.58208930335275
 31
0.0
  0
LINE
  5
C15D
  8
0
 62
     0
 10
460.08299783696111
 20
642.74979930335269
 30
0.0
 11
460.08299783696111
 21
628.28883130335294
 31
0.0
  0
LINE
  5
C15E
  8
0
 62
     0
 10
463.58299783696111
 20
592.59406730335286
 30
0.0
 11
486.58299783696089
 21
592.59406730335286
 31
0.0
  0
LINE
  5
C15F
  8
0
 62
     0
 10
463.58299783696111
 20
592.59406730335286
 30
0.0
 11
463.58299783696111
 21
596.04406330335269
 31
0.0
  0
LINE
  5
C160
  8
0
 62
     0
 10
486.58299783696089
 20
592.59406730335286
 30
0.0
 11
486.58299783696089
 21
596.04406330335269
 31
0.0
  0
ARC
  5
C161
  8
0
 62
     0
 10
603.58299783696111
 20
714.3134273033528
 30
0.0
 40
2.0
 50
274.84550399999489
 51
0.0
  0
ARC
  5
C162
  8
0
 62
     0
 10
603.58299783696111
 20
697.38291530335266
 30
0.0
 40
2.0
 50
279.53061099999718
 51
0.0
  0
ARC
  5
C163
  8
0
 62
     0
 10
603.58299783696111
 20
681.13044330335265
 30
0.0
 40
2.0
 50
283.91458899999981
 51
0.0
  0
ARC
  5
C164
  8
0
 62
     0
 10
603.58299783696111
 20
665.87656930335288
 30
0.0
 40
2.0
 50
287.64566800000381
 51
0.0
  0
ARC
  5
C165
  8
0
 62
     0
 10
586.71031783696094
 20
668.90440130335276
 30
0.0
 40
10.0
 50
269.99999699998932
 51
287.64566800000381
  0
ARC
  5
C166
  8
0
 62
     0
 10
587.04222783696093
 20
685.27439530335266
 30
0.0
 40
10.0
 50
269.99999699998932
 51
283.91458899999981
  0
ARC
  5
C167
  8
0
 62
     0
 10
587.42882383696121
 20
702.78272730335266
 30
0.0
 40
10.0
 50
269.99999699998932
 51
279.53061099999718
  0
ARC
  5
C168
  8
0
 62
     0
 10
587.83934583696077
 20
721.00751930335264
 30
0.0
 40
10.0
 50
269.99999699998932
 51
274.84550399999489
  0
ARC
  5
C169
  8
0
 62
     0
 10
604.08421983696098
 20
729.5952573033527
 30
0.0
 40
1.498794
 50
272.04545799998709
 51
359.95450199999573
  0
ARC
  5
C16A
  8
0
 62
     0
 10
586.37468583696091
 20
653.74979930335257
 30
0.0
 40
10.0
 50
269.99999699998932
 51
291.38161800000512
  0
ARC
  5
C16B
  8
0
 62
     0
 10
586.04430183696104
 20
637.28883130335271
 30
0.0
 40
10.0
 50
269.99999699998932
 51
295.01385799999889
  0
ARC
  5
C16C
  8
0
 62
     0
 10
585.83232783696121
 20
626.33726130335288
 30
0.0
 40
10.0
 50
269.99999699998932
 51
297.31867100000181
  0
ARC
  5
C16D
  8
0
 62
     0
 10
603.58299783696111
 20
626.50213330335259
 30
0.0
 40
2.0
 50
297.31867100000181
 51
0.0
  0
ARC
  5
C16E
  8
0
 62
     0
 10
585.66765383696111
 20
617.59005330335265
 30
0.0
 40
10.0
 50
269.99999699998932
 51
299.09363899998721
  0
ARC
  5
C16F
  8
0
 62
     0
 10
603.58299783696111
 20
618.40388130335259
 30
0.0
 40
2.0
 50
299.09363899998721
 51
0.0
  0
ARC
  5
C170
  8
0
 62
     0
 10
585.55034383696102
 20
611.21755730335258
 30
0.0
 40
10.0
 50
269.99999699998932
 51
300.34943799999508
  0
ARC
  5
C171
  8
0
 62
     0
 10
603.58299783696111
 20
612.50545930335272
 30
0.0
 40
2.0
 50
300.34943799999508
 51
0.0
  0
ARC
  5
C172
  8
0
 62
     0
 10
603.58299783696111
 20
608.92040730335293
 30
0.0
 40
2.0
 50
301.09750699999148
 51
0.0
  0
ARC
  5
C173
  8
0
 62
     0
 10
585.48009383696126
 20
607.34376130335272
 30
0.0
 40
10.0
 50
269.99999699998932
 51
301.09750699999148
  0
ARC
  5
C174
  8
0
 62
     0
 10
580.58299783696111
 20
598.04406330335291
 30
0.0
 40
2.0
 50
269.99999699998932
 51
339.5034009999946
  0
ARC
  5
C175
  8
0
 62
     0
 10
491.08299783696111
 20
642.74979930335269
 30
0.0
 40
1.0
 50
90.000002999984659
 51
180.0000050000005
  0
ARC
  5
C176
  8
0
 62
     0
 10
459.08299783696111
 20
642.74979930335269
 30
0.0
 40
1.0
 50
0.0
 51
90.000002999984659
  0
ARC
  5
C177
  8
0
 62
     0
 10
491.08299783696111
 20
632.58208930335286
 30
0.0
 40
1.0
 50
179.99999100000039
 51
270.00000099999488
  0
ARC
  5
C178
  8
0
 62
     0
 10
459.08299783696111
 20
632.58208930335286
 30
0.0
 40
1.0
 50
269.99999699998932
 51
0.0
  0
ARC
  5
C179
  8
0
 62
     0
 10
491.08299783696111
 20
628.28883130335294
 30
0.0
 40
1.0
 50
179.99999100000039
 51
270.00000099999488
  0
ARC
  5
C17A
  8
0
 62
     0
 10
459.08299783696111
 20
628.28883130335294
 30
0.0
 40
1.0
 50
269.99999699998932
 51
0.0
  0
LINE
  5
C17B
  8
0
 62
     0
 10
530.57011483696124
 20
675.27439530335289
 30
0.0
 11
587.04222783696093
 21
675.27439530335289
 31
0.0
  0
LINE
  5
C17C
  8
0
 62
     0
 10
529.81779883696095
 20
670.75107930335275
 30
0.0
 11
602.582997836961
 21
670.75107930335275
 31
0.0
  0
LINE
  5
C17D
  8
0
 62
     0
 10
607.58299783696111
 20
847.8443954761949
 30
0.0
 11
607.58299783696111
 21
611.84441047619521
 31
0.0
  0
ARC
  5
C17E
  8
0
 62
     0
 10
364.61563983696118
 20
611.21755730335258
 30
0.0
 40
10.0
 50
261.18398499998767
 51
270.00000299998447
  0
LINE
  5
E21D
  8
0
  6
CENTER
 62
     0
 10
1034.290277836961
 20
1314.501865728995
 30
0.0
 11
223.26123282315069
 21
1314.501865728995
 31
0.0
  0
LINE
  5
E278
  8
0
  6
CONTINUOUS
 62
     0
 10
608.08298783696284
 20
1214.774695728996
 30
0.0
 11
619.08298783696227
 21
1214.774695728996
 31
0.0
  0
LINE
  5
E279
  8
0
  6
CONTINUOUS
 62
     0
 10
608.08298783696284
 20
1230.3310257289961
 30
0.0
 11
619.08298783696227
 21
1230.3310257289961
 31
0.0
  0
LINE
  5
E27A
  8
0
  6
CONTINUOUS
 62
     0
 10
609.06188783696098
 20
1240.0649157289961
 30
0.0
 11
620.09078783696077
 21
1240.0649157289961
 31
0.0
  0
LINE
  5
E27D
  8
0
  6
CONTINUOUS
 62
     0
 10
609.06188783696098
 20
1388.938865728996
 30
0.0
 11
620.09078783696077
 21
1388.938865728996
 31
0.0
  0
LINE
  5
E27E
  8
0
  6
CONTINUOUS
 62
     0
 10
608.08298783696284
 20
1398.672765728995
 30
0.0
 11
619.08298783696227
 21
1398.672765728995
 31
0.0
  0
LINE
  5
E27F
  8
0
  6
CONTINUOUS
 62
     0
 10
608.08298783696284
 20
1414.2291657289959
 30
0.0
 11
619.08298783696227
 21
1414.2291657289959
 31
0.0
  0
LINE
  5
E280
  8
0
  6
CONTINUOUS
 62
     0
 10
608.58305783696051
 20
1196.5018657289961
 30
0.0
 11
620.08298783696137
 21
1196.5018657289961
 31
0.0
  0
LINE
  5
E285
  8
0
  6
CONTINUOUS
 62
     0
 10
608.58299783696032
 20
1432.5018657289961
 30
0.0
 11
620.08298783696137
 21
1432.5018657289961
 31
0.0
  0
LINE
  5
E286
  8
0
  6
CONTINUOUS
 62
     0
 10
607.58299783696111
 20
1197.501925728996
 30
0.0
 11
608.58305783696051
 21
1196.5018657289961
 31
0.0
  0
LINE
  5
E287
  8
0
  6
CONTINUOUS
 62
     0
 10
607.58299783696111
 20
1431.501865728995
 30
0.0
 11
608.58299783696032
 21
1432.5018657289961
 31
0.0
  0
CIRCLE
  5
E2DB
  8
0
 62
     0
 10
475.08299783696128
 20
1314.501812728995
 30
0.0
 40
4.0
  0
CIRCLE
  5
E2DC
  8
0
 62
     0
 10
475.08299783696128
 20
1314.501812728995
 30
0.0
 40
5.0
  0
ARC
  5
E2DD
  8
0
 62
     0
 10
267.85107683696077
 20
1188.501865728995
 30
0.0
 40
3.0
 50
200.00000000000591
 51
270.0
  0
LINE
  5
E2DE
  8
0
 62
     0
 10
267.85107683696077
 20
1185.501865728995
 30
0.0
 11
363.08301883696112
 21
1185.501865728995
 31
0.0
  0
ARC
  5
E2DF
  8
0
 62
     0
 10
272.08301883696117
 20
1200.2651357289949
 30
0.0
 40
11.0
 50
180.0
 51
200.00000000000591
  0
LINE
  5
E2E0
  8
0
 62
     0
 10
261.7464008369609
 20
1196.5029137289951
 30
0.0
 11
265.03199883696129
 21
1187.4758057289951
 31
0.0
  0
LINE
  5
E2E1
  8
0
 62
     0
 10
363.08301883696112
 20
1185.501865728995
 30
0.0
 11
363.08301883696112
 21
1450.501865728995
 31
0.0
  0
ARC
  5
E2E2
  8
0
 62
     0
 10
272.08301883696117
 20
1428.7385957289951
 30
0.0
 40
11.0
 50
159.999999999994
 51
180.0
  0
ARC
  5
E2E3
  8
0
 62
     0
 10
270.39886883696119
 20
1447.501865728995
 30
0.0
 40
3.0
 50
90.0
 51
159.999999999994
  0
LINE
  5
E2E4
  8
0
 62
     0
 10
261.7464008369609
 20
1432.5008177289949
 30
0.0
 11
267.57979083696159
 21
1448.5279257289949
 31
0.0
  0
LINE
  5
E2E5
  8
0
 62
     0
 10
268.2982458369616
 20
1187.4758057289951
 30
0.0
 11
268.2982458369616
 21
1445.3600477289949
 31
0.0
  0
LINE
  5
E2E6
  8
0
 62
     0
 10
261.08301883696117
 20
1200.2651357289949
 30
0.0
 11
261.08301883696117
 21
1428.7385957289951
 31
0.0
  0
LINE
  5
E2E7
  8
0
 62
     0
 10
270.39886883696119
 20
1450.501865728995
 30
0.0
 11
363.08301883696112
 21
1450.501865728995
 31
0.0
  0
ARC
  5
E2E8
  8
0
 62
     0
 10
603.58299783696111
 20
1196.3377607289949
 30
0.0
 40
2.0
 50
299.99999800001649
 51
0.0
  0
LINE
  5
E2E9
  8
0
 62
     0
 10
604.58299883696134
 20
1194.605734728995
 30
0.0
 11
599.24328483696104
 21
1191.5228487289951
 31
0.0
  0
ARC
  5
E2EA
  8
0
 62
     0
 10
594.2432758369614
 20
1200.1830977289951
 30
0.0
 40
10.0
 50
269.99999700001541
 51
299.99999800001649
  0
LINE
  5
E2EB
  8
0
 62
     0
 10
523.14121283696124
 20
1190.1830977289951
 30
0.0
 11
594.2432758369614
 21
1190.1830977289951
 31
0.0
  0
LINE
  5
E2EC
  8
0
 62
     0
 10
607.58297683696117
 20
1429.5018787289951
 30
0.0
 11
605.58305883696107
 21
1429.5158787289949
 31
0.0
  0
LINE
  5
E2ED
  8
0
 62
     0
 10
605.58305883696107
 20
1437.5718127289949
 30
0.0
 11
589.38829583696145
 21
1447.501865728995
 31
0.0
  0
LINE
  5
E2EE
  8
0
 62
     0
 10
363.08301883696112
 20
1447.501865728995
 30
0.0
 11
589.38817383696119
 21
1447.501865728995
 31
0.0
  0
LINE
  5
E2EF
  8
0
  6
AM_ISO08W050
 62
     0
 10
475.08299783696128
 20
1172.890095728995
 30
0.0
 11
475.08299783696128
 21
1187.3351277289951
 31
0.0
  0
ARC
  5
E2F0
  8
0
 62
     0
 10
540.05800383696101
 20
1133.3958427289949
 30
0.0
 40
9.0
 50
117.977060000013
 51
180.10395799999091
  0
ARC
  5
E2F1
  8
0
 62
     0
 10
540.00900783696125
 20
1160.2708427289949
 30
0.0
 40
9.0
 50
180.10395799999091
 51
243.26531200002881
  0
LINE
  5
E2F2
  8
0
 62
     0
 10
537.92957983696135
 20
1155.5860817289949
 30
0.0
 11
535.95983783696124
 21
1156.703168728995
 31
0.0
  0
LINE
  5
E2F3
  8
0
 62
     0
 10
540.08299783696123
 20
1148.4091457289951
 30
0.0
 11
540.08299783696123
 21
1152.157041728995
 31
0.0
  0
LINE
  5
E2F4
  8
0
  6
AM_ISO08W050
 62
     0
 10
535.53900683696065
 20
1147.686858728995
 30
0.0
 11
524.80600483696185
 21
1147.686858728995
 31
0.0
  0
LINE
  5
E2F5
  8
0
  6
AM_ISO08W050
 62
     0
 10
530.08299783696134
 20
1141.7638547289951
 30
0.0
 11
530.08299783696134
 21
1154.248869728995
 31
0.0
  0
LINE
  5
E2F6
  8
0
 62
     0
 10
531.05802283696107
 20
1133.378878728995
 30
0.0
 11
531.06002183696091
 21
1132.458897728995
 31
0.0
  0
ARC
  5
E2F7
  8
0
 62
     0
 10
532.082997836961
 20
1148.4091457289951
 30
0.0
 40
8.0
 50
297.97706000001313
 51
0.0
  0
ARC
  5
E2F8
  8
0
 62
     0
 10
535.83299783696134
 20
1151.8892127289951
 30
0.0
 40
4.25
 50
0.0
 51
60.441404999993601
  0
LINE
  5
E2F9
  8
0
 62
     0
 10
537.92957983696135
 20
1151.116080728995
 30
0.0
 11
535.95983783696124
 21
1152.2331677289951
 31
0.0
  0
ARC
  5
E2FA
  8
0
 62
     0
 10
535.83299783696134
 20
1147.419210728995
 30
0.0
 40
4.25
 50
5.6335919999975781
 51
60.441404999993601
  0
ARC
  5
E2FB
  8
0
 62
     0
 10
513.58299783696134
 20
1126.632877728995
 30
0.0
 40
10.0
 50
270.00003599997228
 51
0.0000179999992061
  0
ARC
  5
E2FC
  8
0
 62
     0
 10
513.06000283696096
 20
1132.4588617289951
 30
0.0
 40
18.0
 50
270.0
 51
0.0000179999992061
  0
ARC
  5
E2FD
  8
0
 62
     0
 10
513.58299783696134
 20
1139.452849728995
 30
0.0
 40
10.0
 50
0.0000179999992061
 51
90.0
  0
LINE
  5
E2FE
  8
0
 62
     0
 10
523.582997836961
 20
1162.5388477289951
 30
0.0
 11
523.582997836961
 21
1126.632877728995
 31
0.0
  0
LINE
  5
E2FF
  8
0
 62
     0
 10
530.99101183696075
 20
1170.038859728995
 30
0.0
 11
531.00901683696179
 21
1160.2548797289951
 31
0.0
  0
ARC
  5
E300
  8
0
 62
     0
 10
513.58299783696134
 20
1162.5388477289951
 30
0.0
 40
10.0
 50
0.0000179999992061
 51
90.0
  0
ARC
  5
E301
  8
0
 62
     0
 10
540.00900783696125
 20
1164.7408437289951
 30
0.0
 40
9.0
 50
180.10395799999091
 51
243.2622339999939
  0
POLYLINE
  5
E302
  8
0
 62
     0
 10
530.99097596551667
 20
1170.0388597321275
 30
0.0
 66
     1
 70
     8
  0
VERTEX
  8
0
  5
EA07
 10
530.991
 20
1170.04
 30
0.000000
  70
    32
  0
VERTEX
  8
0
  5
EA08
 10
530.990
 20
1170.17
 30
0.000000
  70
    32
  0
VERTEX
  8
0
  5
EA09
 10
530.985
 20
1170.30
 30
0.000000
  70
    32
  0
VERTEX
  8
0
  5
EA0A
 10
530.979
 20
1170.44
 30
0.000000
  70
    32
  0
VERTEX
  8
0
  5
EA0B
 10
530.969
 20
1170.57
 30
0.000000
  70
    32
  0
VERTEX
  8
0
  5
EA0C
 10
530.956
 20
1170.70
 30
0.000000
  70
    32
  0
VERTEX
  8
0
  5
EA0D
 10
530.941
 20
1170.83
 30
0.000000
  70
    32
  0
VERTEX
  8
0
  5
EA0E
 10
530.923
 20
1170.97
 30
0.000000
  70
    32
  0
VERTEX
  8
0
  5
EA0F
 10
530.902
 20
1171.10
 30
0.000000
  70
    32
  0
VERTEX
  8
0
  5
EA10
 10
530.879
 20
1171.23
 30
0.000000
  70
    32
  0
VERTEX
  8
0
  5
EA11
 10
530.853
 20
1171.36
 30
0.000000
  70
    32
  0
VERTEX
  8
0
  5
EA12
 10
530.824
 20
1171.49
 30
0.000000
  70
    32
  0
VERTEX
  8
0
  5
EA13
 10
530.792
 20
1171.62
 30
0.000000
  70
    32
  0
VERTEX
  8
0
  5
EA14
 10
530.757
 20
1171.76
 30
0.000000
  70
    32
  0
VERTEX
  8
0
  5
EA15
 10
530.720
 20
1171.89
 30
0.000000
  70
    32
  0
VERTEX
  8
0
  5
EA16
 10
530.680
 20
1172.02
 30
0.000000
  70
    32
  0
VERTEX
  8
0
  5
EA17
 10
530.637
 20
1172.15
 30
0.000000
  70
    32
  0
VERTEX
  8
0
  5
EA18
 10
530.592
 20
1172.28
 30
0.000000
  70
    32
  0
VERTEX
  8
0
  5
EA19
 10
530.544
 20
1172.41
 30
0.000000
  70
    32
  0
VERTEX
  8
0
  5
EA1A
 10
530.493
 20
1172.54
 30
0.000000
  70
    32
  0
VERTEX
  8
0
  5
EA1B
 10
530.439
 20
1172.66
 30
0.000000
  70
    32
  0
VERTEX
  8
0
  5
EA1C
 10
530.383
 20
1172.79
 30
0.000000
  70
    32
  0
VERTEX
  8
0
  5
EA1D
 10
530.324
 20
1172.92
 30
0.000000
  70
    32
  0
VERTEX
  8
0
  5
EA1E
 10
530.263
 20
1173.05
 30
0.000000
  70
    32
  0
VERTEX
  8
0
  5
EA1F
 10
530.198
 20
1173.18
 30
0.000000
  70
    32
  0
VERTEX
  8
0
  5
EA20
 10
530.131
 20
1173.30
 30
0.000000
  70
    32
  0
VERTEX
  8
0
  5
EA21
 10
530.062
 20
1173.43
 30
0.000000
  70
    32
  0
VERTEX
  8
0
  5
EA22
 10
529.990
 20
1173.55
 30
0.000000
  70
    32
  0
VERTEX
  8
0
  5
EA23
 10
529.915
 20
1173.68
 30
0.000000
  70
    32
  0
VERTEX
  8
0
  5
EA24
 10
529.838
 20
1173.80
 30
0.000000
  70
    32
  0
VERTEX
  8
0
  5
EA25
 10
529.758
 20
1173.93
 30
0.000000
  70
    32
  0
VERTEX
  8
0
  5
EA26
 10
529.675
 20
1174.05
 30
0.000000
  70
    32
  0
VERTEX
  8
0
  5
EA27
 10
529.590
 20
1174.17
 30
0.000000
  70
    32
  0
VERTEX
  8
0
  5
EA28
 10
529.502
 20
1174.30
 30
0.000000
  70
    32
  0
VERTEX
  8
0
  5
EA29
 10
529.412
 20
1174.42
 30
0.000000
  70
    32
  0
VERTEX
  8
0
  5
EA2A
 10
529.319
 20
1174.54
 30
0.000000
  70
    32
  0
VERTEX
  8
0
  5
EA2B
 10
529.224
 20
1174.66
 30
0.000000
  70
    32
  0
VERTEX
  8
0
  5
EA2C
 10
529.126
 20
1174.78
 30
0.000000
  70
    32
  0
VERTEX
  8
0
  5
EA2D
 10
529.025
 20
1174.90
 30
0.000000
  70
    32
  0
VERTEX
  8
0
  5
EA2E
 10
528.923
 20
1175.01
 30
0.000000
  70
    32
  0
VERTEX
  8
0
  5
EA2F
 10
528.817
 20
1175.13
 30
0.000000
  70
    32
  0
VERTEX
  8
0
  5
EA30
 10
528.710
 20
1175.25
 30
0.000000
  70
    32
  0
VERTEX
  8
0
  5
EA31
 10
528.600
 20
1175.36
 30
0.000000
  70
    32
  0
VERTEX
  8
0
  5
EA32
 10
528.487
 20
1175.48
 30
0.000000
  70
    32
  0
VERTEX
  8
0
  5
EA33
 10
528.372
 20
1175.59
 30
0.000000
  70
    32
  0
VERTEX
  8
0
  5
EA34
 10
528.255
 20
1175.71
 30
0.000000
  70
    32
  0
VERTEX
  8
0
  5
EA35
 10
528.135
 20
1175.82
 30
0.000000
  70
    32
  0
VERTEX
  8
0
  5
EA36
 10
528.013
 20
1175.93
 30
0.000000
  70
    32
  0
VERTEX
  8
0
  5
EA37
 10
527.889
 20
1176.04
 30
0.000000
  70
    32
  0
VERTEX
  8
0
  5
EA38
 10
527.762
 20
1176.15
 30
0.000000
  70
    32
  0
VERTEX
  8
0
  5
EA39
 10
527.633
 20
1176.26
 30
0.000000
  70
    32
  0
VERTEX
  8
0
  5
EA3A
 10
527.502
 20
1176.37
 30
0.000000
  70
    32
  0
VERTEX
  8
0
  5
EA3B
 10
527.368
 20
1176.47
 30
0.000000
  70
    32
  0
VERTEX
  8
0
  5
EA3C
 10
527.233
 20
1176.58
 30
0.000000
  70
    32
  0
VERTEX
  8
0
  5
EA3D
 10
527.095
 20
1176.69
 30
0.000000
  70
    32
  0
VERTEX
  8
0
  5
EA3E
 10
526.955
 20
1176.79
 30
0.000000
  70
    32
  0
VERTEX
  8
0
  5
EA3F
 10
526.813
 20
1176.89
 30
0.000000
  70
    32
  0
VERTEX
  8
0
  5
EA40
 10
526.668
 20
1176.99
 30
0.000000
  70
    32
  0
VERTEX
  8
0
  5
EA41
 10
526.522
 20
1177.10
 30
0.000000
  70
    32
  0
VERTEX
  8
0
  5
EA42
 10
526.373
 20
1177.20
 30
0.000000
  70
    32
  0
VERTEX
  8
0
  5
EA43
 10
526.222
 20
1177.29
 30
0.000000
  70
    32
  0
VERTEX
  8
0
  5
EA44
 10
526.070
 20
1177.39
 30
0.000000
  70
    32
  0
VERTEX
  8
0
  5
EA45
 10
525.915
 20
1177.49
 30
0.000000
  70
    32
  0
VERTEX
  8
0
  5
EA46
 10
525.758
 20
1177.58
 30
0.000000
  70
    32
  0
VERTEX
  8
0
  5
EA47
 10
525.599
 20
1177.68
 30
0.000000
  70
    32
  0
VERTEX
  8
0
  5
EA48
 10
525.439
 20
1177.77
 30
0.000000
  70
    32
  0
VERTEX
  8
0
  5
EA49
 10
525.276
 20
1177.86
 30
0.000000
  70
    32
  0
VERTEX
  8
0
  5
EA4A
 10
525.111
 20
1177.95
 30
0.000000
  70
    32
  0
VERTEX
  8
0
  5
EA4B
 10
524.945
 20
1178.04
 30
0.000000
  70
    32
  0
VERTEX
  8
0
  5
EA4C
 10
524.777
 20
1178.13
 30
0.000000
  70
    32
  0
VERTEX
  8
0
  5
EA4D
 10
524.607
 20
1178.22
 30
0.000000
  70
    32
  0
VERTEX
  8
0
  5
EA4E
 10
524.435
 20
1178.31
 30
0.000000
  70
    32
  0
VERTEX
  8
0
  5
EA4F
 10
524.261
 20
1178.39
 30
0.000000
  70
    32
  0
VERTEX
  8
0
  5
EA50
 10
524.085
 20
1178.47
 30
0.000000
  70
    32
  0
VERTEX
  8
0
  5
EA51
 10
523.908
 20
1178.56
 30
0.000000
  70
    32
  0
VERTEX
  8
0
  5
EA52
 10
523.729
 20
1178.64
 30
0.000000
  70
    32
  0
VERTEX
  8
0
  5
EA53
 10
523.549
 20
1178.72
 30
0.000000
  70
    32
  0
VERTEX
  8
0
  5
EA54
 10
523.366
 20
1178.80
 30
0.000000
  70
    32
  0
VERTEX
  8
0
  5
EA55
 10
523.182
 20
1178.87
 30
0.000000
  70
    32
  0
VERTEX
  8
0
  5
EA56
 10
522.997
 20
1178.95
 30
0.000000
  70
    32
  0
VERTEX
  8
0
  5
EA57
 10
522.810
 20
1179.02
 30
0.000000
  70
    32
  0
VERTEX
  8
0
  5
EA58
 10
522.621
 20
1179.10
 30
0.000000
  70
    32
  0
VERTEX
  8
0
  5
EA59
 10
522.431
 20
1179.17
 30
0.000000
  70
    32
  0
VERTEX
  8
0
  5
EA5A
 10
522.240
 20
1179.24
 30
0.000000
  70
    32
  0
VERTEX
  8
0
  5
EA5B
 10
522.047
 20
1179.31
 30
0.000000
  70
    32
  0
VERTEX
  8
0
  5
EA5C
 10
521.852
 20
1179.37
 30
0.000000
  70
    32
  0
VERTEX
  8
0
  5
EA5D
 10
521.656
 20
1179.44
 30
0.000000
  70
    32
  0
VERTEX
  8
0
  5
EA5E
 10
521.459
 20
1179.50
 30
0.000000
  70
    32
  0
VERTEX
  8
0
  5
EA5F
 10
521.260
 20
1179.57
 30
0.000000
  70
    32
  0
VERTEX
  8
0
  5
EA60
 10
521.061
 20
1179.63
 30
0.000000
  70
    32
  0
VERTEX
  8
0
  5
EA61
 10
520.859
 20
1179.69
 30
0.000000
  70
    32
  0
VERTEX
  8
0
  5
EA62
 10
520.657
 20
1179.75
 30
0.000000
  70
    32
  0
VERTEX
  8
0
  5
EA63
 10
520.453
 20
1179.81
 30
0.000000
  70
    32
  0
VERTEX
  8
0
  5
EA64
 10
520.249
 20
1179.86
 30
0.000000
  70
    32
  0
VERTEX
  8
0
  5
EA65
 10
520.043
 20
1179.92
 30
0.000000
  70
    32
  0
VERTEX
  8
0
  5
EA66
 10
519.836
 20
1179.97
 30
0.000000
  70
    32
  0
VERTEX
  8
0
  5
EA67
 10
519.627
 20
1180.02
 30
0.000000
  70
    32
  0
VERTEX
  8
0
  5
EA68
 10
519.418
 20
1180.07
 30
0.000000
  70
    32
  0
VERTEX
  8
0
  5
EA69
 10
519.208
 20
1180.12
 30
0.000000
  70
    32
  0
VERTEX
  8
0
  5
EA6A
 10
518.997
 20
1180.17
 30
0.000000
  70
    32
  0
VERTEX
  8
0
  5
EA6B
 10
518.784
 20
1180.21
 30
0.000000
  70
    32
  0
VERTEX
  8
0
  5
EA6C
 10
518.571
 20
1180.26
 30
0.000000
  70
    32
  0
VERTEX
  8
0
  5
EA6D
 10
518.357
 20
1180.30
 30
0.000000
  70
    32
  0
VERTEX
  8
0
  5
EA6E
 10
518.142
 20
1180.34
 30
0.000000
  70
    32
  0
VERTEX
  8
0
  5
EA6F
 10
517.927
 20
1180.38
 30
0.000000
  70
    32
  0
VERTEX
  8
0
  5
EA70
 10
517.710
 20
1180.42
 30
0.000000
  70
    32
  0
VERTEX
  8
0
  5
EA71
 10
517.493
 20
1180.45
 30
0.000000
  70
    32
  0
VERTEX
  8
0
  5
EA72
 10
517.275
 20
1180.49
 30
0.000000
  70
    32
  0
VERTEX
  8
0
  5
EA73
 10
517.056
 20
1180.52
 30
0.000000
  70
    32
  0
VERTEX
  8
0
  5
EA74
 10
516.836
 20
1180.55
 30
0.000000
  70
    32
  0
VERTEX
  8
0
  5
EA75
 10
516.616
 20
1180.58
 30
0.000000
  70
    32
  0
VERTEX
  8
0
  5
EA76
 10
516.395
 20
1180.61
 30
0.000000
  70
    32
  0
VERTEX
  8
0
  5
EA77
 10
516.174
 20
1180.64
 30
0.000000
  70
    32
  0
VERTEX
  8
0
  5
EA78
 10
515.952
 20
1180.66
 30
0.000000
  70
    32
  0
VERTEX
  8
0
  5
EA79
 10
515.730
 20
1180.68
 30
0.000000
  70
    32
  0
VERTEX
  8
0
  5
EA7A
 10
515.507
 20
1180.71
 30
0.000000
  70
    32
  0
VERTEX
  8
0
  5
EA7B
 10
515.284
 20
1180.73
 30
0.000000
  70
    32
  0
VERTEX
  8
0
  5
EA7C
 10
515.060
 20
1180.74
 30
0.000000
  70
    32
  0
VERTEX
  8
0
  5
EA7D
 10
514.836
 20
1180.76
 30
0.000000
  70
    32
  0
VERTEX
  8
0
  5
EA7E
 10
514.612
 20
1180.78
 30
0.000000
  70
    32
  0
VERTEX
  8
0
  5
EA7F
 10
514.387
 20
1180.79
 30
0.000000
  70
    32
  0
VERTEX
  8
0
  5
EA80
 10
514.162
 20
1180.80
 30
0.000000
  70
    32
  0
VERTEX
  8
0
  5
EA81
 10
513.937
 20
1180.81
 30
0.000000
  70
    32
  0
VERTEX
  8
0
  5
EA82
 10
513.712
 20
1180.82
 30
0.000000
  70
    32
  0
VERTEX
  8
0
  5
EA83
 10
513.486
 20
1180.83
 30
0.000000
  70
    32
  0
VERTEX
  8
0
  5
EA84
 10
513.261
 20
1180.84
 30
0.000000
  70
    32
  0
VERTEX
  8
0
  5
EA85
 10
513.035
 20
1180.84
 30
0.000000
  70
    32
  0
VERTEX
  8
0
  5
EA86
 10
512.809
 20
1180.84
 30
0.000000
  70
    32
  0
VERTEX
  8
0
  5
EA87
 10
512.583
 20
1180.84
 30
0.000000
  70
    32
  0
SEQEND
  8
0
  5
EA88
  0
POLYLINE
  5
E303
  8
0
 62
     0
 10
530.99569423783964
 20
1167.4943068084515
 30
0.0
 66
     1
 70
     8
  0
VERTEX
  8
0
  5
EA89
 10
530.996
 20
1167.49
 30
0.000000
  70
    32
  0
VERTEX
  8
0
  5
EA8A
 10
530.994
 20
1167.61
 30
0.000000
  70
    32
  0
VERTEX
  8
0
  5
EA8B
 10
530.990
 20
1167.73
 30
0.000000
  70
    32
  0
VERTEX
  8
0
  5
EA8C
 10
530.983
 20
1167.85
 30
0.000000
  70
    32
  0
VERTEX
  8
0
  5
EA8D
 10
530.973
 20
1167.96
 30
0.000000
  70
    32
  0
VERTEX
  8
0
  5
EA8E
 10
530.961
 20
1168.08
 30
0.000000
  70
    32
  0
VERTEX
  8
0
  5
EA8F
 10
530.946
 20
1168.20
 30
0.000000
  70
    32
  0
VERTEX
  8
0
  5
EA90
 10
530.928
 20
1168.31
 30
0.000000
  70
    32
  0
VERTEX
  8
0
  5
EA91
 10
530.907
 20
1168.43
 30
0.000000
  70
    32
  0
VERTEX
  8
0
  5
EA92
 10
530.883
 20
1168.55
 30
0.000000
  70
    32
  0
VERTEX
  8
0
  5
EA93
 10
530.857
 20
1168.66
 30
0.000000
  70
    32
  0
VERTEX
  8
0
  5
EA94
 10
530.828
 20
1168.78
 30
0.000000
  70
    32
  0
VERTEX
  8
0
  5
EA95
 10
530.796
 20
1168.89
 30
0.000000
  70
    32
  0
VERTEX
  8
0
  5
EA96
 10
530.762
 20
1169.01
 30
0.000000
  70
    32
  0
VERTEX
  8
0
  5
EA97
 10
530.725
 20
1169.13
 30
0.000000
  70
    32
  0
VERTEX
  8
0
  5
EA98
 10
530.685
 20
1169.24
 30
0.000000
  70
    32
  0
VERTEX
  8
0
  5
EA99
 10
530.642
 20
1169.36
 30
0.000000
  70
    32
  0
VERTEX
  8
0
  5
EA9A
 10
530.596
 20
1169.47
 30
0.000000
  70
    32
  0
VERTEX
  8
0
  5
EA9B
 10
530.548
 20
1169.59
 30
0.000000
  70
    32
  0
VERTEX
  8
0
  5
EA9C
 10
530.497
 20
1169.70
 30
0.000000
  70
    32
  0
VERTEX
  8
0
  5
EA9D
 10
530.444
 20
1169.81
 30
0.000000
  70
    32
  0
VERTEX
  8
0
  5
EA9E
 10
530.387
 20
1169.93
 30
0.000000
  70
    32
  0
VERTEX
  8
0
  5
EA9F
 10
530.329
 20
1170.04
 30
0.000000
  70
    32
  0
VERTEX
  8
0
  5
EAA0
 10
530.267
 20
1170.15
 30
0.000000
  70
    32
  0
VERTEX
  8
0
  5
EAA1
 10
530.203
 20
1170.26
 30
0.000000
  70
    32
  0
VERTEX
  8
0
  5
EAA2
 10
530.136
 20
1170.38
 30
0.000000
  70
    32
  0
VERTEX
  8
0
  5
EAA3
 10
530.066
 20
1170.49
 30
0.000000
  70
    32
  0
VERTEX
  8
0
  5
EAA4
 10
529.994
 20
1170.60
 30
0.000000
  70
    32
  0
VERTEX
  8
0
  5
EAA5
 10
529.919
 20
1170.71
 30
0.000000
  70
    32
  0
VERTEX
  8
0
  5
EAA6
 10
529.842
 20
1170.82
 30
0.000000
  70
    32
  0
VERTEX
  8
0
  5
EAA7
 10
529.762
 20
1170.93
 30
0.000000
  70
    32
  0
VERTEX
  8
0
  5
EAA8
 10
529.679
 20
1171.04
 30
0.000000
  70
    32
  0
VERTEX
  8
0
  5
EAA9
 10
529.594
 20
1171.15
 30
0.000000
  70
    32
  0
VERTEX
  8
0
  5
EAAA
 10
529.506
 20
1171.25
 30
0.000000
  70
    32
  0
VERTEX
  8
0
  5
EAAB
 10
529.416
 20
1171.36
 30
0.000000
  70
    32
  0
VERTEX
  8
0
  5
EAAC
 10
529.323
 20
1171.47
 30
0.000000
  70
    32
  0
VERTEX
  8
0
  5
EAAD
 10
529.228
 20
1171.58
 30
0.000000
  70
    32
  0
VERTEX
  8
0
  5
EAAE
 10
529.130
 20
1171.68
 30
0.000000
  70
    32
  0
VERTEX
  8
0
  5
EAAF
 10
529.029
 20
1171.79
 30
0.000000
  70
    32
  0
VERTEX
  8
0
  5
EAB0
 10
528.927
 20
1171.89
 30
0.000000
  70
    32
  0
VERTEX
  8
0
  5
EAB1
 10
528.821
 20
1171.99
 30
0.000000
  70
    32
  0
VERTEX
  8
0
  5
EAB2
 10
528.714
 20
1172.10
 30
0.000000
  70
    32
  0
VERTEX
  8
0
  5
EAB3
 10
528.603
 20
1172.20
 30
0.000000
  70
    32
  0
VERTEX
  8
0
  5
EAB4
 10
528.491
 20
1172.30
 30
0.000000
  70
    32
  0
VERTEX
  8
0
  5
EAB5
 10
528.376
 20
1172.40
 30
0.000000
  70
    32
  0
VERTEX
  8
0
  5
EAB6
 10
528.259
 20
1172.50
 30
0.000000
  70
    32
  0
VERTEX
  8
0
  5
EAB7
 10
528.139
 20
1172.60
 30
0.000000
  70
    32
  0
VERTEX
  8
0
  5
EAB8
 10
528.017
 20
1172.70
 30
0.000000
  70
    32
  0
VERTEX
  8
0
  5
EAB9
 10
527.892
 20
1172.80
 30
0.000000
  70
    32
  0
VERTEX
  8
0
  5
EABA
 10
527.766
 20
1172.89
 30
0.000000
  70
    32
  0
VERTEX
  8
0
  5
EABB
 10
527.637
 20
1172.99
 30
0.000000
  70
    32
  0
VERTEX
  8
0
  5
EABC
 10
527.505
 20
1173.09
 30
0.000000
  70
    32
  0
VERTEX
  8
0
  5
EABD
 10
527.372
 20
1173.18
 30
0.000000
  70
    32
  0
VERTEX
  8
0
  5
EABE
 10
527.236
 20
1173.27
 30
0.000000
  70
    32
  0
VERTEX
  8
0
  5
EABF
 10
527.098
 20
1173.37
 30
0.000000
  70
    32
  0
VERTEX
  8
0
  5
EAC0
 10
526.958
 20
1173.46
 30
0.000000
  70
    32
  0
VERTEX
  8
0
  5
EAC1
 10
526.816
 20
1173.55
 30
0.000000
  70
    32
  0
VERTEX
  8
0
  5
EAC2
 10
526.672
 20
1173.64
 30
0.000000
  70
    32
  0
VERTEX
  8
0
  5
EAC3
 10
526.525
 20
1173.73
 30
0.000000
  70
    32
  0
VERTEX
  8
0
  5
EAC4
 10
526.376
 20
1173.82
 30
0.000000
  70
    32
  0
VERTEX
  8
0
  5
EAC5
 10
526.226
 20
1173.90
 30
0.000000
  70
    32
  0
VERTEX
  8
0
  5
EAC6
 10
526.073
 20
1173.99
 30
0.000000
  70
    32
  0
VERTEX
  8
0
  5
EAC7
 10
525.918
 20
1174.08
 30
0.000000
  70
    32
  0
VERTEX
  8
0
  5
EAC8
 10
525.761
 20
1174.16
 30
0.000000
  70
    32
  0
VERTEX
  8
0
  5
EAC9
 10
525.603
 20
1174.24
 30
0.000000
  70
    32
  0
VERTEX
  8
0
  5
EACA
 10
525.442
 20
1174.33
 30
0.000000
  70
    32
  0
VERTEX
  8
0
  5
EACB
 10
525.279
 20
1174.41
 30
0.000000
  70
    32
  0
VERTEX
  8
0
  5
EACC
 10
525.114
 20
1174.49
 30
0.000000
  70
    32
  0
VERTEX
  8
0
  5
EACD
 10
524.948
 20
1174.57
 30
0.000000
  70
    32
  0
VERTEX
  8
0
  5
EACE
 10
524.780
 20
1174.64
 30
0.000000
  70
    32
  0
VERTEX
  8
0
  5
EACF
 10
524.609
 20
1174.72
 30
0.000000
  70
    32
  0
VERTEX
  8
0
  5
EAD0
 10
524.437
 20
1174.80
 30
0.000000
  70
    32
  0
VERTEX
  8
0
  5
EAD1
 10
524.264
 20
1174.87
 30
0.000000
  70
    32
  0
VERTEX
  8
0
  5
EAD2
 10
524.088
 20
1174.95
 30
0.000000
  70
    32
  0
VERTEX
  8
0
  5
EAD3
 10
523.911
 20
1175.02
 30
0.000000
  70
    32
  0
VERTEX
  8
0
  5
EAD4
 10
523.732
 20
1175.09
 30
0.000000
  70
    32
  0
VERTEX
  8
0
  5
EAD5
 10
523.551
 20
1175.16
 30
0.000000
  70
    32
  0
VERTEX
  8
0
  5
EAD6
 10
523.369
 20
1175.23
 30
0.000000
  70
    32
  0
VERTEX
  8
0
  5
EAD7
 10
523.185
 20
1175.30
 30
0.000000
  70
    32
  0
VERTEX
  8
0
  5
EAD8
 10
522.999
 20
1175.36
 30
0.000000
  70
    32
  0
VERTEX
  8
0
  5
EAD9
 10
522.812
 20
1175.43
 30
0.000000
  70
    32
  0
VERTEX
  8
0
  5
EADA
 10
522.624
 20
1175.49
 30
0.000000
  70
    32
  0
VERTEX
  8
0
  5
EADB
 10
522.434
 20
1175.56
 30
0.000000
  70
    32
  0
VERTEX
  8
0
  5
EADC
 10
522.242
 20
1175.62
 30
0.000000
  70
    32
  0
VERTEX
  8
0
  5
EADD
 10
522.049
 20
1175.68
 30
0.000000
  70
    32
  0
VERTEX
  8
0
  5
EADE
 10
521.854
 20
1175.74
 30
0.000000
  70
    32
  0
VERTEX
  8
0
  5
EADF
 10
521.658
 20
1175.80
 30
0.000000
  70
    32
  0
VERTEX
  8
0
  5
EAE0
 10
521.461
 20
1175.86
 30
0.000000
  70
    32
  0
VERTEX
  8
0
  5
EAE1
 10
521.262
 20
1175.91
 30
0.000000
  70
    32
  0
VERTEX
  8
0
  5
EAE2
 10
521.063
 20
1175.97
 30
0.000000
  70
    32
  0
VERTEX
  8
0
  5
EAE3
 10
520.861
 20
1176.02
 30
0.000000
  70
    32
  0
VERTEX
  8
0
  5
EAE4
 10
520.659
 20
1176.07
 30
0.000000
  70
    32
  0
VERTEX
  8
0
  5
EAE5
 10
520.455
 20
1176.12
 30
0.000000
  70
    32
  0
VERTEX
  8
0
  5
EAE6
 10
520.250
 20
1176.17
 30
0.000000
  70
    32
  0
VERTEX
  8
0
  5
EAE7
 10
520.044
 20
1176.22
 30
0.000000
  70
    32
  0
VERTEX
  8
0
  5
EAE8
 10
519.837
 20
1176.27
 30
0.000000
  70
    32
  0
VERTEX
  8
0
  5
EAE9
 10
519.629
 20
1176.31
 30
0.000000
  70
    32
  0
VERTEX
  8
0
  5
EAEA
 10
519.420
 20
1176.36
 30
0.000000
  70
    32
  0
VERTEX
  8
0
  5
EAEB
 10
519.209
 20
1176.40
 30
0.000000
  70
    32
  0
VERTEX
  8
0
  5
EAEC
 10
518.998
 20
1176.44
 30
0.000000
  70
    32
  0
VERTEX
  8
0
  5
EAED
 10
518.786
 20
1176.48
 30
0.000000
  70
    32
  0
VERTEX
  8
0
  5
EAEE
 10
518.573
 20
1176.52
 30
0.000000
  70
    32
  0
VERTEX
  8
0
  5
EAEF
 10
518.359
 20
1176.56
 30
0.000000
  70
    32
  0
VERTEX
  8
0
  5
EAF0
 10
518.144
 20
1176.59
 30
0.000000
  70
    32
  0
VERTEX
  8
0
  5
EAF1
 10
517.928
 20
1176.63
 30
0.000000
  70
    32
  0
VERTEX
  8
0
  5
EAF2
 10
517.711
 20
1176.66
 30
0.000000
  70
    32
  0
VERTEX
  8
0
  5
EAF3
 10
517.494
 20
1176.69
 30
0.000000
  70
    32
  0
VERTEX
  8
0
  5
EAF4
 10
517.276
 20
1176.72
 30
0.000000
  70
    32
  0
VERTEX
  8
0
  5
EAF5
 10
517.057
 20
1176.75
 30
0.000000
  70
    32
  0
VERTEX
  8
0
  5
EAF6
 10
516.837
 20
1176.78
 30
0.000000
  70
    32
  0
VERTEX
  8
0
  5
EAF7
 10
516.617
 20
1176.81
 30
0.000000
  70
    32
  0
VERTEX
  8
0
  5
EAF8
 10
516.396
 20
1176.83
 30
0.000000
  70
    32
  0
VERTEX
  8
0
  5
EAF9
 10
516.175
 20
1176.86
 30
0.000000
  70
    32
  0
VERTEX
  8
0
  5
EAFA
 10
515.953
 20
1176.88
 30
0.000000
  70
    32
  0
VERTEX
  8
0
  5
EAFB
 10
515.731
 20
1176.90
 30
0.000000
  70
    32
  0
VERTEX
  8
0
  5
EAFC
 10
515.508
 20
1176.92
 30
0.000000
  70
    32
  0
VERTEX
  8
0
  5
EAFD
 10
515.285
 20
1176.94
 30
0.000000
  70
    32
  0
VERTEX
  8
0
  5
EAFE
 10
515.061
 20
1176.95
 30
0.000000
  70
    32
  0
VERTEX
  8
0
  5
EAFF
 10
514.837
 20
1176.97
 30
0.000000
  70
    32
  0
VERTEX
  8
0
  5
EB00
 10
514.612
 20
1176.98
 30
0.000000
  70
    32
  0
VERTEX
  8
0
  5
EB01
 10
514.388
 20
1176.99
 30
0.000000
  70
    32
  0
VERTEX
  8
0
  5
EB02
 10
514.163
 20
1177.00
 30
0.000000
  70
    32
  0
VERTEX
  8
0
  5
EB03
 10
513.937
 20
1177.01
 30
0.000000
  70
    32
  0
VERTEX
  8
0
  5
EB04
 10
513.712
 20
1177.02
 30
0.000000
  70
    32
  0
VERTEX
  8
0
  5
EB05
 10
513.486
 20
1177.03
 30
0.000000
  70
    32
  0
VERTEX
  8
0
  5
EB06
 10
513.261
 20
1177.03
 30
0.000000
  70
    32
  0
VERTEX
  8
0
  5
EB07
 10
513.035
 20
1177.04
 30
0.000000
  70
    32
  0
VERTEX
  8
0
  5
EB08
 10
512.809
 20
1177.04
 30
0.000000
  70
    32
  0
VERTEX
  8
0
  5
EB09
 10
512.583
 20
1177.04
 30
0.000000
  70
    32
  0
SEQEND
  8
0
  5
EB0A
  0
LINE
  5
E304
  8
0
 62
     0
 10
521.08299783696111
 20
1181.001865728995
 30
0.0
 11
521.08299783696111
 21
1182.501865728995
 31
0.0
  0
LINE
  5
E305
  8
0
 62
     0
 10
521.08299783696111
 20
1181.001865728995
 30
0.0
 11
429.08299783696128
 21
1181.001865728995
 31
0.0
  0
LINE
  5
E306
  8
0
 62
     0
 10
513.58299783696134
 20
1116.632877728995
 30
0.0
 11
436.58299783696123
 21
1116.632877728995
 31
0.0
  0
ARC
  5
E307
  8
0
 62
     0
 10
414.33299783696123
 20
1147.419210728995
 30
0.0
 40
4.25
 50
119.55859500000641
 51
174.36640800000239
  0
LINE
  5
E308
  8
0
 62
     0
 10
412.23641583696099
 20
1151.116080728995
 30
0.0
 11
414.2061578369611
 21
1152.2331677289951
 31
0.0
  0
ARC
  5
E309
  8
0
 62
     0
 10
414.33299783696123
 20
1151.8892127289951
 30
0.0
 40
4.25
 50
119.55859500000641
 51
180.0
  0
ARC
  5
E30A
  8
0
 62
     0
 10
418.08299783696128
 20
1148.4091457289951
 30
0.0
 40
8.0
 50
180.0
 51
242.02293999998699
  0
POLYLINE
  5
E30B
  8
0
 62
     0
 10
437.58299783696128
 20
1180.8428572522146
 30
0.0
 66
     1
 70
     8
  0
VERTEX
  8
0
  5
EB0B
 10
437.583
 20
1180.84
 30
0.000000
  70
    32
  0
VERTEX
  8
0
  5
EB0C
 10
437.357
 20
1180.84
 30
0.000000
  70
    32
  0
VERTEX
  8
0
  5
EB0D
 10
437.131
 20
1180.84
 30
0.000000
  70
    32
  0
VERTEX
  8
0
  5
EB0E
 10
436.905
 20
1180.84
 30
0.000000
  70
    32
  0
VERTEX
  8
0
  5
EB0F
 10
436.680
 20
1180.83
 30
0.000000
  70
    32
  0
VERTEX
  8
0
  5
EB10
 10
436.454
 20
1180.82
 30
0.000000
  70
    32
  0
VERTEX
  8
0
  5
EB11
 10
436.229
 20
1180.81
 30
0.000000
  70
    32
  0
VERTEX
  8
0
  5
EB12
 10
436.004
 20
1180.80
 30
0.000000
  70
    32
  0
VERTEX
  8
0
  5
EB13
 10
435.779
 20
1180.79
 30
0.000000
  70
    32
  0
VERTEX
  8
0
  5
EB14
 10
435.554
 20
1180.78
 30
0.000000
  70
    32
  0
VERTEX
  8
0
  5
EB15
 10
435.330
 20
1180.76
 30
0.000000
  70
    32
  0
VERTEX
  8
0
  5
EB16
 10
435.106
 20
1180.74
 30
0.000000
  70
    32
  0
VERTEX
  8
0
  5
EB17
 10
434.882
 20
1180.73
 30
0.000000
  70
    32
  0
VERTEX
  8
0
  5
EB18
 10
434.659
 20
1180.71
 30
0.000000
  70
    32
  0
VERTEX
  8
0
  5
EB19
 10
434.436
 20
1180.68
 30
0.000000
  70
    32
  0
VERTEX
  8
0
  5
EB1A
 10
434.214
 20
1180.66
 30
0.000000
  70
    32
  0
VERTEX
  8
0
  5
EB1B
 10
433.992
 20
1180.64
 30
0.000000
  70
    32
  0
VERTEX
  8
0
  5
EB1C
 10
433.770
 20
1180.61
 30
0.000000
  70
    32
  0
VERTEX
  8
0
  5
EB1D
 10
433.550
 20
1180.58
 30
0.000000
  70
    32
  0
VERTEX
  8
0
  5
EB1E
 10
433.330
 20
1180.55
 30
0.000000
  70
    32
  0
VERTEX
  8
0
  5
EB1F
 10
433.110
 20
1180.52
 30
0.000000
  70
    32
  0
VERTEX
  8
0
  5
EB20
 10
432.891
 20
1180.49
 30
0.000000
  70
    32
  0
VERTEX
  8
0
  5
EB21
 10
432.673
 20
1180.45
 30
0.000000
  70
    32
  0
VERTEX
  8
0
  5
EB22
 10
432.456
 20
1180.42
 30
0.000000
  70
    32
  0
VERTEX
  8
0
  5
EB23
 10
432.239
 20
1180.38
 30
0.000000
  70
    32
  0
VERTEX
  8
0
  5
EB24
 10
432.024
 20
1180.34
 30
0.000000
  70
    32
  0
VERTEX
  8
0
  5
EB25
 10
431.809
 20
1180.30
 30
0.000000
  70
    32
  0
VERTEX
  8
0
  5
EB26
 10
431.595
 20
1180.26
 30
0.000000
  70
    32
  0
VERTEX
  8
0
  5
EB27
 10
431.382
 20
1180.21
 30
0.000000
  70
    32
  0
VERTEX
  8
0
  5
EB28
 10
431.169
 20
1180.17
 30
0.000000
  70
    32
  0
VERTEX
  8
0
  5
EB29
 10
430.958
 20
1180.12
 30
0.000000
  70
    32
  0
VERTEX
  8
0
  5
EB2A
 10
430.748
 20
1180.07
 30
0.000000
  70
    32
  0
VERTEX
  8
0
  5
EB2B
 10
430.539
 20
1180.02
 30
0.000000
  70
    32
  0
VERTEX
  8
0
  5
EB2C
 10
430.330
 20
1179.97
 30
0.000000
  70
    32
  0
VERTEX
  8
0
  5
EB2D
 10
430.123
 20
1179.92
 30
0.000000
  70
    32
  0
VERTEX
  8
0
  5
EB2E
 10
429.917
 20
1179.86
 30
0.000000
  70
    32
  0
VERTEX
  8
0
  5
EB2F
 10
429.713
 20
1179.81
 30
0.000000
  70
    32
  0
VERTEX
  8
0
  5
EB30
 10
429.509
 20
1179.75
 30
0.000000
  70
    32
  0
VERTEX
  8
0
  5
EB31
 10
429.307
 20
1179.69
 30
0.000000
  70
    32
  0
VERTEX
  8
0
  5
EB32
 10
429.105
 20
1179.63
 30
0.000000
  70
    32
  0
VERTEX
  8
0
  5
EB33
 10
428.906
 20
1179.57
 30
0.000000
  70
    32
  0
VERTEX
  8
0
  5
EB34
 10
428.707
 20
1179.50
 30
0.000000
  70
    32
  0
VERTEX
  8
0
  5
EB35
 10
428.510
 20
1179.44
 30
0.000000
  70
    32
  0
VERTEX
  8
0
  5
EB36
 10
428.314
 20
1179.37
 30
0.000000
  70
    32
  0
VERTEX
  8
0
  5
EB37
 10
428.119
 20
1179.31
 30
0.000000
  70
    32
  0
VERTEX
  8
0
  5
EB38
 10
427.926
 20
1179.24
 30
0.000000
  70
    32
  0
VERTEX
  8
0
  5
EB39
 10
427.735
 20
1179.17
 30
0.000000
  70
    32
  0
VERTEX
  8
0
  5
EB3A
 10
427.545
 20
1179.10
 30
0.000000
  70
    32
  0
VERTEX
  8
0
  5
EB3B
 10
427.356
 20
1179.02
 30
0.000000
  70
    32
  0
VERTEX
  8
0
  5
EB3C
 10
427.169
 20
1178.95
 30
0.000000
  70
    32
  0
VERTEX
  8
0
  5
EB3D
 10
426.984
 20
1178.87
 30
0.000000
  70
    32
  0
VERTEX
  8
0
  5
EB3E
 10
426.800
 20
1178.80
 30
0.000000
  70
    32
  0
VERTEX
  8
0
  5
EB3F
 10
426.617
 20
1178.72
 30
0.000000
  70
    32
  0
VERTEX
  8
0
  5
EB40
 10
426.437
 20
1178.64
 30
0.000000
  70
    32
  0
VERTEX
  8
0
  5
EB41
 10
426.258
 20
1178.56
 30
0.000000
  70
    32
  0
VERTEX
  8
0
  5
EB42
 10
426.081
 20
1178.47
 30
0.000000
  70
    32
  0
VERTEX
  8
0
  5
EB43
 10
425.905
 20
1178.39
 30
0.000000
  70
    32
  0
VERTEX
  8
0
  5
EB44
 10
425.731
 20
1178.31
 30
0.000000
  70
    32
  0
VERTEX
  8
0
  5
EB45
 10
425.559
 20
1178.22
 30
0.000000
  70
    32
  0
VERTEX
  8
0
  5
EB46
 10
425.389
 20
1178.13
 30
0.000000
  70
    32
  0
VERTEX
  8
0
  5
EB47
 10
425.221
 20
1178.04
 30
0.000000
  70
    32
  0
VERTEX
  8
0
  5
EB48
 10
425.055
 20
1177.95
 30
0.000000
  70
    32
  0
VERTEX
  8
0
  5
EB49
 10
424.890
 20
1177.86
 30
0.000000
  70
    32
  0
VERTEX
  8
0
  5
EB4A
 10
424.727
 20
1177.77
 30
0.000000
  70
    32
  0
VERTEX
  8
0
  5
EB4B
 10
424.567
 20
1177.68
 30
0.000000
  70
    32
  0
VERTEX
  8
0
  5
EB4C
 10
424.408
 20
1177.58
 30
0.000000
  70
    32
  0
VERTEX
  8
0
  5
EB4D
 10
424.251
 20
1177.49
 30
0.000000
  70
    32
  0
VERTEX
  8
0
  5
EB4E
 10
424.096
 20
1177.39
 30
0.000000
  70
    32
  0
VERTEX
  8
0
  5
EB4F
 10
423.944
 20
1177.29
 30
0.000000
  70
    32
  0
VERTEX
  8
0
  5
EB50
 10
423.793
 20
1177.20
 30
0.000000
  70
    32
  0
VERTEX
  8
0
  5
EB51
 10
423.644
 20
1177.10
 30
0.000000
  70
    32
  0
VERTEX
  8
0
  5
EB52
 10
423.498
 20
1176.99
 30
0.000000
  70
    32
  0
VERTEX
  8
0
  5
EB53
 10
423.353
 20
1176.89
 30
0.000000
  70
    32
  0
VERTEX
  8
0
  5
EB54
 10
423.211
 20
1176.79
 30
0.000000
  70
    32
  0
VERTEX
  8
0
  5
EB55
 10
423.071
 20
1176.69
 30
0.000000
  70
    32
  0
VERTEX
  8
0
  5
EB56
 10
422.933
 20
1176.58
 30
0.000000
  70
    32
  0
VERTEX
  8
0
  5
EB57
 10
422.798
 20
1176.47
 30
0.000000
  70
    32
  0
VERTEX
  8
0
  5
EB58
 10
422.664
 20
1176.37
 30
0.000000
  70
    32
  0
VERTEX
  8
0
  5
EB59
 10
422.533
 20
1176.26
 30
0.000000
  70
    32
  0
VERTEX
  8
0
  5
EB5A
 10
422.404
 20
1176.15
 30
0.000000
  70
    32
  0
VERTEX
  8
0
  5
EB5B
 10
422.277
 20
1176.04
 30
0.000000
  70
    32
  0
VERTEX
  8
0
  5
EB5C
 10
422.153
 20
1175.93
 30
0.000000
  70
    32
  0
VERTEX
  8
0
  5
EB5D
 10
422.031
 20
1175.82
 30
0.000000
  70
    32
  0
VERTEX
  8
0
  5
EB5E
 10
421.911
 20
1175.71
 30
0.000000
  70
    32
  0
VERTEX
  8
0
  5
EB5F
 10
421.794
 20
1175.59
 30
0.000000
  70
    32
  0
VERTEX
  8
0
  5
EB60
 10
421.679
 20
1175.48
 30
0.000000
  70
    32
  0
VERTEX
  8
0
  5
EB61
 10
421.566
 20
1175.36
 30
0.000000
  70
    32
  0
VERTEX
  8
0
  5
EB62
 10
421.456
 20
1175.25
 30
0.000000
  70
    32
  0
VERTEX
  8
0
  5
EB63
 10
421.349
 20
1175.13
 30
0.000000
  70
    32
  0
VERTEX
  8
0
  5
EB64
 10
421.243
 20
1175.01
 30
0.000000
  70
    32
  0
VERTEX
  8
0
  5
EB65
 10
421.141
 20
1174.90
 30
0.000000
  70
    32
  0
VERTEX
  8
0
  5
EB66
 10
421.040
 20
1174.78
 30
0.000000
  70
    32
  0
VERTEX
  8
0
  5
EB67
 10
420.942
 20
1174.66
 30
0.000000
  70
    32
  0
VERTEX
  8
0
  5
EB68
 10
420.847
 20
1174.54
 30
0.000000
  70
    32
  0
VERTEX
  8
0
  5
EB69
 10
420.754
 20
1174.42
 30
0.000000
  70
    32
  0
VERTEX
  8
0
  5
EB6A
 10
420.664
 20
1174.30
 30
0.000000
  70
    32
  0
VERTEX
  8
0
  5
EB6B
 10
420.576
 20
1174.17
 30
0.000000
  70
    32
  0
VERTEX
  8
0
  5
EB6C
 10
420.491
 20
1174.05
 30
0.000000
  70
    32
  0
VERTEX
  8
0
  5
EB6D
 10
420.408
 20
1173.93
 30
0.000000
  70
    32
  0
VERTEX
  8
0
  5
EB6E
 10
420.328
 20
1173.80
 30
0.000000
  70
    32
  0
VERTEX
  8
0
  5
EB6F
 10
420.251
 20
1173.68
 30
0.000000
  70
    32
  0
VERTEX
  8
0
  5
EB70
 10
420.176
 20
1173.55
 30
0.000000
  70
    32
  0
VERTEX
  8
0
  5
EB71
 10
420.104
 20
1173.43
 30
0.000000
  70
    32
  0
VERTEX
  8
0
  5
EB72
 10
420.035
 20
1173.30
 30
0.000000
  70
    32
  0
VERTEX
  8
0
  5
EB73
 10
419.968
 20
1173.18
 30
0.000000
  70
    32
  0
VERTEX
  8
0
  5
EB74
 10
419.903
 20
1173.05
 30
0.000000
  70
    32
  0
VERTEX
  8
0
  5
EB75
 10
419.842
 20
1172.92
 30
0.000000
  70
    32
  0
VERTEX
  8
0
  5
EB76
 10
419.783
 20
1172.79
 30
0.000000
  70
    32
  0
VERTEX
  8
0
  5
EB77
 10
419.727
 20
1172.66
 30
0.000000
  70
    32
  0
VERTEX
  8
0
  5
EB78
 10
419.673
 20
1172.54
 30
0.000000
  70
    32
  0
VERTEX
  8
0
  5
EB79
 10
419.622
 20
1172.41
 30
0.000000
  70
    32
  0
VERTEX
  8
0
  5
EB7A
 10
419.574
 20
1172.28
 30
0.000000
  70
    32
  0
VERTEX
  8
0
  5
EB7B
 10
419.529
 20
1172.15
 30
0.000000
  70
    32
  0
VERTEX
  8
0
  5
EB7C
 10
419.486
 20
1172.02
 30
0.000000
  70
    32
  0
VERTEX
  8
0
  5
EB7D
 10
419.446
 20
1171.89
 30
0.000000
  70
    32
  0
VERTEX
  8
0
  5
EB7E
 10
419.409
 20
1171.76
 30
0.000000
  70
    32
  0
VERTEX
  8
0
  5
EB7F
 10
419.374
 20
1171.62
 30
0.000000
  70
    32
  0
VERTEX
  8
0
  5
EB80
 10
419.342
 20
1171.49
 30
0.000000
  70
    32
  0
VERTEX
  8
0
  5
EB81
 10
419.313
 20
1171.36
 30
0.000000
  70
    32
  0
VERTEX
  8
0
  5
EB82
 10
419.287
 20
1171.23
 30
0.000000
  70
    32
  0
VERTEX
  8
0
  5
EB83
 10
419.264
 20
1171.10
 30
0.000000
  70
    32
  0
VERTEX
  8
0
  5
EB84
 10
419.243
 20
1170.97
 30
0.000000
  70
    32
  0
VERTEX
  8
0
  5
EB85
 10
419.225
 20
1170.83
 30
0.000000
  70
    32
  0
VERTEX
  8
0
  5
EB86
 10
419.210
 20
1170.70
 30
0.000000
  70
    32
  0
VERTEX
  8
0
  5
EB87
 10
419.197
 20
1170.57
 30
0.000000
  70
    32
  0
VERTEX
  8
0
  5
EB88
 10
419.187
 20
1170.44
 30
0.000000
  70
    32
  0
VERTEX
  8
0
  5
EB89
 10
419.181
 20
1170.30
 30
0.000000
  70
    32
  0
VERTEX
  8
0
  5
EB8A
 10
419.176
 20
1170.17
 30
0.000000
  70
    32
  0
VERTEX
  8
0
  5
EB8B
 10
419.175
 20
1170.04
 30
0.000000
  70
    32
  0
SEQEND
  8
0
  5
EB8C
  0
POLYLINE
  5
E30C
  8
0
 62
     0
 10
437.58299783696128
 20
1177.0388387719545
 30
0.0
 66
     1
 70
     8
  0
VERTEX
  8
0
  5
EB8D
 10
437.583
 20
1177.04
 30
0.000000
  70
    32
  0
VERTEX
  8
0
  5
EB8E
 10
437.357
 20
1177.04
 30
0.000000
  70
    32
  0
VERTEX
  8
0
  5
EB8F
 10
437.131
 20
1177.04
 30
0.000000
  70
    32
  0
VERTEX
  8
0
  5
EB90
 10
436.905
 20
1177.03
 30
0.000000
  70
    32
  0
VERTEX
  8
0
  5
EB91
 10
436.680
 20
1177.03
 30
0.000000
  70
    32
  0
VERTEX
  8
0
  5
EB92
 10
436.454
 20
1177.02
 30
0.000000
  70
    32
  0
VERTEX
  8
0
  5
EB93
 10
436.229
 20
1177.01
 30
0.000000
  70
    32
  0
VERTEX
  8
0
  5
EB94
 10
436.003
 20
1177.00
 30
0.000000
  70
    32
  0
VERTEX
  8
0
  5
EB95
 10
435.778
 20
1176.99
 30
0.000000
  70
    32
  0
VERTEX
  8
0
  5
EB96
 10
435.554
 20
1176.98
 30
0.000000
  70
    32
  0
VERTEX
  8
0
  5
EB97
 10
435.329
 20
1176.97
 30
0.000000
  70
    32
  0
VERTEX
  8
0
  5
EB98
 10
435.105
 20
1176.95
 30
0.000000
  70
    32
  0
VERTEX
  8
0
  5
EB99
 10
434.881
 20
1176.94
 30
0.000000
  70
    32
  0
VERTEX
  8
0
  5
EB9A
 10
434.658
 20
1176.92
 30
0.000000
  70
    32
  0
VERTEX
  8
0
  5
EB9B
 10
434.435
 20
1176.90
 30
0.000000
  70
    32
  0
VERTEX
  8
0
  5
EB9C
 10
434.213
 20
1176.88
 30
0.000000
  70
    32
  0
VERTEX
  8
0
  5
EB9D
 10
433.991
 20
1176.86
 30
0.000000
  70
    32
  0
VERTEX
  8
0
  5
EB9E
 10
433.770
 20
1176.83
 30
0.000000
  70
    32
  0
VERTEX
  8
0
  5
EB9F
 10
433.549
 20
1176.81
 30
0.000000
  70
    32
  0
VERTEX
  8
0
  5
EBA0
 10
433.329
 20
1176.78
 30
0.000000
  70
    32
  0
VERTEX
  8
0
  5
EBA1
 10
433.109
 20
1176.75
 30
0.000000
  70
    32
  0
VERTEX
  8
0
  5
EBA2
 10
432.890
 20
1176.72
 30
0.000000
  70
    32
  0
VERTEX
  8
0
  5
EBA3
 10
432.672
 20
1176.69
 30
0.000000
  70
    32
  0
VERTEX
  8
0
  5
EBA4
 10
432.455
 20
1176.66
 30
0.000000
  70
    32
  0
VERTEX
  8
0
  5
EBA5
 10
432.238
 20
1176.63
 30
0.000000
  70
    32
  0
VERTEX
  8
0
  5
EBA6
 10
432.022
 20
1176.59
 30
0.000000
  70
    32
  0
VERTEX
  8
0
  5
EBA7
 10
431.807
 20
1176.56
 30
0.000000
  70
    32
  0
VERTEX
  8
0
  5
EBA8
 10
431.593
 20
1176.52
 30
0.000000
  70
    32
  0
VERTEX
  8
0
  5
EBA9
 10
431.380
 20
1176.48
 30
0.000000
  70
    32
  0
VERTEX
  8
0
  5
EBAA
 10
431.168
 20
1176.44
 30
0.000000
  70
    32
  0
VERTEX
  8
0
  5
EBAB
 10
430.957
 20
1176.40
 30
0.000000
  70
    32
  0
VERTEX
  8
0
  5
EBAC
 10
430.746
 20
1176.36
 30
0.000000
  70
    32
  0
VERTEX
  8
0
  5
EBAD
 10
430.537
 20
1176.31
 30
0.000000
  70
    32
  0
VERTEX
  8
0
  5
EBAE
 10
430.329
 20
1176.27
 30
0.000000
  70
    32
  0
VERTEX
  8
0
  5
EBAF
 10
430.122
 20
1176.22
 30
0.000000
  70
    32
  0
VERTEX
  8
0
  5
EBB0
 10
429.916
 20
1176.17
 30
0.000000
  70
    32
  0
VERTEX
  8
0
  5
EBB1
 10
429.711
 20
1176.12
 30
0.000000
  70
    32
  0
VERTEX
  8
0
  5
EBB2
 10
429.507
 20
1176.07
 30
0.000000
  70
    32
  0
VERTEX
  8
0
  5
EBB3
 10
429.305
 20
1176.02
 30
0.000000
  70
    32
  0
VERTEX
  8
0
  5
EBB4
 10
429.103
 20
1175.97
 30
0.000000
  70
    32
  0
VERTEX
  8
0
  5
EBB5
 10
428.904
 20
1175.91
 30
0.000000
  70
    32
  0
VERTEX
  8
0
  5
EBB6
 10
428.705
 20
1175.86
 30
0.000000
  70
    32
  0
VERTEX
  8
0
  5
EBB7
 10
428.508
 20
1175.80
 30
0.000000
  70
    32
  0
VERTEX
  8
0
  5
EBB8
 10
428.312
 20
1175.74
 30
0.000000
  70
    32
  0
VERTEX
  8
0
  5
EBB9
 10
428.117
 20
1175.68
 30
0.000000
  70
    32
  0
VERTEX
  8
0
  5
EBBA
 10
427.924
 20
1175.62
 30
0.000000
  70
    32
  0
VERTEX
  8
0
  5
EBBB
 10
427.732
 20
1175.56
 30
0.000000
  70
    32
  0
VERTEX
  8
0
  5
EBBC
 10
427.542
 20
1175.49
 30
0.000000
  70
    32
  0
VERTEX
  8
0
  5
EBBD
 10
427.354
 20
1175.43
 30
0.000000
  70
    32
  0
VERTEX
  8
0
  5
EBBE
 10
427.167
 20
1175.36
 30
0.000000
  70
    32
  0
VERTEX
  8
0
  5
EBBF
 10
426.981
 20
1175.30
 30
0.000000
  70
    32
  0
VERTEX
  8
0
  5
EBC0
 10
426.797
 20
1175.23
 30
0.000000
  70
    32
  0
VERTEX
  8
0
  5
EBC1
 10
426.615
 20
1175.16
 30
0.000000
  70
    32
  0
VERTEX
  8
0
  5
EBC2
 10
426.434
 20
1175.09
 30
0.000000
  70
    32
  0
VERTEX
  8
0
  5
EBC3
 10
426.255
 20
1175.02
 30
0.000000
  70
    32
  0
VERTEX
  8
0
  5
EBC4
 10
426.078
 20
1174.95
 30
0.000000
  70
    32
  0
VERTEX
  8
0
  5
EBC5
 10
425.902
 20
1174.87
 30
0.000000
  70
    32
  0
VERTEX
  8
0
  5
EBC6
 10
425.729
 20
1174.80
 30
0.000000
  70
    32
  0
VERTEX
  8
0
  5
EBC7
 10
425.557
 20
1174.72
 30
0.000000
  70
    32
  0
VERTEX
  8
0
  5
EBC8
 10
425.386
 20
1174.64
 30
0.000000
  70
    32
  0
VERTEX
  8
0
  5
EBC9
 10
425.218
 20
1174.57
 30
0.000000
  70
    32
  0
VERTEX
  8
0
  5
EBCA
 10
425.052
 20
1174.49
 30
0.000000
  70
    32
  0
VERTEX
  8
0
  5
EBCB
 10
424.887
 20
1174.41
 30
0.000000
  70
    32
  0
VERTEX
  8
0
  5
EBCC
 10
424.724
 20
1174.33
 30
0.000000
  70
    32
  0
VERTEX
  8
0
  5
EBCD
 10
424.563
 20
1174.24
 30
0.000000
  70
    32
  0
VERTEX
  8
0
  5
EBCE
 10
424.405
 20
1174.16
 30
0.000000
  70
    32
  0
VERTEX
  8
0
  5
EBCF
 10
424.248
 20
1174.08
 30
0.000000
  70
    32
  0
VERTEX
  8
0
  5
EBD0
 10
424.093
 20
1173.99
 30
0.000000
  70
    32
  0
VERTEX
  8
0
  5
EBD1
 10
423.940
 20
1173.90
 30
0.000000
  70
    32
  0
VERTEX
  8
0
  5
EBD2
 10
423.790
 20
1173.82
 30
0.000000
  70
    32
  0
VERTEX
  8
0
  5
EBD3
 10
423.641
 20
1173.73
 30
0.000000
  70
    32
  0
VERTEX
  8
0
  5
EBD4
 10
423.494
 20
1173.64
 30
0.000000
  70
    32
  0
VERTEX
  8
0
  5
EBD5
 10
423.350
 20
1173.55
 30
0.000000
  70
    32
  0
VERTEX
  8
0
  5
EBD6
 10
423.208
 20
1173.46
 30
0.000000
  70
    32
  0
VERTEX
  8
0
  5
EBD7
 10
423.068
 20
1173.37
 30
0.000000
  70
    32
  0
VERTEX
  8
0
  5
EBD8
 10
422.930
 20
1173.27
 30
0.000000
  70
    32
  0
VERTEX
  8
0
  5
EBD9
 10
422.794
 20
1173.18
 30
0.000000
  70
    32
  0
VERTEX
  8
0
  5
EBDA
 10
422.661
 20
1173.09
 30
0.000000
  70
    32
  0
VERTEX
  8
0
  5
EBDB
 10
422.529
 20
1172.99
 30
0.000000
  70
    32
  0
VERTEX
  8
0
  5
EBDC
 10
422.400
 20
1172.89
 30
0.000000
  70
    32
  0
VERTEX
  8
0
  5
EBDD
 10
422.274
 20
1172.80
 30
0.000000
  70
    32
  0
VERTEX
  8
0
  5
EBDE
 10
422.149
 20
1172.70
 30
0.000000
  70
    32
  0
VERTEX
  8
0
  5
EBDF
 10
422.027
 20
1172.60
 30
0.000000
  70
    32
  0
VERTEX
  8
0
  5
EBE0
 10
421.907
 20
1172.50
 30
0.000000
  70
    32
  0
VERTEX
  8
0
  5
EBE1
 10
421.790
 20
1172.40
 30
0.000000
  70
    32
  0
VERTEX
  8
0
  5
EBE2
 10
421.675
 20
1172.30
 30
0.000000
  70
    32
  0
VERTEX
  8
0
  5
EBE3
 10
421.563
 20
1172.20
 30
0.000000
  70
    32
  0
VERTEX
  8
0
  5
EBE4
 10
421.452
 20
1172.10
 30
0.000000
  70
    32
  0
VERTEX
  8
0
  5
EBE5
 10
421.345
 20
1171.99
 30
0.000000
  70
    32
  0
VERTEX
  8
0
  5
EBE6
 10
421.239
 20
1171.89
 30
0.000000
  70
    32
  0
VERTEX
  8
0
  5
EBE7
 10
421.137
 20
1171.79
 30
0.000000
  70
    32
  0
VERTEX
  8
0
  5
EBE8
 10
421.036
 20
1171.68
 30
0.000000
  70
    32
  0
VERTEX
  8
0
  5
EBE9
 10
420.938
 20
1171.58
 30
0.000000
  70
    32
  0
VERTEX
  8
0
  5
EBEA
 10
420.843
 20
1171.47
 30
0.000000
  70
    32
  0
VERTEX
  8
0
  5
EBEB
 10
420.750
 20
1171.36
 30
0.000000
  70
    32
  0
VERTEX
  8
0
  5
EBEC
 10
420.660
 20
1171.25
 30
0.000000
  70
    32
  0
VERTEX
  8
0
  5
EBED
 10
420.572
 20
1171.15
 30
0.000000
  70
    32
  0
VERTEX
  8
0
  5
EBEE
 10
420.487
 20
1171.04
 30
0.000000
  70
    32
  0
VERTEX
  8
0
  5
EBEF
 10
420.404
 20
1170.93
 30
0.000000
  70
    32
  0
VERTEX
  8
0
  5
EBF0
 10
420.324
 20
1170.82
 30
0.000000
  70
    32
  0
VERTEX
  8
0
  5
EBF1
 10
420.247
 20
1170.71
 30
0.000000
  70
    32
  0
VERTEX
  8
0
  5
EBF2
 10
420.172
 20
1170.60
 30
0.000000
  70
    32
  0
VERTEX
  8
0
  5
EBF3
 10
420.100
 20
1170.49
 30
0.000000
  70
    32
  0
VERTEX
  8
0
  5
EBF4
 10
420.030
 20
1170.38
 30
0.000000
  70
    32
  0
VERTEX
  8
0
  5
EBF5
 10
419.963
 20
1170.26
 30
0.000000
  70
    32
  0
VERTEX
  8
0
  5
EBF6
 10
419.899
 20
1170.15
 30
0.000000
  70
    32
  0
VERTEX
  8
0
  5
EBF7
 10
419.837
 20
1170.04
 30
0.000000
  70
    32
  0
VERTEX
  8
0
  5
EBF8
 10
419.778
 20
1169.93
 30
0.000000
  70
    32
  0
VERTEX
  8
0
  5
EBF9
 10
419.722
 20
1169.81
 30
0.000000
  70
    32
  0
VERTEX
  8
0
  5
EBFA
 10
419.669
 20
1169.70
 30
0.000000
  70
    32
  0
VERTEX
  8
0
  5
EBFB
 10
419.618
 20
1169.59
 30
0.000000
  70
    32
  0
VERTEX
  8
0
  5
EBFC
 10
419.570
 20
1169.47
 30
0.000000
  70
    32
  0
VERTEX
  8
0
  5
EBFD
 10
419.524
 20
1169.36
 30
0.000000
  70
    32
  0
VERTEX
  8
0
  5
EBFE
 10
419.481
 20
1169.24
 30
0.000000
  70
    32
  0
VERTEX
  8
0
  5
EBFF
 10
419.441
 20
1169.13
 30
0.000000
  70
    32
  0
VERTEX
  8
0
  5
EC00
 10
419.404
 20
1169.01
 30
0.000000
  70
    32
  0
VERTEX
  8
0
  5
EC01
 10
419.370
 20
1168.89
 30
0.000000
  70
    32
  0
VERTEX
  8
0
  5
EC02
 10
419.338
 20
1168.78
 30
0.000000
  70
    32
  0
VERTEX
  8
0
  5
EC03
 10
419.309
 20
1168.66
 30
0.000000
  70
    32
  0
VERTEX
  8
0
  5
EC04
 10
419.283
 20
1168.55
 30
0.000000
  70
    32
  0
VERTEX
  8
0
  5
EC05
 10
419.259
 20
1168.43
 30
0.000000
  70
    32
  0
VERTEX
  8
0
  5
EC06
 10
419.238
 20
1168.31
 30
0.000000
  70
    32
  0
VERTEX
  8
0
  5
EC07
 10
419.220
 20
1168.20
 30
0.000000
  70
    32
  0
VERTEX
  8
0
  5
EC08
 10
419.205
 20
1168.08
 30
0.000000
  70
    32
  0
VERTEX
  8
0
  5
EC09
 10
419.193
 20
1167.96
 30
0.000000
  70
    32
  0
VERTEX
  8
0
  5
EC0A
 10
419.183
 20
1167.85
 30
0.000000
  70
    32
  0
VERTEX
  8
0
  5
EC0B
 10
419.176
 20
1167.73
 30
0.000000
  70
    32
  0
VERTEX
  8
0
  5
EC0C
 10
419.172
 20
1167.61
 30
0.000000
  70
    32
  0
VERTEX
  8
0
  5
EC0D
 10
419.170
 20
1167.49
 30
0.000000
  70
    32
  0
SEQEND
  8
0
  5
EC0E
  0
LINE
  5
E30D
  8
0
 62
     0
 10
513.06000283696096
 20
1114.4588617289951
 30
0.0
 11
437.10599283696132
 21
1114.4588617289951
 31
0.0
  0
LINE
  5
E30E
  8
0
 62
     0
 10
512.58299783696111
 20
1177.0388477289951
 30
0.0
 11
437.58299783696128
 21
1177.0388477289951
 31
0.0
  0
LINE
  5
E30F
  8
0
 62
     0
 10
512.58299783696111
 20
1180.842864728995
 30
0.0
 11
437.58299783696128
 21
1180.842864728995
 31
0.0
  0
LINE
  5
E310
  8
0
 62
     0
 10
475.08299783696128
 20
1180.842864728995
 30
0.0
 11
475.55899583696089
 21
1180.842864728995
 31
0.0
  0
LINE
  5
E311
  8
0
 62
     0
 10
429.08299783696128
 20
1182.501865728995
 30
0.0
 11
521.0824938369617
 21
1182.501865728995
 31
0.0
  0
LINE
  5
E312
  8
0
 62
     0
 10
426.58299783696123
 20
1162.5388477289951
 30
0.0
 11
426.58299783696123
 21
1126.632877728995
 31
0.0
  0
LINE
  5
E313
  8
0
 62
     0
 10
429.08299783696128
 20
1181.001865728995
 30
0.0
 11
429.08299783696128
 21
1182.501865728995
 31
0.0
  0
LINE
  5
E314
  8
0
 62
     0
 10
419.17498383696159
 20
1170.038859728995
 30
0.0
 11
419.15697883696077
 21
1160.2548797289951
 31
0.0
  0
LINE
  5
E315
  8
0
 62
     0
 10
419.10797283696132
 20
1133.378878728995
 30
0.0
 11
419.10597383696148
 21
1132.458897728995
 31
0.0
  0
LINE
  5
E316
  8
0
  6
AM_ISO08W050
 62
     0
 10
420.08299783696123
 20
1141.7638547289951
 30
0.0
 11
420.08299783696123
 21
1154.248869728995
 31
0.0
  0
LINE
  5
E317
  8
0
  6
AM_ISO08W050
 62
     0
 10
414.6269888369618
 20
1147.686858728995
 30
0.0
 11
425.35999083696078
 21
1147.686858728995
 31
0.0
  0
LINE
  5
E318
  8
0
 62
     0
 10
475.08299783696128
 20
1180.842864728995
 30
0.0
 11
474.60599283696132
 21
1180.842864728995
 31
0.0
  0
LINE
  5
E319
  8
0
 62
     0
 10
436.58299783696123
 20
1149.452849728995
 30
0.0
 11
513.58299783696134
 21
1149.452849728995
 31
0.0
  0
LINE
  5
E31A
  8
0
 62
     0
 10
513.58299783696134
 20
1172.5388477289951
 30
0.0
 11
436.58299783696123
 21
1172.5388477289951
 31
0.0
  0
LINE
  5
E31B
  8
0
 62
     0
 10
410.08299783696123
 20
1148.4091457289951
 30
0.0
 11
410.08299783696123
 21
1152.157041728995
 31
0.0
  0
LINE
  5
E31C
  8
0
 62
     0
 10
412.23641583696099
 20
1155.5860817289949
 30
0.0
 11
414.2061578369611
 21
1156.703168728995
 31
0.0
  0
ARC
  5
E31D
  8
0
 62
     0
 10
436.58299783696123
 20
1126.632877728995
 30
0.0
 40
10.0
 50
179.99998200000081
 51
269.99996399997548
  0
ARC
  5
E31E
  8
0
 62
     0
 10
437.10599283696132
 20
1132.4588617289951
 30
0.0
 40
18.0
 50
179.99998200000081
 51
270.0
  0
ARC
  5
E31F
  8
0
 62
     0
 10
436.58299783696123
 20
1162.5388477289951
 30
0.0
 40
10.0
 50
90.0
 51
179.99998200000081
  0
ARC
  5
E320
  8
0
 62
     0
 10
436.58299783696123
 20
1139.452849728995
 30
0.0
 40
10.0
 50
90.0
 51
179.99998200000081
  0
ARC
  5
E321
  8
0
 62
     0
 10
410.15698783696109
 20
1160.2708427289949
 30
0.0
 40
9.0
 50
296.73468799997107
 51
359.89604200000917
  0
ARC
  5
E322
  8
0
 62
     0
 10
410.10799183696167
 20
1133.3958427289949
 30
0.0
 40
9.0
 50
359.89604200000917
 51
62.022939999986953
  0
ARC
  5
E323
  8
0
 62
     0
 10
410.15698783696109
 20
1164.7408437289951
 30
0.0
 40
9.0
 50
296.73776600000622
 51
359.89604200000917
  0
LINE
  5
E324
  8
0
 62
     0
 10
607.58297683696117
 20
1199.5018527289949
 30
0.0
 11
600.6327638369612
 21
1199.4532007289949
 31
0.0
  0
ARC
  5
E325
  8
0
 62
     0
 10
594.2432758369614
 20
1196.501865728995
 30
0.0
 40
10.0
 50
269.99999700001541
 51
299.99999800001649
  0
ARC
  5
E326
  8
0
 62
     0
 10
607.082997836961
 20
1197.998325728995
 30
0.0
 40
1.5
 50
90.401064000021776
 51
180.0000050000005
  0
ARC
  5
E327
  8
0
 62
     0
 10
603.58299783696111
 20
1192.656528728995
 30
0.0
 40
2.0
 50
299.99999800001649
 51
0.0
  0
LINE
  5
E328
  8
0
 62
     0
 10
604.58299883696134
 20
1190.9245027289951
 30
0.0
 11
599.24328483696104
 21
1187.8416167289949
 31
0.0
  0
LINE
  5
E329
  8
0
 62
     0
 10
605.58299783696134
 20
1192.656528728995
 30
0.0
 11
605.58299783696134
 21
1197.998325728995
 31
0.0
  0
LINE
  5
E32A
  8
0
 62
     0
 10
522.15477483696122
 20
1186.501865728995
 30
0.0
 11
594.2432758369614
 21
1186.501865728995
 31
0.0
  0
LINE
  5
E32B
  8
0
 62
     0
 10
521.08303183696103
 20
1182.501863728995
 30
0.0
 11
523.86097683696175
 21
1192.869295728995
 31
0.0
  0
ARC
  5
E32C
  8
0
 62
     0
 10
425.30730183696153
 20
1185.001865728995
 30
0.0
 40
3.0
 50
14.999999999994451
 51
90.000002999984659
  0
ARC
  5
E32D
  8
0
 62
     0
 10
378.84129883696107
 20
1193.001865728995
 30
0.0
 40
5.0
 50
239.99999700002189
 51
269.99999700001541
  0
LINE
  5
E32E
  8
0
 62
     0
 10
429.0829868369612
 20
1182.5019137289951
 30
0.0
 11
428.20506483696153
 21
1185.7783617289949
 31
0.0
  0
LINE
  5
E32F
  8
0
 62
     0
 10
378.84129883696107
 20
1188.001865728995
 30
0.0
 11
425.30730183696153
 21
1188.001865728995
 31
0.0
  0
LINE
  5
E330
  8
0
 62
     0
 10
369.07096483696142
 20
1192.869295728995
 30
0.0
 11
376.34133983696148
 21
1188.671742728995
 31
0.0
  0
LINE
  5
E332
  8
0
 62
     0
 10
593.54448483696171
 20
1244.913000728995
 30
0.0
 11
607.58299783696111
 21
1244.913000728995
 31
0.0
  0
LINE
  5
E333
  8
0
 62
     0
 10
605.58305883696107
 20
1215.299718728995
 30
0.0
 11
589.38829583696145
 21
1212.461339728995
 31
0.0
  0
LINE
  5
E334
  8
0
 62
     0
 10
589.38835683696107
 20
1229.020421728995
 30
0.0
 11
605.58305883696107
 21
1232.051671728995
 31
0.0
  0
LINE
  5
E335
  8
0
 62
     0
 10
605.58305883696107
 20
1248.8004517289951
 30
0.0
 11
589.38829583696145
 21
1243.5709597289949
 31
0.0
  0
LINE
  5
E336
  8
0
 62
     0
 10
605.58305883696107
 20
1264.7355097289951
 30
0.0
 11
589.38829583696145
 21
1261.7295287289951
 31
0.0
  0
LINE
  5
E337
  8
0
 62
     0
 10
605.58305883696107
 20
1280.108800728995
 30
0.0
 11
589.38829583696145
 21
1278.3789427289951
 31
0.0
  0
LINE
  5
E338
  8
0
 62
     0
 10
605.58305883696107
 20
1297.322668728995
 30
0.0
 11
589.38829583696145
 21
1296.0914667289951
 31
0.0
  0
LINE
  5
E339
  8
0
 62
     0
 10
593.54448483696171
 20
1384.0907347289949
 30
0.0
 11
607.58299783696111
 21
1384.0907347289949
 31
0.0
  0
LINE
  5
E33A
  8
0
 62
     0
 10
605.58305883696107
 20
1331.6810667289949
 30
0.0
 11
589.38829583696145
 21
1332.9122677289949
 31
0.0
  0
LINE
  5
E33B
  8
0
 62
     0
 10
605.58305883696107
 20
1348.8949337289951
 30
0.0
 11
589.38829583696145
 21
1350.6247927289951
 31
0.0
  0
LINE
  5
E33C
  8
0
 62
     0
 10
605.58305883696107
 20
1364.2682247289949
 30
0.0
 11
589.38829583696145
 21
1367.2742067289951
 31
0.0
  0
LINE
  5
E33D
  8
0
 62
     0
 10
605.58305883696107
 20
1380.2032837289951
 30
0.0
 11
589.38829583696145
 21
1385.432775728995
 31
0.0
  0
LINE
  5
E33E
  8
0
 62
     0
 10
589.38835683696107
 20
1399.9833127289951
 30
0.0
 11
605.58305883696107
 21
1396.9520627289951
 31
0.0
  0
LINE
  5
E33F
  8
0
 62
     0
 10
605.58305883696107
 20
1413.704015728995
 30
0.0
 11
589.38829583696145
 21
1416.5423947289951
 31
0.0
  0
LINE
  5
E340
  8
0
 62
     0
 10
605.58305883696107
 20
1418.539953728995
 30
0.0
 11
589.38829583696145
 21
1427.392003728995
 31
0.0
  0
LINE
  5
E341
  8
0
 62
     0
 10
605.58305883696107
 20
1426.6520137289949
 30
0.0
 11
589.38829583696145
 21
1436.134435728995
 31
0.0
  0
LINE
  5
E342
  8
0
 62
     0
 10
605.58305883696107
 20
1432.7062127289951
 30
0.0
 11
589.38829583696145
 21
1442.3472047289949
 31
0.0
  0
LINE
  5
E343
  8
0
 62
     0
 10
605.58305883696107
 20
1436.2775027289949
 30
0.0
 11
589.38829583696145
 21
1446.207555728995
 31
0.0
  0
LINE
  5
E344
  8
0
 62
     0
 10
363.08301883696112
 20
1446.207555728995
 30
0.0
 11
589.38817383696119
 21
1446.207555728995
 31
0.0
  0
LINE
  5
E345
  8
0
 62
     0
 10
363.08301883696112
 20
1442.3472047289949
 30
0.0
 11
589.38829583696145
 21
1442.3472047289949
 31
0.0
  0
LINE
  5
E346
  8
0
 62
     0
 10
363.08301883696112
 20
1436.134435728995
 30
0.0
 11
589.38835683696107
 21
1436.134435728995
 31
0.0
  0
LINE
  5
E347
  8
0
 62
     0
 10
363.08301883696112
 20
1427.392003728995
 30
0.0
 11
589.38835683696107
 21
1427.392003728995
 31
0.0
  0
LINE
  5
E348
  8
0
 62
     0
 10
363.08301883696112
 20
1416.5421357289949
 30
0.0
 11
589.38780783696075
 21
1416.5423947289951
 31
0.0
  0
LINE
  5
E349
  8
0
 62
     0
 10
363.08301883696112
 20
1399.9833127289951
 30
0.0
 11
589.38805183696149
 21
1399.9833127289951
 31
0.0
  0
LINE
  5
E34A
  8
0
 62
     0
 10
363.08301883696112
 20
1385.432775728995
 30
0.0
 11
589.38835683696107
 21
1385.432775728995
 31
0.0
  0
LINE
  5
E34B
  8
0
 62
     0
 10
363.08301883696112
 20
1367.2740847289949
 30
0.0
 11
589.38847883696133
 21
1367.2740847289949
 31
0.0
  0
LINE
  5
E34C
  8
0
 62
     0
 10
363.08301883696112
 20
1350.6256257289949
 30
0.0
 11
589.38823483696194
 21
1350.6247927289951
 31
0.0
  0
LINE
  5
E34D
  8
0
 62
     0
 10
363.08301883696112
 20
1332.9122677289949
 30
0.0
 11
589.388966836961
 21
1332.9122677289949
 31
0.0
  0
LINE
  5
E34F
  8
0
 62
     0
 10
363.08301883696112
 20
1229.020421728995
 30
0.0
 11
589.38805183696149
 21
1229.020421728995
 31
0.0
  0
LINE
  5
E350
  8
0
 62
     0
 10
363.08301883696112
 20
1243.5709597289949
 30
0.0
 11
589.38835683696107
 21
1243.5709597289949
 31
0.0
  0
LINE
  5
E351
  8
0
 62
     0
 10
363.08301883696112
 20
1261.729650728995
 30
0.0
 11
589.38847883696133
 21
1261.729650728995
 31
0.0
  0
LINE
  5
E352
  8
0
 62
     0
 10
363.08301883696112
 20
1278.378109728995
 30
0.0
 11
589.38823483696194
 21
1278.3789427289951
 31
0.0
  0
LINE
  5
E353
  8
0
 62
     0
 10
363.08301883696112
 20
1296.0914667289951
 30
0.0
 11
589.388966836961
 21
1296.0914667289951
 31
0.0
  0
CIRCLE
  5
E354
  8
0
 62
     0
 10
475.08299783696128
 20
1314.501812728995
 30
0.0
 40
11.5
  0
LINE
  5
E355
  8
0
 62
     0
 10
363.08301883696112
 20
1212.4615987289951
 30
0.0
 11
589.38829583696145
 21
1212.461339728995
 31
0.0
  0
LINE
  5
E356
  8
0
 62
     0
 10
605.58305883696107
 20
1413.704015728995
 30
0.0
 11
605.58305883696107
 21
1437.5718127289949
 31
0.0
  0
LINE
  5
E357
  8
0
 62
     0
 10
605.58318083696133
 20
1396.951818728995
 30
0.0
 11
607.58299783696111
 21
1396.951818728995
 31
0.0
  0
LINE
  5
E358
  8
0
 62
     0
 10
605.58305883696107
 20
1360.9547487289949
 30
0.0
 11
605.5831198369608
 21
1364.2682247289949
 31
0.0
  0
LINE
  5
E359
  8
0
 62
     0
 10
605.5831198369608
 20
1375.6958367289949
 30
0.0
 11
605.58305883696107
 21
1380.2032837289951
 31
0.0
  0
LINE
  5
E35A
  8
0
 62
     0
 10
605.58305883696107
 20
1348.8949337289951
 30
0.0
 11
605.58305883696107
 21
1345.9737917289949
 31
0.0
  0
LINE
  5
E35B
  8
0
 62
     0
 10
605.58305883696107
 20
1331.6810667289949
 30
0.0
 11
605.58305883696107
 21
1330.6791137289949
 31
0.0
  0
LINE
  5
E35C
  8
0
 62
     0
 10
605.58318083696133
 20
1232.0519167289949
 30
0.0
 11
607.58299783696111
 21
1232.0519167289949
 31
0.0
  0
LINE
  5
E35D
  8
0
 62
     0
 10
605.5831198369608
 20
1253.3078977289949
 30
0.0
 11
605.58305883696107
 21
1248.8004517289951
 31
0.0
  0
LINE
  5
E35E
  8
0
 62
     0
 10
605.58305883696107
 20
1268.048986728995
 30
0.0
 11
605.5831198369608
 21
1264.7355097289951
 31
0.0
  0
LINE
  5
E35F
  8
0
 62
     0
 10
605.58305883696107
 20
1280.108800728995
 30
0.0
 11
605.58305883696107
 21
1283.029943728995
 31
0.0
  0
LINE
  5
E360
  8
0
 62
     0
 10
605.58305883696107
 20
1297.322668728995
 30
0.0
 11
605.58305883696107
 21
1298.324621728995
 31
0.0
  0
LINE
  5
E361
  8
0
 62
     0
 10
605.58305883696107
 20
1210.463777728995
 30
0.0
 11
589.38829583696145
 21
1201.611727728995
 31
0.0
  0
LINE
  5
E362
  8
0
 62
     0
 10
363.08301883696112
 20
1201.611727728995
 30
0.0
 11
589.38835683696107
 21
1201.611727728995
 31
0.0
  0
LINE
  5
E363
  8
0
 62
     0
 10
605.58305883696107
 20
1215.299718728995
 30
0.0
 11
605.58305883696107
 21
1202.351717728995
 31
0.0
  0
LINE
  5
E364
  8
0
 62
     0
 10
605.58305883696107
 20
1202.351717728995
 30
0.0
 11
589.38829583696145
 21
1192.869295728995
 31
0.0
  0
LINE
  5
E365
  8
0
 62
     0
 10
363.08301883696112
 20
1192.869295728995
 30
0.0
 11
589.38835683696107
 21
1192.869295728995
 31
0.0
  0
LINE
  5
E366
  8
0
 62
     0
 10
607.58299783696111
 20
1431.501865728995
 30
0.0
 11
607.58299783696111
 21
1197.501925728996
 31
0.0
  0
LINE
  5
E4E7
  8
0
  6
CONTINUOUS
 62
     7
 10
712.58298783696102
 20
1449.501865728995
 30
0.0
 11
676.08298783696114
 21
1449.501865728995
 31
0.0
  0
LINE
  5
E4E8
  8
0
  6
CONTINUOUS
 62
     7
 10
676.08298783696114
 20
1179.5018657289961
 30
0.0
 11
712.58298783696102
 21
1179.5018657289961
 31
0.0
  0
LINE
  5
E4E9
  8
0
  6
CONTINUOUS
 62
     7
 10
666.08298783696114
 20
1439.501865728995
 30
0.0
 11
666.08298783696114
 21
1189.5018657289961
 31
0.0
  0
LINE
  5
E4EA
  8
0
  6
CONTINUOUS
 62
     7
 10
719.58298783696102
 20
1466.932665728996
 30
0.0
 11
732.58299783696111
 21
1466.932665728996
 31
0.0
  0
LINE
  5
E4EB
  8
0
  6
CENTER
 62
     0
 10
710.58298783696102
 20
1336.0608657289961
 30
0.0
 11
710.58298783696102
 21
1293.273465728995
 31
0.0
  0
LINE
  5
E4EC
  8
0
  6
CONTINUOUS
 62
     7
 10
686.83298783696193
 20
1308.2518657289961
 30
0.0
 11
734.332997836961
 21
1308.2518657289961
 31
0.0
  0
LINE
  5
E4ED
  8
0
  6
CONTINUOUS
 62
     7
 10
686.83298783696193
 20
1320.7518657289961
 30
0.0
 11
734.332997836961
 21
1320.7518657289961
 31
0.0
  0
LINE
  5
E4EE
  8
0
  6
CONTINUOUS
 62
     7
 10
732.58299783696111
 20
1503.5018657289961
 30
0.0
 11
732.58299783696111
 21
1320.7518657289961
 31
0.0
  0
LINE
  5
E4EF
  8
0
  6
CONTINUOUS
 62
     7
 10
716.58298783696102
 20
1399.501865728995
 30
0.0
 11
732.58299783696111
 21
1399.501865728995
 31
0.0
  0
LINE
  5
E4F0
  8
0
  6
CONTINUOUS
 62
     7
 10
732.58299783696111
 20
1371.189865728996
 30
0.0
 11
716.58298783696102
 21
1371.189865728996
 31
0.0
  0
LINE
  5
E4F1
  8
0
  6
CONTINUOUS
 62
     7
 10
719.58298783696102
 20
1481.5018657289961
 30
0.0
 11
732.58299783696111
 21
1481.5018657289961
 31
0.0
  0
LINE
  5
E4F2
  8
0
  6
CONTINUOUS
 62
     7
 10
716.58298783696102
 20
1286.573365728995
 30
0.0
 11
716.58298783696102
 21
1128.729225728996
 31
0.0
  0
LINE
  5
E4F3
  8
0
  6
CONTINUOUS
 62
     7
 10
719.58298783696102
 20
1162.0711357289961
 30
0.0
 11
732.58299783696111
 21
1162.0711357289961
 31
0.0
  0
LINE
  5
E4F4
  8
0
  6
CONTINUOUS
 62
     7
 10
732.58299783696111
 20
1257.8139957289959
 30
0.0
 11
716.58298783696102
 21
1257.8139957289959
 31
0.0
  0
LINE
  5
E4F5
  8
0
  6
CONTINUOUS
 62
     7
 10
716.58298783696102
 20
1229.5018657289961
 30
0.0
 11
732.58299783696111
 21
1229.5018657289961
 31
0.0
  0
LINE
  5
E4F6
  8
0
  6
CONTINUOUS
 62
     7
 10
732.58299783696111
 20
1125.5018657289961
 30
0.0
 11
732.58299783696111
 21
1308.2518657289961
 31
0.0
  0
LINE
  5
E4F7
  8
0
  6
CONTINUOUS
 62
     7
 10
719.58298783696102
 20
1147.501865728995
 30
0.0
 11
732.58299783696111
 21
1147.501865728995
 31
0.0
  0
LINE
  5
E4F8
  8
0
  6
CONTINUOUS
 62
     7
 10
716.58298783696102
 20
1500.274465728995
 30
0.0
 11
716.58298783696102
 21
1342.430365728995
 31
0.0
  0
LINE
  5
E4F9
  8
0
  6
CONTINUOUS
 62
     7
 10
621.08298783696193
 20
1223.4189157289959
 30
0.0
 11
666.08298783696114
 21
1223.4189157289959
 31
0.0
  0
LINE
  5
E4FA
  8
0
  6
CONTINUOUS
 62
     7
 10
621.08298783696193
 20
1242.6694657289961
 30
0.0
 11
666.08298783696114
 21
1242.6694657289961
 31
0.0
  0
LINE
  5
E4FB
  8
0
  6
CONTINUOUS
 62
     7
 10
621.08298783696193
 20
1386.3342657289941
 30
0.0
 11
666.08298783696114
 21
1386.3342657289941
 31
0.0
  0
LINE
  5
E4FC
  8
0
  6
CONTINUOUS
 62
     7
 10
621.08298783696193
 20
1405.5848657289951
 30
0.0
 11
666.08298783696114
 21
1405.5848657289951
 31
0.0
  0
LINE
  5
E4FD
  8
0
  6
CONTINUOUS
 62
     7
 10
621.08298783696193
 20
1197.5018657289961
 30
0.0
 11
621.08298783696193
 21
1314.501865728995
 31
0.0
  0
LINE
  5
E4FE
  8
0
  6
CONTINUOUS
 62
     7
 10
621.59178783696098
 20
1198.4930157289959
 30
0.0
 11
662.15278783696112
 21
1197.7850057289961
 31
0.0
  0
LINE
  5
E4FF
  8
0
  6
CONTINUOUS
 62
     7
 10
621.59178783696098
 20
1430.510765728995
 30
0.0
 11
661.17028783696105
 21
1431.201565728996
 31
0.0
  0
LINE
  5
E500
  8
0
  6
CONTINUOUS
 62
     7
 10
621.08298783696193
 20
1431.501865728995
 30
0.0
 11
621.08298783696193
 21
1314.501865728995
 31
0.0
  0
LINE
  5
E501
  8
0
  6
CONTINUOUS
 62
     7
 10
666.08298783696114
 20
1431.255965728996
 30
0.0
 11
666.08298783696114
 21
1200.3164357289961
 31
0.0
  0
LINE
  5
E502
  8
0
  6
CONTINUOUS
 62
     7
 10
913.58299783696123
 20
1277.0018657289961
 30
0.0
 11
919.58299783696123
 21
1277.0018657289961
 31
0.0
  0
LINE
  5
E503
  8
0
  6
CONTINUOUS
 62
     7
 10
913.58299783696123
 20
1352.0018657289961
 30
0.0
 11
919.58299783696123
 21
1352.0018657289961
 31
0.0
  0
LINE
  5
E504
  8
0
  6
CONTINUOUS
 62
     7
 10
919.58299783696123
 20
1349.5018657289941
 30
0.0
 11
1029.5829978369611
 21
1349.5018657289941
 31
0.0
  0
LINE
  5
E505
  8
0
  6
CONTINUOUS
 62
     7
 10
1029.5829978369611
 20
1349.5018657289941
 30
0.0
 11
1029.5829978369611
 21
1279.5018657289961
 31
0.0
  0
LINE
  5
E506
  8
0
  6
CONTINUOUS
 62
     7
 10
1029.5829978369611
 20
1279.5018657289961
 30
0.0
 11
919.58299783696123
 21
1279.5018657289961
 31
0.0
  0
LINE
  5
E507
  8
0
  6
CONTINUOUS
 62
     7
 10
919.58299783696123
 20
1352.0018657289961
 30
0.0
 11
919.58299783696123
 21
1277.0018657289961
 31
0.0
  0
LINE
  5
E508
  8
0
  6
CONTINUOUS
 62
     7
 10
759.69621783696141
 20
1319.5018657289941
 30
0.0
 11
756.8094978369611
 21
1314.501865728995
 31
0.0
  0
LINE
  5
E509
  8
0
  6
CONTINUOUS
 62
     7
 10
756.8094978369611
 20
1314.501865728995
 30
0.0
 11
759.69621783696141
 21
1309.5018657289941
 31
0.0
  0
LINE
  5
E50A
  8
0
  6
CONTINUOUS
 62
     7
 10
759.69621783696141
 20
1309.5018657289941
 30
0.0
 11
765.46977783696104
 21
1309.5018657289941
 31
0.0
  0
LINE
  5
E50B
  8
0
  6
CONTINUOUS
 62
     7
 10
765.46971783696074
 20
1309.5018657289941
 30
0.0
 11
768.35649783696101
 21
1314.501865728995
 31
0.0
  0
LINE
  5
E50C
  8
0
  6
CONTINUOUS
 62
     7
 10
768.35649783696101
 20
1314.501865728995
 30
0.0
 11
765.46977783696104
 21
1319.5018657289941
 31
0.0
  0
LINE
  5
E50D
  8
0
  6
CONTINUOUS
 62
     7
 10
765.46977783696104
 20
1319.5018657289941
 30
0.0
 11
759.69621783696141
 21
1319.5018657289941
 31
0.0
  0
LINE
  5
E50E
  8
0
  6
CENTER
 62
     0
 10
762.58299783696111
 20
1300.859665728995
 30
0.0
 11
762.58299783696111
 21
1327.686265728996
 31
0.0
  0
LINE
  5
E50F
  8
0
  6
CONTINUOUS
 62
     7
 10
1029.5829978369611
 20
1324.501865728995
 30
0.0
 11
944.58299783696123
 21
1324.501865728995
 31
0.0
  0
LINE
  5
E510
  8
0
  6
CONTINUOUS
 62
     7
 10
944.58299783696123
 20
1324.501865728995
 30
0.0
 11
944.58299783696123
 21
1304.501865728995
 31
0.0
  0
LINE
  5
E511
  8
0
  6
CONTINUOUS
 62
     7
 10
944.58299783696123
 20
1304.501865728995
 30
0.0
 11
1029.5829978369611
 21
1304.501865728995
 31
0.0
  0
LINE
  5
E512
  8
0
  6
CONTINUOUS
 62
     7
 10
907.58299783696111
 20
1544.501865728995
 30
0.0
 11
907.58299783696111
 21
1084.5018657289961
 31
0.0
  0
LINE
  5
E513
  8
0
  6
CONTINUOUS
 62
     7
 10
907.58299783696111
 20
1084.5018657289961
 30
0.0
 11
887.58299783696123
 21
1084.5018657289961
 31
0.0
  0
LINE
  5
E514
  8
0
  6
CONTINUOUS
 62
     7
 10
875.58299783696134
 20
1147.875465728996
 30
0.0
 11
882.58299783696111
 21
1147.875465728996
 31
0.0
  0
LINE
  5
E515
  8
0
  6
CONTINUOUS
 62
     7
 10
875.58299783696134
 20
1209.278045728995
 30
0.0
 11
882.58299783696111
 21
1209.278045728995
 31
0.0
  0
LINE
  5
E516
  8
0
  6
CONTINUOUS
 62
     7
 10
885.58299783696123
 20
1087.0445257289959
 30
0.0
 11
880.58299783696123
 21
1087.0445257289959
 31
0.0
  0
LINE
  5
E517
  8
0
  6
CONTINUOUS
 62
     7
 10
886.58299783696123
 20
1085.5018657289961
 30
0.0
 11
886.58299783696123
 21
1086.0445257289959
 31
0.0
  0
LINE
  5
E518
  8
0
  6
CONTINUOUS
 62
     7
 10
886.58299783696123
 20
1477.128165728996
 30
0.0
 11
886.58299783696123
 21
1151.875465728996
 31
0.0
  0
LINE
  5
E519
  8
0
  6
CONTINUOUS
 62
     7
 10
886.58299783696123
 20
1543.5018657289961
 30
0.0
 11
886.58299783696123
 21
1542.9592657289941
 31
0.0
  0
LINE
  5
E51A
  8
0
  6
CONTINUOUS
 62
     7
 10
885.58299783696123
 20
1541.959265728995
 30
0.0
 11
880.58299783696123
 21
1541.959265728995
 31
0.0
  0
LINE
  5
E51B
  8
0
  6
CONTINUOUS
 62
     7
 10
875.58299783696134
 20
1419.7257657289961
 30
0.0
 11
882.58299783696111
 21
1419.7257657289961
 31
0.0
  0
LINE
  5
E51C
  8
0
  6
CONTINUOUS
 62
     7
 10
875.58299783696134
 20
1481.128165728996
 30
0.0
 11
882.58299783696111
 21
1481.128165728996
 31
0.0
  0
LINE
  5
E51D
  8
0
  6
CONTINUOUS
 62
     7
 10
907.58299783696111
 20
1544.501865728995
 30
0.0
 11
887.58299783696123
 21
1544.501865728995
 31
0.0
  0
LINE
  5
E51E
  8
0
  6
CONTINUOUS
 62
     7
 10
913.58299783696123
 20
1509.5018657289961
 30
0.0
 11
907.58299783696111
 21
1509.5018657289961
 31
0.0
  0
LINE
  5
E51F
  8
0
  6
CONTINUOUS
 62
     7
 10
913.58299783696123
 20
1119.5018657289961
 30
0.0
 11
913.58299783696123
 21
1509.5018657289961
 31
0.0
  0
LINE
  5
E520
  8
0
  6
CONTINUOUS
 62
     7
 10
907.58299783696111
 20
1119.5018657289961
 30
0.0
 11
913.58299783696123
 21
1119.5018657289961
 31
0.0
  0
LINE
  5
E521
  8
0
  6
CONTINUOUS
 62
     7
 10
719.50438783696097
 20
1138.607085728996
 30
0.0
 11
870.71385783696121
 21
1134.6475557289959
 31
0.0
  0
LINE
  5
E522
  8
0
  6
CONTINUOUS
 62
     7
 10
732.58299783696111
 20
1162.0711357289961
 30
0.0
 11
850.86021783696117
 21
1158.973915728996
 31
0.0
  0
LINE
  5
E523
  8
0
  6
CONTINUOUS
 62
     7
 10
732.58299783696111
 20
1229.024325728996
 30
0.0
 11
863.79240783696105
 21
1226.7340457289961
 31
0.0
  0
LINE
  5
E524
  8
0
  6
CONTINUOUS
 62
     7
 10
732.58299783696111
 20
1257.8139357289961
 30
0.0
 11
863.79240783696105
 21
1260.104225728996
 31
0.0
  0
LINE
  5
E525
  8
0
  6
CONTINUOUS
 62
     7
 10
875.58299783696134
 20
1536.9592657289959
 30
0.0
 11
875.58299783696134
 21
1092.0445257289959
 31
0.0
  0
LINE
  5
E526
  8
0
  6
CONTINUOUS
 62
     7
 10
719.53068783696108
 20
1125.7297057289959
 30
0.0
 11
863.79247783696144
 21
1123.211645728996
 31
0.0
  0
LINE
  5
E527
  8
0
  6
CONTINUOUS
 62
     7
 10
732.58299783696111
 20
1147.501865728995
 30
0.0
 11
867.78545783696075
 21
1145.141945728996
 31
0.0
  0
LINE
  5
E528
  8
0
  6
CONTINUOUS
 62
     7
 10
732.58299783696111
 20
1481.5018657289961
 30
0.0
 11
867.78551783696093
 21
1483.861765728996
 31
0.0
  0
LINE
  5
E529
  8
0
  6
CONTINUOUS
 62
     7
 10
719.53058783696179
 20
1503.274065728996
 30
0.0
 11
863.79240783696105
 21
1505.792165728996
 31
0.0
  0
LINE
  5
E52A
  8
0
  6
CONTINUOUS
 62
     7
 10
875.58299783696134
 20
1092.0445257289959
 30
0.0
 11
875.58299783696134
 21
1536.9592657289959
 31
0.0
  0
LINE
  5
E52B
  8
0
  6
CONTINUOUS
 62
     7
 10
732.58299783696111
 20
1466.932665728996
 30
0.0
 11
850.86021783696117
 21
1470.0298657289959
 31
0.0
  0
LINE
  5
E52C
  8
0
  6
CONTINUOUS
 62
     7
 10
719.50448783696106
 20
1490.3965657289959
 30
0.0
 11
870.71385783696121
 21
1494.3560657289961
 31
0.0
  0
LINE
  5
E52D
  8
0
  6
CONTINUOUS
 62
     7
 10
875.58299783696134
 20
1481.128165728996
 30
0.0
 11
882.58299783696111
 21
1481.128165728996
 31
0.0
  0
LINE
  5
E52E
  8
0
  6
CONTINUOUS
 62
     7
 10
732.58299783696111
 20
1371.189765728994
 30
0.0
 11
863.79247783696144
 21
1368.8994657289959
 31
0.0
  0
LINE
  5
E52F
  8
0
  6
CONTINUOUS
 62
     7
 10
732.58299783696111
 20
1399.9793657289961
 30
0.0
 11
863.79240783696105
 21
1402.269665728996
 31
0.0
  0
LINE
  5
E530
  8
0
  6
CONTINUOUS
 62
     7
 10
830.13756783696135
 20
1183.563085728995
 30
0.0
 11
875.58299783696134
 21
1145.7695057289959
 31
0.0
  0
LINE
  5
E531
  8
0
  6
CONTINUOUS
 62
     7
 10
830.13756783696135
 20
1175.909335728996
 30
0.0
 11
875.58299783696134
 21
1138.7695057289959
 31
0.0
  0
LINE
  5
E532
  8
0
  6
CONTINUOUS
 62
     7
 10
833.79710783696123
 20
1183.563085728995
 30
0.0
 11
867.84911783696111
 21
1183.563085728995
 31
0.0
  0
LINE
  5
E533
  8
0
  6
CONTINUOUS
 62
     7
 10
833.13756783696135
 20
1307.5018657289961
 30
0.0
 11
875.58299783696134
 21
1307.5018657289961
 31
0.0
  0
LINE
  5
E534
  8
0
  6
CONTINUOUS
 62
     7
 10
833.13756783696135
 20
1321.5018657289961
 30
0.0
 11
875.58299783696134
 21
1321.5018657289961
 31
0.0
  0
LINE
  5
E535
  8
0
  6
CONTINUOUS
 62
     7
 10
833.79710783696123
 20
1445.440665728994
 30
0.0
 11
867.84911783696111
 21
1445.440665728994
 31
0.0
  0
LINE
  5
E536
  8
0
  6
CONTINUOUS
 62
     7
 10
830.13756783696135
 20
1453.0943657289961
 30
0.0
 11
875.58299783696134
 21
1490.234265728996
 31
0.0
  0
LINE
  5
E537
  8
0
  6
CONTINUOUS
 62
     7
 10
830.13750783696105
 20
1445.440665728994
 30
0.0
 11
875.58293783696092
 21
1483.234265728996
 31
0.0
  0
ARC
  5
E538
  8
0
  6
CONTINUOUS
 62
     7
 10
712.58298783696102
 20
1175.5018657289961
 30
0.0
 40
4.0
 50
0.0
 51
90.00000299999769
  0
ARC
  5
E539
  8
0
  6
CONTINUOUS
 62
     7
 10
712.58298783696102
 20
1453.501865728995
 30
0.0
 40
4.0
 50
270.0
 51
0.0
  0
ARC
  5
E53A
  8
0
  6
CONTINUOUS
 62
     7
 10
676.08298783696114
 20
1439.501865728995
 30
0.0
 40
10.0
 50
90.00000299999769
 51
180.000010000001
  0
ARC
  5
E53B
  8
0
  6
CONTINUOUS
 62
     7
 10
676.08298783696114
 20
1189.5018657289961
 30
0.0
 40
10.0
 50
179.999989999999
 51
270.0
  0
ARC
  5
E53C
  8
0
  6
CONTINUOUS
 62
     7
 10
719.58298783696102
 20
1463.932665728996
 30
0.0
 40
3.0
 50
90.00000299999769
 51
180.000010000001
  0
ARC
  5
E53D
  8
0
  6
CONTINUOUS
 62
     7
 10
710.58298783696102
 20
1314.501865728995
 30
0.0
 40
20.0
 50
18.209957000000301
 51
161.7900400000014
  0
ARC
  5
E53E
  8
0
  6
CONTINUOUS
 62
     7
 10
710.58298783696102
 20
1314.501865728995
 30
0.0
 40
15.0
 50
24.624318000003381
 51
155.37568000000249
  0
ARC
  5
E53F
  8
0
  6
CONTINUOUS
 62
     7
 10
734.332997836961
 20
1314.501865728995
 30
0.0
 40
6.25
 50
270.0
 51
90.00000299999769
  0
ARC
  5
E540
  8
0
  6
CONTINUOUS
 62
     7
 10
686.83298783696193
 20
1314.501865728995
 30
0.0
 40
6.25
 50
90.00000299999769
 51
270.0
  0
ARC
  5
E541
  8
0
  6
CONTINUOUS
 62
     7
 10
710.58298783696102
 20
1314.501865728995
 30
0.0
 40
15.0
 50
204.6243199999974
 51
335.37568000000249
  0
ARC
  5
E542
  8
0
  6
CONTINUOUS
 62
     7
 10
710.58298783696102
 20
1314.501865728995
 30
0.0
 40
20.0
 50
198.2099599999986
 51
341.7900400000014
  0
ARC
  5
E543
  8
0
  6
CONTINUOUS
 62
     7
 10
708.58298783696102
 20
1286.573365728995
 30
0.0
 40
8.0
 50
0.0
 51
85.903958999993151
  0
ARC
  5
E544
  8
0
  6
CONTINUOUS
 62
     7
 10
708.58298783696102
 20
1342.430365728995
 30
0.0
 40
8.0
 50
274.09603999999803
 51
0.0
  0
ARC
  5
E545
  8
0
  6
CONTINUOUS
 62
     7
 10
719.58298783696102
 20
1478.5018657289961
 30
0.0
 40
3.0
 50
90.00000299999769
 51
180.000010000001
  0
ARC
  5
E546
  8
0
  6
CONTINUOUS
 62
     7
 10
719.58298783696102
 20
1165.0711357289961
 30
0.0
 40
3.0
 50
179.999989999999
 51
270.0
  0
ARC
  5
E547
  8
0
  6
CONTINUOUS
 62
     7
 10
719.58298783696102
 20
1150.5018657289961
 30
0.0
 40
3.0
 50
179.999989999999
 51
270.0
  0
ARC
  5
E548
  8
0
  6
CONTINUOUS
 62
     7
 10
619.08298783696193
 20
1216.774695728996
 30
0.0
 40
2.0
 50
270.0
 51
0.0
  0
ARC
  5
E549
  8
0
  6
CONTINUOUS
 62
     7
 10
619.08298783696193
 20
1232.3310257289961
 30
0.0
 40
2.0
 50
270.0
 51
0.0
  0
ARC
  5
E54A
  8
0
  6
CONTINUOUS
 62
     7
 10
619.08298783696193
 20
1396.672765728996
 30
0.0
 40
2.0
 50
0.0
 51
90.00000299999769
  0
ARC
  5
E54B
  8
0
  6
CONTINUOUS
 62
     7
 10
619.08298783696193
 20
1412.2291657289959
 30
0.0
 40
2.0
 50
0.0
 51
90.00000299999769
  0
ARC
  5
E54C
  8
0
  6
CONTINUOUS
 62
     7
 10
620.08298783696114
 20
1197.5018657289961
 30
0.0
 40
1.0
 50
270.0
 51
0.0
  0
ARC
  5
E54D
  8
0
  6
CONTINUOUS
 62
     7
 10
621.58298783696193
 20
1197.993075728996
 30
0.0
 40
0.5
 50
89.000001000002214
 51
180.000010000001
  0
ARC
  5
E54E
  8
0
  6
CONTINUOUS
 62
     7
 10
621.58298783696193
 20
1431.0106657289959
 30
0.0
 40
0.5
 50
179.999989999999
 51
271.00000000000182
  0
ARC
  5
E54F
  8
0
  6
CONTINUOUS
 62
     7
 10
620.08298783696114
 20
1431.501865728995
 30
0.0
 40
1.0
 50
0.0
 51
90.00000299999769
  0
ARC
  5
E550
  8
0
  6
CONTINUOUS
 62
     7
 10
661.08298783696193
 20
1436.200865728995
 30
0.0
 40
5.0
 50
271.00000000000182
 51
0.0
  0
ARC
  5
E551
  8
0
  6
CONTINUOUS
 62
     7
 10
662.08298783696114
 20
1193.7856157289959
 30
0.0
 40
4.0
 50
0.0
 51
89.000001000002214
  0
CIRCLE
  5
E552
  8
0
  6
CONTINUOUS
 62
     7
 10
762.58299783696111
 20
1314.501865728995
 30
0.0
 40
10.0
  0
ARC
  5
E553
  8
0
  6
CONTINUOUS
 62
     7
 10
944.58299783696123
 20
1314.501865728995
 30
0.0
 40
10.0
 50
90.00000299999769
 51
270.0
  0
ARC
  5
E554
  8
0
  6
CONTINUOUS
 62
     7
 10
885.58299783696123
 20
1086.0445257289959
 30
0.0
 40
1.0
 50
0.0
 51
90.00000299999769
  0
ARC
  5
E555
  8
0
  6
CONTINUOUS
 62
     7
 10
887.58299783696123
 20
1085.5018657289961
 30
0.0
 40
1.0
 50
179.999989999999
 51
270.0
  0
ARC
  5
E556
  8
0
  6
CONTINUOUS
 62
     7
 10
880.58299783696123
 20
1092.0445257289959
 30
0.0
 40
5.0
 50
179.999989999999
 51
270.0
  0
ARC
  5
E557
  8
0
  6
CONTINUOUS
 62
     7
 10
882.58299783696111
 20
1151.875465728996
 30
0.0
 40
4.0
 50
270.0
 51
0.0
  0
ARC
  5
E558
  8
0
  6
CONTINUOUS
 62
     7
 10
882.58299783696111
 20
1477.128165728996
 30
0.0
 40
4.0
 50
0.0
 51
90.00000299999769
  0
ARC
  5
E559
  8
0
  6
CONTINUOUS
 62
     7
 10
880.58299783696123
 20
1536.9592657289959
 30
0.0
 40
5.0
 50
90.00000299999769
 51
180.000010000001
  0
ARC
  5
E55A
  8
0
  6
CONTINUOUS
 62
     7
 10
887.58299783696123
 20
1543.5018657289961
 30
0.0
 40
1.0
 50
90.00000299999769
 51
180.000010000001
  0
ARC
  5
E55B
  8
0
  6
CONTINUOUS
 62
     7
 10
885.58299783696123
 20
1542.9592657289941
 30
0.0
 40
1.0
 50
270.0
 51
0.0
  0
ARC
  5
E55C
  8
0
  6
CONTINUOUS
 62
     7
 10
863.58299783696123
 20
1214.735875728996
 30
0.0
 40
12.0
 50
0.0
 51
89.000001000002214
  0
ARC
  5
E55D
  8
0
  6
CONTINUOUS
 62
     7
 10
863.58299783696123
 20
1272.1023657289959
 30
0.0
 40
12.0
 50
271.00000000000182
 51
0.0
  0
ARC
  5
E55E
  8
0
  6
CONTINUOUS
 62
     7
 10
863.58299783696123
 20
1111.2134157289961
 30
0.0
 40
12.0
 50
0.0
 51
89.000001000002214
  0
ARC
  5
E55F
  8
0
  6
CONTINUOUS
 62
     7
 10
870.58299783696123
 20
1129.6492657289959
 30
0.0
 40
5.0
 50
0.0
 51
88.499997000000647
  0
ARC
  5
E560
  8
0
  6
CONTINUOUS
 62
     7
 10
870.58299783696123
 20
1499.3543657289961
 30
0.0
 40
5.0
 50
271.50000000000279
 51
0.0
  0
ARC
  5
E561
  8
0
  6
CONTINUOUS
 62
     7
 10
863.58299783696123
 20
1517.790365728996
 30
0.0
 40
12.0
 50
271.00000000000182
 51
0.0
  0
ARC
  5
E562
  8
0
  6
CONTINUOUS
 62
     7
 10
880.58299783696123
 20
1536.9592657289959
 30
0.0
 40
5.0
 50
90.00000299999769
 51
180.000010000001
  0
ARC
  5
E563
  8
0
  6
CONTINUOUS
 62
     7
 10
863.58299783696123
 20
1356.9012657289959
 30
0.0
 40
12.0
 50
0.0
 51
89.000001000002214
  0
ARC
  5
E564
  8
0
  6
CONTINUOUS
 62
     7
 10
863.58299783696123
 20
1414.267865728995
 30
0.0
 40
12.0
 50
271.00000000000182
 51
0.0
  0
ARC
  5
E565
  8
0
  6
CONTINUOUS
 62
     7
 10
870.58299783696123
 20
1178.563085728995
 30
0.0
 40
5.0
 50
0.0
 51
90.00000299999769
  0
ARC
  5
E566
  8
0
  6
CONTINUOUS
 62
     7
 10
833.13756783696135
 20
1304.501865728995
 30
0.0
 40
3.0
 50
90.00000299999769
 51
180.000010000001
  0
ARC
  5
E567
  8
0
  6
CONTINUOUS
 62
     7
 10
833.13756783696135
 20
1324.501865728995
 30
0.0
 40
3.0
 50
179.999989999999
 51
270.0
  0
ARC
  5
E568
  8
0
  6
CONTINUOUS
 62
     7
 10
870.58299783696123
 20
1450.440665728996
 30
0.0
 40
5.0
 50
270.0
 51
0.0
  0
ARC
  5
E569
  8
0
  6
CONTINUOUS
 62
     7
 10
719.58298783696102
 20
1487.3976657289959
 30
0.0
 40
3.0
 50
91.500001000001546
 51
180.000010000001
  0
ARC
  5
E56A
  8
0
  6
CONTINUOUS
 62
     7
 10
719.58298783696102
 20
1500.274465728995
 30
0.0
 40
3.0
 50
90.999997000003077
 51
180.000010000001
  0
ARC
  5
E56B
  8
0
  6
CONTINUOUS
 62
     7
 10
719.58298783696102
 20
1141.606115728996
 30
0.0
 40
3.0
 50
179.999989999999
 51
268.50000999999878
  0
ARC
  5
E56C
  8
0
  6
CONTINUOUS
 62
     7
 10
719.58298783696102
 20
1128.729225728996
 30
0.0
 40
3.0
 50
179.999989999999
 51
269.00000999999793
  0
LINE
  5
E675
  8
0
  6
CONTINUOUS
 62
     7
 10
696.80904783696099
 20
950.93474730335265
 30
0.0
 11
695.58304783696201
 21
943.19408730335294
 31
0.0
  0
LINE
  5
E676
  8
0
  6
CONTINUOUS
 62
     7
 10
725.5830478369611
 20
943.19408730335294
 30
0.0
 11
724.3570478369611
 21
950.9346873033528
 31
0.0
  0
LINE
  5
E677
  8
0
  6
CONTINUOUS
 62
     7
 10
720.56184783696233
 20
954.56505730335277
 30
0.0
 11
710.5830478369611
 21
955.69408730335294
 31
0.0
  0
LINE
  5
E678
  8
0
  6
CONTINUOUS
 62
     7
 10
710.5830478369611
 20
955.69408730335294
 30
0.0
 11
700.6043478369611
 21
954.56511730335285
 31
0.0
  0
LINE
  5
E679
  8
0
  6
CONTINUOUS
 62
     7
 10
721.67204783696104
 20
954.19408730335294
 30
0.0
 11
699.49404783696104
 21
954.19408730335294
 31
0.0
  0
LINE
  5
E67A
  8
0
  6
CONTINUOUS
 62
     7
 10
1029.5829978369611
 20
831.69408730335283
 30
0.0
 11
1029.5829978369611
 21
827.19408730335283
 31
0.0
  0
LINE
  5
E67B
  8
0
  6
CONTINUOUS
 62
     7
 10
944.582997836961
 20
831.69408730335283
 30
0.0
 11
1029.5829978369611
 21
831.69408730335283
 31
0.0
  0
LINE
  5
E67C
  8
0
  6
CONTINUOUS
 62
     7
 10
944.582997836961
 20
827.19408730335283
 30
0.0
 11
944.582997836961
 21
831.69408730335283
 31
0.0
  0
LINE
  5
E67D
  8
0
  6
CONTINUOUS
 62
     7
 10
1029.5829978369611
 20
757.1940873033526
 30
0.0
 11
919.582997836961
 21
757.1940873033526
 31
0.0
  0
LINE
  5
E67E
  8
0
  6
CONTINUOUS
 62
     7
 10
1029.5829978369611
 20
827.19408730335283
 30
0.0
 11
1029.5829978369611
 21
757.1940873033526
 31
0.0
  0
LINE
  5
E67F
  8
0
  6
CONTINUOUS
 62
     7
 10
919.582997836961
 20
827.19408730335283
 30
0.0
 11
1029.5829978369611
 21
827.19408730335283
 31
0.0
  0
LINE
  5
E680
  8
0
  6
CONTINUOUS
 62
     7
 10
666.08304783696121
 20
846.34825730335285
 30
0.0
 11
666.08304783696121
 21
615.40858730335265
 31
0.0
  0
LINE
  5
E681
  8
0
  6
CONTINUOUS
 62
     7
 10
690.58304783696121
 20
943.19408730335294
 30
0.0
 11
690.58304783696121
 21
898.53444730335275
 31
0.0
  0
LINE
  5
E682
  8
0
  6
CONTINUOUS
 62
     7
 10
666.08304783696121
 20
608.87781730335291
 30
0.0
 11
666.08304783696121
 21
592.84830730335273
 31
0.0
  0
LINE
  5
E683
  8
0
  6
CONTINUOUS
 62
     7
 10
666.08304783696121
 20
872.35796730335278
 30
0.0
 11
666.08304783696121
 21
851.29304730335286
 31
0.0
  0
LINE
  5
E684
  8
0
  6
CONTINUOUS
 62
     7
 10
715.06674783696099
 20
915.99290730335269
 30
0.0
 11
669.87404783696115
 21
880.19679730335258
 31
0.0
  0
LINE
  5
E685
  8
0
  6
CONTINUOUS
 62
     7
 10
716.5830478369611
 20
939.19408730335283
 30
0.0
 11
716.5830478369611
 21
525.23163730335261
 31
0.0
  0
LINE
  5
E686
  8
0
  6
CONTINUOUS
 62
     7
 10
621.08304783696212
 20
846.59407730335283
 30
0.0
 11
621.08304783696212
 21
729.59407730335283
 31
0.0
  0
LINE
  5
E687
  8
0
  6
CONTINUOUS
 62
     7
 10
621.59184783696094
 20
845.60295730335292
 30
0.0
 11
661.17024783696115
 21
846.29378730335259
 31
0.0
  0
LINE
  5
E688
  8
0
  6
CONTINUOUS
 62
     7
 10
621.59184783696094
 20
613.58520730335272
 30
0.0
 11
662.1528478369612
 21
612.87721730335272
 31
0.0
  0
LINE
  5
E689
  8
0
  6
CONTINUOUS
 62
     7
 10
621.08304783696212
 20
612.59407730335261
 30
0.0
 11
621.08304783696212
 21
729.59407730335283
 31
0.0
  0
LINE
  5
E68A
  8
0
  6
CONTINUOUS
 62
     7
 10
621.08304783696212
 20
820.67702730335247
 30
0.0
 11
666.08304783696121
 21
820.67702730335247
 31
0.0
  0
LINE
  5
E68B
  8
0
  6
CONTINUOUS
 62
     7
 10
621.08304783696212
 20
801.4264773033525
 30
0.0
 11
666.08304783696121
 21
801.4264773033525
 31
0.0
  0
LINE
  5
E68C
  8
0
  6
CONTINUOUS
 62
     7
 10
621.08304783696212
 20
657.7616773033526
 30
0.0
 11
666.08304783696121
 21
657.7616773033526
 31
0.0
  0
LINE
  5
E68D
  8
0
  6
CONTINUOUS
 62
     7
 10
621.08304783696212
 20
638.51112730335274
 30
0.0
 11
666.08304783696121
 21
638.51112730335274
 31
0.0
  0
LINE
  5
E68E
  8
0
  6
CONTINUOUS
 62
     7
 10
732.58305783696096
 20
943.19408730335294
 30
0.0
 11
732.58305783696096
 21
523.23163730335239
 31
0.0
  0
LINE
  5
E68F
  8
0
  6
CONTINUOUS
 62
     7
 10
732.58305783696096
 20
943.19408730335294
 30
0.0
 11
690.58304783696121
 21
943.19408730335294
 31
0.0
  0
LINE
  5
E690
  8
0
  6
CONTINUOUS
 62
     7
 10
732.58305783696096
 20
913.47996730335285
 30
0.0
 11
716.5830478369611
 21
913.47996730335285
 31
0.0
  0
LINE
  5
E691
  8
0
  6
CONTINUOUS
 62
     7
 10
716.5830478369611
 20
937.19408730335294
 30
0.0
 11
732.58305783696096
 21
937.19408730335294
 31
0.0
  0
LINE
  5
E692
  8
0
  6
CONTINUOUS
 62
     7
 10
732.58305783696096
 20
833.88078730335269
 30
0.0
 11
716.5830478369611
 21
833.88078730335269
 31
0.0
  0
LINE
  5
E693
  8
0
  6
CONTINUOUS
 62
     7
 10
732.58305783696096
 20
801.28834730335268
 30
0.0
 11
716.5830478369611
 21
801.28834730335268
 31
0.0
  0
LINE
  5
E694
  8
0
  6
CONTINUOUS
 62
     7
 10
716.5830478369611
 20
676.19405730335291
 30
0.0
 11
732.58305783696096
 21
676.19405730335291
 31
0.0
  0
LINE
  5
E695
  8
0
  6
CONTINUOUS
 62
     7
 10
716.5830478369611
 20
642.19408730335272
 30
0.0
 11
732.58305783696096
 21
642.19408730335272
 31
0.0
  0
LINE
  5
E696
  8
0
  6
CONTINUOUS
 62
     7
 10
714.64504783696111
 20
557.9799873033528
 30
0.0
 11
670.92804783696124
 21
584.27940730335285
 31
0.0
  0
LINE
  5
E698
  8
0
  6
CONTINUOUS
 62
     7
 10
732.58305783696096
 20
943.19408730335294
 30
0.0
 11
863.89714783696115
 21
946.63267730335269
 31
0.0
  0
LINE
  5
E699
  8
0
  6
CONTINUOUS
 62
     7
 10
907.58305783696107
 20
1022.1940873033529
 30
0.0
 11
907.58305783696107
 21
562.19408730335238
 31
0.0
  0
LINE
  5
E69A
  8
0
  6
CONTINUOUS
 62
     7
 10
887.58305783696142
 20
1022.1940873033529
 30
0.0
 11
907.58305783696107
 21
1022.1940873033529
 31
0.0
  0
LINE
  5
E69B
  8
0
  6
CONTINUOUS
 62
     7
 10
907.58305783696107
 20
597.19408730335272
 30
0.0
 11
913.58305783696119
 21
597.19408730335272
 31
0.0
  0
LINE
  5
E69C
  8
0
  6
CONTINUOUS
 62
     7
 10
913.58305783696119
 20
597.19408730335272
 30
0.0
 11
913.58305783696119
 21
987.19408730335294
 31
0.0
  0
LINE
  5
E69D
  8
0
  6
CONTINUOUS
 62
     7
 10
907.58305783696107
 20
987.19408730335294
 30
0.0
 11
913.58305783696119
 21
987.19408730335294
 31
0.0
  0
LINE
  5
E69E
  8
0
  6
CONTINUOUS
 62
     7
 10
873.72667783696124
 20
561.12230730335261
 30
0.0
 11
845.90855783696111
 21
545.06151730335262
 31
0.0
  0
LINE
  5
E69F
  8
0
  6
CONTINUOUS
 62
     7
 10
886.58305783696119
 20
564.01857730335257
 30
0.0
 11
886.58305783696119
 21
563.19406730335265
 31
0.0
  0
LINE
  5
E6A0
  8
0
  6
CONTINUOUS
 62
     7
 10
875.58299783696111
 20
897.41789730335267
 30
0.0
 11
883.58305783696107
 21
897.41789730335267
 31
0.0
  0
LINE
  5
E6A1
  8
0
  6
CONTINUOUS
 62
     7
 10
886.58305783696119
 20
955.8204273033524
 30
0.0
 11
886.58305783696119
 21
631.69138730335271
 31
0.0
  0
LINE
  5
E6A2
  8
0
  6
CONTINUOUS
 62
     7
 10
886.58305783696119
 20
564.49875730335259
 30
0.0
 11
886.58305783696119
 21
564.19406730335265
 31
0.0
  0
LINE
  5
E6A3
  8
0
  6
CONTINUOUS
 62
     7
 10
878.58305783696119
 20
628.69136730335265
 30
0.0
 11
883.58305783696107
 21
628.69136730335265
 31
0.0
  0
LINE
  5
E6A4
  8
0
  6
CONTINUOUS
 62
     7
 10
875.58299783696111
 20
568.01857730335257
 30
0.0
 11
875.58299783696111
 21
1016.651417303352
 31
0.0
  0
LINE
  5
E6A5
  8
0
  6
CONTINUOUS
 62
     7
 10
841.22514783696101
 20
951.5334373033528
 30
0.0
 11
872.65404783696124
 21
982.96233730335234
 31
0.0
  0
LINE
  5
E6A6
  8
0
  6
CONTINUOUS
 62
     7
 10
836.78349783696115
 20
864.86119730335281
 30
0.0
 11
873.19029783696101
 21
887.10988730335282
 31
0.0
  0
LINE
  5
E6A7
  8
0
  6
CONTINUOUS
 62
     7
 10
836.79411783696071
 20
876.62602730335266
 30
0.0
 11
873.21947783696146
 21
899.22969730335285
 31
0.0
  0
LINE
  5
E6A8
  8
0
  6
CONTINUOUS
 62
     7
 10
839.71971783696119
 20
864.12758730335281
 30
0.0
 11
870.582997836961
 21
864.12758730335281
 31
0.0
  0
LINE
  5
E6A9
  8
0
  6
CONTINUOUS
 62
     7
 10
877.72661783696105
 20
562.19408730335238
 30
0.0
 11
907.58305783696107
 21
562.19408730335238
 31
0.0
  0
LINE
  5
E6AA
  8
0
  6
CONTINUOUS
 62
     7
 10
718.58304783696099
 20
523.23163730335239
 30
0.0
 11
732.58305783696096
 21
523.23163730335239
 31
0.0
  0
LINE
  5
E6AB
  8
0
  6
CONTINUOUS
 62
     7
 10
732.58305783696096
 20
937.19408730335294
 30
0.0
 11
863.89720783696146
 21
940.63261730335284
 31
0.0
  0
LINE
  5
E6AC
  8
0
  6
CONTINUOUS
 62
     7
 10
732.58299783696111
 20
913.47996730335285
 30
0.0
 11
865.75755783696115
 21
911.15538730335265
 31
0.0
  0
LINE
  5
E6AD
  8
0
  6
CONTINUOUS
 62
     7
 10
732.58305783696096
 20
833.88075730335265
 30
0.0
 11
865.84483783696123
 21
837.37035730335253
 31
0.0
  0
LINE
  5
E6AE
  8
0
  6
CONTINUOUS
 62
     7
 10
732.58305783696096
 20
801.28834730335268
 30
0.0
 11
865.84477783696138
 21
797.79878730335258
 31
0.0
  0
LINE
  5
E6AF
  8
0
  6
CONTINUOUS
 62
     7
 10
732.58305783696096
 20
676.19408730335272
 30
0.0
 11
865.84483783696123
 21
679.68364730335259
 31
0.0
  0
LINE
  5
E6B0
  8
0
  6
CONTINUOUS
 62
     7
 10
732.58305783696096
 20
642.19408730335272
 30
0.0
 11
865.84483783696123
 21
638.70450730335278
 31
0.0
  0
LINE
  5
E6B1
  8
0
  6
CONTINUOUS
 62
     7
 10
825.6695478369611
 20
532.75652730335264
 30
0.0
 11
716.5830478369611
 21
535.6130473033528
 31
0.0
  0
LINE
  5
E6B2
  8
0
  6
CONTINUOUS
 62
     7
 10
919.582997836961
 20
754.69408730335283
 30
0.0
 11
919.582997836961
 21
829.69408730335294
 31
0.0
  0
LINE
  5
E6B3
  8
0
  6
CONTINUOUS
 62
     7
 10
913.58305783696119
 20
829.69408730335294
 30
0.0
 11
919.582997836961
 21
829.69408730335294
 31
0.0
  0
LINE
  5
E6B4
  8
0
  6
CONTINUOUS
 62
     7
 10
913.58305783696119
 20
754.69408730335283
 30
0.0
 11
919.582997836961
 21
754.69408730335283
 31
0.0
  0
LINE
  5
E6B5
  8
0
  6
CONTINUOUS
 62
     7
 10
878.58305783696119
 20
1019.651417303353
 30
0.0
 11
885.58299783696111
 21
1019.651417303353
 31
0.0
  0
LINE
  5
E6B6
  8
0
  6
CONTINUOUS
 62
     7
 10
878.58305783696119
 20
958.82042730335286
 30
0.0
 11
883.58305783696107
 21
958.82042730335286
 31
0.0
  0
LINE
  5
E6B7
  8
0
  6
CONTINUOUS
 62
     7
 10
878.58305783696119
 20
565.01857730335257
 30
0.0
 11
885.58299783696111
 21
565.01857730335257
 31
0.0
  0
LINE
  5
E6B8
  8
0
  6
CONTINUOUS
 62
     7
 10
886.58305783696119
 20
1020.651417303352
 30
0.0
 11
886.58305783696119
 21
1021.194087303352
 31
0.0
  0
LINE
  5
E6B9
  8
0
  6
CONTINUOUS
 62
     7
 10
875.58299783696111
 20
656.91038730335265
 30
0.0
 11
883.58305783696107
 21
656.91038730335265
 31
0.0
  0
LINE
  5
E6BA
  8
0
  6
CONTINUOUS
 62
     7
 10
825.66960783696106
 20
520.79407730335265
 30
0.0
 11
825.66960783696106
 21
532.75652730335264
 31
0.0
  0
LINE
  5
E6BB
  8
0
  6
CONTINUOUS
 62
     7
 10
716.5830478369611
 20
560.35179730335255
 30
0.0
 11
849.6695478369611
 21
556.86679730335277
 31
0.0
  0
LINE
  5
E6BC
  8
0
  6
CONTINUOUS
 62
     7
 10
825.66960783696106
 20
535.65674730335274
 30
0.0
 11
825.66960783696106
 21
553.22375730335239
 31
0.0
  0
LINE
  5
E6BD
  8
0
  6
CONTINUOUS
 62
     7
 10
732.58305783696096
 20
523.23163730335239
 30
0.0
 11
825.6695478369611
 21
520.79408730335285
 31
0.0
  0
ARC
  5
E6BE
  8
0
  6
CONTINUOUS
 62
     7
 10
719.55904783696099
 20
949.71770730335277
 30
0.0
 40
4.9499997999999961
 50
14.232567999999221
 51
78.312367000002808
  0
ARC
  5
E6BF
  8
0
  6
CONTINUOUS
 62
     7
 10
701.60714783696096
 20
949.71770730335277
 30
0.0
 40
4.9499997999999961
 50
101.68762999999259
 51
165.76742999999979
  0
ARC
  5
E6C0
  8
0
  6
CONTINUOUS
 62
     7
 10
710.5830478369611
 20
973.19408730335272
 30
0.0
 40
30.0
 50
304.59870999999788
 51
235.40129000000209
  0
CIRCLE
  5
E6C1
  8
0
  6
CONTINUOUS
 62
     7
 10
710.5830478369611
 20
973.19408730335272
 30
0.0
 40
17.5
  0
ARC
  5
E6C2
  8
0
  6
CONTINUOUS
 62
     7
 10
690.70914783696105
 20
944.38383730335283
 30
0.0
 40
5.0
 50
351.00000000000227
 51
55.401290000002128
  0
ARC
  5
E6C3
  8
0
  6
CONTINUOUS
 62
     7
 10
730.45689783696105
 20
944.38383730335283
 30
0.0
 40
5.0
 50
124.59872000000399
 51
188.9999999999977
  0
ARC
  5
E6C4
  8
0
  6
CONTINUOUS
 62
     7
 10
686.58304783696292
 20
898.53444730335275
 30
0.0
 40
4.0
 50
308.3820099999968
 51
0.0
  0
ARC
  5
E6C5
  8
0
  6
CONTINUOUS
 62
     7
 10
662.08304783696121
 20
608.87781730335291
 30
0.0
 40
4.0
 50
0.0
 51
89.000001000002115
  0
ARC
  5
E6C6
  8
0
  6
CONTINUOUS
 62
     7
 10
712.5830478369611
 20
919.12852730335283
 30
0.0
 40
4.0
 50
308.3820099999968
 51
0.0
  0
ARC
  5
E6C7
  8
0
  6
CONTINUOUS
 62
     7
 10
720.5830478369611
 20
939.19408730335283
 30
0.0
 40
4.0
 50
90.00000299999769
 51
180.000010000001
  0
ARC
  5
E6C8
  8
0
  6
CONTINUOUS
 62
     7
 10
661.08304783696212
 20
851.29304730335286
 30
0.0
 40
5.0
 50
271.00000000000182
 51
0.0
  0
ARC
  5
E6C9
  8
0
  6
CONTINUOUS
 62
     7
 10
676.08304783696121
 20
872.35796730335278
 30
0.0
 40
10.0
 50
128.38200999999691
 51
180.000010000001
  0
ARC
  5
E6CA
  8
0
  6
CONTINUOUS
 62
     7
 10
620.08304783696121
 20
846.59407730335283
 30
0.0
 40
1.0
 50
0.0
 51
90.00000299999769
  0
ARC
  5
E6CB
  8
0
  6
CONTINUOUS
 62
     7
 10
621.58304783696212
 20
846.10289730335285
 30
0.0
 40
0.5
 50
179.999989999999
 51
271.00000000000182
  0
ARC
  5
E6CC
  8
0
  6
CONTINUOUS
 62
     7
 10
621.58304783696212
 20
613.08527730335265
 30
0.0
 40
0.5
 50
89.000001000002115
 51
180.000010000001
  0
ARC
  5
E6CD
  8
0
  6
CONTINUOUS
 62
     7
 10
620.08304783696121
 20
612.59407730335261
 30
0.0
 40
1.0
 50
270.0
 51
0.0
  0
ARC
  5
E6CE
  8
0
  6
CONTINUOUS
 62
     7
 10
619.08304783696212
 20
827.32130730335268
 30
0.0
 40
2.0
 50
0.0
 51
90.00000299999769
  0
ARC
  5
E6CF
  8
0
  6
CONTINUOUS
 62
     7
 10
619.08304783696212
 20
811.76491730335249
 30
0.0
 40
2.0
 50
0.0
 51
90.00000299999769
  0
ARC
  5
E6D0
  8
0
  6
CONTINUOUS
 62
     7
 10
619.08304783696212
 20
647.42320730335257
 30
0.0
 40
2.0
 50
270.0
 51
0.0
  0
ARC
  5
E6D1
  8
0
  6
CONTINUOUS
 62
     7
 10
619.08304783696212
 20
631.86685730335273
 30
0.0
 40
2.0
 50
270.0
 51
0.0
  0
ARC
  5
E6D2
  8
0
  6
CONTINUOUS
 62
     7
 10
676.08304783696121
 20
592.84830730335273
 30
0.0
 40
10.0
 50
179.999989999999
 51
238.96954999999619
  0
ARC
  5
E6D3
  8
0
  6
CONTINUOUS
 62
     7
 10
712.5830478369611
 20
554.55238730335282
 30
0.0
 40
4.0
 50
0.0
 51
58.969551999996732
  0
ARC
  5
E6D4
  8
0
  6
CONTINUOUS
 62
     7
 10
883.58305783696107
 20
894.41789730335279
 30
0.0
 40
3.0
 50
0.0
 51
90.00000299999769
  0
ARC
  5
E6D5
  8
0
  6
CONTINUOUS
 62
     7
 10
883.58305783696107
 20
631.69138730335271
 30
0.0
 40
3.0
 50
270.0
 51
0.0
  0
ARC
  5
E6D6
  8
0
  6
CONTINUOUS
 62
     7
 10
878.58305783696119
 20
625.69138730335271
 30
0.0
 40
3.0
 50
90.00000299999769
 51
180.000010000001
  0
ARC
  5
E6D7
  8
0
  6
CONTINUOUS
 62
     7
 10
827.08299783696111
 20
965.67546730335278
 30
0.0
 40
20.0
 50
271.50000000000267
 51
314.9999999999954
  0
ARC
  5
E6D8
  8
0
  6
CONTINUOUS
 62
     7
 10
865.58299783696111
 20
990.03337730335284
 30
0.0
 40
10.0
 50
314.9999999999954
 51
0.0
  0
ARC
  5
E6D9
  8
0
  6
CONTINUOUS
 62
     7
 10
834.15776783696106
 20
880.87453730335267
 30
0.0
 40
5.0
 50
270.0
 51
301.82161000000019
  0
ARC
  5
E6DA
  8
0
  6
CONTINUOUS
 62
     7
 10
834.17619783696114
 20
869.12758730335293
 30
0.0
 40
5.0
 50
270.0
 51
301.4296299999998
  0
ARC
  5
E6DB
  8
0
  6
CONTINUOUS
 62
     7
 10
870.582997836961
 20
903.47819730335254
 30
0.0
 40
5.0
 50
301.82161000000019
 51
0.0
  0
ARC
  5
E6DC
  8
0
  6
CONTINUOUS
 62
     7
 10
870.582997836961
 20
891.37627730335248
 30
0.0
 40
5.0
 50
301.4296299999998
 51
0.0
  0
ARC
  5
E6DD
  8
0
  6
CONTINUOUS
 62
     7
 10
870.582997836961
 20
869.12758730335293
 30
0.0
 40
5.0
 50
270.0
 51
337.66197000000301
  0
ARC
  5
E6DE
  8
0
  6
CONTINUOUS
 62
     7
 10
865.58299783696111
 20
689.68022730335281
 30
0.0
 40
10.0
 50
271.50000000000267
 51
0.0
  0
ARC
  5
E6DF
  8
0
  6
CONTINUOUS
 62
     7
 10
865.58299783696111
 20
628.70792730335268
 30
0.0
 40
10.0
 50
0.0
 51
88.499997000000647
  0
ARC
  5
E6E0
  8
0
  6
CONTINUOUS
 62
     7
 10
865.58299783696111
 20
847.36693730335276
 30
0.0
 40
10.0
 50
271.50000000000267
 51
0.0
  0
ARC
  5
E6E1
  8
0
  6
CONTINUOUS
 62
     7
 10
865.58299783696111
 20
787.80223730335285
 30
0.0
 40
10.0
 50
0.0
 51
88.499997000000647
  0
ARC
  5
E6E2
  8
0
  6
CONTINUOUS
 62
     7
 10
865.58299783696111
 20
901.15691730335277
 30
0.0
 40
10.0
 50
7.8228146000024212
 51
89.000001000002115
  0
ARC
  5
E6E3
  8
0
  6
CONTINUOUS
 62
     7
 10
863.58305783696119
 20
958.6285273033526
 30
0.0
 40
12.0
 50
271.50000000000267
 51
0.0
  0
ARC
  5
E6E4
  8
0
  6
CONTINUOUS
 62
     7
 10
863.58305783696119
 20
952.62852730335271
 30
0.0
 40
12.0
 50
271.50000000000267
 51
0.0
  0
ARC
  5
E6E5
  8
0
  6
CONTINUOUS
 62
     7
 10
878.58305783696119
 20
1016.651417303352
 30
0.0
 40
3.0
 50
90.00000299999769
 51
180.000010000001
  0
ARC
  5
E6E6
  8
0
  6
CONTINUOUS
 62
     7
 10
887.58305783696142
 20
1021.194087303352
 30
0.0
 40
1.0
 50
90.00000299999769
 51
180.000010000001
  0
ARC
  5
E6E7
  8
0
  6
CONTINUOUS
 62
     7
 10
885.58299783696111
 20
1020.651417303352
 30
0.0
 40
1.0
 50
270.0
 51
0.0
  0
ARC
  5
E6E8
  8
0
  6
CONTINUOUS
 62
     7
 10
878.58305783696119
 20
961.82048730335305
 30
0.0
 40
3.0
 50
179.999989999999
 51
270.0
  0
ARC
  5
E6E9
  8
0
  6
CONTINUOUS
 62
     7
 10
883.58305783696107
 20
955.8204273033524
 30
0.0
 40
3.0
 50
0.0
 51
90.00000299999769
  0
ARC
  5
E6EA
  8
0
  6
CONTINUOUS
 62
     7
 10
883.58305783696107
 20
659.91042730335266
 30
0.0
 40
3.0
 50
270.0
 51
0.0
  0
ARC
  5
E6EB
  8
0
  6
CONTINUOUS
 62
     7
 10
878.58305783696119
 20
568.01857730335257
 30
0.0
 40
3.0
 50
179.999989999999
 51
270.0
  0
ARC
  5
E6EC
  8
0
  6
CONTINUOUS
 62
     7
 10
885.58299783696111
 20
564.01857730335257
 30
0.0
 40
1.0
 50
0.0
 51
90.00000299999769
  0
ARC
  5
E6ED
  8
0
  6
CONTINUOUS
 62
     7
 10
887.58305783696142
 20
563.19406730335265
 30
0.0
 40
1.0
 50
179.999989999999
 51
270.0
  0
ARC
  5
E6EE
  8
0
  6
CONTINUOUS
 62
     7
 10
877.72661783696105
 20
554.19406730335265
 30
0.0
 40
8.0
 50
90.00000299999769
 51
120.0000000000005
  0
ARC
  5
E6EF
  8
0
  6
CONTINUOUS
 62
     7
 10
823.81633783696134
 20
558.60149730335274
 30
0.0
 40
25.911341
 50
274.10136000000199
 51
343.00889000000069
  0
ARC
  5
E6F0
  8
0
  6
CONTINUOUS
 62
     7
 10
856.24742783696149
 20
548.69180730335256
 30
0.0
 40
8.0
 50
88.499997000000647
 51
163.00888000000089
  0
ARC
  5
E6F1
  8
0
  6
CONTINUOUS
 62
     7
 10
827.226007836961
 20
549.2707773033527
 30
0.0
 40
28.519185999999991
 50
266.87149999999917
 51
354.92326999999642
  0
ARC
  5
E6F2
  8
0
  6
CONTINUOUS
 62
     7
 10
863.60197783696105
 20
546.03918730335249
 30
0.0
 40
8.0
 50
120.0000000000005
 51
174.92325999999881
  0
ARC
  5
E6F3
  8
0
  6
CONTINUOUS
 62
     7
 10
718.58304783696099
 20
525.23163730335261
 30
0.0
 40
2.0
 50
179.999989999999
 51
270.0
  0
LINE
  5
E767
  8
0
  6
CONTINUOUS
 62
     7
 10
1499.4243444127389
 20
836.62495730335274
 30
0.0
 11
1575.3721344127389
 21
722.9065473033528
 31
0.0
  0
LINE
  5
E768
  8
0
  6
CONTINUOUS
 62
     7
 10
1257.5344544127399
 20
967.55656730335284
 30
0.0
 11
1226.42175441274
 21
998.66923730335293
 31
0.0
  0
LINE
  5
E769
  8
0
  6
CENTER
 62
     0
 10
1664.6041984127401
 20
792.19408730335283
 30
0.0
 11
1197.8969444127399
 21
792.19408730335283
 31
0.0
  0
LINE
  5
E76A
  8
0
  6
CONTINUOUS
 62
     7
 10
1369.0556344127399
 20
847.55006730335265
 30
0.0
 11
1301.61297441274
 21
914.99278730335266
 31
0.0
  0
LINE
  5
E76B
  8
0
  6
CONTINUOUS
 62
     7
 10
1377.54092441274
 20
856.0353573033525
 30
0.0
 11
1310.0982344127401
 21
923.47801730335266
 31
0.0
  0
LINE
  5
E76C
  8
0
  6
CONTINUOUS
 62
     7
 10
1366.3695044127401
 20
836.62495730335274
 30
0.0
 11
1290.4217244127401
 21
722.9065473033528
 31
0.0
  0
LINE
  5
E76D
  8
0
  6
CENTER
 62
     0
 10
1432.896944412739
 20
1027.194087303352
 30
0.0
 11
1432.896944412739
 21
517.26608730335249
 31
0.0
  0
LINE
  5
E76E
  8
0
  6
CONTINUOUS
 62
     7
 10
1442.8969444127399
 20
831.69408730335283
 30
0.0
 11
1422.896944412739
 21
831.69408730335283
 31
0.0
  0
LINE
  5
E76F
  8
0
  6
CONTINUOUS
 62
     7
 10
1442.8969444127399
 20
819.69408730335272
 30
0.0
 11
1442.8969444127399
 21
831.69408730335283
 31
0.0
  0
LINE
  5
E770
  8
0
  6
CONTINUOUS
 62
     7
 10
1422.896944412739
 20
819.69408730335272
 30
0.0
 11
1442.8969444127399
 21
819.69408730335272
 31
0.0
  0
LINE
  5
E771
  8
0
  6
CONTINUOUS
 62
     7
 10
1422.896944412739
 20
831.69408730335283
 30
0.0
 11
1422.896944412739
 21
819.69408730335272
 31
0.0
  0
LINE
  5
E773
  8
0
  6
CONTINUOUS
 62
     7
 10
1332.8969444127399
 20
1022.1940873033529
 30
0.0
 11
1532.8969444127399
 21
1022.1940873033529
 31
0.0
  0
LINE
  5
E774
  8
0
  6
CONTINUOUS
 62
     7
 10
1228.0823644127399
 20
1018.194147303353
 30
0.0
 11
1332.8969444127399
 21
1022.194147303353
 31
0.0
  0
LINE
  5
E775
  8
0
  6
CONTINUOUS
 62
     7
 10
1532.8969444127399
 20
1022.194027303352
 30
0.0
 11
1637.7114794127399
 21
1018.194027303352
 31
0.0
  0
LINE
  5
E776
  8
0
  6
CONTINUOUS
 62
     7
 10
1206.896944412739
 20
587.37952730335257
 30
0.0
 11
1202.8969444127399
 21
692.19408730335283
 31
0.0
  0
LINE
  5
E777
  8
0
  6
CONTINUOUS
 62
     7
 10
1202.8969444127399
 20
692.19408730335283
 30
0.0
 11
1202.8969444127399
 21
892.19408730335294
 31
0.0
  0
LINE
  5
E778
  8
0
  6
CONTINUOUS
 62
     7
 10
1202.8969744127401
 20
892.19405730335268
 30
0.0
 11
1206.8969744127401
 21
997.00859730335276
 31
0.0
  0
LINE
  5
E779
  8
0
  6
CONTINUOUS
 62
     7
 10
1637.71148641274
 20
566.19406730335265
 30
0.0
 11
1532.89692441274
 21
562.19406730335265
 31
0.0
  0
LINE
  5
E77A
  8
0
  6
CONTINUOUS
 62
     7
 10
1532.8969444127399
 20
562.19408730335238
 30
0.0
 11
1332.8969444127399
 21
562.19408730335238
 31
0.0
  0
LINE
  5
E77B
  8
0
  6
CONTINUOUS
 62
     7
 10
1332.89691441274
 20
562.19408730335238
 30
0.0
 11
1228.0823944127389
 21
566.19408730335249
 31
0.0
  0
LINE
  5
E77C
  8
0
  6
CONTINUOUS
 62
     7
 10
1658.896930412739
 20
997.00865730335261
 30
0.0
 11
1662.8969344127399
 21
892.19408730335294
 31
0.0
  0
LINE
  5
E77D
  8
0
  6
CONTINUOUS
 62
     7
 10
1662.8969344127399
 20
892.19408730335294
 30
0.0
 11
1662.8969344127399
 21
692.19408730335283
 31
0.0
  0
LINE
  5
E77E
  8
0
  6
CONTINUOUS
 62
     7
 10
1662.8969344127399
 20
692.19408730335283
 30
0.0
 11
1658.8969344127399
 21
587.37953730335266
 31
0.0
  0
LINE
  5
E77F
  8
0
  6
CONTINUOUS
 62
     7
 10
1257.5344544127399
 20
616.83160730335271
 30
0.0
 11
1226.42175441274
 21
585.71890730335258
 31
0.0
  0
LINE
  5
E780
  8
0
  6
CONTINUOUS
 62
     7
 10
1608.259399412739
 20
616.83159730335262
 30
0.0
 11
1639.372108412739
 21
585.71889730335272
 31
0.0
  0
LINE
  5
E781
  8
0
  6
CONTINUOUS
 62
     7
 10
1608.259430412739
 20
967.55656730335284
 30
0.0
 11
1639.3721234127399
 21
998.66923730335293
 31
0.0
  0
LINE
  5
E782
  8
0
  6
CONTINUOUS
 62
     7
 10
1488.2529444127399
 20
856.0353573033525
 30
0.0
 11
1555.69563441274
 21
923.47807730335285
 31
0.0
  0
LINE
  5
E783
  8
0
  6
CONTINUOUS
 62
     7
 10
1496.7382044127401
 20
847.55009730335269
 30
0.0
 11
1564.18087441274
 21
914.99278730335266
 31
0.0
  0
LINE
  5
E784
  8
0
  6
CONTINUOUS
 62
     7
 10
1381.8969144127391
 20
533.37653730335285
 30
0.0
 11
1413.8379544127399
 21
533.37653730335285
 31
0.0
  0
LINE
  5
E785
  8
0
  6
CONTINUOUS
 62
     7
 10
1303.4593844127401
 20
552.19408730335272
 30
0.0
 11
1303.4593844127401
 21
556.25008730335264
 31
0.0
  0
LINE
  5
E786
  8
0
  6
CONTINUOUS
 62
     7
 10
1562.33448441274
 20
552.19408730335272
 30
0.0
 11
1562.33448441274
 21
556.25008730335264
 31
0.0
  0
LINE
  5
E787
  8
0
  6
CONTINUOUS
 62
     7
 10
1413.4593844127401
 20
537.19408730335238
 30
0.0
 11
1413.4593844127401
 21
542.71944730335269
 31
0.0
  0
LINE
  5
E788
  8
0
  6
CONTINUOUS
 62
     7
 10
1452.33448441274
 20
537.19408730335238
 30
0.0
 11
1452.33448441274
 21
542.71944730335269
 31
0.0
  0
LINE
  5
E789
  8
0
  6
CONTINUOUS
 62
     7
 10
1451.95591441274
 20
533.37653730335285
 30
0.0
 11
1483.8969244127391
 21
533.37653730335285
 31
0.0
  0
LINE
  5
E78A
  8
0
  6
CONTINUOUS
 62
     7
 10
1422.463414412739
 20
520.79407730335265
 30
0.0
 11
1443.330474412739
 21
520.79407730335265
 31
0.0
  0
ARC
  5
E78B
  8
0
  6
CONTINUOUS
 62
     7
 10
1432.896944412739
 20
792.19408730335283
 30
0.0
 40
305.0
 50
312.1847300000025
 51
317.81526999999801
  0
ARC
  5
E78C
  8
0
  6
CONTINUOUS
 62
     7
 10
1432.896944412739
 20
792.19408730335283
 30
0.0
 40
305.0
 50
222.18473000000199
 51
227.8152699999975
  0
ARC
  5
E78D
  8
0
  6
CONTINUOUS
 62
     7
 10
1432.896944412739
 20
792.19408730335283
 30
0.0
 40
305.0
 50
42.184730000002013
 51
47.815272000001251
  0
ARC
  5
E78E
  8
0
  6
CONTINUOUS
 62
     7
 10
1432.896944412739
 20
792.19408730335283
 30
0.0
 40
305.0
 50
132.1847300000025
 51
137.81526999999801
  0
CIRCLE
  5
E78F
  8
0
  6
CONTINUOUS
 62
     7
 10
1432.896944412739
 20
792.19408730335283
 30
0.0
 40
195.0
  0
CIRCLE
  5
E790
  8
0
  6
CONTINUOUS
 62
     7
 10
1432.896944412739
 20
792.19408730335283
 30
0.0
 40
185.0
  0
CIRCLE
  5
E791
  8
0
  6
CONTINUOUS
 62
     7
 10
1432.896944412739
 20
792.19408730335283
 30
0.0
 40
60.0
  0
ARC
  5
E792
  8
0
  6
CONTINUOUS
 62
     7
 10
1483.8969244127391
 20
661.81407730335275
 30
0.0
 40
110.0
 50
19.265640999997451
 51
33.737306000000757
  0
ARC
  5
E793
  8
0
  6
CONTINUOUS
 62
     7
 10
1432.896944412739
 20
782.1940873033526
 30
0.0
 40
144.0
 50
343.5045499999992
 51
45.028278000005457
  0
ARC
  5
E794
  8
0
  6
CONTINUOUS
 62
     7
 10
1567.13485441274
 20
742.44261730335279
 30
0.0
 40
4.0
 50
269.3273499999965
 51
343.5045499999992
  0
ARC
  5
E795
  8
0
  6
CONTINUOUS
 62
     7
 10
1578.2968344127389
 20
694.80891730335281
 30
0.0
 40
10.0
 50
347.78888000000222
 51
19.265640999997451
  0
ARC
  5
E796
  8
0
  6
CONTINUOUS
 62
     7
 10
1432.896944412739
 20
792.19408730335283
 30
0.0
 40
270.0
 50
130.04274000000291
 51
139.6698400000017
  0
CIRCLE
  5
E797
  8
0
  6
CONTINUOUS
 62
     7
 10
1241.9780844127399
 20
983.11290730335259
 30
0.0
 40
12.0
  0
ARC
  5
E798
  8
0
  6
CONTINUOUS
 62
     7
 10
1287.49704441274
 20
694.80891730335281
 30
0.0
 40
10.0
 50
160.73435999999981
 51
192.21112999999951
  0
ARC
  5
E799
  8
0
  6
CONTINUOUS
 62
     7
 10
1298.65899441274
 20
742.44261730335279
 30
0.0
 40
4.0
 50
196.49545000000069
 51
270.67264000000381
  0
ARC
  5
E79A
  8
0
  6
CONTINUOUS
 62
     7
 10
1432.896944412739
 20
782.1940873033526
 30
0.0
 40
144.0
 50
50.607648000002797
 51
129.39235000000389
  0
ARC
  5
E79B
  8
0
  6
CONTINUOUS
 62
     7
 10
1432.896944412739
 20
782.1940873033526
 30
0.0
 40
144.0
 50
134.97172000000049
 51
196.49544000000139
  0
ARC
  5
E79C
  8
0
  6
CONTINUOUS
 62
     7
 10
1381.8969144127391
 20
661.81407730335275
 30
0.0
 40
110.0
 50
146.26269999999701
 51
160.73435999999981
  0
ARC
  5
E79D
  8
0
  6
CONTINUOUS
 62
     7
 10
1432.896944412739
 20
792.19408730335283
 30
0.0
 40
80.0
 50
33.737306000000757
 51
146.26269999999701
  0
CIRCLE
  5
E79E
  8
0
  6
CONTINUOUS
 62
     7
 10
1432.896944412739
 20
792.19408730335283
 30
0.0
 40
5.0
  0
CIRCLE
  5
E79F
  8
0
  6
CONTINUOUS
 62
     7
 10
1432.896944412739
 20
792.19408730335283
 30
0.0
 40
6.0
  0
ARC
  5
E7A0
  8
0
  6
CONTINUOUS
 62
     7
 10
1432.896944412739
 20
792.19408730335283
 30
0.0
 40
35.0
 50
106.60155000000501
 51
73.398452000004042
  0
CIRCLE
  5
E7A1
  8
0
  6
CONTINUOUS
 62
     7
 10
1241.9780844127399
 20
601.27524730335267
 30
0.0
 40
12.0
  0
ARC
  5
E7A2
  8
0
  6
CONTINUOUS
 62
     7
 10
1432.896944412739
 20
792.19408730335283
 30
0.0
 40
270.0
 50
220.3301599999981
 51
229.66983999999681
  0
CIRCLE
  5
E7A3
  8
0
  6
CONTINUOUS
 62
     7
 10
1623.8157654127399
 20
601.27524730335267
 30
0.0
 40
12.0
  0
ARC
  5
E7A4
  8
0
  6
CONTINUOUS
 62
     7
 10
1432.896944412739
 20
792.19408730335283
 30
0.0
 40
270.0
 50
309.72138000000268
 51
319.66984000000178
  0
CIRCLE
  5
E7A5
  8
0
  6
CONTINUOUS
 62
     7
 10
1623.8157654127399
 20
983.11290730335259
 30
0.0
 40
12.0
  0
ARC
  5
E7A6
  8
0
  6
CONTINUOUS
 62
     7
 10
1432.896944412739
 20
792.19408730335283
 30
0.0
 40
270.0
 50
40.330163000001342
 51
49.669836000000679
  0
ARC
  5
E7A7
  8
0
  6
CONTINUOUS
 62
     7
 10
1313.633784412739
 20
927.01353730335268
 30
0.0
 40
5.0
 50
168.84116000000421
 51
225.0000000000046
  0
ARC
  5
E7A8
  8
0
  6
CONTINUOUS
 62
     7
 10
1298.0774244127399
 20
911.45720730335279
 30
0.0
 40
5.0
 50
45.000000999994569
 51
101.1588400000022
  0
ARC
  5
E7A9
  8
0
  6
CONTINUOUS
 62
     7
 10
1365.52011441274
 20
844.01457730335255
 30
0.0
 40
5.0
 50
358.28216000000077
 51
45.000000999994569
  0
ARC
  5
E7AA
  8
0
  6
CONTINUOUS
 62
     7
 10
1381.076444412739
 20
859.57091730335276
 30
0.0
 40
5.0
 50
225.0000000000046
 51
271.71783999999269
  0
ARC
  5
E7AB
  8
0
  6
CONTINUOUS
 62
     7
 10
1484.7174044127401
 20
859.57091730335276
 30
0.0
 40
5.0
 50
268.2821600000072
 51
314.9999999999954
  0
ARC
  5
E7AC
  8
0
  6
CONTINUOUS
 62
     7
 10
1500.2737544127399
 20
844.01457730335255
 30
0.0
 40
5.0
 50
134.9999999999954
 51
181.71783999999909
  0
ARC
  5
E7AD
  8
0
  6
CONTINUOUS
 62
     7
 10
1567.71644441274
 20
911.45720730335279
 30
0.0
 40
5.0
 50
78.841153999999761
 51
134.9999999999954
  0
ARC
  5
E7AE
  8
0
  6
CONTINUOUS
 62
     7
 10
1552.1600944127399
 20
927.01353730335268
 30
0.0
 40
5.0
 50
314.9999999999954
 51
11.15884700000438
  0
ARC
  5
E7AF
  8
0
  6
CONTINUOUS
 62
     7
 10
1381.8969144127391
 20
661.81407730335275
 30
0.0
 40
128.43755999999991
 50
229.96398999999809
 51
230.68880999999459
  0
ARC
  5
E7B0
  8
0
  6
CONTINUOUS
 62
     7
 10
1322.8969444127399
 20
552.19408730335272
 30
0.0
 40
19.437557000000002
 50
179.999989999999
 51
0.0000100179138904
  0
ARC
  5
E7B1
  8
0
  6
CONTINUOUS
 62
     7
 10
1295.4593844127401
 20
556.25008730335264
 30
0.0
 40
8.0
 50
0.0
 51
50.688810999995432
  0
ARC
  5
E7B2
  8
0
  6
CONTINUOUS
 62
     7
 10
1350.3345044127391
 20
552.19408730335272
 30
0.0
 40
8.0
 50
141.82987999999949
 51
180.000010000001
  0
ARC
  5
E7B3
  8
0
  6
CONTINUOUS
 62
     7
 10
1381.8969144127391
 20
661.81407730335275
 30
0.0
 40
128.43755999999991
 50
250.34187000000659
 51
270.0
  0
ARC
  5
E7B4
  8
0
  6
CONTINUOUS
 62
     7
 10
1515.4593844127389
 20
552.19408730335272
 30
0.0
 40
8.0
 50
0.0
 51
38.170126000000899
  0
ARC
  5
E7B5
  8
0
  6
CONTINUOUS
 62
     7
 10
1570.33448441274
 20
556.25008730335264
 30
0.0
 40
8.0
 50
129.31119000000541
 51
180.000010000001
  0
ARC
  5
E7B6
  8
0
  6
CONTINUOUS
 62
     7
 10
1542.8969444127399
 20
552.19408730335272
 30
0.0
 40
19.437557000000002
 50
179.999989999999
 51
0.0000100179138904
  0
ARC
  5
E7B7
  8
0
  6
CONTINUOUS
 62
     7
 10
1483.8969244127391
 20
661.81407730335275
 30
0.0
 40
128.43755999999991
 50
309.3111900000053
 51
310.03601000000191
  0
ARC
  5
E7B8
  8
0
  6
CONTINUOUS
 62
     7
 10
1483.8969244127391
 20
661.81407730335275
 30
0.0
 40
128.43755999999991
 50
270.0
 51
289.65811999999801
  0
ARC
  5
E7B9
  8
0
  6
CONTINUOUS
 62
     7
 10
1432.896944412739
 20
537.19408730335238
 30
0.0
 40
19.437557000000002
 50
179.999989999999
 51
237.5358399999985
  0
ARC
  5
E7BA
  8
0
  6
CONTINUOUS
 62
     7
 10
1432.896944412739
 20
537.19408730335238
 30
0.0
 40
19.437557000000002
 50
302.46414999999712
 51
0.0
  0
ARC
  5
E7BB
  8
0
  6
CONTINUOUS
 62
     7
 10
1405.4593844127401
 20
542.71944730335269
 30
0.0
 40
8.0
 50
0.0
 51
90.00000299999769
  0
ARC
  5
E7BC
  8
0
  6
CONTINUOUS
 62
     7
 10
1460.3344844127389
 20
542.71944730335269
 30
0.0
 40
8.0
 50
90.00000299999769
 51
180.000010000001
  0
TEXT
  5
E9AA
  8
0
  6
CONTINUOUS
 62
     0
 10
1219.192069950923
 20
1235.469073084508
 30
0.0
 40
20.0
  1
VX75-040EMF~VX75-080EMF
  0
ENDSEC
  0
EOF
