  0
SECTION
  2
HEADER
  9
$ACADVER
  1
AC1009
  9
$INSBASE
 10
0.0
 20
0.0
 30
0.0
  9
$EXTMIN
 10
142.1241095135035
 20
173.38852434608361
 30
-0.0000000349181948
  9
$EXTMAX
 10
731.62724488732329
 20
589.16850096234805
 30
0.0000000814935747
  9
$LIMMIN
 10
0.0
 20
0.0
  9
$LIMMAX
 10
853.5
 20
555.00000000000011
  9
$ORTHOMODE
 70
     0
  9
$REGENMODE
 70
     1
  9
$FILLMODE
 70
     1
  9
$QTEXTMODE
 70
     0
  9
$MIRRTEXT
 70
     1
  9
$DRAGMODE
 70
     2
  9
$LTSCALE
 40
3.0
  9
$OSMODE
 70
   551
  9
$ATTMODE
 70
     1
  9
$TEXTSIZE
 40
2.5
  9
$TRACEWID
 40
1.0
  9
$TEXTSTYLE
  7
STANDARD
  9
$CLAYER
  8
AM_0
  9
$CELTYPE
  6
BYLAYER
  9
$CECOLOR
 62
   256
  9
$DIMSCALE
 40
3.0
  9
$DIMASZ
 40
2.5
  9
$DIMEXO
 40
1.0
  9
$DIMDLI
 40
8.0
  9
$DIMRND
 40
0.0
  9
$DIMDLE
 40
0.0
  9
$DIMEXE
 40
0.6
  9
$DIMTP
 40
0.1
  9
$DIMTM
 40
0.1
  9
$DIMTXT
 40
2.5
  9
$DIMCEN
 40
0.0
  9
$DIMTSZ
 40
0.0
  9
$DIMTOL
 70
     0
  9
$DIMLIM
 70
     0
  9
$DIMTIH
 70
     0
  9
$DIMTOH
 70
     0
  9
$DIMSE1
 70
     0
  9
$DIMSE2
 70
     0
  9
$DIMTAD
 70
     1
  9
$DIMZIN
 70
     8
  9
$DIMBLK
  1

  9
$DIMASO
 70
     1
  9
$DIMSHO
 70
     1
  9
$DIMPOST
  1

  9
$DIMAPOST
  1
"
  9
$DIMALT
 70
     0
  9
$DIMALTD
 70
     2
  9
$DIMALTF
 40
0.0393701
  9
$DIMLFAC
 40
1.0
  9
$DIMTOFL
 70
     1
  9
$DIMTVP
 40
0.0
  9
$DIMTIX
 70
     0
  9
$DIMSOXD
 70
     0
  9
$DIMSAH
 70
     0
  9
$DIMBLK1
  1

  9
$DIMBLK2
  1

  9
$DIMSTYLE
  2
AM_ISO
  9
$DIMCLRD
 70
   256
  9
$DIMCLRE
 70
   256
  9
$DIMCLRT
 70
     4
  9
$DIMTFAC
 40
0.71
  9
$DIMGAP
 40
0.8
  9
$LUNITS
 70
     2
  9
$LUPREC
 70
     2
  9
$SKETCHINC
 40
1.0
  9
$FILLETRAD
 40
1.0
  9
$AUNITS
 70
     0
  9
$AUPREC
 70
     0
  9
$MENU
  1
.
  9
$ELEVATION
 40
0.0
  9
$PELEVATION
 40
0.0
  9
$THICKNESS
 40
0.0
  9
$LIMCHECK
 70
     0
  9
$BLIPMODE
 70
     0
  9
$CHAMFERA
 40
6.0
  9
$CHAMFERB
 40
3.0
  9
$SKPOLY
 70
     0
  9
$TDCREATE
 40
2452065.6056192131
  9
$TDUPDATE
 40
2458541.6023069448
  9
$TDINDWG
 40
0.3585453241
  9
$TDUSRTIMER
 40
0.3585451273
  9
$USRTIMER
 70
     1
  9
$ANGBASE
 50
0.0
  9
$ANGDIR
 70
     0
  9
$PDMODE
 70
     0
  9
$PDSIZE
 40
0.0
  9
$PLINEWID
 40
0.0
  9
$COORDS
 70
     1
  9
$SPLFRAME
 70
     0
  9
$SPLINETYPE
 70
     6
  9
$SPLINESEGS
 70
     8
  9
$ATTDIA
 70
     1
  9
$ATTREQ
 70
     1
  9
$HANDLING
 70
     1
  9
$HANDSEED
  5
53C0
  9
$SURFTAB1
 70
     6
  9
$SURFTAB2
 70
     6
  9
$SURFTYPE
 70
     6
  9
$SURFU
 70
     6
  9
$SURFV
 70
     6
  9
$UCSNAME
  2

  9
$UCSORG
 10
0.0
 20
0.0
 30
0.0
  9
$UCSXDIR
 10
1.0
 20
0.0
 30
0.0
  9
$UCSYDIR
 10
0.0
 20
1.0
 30
0.0
  9
$PUCSNAME
  2

  9
$PUCSORG
 10
0.0
 20
0.0
 30
0.0
  9
$PUCSXDIR
 10
1.0
 20
0.0
 30
0.0
  9
$PUCSYDIR
 10
0.0
 20
1.0
 30
0.0
  9
$USERI1
 70
     0
  9
$USERI2
 70
     0
  9
$USERI3
 70
     0
  9
$USERI4
 70
     0
  9
$USERI5
 70
     0
  9
$USERR1
 40
0.0
  9
$USERR2
 40
0.0
  9
$USERR3
 40
0.0
  9
$USERR4
 40
0.0
  9
$USERR5
 40
0.0
  9
$WORLDVIEW
 70
     1
  9
$SHADEDGE
 70
     3
  9
$SHADEDIF
 70
    70
  9
$TILEMODE
 70
     1
  9
$MAXACTVP
 70
    64
  9
$PLIMCHECK
 70
     0
  9
$PEXTMIN
 10
1.0000000000000000E+020
 20
1.0000000000000000E+020
 30
1.0000000000000000E+020
  9
$PEXTMAX
 10
-1.0000000000000000E+020
 20
-1.0000000000000000E+020
 30
-1.0000000000000000E+020
  9
$PLIMMIN
 10
0.0
 20
0.0
  9
$PLIMMAX
 10
420.0
 20
297.0
  9
$UNITMODE
 70
     0
  9
$VISRETAIN
 70
     1
  9
$PLINEGEN
 70
     0
  9
$PSLTSCALE
 70
     1
  0
ENDSEC
  0
SECTION
  2
TABLES
  0
TABLE
  2
VPORT
 70
     1
  0
VPORT
  2
*ACTIVE
 70
     0
 10
0.0
 20
0.0
 11
1.0
 21
1.0
 12
436.87567720041329
 22
381.27851265421589
 13
0.0
 23
0.0
 14
7.5
 24
7.5
 15
30.0
 25
30.0
 16
0.0
 26
0.0
 36
1.0
 17
0.0
 27
0.0
 37
0.0
 40
418.63430139852721
 41
1.7571592210767459
 42
50.0
 43
0.0
 44
0.0
 50
0.0
 51
0.0
 71
     0
 72
   100
 73
     1
 74
     3
 75
     0
 76
     0
 77
     0
 78
     0
  0
ENDTAB
  0
TABLE
  2
LTYPE
 70
    26
  0
LTYPE
  2
CONTINUOUS
 70
     0
  3
Solid line
 72
    65
 73
     0
 40
0.0
  0
LTYPE
  2
AM_ISO02W050
 70
     0
  3
__ __ __ __ __ __ __ __ __ __ __ __ __ __ __
 72
    65
 73
     2
 40
7.5
 49
6.0
 49
-1.5
  0
LTYPE
  2
AM_ISO08W050
 70
     0
  3
____ . ____ . ____ . ____ . ____ . ____ . ____
 72
    65
 73
     4
 40
18.0
 49
12.0
 49
-1.5
 49
3.0
 49
-1.5
  0
LTYPE
  2
AM_ISO09W050
 70
     0
  3
_____ . . _____ . . _____ . . ____ .. ____
 72
    65
 73
     6
 40
22.5
 49
12.0
 49
-1.5
 49
3.0
 49
-1.5
 49
3.0
 49
-1.5
  0
LTYPE
  2
AMCONSTR
 70
     0
  3
_______________________
 72
    65
 73
     2
 40
9999.0
 49
9999.0
 49
0.0
  0
LTYPE
  2
AM_ISO08W050X2
 70
     0
  3
__ . __ . __ . __ . __ . __
 72
    65
 73
     4
 40
9.0
 49
6.0
 49
-0.75
 49
1.5
 49
-0.75
  0
LTYPE
  2
AM_ISO02W050X2
 70
     0
  3
 _ _ _ _ _ _ _ _ _ _ _ _
 72
    65
 73
     2
 40
3.75
 49
3.0
 49
-0.75
  0
LTYPE
  2
AMZIGZAG
 70
     0
  3
/\/-/\/-/\/-/\/-/\/-/\/
 72
    65
 73
     2
 40
11.0001
 49
0.0001
 49
-11.0
  0
LTYPE
  2
ACISOWELD
 70
     0
  3
_ _ _ _ _
 72
    65
 73
     2
 40
2.0
 49
2.0
 49
-1.0
  0
LTYPE
  2
ACISOTGB
 70
     0
  3
__ . . __ . .
 72
    65
 73
     6
 40
9.0
 49
4.0
 49
-1.0
 49
1.0
 49
-1.0
 49
1.0
 49
-1.0
  0
LTYPE
  2
ACISOTGL
 70
     0
  3
_ _ _ _ _
 72
    65
 73
     2
 40
3.0
 49
2.0
 49
-1.0
  0
LTYPE
  2
CENTER
 70
     0
  3
__ . __
 72
    65
 73
     4
 40
7.0
 49
4.0
 49
-1.0
 49
1.0
 49
-1.0
  0
LTYPE
  2
HIDDEN
 70
     0
  3
Hidden __ __ __ __ __ __ __ __ __ __ __ __ __ _
 72
    65
 73
     2
 40
9.5249999999999986
 49
6.349999999999997
 49
-3.174999999999998
  0
LTYPE
  2
PHANTOM2
 70
     0
  3
Phantom (.5x) ___ _ _ ___ _ _ ___ _ _ ___ _ _
 72
    65
 73
     6
 40
31.75
 49
15.875
 49
-3.174999999999998
 49
3.174999999999998
 49
-3.174999999999998
 49
3.174999999999998
 49
-3.174999999999998
  0
LTYPE
  2
ACANSTGBM
 70
     0
  3
__ . . __ . .
 72
    65
 73
     6
 40
9.0
 49
4.0
 49
-1.0
 49
1.0
 49
-1.0
 49
1.0
 49
-1.0
  0
LTYPE
  2
ACANSTGLM
 70
     0
  3
_ _ _ _ _
 72
    65
 73
     2
 40
3.0
 49
2.0
 49
-1.0
  0
LTYPE
  2
GEN7A
 70
     0
  3
__ . __ . __
 72
    65
 73
     4
 40
7.375
 49
4.75
 49
-0.875
 49
0.875
 49
-0.875
  0
LTYPE
  2
ACJISTGB
 70
     0
  3
__ . . __ . .
 72
    65
 73
     6
 40
9.0
 49
4.0
 49
-1.0
 49
1.0
 49
-1.0
 49
1.0
 49
-1.0
  0
LTYPE
  2
ACJISTGL
 70
     0
  3
_ _ _ _ _
 72
    65
 73
     2
 40
3.0
 49
2.0
 49
-1.0
  0
LTYPE
  2
GEN7
 70
     0
  3
____ . ____ . ____ . ____ . ____ . ____ . ____
 72
    65
 73
     4
 40
14.25
 49
9.75
 49
-1.5
 49
1.5
 49
-1.5
  0
LTYPE
  2
CENTER2
 70
     0
  3
Center (.5x) ___ _ ___ _ ___ _ ___ _ ___ _ ___
 72
    65
 73
     4
 40
1.125
 49
0.75
 49
-0.125
 49
0.125
 49
-0.125
  0
LTYPE
  2
HIDDEN2
 70
     0
  3
Hidden (.5x) _ _ _ _ _ _ _ _ _ _ _ _ _ _ _ _ _
 72
    65
 73
     2
 40
0.1875
 49
0.125
 49
-0.0625
  0
LTYPE
  2
AMZIGZAG2
 70
     0
  3
/\/-/\/-/\/-/\/-/\/-/\/
 72
    65
 73
     2
 40
0.4401
 49
0.0001
 49
-0.4400000000000001
  0
LTYPE
  2
ACANSTGB
 70
     0
  3
__ . . __ . .
 72
    65
 73
     6
 40
0.35433070866
 49
0.15748031496
 49
-0.03937007874
 49
0.03937007874
 49
-0.03937007874
 49
0.03937007874
 49
-0.03937007874
  0
LTYPE
  2
ACANSTGL
 70
     0
  3
_ _ _ _ _
 72
    65
 73
     2
 40
0.11811023622
 49
0.07874015748
 49
-0.03937007874
  0
ENDTAB
  0
TABLE
  2
LAYER
 70
     7
  0
LAYER
  2
0
 70
     0
 62
     7
  6
CONTINUOUS
  0
LAYER
  2
AM_0
 70
     0
 62
     7
  6
CONTINUOUS
  0
LAYER
  2
AM_5
 70
     0
 62
     2
  6
CONTINUOUS
  0
LAYER
  2
DEFPOINTS
 70
     0
 62
     7
  6
CONTINUOUS
  0
LAYER
  2
ﾁｭｳｼﾝｾﾝ1
 70
     0
 62
     1
  6
GEN7A
  0
LAYER
  2
AM_0N
 70
     0
 62
     7
  6
CONTINUOUS
  0
LAYER
  2
ﾁｭｳｼﾝｾﾝ
 70
     0
 62
     1
  6
GEN7
  0
ENDTAB
  0
TABLE
  2
STYLE
 70
    10
  0
STYLE
  2
STANDARD
 70
     0
 40
0.0
 41
0.8299999999999999
 50
0.0
 71
     0
 42
2.5
  3
txt.shx
  4
bigfont.shx
  0
STYLE
  2
ANNOTATIVE
 70
     0
 40
0.0
 41
1.0
 50
0.0
 71
     0
 42
0.2
  3
txt
  4

  0
STYLE
  2

 70
     1
 40
0.0
 41
1.0
 50
0.0
 71
     0
 42
2.5
  3
ltypeshp.shx
  4

  0
STYLE
  2
ACISOTS
 70
     0
 40
1.0
 41
1.0
 50
0.0
 71
     0
 42
2.5
  3
isocp.shx
  4
extfont.shx
  0
STYLE
  2
ACISOGDT
 70
     0
 40
0.0
 41
1.0
 50
0.0
 71
     0
 42
2.5
  3
amgdt.shx
  4

  0
STYLE
  2
ACANSTS
 70
     0
 40
1.0
 41
1.0
 50
0.0
 71
     0
 42
2.5
  3
romans.shx
  4
bigfont.shx
  0
STYLE
  2
ACANSGDT
 70
     0
 40
0.0
 41
1.0
 50
0.0
 71
     0
 42
2.5
  3
amgdt.shx
  4

  0
STYLE
  2
ACJISTS
 70
     0
 40
1.0
 41
1.0
 50
0.0
 71
     0
 42
2.5
  3
isocp.shx
  4
bigfont.shx
  0
STYLE
  2
ACJISGDT
 70
     0
 40
0.0
 41
1.0
 50
0.0
 71
     0
 42
2.5
  3
amgdt.shx
  4

  0
STYLE
  2

 70
     1
 40
0.0
 41
1.0
 50
0.0
 71
     0
 42
2.5
  3
genltshp.shx
  4

  0
ENDTAB
  0
TABLE
  2
VIEW
 70
     6
  0
VIEW
  2
AM_VIEW1
 70
     0
 40
277.50000000000011
 10
249.64779005524869
 20
416.24999999999989
 41
499.2955801104971
 11
0.0
 21
0.0
 31
1.0
 12
0.0
 22
0.0
 32
0.0
 42
50.0
 43
0.0
 44
0.0
 50
0.0
 71
     0
  0
VIEW
  2
AM_VIEW2
 70
     0
 40
277.50000000000011
 10
603.85220994475117
 20
416.24999999999989
 41
499.2955801104971
 11
0.0
 21
0.0
 31
1.0
 12
0.0
 22
0.0
 32
0.0
 42
50.0
 43
0.0
 44
0.0
 50
0.0
 71
     0
  0
VIEW
  2
AM_VIEW3
 70
     0
 40
277.50000000000011
 10
249.64779005524869
 20
138.75
 41
499.2955801104971
 11
0.0
 21
0.0
 31
1.0
 12
0.0
 22
0.0
 32
0.0
 42
50.0
 43
0.0
 44
0.0
 50
0.0
 71
     0
  0
VIEW
  2
AM_VIEW4
 70
     0
 40
277.50000000000011
 10
603.85220994475117
 20
138.75
 41
499.2955801104971
 11
0.0
 21
0.0
 31
1.0
 12
0.0
 22
0.0
 32
0.0
 42
50.0
 43
0.0
 44
0.0
 50
0.0
 71
     0
  0
VIEW
  2
AM_VIEW5
 70
     0
 40
277.50000000000011
 10
426.75
 20
277.50000000000011
 41
499.2955801104971
 11
0.0
 21
0.0
 31
1.0
 12
0.0
 22
0.0
 32
0.0
 42
50.0
 43
0.0
 44
0.0
 50
0.0
 71
     0
  0
VIEW
  2
AM_VIEW6
 70
     0
 40
554.99445000000014
 10
426.75
 20
277.5
 41
998.5811743093924
 11
0.0
 21
0.0
 31
1.0
 12
0.0
 22
0.0
 32
0.0
 42
50.0
 43
0.0
 44
0.0
 50
0.0
 71
     0
  0
ENDTAB
  0
TABLE
  2
UCS
 70
     0
  0
ENDTAB
  0
TABLE
  2
APPID
 70
   101
  0
APPID
  2
ACAD
 70
     0
  0
APPID
  2
ACADANNOTATIVE
 70
     0
  0
APPID
  2
MCAD_NO_VIS
 70
     0
  0
APPID
  2
ACAD_TEMP_GRAPHIC
 70
     0
  0
APPID
  2
ACATTRIBSERVICES
 70
     0
  0
APPID
  2
GENIUS_GENREC_14
 70
     0
  0
APPID
  2
GENIUS_GENOBJ-N-REC_13
 70
     0
  0
APPID
  2
GENIUS_GENODEF_13
 70
     0
  0
APPID
  2
GENIUS_GENOLIS_13
 70
     0
  0
APPID
  2
GENIUS_GENOBJ-N-TIT_13
 70
     0
  0
APPID
  2
GENIUS_GENOENT_13
 70
     0
  0
APPID
  2
GENIUS_GENTITLE_13
 70
     0
  0
APPID
  2
GENIUS_GENOREF_13
 70
     0
  0
APPID
  2
GENIUS_GENSCREG_15
 70
     0
  0
APPID
  2
GENIUS_GENOBJ-N-SDF_13
 70
     0
  0
APPID
  2
GENIUS_GENFIL_13
 70
     0
  0
APPID
  2
GENIUS_GENOBJ-N-CHA_13
 70
     0
  0
APPID
  2
GENIUS_GENDTOL_13
 70
     0
  0
APPID
  2
GENIUS_GENOBJ-N-FIL_13
 70
     0
  0
APPID
  2
AD_DRAW
 70
     0
  0
APPID
  2
DESIGNERASSEMBLIES
 70
     0
  0
APPID
  2
ASURF_PCURVE_APPNAME
 70
     0
  0
APPID
  2
GENIUS_GE3SECT_13
 70
     0
  0
APPID
  2
GENIUS_GENCFG_13
 70
     0
  0
APPID
  2
GENIUS_GE3CFG0_13
 70
     0
  0
APPID
  2
GENIUS_GENCFG0_13
 70
     0
  0
APPID
  2
GENIUS_GENCFG1_13
 70
     0
  0
APPID
  2
GENIUS_GENCFG2_13
 70
     0
  0
APPID
  2
GENIUS_GENCFG3_13
 70
     0
  0
APPID
  2
GENIUS_GENCFG4_13
 70
     0
  0
APPID
  2
GENIUS_GEVCFG0_13
 70
     0
  0
APPID
  2
GENIUS_GENHINW_13
 70
     0
  0
APPID
  2
GENIUS_FIRSTVISTXT_14
 70
     0
  0
APPID
  2
GENIUS_GENOBJ-N-LEADER_13
 70
     0
  0
APPID
  2
GEV_VCCNULL_SWITCH_OFF
 70
     0
  0
APPID
  2
GENIUS_GEFCFG0_13
 70
     0
  0
APPID
  2
GENIUS_GENZVEED_13
 70
     0
  0
APPID
  2
GENIUS_GENSCREG_13
 70
     0
  0
APPID
  2
GENIUS_DUMCFG0_13
 70
     0
  0
APPID
  2
GEVID936201362
 70
     0
  0
APPID
  2
GEVDC
 70
     0
  0
APPID
  2
GEVCON
 70
     0
  0
APPID
  2
VCC
 70
     0
  0
APPID
  2
GEVPT
 70
     0
  0
APPID
  2
GEVIT
 70
     0
  0
APPID
  2
GENBH
 70
     0
  0
APPID
  2
GEVMK
 70
     0
  0
APPID
  2
GENIUS_GENBH_13
 70
     0
  0
APPID
  2
GENIUS_GENOBJ-NBEHI-BHF_13
 70
     0
  0
APPID
  2
GENIUS_GENOBJ-NBEHI-BHB_13
 70
     0
  0
APPID
  2
GENIUS_GENOBJ-F-DESC_13
 70
     0
  0
APPID
  2
GENIUS_GEFDESC_14
 70
     0
  0
APPID
  2
GENIUS_GENOBJ-F-PART_13
 70
     0
  0
APPID
  2
GENIUS_GEFSTDP_13
 70
     0
  0
APPID
  2
GENIUS_GEFPARTINS_13
 70
     0
  0
APPID
  2
GENIUS_GENTRA_14
 70
     0
  0
APPID
  2
GENIUS_GENINF13_13
 70
     0
  0
APPID
  2
GENIUS_GENOBJ-N-INFOPT_13
 70
     0
  0
APPID
  2
GENIUS_GENOBJ-N-RSSYM_13
 70
     0
  0
APPID
  2
GENIUS_GENSYMENT_13
 70
     0
  0
APPID
  2
GENIUS_GENSCSYM_13
 70
     0
  0
APPID
  2
GENIUS_GEFINFNAM_13
 70
     0
  0
APPID
  2
GENIUS_GENOBJ-N-CEN_13
 70
     0
  0
APPID
  2
GENIUS_GENOBJ-N-CRS_13
 70
     0
  0
APPID
  2
GENIUS_GENOBJ-N-CRC_13
 70
     0
  0
APPID
  2
GENIUS_GENCRC_14
 70
     0
  0
APPID
  2
GEVID942827039
 70
     0
  0
APPID
  2
GEVID942827040
 70
     0
  0
APPID
  2
GEVID942827041
 70
     0
  0
APPID
  2
GENIUS_GENOBJ-F-SCPASSM_13
 70
     0
  0
APPID
  2
GENIUS_GENDIMSH_14
 70
     0
  0
APPID
  2
GEVID942827042
 70
     0
  0
APPID
  2
GEVID946020473
 70
     0
  0
APPID
  2
GEVID946020474
 70
     0
  0
APPID
  2
GEVID946020475
 70
     0
  0
APPID
  2
GENIUS_GENOBJ-N-HTC_13
 70
     0
  0
APPID
  2
GENIUS_GENHATCH_13
 70
     0
  0
APPID
  2
GEVID948854295
 70
     0
  0
APPID
  2
GEVID939402019
 70
     0
  0
APPID
  2
GEVID952919491
 70
     0
  0
APPID
  2
GEVID952919492
 70
     0
  0
APPID
  2
GENIUS_GEFWELD_13
 70
     0
  0
APPID
  2
GENIUS_GENOBJ-F-WELS_13
 70
     0
  0
APPID
  2
GEVID952919493
 70
     0
  0
APPID
  2
GENIUS_GENOBJ-N-RSBK_13
 70
     0
  0
APPID
  2
GENIUS_GENOBJ-N-LIB_13
 70
     0
  0
APPID
  2
GENIUS_GENSCALE_13
 70
     0
  0
APPID
  2
GEVID986376691
 70
     0
  0
APPID
  2
DCO15
 70
     0
  0
APPID
  2
GEVID988070561
 70
     0
  0
APPID
  2
GEVID988070562
 70
     0
  0
APPID
  2
GEVID988070563
 70
     0
  0
APPID
  2
ACADM_DIM_EDIT
 70
     0
  0
APPID
  2
AMDT_DM_ADJ
 70
     0
  0
APPID
  2
ACAD_PSEXT
 70
     0
  0
APPID
  2
ACAD_DSTYLE_DIMJAG
 70
     0
  0
APPID
  2
ACAD_DSTYLE_DIMBREAK
 70
     0
  0
APPID
  2
ACAD_NAV_VCDISPLAY
 70
     0
  0
APPID
  2
ACADANNOPO
 70
     0
  0
APPID
  2
ACAD_EXEMPT_FROM_CAD_STANDARDS
 70
     0
  0
APPID
  2
ACAD_MLEADERVER
 70
     0
  0
ENDTAB
  0
TABLE
  2
DIMSTYLE
 70
    23
  0
DIMSTYLE
  2
STANDARD
 70
     0
  3

  4

  5

  6

  7

 40
1.0
 41
0.18
 42
0.0625
 43
0.38
 44
0.18
 45
0.0
 46
0.0
 47
0.0
 48
0.0
140
0.18
141
0.09
142
0.0
143
25.399999999999999
144
1.0
145
0.0
146
1.0
147
0.09
 71
     0
 72
     0
 73
     1
 74
     1
 75
     0
 76
     0
 77
     0
 78
     0
170
     0
171
     2
172
     0
173
     0
174
     0
175
     0
176
     0
177
     0
178
     0
  0
DIMSTYLE
  2
ANNOTATIVE
 70
     0
  3

  4

  5

  6

  7

 40
1.0
 41
0.18
 42
0.0625
 43
0.38
 44
0.18
 45
0.0
 46
0.0
 47
0.0
 48
0.0
140
0.18
141
0.09
142
0.0
143
25.399999999999999
144
1.0
145
0.0
146
1.0
147
0.09
 71
     0
 72
     0
 73
     1
 74
     1
 75
     0
 76
     0
 77
     0
 78
     0
170
     0
171
     2
172
     0
173
     0
174
     0
175
     0
176
     0
177
     0
178
     0
  0
DIMSTYLE
  2
AM_ISO
 70
     0
  3

  4
"
  5

  6

  7

 40
1.0
 41
2.5
 42
1.0
 43
8.0
 44
0.6
 45
0.0
 46
0.0
 47
0.1
 48
0.1
140
2.5
141
0.0
142
0.0
143
0.0393701
144
1.0
145
0.0
146
0.71
147
0.8
 71
     0
 72
     0
 73
     0
 74
     0
 75
     0
 76
     0
 77
     1
 78
     8
170
     0
171
     2
172
     1
173
     0
174
     0
175
     0
176
   256
177
   256
178
     4
  0
DIMSTYLE
  2
AM_ISO$3
 70
     0
  3

  4
"
  5

  6

  7

 40
1.0
 41
2.5
 42
1.0
 43
8.0
 44
0.6
 45
0.0
 46
0.0
 47
0.1
 48
0.1
140
2.5
141
0.0
142
0.0
143
0.0393701
144
1.0
145
0.0
146
0.71
147
0.8
 71
     0
 72
     0
 73
     0
 74
     1
 75
     0
 76
     0
 77
     1
 78
     8
170
     0
171
     2
172
     0
173
     0
174
     0
175
     0
176
   256
177
   256
178
     4
  0
DIMSTYLE
  2
AM_ISO$4
 70
     0
  3

  4
"
  5

  6

  7

 40
1.0
 41
2.5
 42
1.0
 43
8.0
 44
0.6
 45
0.0
 46
0.0
 47
0.1
 48
0.1
140
2.5
141
0.0
142
0.0
143
0.0393701
144
1.0
145
0.0
146
0.71
147
0.8
 71
     0
 72
     0
 73
     0
 74
     1
 75
     0
 76
     0
 77
     1
 78
     8
170
     0
171
     2
172
     0
173
     0
174
     0
175
     0
176
   256
177
   256
178
     4
  0
DIMSTYLE
  2
AM_ISO$6
 70
     0
  3

  4
"
  5

  6

  7

 40
1.0
 41
2.5
 42
1.0
 43
8.0
 44
0.6
 45
0.0
 46
0.0
 47
0.1
 48
0.1
140
2.5
141
0.0
142
0.0
143
0.0393701
144
1.0
145
0.0
146
0.71
147
0.8
 71
     0
 72
     0
 73
     0
 74
     0
 75
     0
 76
     0
 77
     0
 78
     8
170
     0
171
     2
172
     1
173
     0
174
     0
175
     0
176
   256
177
   256
178
     4
  0
DIMSTYLE
  2
AM_ISO$7
 70
     0
  3

  4
"
  5

  6

  7

 40
1.0
 41
2.5
 42
1.0
 43
8.0
 44
0.6
 45
0.0
 46
0.0
 47
0.1
 48
0.1
140
2.5
141
0.0
142
0.0
143
0.0393701
144
1.0
145
0.0
146
0.71
147
0.8
 71
     0
 72
     0
 73
     0
 74
     0
 75
     0
 76
     0
 77
     1
 78
     8
170
     0
171
     2
172
     1
173
     0
174
     0
175
     0
176
   256
177
   256
178
     4
  0
DIMSTYLE
  2
AM_ISO$SF
 70
     0
  3

  4
"
  5

  6

  7

 40
1.0
 41
2.5
 42
1.0
 43
10.0
 44
1.0
 45
0.0
 46
0.0
 47
0.1
 48
0.1
140
3.5
141
0.0
142
0.0
143
0.0393701
144
1.0
145
0.0
146
0.71
147
1.5
 71
     0
 72
     0
 73
     0
 74
     0
 75
     1
 76
     1
 77
     1
 78
     8
170
     0
171
     2
172
     1
173
     0
174
     0
175
     0
176
   256
177
   256
178
     2
  0
DIMSTYLE
  2
AM_ISO$SH
 70
     0
  3

  4
"
  5

  6

  7

 40
1.0
 41
2.5
 42
1.0
 43
10.0
 44
1.0
 45
0.0
 46
0.0
 47
0.1
 48
0.1
140
3.5
141
0.0
142
0.0
143
0.0393701
144
2.0
145
0.0
146
0.71
147
1.5
 71
     0
 72
     0
 73
     0
 74
     0
 75
     1
 76
     1
 77
     1
 78
     8
170
     0
171
     2
172
     1
173
     1
174
     0
175
     0
176
   256
177
   256
178
     2
  0
DIMSTYLE
  2
AM_JIS
 70
     0
  3

  4
"
  5

  6

  7

 40
1.0
 41
2.5
 42
1.0
 43
7.0
 44
1.0
 45
0.0
 46
0.0
 47
0.1
 48
0.1000000001
140
2.5
141
0.0
142
0.0
143
0.0393701
144
1.0
145
0.0
146
0.71
147
1.0
 71
     0
 72
     0
 73
     0
 74
     0
 75
     0
 76
     0
 77
     3
 78
     8
170
     0
171
     2
172
     1
173
     0
174
     0
175
     0
176
   256
177
   256
178
     4
  0
DIMSTYLE
  2
AM_JIS$3
 70
     0
  3

  4
"
  5

  6

  7

 40
1.0
 41
2.5
 42
1.0
 43
7.0
 44
1.0
 45
0.0
 46
0.0
 47
0.1
 48
0.1000000001
140
2.5
141
0.0
142
0.0
143
0.0393701
144
1.0
145
0.0
146
0.71
147
1.0
 71
     0
 72
     0
 73
     0
 74
     1
 75
     0
 76
     0
 77
     3
 78
     8
170
     0
171
     2
172
     0
173
     0
174
     0
175
     0
176
   256
177
   256
178
     4
  0
DIMSTYLE
  2
AM_JIS$4
 70
     0
  3

  4
"
  5

  6

  7

 40
1.0
 41
2.5
 42
1.0
 43
7.0
 44
1.0
 45
0.0
 46
0.0
 47
0.1
 48
0.1000000001
140
2.5
141
0.0
142
0.0
143
0.0393701
144
1.0
145
0.0
146
0.71
147
1.0
 71
     0
 72
     0
 73
     0
 74
     0
 75
     0
 76
     0
 77
     3
 78
     8
170
     0
171
     2
172
     0
173
     0
174
     0
175
     0
176
   256
177
   256
178
     4
  0
DIMSTYLE
  2
AM_JIS$6
 70
     0
  3

  4
"
  5

  6

  7

 40
1.0
 41
2.5
 42
1.0
 43
7.0
 44
1.0
 45
0.0
 46
0.0
 47
0.1
 48
0.1000000001
140
2.5
141
0.0
142
0.0
143
0.0393701
144
1.0
145
0.0
146
0.71
147
1.0
 71
     0
 72
     0
 73
     0
 74
     0
 75
     0
 76
     0
 77
     0
 78
     8
170
     0
171
     2
172
     1
173
     0
174
     0
175
     0
176
   256
177
   256
178
     4
  0
DIMSTYLE
  2
AM_JIS$7
 70
     0
  3

  4
"
  5

  6

  7

 40
1.0
 41
2.5
 42
1.0
 43
7.0
 44
1.0
 45
0.0
 46
0.0
 47
0.1
 48
0.1000000001
140
2.5
141
0.0
142
0.0
143
0.0393701
144
1.0
145
0.0
146
0.71
147
1.0
 71
     0
 72
     0
 73
     0
 74
     0
 75
     0
 76
     0
 77
     3
 78
     8
170
     0
171
     2
172
     1
173
     0
174
     0
175
     0
176
   256
177
   256
178
     4
  0
DIMSTYLE
  2
AM_JIS$SF
 70
     0
  3

  4
"
  5

  6

  7

 40
1.0
 41
2.5
 42
1.0
 43
10.0
 44
1.0
 45
0.0
 46
0.0
 47
0.1
 48
0.1
140
3.5
141
0.0
142
0.0
143
0.0393701
144
1.0
145
0.0
146
0.71
147
1.5
 71
     0
 72
     0
 73
     0
 74
     0
 75
     1
 76
     1
 77
     3
 78
     8
170
     0
171
     2
172
     1
173
     0
174
     0
175
     0
176
   256
177
   256
178
     4
  0
DIMSTYLE
  2
AM_JIS$SH
 70
     0
  3

  4
"
  5

  6

  7

 40
1.0
 41
2.5
 42
1.0
 43
10.0
 44
1.0
 45
0.0
 46
0.0
 47
0.1
 48
0.1
140
3.5
141
0.0
142
0.0
143
0.0393701
144
1.0
145
0.0
146
0.71
147
1.5
 71
     0
 72
     0
 73
     0
 74
     0
 75
     1
 76
     0
 77
     3
 78
     8
170
     0
171
     2
172
     1
173
     1
174
     0
175
     0
176
   256
177
   256
178
     4
  0
DIMSTYLE
  2
AM_ISO$0
 70
     0
  3

  4
"
  5

  6

  7

 40
1.0
 41
2.5
 42
1.0
 43
8.0
 44
0.6
 45
0.0
 46
0.0
 47
0.1
 48
0.1
140
2.5
141
0.0
142
0.0
143
0.0393701
144
1.0
145
0.0
146
0.71
147
0.8
 71
     0
 72
     0
 73
     0
 74
     0
 75
     0
 76
     0
 77
     1
 78
     8
170
     0
171
     2
172
     1
173
     0
174
     0
175
     0
176
   256
177
   256
178
     4
  0
DIMSTYLE
  2
AM_ANSI
 70
     0
  3

  4
mm
  5

  6

  7

 40
1.0
 41
0.12
 42
0.05
 43
0.5
 44
0.1
 45
0.0
 46
0.0
 47
0.1
 48
0.1
140
0.12
141
0.0
142
0.0
143
25.399999999999999
144
1.0
145
0.0
146
0.71
147
0.06
 71
     0
 72
     0
 73
     1
 74
     1
 75
     0
 76
     0
 77
     0
 78
     7
170
     0
171
     2
172
     0
173
     0
174
     0
175
     0
176
   256
177
   256
178
     2
  0
DIMSTYLE
  2
AM_ANSI$3
 70
     0
  3

  4
mm
  5

  6

  7

 40
1.0
 41
0.12
 42
0.05
 43
0.5
 44
0.1
 45
0.0
 46
0.0
 47
0.1
 48
0.1
140
0.12
141
0.0
142
0.0
143
25.399999999999999
144
1.0
145
0.0
146
0.71
147
0.06
 71
     0
 72
     0
 73
     1
 74
     1
 75
     0
 76
     0
 77
     0
 78
     7
170
     0
171
     2
172
     0
173
     0
174
     0
175
     0
176
   256
177
   256
178
     2
  0
DIMSTYLE
  2
AM_ANSI$4
 70
     0
  3

  4
mm
  5

  6

  7

 40
1.0
 41
0.12
 42
0.05
 43
0.5
 44
0.1
 45
0.0
 46
0.0
 47
0.1
 48
0.1
140
0.12
141
0.0
142
0.0
143
25.399999999999999
144
1.0
145
0.0
146
0.71
147
0.06
 71
     0
 72
     0
 73
     1
 74
     1
 75
     0
 76
     0
 77
     0
 78
     7
170
     0
171
     2
172
     0
173
     0
174
     0
175
     0
176
   256
177
   256
178
     2
  0
DIMSTYLE
  2
AM_ANSI$7
 70
     0
  3

  4
mm
  5

  6

  7

 40
1.0
 41
0.12
 42
0.05
 43
0.5
 44
0.1
 45
0.0
 46
0.0
 47
0.1
 48
0.1
140
0.12
141
0.0
142
0.0
143
25.399999999999999
144
1.0
145
0.0
146
0.71
147
0.06
 71
     0
 72
     0
 73
     1
 74
     1
 75
     0
 76
     0
 77
     0
 78
     7
170
     0
171
     2
172
     0
173
     0
174
     0
175
     0
176
   256
177
   256
178
     2
  0
DIMSTYLE
  2
AM_ANSI$SF
 70
     0
  3

  4
mm
  5

  6

  7

 40
1.0
 41
0.12
 42
0.05
 43
0.5
 44
0.1
 45
0.0
 46
0.0
 47
0.1
 48
0.1
140
0.12
141
0.0
142
0.0
143
25.399999999999999
144
1.0
145
0.0
146
0.71
147
0.06
 71
     0
 72
     0
 73
     1
 74
     1
 75
     1
 76
     1
 77
     0
 78
     7
170
     0
171
     2
172
     0
173
     0
174
     0
175
     0
176
   256
177
   256
178
     2
  0
DIMSTYLE
  2
AM_ANSI$SH
 70
     0
  3

  4
mm
  5

  6
GENAXEH
  7

 40
1.0
 41
0.12
 42
0.05
 43
0.5
 44
0.1
 45
0.0
 46
0.0
 47
0.1
 48
0.1
140
0.12
141
0.0
142
0.0
143
25.399999999999999
144
1.0
145
0.0
146
0.71
147
0.06
 71
     0
 72
     0
 73
     1
 74
     1
 75
     1
 76
     1
 77
     0
 78
     7
170
     0
171
     2
172
     0
173
     1
174
     0
175
     0
176
   256
177
   256
178
     2
  0
ENDTAB
  0
ENDSEC
  0
SECTION
  2
BLOCKS
  0
BLOCK
  8
0
  2
$MODEL_SPACE
 70
     0
 10
0.0
 20
0.0
 30
0.0
  3
$MODEL_SPACE
  1

  0
ENDBLK
  5
523A
  8
0
  0
BLOCK
 67
     1
  8
0
  2
$PAPER_SPACE
 70
     0
 10
0.0
 20
0.0
 30
0.0
  3
$PAPER_SPACE
  1

  0
ENDBLK
  5
5236
 67
     1
  8
0
  0
BLOCK
  8
0
  2
GENAXEH
 70
     0
 10
0.0
 20
0.0
 30
0.0
  3
GENAXEH
  1

  0
LINE
  5
73
  8
0
 10
-1.0
 20
0.0
 30
0.0
 11
1.0
 21
0.0
 31
0.0
  0
ENDBLK
  5
75
  8
0
  0
BLOCK
  8
0
  2
_OPEN30
 70
     0
 10
0.0
 20
0.0
 30
0.0
  3
_OPEN30
  1

  0
LINE
  5
31A
  8
0
 62
     0
 10
-1.0
 20
0.26794919
 30
0.0
 11
0.0
 21
0.0
 31
0.0
  0
LINE
  5
31B
  8
0
 62
     0
 10
0.0
 20
0.0
 30
0.0
 11
-1.0
 21
-0.26794919
 31
0.0
  0
LINE
  5
31C
  8
0
 62
     0
 10
0.0
 20
0.0
 30
0.0
 11
-1.0
 21
0.0
 31
0.0
  0
ENDBLK
  5
31E
  8
0
  0
BLOCK
  8
0
  2
_NONE
 70
     0
 10
0.0
 20
0.0
 30
0.0
  3
_NONE
  1

  0
ENDBLK
  5
579
  8
0
  0
BLOCK
  8
0
  2
*U5
 70
     1
 10
0.0
 20
0.0
 30
0.0
  3
*U5
  1

  0
TEXT
  5
5088
  8
AM_0
 10
546.64768866402642
 20
507.73032071181171
 30
0.0
 40
10.0
  1
ＶＸ０１－００５～０５０ＭＦＷ
 41
0.8299999999999999
  0
ENDBLK
  5
508A
  8
0
  0
BLOCK
  8
0
  2
_ACMFILLEDHALF
 70
     0
 10
0.0
 20
0.0
 30
0.0
  3
_ACMFILLEDHALF
  1

  0
TRACE
  5
533C
  8
AM_0
 62
     0
 10
-0.8
 20
0.0
 30
0.0
 11
-1.0
 21
0.166666666
 31
0.0
 12
0.0
 22
0.0
 32
0.0
 13
0.0
 23
0.0
 33
0.0
  0
LINE
  5
533D
  8
AM_0
 62
     0
 10
-1.0
 20
0.0
 30
0.0
 11
-0.8
 21
0.0
 31
0.0
  0
ENDBLK
  5
533B
  8
0
  0
ENDSEC
  0
SECTION
  2
ENTITIES
  0
LINE
  5
3760
  8
AM_0
 10
271.38308828348983
 20
204.87616024896249
 30
0.0
 11
274.38308828348971
 21
204.87616024896261
 31
0.0
  0
LINE
  5
3761
  8
AM_0
 10
271.3830882834896
 20
281.32225924896261
 30
0.0
 11
274.38308828348971
 21
281.32225924896261
 31
0.0
  0
LINE
  5
3763
  8
AM_0
 10
169.5895182834895
 20
186.8159922489626
 30
0.0
 11
266.50925828348971
 21
186.8159922489626
 31
0.0
  0
LINE
  5
3764
  8
AM_0
 10
168.0610182834896
 20
206.37616024896261
 30
0.0
 11
175.3830882834896
 21
206.37616024896261
 31
0.0
  0
LINE
  5
3765
  8
AM_0
 10
175.3830882834896
 20
209.0992422489625
 30
0.0
 11
168.74849828348951
 21
209.09924224896261
 31
0.0
  0
LINE
  5
3766
  8
AM_0
 10
175.3830882834896
 20
207.09924424896261
 30
0.0
 11
168.74849828348951
 21
207.09924424896261
 31
0.0
  0
LINE
  5
3767
  8
AM_0
 10
175.3830882834896
 20
279.09925924896248
 30
0.0
 11
168.74849828348951
 21
279.09925924896248
 31
0.0
  0
LINE
  5
3768
  8
AM_0
 10
175.3830882834896
 20
277.09924624896257
 30
0.0
 11
168.74849828348951
 21
277.09924624896257
 31
0.0
  0
LINE
  5
3769
  8
AM_0
 10
168.0603882834896
 20
279.82225924896261
 30
0.0
 11
175.3830882834896
 21
279.82225924896261
 31
0.0
  0
LINE
  5
376A
  8
AM_0
 10
169.5895182834895
 20
299.38249924896257
 30
0.0
 11
266.50925828348971
 21
299.38249924896257
 31
0.0
  0
ARC
  5
376B
  8
AM_0
 10
168.0603882834896
 20
278.14435024896261
 30
0.0
 40
1.6779127499999991
 50
90.00000299999769
 51
270.0
  0
ARC
  5
376C
  8
AM_0
 10
168.93245828348961
 20
278.09924524896257
 30
0.0
 40
1.0000000199999981
 50
90.00000299999769
 51
270.0
  0
LINE
  5
376D
  8
AM_0
 10
154.3830882834896
 20
278.49212824896262
 30
0.0
 11
154.3830882834896
 21
277.43219224896262
 31
0.0
  0
ARC
  5
376E
  8
AM_0
 10
153.38309828348949
 20
277.27398724896261
 30
0.0
 40
1.0000000199999981
 50
113.1270300000016
 51
180.00001000000091
  0
LINE
  5
376F
  8
AM_0
 10
154.19492828348959
 20
278.7081612489626
 30
0.0
 11
152.99033828348971
 21
278.19369724896239
 31
0.0
  0
LINE
  5
3770
  8
AM_0
 10
152.38307828348951
 20
291.11560924896253
 30
0.0
 11
152.38307828348951
 21
254.09924424896269
 31
0.0
  0
LINE
  5
3771
  8
AM_0
 10
158.38307828348951
 20
296.09923924896248
 30
0.0
 11
158.38307828348951
 21
255.09924424896269
 31
0.0
  0
LINE
  5
3772
  8
AM_0
 10
158.38307828348951
 20
231.0992442489628
 30
0.0
 11
158.38307828348951
 21
190.09925824896251
 31
0.0
  0
LINE
  5
3773
  8
AM_0
 10
166.3830882834896
 20
296.09923924896248
 30
0.0
 11
166.3830882834896
 21
193.6590102489626
 31
0.0
  0
LINE
  5
3774
  8
AM_0
 10
157.3830882834896
 20
293.09923924896259
 30
0.0
 11
157.3830882834896
 21
255.09924424896261
 31
0.0
  0
LINE
  5
3775
  8
AM_0
 10
157.3830882834896
 20
231.09924424896269
 30
0.0
 11
157.3830882834896
 21
191.97601324896249
 31
0.0
  0
LINE
  5
3776
  8
AM_0
 10
171.74855828348959
 20
206.4479682489625
 30
0.0
 11
166.3831482834895
 21
195.00349324896251
 31
0.0
  0
ARC
  5
3777
  8
AM_0
 10
153.38309828348949
 20
195.08284024896261
 30
0.0
 40
1.0000000199999981
 50
179.999989999999
 51
239.973610000001
  0
LINE
  5
3778
  8
AM_0
 10
154.16969828348951
 20
194.60449024896249
 30
0.0
 11
152.9304582834894
 21
195.23352124896249
 31
0.0
  0
ARC
  5
3779
  8
AM_0
 10
203.3830782834896
 20
185.9696022489625
 30
0.0
 40
2.00000007
 50
270.0
 51
0.0
  0
ARC
  5
377A
  8
AM_0
 10
203.3830782834896
 20
183.21130324896251
 30
0.0
 40
2.00000007
 50
270.0
 51
0.0
  0
LINE
  5
377B
  8
AM_0
 10
205.38308828348971
 20
183.21130324896251
 30
0.0
 11
205.38308828348971
 21
186.8159922489626
 31
0.0
  0
ARC
  5
377C
  8
AM_0
 10
203.3830782834896
 20
184.12182424896261
 30
0.0
 40
2.00000007
 50
270.0
 51
0.0
  0
LINE
  5
377D
  8
AM_0
 10
166.3830882834896
 20
195.0034632489625
 30
0.0
 11
167.62430828348951
 21
188.44410724896261
 31
0.0
  0
LINE
  5
377E
  8
AM_0
 10
166.3830882834896
 20
193.65893524896251
 30
0.0
 11
167.6631882834896
 21
185.65376224896241
 31
0.0
  0
LINE
  5
377F
  8
AM_0
 10
166.38302828348941
 20
192.3144072489626
 30
0.0
 11
167.6741082834896
 21
183.82128724896239
 31
0.0
  0
ARC
  5
3780
  8
AM_0
 10
169.5895182834895
 20
188.81597824896249
 30
0.0
 40
2.00000007
 50
190.71568999999951
 51
270.0
  0
ARC
  5
3781
  8
AM_0
 10
169.63808828348971
 20
185.9696022489625
 30
0.0
 40
2.00000007
 50
189.08497000000031
 51
270.0
  0
LINE
  5
3782
  8
AM_0
 10
157.3830882834896
 20
193.09925824896251
 30
0.0
 11
158.38307828348951
 21
193.09925824896251
 31
0.0
  0
ARC
  5
3783
  8
AM_0
 10
156.88307828348951
 20
192.84986824896251
 30
0.0
 40
0.5000000100000001
 50
0.0
 51
90.00000299999769
  0
ARC
  5
3784
  8
AM_0
 10
156.88307828348951
 20
194.9961552489624
 30
0.0
 40
0.5000000100000001
 50
270.0
 51
0.0
  0
LINE
  5
3785
  8
AM_0
 10
158.38307828348951
 20
190.09925824896251
 30
0.0
 11
166.3830882834896
 21
190.09925824896251
 31
0.0
  0
ARC
  5
3786
  8
AM_0
 10
169.6727682834896
 20
183.21130324896251
 30
0.0
 40
2.00000007
 50
187.94403999999901
 51
270.0
  0
LINE
  5
3787
  8
AM_0
 10
166.38302828348941
 20
192.3143622489626
 30
0.0
 11
167.69192828348969
 21
182.9349192489625
 31
0.0
  0
ARC
  5
3788
  8
AM_0
 10
169.65146828348969
 20
184.12182424896261
 30
0.0
 40
2.00000007
 50
188.6433899999989
 51
270.0
  0
ARC
  5
3789
  8
AM_0
 10
154.65128828348941
 20
194.34986824896239
 30
0.0
 40
1.0000000199999981
 50
239.97359999999779
 51
270.0
  0
ARC
  5
378A
  8
AM_0
 10
154.6223382834896
 20
195.4961532489626
 30
0.0
 40
1.0000000199999981
 50
243.0887399999981
 51
270.0
  0
LINE
  5
378B
  8
AM_0
 10
154.3830882834896
 20
193.60308724896251
 30
0.0
 11
154.3830882834896
 21
194.12886124896249
 31
0.0
  0
LINE
  5
378C
  8
AM_0
 10
154.15091828348969
 20
193.48405324896251
 30
0.0
 11
152.88272828348951
 21
194.2170402489626
 31
0.0
  0
LINE
  5
378D
  8
AM_0
 10
154.65128828348941
 20
193.3498542489626
 30
0.0
 11
156.88307828348951
 21
193.3498542489626
 31
0.0
  0
LINE
  5
378E
  8
AM_0
 10
154.6223382834896
 20
194.4961692489625
 30
0.0
 11
156.88307828348951
 21
194.4961692489625
 31
0.0
  0
LINE
  5
378F
  8
AM_0
 10
169.63808828348971
 20
183.96961924896249
 30
0.0
 11
203.3830782834896
 21
183.96961924896249
 31
0.0
  0
LINE
  5
3790
  8
AM_0
 10
169.65146828348969
 20
182.12182624896261
 30
0.0
 11
203.3830782834896
 21
182.12182624896261
 31
0.0
  0
LINE
  5
3791
  8
AM_0
 10
169.6727682834896
 20
181.2113172489625
 30
0.0
 11
203.3830782834896
 21
181.2113172489625
 31
0.0
  0
ARC
  5
3792
  8
AM_0
 10
156.38309828348949
 20
275.84234824896248
 30
0.0
 40
1.0000000199999981
 50
0.0
 51
90.00000299999769
  0
LINE
  5
3793
  8
AM_0
 10
174.38308828348951
 20
267.09924424896258
 30
0.0
 11
168.74849828348951
 21
267.09924424896258
 31
0.0
  0
LINE
  5
3794
  8
AM_0
 10
174.38308828348951
 20
269.09924524896257
 30
0.0
 11
168.74849828348951
 21
269.09924524896257
 31
0.0
  0
ARC
  5
3795
  8
AM_0
 10
167.84456828348971
 20
268.12390324896251
 30
0.0
 40
1.461486869999999
 50
90.00000299999769
 51
270.0
  0
ARC
  5
3796
  8
AM_0
 10
168.93245828348961
 20
268.09924624896257
 30
0.0
 40
1.0000000199999981
 50
90.00000299999769
 51
270.0
  0
LINE
  5
3797
  8
AM_0
 10
167.84456828348971
 20
266.66241724896253
 30
0.0
 11
174.3830882834896
 21
266.66241724896253
 31
0.0
  0
LINE
  5
3798
  8
AM_0
 10
167.84456828348971
 20
269.58538924896249
 30
0.0
 11
174.3830882834896
 21
269.58538924896249
 31
0.0
  0
LINE
  5
3799
  8
AM_0
 10
174.3830882834896
 20
259.09924324896258
 30
0.0
 11
168.74849828348951
 21
259.09924324896258
 31
0.0
  0
LINE
  5
379A
  8
AM_0
 10
174.3830882834896
 20
257.09924524896257
 30
0.0
 11
168.74849828348951
 21
257.09924524896257
 31
0.0
  0
ARC
  5
379B
  8
AM_0
 10
167.71400828348951
 20
258.11181724896261
 30
0.0
 40
1.3309326599999991
 50
90.00000299999769
 51
270.0
  0
ARC
  5
379C
  8
AM_0
 10
168.93245828348961
 20
258.09924424896258
 30
0.0
 40
1.0000000199999981
 50
90.00000299999769
 51
270.0
  0
LINE
  5
379D
  8
AM_0
 10
167.71400828348951
 20
259.44274924896263
 30
0.0
 11
174.3830882834896
 21
259.44274924896263
 31
0.0
  0
LINE
  5
379E
  8
AM_0
 10
167.71400828348951
 20
256.78088524896248
 30
0.0
 11
174.3830882834896
 21
256.78088524896248
 31
0.0
  0
POLYLINE
  5
379F
  8
AM_0
 66
     1
 10
0.0
 20
0.0
 30
0.0
  0
VERTEX
  5
37A0
  8
AM_0
  6
CONTINUOUS
 10
169.2635682834896
 20
259.44179224896249
 30
0.0
  0
VERTEX
  5
37A1
  8
AM_0
  6
CONTINUOUS
 10
169.90961828348969
 20
266.66271424896252
 30
0.0
 42
-1.0
  0
SEQEND
  5
37A2
  8
AM_0
  0
ARC
  5
37A3
  8
AM_0
 10
156.38309828348949
 20
266.09924524896257
 30
0.0
 40
1.0000000199999981
 50
0.0
 51
90.00000299999769
  0
ARC
  5
37A4
  8
AM_0
 10
156.38309828348949
 20
270.09924424896258
 30
0.0
 40
1.0000000199999981
 50
270.0
 51
0.0
  0
ARC
  5
37A5
  8
AM_0
 10
156.38309828348949
 20
256.09924324896258
 30
0.0
 40
1.0000000199999981
 50
0.0
 51
90.00000299999769
  0
ARC
  5
37A6
  8
AM_0
 10
156.38309828348949
 20
260.09924524896257
 30
0.0
 40
1.0000000199999981
 50
270.0
 51
0.0
  0
POLYLINE
  5
37A7
  8
AM_0
 66
     1
 10
0.0
 20
0.0
 30
0.0
  0
VERTEX
  5
37A8
  8
AM_0
  6
CONTINUOUS
 10
170.24531828348969
 20
269.58618124896248
 30
0.0
  0
VERTEX
  5
37A9
  8
AM_0
  6
CONTINUOUS
 10
171.20579828348971
 20
276.46781524896261
 30
0.0
 42
-1.0
  0
SEQEND
  5
37AA
  8
AM_0
  0
LINE
  5
37AB
  8
AM_0
 10
168.0603882834896
 20
276.46643224896252
 30
0.0
 11
175.3830882834896
 21
276.46643224896252
 31
0.0
  0
POLYLINE
  5
37AC
  8
AM_0
 66
     1
 10
0.0
 20
0.0
 30
0.0
  0
VERTEX
  5
37AD
  8
AM_0
  6
CONTINUOUS
 10
169.2635682834896
 20
226.7566572489626
 30
0.0
  0
VERTEX
  5
37AE
  8
AM_0
  6
CONTINUOUS
 10
169.90961828348969
 20
219.53572024896249
 30
0.0
 42
-1.0
  0
SEQEND
  5
37AF
  8
AM_0
  0
LINE
  5
37B0
  8
AM_0
 10
174.3830882834896
 20
219.09924424896261
 30
0.0
 11
168.74849828348951
 21
219.09924424896261
 31
0.0
  0
LINE
  5
37B1
  8
AM_0
 10
174.3830882834896
 20
229.0992582489626
 30
0.0
 11
168.74849828348951
 21
229.0992582489626
 31
0.0
  0
LINE
  5
37B2
  8
AM_0
 10
174.3830882834896
 20
227.09924224896261
 30
0.0
 11
168.74849828348951
 21
227.09924224896261
 31
0.0
  0
ARC
  5
37B3
  8
AM_0
 10
167.71400828348951
 20
228.08668624896259
 30
0.0
 40
1.3309326599999991
 50
90.00000299999769
 51
270.0
  0
LINE
  5
37B4
  8
AM_0
 10
167.8446282834895
 20
219.5360262489626
 30
0.0
 11
174.3830882834896
 21
219.5360262489626
 31
0.0
  0
ARC
  5
37B5
  8
AM_0
 10
168.93245828348961
 20
228.09924424896261
 30
0.0
 40
1.0000000199999981
 50
90.00000299999769
 51
270.0
  0
LINE
  5
37B6
  8
AM_0
 10
167.71400828348951
 20
229.41760324896259
 30
0.0
 11
174.3830882834896
 21
229.41760324896259
 31
0.0
  0
LINE
  5
37B7
  8
AM_0
 10
167.71400828348951
 20
226.75573624896251
 30
0.0
 11
174.3830882834896
 21
226.75573624896251
 31
0.0
  0
ARC
  5
37B8
  8
AM_0
 10
156.38309828348949
 20
220.09925824896251
 30
0.0
 40
1.0000000199999981
 50
270.0
 51
0.0
  0
ARC
  5
37B9
  8
AM_0
 10
156.38309828348949
 20
230.09924224896261
 30
0.0
 40
1.0000000199999981
 50
270.0
 51
0.0
  0
ARC
  5
37BA
  8
AM_0
 10
156.38309828348949
 20
226.09925824896251
 30
0.0
 40
1.0000000199999981
 50
0.0
 51
90.00000299999769
  0
POLYLINE
  5
37BB
  8
AM_0
 66
     1
 10
0.0
 20
0.0
 30
0.0
  0
VERTEX
  5
37BC
  8
AM_0
 10
169.02276694669419
 20
231.09924424896261
 30
0.0
  0
VERTEX
  5
37BD
  8
AM_0
 10
169.0904382834897
 20
229.41985624896259
 30
0.0
 42
-1.0
  0
SEQEND
  5
37BE
  8
AM_0
  0
POLYLINE
  5
37BF
  8
AM_0
 66
     1
 10
0.0
 20
0.0
 30
0.0
  0
VERTEX
  5
37C0
  8
AM_0
 10
169.0227677220025
 20
255.09924424896261
 30
0.0
  0
VERTEX
  5
37C1
  8
AM_0
 10
169.0904382834897
 20
256.77860824896248
 30
0.0
 42
-1.0
  0
SEQEND
  5
37C2
  8
AM_0
  0
ARC
  5
37C3
  8
AM_0
 10
154.53341828348971
 20
275.84234824896248
 30
0.0
 40
1.0000000199999981
 50
90.00000299999769
 51
107.0976299999964
  0
ARC
  5
37C4
  8
AM_0
 10
153.38309828348949
 20
275.48852824896261
 30
0.0
 40
1.0000000199999981
 50
107.0976299999964
 51
180.00001000000091
  0
LINE
  5
37C5
  8
AM_0
 10
154.23941828348961
 20
276.79815724896253
 30
0.0
 11
153.08909828348959
 21
276.44430724896262
 31
0.0
  0
LINE
  5
37C6
  8
AM_0
 10
154.3830882834896
 20
268.72540324896261
 30
0.0
 11
154.3830882834896
 21
267.36261124896248
 31
0.0
  0
ARC
  5
37C7
  8
AM_0
 10
153.38309828348949
 20
268.09924624896257
 30
0.0
 40
1.0000000199999981
 50
179.999989999999
 51
270.0
  0
ARC
  5
37C8
  8
AM_0
 10
153.38309828348949
 20
268.09924624896257
 30
0.0
 40
1.0000000199999981
 50
90.00000299999769
 51
180.00001000000091
  0
LINE
  5
37C9
  8
AM_0
 10
154.3830882834896
 20
258.7063602489626
 30
0.0
 11
154.3830882834896
 21
257.49493624896252
 31
0.0
  0
LINE
  5
37CA
  8
AM_0
 10
150.88307828348951
 20
263.09924524896257
 30
0.0
 11
152.38307828348951
 21
263.23047124896249
 31
0.0
  0
LINE
  5
37CB
  8
AM_0
 10
150.88307828348951
 20
260.38122724896249
 30
0.0
 11
152.38307828348951
 21
260.38122724896249
 31
0.0
  0
ARC
  5
37CC
  8
AM_0
 10
153.38309828348949
 20
258.09924424896258
 30
0.0
 40
1.0000000199999981
 50
90.00000299999769
 51
180.00001000000091
  0
ARC
  5
37CD
  8
AM_0
 10
153.38309828348949
 20
258.09924424896258
 30
0.0
 40
1.0000000199999981
 50
179.999989999999
 51
270.0
  0
LINE
  5
37CE
  8
AM_0
 10
154.3830882834896
 20
227.49214324896249
 30
0.0
 11
154.3830882834896
 21
228.70349224896259
 31
0.0
  0
LINE
  5
37CF
  8
AM_0
 10
150.88313828348959
 20
223.09925824896251
 30
0.0
 11
152.38307828348951
 21
222.9680172489625
 31
0.0
  0
LINE
  5
37D0
  8
AM_0
 10
150.88307828348951
 20
225.8172012489625
 30
0.0
 11
152.38307828348951
 21
225.8172012489625
 31
0.0
  0
ARC
  5
37D1
  8
AM_0
 10
153.38309828348949
 20
228.09924424896261
 30
0.0
 40
1.0000000199999981
 50
179.999989999999
 51
270.0
  0
ARC
  5
37D2
  8
AM_0
 10
153.38309828348949
 20
228.09924424896261
 30
0.0
 40
1.0000000199999981
 50
90.00000299999769
 51
180.00001000000091
  0
LINE
  5
37D3
  8
AM_0
 10
150.88307828348951
 20
227.94922024896249
 30
0.0
 11
154.17677828348951
 21
227.94922024896249
 31
0.0
  0
LINE
  5
37D4
  8
AM_0
 10
150.88307828348951
 20
223.09925824896251
 30
0.0
 11
150.88307828348951
 21
232.09924424896269
 31
0.0
  0
LINE
  5
37D5
  8
AM_0
 10
150.88307828348951
 20
263.09924524896257
 30
0.0
 11
150.88307828348951
 21
254.09924424896261
 31
0.0
  0
LINE
  5
37D6
  8
AM_0
 10
156.38309828348949
 20
267.09924424896258
 30
0.0
 11
153.38309828348949
 21
267.09924424896258
 31
0.0
  0
LINE
  5
37D7
  8
AM_0
 10
154.53341828348971
 20
276.8423472489626
 30
0.0
 11
156.38309828348949
 21
276.8423472489626
 31
0.0
  0
LINE
  5
37D8
  8
AM_0
 10
156.38309828348949
 20
269.09924524896257
 30
0.0
 11
153.38309828348949
 21
269.09924524896257
 31
0.0
  0
LINE
  5
37D9
  8
AM_0
 10
156.38309828348949
 20
259.09924324896258
 30
0.0
 11
153.38309828348949
 21
259.09924324896258
 31
0.0
  0
LINE
  5
37DA
  8
AM_0
 10
156.38309828348949
 20
257.09924524896257
 30
0.0
 11
153.38309828348949
 21
257.09924524896257
 31
0.0
  0
LINE
  5
37DB
  8
AM_0
 10
156.38309828348949
 20
219.09924424896261
 30
0.0
 11
153.38309828348949
 21
219.09924424896261
 31
0.0
  0
LINE
  5
37DC
  8
AM_0
 10
156.38309828348949
 20
227.09924224896261
 30
0.0
 11
153.38309828348949
 21
227.09924224896261
 31
0.0
  0
LINE
  5
37DD
  8
AM_0
 10
156.38309828348949
 20
229.0992582489626
 30
0.0
 11
153.38309828348949
 21
229.0992582489626
 31
0.0
  0
LINE
  5
37DE
  8
AM_0
 10
150.88307828348951
 20
258.24926824896261
 30
0.0
 11
155.56058828348941
 21
258.24926824896261
 31
0.0
  0
LINE
  5
37DF
  8
AM_0
 10
174.3830882834896
 20
217.09925824896251
 30
0.0
 11
168.74849828348951
 21
217.09925824896251
 31
0.0
  0
POLYLINE
  5
37E0
  8
AM_0
 66
     1
 10
0.0
 20
0.0
 30
0.0
  0
VERTEX
  5
37E1
  8
AM_0
  6
CONTINUOUS
 10
170.24531828348969
 20
216.6122592489626
 30
0.0
  0
VERTEX
  5
37E2
  8
AM_0
  6
CONTINUOUS
 10
171.20579828348971
 20
209.7306672489625
 30
0.0
 42
-1.0
  0
SEQEND
  5
37E3
  8
AM_0
  0
ARC
  5
37E4
  8
AM_0
 10
168.0610182834896
 20
208.0540782489625
 30
0.0
 40
1.6779175200000001
 50
90.00000299999769
 51
270.0
  0
ARC
  5
37E5
  8
AM_0
 10
168.93245828348961
 20
208.0992582489626
 30
0.0
 40
1.0000000199999981
 50
90.00000299999769
 51
270.0
  0
LINE
  5
37E6
  8
AM_0
 10
167.8446282834895
 20
216.61303624896249
 30
0.0
 11
174.3830882834896
 21
216.61303624896249
 31
0.0
  0
ARC
  5
37E7
  8
AM_0
 10
156.38309828348949
 20
216.09924424896261
 30
0.0
 40
1.0000000199999981
 50
0.0
 51
90.00000299999769
  0
ARC
  5
37E8
  8
AM_0
 10
156.38309828348949
 20
202.11431824896249
 30
0.0
 40
1.0000000199999981
 50
334.6367599999997
 51
0.0
  0
ARC
  5
37E9
  8
AM_0
 10
156.38309828348949
 20
210.3560802489626
 30
0.0
 40
1.0000000199999981
 50
270.0
 51
0.0
  0
ARC
  5
37EA
  8
AM_0
 10
156.6830682834896
 20
206.7100362489625
 30
0.0
 40
0.7000000200000001
 50
0.0
 51
90.00000299999769
  0
ARC
  5
37EB
  8
AM_0
 10
156.38309828348949
 20
197.59761124896241
 30
0.0
 40
1.0000000199999981
 50
270.0
 51
0.0
  0
LINE
  5
37EC
  8
AM_0
 10
159.0812082834895
 20
199.90777624896239
 30
0.0
 11
165.31100828348971
 21
199.90777624896239
 31
0.0
  0
ARC
  5
37ED
  8
AM_0
 10
156.38309828348949
 20
202.11431824896249
 30
0.0
 40
1.0000000199999981
 50
270.0
 51
0.0
  0
LINE
  5
37EE
  8
AM_0
 10
168.0610182834896
 20
209.73201124896261
 30
0.0
 11
175.3830882834896
 21
209.73201124896261
 31
0.0
  0
ARC
  5
37EF
  8
AM_0
 10
154.65437828348951
 20
202.11431824896249
 30
0.0
 40
1.0000000199999981
 50
239.64050000000131
 51
270.0
  0
ARC
  5
37F0
  8
AM_0
 10
154.58774828348959
 20
208.4099892489626
 30
0.0
 40
1.0000000199999981
 50
246.8729699999983
 51
270.0
  0
ARC
  5
37F1
  8
AM_0
 10
154.53341828348971
 20
210.3560802489626
 30
0.0
 40
1.0000000199999981
 50
252.9023699999955
 51
270.0
  0
LINE
  5
37F2
  8
AM_0
 10
154.3830882834896
 20
207.70636024896251
 30
0.0
 11
154.3830882834896
 21
208.76631124896261
 31
0.0
  0
ARC
  5
37F3
  8
AM_0
 10
153.38309828348949
 20
202.85900824896251
 30
0.0
 40
1.0000000199999981
 50
179.999989999999
 51
239.64048999999821
  0
ARC
  5
37F4
  8
AM_0
 10
153.38309828348949
 20
202.85900824896251
 30
0.0
 40
1.0000000199999981
 50
179.999989999999
 51
239.64048999999821
  0
LINE
  5
37F5
  8
AM_0
 10
152.87765828348969
 20
201.99610924896251
 30
0.0
 11
152.85404828348959
 21
202.00994824896259
 31
0.0
  0
ARC
  5
37F6
  8
AM_0
 10
153.38309828348949
 20
210.70997524896251
 30
0.0
 40
1.0000000199999981
 50
179.999989999999
 51
252.9023699999955
  0
ARC
  5
37F7
  8
AM_0
 10
153.38309828348949
 20
208.92451324896251
 30
0.0
 40
1.0000000199999981
 50
179.999989999999
 51
246.87297999999879
  0
LINE
  5
37F8
  8
AM_0
 10
154.14896828348969
 20
201.2514042489627
 30
0.0
 11
152.87765828348969
 21
201.99607924896259
 31
0.0
  0
LINE
  5
37F9
  8
AM_0
 10
154.19492828348959
 20
207.49035724896251
 30
0.0
 11
152.99027828348949
 21
208.0048512489625
 31
0.0
  0
LINE
  5
37FA
  8
AM_0
 10
154.23941828348961
 20
209.4002982489626
 30
0.0
 11
153.08909828348959
 21
209.7541512489627
 31
0.0
  0
ARC
  5
37FB
  8
AM_0
 10
153.38309828348949
 20
218.09924224896261
 30
0.0
 40
1.0000000199999981
 50
179.999989999999
 51
270.0
  0
ARC
  5
37FC
  8
AM_0
 10
154.68173828348969
 20
200.97430324896251
 30
0.0
 40
1.0000000199999981
 50
236.74527000000111
 51
270.0
  0
LINE
  5
37FD
  8
AM_0
 10
154.3830882834896
 20
200.26879924896249
 30
0.0
 11
154.3830882834896
 21
200.7409062489626
 31
0.0
  0
ARC
  5
37FE
  8
AM_0
 10
154.66013828348969
 20
196.45759624896249
 30
0.0
 40
1.0000000199999981
 50
239.03339999999869
 51
270.0
  0
ARC
  5
37FF
  8
AM_0
 10
154.63175828348969
 20
197.59761124896241
 30
0.0
 40
1.0000000199999981
 50
242.0734000000036
 51
270.0
  0
LINE
  5
3800
  8
AM_0
 10
154.3830882834896
 20
195.70269724896241
 30
0.0
 11
154.3830882834896
 21
196.2487182489626
 31
0.0
  0
ARC
  5
3801
  8
AM_0
 10
153.38309828348949
 20
196.1251812489626
 30
0.0
 40
1.0000000199999981
 50
179.999989999999
 51
243.08874999999691
  0
ARC
  5
3802
  8
AM_0
 10
153.38309828348949
 20
198.25945924896249
 30
0.0
 40
1.0000000199999981
 50
179.999989999999
 51
242.07341000000091
  0
ARC
  5
3803
  8
AM_0
 10
153.38309828348949
 20
197.2238922489625
 30
0.0
 40
1.0000000199999981
 50
179.999989999999
 51
239.03339999999869
  0
LINE
  5
3804
  8
AM_0
 10
154.1455482834894
 20
195.60014224896261
 30
0.0
 11
152.86856828348959
 21
196.36640824896239
 31
0.0
  0
LINE
  5
3805
  8
AM_0
 10
154.16342828348971
 20
196.71405124896239
 30
0.0
 11
152.91476828348959
 21
197.37591424896249
 31
0.0
  0
ARC
  5
3806
  8
AM_0
 10
153.38309828348949
 20
201.82588024896239
 30
0.0
 40
1.0000000199999981
 50
179.999989999999
 51
236.74528000000319
  0
LINE
  5
3807
  8
AM_0
 10
154.13333828348959
 20
200.1380622489626
 30
0.0
 11
152.83469828348959
 21
200.9896242489626
 31
0.0
  0
LINE
  5
3808
  8
AM_0
 10
156.38309828348949
 20
217.09925824896251
 30
0.0
 11
153.38309828348949
 21
217.09925824896251
 31
0.0
  0
LINE
  5
3809
  8
AM_0
 10
154.68173828348969
 20
199.9743192489625
 30
0.0
 11
157.3830882834896
 21
199.9743192489625
 31
0.0
  0
LINE
  5
380A
  8
AM_0
 10
154.65437828348951
 20
201.11433424896259
 30
0.0
 11
156.38309828348949
 21
201.11433424896259
 31
0.0
  0
LINE
  5
380B
  8
AM_0
 10
154.58774828348959
 20
207.4099722489625
 30
0.0
 11
156.6830682834896
 21
207.4099722489625
 31
0.0
  0
LINE
  5
380C
  8
AM_0
 10
154.53341828348971
 20
209.35609324896259
 30
0.0
 11
156.38309828348949
 21
209.35609324896259
 31
0.0
  0
LINE
  5
380D
  8
AM_0
 10
154.66013828348969
 20
195.4575792489625
 30
0.0
 11
157.3830882834896
 21
195.4575792489625
 31
0.0
  0
LINE
  5
380E
  8
AM_0
 10
154.63175828348969
 20
196.59759424896251
 30
0.0
 11
156.38309828348949
 21
196.59759424896251
 31
0.0
  0
ARC
  5
380F
  8
AM_0
 10
167.8446282834895
 20
218.0745252489626
 30
0.0
 40
1.4615021100000001
 50
90.00000299999769
 51
270.0
  0
LINE
  5
3810
  8
AM_0
 10
154.3830882834896
 20
217.47302224896251
 30
0.0
 11
154.3830882834896
 21
218.83587724896259
 31
0.0
  0
ARC
  5
3811
  8
AM_0
 10
168.93245828348961
 20
218.09924224896261
 30
0.0
 40
1.0000000199999981
 50
90.00000299999769
 51
270.0
  0
ARC
  5
3812
  8
AM_0
 10
153.38309828348949
 20
218.09924224896261
 30
0.0
 40
1.0000000199999981
 50
90.00000299999769
 51
180.00001000000091
  0
LINE
  5
3813
  8
AM_0
 10
152.38307828348951
 20
195.08284024896261
 30
0.0
 11
152.38307828348951
 21
232.09924424896269
 31
0.0
  0
ARC
  5
3814
  8
AM_0
 10
203.3830782834896
 20
300.22888924896262
 30
0.0
 40
2.00000007
 50
0.0
 51
90.00000299999769
  0
ARC
  5
3815
  8
AM_0
 10
203.3830782834896
 20
302.07658924896248
 30
0.0
 40
2.00000007
 50
0.0
 51
90.00000299999769
  0
ARC
  5
3816
  8
AM_0
 10
203.3830782834896
 20
302.98711924896247
 30
0.0
 40
2.00000007
 50
0.0
 51
90.00000299999769
  0
LINE
  5
3817
  8
AM_0
 10
205.38308828348971
 20
302.98711924896247
 30
0.0
 11
205.38308828348971
 21
299.38249924896257
 31
0.0
  0
ARC
  5
3818
  8
AM_0
 10
169.5895182834895
 20
297.38251924896258
 30
0.0
 40
2.00000007
 50
90.00000299999769
 51
169.2843100000004
  0
ARC
  5
3819
  8
AM_0
 10
169.63808828348971
 20
300.22888924896262
 30
0.0
 40
2.00000007
 50
90.00000299999769
 51
170.9150299999996
  0
ARC
  5
381A
  8
AM_0
 10
169.65146828348969
 20
302.07658924896248
 30
0.0
 40
2.00000007
 50
90.00000299999769
 51
171.35661000000101
  0
ARC
  5
381B
  8
AM_0
 10
169.6727682834896
 20
302.98711924896247
 30
0.0
 40
2.00000007
 50
90.00000299999769
 51
172.05596000000091
  0
LINE
  5
381C
  8
AM_0
 10
166.3830882834896
 20
292.5394992489625
 30
0.0
 11
167.66312828348961
 21
300.54463924896248
 31
0.0
  0
LINE
  5
381D
  8
AM_0
 10
166.3830882834896
 20
293.88409924896263
 30
0.0
 11
167.6741082834896
 21
302.37715924896253
 31
0.0
  0
LINE
  5
381E
  8
AM_0
 10
166.3830882834896
 20
293.88409924896263
 30
0.0
 11
167.69192828348969
 21
303.26350924896258
 31
0.0
  0
LINE
  5
381F
  8
AM_0
 10
166.3830882834896
 20
291.1949592489625
 30
0.0
 11
167.62436828348959
 21
297.75436924896258
 31
0.0
  0
LINE
  5
3820
  8
AM_0
 10
157.3830882834896
 20
293.09923924896259
 30
0.0
 11
158.38307828348951
 21
293.09923924896259
 31
0.0
  0
ARC
  5
3821
  8
AM_0
 10
156.88307828348951
 20
291.20233924896252
 30
0.0
 40
0.5000000100000001
 50
0.0
 51
90.00000299999769
  0
ARC
  5
3822
  8
AM_0
 10
156.88307828348951
 20
293.34862924896248
 30
0.0
 40
0.5000000100000001
 50
270.0
 51
0.0
  0
LINE
  5
3823
  8
AM_0
 10
158.38307828348951
 20
296.09923924896248
 30
0.0
 11
166.3830882834896
 21
296.09923924896248
 31
0.0
  0
ARC
  5
3824
  8
AM_0
 10
154.65128828348941
 20
291.84862924896248
 30
0.0
 40
1.0000000199999981
 50
90.00000299999769
 51
120.0264000000022
  0
ARC
  5
3825
  8
AM_0
 10
154.6223382834896
 20
290.70232924896249
 30
0.0
 40
1.0000000199999981
 50
90.00000299999769
 51
116.9112600000018
  0
ARC
  5
3826
  8
AM_0
 10
154.66013828348969
 20
289.74085924896258
 30
0.0
 40
1.0000000199999981
 50
90.00000299999769
 51
120.96660000000119
  0
ARC
  5
3827
  8
AM_0
 10
154.63175828348969
 20
288.60088924896252
 30
0.0
 40
1.0000000199999981
 50
90.00000299999769
 51
117.9265999999963
  0
LINE
  5
3828
  8
AM_0
 10
154.3830882834896
 20
290.49577924896249
 30
0.0
 11
154.3830882834896
 21
289.94971924896248
 31
0.0
  0
LINE
  5
3829
  8
AM_0
 10
154.3830882834896
 20
292.59538924896259
 30
0.0
 11
154.3830882834896
 21
292.06963924896252
 31
0.0
  0
ARC
  5
382A
  8
AM_0
 10
153.38309828348949
 20
291.11560924896253
 30
0.0
 40
1.0000000199999981
 50
120.0264000000022
 51
180.00001000000091
  0
ARC
  5
382B
  8
AM_0
 10
153.38309828348949
 20
290.07331924896249
 30
0.0
 40
1.0000000199999981
 50
116.9112600000018
 51
180.00001000000091
  0
LINE
  5
382C
  8
AM_0
 10
154.15091828348969
 20
292.71433924896257
 30
0.0
 11
152.88272828348951
 21
291.98137924896258
 31
0.0
  0
LINE
  5
382D
  8
AM_0
 10
154.1455482834894
 20
290.59834924896251
 30
0.0
 11
152.8685082834896
 21
289.83205924896248
 31
0.0
  0
LINE
  5
382E
  8
AM_0
 10
154.1697582834897
 20
291.59407924896249
 30
0.0
 11
152.9304582834894
 21
290.96506924896261
 31
0.0
  0
LINE
  5
382F
  8
AM_0
 10
154.65128828348941
 20
292.84864924896277
 30
0.0
 11
156.88307828348951
 21
292.84864924896277
 31
0.0
  0
LINE
  5
3830
  8
AM_0
 10
154.66013828348969
 20
290.7408492489626
 30
0.0
 11
157.3830882834896
 21
290.7408492489626
 31
0.0
  0
LINE
  5
3831
  8
AM_0
 10
154.63175828348969
 20
289.6008792489626
 30
0.0
 11
156.38309828348949
 21
289.6008792489626
 31
0.0
  0
LINE
  5
3832
  8
AM_0
 10
154.6223382834896
 20
291.70231924896262
 30
0.0
 11
156.88307828348951
 21
291.70231924896262
 31
0.0
  0
ARC
  5
3833
  8
AM_0
 10
156.38309828348949
 20
284.08417924896253
 30
0.0
 40
1.0000000199999981
 50
0.0
 51
90.00000299999769
  0
ARC
  5
3834
  8
AM_0
 10
156.6830682834896
 20
279.48847924896262
 30
0.0
 40
0.7000000200000001
 50
270.0
 51
0.0
  0
LINE
  5
3835
  8
AM_0
 10
159.0812082834895
 20
286.29064924896261
 30
0.0
 11
165.31100828348971
 21
286.29064924896261
 31
0.0
  0
ARC
  5
3836
  8
AM_0
 10
154.68173828348969
 20
285.2241192489625
 30
0.0
 40
1.0000000199999981
 50
90.00000299999769
 51
123.2547299999989
  0
ARC
  5
3837
  8
AM_0
 10
154.65437828348951
 20
284.08417924896253
 30
0.0
 40
1.0000000199999981
 50
90.00000299999769
 51
120.3594999999986
  0
LINE
  5
3838
  8
AM_0
 10
154.3830882834896
 20
285.92968924896252
 30
0.0
 11
154.3830882834896
 21
285.45751924896263
 31
0.0
  0
ARC
  5
3839
  8
AM_0
 10
154.58774828348959
 20
277.78845424896258
 30
0.0
 40
1.0000000199999981
 50
90.00000299999769
 51
113.1270300000016
  0
ARC
  5
383A
  8
AM_0
 10
153.38309828348949
 20
287.93896924896251
 30
0.0
 40
1.0000000199999981
 50
117.9265999999963
 51
180.00001000000091
  0
ARC
  5
383B
  8
AM_0
 10
153.38309828348949
 20
283.33948924896248
 30
0.0
 40
1.0000000199999981
 50
120.3594999999986
 51
180.00001000000091
  0
ARC
  5
383C
  8
AM_0
 10
153.38309828348949
 20
284.37256924896252
 30
0.0
 40
1.0000000199999981
 50
123.2547299999989
 51
180.00001000000091
  0
LINE
  5
383D
  8
AM_0
 10
154.13333828348959
 20
286.06039924896248
 30
0.0
 11
152.83469828348959
 21
285.20881924896253
 31
0.0
  0
LINE
  5
383E
  8
AM_0
 10
154.14896828348969
 20
284.94703924896248
 30
0.0
 11
152.87765828348969
 21
284.20234924896249
 31
0.0
  0
LINE
  5
383F
  8
AM_0
 10
154.68173828348969
 20
286.22410924896258
 30
0.0
 11
157.3830882834896
 21
286.22410924896258
 31
0.0
  0
LINE
  5
3840
  8
AM_0
 10
154.65437828348951
 20
285.0841692489625
 30
0.0
 11
156.38309828348949
 21
285.0841692489625
 31
0.0
  0
LINE
  5
3841
  8
AM_0
 10
154.58774828348959
 20
278.78845324896258
 30
0.0
 11
156.6830682834896
 21
278.78845324896258
 31
0.0
  0
ARC
  5
3842
  8
AM_0
 10
156.38309828348949
 20
288.60088924896252
 30
0.0
 40
1.0000000199999981
 50
0.0
 51
90.00000299999769
  0
LINE
  5
3843
  8
AM_0
 10
171.74849828348951
 20
279.75043924896249
 30
0.0
 11
166.3830882834896
 21
291.19492924896258
 31
0.0
  0
ARC
  5
3844
  8
AM_0
 10
153.38309828348949
 20
288.97453924896251
 30
0.0
 40
1.0000000199999981
 50
120.96660000000119
 51
180.00001000000091
  0
LINE
  5
3845
  8
AM_0
 10
154.16342828348971
 20
289.4843892489626
 30
0.0
 11
152.91476828348959
 21
288.82249924896257
 31
0.0
  0
LINE
  5
3846
  8
AM_0
 10
169.63808828348971
 20
302.22889924896248
 30
0.0
 11
203.3830782834896
 21
302.22889924896248
 31
0.0
  0
LINE
  5
3847
  8
AM_0
 10
169.65146828348969
 20
304.07659924896251
 30
0.0
 11
203.3830782834896
 21
304.07659924896251
 31
0.0
  0
LINE
  5
3848
  8
AM_0
 10
169.6727682834896
 20
304.98712924896262
 30
0.0
 11
203.3830782834896
 21
304.98712924896262
 31
0.0
  0
ARC
  5
384F
  8
AM_0
 10
271.20518828348958
 20
278.14435024896261
 30
0.0
 40
1.6779127499999991
 50
276.08620038401642
 51
83.913799615983635
  0
LINE
  5
3850
  8
ﾁｭｳｼﾝｾﾝ
 10
223.3830882834896
 20
294.09924424896258
 30
0.0
 11
223.3830882834896
 21
192.09924424896249
 31
0.0
  0
LINE
  5
3853
  8
AM_0
 10
274.38308828348971
 20
299.09923924896259
 30
0.0
 11
274.38308828348971
 21
187.09925824896251
 31
0.0
  0
LINE
  5
3860
  8
AM_0
 10
272.88308828348971
 20
204.87620524896261
 30
0.0
 11
268.44107828348962
 21
188.2983402489626
 31
0.0
  0
LINE
  5
3861
  8
AM_0
 10
274.38308828348971
 20
187.09925824896251
 30
0.0
 11
282.38309828348952
 21
187.09925824896251
 31
0.0
  0
LINE
  5
3862
  8
AM_0
 10
268.92362828348951
 20
190.09925824896251
 30
0.0
 11
274.38308828348971
 21
190.09925824896251
 31
0.0
  0
ARC
  5
3863
  8
AM_0
 10
266.50925828348971
 20
188.81597824896249
 30
0.0
 40
2.00000007
 50
270.0
 51
344.99999999999852
  0
LINE
  5
3870
  8
AM_0
 10
274.38308828348971
 20
275.03668324896262
 30
0.0
 11
282.38309828348952
 21
275.03668324896262
 31
0.0
  0
LINE
  5
3871
  8
AM_0
 10
274.38308828348971
 20
211.16180524896251
 30
0.0
 11
282.38309828348952
 21
211.16180524896251
 31
0.0
  0
LINE
  5
3872
  8
AM_0
 10
274.38308828348971
 20
197.09924224896261
 30
0.0
 11
282.38309828348952
 21
197.09924224896261
 31
0.0
  0
ARC
  5
3873
  8
AM_0
 10
271.20518828348958
 20
208.0540782489625
 30
0.0
 40
1.6779127499999991
 50
276.08620038402279
 51
83.913799615977155
  0
LINE
  5
3893
  8
AM_0
 10
274.38308828348971
 20
299.09923924896259
 30
0.0
 11
282.38309828348952
 21
299.09923924896259
 31
0.0
  0
LINE
  5
3894
  8
AM_0
 10
274.38308828348971
 20
289.09924924896262
 30
0.0
 11
282.38309828348952
 21
289.09924924896262
 31
0.0
  0
LINE
  5
3895
  8
AM_0
 10
268.92362828348951
 20
296.09923924896248
 30
0.0
 11
274.38308828348971
 21
296.09923924896248
 31
0.0
  0
ARC
  5
3896
  8
AM_0
 10
266.50925828348971
 20
297.38251924896258
 30
0.0
 40
2.00000007
 50
15.000000000001579
 51
90.00000299999769
  0
ARC
  5
3897
  8
AM_0
 10
274.0340982834897
 20
282.82225924896261
 30
0.0
 40
1.500000029999998
 50
195.00001000000211
 51
270.0
  0
LINE
  5
3898
  8
AM_0
 10
272.58524828348959
 20
282.43405924896251
 30
0.0
 11
268.44107828348962
 21
297.90013924896249
 31
0.0
  0
LINE
  5
393C
  8
AM_0
 10
267.38308828348983
 20
197.09924424896261
 30
0.0
 11
179.3830882834896
 21
197.09924424896261
 31
0.0
  0
ARC
  5
393D
  8
AM_0
 10
197.4541560953549
 20
202.09924424896261
 30
0.0
 40
5.0
 50
225.0
 51
270.0
1001
GENIUS_GENOBJ-N-FIL_13
1002
{
1000
OWNER
1000
GEN
1002
}
1001
GENIUS_GENODEF_13
1002
{
1000
HIER
1070
     0
1002
}
1002
{
1000
MANEDIT
1070
     0
1002
}
1002
{
1000
NOSEL
1070
     0
1002
}
1002
{
1000
BEHIND
1070
     0
1002
}
1002
{
1000
OTHER
1070
     0
1002
}
1002
{
1000
REACTOR
1002
}
  0
LINE
  5
393E
  8
AM_0
 10
248.6551662221319
 20
202.09924424896261
 30
0.0
 11
198.11101034484739
 21
202.09924424896261
 31
0.0
  0
ARC
  5
393F
  8
AM_0
 10
248.6551662221319
 20
207.09924424896261
 30
0.0
 40
5.0
 50
270.0
 51
315.0
1001
GENIUS_GENOBJ-N-FIL_13
1002
{
1000
OWNER
1000
GEN
1002
}
1001
GENIUS_GENODEF_13
1002
{
1000
HIER
1070
     0
1002
}
1002
{
1000
MANEDIT
1070
     0
1002
}
1002
{
1000
NOSEL
1070
     0
1002
}
1002
{
1000
BEHIND
1070
     0
1002
}
1002
{
1000
OTHER
1070
     0
1002
}
1002
{
1000
REACTOR
1002
}
  0
ARC
  5
3940
  8
AM_0
 10
267.38308828348983
 20
201.09924424896249
 30
0.0
 40
4.0
 50
270.0
 51
0.0
1001
GENIUS_GENOBJ-N-FIL_13
1002
{
1000
OWNER
1000
GEN
1002
}
1001
GENIUS_GENODEF_13
1002
{
1000
HIER
1070
     0
1002
}
1002
{
1000
MANEDIT
1070
     0
1002
}
1002
{
1000
NOSEL
1070
     0
1002
}
1002
{
1000
BEHIND
1070
     0
1002
}
1002
{
1000
OTHER
1070
     0
1002
}
1002
{
1000
REACTOR
1002
}
  0
LINE
  5
3941
  8
AM_0
 10
267.3830882834896
 20
289.09924424896269
 30
0.0
 11
179.3830882834896
 21
289.09924424896258
 31
0.0
  0
ARC
  5
3942
  8
AM_0
 10
249.31202047162409
 20
284.09924424896269
 30
0.0
 40
5.0
 50
45.0
 51
90.0
1001
GENIUS_GENOBJ-N-FIL_13
1002
{
1000
OWNER
1000
GEN
1002
}
1001
GENIUS_GENODEF_13
1002
{
1000
HIER
1070
     0
1002
}
1002
{
1000
MANEDIT
1070
     0
1002
}
1002
{
1000
NOSEL
1070
     0
1002
}
1002
{
1000
BEHIND
1070
     0
1002
}
1002
{
1000
OTHER
1070
     0
1002
}
1002
{
1000
REACTOR
1002
}
  0
ARC
  5
3943
  8
AM_0
 10
197.4541560953553
 20
284.09924424896269
 30
0.0
 40
5.0
 50
90.0
 51
135.0
1001
GENIUS_GENODEF_13
1002
{
1000
HIER
1070
     0
1002
}
1002
{
1000
MANEDIT
1070
     0
1002
}
1002
{
1000
NOSEL
1070
     0
1002
}
1002
{
1000
BEHIND
1070
     0
1002
}
1002
{
1000
OTHER
1070
     0
1002
}
1002
{
1000
REACTOR
1002
}
1001
GENIUS_GENOBJ-N-FIL_13
1002
{
1000
OWNER
1000
GEN
1002
}
  0
LINE
  5
3944
  8
AM_0
 10
248.65516622213181
 20
284.09924424896258
 30
0.0
 11
198.1110103448475
 21
284.09924424896269
 31
0.0
  0
ARC
  5
3945
  8
AM_0
 10
198.1110103448475
 20
279.09924424896269
 30
0.0
 40
5.0
 50
90.0
 51
135.0
1001
GENIUS_GENODEF_13
1002
{
1000
HIER
1070
     0
1002
}
1002
{
1000
MANEDIT
1070
     0
1002
}
1002
{
1000
NOSEL
1070
     0
1002
}
1002
{
1000
BEHIND
1070
     0
1002
}
1002
{
1000
OTHER
1070
     0
1002
}
1002
{
1000
REACTOR
1002
}
1001
GENIUS_GENOBJ-N-FIL_13
1002
{
1000
OWNER
1000
GEN
1002
}
  0
ARC
  5
3946
  8
AM_0
 10
179.3830882834896
 20
285.09924424896258
 30
0.0
 40
4.0
 50
90.0
 51
180.0
1001
GENIUS_GENODEF_13
1002
{
1000
HIER
1070
     0
1002
}
1002
{
1000
MANEDIT
1070
     0
1002
}
1002
{
1000
NOSEL
1070
     0
1002
}
1002
{
1000
BEHIND
1070
     0
1002
}
1002
{
1000
OTHER
1070
     0
1002
}
1002
{
1000
REACTOR
1002
}
1001
GENIUS_GENOBJ-N-FIL_13
1002
{
1000
OWNER
1000
GEN
1002
}
  0
LINE
  5
3947
  8
AM_0
 10
175.3830882834896
 20
285.09924424896258
 30
0.0
 11
175.3830882834896
 21
201.09924424896261
 31
0.0
  0
ARC
  5
3948
  8
AM_0
 10
180.3830882834896
 20
219.17031206082771
 30
0.0
 40
5.0
 50
180.0
 51
225.0
1001
GENIUS_GENOBJ-N-FIL_13
1002
{
1000
OWNER
1000
GEN
1002
}
1001
GENIUS_GENODEF_13
1002
{
1000
HIER
1070
     0
1002
}
1002
{
1000
MANEDIT
1070
     0
1002
}
1002
{
1000
NOSEL
1070
     0
1002
}
1002
{
1000
BEHIND
1070
     0
1002
}
1002
{
1000
OTHER
1070
     0
1002
}
1002
{
1000
REACTOR
1002
}
  0
ARC
  5
3949
  8
AM_0
 10
180.3830882834896
 20
267.02817643709739
 30
0.0
 40
5.0
 50
135.0
 51
180.0
1001
GENIUS_GENOBJ-N-FIL_13
1002
{
1000
OWNER
1000
GEN
1002
}
1001
GENIUS_GENODEF_13
1002
{
1000
HIER
1070
     0
1002
}
1002
{
1000
MANEDIT
1070
     0
1002
}
1002
{
1000
NOSEL
1070
     0
1002
}
1002
{
1000
BEHIND
1070
     0
1002
}
1002
{
1000
OTHER
1070
     0
1002
}
1002
{
1000
REACTOR
1002
}
  0
LINE
  5
394A
  8
AM_0
 10
180.3830882834896
 20
266.3713221876049
 30
0.0
 11
180.38308828348951
 21
219.82716631032019
 31
0.0
  0
ARC
  5
394B
  8
AM_0
 10
185.38308828348951
 20
219.82716631032019
 30
0.0
 40
5.0
 50
180.0
 51
225.0
1001
GENIUS_GENOBJ-N-FIL_13
1002
{
1000
OWNER
1000
GEN
1002
}
1001
GENIUS_GENODEF_13
1002
{
1000
HIER
1070
     0
1002
}
1002
{
1000
MANEDIT
1070
     0
1002
}
1002
{
1000
NOSEL
1070
     0
1002
}
1002
{
1000
BEHIND
1070
     0
1002
}
1002
{
1000
OTHER
1070
     0
1002
}
1002
{
1000
REACTOR
1002
}
  0
ARC
  5
394C
  8
AM_0
 10
179.3830882834896
 20
201.09924424896261
 30
0.0
 40
4.0
 50
180.0
 51
270.0
1001
GENIUS_GENODEF_13
1002
{
1000
HIER
1070
     0
1002
}
1002
{
1000
MANEDIT
1070
     0
1002
}
1002
{
1000
NOSEL
1070
     0
1002
}
1002
{
1000
BEHIND
1070
     0
1002
}
1002
{
1000
OTHER
1070
     0
1002
}
1002
{
1000
REACTOR
1002
}
1001
GENIUS_GENOBJ-N-FIL_13
1002
{
1000
OWNER
1000
GEN
1002
}
  0
LINE
  5
394D
  8
AM_0
 10
271.3830882834896
 20
285.09924424896269
 30
0.0
 11
271.38308828348983
 21
201.09924424896249
 31
0.0
  0
ARC
  5
394E
  8
AM_0
 10
266.38308828348971
 20
267.02817643709727
 30
0.0
 40
5.0
 50
0.0
 51
45.0
1001
GENIUS_GENOBJ-N-FIL_13
1002
{
1000
OWNER
1000
GEN
1002
}
1001
GENIUS_GENODEF_13
1002
{
1000
HIER
1070
     0
1002
}
1002
{
1000
MANEDIT
1070
     0
1002
}
1002
{
1000
NOSEL
1070
     0
1002
}
1002
{
1000
BEHIND
1070
     0
1002
}
1002
{
1000
OTHER
1070
     0
1002
}
1002
{
1000
REACTOR
1002
}
  0
ARC
  5
394F
  8
AM_0
 10
266.38308828348971
 20
219.17031206082791
 30
0.0
 40
5.0
 50
315.0
 51
0.0
1001
GENIUS_GENOBJ-N-FIL_13
1002
{
1000
OWNER
1000
GEN
1002
}
1001
GENIUS_GENODEF_13
1002
{
1000
HIER
1070
     0
1002
}
1002
{
1000
MANEDIT
1070
     0
1002
}
1002
{
1000
NOSEL
1070
     0
1002
}
1002
{
1000
BEHIND
1070
     0
1002
}
1002
{
1000
OTHER
1070
     0
1002
}
1002
{
1000
REACTOR
1002
}
  0
LINE
  5
3950
  8
AM_0
 10
252.84755437755689
 20
287.6347781548954
 30
0.0
 11
269.91862218942242
 21
270.56371034302992
 31
0.0
  0
LINE
  5
3951
  8
AM_0
 10
252.19070012806449
 20
282.63477815489517
 30
0.0
 11
264.91862218942208
 21
269.90685609353773
 31
0.0
  0
ARC
  5
3952
  8
AM_0
 10
248.65516622213181
 20
279.09924424896258
 30
0.0
 40
5.0
 50
45.0
 51
90.0
1001
GENIUS_GENOBJ-N-FIL_13
1002
{
1000
OWNER
1000
GEN
1002
}
1001
GENIUS_GENODEF_13
1002
{
1000
HIER
1070
     0
1002
}
1002
{
1000
MANEDIT
1070
     0
1002
}
1002
{
1000
NOSEL
1070
     0
1002
}
1002
{
1000
BEHIND
1070
     0
1002
}
1002
{
1000
OTHER
1070
     0
1002
}
1002
{
1000
REACTOR
1002
}
  0
LINE
  5
3953
  8
AM_0
 10
266.38308828348943
 20
266.3713221876049
 30
0.0
 11
266.38308828348971
 21
219.82716631032019
 31
0.0
  0
ARC
  5
3954
  8
AM_0
 10
261.38308828348943
 20
266.3713221876049
 30
0.0
 40
5.0
 50
0.0
 51
45.0
1001
GENIUS_GENODEF_13
1002
{
1000
HIER
1070
     0
1002
}
1002
{
1000
MANEDIT
1070
     0
1002
}
1002
{
1000
NOSEL
1070
     0
1002
}
1002
{
1000
BEHIND
1070
     0
1002
}
1002
{
1000
OTHER
1070
     0
1002
}
1002
{
1000
REACTOR
1002
}
1001
GENIUS_GENOBJ-N-FIL_13
1002
{
1000
OWNER
1000
GEN
1002
}
  0
ARC
  5
3955
  8
AM_0
 10
267.3830882834896
 20
285.09924424896269
 30
0.0
 40
4.0
 50
0.0
 51
90.0
1001
GENIUS_GENODEF_13
1002
{
1000
HIER
1070
     0
1002
}
1002
{
1000
MANEDIT
1070
     0
1002
}
1002
{
1000
NOSEL
1070
     0
1002
}
1002
{
1000
BEHIND
1070
     0
1002
}
1002
{
1000
OTHER
1070
     0
1002
}
1002
{
1000
REACTOR
1002
}
1001
GENIUS_GENOBJ-N-FIL_13
1002
{
1000
OWNER
1000
GEN
1002
}
  0
LINE
  5
3956
  8
ﾁｭｳｼﾝｾﾝ1
 10
266.38308828349108
 20
278.09924424896229
 30
0.0
 11
266.38308828349187
 21
290.09924424896218
 31
0.0
  0
LINE
  5
3957
  8
ﾁｭｳｼﾝｾﾝ1
 10
272.38308828349147
 20
284.09924424896201
 30
0.0
 11
260.38308828349147
 21
284.09924424896258
 31
0.0
  0
LINE
  5
3958
  8
AM_0
 10
171.8830882834896
 20
256.59924424896258
 30
0.0
 11
174.38308828348951
 21
256.5992442489628
 31
0.0
  0
LINE
  5
3959
  8
AM_0
 10
174.3830882834896
 20
229.5992442489628
 30
0.0
 11
171.8830882834896
 21
229.59924424896261
 31
0.0
  0
LINE
  5
395A
  8
AM_0
 10
160.98441718714361
 20
232.59924424896261
 30
0.0
 11
160.98441718714361
 21
253.59924424896261
 31
0.0
  0
LINE
  5
395B
  8
AM_0
 10
145.98441718714361
 20
251.13086930297769
 30
0.0
 11
145.98441718714361
 21
235.0676191949467
 31
0.0
  0
LINE
  5
395C
  8
AM_0
 10
158.98441718714361
 20
231.09924424896269
 30
0.0
 11
158.98441718714361
 21
255.09924424896261
 31
0.0
  0
LINE
  5
395D
  8
AM_0
 10
149.48441718714361
 20
243.09924424896261
 30
0.0
 11
149.98441718714361
 21
242.59924424896269
 31
0.0
  0
LINE
  5
395E
  8
AM_0
 10
156.48441718714361
 20
254.79924424896259
 30
0.0
 11
156.48441718714361
 21
231.39924424896259
 31
0.0
  0
LINE
  5
395F
  8
AM_0
 10
166.3830882834896
 20
254.59924424896261
 30
0.0
 11
166.3830882834896
 21
231.59924424896261
 31
0.0
  0
LINE
  5
3960
  8
AM_0
 10
160.48441718714361
 20
242.39924424896071
 30
0.0
 11
160.48441718714361
 21
243.79924424896359
 31
0.0
  0
LINE
  5
3961
  8
AM_0
 10
162.58405291371469
 20
233.9992442489627
 30
0.0
 11
161.8340529137156
 21
252.19924424896271
 31
0.0
  0
LINE
  5
3962
  8
AM_0
 10
161.6330882834896
 20
233.9992442489627
 30
0.0
 11
160.98441718714361
 21
249.74032952027869
 31
0.0
  0
LINE
  5
3963
  8
AM_0
 10
162.3817808740616
 20
233.28358553659871
 30
0.0
 11
161.6345208306536
 21
252.91161601012959
 31
0.0
  0
LINE
  5
3964
  8
AM_0
 10
161.83262036655159
 20
233.2868724877946
 30
0.0
 11
161.0840529137156
 21
252.94924424896271
 31
0.0
  0
LINE
  5
3965
  8
AM_0
 10
158.98441718714361
 20
255.09924424896261
 30
0.0
 11
156.78441718714359
 21
255.09924424896261
 31
0.0
  0
ARC
  5
3966
  8
AM_0
 10
170.88308828348971
 20
255.59924424896261
 30
0.0
 40
0.5
 50
269.99999999998693
 51
0.0
  0
ARC
  5
3967
  8
AM_0
 10
171.88308828348971
 20
256.09924424896258
 30
0.0
 40
0.5
 50
90.0
 51
180.0
  0
LINE
  5
3968
  8
AM_0
 10
171.3830882834896
 20
255.59924424896261
 30
0.0
 11
171.3830882834896
 21
256.09924424896258
 31
0.0
  0
LINE
  5
3969
  8
AM_0
 10
162.3830882834896
 20
252.19924424896271
 30
0.0
 11
165.8830882834896
 21
252.19924424896271
 31
0.0
  0
LINE
  5
396A
  8
AM_0
 10
171.3830882834896
 20
253.95531557036961
 30
0.0
 11
171.3830882834896
 21
244.2431729275547
 31
0.0
  0
LINE
  5
396B
  8
AM_0
 10
166.8830882834896
 20
255.09924424896261
 30
0.0
 11
170.88308828348951
 21
255.09924424896261
 31
0.0
  0
LINE
  5
396C
  8
AM_0
 10
170.8830882834896
 20
254.45531557036961
 30
0.0
 11
166.3830882834896
 21
254.45531557036961
 31
0.0
  0
ARC
  5
396D
  8
AM_0
 10
170.88308828348971
 20
253.95531557036961
 30
0.0
 40
0.5
 50
0.0
 51
90.0
  0
ARC
  5
396E
  8
AM_0
 10
165.8830882834896
 20
252.6992442489626
 30
0.0
 40
0.5
 50
270.0
 51
0.0
  0
ARC
  5
396F
  8
AM_0
 10
166.8830882834896
 20
254.59924424896261
 30
0.0
 40
0.5
 50
90.0
 51
180.0
  0
LINE
  5
3970
  8
AM_0
 10
170.8830882834896
 20
243.7431729275547
 30
0.0
 11
166.3830882834896
 21
243.7431729275547
 31
0.0
  0
ARC
  5
3971
  8
AM_0
 10
170.8830882834896
 20
244.24317292755461
 30
0.0
 40
0.5
 50
270.0
 51
0.0
  0
LINE
  5
3972
  8
AM_0
 10
160.48441718714361
 20
249.24441500125479
 30
0.0
 11
160.48441718714361
 21
248.0721718148217
 31
0.0
  0
LINE
  5
3973
  8
AM_0
 10
161.9107853421406
 20
252.19924424896271
 30
0.0
 11
162.3830882834896
 21
252.19924424896271
 31
0.0
  0
LINE
  5
3974
  8
AM_0
 10
161.8141928476013
 20
252.27336201569921
 30
0.0
 11
161.8340529137156
 21
252.19924424896271
 31
0.0
  0
ARC
  5
3975
  8
AM_0
 10
161.91078534214071
 20
252.29924424896259
 30
0.0
 40
0.1000000000000346
 50
195.00019500644461
 51
270.0
  0
ARC
  5
3976
  8
AM_0
 10
160.18441718714371
 20
252.3860772294706
 30
0.0
 40
0.3000000000000043
 50
270.0
 51
0.0
  0
LINE
  5
3977
  8
AM_0
 10
158.98441718714361
 20
254.4992442489627
 30
0.0
 11
160.2043728903007
 21
254.41791386875161
 31
0.0
  0
LINE
  5
3978
  8
AM_0
 10
158.98441718714361
 20
253.3429922131227
 30
0.0
 11
160.18441718714371
 21
253.3429922131227
 31
0.0
  0
LINE
  5
3979
  8
AM_0
 10
160.48441718714361
 20
254.09924424896261
 30
0.0
 11
158.98441718714361
 21
254.09924424896261
 31
0.0
  0
ARC
  5
397A
  8
AM_0
 10
160.48441718714361
 20
253.59924424896261
 30
0.0
 40
0.5
 50
0.0
 51
90.0
  0
LINE
  5
397B
  8
AM_0
 10
160.48441718714361
 20
254.11857832139461
 30
0.0
 11
160.48441718714361
 21
254.09924424896261
 31
0.0
  0
LINE
  5
397C
  8
AM_0
 10
160.48441718714361
 20
254.39924424896259
 30
0.0
 11
160.48441718714361
 21
254.11857832139461
 31
0.0
  0
LINE
  5
397D
  8
AM_0
 10
160.2043728903007
 20
254.41791386875161
 30
0.0
 11
160.48441718714361
 21
254.39924424896259
 31
0.0
  0
ARC
  5
397E
  8
AM_0
 10
160.18441718714371
 20
254.11857832139461
 30
0.0
 40
0.3000000000000007
 50
0.0
 51
86.185925165718274
  0
LINE
  5
397F
  8
AM_0
 10
161.55635585506451
 20
252.94924424896271
 30
0.0
 11
161.63308828349071
 21
252.94924424896271
 31
0.0
  0
LINE
  5
3980
  8
AM_0
 10
161.63308828349071
 20
252.94924424896271
 30
0.0
 11
161.65294834960369
 21
252.87512648222631
 31
0.0
  0
LINE
  5
3981
  8
AM_0
 10
161.06419284760159
 20
252.87512648222631
 30
0.0
 11
161.0840529137156
 21
252.94924424896271
 31
0.0
  0
LINE
  5
3982
  8
AM_0
 10
161.0840529137156
 20
252.94924424896271
 30
0.0
 11
161.16078534214051
 21
252.94924424896271
 31
0.0
  0
LINE
  5
3983
  8
AM_0
 10
161.65294834960369
 20
252.87512648222631
 30
0.0
 11
161.8141928476013
 21
252.27336201569921
 31
0.0
  0
LINE
  5
3984
  8
AM_0
 10
161.16078534214051
 20
252.94924424896271
 30
0.0
 11
161.55635585506451
 21
252.94924424896271
 31
0.0
  0
LINE
  5
3985
  8
AM_0
 10
160.9844171871444
 20
252.57740371740169
 30
0.0
 11
161.06419284760159
 21
252.87512648222631
 31
0.0
  0
ARC
  5
3986
  8
AM_0
 10
161.55635585506471
 20
252.84924424896261
 30
0.0
 40
0.0999999999999866
 50
15.00019500657257
 51
90.0
  0
ARC
  5
3987
  8
AM_0
 10
161.16078534214071
 20
252.84924424896261
 30
0.0
 40
0.1000000000000014
 50
90.0
 51
164.9998049934274
  0
LINE
  5
3988
  8
AM_0
 10
160.48441718714361
 20
253.04299221312269
 30
0.0
 11
160.48441718714361
 21
252.3860772294706
 31
0.0
  0
ARC
  5
3989
  8
AM_0
 10
160.18441718714371
 20
253.0429922131226
 30
0.0
 40
0.3000000000000007
 50
0.0
 51
90.0
  0
LINE
  5
398A
  8
AM_0
 10
158.98441718714361
 20
249.54441500125469
 30
0.0
 11
160.18441718714371
 21
249.54441500125469
 31
0.0
  0
LINE
  5
398B
  8
AM_0
 10
160.18441718714371
 20
252.0860772294707
 30
0.0
 11
158.98441718714361
 21
252.0860772294707
 31
0.0
  0
LINE
  5
398C
  8
AM_0
 10
161.8340529137156
 20
252.19924424896271
 30
0.0
 11
161.9107853421406
 21
252.19924424896271
 31
0.0
  0
ARC
  5
398D
  8
AM_0
 10
160.18441718714371
 20
249.24441500125479
 30
0.0
 40
0.3000000000000007
 50
0.0
 51
90.0
  0
LINE
  5
398E
  8
AM_0
 10
160.18441718714371
 20
247.77217181482169
 30
0.0
 11
158.98441718714361
 21
247.77217181482169
 31
0.0
  0
ARC
  5
398F
  8
AM_0
 10
160.18441718714371
 20
248.0721718148217
 30
0.0
 40
0.3000000000000043
 50
270.0
 51
0.0
  0
LINE
  5
3990
  8
AM_0
 10
160.18441718714371
 20
244.09924424896371
 30
0.0
 11
158.98441718714361
 21
244.09924424896371
 31
0.0
  0
ARC
  5
3991
  8
AM_0
 10
160.18441718714371
 20
243.79924424896359
 30
0.0
 40
0.3000000000000007
 50
0.0
 51
90.0
  0
LINE
  5
3992
  8
AM_0
 10
149.98441718714361
 20
253.23252407760961
 30
0.0
 11
156.48441718714361
 21
253.23252407760961
 31
0.0
  0
LINE
  5
3993
  8
AM_0
 10
149.98441718714361
 20
253.7325240776097
 30
0.0
 11
156.48441718714361
 21
253.7325240776097
 31
0.0
  0
LINE
  5
3994
  8
AM_0
 10
156.48441718714361
 20
243.59924424896269
 30
0.0
 11
149.98441718714361
 21
243.59924424896269
 31
0.0
  0
LINE
  5
3995
  8
AM_0
 10
149.48441718714361
 20
244.09924424896269
 30
0.0
 11
156.48441718714361
 21
244.09924424896269
 31
0.0
  0
LINE
  5
3996
  8
AM_0
 10
156.18441718714371
 20
254.09924424896261
 30
0.0
 11
149.34646712232561
 21
254.09924424896261
 31
0.0
  0
LINE
  5
3997
  8
AM_0
 10
156.48441718714361
 20
244.44593231750369
 30
0.0
 11
149.98441718714361
 21
244.44593231750369
 31
0.0
  0
LINE
  5
3998
  8
AM_0
 10
156.48441718714361
 20
252.75255618042169
 30
0.0
 11
149.98441718714361
 21
252.75255618042169
 31
0.0
  0
ARC
  5
3999
  8
AM_0
 10
156.78441718714359
 20
254.79924424896259
 30
0.0
 40
0.2999999999999971
 50
90.0
 51
180.0
  0
ARC
  5
399A
  8
AM_0
 10
156.18441718714371
 20
254.39924424896259
 30
0.0
 40
0.2999999999999971
 50
270.0
 51
0.0
  0
ARC
  5
399B
  8
AM_0
 10
158.10941718714361
 20
248.59924424896261
 30
0.0
 40
9.124999999999984
 50
152.92493329271929
 51
207.07506670728071
  0
LINE
  5
399C
  8
AM_0
 10
148.70628272266109
 20
253.8674655285601
 30
0.0
 11
146.34423278747909
 21
251.8990905825751
 31
0.0
  0
LINE
  5
399D
  8
AM_0
 10
149.48441718714361
 20
253.5208116654546
 30
0.0
 11
149.98441718714361
 21
254.09924424896261
 31
0.0
  0
ARC
  5
399E
  8
AM_0
 10
149.34646712232561
 20
253.09924424896261
 30
0.0
 40
1.0
 50
90.0
 51
129.805571092256
  0
LINE
  5
399F
  8
AM_0
 10
149.98441718714361
 20
253.7325240776097
 30
0.0
 11
149.48441718714361
 21
253.5208116654546
 31
0.0
  0
LINE
  5
39A0
  8
AM_0
 10
149.48441718714361
 20
253.0585363924836
 30
0.0
 11
149.98441718714361
 21
253.7325240776097
 31
0.0
  0
LINE
  5
39A1
  8
AM_0
 10
149.98441718714361
 20
253.23252407760961
 30
0.0
 11
149.48441718714361
 21
253.0585363924836
 31
0.0
  0
LINE
  5
39A2
  8
AM_0
 10
149.48441718714361
 20
252.5208116654546
 30
0.0
 11
149.98441718714361
 21
253.23252407760961
 31
0.0
  0
LINE
  5
39A3
  8
AM_0
 10
149.98441718714361
 20
252.75255618042169
 30
0.0
 11
149.48441718714361
 21
252.5208116654546
 31
0.0
  0
ARC
  5
39A4
  8
AM_0
 10
146.98441718714361
 20
251.13086930297769
 30
0.0
 40
1.0000000000000291
 50
129.80557109226521
 51
180.0
  0
LINE
  5
39A5
  8
AM_0
 10
149.98441718714361
 20
243.59924424896269
 30
0.0
 11
149.48441718714361
 21
243.09924424896261
 31
0.0
  0
LINE
  5
39A6
  8
AM_0
 10
149.48441718714361
 20
244.09924424896269
 30
0.0
 11
149.98441718714361
 21
243.59924424896269
 31
0.0
  0
LINE
  5
39A7
  8
AM_0
 10
149.98441718714361
 20
244.44593231750369
 30
0.0
 11
149.48441718714361
 21
244.09924424896269
 31
0.0
  0
LINE
  5
39A8
  8
AM_0
 10
156.78441718714359
 20
231.09924424896269
 30
0.0
 11
158.98441718714361
 21
231.09924424896269
 31
0.0
  0
ARC
  5
39A9
  8
AM_0
 10
170.8830882834896
 20
230.59924424896261
 30
0.0
 40
0.5
 50
0.0
 51
90.000000000006537
  0
LINE
  5
39AA
  8
AM_0
 10
165.8830882834896
 20
233.9992442489627
 30
0.0
 11
162.66078534214051
 21
233.9992442489627
 31
0.0
  0
LINE
  5
39AB
  8
AM_0
 10
171.3830882834896
 20
241.95531557036961
 30
0.0
 11
171.3830882834896
 21
232.24317292755461
 31
0.0
  0
LINE
  5
39AC
  8
AM_0
 10
166.3830882834896
 20
242.45531557036969
 30
0.0
 11
170.8830882834896
 21
242.45531557036969
 31
0.0
  0
ARC
  5
39AD
  8
AM_0
 10
170.8830882834896
 20
241.95531557036961
 30
0.0
 40
0.5
 50
0.0
 51
90.0
  0
LINE
  5
39AE
  8
AM_0
 10
166.3830882834896
 20
231.74317292755461
 30
0.0
 11
170.8830882834896
 21
231.74317292755461
 31
0.0
  0
LINE
  5
39AF
  8
AM_0
 10
170.88308828348951
 20
231.09924424896261
 30
0.0
 11
166.8830882834896
 21
231.09924424896261
 31
0.0
  0
ARC
  5
39B0
  8
AM_0
 10
170.8830882834896
 20
232.24317292755461
 30
0.0
 40
0.5
 50
270.0
 51
0.0
  0
ARC
  5
39B1
  8
AM_0
 10
165.8830882834896
 20
233.4992442489627
 30
0.0
 40
0.5
 50
0.0
 51
90.0
  0
ARC
  5
39B2
  8
AM_0
 10
166.8830882834896
 20
231.59924424896261
 30
0.0
 40
0.5
 50
180.0
 51
270.0
  0
ARC
  5
39B3
  8
AM_0
 10
160.18441718714371
 20
236.9540734966705
 30
0.0
 40
0.3000000000000114
 50
270.0
 51
0.0
  0
LINE
  5
39B4
  8
AM_0
 10
158.98441718714361
 20
242.0992442489605
 30
0.0
 11
160.18441718714371
 21
242.0992442489605
 31
0.0
  0
ARC
  5
39B5
  8
AM_0
 10
160.18441718714371
 20
242.3992442489606
 30
0.0
 40
0.2999999999999971
 50
270.0
 51
0.0
  0
LINE
  5
39B6
  8
AM_0
 10
158.98441718714361
 20
238.42631668310369
 30
0.0
 11
160.18441718714371
 21
238.42631668310369
 31
0.0
  0
ARC
  5
39B7
  8
AM_0
 10
160.18441718714371
 20
238.1263166831036
 30
0.0
 40
0.3000000000000007
 50
0.0
 51
90.0
  0
LINE
  5
39B8
  8
AM_0
 10
160.48441718714361
 20
238.12631668310371
 30
0.0
 11
160.48441718714361
 21
236.9540734966707
 31
0.0
  0
LINE
  5
39B9
  8
AM_0
 10
161.9107853421406
 20
233.2492442489627
 30
0.0
 11
162.30635585506451
 21
233.2492442489627
 31
0.0
  0
LINE
  5
39BA
  8
AM_0
 10
161.9107853421406
 20
233.2492442489627
 30
0.0
 11
162.30635585506451
 21
233.2492442489627
 31
0.0
  0
LINE
  5
39BB
  8
AM_0
 10
162.4029483496038
 20
233.32336201569919
 30
0.0
 11
162.56419284760159
 21
233.9251264822262
 31
0.0
  0
LINE
  5
39BC
  8
AM_0
 10
162.4029483496038
 20
233.32336201569919
 30
0.0
 11
162.56419284760159
 21
233.9251264822262
 31
0.0
  0
ARC
  5
39BD
  8
AM_0
 10
162.66078534214051
 20
233.89924424896259
 30
0.0
 40
0.0999999999999943
 50
90.0
 51
164.9998049934874
  0
ARC
  5
39BE
  8
AM_0
 10
162.30635585506451
 20
233.34924424896261
 30
0.0
 40
0.0999999999999943
 50
270.0
 51
344.99980499349448
  0
LINE
  5
39BF
  8
AM_0
 10
160.98357059860251
 20
233.62424424896241
 30
0.0
 11
161.06419284760159
 21
233.9251264822262
 31
0.0
  0
LINE
  5
39C0
  8
AM_0
 10
161.6357989356957
 20
233.95997971586451
 30
0.0
 11
161.81419284760159
 21
233.32336201569919
 31
0.0
  0
LINE
  5
39C1
  8
AM_0
 10
161.65294834960369
 20
233.9251264822262
 30
0.0
 11
161.81419284760159
 21
233.32336201569919
 31
0.0
  0
LINE
  5
39C2
  8
AM_0
 10
160.48441718714361
 20
233.8124112684537
 30
0.0
 11
160.48441718714361
 21
233.15549628480269
 31
0.0
  0
LINE
  5
39C3
  8
AM_0
 10
160.98441718714361
 20
233.6274037174006
 30
0.0
 11
161.06419284760159
 21
233.9251264822262
 31
0.0
  0
LINE
  5
39C4
  8
AM_0
 10
158.98441718714361
 20
234.11241126845371
 30
0.0
 11
160.18441718714371
 21
234.11241126845371
 31
0.0
  0
LINE
  5
39C5
  8
AM_0
 10
160.18441718714371
 20
236.65407349667069
 30
0.0
 11
158.98441718714361
 21
236.65407349666961
 31
0.0
  0
LINE
  5
39C6
  8
AM_0
 10
161.58898812057959
 20
233.9992442489627
 30
0.0
 11
161.6357989356957
 21
233.95997971586451
 31
0.0
  0
LINE
  5
39C7
  8
AM_0
 10
161.16078534214051
 20
233.9992442489627
 30
0.0
 11
161.58898812057959
 21
233.9992442489627
 31
0.0
  0
LINE
  5
39C8
  8
AM_0
 10
161.16078534214051
 20
233.9992442489627
 30
0.0
 11
161.55635585506451
 21
233.9992442489627
 31
0.0
  0
ARC
  5
39C9
  8
AM_0
 10
161.16078534214051
 20
233.89924424896259
 30
0.0
 40
0.0999999999999943
 50
90.0
 51
164.9998049934874
  0
ARC
  5
39CA
  8
AM_0
 10
161.55635585506451
 20
233.89924424896259
 30
0.0
 40
0.0999999999999608
 50
15.00019500651257
 51
90.0
  0
ARC
  5
39CB
  8
AM_0
 10
160.18441718714371
 20
233.81241126845359
 30
0.0
 40
0.3000000000000007
 50
0.0
 51
90.0
  0
LINE
  5
39CC
  8
AM_0
 10
158.98441718714361
 20
232.09924424896269
 30
0.0
 11
160.48441718714361
 21
232.09924424896269
 31
0.0
  0
LINE
  5
39CD
  8
AM_0
 10
160.18441718714371
 20
232.85549628480271
 30
0.0
 11
158.98441718714361
 21
232.85549628480271
 31
0.0
  0
LINE
  5
39CE
  8
AM_0
 10
160.2043728903007
 20
231.78057462917261
 30
0.0
 11
158.98441718714361
 21
231.69924424896271
 31
0.0
  0
ARC
  5
39CF
  8
AM_0
 10
160.48441718714361
 20
232.59924424896261
 30
0.0
 40
0.5
 50
270.0
 51
0.0
  0
ARC
  5
39D0
  8
AM_0
 10
161.9107853421406
 20
233.34924424896261
 30
0.0
 40
0.0999999999999606
 50
195.00019500650541
 51
270.0
  0
ARC
  5
39D1
  8
AM_0
 10
160.18441718714371
 20
233.15549628480269
 30
0.0
 40
0.2999999999999971
 50
270.0
 51
0.0
  0
LINE
  5
39D2
  8
AM_0
 10
160.48441718714361
 20
232.09924424896269
 30
0.0
 11
160.48441718714361
 21
232.07991017652969
 31
0.0
  0
ARC
  5
39D3
  8
AM_0
 10
160.18441718714371
 20
232.07991017652969
 30
0.0
 40
0.3000000000000043
 50
273.81407483428171
 51
0.0
  0
ARC
  5
39D4
  8
AM_0
 10
171.8830882834896
 20
230.09924424896261
 30
0.0
 40
0.5
 50
180.0
 51
270.0
  0
LINE
  5
39D5
  8
AM_0
 10
171.3830882834896
 20
230.09924424896261
 30
0.0
 11
171.3830882834896
 21
230.59924424896261
 31
0.0
  0
LINE
  5
39D6
  8
AM_0
 10
149.98441718714361
 20
233.44593231750369
 30
0.0
 11
156.48441718714361
 21
233.44593231750369
 31
0.0
  0
LINE
  5
39D7
  8
AM_0
 10
149.98441718714361
 20
241.75255618042169
 30
0.0
 11
156.48441718714361
 21
241.75255618042169
 31
0.0
  0
LINE
  5
39D8
  8
AM_0
 10
149.34646712232561
 20
232.09924424896269
 30
0.0
 11
156.18441718714371
 21
232.09924424896269
 31
0.0
  0
LINE
  5
39D9
  8
AM_0
 10
156.48441718714361
 20
242.09924424896269
 30
0.0
 11
149.48441718714361
 21
242.09924424896269
 31
0.0
  0
LINE
  5
39DA
  8
AM_0
 10
149.98441718714361
 20
242.59924424896269
 30
0.0
 11
156.48441718714361
 21
242.59924424896269
 31
0.0
  0
LINE
  5
39DB
  8
AM_0
 10
156.48441718714361
 20
232.46596442031469
 30
0.0
 11
149.98441718714361
 21
232.46596442031469
 31
0.0
  0
LINE
  5
39DC
  8
AM_0
 10
156.48441718714361
 20
232.96596442031469
 30
0.0
 11
149.98441718714361
 21
232.96596442031469
 31
0.0
  0
ARC
  5
39DD
  8
AM_0
 10
156.18441718714371
 20
231.79924424896259
 30
0.0
 40
0.3000000000000043
 50
0.0
 51
90.0
  0
ARC
  5
39DE
  8
AM_0
 10
156.78441718714359
 20
231.39924424896259
 30
0.0
 40
0.2999999999999971
 50
180.0
 51
270.0
  0
ARC
  5
39DF
  8
AM_0
 10
158.10941718714361
 20
237.59924424896261
 30
0.0
 40
9.124999999999984
 50
152.92493329271929
 51
207.07506670728071
  0
LINE
  5
39E0
  8
AM_0
 10
149.48441718714361
 20
242.09924424896269
 30
0.0
 11
149.98441718714361
 21
241.75255618042169
 31
0.0
  0
LINE
  5
39E1
  8
AM_0
 10
149.98441718714361
 20
242.59924424896269
 30
0.0
 11
149.48441718714361
 21
242.09924424896269
 31
0.0
  0
LINE
  5
39E2
  8
AM_0
 10
146.34423278747909
 20
234.2993979153492
 30
0.0
 11
148.70628272266109
 21
232.33102296936519
 31
0.0
  0
LINE
  5
39E3
  8
AM_0
 10
149.98441718714361
 20
232.09924424896269
 30
0.0
 11
149.48441718714361
 21
232.6776768324697
 31
0.0
  0
ARC
  5
39E4
  8
AM_0
 10
149.34646712232561
 20
233.09924424896261
 30
0.0
 40
1.0000000000000411
 50
230.19442890774391
 51
270.0
  0
LINE
  5
39E5
  8
AM_0
 10
149.48441718714361
 20
233.6776768324697
 30
0.0
 11
149.98441718714361
 21
233.44593231750369
 31
0.0
  0
LINE
  5
39E6
  8
AM_0
 10
149.98441718714361
 20
232.96596442031469
 30
0.0
 11
149.48441718714361
 21
233.6776768324697
 31
0.0
  0
LINE
  5
39E7
  8
AM_0
 10
149.48441718714361
 20
233.13995210544169
 30
0.0
 11
149.98441718714361
 21
232.96596442031469
 31
0.0
  0
LINE
  5
39E8
  8
AM_0
 10
149.98441718714361
 20
232.46596442031469
 30
0.0
 11
149.48441718714361
 21
233.13995210544169
 31
0.0
  0
LINE
  5
39E9
  8
AM_0
 10
149.48441718714361
 20
232.6776768324697
 30
0.0
 11
149.98441718714361
 21
232.46596442031469
 31
0.0
  0
ARC
  5
39EA
  8
AM_0
 10
146.98441718714361
 20
235.0676191949467
 30
0.0
 40
1.0
 50
180.0
 51
230.19442890773479
  0
CIRCLE
  5
39EB
  8
AM_0
 10
180.38308828348789
 20
284.09924424896218
 30
0.0
 40
4.0
  0
LINE
  5
39EC
  8
AM_0
 10
180.0715882834879
 20
281.82043584323782
 30
0.0
 11
180.69458828348789
 21
281.82043584323782
 31
0.0
  0
LINE
  5
39ED
  8
AM_0
 10
180.0715882834879
 20
286.3780526546866
 30
0.0
 11
180.69458828348789
 21
286.3780526546866
 31
0.0
  0
LINE
  5
39EE
  8
AM_0
 10
180.0715882834879
 20
281.82043584323782
 30
0.0
 11
180.0715882834879
 21
283.78774424896238
 31
0.0
  0
LINE
  5
39EF
  8
AM_0
 10
180.0715882834879
 20
284.41074424896237
 30
0.0
 11
180.0715882834879
 21
286.3780526546866
 31
0.0
  0
LINE
  5
39F0
  8
AM_0
 10
180.0715882834879
 20
284.41074424896237
 30
0.0
 11
178.10427987776359
 21
284.41074424896237
 31
0.0
  0
LINE
  5
39F1
  8
AM_0
 10
180.0715882834879
 20
283.78774424896238
 30
0.0
 11
178.10427987776359
 21
283.78774424896238
 31
0.0
  0
LINE
  5
39F2
  8
AM_0
 10
178.10427987776359
 20
284.41074424896237
 30
0.0
 11
178.10427987776359
 21
283.78774424896238
 31
0.0
  0
LINE
  5
39F3
  8
AM_0
 10
180.69458828348789
 20
281.82043584323782
 30
0.0
 11
180.69458828348789
 21
283.78774424896238
 31
0.0
  0
LINE
  5
39F4
  8
AM_0
 10
180.69458828348789
 20
284.41074424896237
 30
0.0
 11
180.69458828348789
 21
286.3780526546866
 31
0.0
  0
LINE
  5
39F5
  8
AM_0
 10
182.66189668921231
 20
283.78774424896238
 30
0.0
 11
180.69458828348789
 21
283.78774424896238
 31
0.0
  0
LINE
  5
39F6
  8
AM_0
 10
182.66189668921231
 20
284.41074424896237
 30
0.0
 11
180.69458828348789
 21
284.41074424896237
 31
0.0
  0
LINE
  5
39F7
  8
AM_0
 10
182.66189668921231
 20
284.41074424896237
 30
0.0
 11
182.66189668921231
 21
283.78774424896238
 31
0.0
  0
CIRCLE
  5
39F8
  8
AM_0
 10
266.38308828349147
 20
284.09924424896218
 30
0.0
 40
4.0
  0
LINE
  5
39F9
  8
AM_0
 10
266.07158828349162
 20
281.82043584323782
 30
0.0
 11
266.6945882834915
 21
281.82043584323782
 31
0.0
  0
LINE
  5
39FA
  8
AM_0
 10
266.07158828349162
 20
286.3780526546866
 30
0.0
 11
266.6945882834915
 21
286.3780526546866
 31
0.0
  0
LINE
  5
39FB
  8
AM_0
 10
266.07158828349162
 20
281.82043584323782
 30
0.0
 11
266.07158828349162
 21
283.78774424896238
 31
0.0
  0
LINE
  5
39FC
  8
AM_0
 10
266.07158828349162
 20
284.41074424896198
 30
0.0
 11
266.07158828349162
 21
286.3780526546866
 31
0.0
  0
LINE
  5
39FD
  8
AM_0
 10
266.07158828349162
 20
284.41074424896198
 30
0.0
 11
264.10427987776728
 21
284.41074424896198
 31
0.0
  0
LINE
  5
39FE
  8
AM_0
 10
266.07158828349162
 20
283.78774424896238
 30
0.0
 11
264.10427987776728
 21
283.78774424896238
 31
0.0
  0
LINE
  5
39FF
  8
AM_0
 10
264.10427987776728
 20
284.41074424896198
 30
0.0
 11
264.10427987776728
 21
283.78774424896238
 31
0.0
  0
LINE
  5
3A00
  8
AM_0
 10
266.6945882834915
 20
281.82043584323782
 30
0.0
 11
266.6945882834915
 21
283.78774424896238
 31
0.0
  0
LINE
  5
3A01
  8
AM_0
 10
266.6945882834915
 20
284.41074424896198
 30
0.0
 11
266.6945882834915
 21
286.3780526546866
 31
0.0
  0
LINE
  5
3A02
  8
AM_0
 10
268.66189668921572
 20
283.78774424896238
 30
0.0
 11
266.6945882834915
 21
283.78774424896238
 31
0.0
  0
LINE
  5
3A03
  8
AM_0
 10
268.66189668921572
 20
284.41074424896198
 30
0.0
 11
266.6945882834915
 21
284.41074424896198
 31
0.0
  0
LINE
  5
3A04
  8
AM_0
 10
268.66189668921572
 20
284.41074424896198
 30
0.0
 11
268.66189668921572
 21
283.78774424896238
 31
0.0
  0
LINE
  5
3A05
  8
AM_0
 10
193.91862218942239
 20
287.6347781548954
 30
0.0
 11
176.84755437755689
 21
270.5637103430301
 31
0.0
  0
LINE
  5
3A06
  8
AM_0
 10
194.57547643891479
 20
282.63477815489551
 30
0.0
 11
181.84755437755689
 21
269.9068560935375
 31
0.0
  0
ARC
  5
3A07
  8
AM_0
 10
185.3830882834896
 20
266.3713221876049
 30
0.0
 40
5.0
 50
135.0
 51
180.0
1001
GENIUS_GENOBJ-N-FIL_13
1002
{
1000
OWNER
1000
GEN
1002
}
1001
GENIUS_GENODEF_13
1002
{
1000
HIER
1070
     0
1002
}
1002
{
1000
MANEDIT
1070
     0
1002
}
1002
{
1000
NOSEL
1070
     0
1002
}
1002
{
1000
BEHIND
1070
     0
1002
}
1002
{
1000
OTHER
1070
     0
1002
}
1002
{
1000
REACTOR
1002
}
  0
LINE
  5
3A08
  8
AM_0
 10
252.84755437755689
 20
198.56371034302961
 30
0.0
 11
269.91862218942242
 21
215.6347781548952
 31
0.0
  0
ARC
  5
3A09
  8
AM_0
 10
249.31202047162421
 20
202.09924424896261
 30
0.0
 40
5.0
 50
270.0
 51
315.0
1001
GENIUS_GENODEF_13
1002
{
1000
HIER
1070
     0
1002
}
1002
{
1000
MANEDIT
1070
     0
1002
}
1002
{
1000
NOSEL
1070
     0
1002
}
1002
{
1000
BEHIND
1070
     0
1002
}
1002
{
1000
OTHER
1070
     0
1002
}
1002
{
1000
REACTOR
1002
}
1001
GENIUS_GENOBJ-N-FIL_13
1002
{
1000
OWNER
1000
GEN
1002
}
  0
LINE
  5
3A0A
  8
AM_0
 10
252.19070012806469
 20
203.5637103430297
 30
0.0
 11
264.91862218942242
 21
216.2916324043874
 31
0.0
  0
ARC
  5
3A0B
  8
AM_0
 10
261.38308828348983
 20
219.82716631032019
 30
0.0
 40
5.0
 50
315.0
 51
0.0
1001
GENIUS_GENOBJ-N-FIL_13
1002
{
1000
OWNER
1000
GEN
1002
}
1001
GENIUS_GENODEF_13
1002
{
1000
HIER
1070
     0
1002
}
1002
{
1000
MANEDIT
1070
     0
1002
}
1002
{
1000
NOSEL
1070
     0
1002
}
1002
{
1000
BEHIND
1070
     0
1002
}
1002
{
1000
OTHER
1070
     0
1002
}
1002
{
1000
REACTOR
1002
}
  0
LINE
  5
3A0C
  8
AM_0
 10
193.91862218942239
 20
198.56371034302961
 30
0.0
 11
176.84755437755689
 21
215.634778154895
 31
0.0
  0
LINE
  5
3A0D
  8
AM_0
 10
194.57547643891439
 20
203.56371034302981
 30
0.0
 11
181.84755437755689
 21
216.2916324043874
 31
0.0
  0
ARC
  5
3A0E
  8
AM_0
 10
198.11101034484739
 20
207.09924424896261
 30
0.0
 40
5.0
 50
225.0
 51
270.0
1001
GENIUS_GENOBJ-N-FIL_13
1002
{
1000
OWNER
1000
GEN
1002
}
1001
GENIUS_GENODEF_13
1002
{
1000
HIER
1070
     0
1002
}
1002
{
1000
MANEDIT
1070
     0
1002
}
1002
{
1000
NOSEL
1070
     0
1002
}
1002
{
1000
BEHIND
1070
     0
1002
}
1002
{
1000
OTHER
1070
     0
1002
}
1002
{
1000
REACTOR
1002
}
  0
CIRCLE
  5
3A0F
  8
AM_0
 10
180.38308828348781
 20
202.09924424896289
 30
0.0
 40
4.0
  0
LINE
  5
3A10
  8
AM_0
 10
180.0715882834879
 20
204.37805265468731
 30
0.0
 11
180.6945882834878
 21
204.37805265468731
 31
0.0
  0
LINE
  5
3A11
  8
AM_0
 10
180.0715882834879
 20
199.8204358432385
 30
0.0
 11
180.6945882834878
 21
199.8204358432385
 31
0.0
  0
LINE
  5
3A12
  8
AM_0
 10
180.0715882834879
 20
204.37805265468731
 30
0.0
 11
180.0715882834879
 21
202.4107442489628
 31
0.0
  0
LINE
  5
3A13
  8
AM_0
 10
180.0715882834879
 20
201.78774424896289
 30
0.0
 11
180.0715882834879
 21
199.8204358432385
 31
0.0
  0
LINE
  5
3A14
  8
AM_0
 10
180.0715882834879
 20
201.78774424896289
 30
0.0
 11
178.10427987776339
 21
201.78774424896289
 31
0.0
  0
LINE
  5
3A15
  8
AM_0
 10
180.0715882834879
 20
202.4107442489628
 30
0.0
 11
178.10427987776339
 21
202.4107442489628
 31
0.0
  0
LINE
  5
3A16
  8
AM_0
 10
178.10427987776339
 20
201.78774424896289
 30
0.0
 11
178.10427987776339
 21
202.4107442489628
 31
0.0
  0
LINE
  5
3A17
  8
AM_0
 10
180.6945882834878
 20
204.37805265468731
 30
0.0
 11
180.6945882834878
 21
202.4107442489628
 31
0.0
  0
LINE
  5
3A18
  8
AM_0
 10
180.6945882834878
 20
201.78774424896289
 30
0.0
 11
180.6945882834878
 21
199.8204358432385
 31
0.0
  0
LINE
  5
3A19
  8
AM_0
 10
182.6618966892122
 20
202.4107442489628
 30
0.0
 11
180.6945882834878
 21
202.4107442489628
 31
0.0
  0
LINE
  5
3A1A
  8
AM_0
 10
182.6618966892122
 20
201.78774424896289
 30
0.0
 11
180.6945882834878
 21
201.78774424896289
 31
0.0
  0
LINE
  5
3A1B
  8
AM_0
 10
182.6618966892122
 20
201.78774424896289
 30
0.0
 11
182.6618966892122
 21
202.4107442489628
 31
0.0
  0
CIRCLE
  5
3A1C
  8
AM_0
 10
266.3830882834913
 20
202.0992442489628
 30
0.0
 40
4.0
  0
LINE
  5
3A1D
  8
AM_0
 10
266.07158828349128
 20
204.378052654687
 30
0.0
 11
266.69458828349138
 21
204.378052654687
 31
0.0
  0
LINE
  5
3A1E
  8
AM_0
 10
266.07158828349128
 20
199.8204358432383
 30
0.0
 11
266.69458828349138
 21
199.8204358432383
 31
0.0
  0
LINE
  5
3A1F
  8
AM_0
 10
266.07158828349128
 20
204.378052654687
 30
0.0
 11
266.07158828349128
 21
202.41074424896269
 31
0.0
  0
LINE
  5
3A20
  8
AM_0
 10
266.07158828349128
 20
201.78774424896281
 30
0.0
 11
266.07158828349128
 21
199.8204358432383
 31
0.0
  0
LINE
  5
3A21
  8
AM_0
 10
266.07158828349128
 20
201.78774424896281
 30
0.0
 11
264.104279877767
 21
201.78774424896281
 31
0.0
  0
LINE
  5
3A22
  8
AM_0
 10
266.07158828349128
 20
202.41074424896269
 30
0.0
 11
264.104279877767
 21
202.41074424896269
 31
0.0
  0
LINE
  5
3A23
  8
AM_0
 10
264.104279877767
 20
201.78774424896281
 30
0.0
 11
264.104279877767
 21
202.41074424896269
 31
0.0
  0
LINE
  5
3A24
  8
AM_0
 10
266.69458828349138
 20
204.378052654687
 30
0.0
 11
266.69458828349138
 21
202.41074424896269
 31
0.0
  0
LINE
  5
3A25
  8
AM_0
 10
266.69458828349138
 20
201.78774424896281
 30
0.0
 11
266.69458828349138
 21
199.8204358432383
 31
0.0
  0
LINE
  5
3A26
  8
AM_0
 10
268.66189668921572
 20
202.41074424896269
 30
0.0
 11
266.69458828349138
 21
202.41074424896269
 31
0.0
  0
LINE
  5
3A27
  8
AM_0
 10
268.66189668921572
 20
201.78774424896281
 30
0.0
 11
266.69458828349138
 21
201.78774424896281
 31
0.0
  0
LINE
  5
3A28
  8
AM_0
 10
268.66189668921572
 20
201.78774424896281
 30
0.0
 11
268.66189668921572
 21
202.41074424896269
 31
0.0
  0
LINE
  5
3A29
  8
AM_0
 10
175.3830882834896
 20
212.09924424896261
 30
0.0
 11
174.3830882834896
 21
212.09924424896261
 31
0.0
  0
LINE
  5
3A2A
  8
AM_0
 10
175.3830882834896
 20
274.09924424896258
 30
0.0
 11
174.3830882834896
 21
274.09924424896258
 31
0.0
  0
LINE
  5
3A2B
  8
AM_0
 10
174.3830882834896
 20
212.09924424896261
 30
0.0
 11
174.3830882834896
 21
274.09924424896258
 31
0.0
  0
LINE
  5
3A30
  8
AM_0
 10
519.30833541925495
 20
197.09924424896261
 30
0.0
 11
554.96142659452289
 21
198.34427762756229
 31
0.0
  0
LINE
  5
3A33
  8
AM_0
 10
551.9958663827789
 20
287.95777051493121
 30
0.0
 11
519.30833541925506
 21
289.09924424896269
 31
0.0
  0
LINE
  5
3A35
  8
AM_0
 10
519.30833541925506
 20
289.09924424896269
 30
0.0
 11
519.30833541925495
 21
197.09924424896229
 31
0.0
  0
LINE
  5
3A36
  8
ﾁｭｳｼﾝｾﾝ1
 10
508.30833541925477
 20
202.09924424896329
 30
0.0
 11
524.1358584317918
 21
202.09924424896329
 31
0.0
  0
LINE
  5
3A37
  8
AM_0
 10
515.30833541925517
 20
289.09924424896258
 30
0.0
 11
515.30833541925517
 21
268.2847393494302
 31
0.0
  0
LINE
  5
3A38
  8
AM_0
 10
515.30833541925495
 20
217.9137491484949
 30
0.0
 11
515.30833541925495
 21
197.0992442489632
 31
0.0
  0
LINE
  5
3A39
  8
AM_0
 10
511.30833541925517
 20
282.96346257980201
 30
0.0
 11
511.30833541925477
 21
203.23502591812331
 31
0.0
  0
LINE
  5
3A3A
  8
AM_0
 10
513.2493979071271
 20
206.00659922126971
 30
0.0
 11
514.30833541925495
 21
206.09924424896309
 31
0.0
  0
LINE
  5
3A3B
  8
AM_0
 10
513.2493979071271
 20
198.19188927665661
 30
0.0
 11
514.30833541925495
 21
198.0992442489632
 31
0.0
  0
ARC
  5
3A3C
  8
AM_0
 10
517.70833541925526
 20
202.09924424896309
 30
0.0
 40
6.5
 50
151.82726586813479
 51
208.1727341318651
  0
ARC
  5
3A3D
  8
AM_0
 10
513.3888470955236
 20
199.7858007936035
 30
0.0
 40
1.6000000000000001
 50
208.1727341318651
 51
265.0
  0
LINE
  5
3A3E
  8
AM_0
 10
511.62886175782683
 20
204.3992442489631
 30
0.0
 11
513.91842143662234
 21
202.09924424896309
 31
0.0
  0
LINE
  5
3A3F
  8
AM_0
 10
513.60833541925479
 20
202.4107442489632
 30
0.0
 11
513.60833541925479
 21
201.78774424896309
 31
0.0
  0
LINE
  5
3A40
  8
AM_0
 10
511.62886175782683
 20
199.79924424896319
 30
0.0
 11
513.91842143662234
 21
202.09924424896309
 31
0.0
  0
LINE
  5
3A41
  8
AM_0
 10
511.21580372891998
 20
202.4107442489632
 30
0.0
 11
513.60833541925479
 21
202.4107442489632
 31
0.0
  0
LINE
  5
3A42
  8
AM_0
 10
511.21580372891998
 20
201.78774424896309
 30
0.0
 11
513.60833541925479
 21
201.78774424896309
 31
0.0
  0
ARC
  5
3A43
  8
AM_0
 10
513.3888470955236
 20
204.41268770432279
 30
0.0
 40
1.6000000000000001
 50
95.0
 51
151.82726586813479
  0
LINE
  5
3A44
  8
AM_0
 10
515.30833541925517
 20
289.09924424896269
 30
0.0
 11
519.30833541925506
 21
289.09924424896269
 31
0.0
  0
LINE
  5
3A45
  8
AM_0
 10
514.30833541925495
 20
288.09924424896241
 30
0.0
 11
515.30833541925517
 21
289.09924424896269
 31
0.0
  0
LINE
  5
3A46
  8
AM_0
 10
519.30833541925495
 20
197.09924424896229
 30
0.0
 11
515.30833541925495
 21
197.09924424896329
 31
0.0
  0
LINE
  5
3A47
  8
AM_0N
 10
515.30833541925495
 20
205.89924424896321
 30
0.0
 11
514.30833541925495
 21
205.89924424896321
 31
0.0
  0
LINE
  5
3A48
  8
AM_0N
 10
514.30833541925495
 20
202.29924424896319
 30
0.0
 11
515.30833541925495
 21
202.6632144832293
 31
0.0
  0
LINE
  5
3A49
  8
AM_0N
 10
514.30833541925495
 20
201.89924424896321
 30
0.0
 11
515.30833541925495
 21
202.2632144832294
 31
0.0
  0
LINE
  5
3A4A
  8
AM_0N
 10
514.30833541925495
 20
198.09924424896309
 30
0.0
 11
514.30833541925495
 21
206.09924424896309
 31
0.0
  0
LINE
  5
3A4B
  8
AM_0N
 10
514.30833541925495
 20
198.29924424896319
 30
0.0
 11
515.30833541925495
 21
198.29924424896319
 31
0.0
  0
LINE
  5
3A4C
  8
AM_0
 10
511.30833541925477
 20
217.9137491484949
 30
0.0
 11
515.30833541925495
 21
217.9137491484949
 31
0.0
  0
LINE
  5
3A4D
  8
AM_0
 10
515.30833541925495
 20
216.25689489900239
 30
0.0
 11
511.30833541925477
 21
217.9137491484949
 31
0.0
  0
LINE
  5
3A4E
  8
AM_0
 10
511.30833541925517
 20
268.2847393494302
 30
0.0
 11
515.30833541925517
 21
268.2847393494302
 31
0.0
  0
LINE
  5
3A4F
  8
AM_0
 10
515.30833541925517
 20
269.94159359892279
 30
0.0
 11
511.30833541925517
 21
268.2847393494302
 31
0.0
  0
LINE
  5
3A50
  8
ﾁｭｳｼﾝｾﾝ1
 10
508.30833541925512
 20
284.0992442489619
 30
0.0
 11
524.1358584317918
 21
284.0992442489619
 31
0.0
  0
LINE
  5
3A51
  8
AM_0
 10
513.2493979071271
 20
280.1918892766555
 30
0.0
 11
514.30833541925495
 21
280.09924424896201
 31
0.0
  0
LINE
  5
3A52
  8
AM_0
 10
513.2493979071271
 20
288.00659922126852
 30
0.0
 11
514.30833541925495
 21
288.0992442489619
 31
0.0
  0
ARC
  5
3A53
  8
AM_0
 10
517.70833541925526
 20
284.09924424896201
 30
0.0
 40
6.5
 50
151.82726586813479
 51
208.1727341318651
  0
ARC
  5
3A54
  8
AM_0
 10
513.3888470955236
 20
286.41268770432168
 30
0.0
 40
1.6000000000000001
 50
95.0
 51
151.82726586813479
  0
LINE
  5
3A55
  8
AM_0
 10
511.62886175782683
 20
281.79924424896211
 30
0.0
 11
513.91842143662234
 21
284.09924424896201
 31
0.0
  0
LINE
  5
3A56
  8
AM_0
 10
513.60833541925479
 20
283.78774424896199
 30
0.0
 11
513.60833541925479
 21
284.41074424896198
 31
0.0
  0
LINE
  5
3A57
  8
AM_0
 10
511.62886175782683
 20
286.39924424896202
 30
0.0
 11
513.91842143662234
 21
284.09924424896201
 31
0.0
  0
LINE
  5
3A58
  8
AM_0
 10
511.21580372891998
 20
283.78774424896199
 30
0.0
 11
513.60833541925479
 21
283.78774424896199
 31
0.0
  0
LINE
  5
3A59
  8
AM_0
 10
511.21580372891998
 20
284.41074424896198
 30
0.0
 11
513.60833541925479
 21
284.41074424896198
 31
0.0
  0
ARC
  5
3A5A
  8
AM_0
 10
513.3888470955236
 20
281.78580079360239
 30
0.0
 40
1.6000000000000001
 50
208.1727341318651
 51
265.0
  0
LINE
  5
3A5B
  8
AM_0N
 10
515.30833541925495
 20
280.29924424896188
 30
0.0
 11
514.30833541925495
 21
280.29924424896188
 31
0.0
  0
LINE
  5
3A5C
  8
AM_0N
 10
514.30833541925495
 20
283.89924424896202
 30
0.0
 11
515.30833541925495
 21
283.5352740146958
 31
0.0
  0
LINE
  5
3A5D
  8
AM_0N
 10
514.30833541925495
 20
284.29924424896188
 30
0.0
 11
515.30833541925495
 21
283.93527401469572
 31
0.0
  0
LINE
  5
3A5E
  8
AM_0N
 10
514.30833541925495
 20
288.09924424896201
 30
0.0
 11
514.30833541925495
 21
280.09924424896201
 31
0.0
  0
LINE
  5
3A5F
  8
AM_0N
 10
514.30833541925495
 20
287.89924424896202
 30
0.0
 11
515.30833541925495
 21
287.89924424896202
 31
0.0
  0
LINE
  5
3A65
  8
AM_0
 10
368.38307828348962
 20
284.5992422489627
 30
0.0
 11
372.38307828348951
 21
280.5992422489627
 31
0.0
  0
LINE
  5
3A66
  8
AM_0
 10
365.88307828348962
 20
284.5992422489627
 30
0.0
 11
368.38307828348962
 21
284.59924224896258
 31
0.0
  0
LINE
  5
3A68
  8
AM_0
 10
372.38307828348951
 20
280.5992422489627
 30
0.0
 11
372.38307828349019
 21
239.5992422489625
 31
0.0
  0
LINE
  5
3A69
  8
AM_0
 10
368.38307828348962
 20
235.5992422489627
 30
0.0
 11
372.38307828348951
 21
239.5992422489625
 31
0.0
  0
LINE
  5
3A6A
  8
AM_0
 10
365.88307828348962
 20
235.5992422489627
 30
0.0
 11
368.38307828348962
 21
235.5992422489627
 31
0.0
  0
LINE
  5
3A6B
  8
AM_0
 10
365.38307828348962
 20
284.0992422489627
 30
0.0
 11
365.88307828348962
 21
284.5992422489627
 31
0.0
1001
GENIUS_GENFIL_13
1070
     0
1040
0.5
1040
0.5
1040
20.0
1040
0.0
1002
{
1002
}
1001
GENIUS_GENOBJ-N-CHA_13
1002
{
1000
OWNER
1000
GEN
1002
}
1001
GENIUS_GENODEF_13
1002
{
1000
HIER
1070
     0
1002
}
1002
{
1000
MANEDIT
1070
     0
1002
}
1002
{
1000
NOSEL
1070
     0
1002
}
1002
{
1000
BEHIND
1070
     0
1002
}
1002
{
1000
OTHER
1070
     0
1002
}
1002
{
1000
REACTOR
1002
}
  0
LINE
  5
3A6C
  8
AM_0
 10
365.38307828348962
 20
236.0992422489627
 30
0.0
 11
365.88307828348962
 21
235.5992422489627
 31
0.0
1001
GENIUS_GENFIL_13
1070
     0
1040
0.5
1040
0.5
1040
20.0
1040
0.0
1002
{
1002
}
1001
GENIUS_GENODEF_13
1002
{
1000
HIER
1070
     0
1002
}
1002
{
1000
MANEDIT
1070
     0
1002
}
1002
{
1000
NOSEL
1070
     0
1002
}
1002
{
1000
BEHIND
1070
     0
1002
}
1002
{
1000
OTHER
1070
     0
1002
}
1002
{
1000
REACTOR
1002
}
1001
GENIUS_GENOBJ-N-CHA_13
1002
{
1000
OWNER
1000
GEN
1002
}
  0
CIRCLE
  5
3A6D
  8
AM_0
 10
626.30833541925506
 20
260.09924224896258
 30
0.0
 40
24.49999999999989
  0
CIRCLE
  5
3A6E
  8
AM_0
 10
626.30833541925506
 20
260.09924224896258
 30
0.0
 40
20.50000000000011
  0
LINE
  5
3A6F
  8
AM_0
 10
368.38307828348968
 20
284.59924224896258
 30
0.0
 11
368.38307828348962
 21
235.5992422489627
 31
0.0
  0
LINE
  5
3A70
  8
ﾁｭｳｼﾝｾﾝ1
 10
180.38308828348761
 20
278.09924424896229
 30
0.0
 11
180.38308828348821
 21
290.09924424896241
 31
0.0
  0
LINE
  5
3A71
  8
ﾁｭｳｼﾝｾﾝ1
 10
186.38308828348789
 20
284.09924424896212
 30
0.0
 11
174.38308828348789
 21
284.09924424896269
 31
0.0
  0
LINE
  5
3A72
  8
ﾁｭｳｼﾝｾﾝ1
 10
180.3830882834875
 20
196.0992442489628
 30
0.0
 11
180.38308828348821
 21
208.09924424896289
 31
0.0
  0
LINE
  5
3A73
  8
ﾁｭｳｼﾝｾﾝ1
 10
186.38308828348781
 20
202.09924424896269
 30
0.0
 11
174.38308828348781
 21
202.09924424896329
 31
0.0
  0
LINE
  5
3A74
  8
ﾁｭｳｼﾝｾﾝ1
 10
266.38308828349102
 20
196.0992442489628
 30
0.0
 11
266.38308828349159
 21
208.0992442489628
 31
0.0
  0
LINE
  5
3A75
  8
ﾁｭｳｼﾝｾﾝ1
 10
272.38308828349142
 20
202.09924424896261
 30
0.0
 11
260.3830882834913
 21
202.09924424896309
 31
0.0
  0
LINE
  5
4198
  8
AM_0
 10
374.38307828348951
 20
272.09924424896258
 30
0.0
 11
396.38309828348952
 21
272.09924424896258
 31
0.0
  0
LINE
  5
419C
  8
ﾁｭｳｼﾝｾﾝ
 10
548.72410695598842
 20
260.09924224896258
 30
0.0
 11
703.89256388252181
 21
260.09924224896258
 31
0.0
  0
LINE
  5
419E
  8
ﾁｭｳｼﾝｾﾝ
 10
295.03367828348951
 20
260.09924224896258
 30
0.0
 11
402.6948658659428
 21
260.09924224896258
 31
0.0
  0
LINE
  5
419F
  8
AM_0
 10
396.38309828348952
 20
250.59924424896261
 30
0.0
 11
396.3830982834894
 21
272.09924424896258
 31
0.0
  0
LINE
  5
41A0
  8
AM_0
 10
372.38307828349008
 20
250.59924424896261
 30
0.0
 11
396.38309828348952
 21
250.59924424896261
 31
0.0
  0
LINE
  5
41A1
  8
AM_0
 10
372.38307828348968
 20
269.59924324896258
 30
0.0
 11
396.38309828348952
 21
269.59924324896258
 31
0.0
  0
LINE
  5
41A2
  8
AM_0
 10
629.30833541925506
 20
272.09924524896257
 30
0.0
 11
623.30833541925506
 21
272.09924524896257
 31
0.0
  0
LINE
  5
41A3
  8
AM_0
 10
629.30833541925506
 20
266.09924524896257
 30
0.0
 11
629.30833541925506
 21
272.09924524896257
 31
0.0
  0
LINE
  5
41A4
  8
AM_0
 10
623.30833541925506
 20
266.09924524896257
 30
0.0
 11
629.30833541925506
 21
266.09924524896257
 31
0.0
  0
LINE
  5
41A5
  8
AM_0
 10
623.30833541925506
 20
272.09924524896257
 30
0.0
 11
623.30833541925506
 21
266.09924524896257
 31
0.0
  0
LINE
  5
41A6
  8
AM_0
 10
306.38309828348952
 20
303.09924424896258
 30
0.0
 11
306.38309828348952
 21
178.28532124896259
 31
0.0
  0
LINE
  5
41A7
  8
AM_0
 10
681.28959941925507
 20
278.56445524896247
 30
0.0
 11
681.28959941925507
 21
284.33795224896249
 31
0.0
  0
LINE
  5
41A8
  8
AM_0
 10
676.28960141925506
 20
275.67770524896252
 30
0.0
 11
681.28959941925507
 21
278.56448524896263
 31
0.0
  0
LINE
  5
41A9
  8
AM_0
 10
602.19926741925519
 20
179.12135224896241
 30
0.0
 11
607.1992654192552
 21
182.00809924896251
 31
0.0
  0
LINE
  5
41AA
  8
AM_0
 10
607.1992654192552
 20
182.00805424896251
 30
0.0
 11
607.1992654192552
 21
187.7815842489625
 31
0.0
  0
LINE
  5
41AB
  8
AM_0
 10
607.1992654192552
 20
187.7815692489624
 30
0.0
 11
602.19929741925512
 21
190.66831924896249
 31
0.0
  0
LINE
  5
41AC
  8
AM_0
 10
602.19926741925519
 20
190.66833424896251
 30
0.0
 11
597.19926641925497
 21
187.7815842489625
 31
0.0
  0
LINE
  5
41AD
  8
AM_0
 10
645.41740841925525
 20
182.00805424896251
 30
0.0
 11
650.41739141925507
 21
179.1213042489625
 31
0.0
  0
LINE
  5
41AE
  8
AM_0
 10
650.41739141925507
 20
179.1213372489625
 30
0.0
 11
655.41739241925518
 21
182.00808424896249
 31
0.0
  0
LINE
  5
41AF
  8
AM_0
 10
671.28958541925522
 20
284.33795224896249
 30
0.0
 11
671.28958541925522
 21
278.56445524896247
 31
0.0
  0
LINE
  5
41B0
  8
AM_0
 10
671.28960041925495
 20
278.56445524896247
 30
0.0
 11
676.28958641925522
 21
275.67770524896252
 31
0.0
  0
LINE
  5
41B1
  8
AM_0
 10
645.41737541925522
 20
187.7815842489625
 30
0.0
 11
645.41737541925522
 21
182.00805424896251
 31
0.0
  0
LINE
  5
41B2
  8
AM_0
 10
655.41739241925518
 20
182.00805424896251
 30
0.0
 11
655.41739241925518
 21
187.7815842489625
 31
0.0
  0
LINE
  5
41B3
  8
AM_0
 10
676.28958641925522
 20
287.22473224896282
 30
0.0
 11
671.28958541925522
 21
284.33798224896248
 31
0.0
  0
LINE
  5
41B4
  8
AM_0
 10
571.32705941925508
 20
278.56445524896247
 30
0.0
 11
576.32706941925505
 21
275.67770524896252
 31
0.0
  0
LINE
  5
41B5
  8
AM_0
 10
571.32705941925508
 20
284.33795224896249
 30
0.0
 11
571.32705941925508
 21
278.56445524896247
 31
0.0
  0
LINE
  5
41B6
  8
AM_0
 10
576.32709941925486
 20
287.2247022489625
 30
0.0
 11
571.32705941925508
 21
284.33795224896249
 31
0.0
  0
LINE
  5
41B7
  8
AM_0
 10
581.32707941925526
 20
284.33795224896249
 30
0.0
 11
576.32706941925505
 21
287.2247022489625
 31
0.0
  0
LINE
  5
41B8
  8
AM_0
 10
581.32707941925526
 20
278.56445524896247
 30
0.0
 11
581.32707941925526
 21
284.33795224896249
 31
0.0
  0
LINE
  5
41B9
  8
AM_0
 10
650.41739141925507
 20
190.66834924896261
 30
0.0
 11
645.41737541925522
 21
187.78159924896261
 31
0.0
  0
LINE
  5
41BA
  8
AM_0
 10
576.32706941925505
 20
275.67770524896252
 30
0.0
 11
581.32707941925526
 21
278.56445524896247
 31
0.0
  0
LINE
  5
41BB
  8
AM_0
 10
655.41739241925518
 20
187.7815692489624
 30
0.0
 11
650.41740641925514
 21
190.66831924896249
 31
0.0
  0
LINE
  5
41BC
  8
AM_0
 10
597.19929641925489
 20
182.0080692489625
 30
0.0
 11
602.19929741925512
 21
179.12131924896241
 31
0.0
  0
LINE
  5
41BD
  8
AM_0
 10
681.28959941925507
 20
284.33795224896249
 30
0.0
 11
676.28960141925506
 21
287.2247022489625
 31
0.0
  0
LINE
  5
41BE
  8
AM_0
 10
597.19929641925489
 20
187.7815842489625
 30
0.0
 11
597.19929641925489
 21
182.00805424896251
 31
0.0
  0
LINE
  5
41BF
  8
AM_0
 10
374.38307828348951
 20
269.59924324896258
 30
0.0
 11
374.38307828348962
 21
272.09924424896269
 31
0.0
  0
LINE
  5
41C0
  8
AM_0
 10
294.38309828348952
 20
285.7060872489626
 30
0.0
 11
306.38309828348952
 21
285.7060872489626
 31
0.0
  0
LINE
  5
41C1
  8
AM_0
 10
300.38309828348952
 20
282.97287124896258
 30
0.0
 11
300.38309828348952
 21
243.09924424896261
 31
0.0
  0
LINE
  5
41C2
  8
AM_0
 10
294.38309828348952
 20
287.09924524896257
 30
0.0
 11
300.38309828348952
 21
287.09924524896257
 31
0.0
  0
LINE
  5
41C3
  8
AM_0
 10
282.3830382834895
 20
187.09922524896251
 30
0.0
 11
292.92233828348952
 21
186.8232552489626
 31
0.0
  0
LINE
  5
41C4
  8
AM_0
 10
294.38309828348952
 20
268.88195824896258
 30
0.0
 11
300.38309828348952
 21
268.88195824896258
 31
0.0
  0
LINE
  5
41C5
  8
AM_0
 10
300.38309828348952
 20
192.30735724896249
 30
0.0
 11
300.38309828348952
 21
243.09924424896261
 31
0.0
  0
LINE
  5
41C6
  8
AM_0
 10
301.84385828348962
 20
302.98040824896248
 30
0.0
 11
306.38309828348952
 21
303.09924424896258
 31
0.0
  0
LINE
  5
41C7
  8
AM_0
 10
282.38309828348952
 20
299.09924524896257
 30
0.0
 11
298.92233828348952
 21
299.53234924896248
 31
0.0
  0
LINE
  5
41C8
  8
AM_0
 10
282.38309828348952
 20
289.09924324896258
 30
0.0
 11
300.38309828348952
 21
289.09924324896258
 31
0.0
  0
LINE
  5
41C9
  8
AM_0
 10
282.38309828348952
 20
211.1618022489626
 30
0.0
 11
300.38309828348952
 21
211.1618022489626
 31
0.0
  0
LINE
  5
41CA
  8
AM_0
 10
282.38309828348952
 20
197.09922724896239
 30
0.0
 11
300.38309828348952
 21
197.09922724896239
 31
0.0
  0
LINE
  5
41CB
  8
AM_0
 10
282.38309828348952
 20
299.09927524896261
 30
0.0
 11
282.38309828348952
 21
187.0992402489625
 31
0.0
  0
LINE
  5
41CC
  8
AM_0
 10
282.38309828348952
 20
275.03668324896262
 30
0.0
 11
294.38309828348952
 21
275.03668324896262
 31
0.0
  0
LINE
  5
41CD
  8
AM_0
 10
300.38309828348952
 20
301.48089724896261
 30
0.0
 11
300.38309828348952
 21
287.09924524896257
 31
0.0
  0
LINE
  5
41E8
  8
ﾁｭｳｼﾝｾﾝ
 10
142.13600828348939
 20
243.09924424896261
 30
0.0
 11
304.34666828348952
 21
243.09924424896261
 31
0.0
  0
LINE
  5
41E9
  8
ﾁｭｳｼﾝｾﾝ
 10
626.30833541925506
 20
173.42747224896249
 30
0.0
 11
626.30833541925506
 21
339.53963152142819
 31
0.0
  0
LINE
  5
41EA
  8
ﾁｭｳｼﾝｾﾝ
 10
657.89581452863399
 20
243.09924424896261
 30
0.0
 11
594.72085630987635
 21
243.09924424896261
 31
0.0
  0
LINE
  5
428F
  8
AM_0
 10
353.3133282834894
 20
190.47721624896249
 30
0.0
 11
361.3830582834895
 21
190.1954172489626
 31
0.0
  0
LINE
  5
4291
  8
AM_0
 10
365.38310828348961
 20
260.09924224896258
 30
0.0
 11
365.38310828348961
 21
194.5992252489626
 31
0.0
  0
LINE
  5
4292
  8
AM_0
 10
356.38310828348949
 20
319.59925924896248
 30
0.0
 11
356.38310828348949
 21
205.48393024896259
 31
0.0
  0
LINE
  5
4293
  8
AM_0
 10
587.80940441925486
 20
189.09922624896251
 30
0.0
 11
590.98481741925525
 21
194.5992252489626
 31
0.0
  0
LINE
  5
4294
  8
AM_0
 10
361.3830582834895
 20
335.09923924896248
 30
0.0
 11
361.3830582834895
 21
190.1954172489626
 31
0.0
  0
LINE
  5
4295
  8
AM_0
 10
361.38308828348949
 20
194.49447424896249
 30
0.0
 11
365.38310828348961
 21
194.5992252489626
 31
0.0
  0
LINE
  5
4296
  8
AM_0
 10
351.38309828348952
 20
332.81866924896258
 30
0.0
 11
351.38309828348952
 21
300.53961424896261
 31
0.0
  0
LINE
  5
4298
  8
AM_0
 10
361.3830582834895
 20
330.09925924896248
 30
0.0
 11
365.38310828348961
 21
330.09925924896248
 31
0.0
  0
LINE
  5
4299
  8
AM_0
 10
343.20863828348951
 20
329.32732924896249
 30
0.0
 11
348.48779828348961
 21
329.51167924896259
 31
0.0
  0
LINE
  5
429A
  8
AM_0
 10
353.31329828348947
 20
334.81744924896248
 30
0.0
 11
361.38308828348949
 21
335.09923924896248
 31
0.0
  0
LINE
  5
429B
  8
AM_0
 10
342.38309828348952
 20
193.29801724896251
 30
0.0
 11
342.38309828348952
 21
177.09922624896251
 31
0.0
  0
LINE
  5
429C
  8
AM_0
 10
365.38310828348961
 20
330.09925924896248
 30
0.0
 11
365.38310828348961
 21
260.09924224896258
 31
0.0
  0
LINE
  5
429E
  8
AM_0
 10
306.38309828348952
 20
178.28532124896259
 30
0.0
 11
342.3831282834895
 21
177.02816524896261
 31
0.0
  0
LINE
  5
429F
  8
AM_0
 10
343.3568982834895
 20
194.02244524896261
 30
0.0
 11
351.38309828348952
 21
194.23261924896241
 31
0.0
  0
LINE
  5
42A0
  8
AM_0
 10
306.38309828348952
 20
285.7060872489626
 30
0.0
 11
336.57911828348949
 21
285.7060872489626
 31
0.0
  0
LINE
  5
42A1
  8
AM_0
 10
306.38309828348952
 20
190.31860324896249
 30
0.0
 11
342.38309828348952
 21
190.31860324896249
 31
0.0
  0
LINE
  5
42A2
  8
AM_0
 10
343.3830582834895
 20
213.36395224896259
 30
0.0
 11
351.38309828348952
 21
213.36395224896259
 31
0.0
  0
LINE
  5
42A3
  8
AM_0
 10
306.38309828348952
 20
303.09924424896258
 30
0.0
 11
335.46161828348937
 21
303.8606892489625
 31
0.0
  0
LINE
  5
42A4
  8
AM_0
 10
338.38310828348949
 20
324.33034924896259
 30
0.0
 11
338.38310828348949
 21
218.3639352489626
 31
0.0
  0
LINE
  5
42A5
  8
AM_0
 10
656.61633641925516
 20
207.23873824896259
 30
0.0
 11
657.61568141925522
 21
205.62126124896261
 31
0.0
  0
LINE
  5
42A6
  8
AM_0
 10
660.01924541925507
 20
209.34117124896261
 30
0.0
 11
661.01858741925525
 21
207.7236942489626
 31
0.0
  0
LINE
  5
42A7
  8
AM_0
 10
650.26141541925506
 20
198.59922724896251
 30
0.0
 11
602.35527341925524
 21
198.59922724896251
 31
0.0
  0
LINE
  5
42A8
  8
AM_0
 10
667.65480341925513
 20
275.14810324896263
 30
0.0
 11
671.86773941925514
 21
263.57316724896259
 31
0.0
  0
LINE
  5
42A9
  8
AM_0
 10
601.82899541925508
 20
238.44831724896261
 30
0.0
 11
580.48692941925526
 21
217.10623024896259
 31
0.0
  0
LINE
  5
42AA
  8
ﾁｭｳｼﾝｾﾝ1
 10
573.9780394192552
 20
312.42949924896283
 30
0.0
 11
558.82986941925515
 21
327.57769924896257
 31
0.0
  0
LINE
  5
42AB
  8
AM_0
 10
604.43657141925519
 20
235.39903324896261
 30
0.0
 11
583.31535941925506
 21
214.27780024896259
 31
0.0
  0
LINE
  5
42AC
  8
AM_0
 10
604.65742541925522
 20
284.57858524896261
 30
0.0
 11
583.31535941925506
 21
305.92062424896261
 31
0.0
  0
LINE
  5
42AD
  8
AM_0
 10
601.82899541925508
 20
281.75015524896253
 30
0.0
 11
580.48692941925526
 21
303.09219424896253
 31
0.0
  0
LINE
  5
42AE
  8
AM_0
 10
650.78767841925526
 20
281.75015524896253
 30
0.0
 11
672.12976541925525
 21
303.09222724896262
 31
0.0
  0
LINE
  5
42AF
  8
AM_0
 10
647.95924541925524
 20
284.57858524896261
 30
0.0
 11
669.30133541925511
 21
305.92065724896253
 31
0.0
  0
LINE
  5
42B0
  8
AM_0
 10
596.60985041925505
 20
227.57231224896259
 30
0.0
 11
620.46162641925525
 21
203.72054824896259
 31
0.0
  0
LINE
  5
42B1
  8
AM_0
 10
590.98481741925525
 20
194.5992252489626
 30
0.0
 11
626.30833541925506
 21
194.5992252489626
 31
0.0
  0
LINE
  5
42B2
  8
AM_0
 10
701.30833841925505
 20
260.09924224896258
 30
0.0
 11
701.30833841925505
 21
280.09921324896249
 31
0.0
  0
LINE
  5
42B3
  8
AM_0
 10
661.63185341925509
 20
194.5992252489626
 30
0.0
 11
626.30833541925506
 21
194.5992252489626
 31
0.0
  0
LINE
  5
42B4
  8
AM_0
 10
626.30833541925506
 20
335.09923924896248
 30
0.0
 11
646.30832141925498
 21
335.09923924896248
 31
0.0
  0
LINE
  5
42B5
  8
AM_0
 10
675.14348141925495
 20
254.57316724896259
 30
0.0
 11
684.16768241925524
 21
229.77935824896261
 31
0.0
  0
LINE
  5
42B6
  8
AM_0
 10
624.80833541925517
 20
322.93828924896252
 30
0.0
 11
624.80833541925517
 21
306.88330324896248
 31
0.0
  0
LINE
  5
42B7
  8
AM_0
 10
627.80833541925517
 20
322.93828924896252
 30
0.0
 11
627.80833541925517
 21
306.88330324896248
 31
0.0
  0
LINE
  5
42B8
  8
AM_0
 10
563.46924941925522
 20
258.59924224896258
 30
0.0
 11
579.52425941925515
 21
258.59924224896258
 31
0.0
  0
LINE
  5
42B9
  8
AM_0
 10
563.46924941925522
 20
261.59924224896258
 30
0.0
 11
579.52425941925515
 21
261.59924224896258
 31
0.0
  0
LINE
  5
42BA
  8
AM_0
 10
689.14740341925506
 20
261.59924224896258
 30
0.0
 11
674.68683341925509
 21
261.59924224896258
 31
0.0
  0
LINE
  5
42BB
  8
AM_0
 10
689.14740341925506
 20
258.59924224896258
 30
0.0
 11
677.96254241925521
 21
258.59924224896258
 31
0.0
  0
LINE
  5
42BC
  8
AM_0
 10
351.38309828348952
 20
192.47601124896241
 30
0.0
 11
351.38309828348952
 21
219.5642382489626
 31
0.0
  0
LINE
  5
42BD
  8
AM_0
 10
633.92155841925523
 20
210.8746782489626
 30
0.0
 11
605.4031534192552
 21
238.58241124896259
 31
0.0
  0
LINE
  5
42BE
  8
AM_0
 10
666.92296241925521
 20
231.26403724896261
 30
0.0
 11
654.90529241925515
 21
269.1664422489626
 31
0.0
  0
LINE
  5
42BF
  8
AM_0
 10
664.80726941925525
 20
189.0992112489626
 30
0.0
 11
661.63183841925525
 21
194.59921024896261
 31
0.0
  0
LINE
  5
42C0
  8
AM_0
 10
626.30833541925506
 20
335.09923924896248
 30
0.0
 11
606.30833741925505
 21
335.09923924896248
 31
0.0
  0
LINE
  5
42C1
  8
AM_0
 10
646.30833641925506
 20
335.09923924896248
 30
0.0
 11
688.52451041925497
 21
331.40578924896261
 31
0.0
  0
LINE
  5
42C2
  8
AM_0
 10
606.30833741925505
 20
335.0992092489625
 30
0.0
 11
564.09216941925524
 21
331.40578924896261
 31
0.0
  0
LINE
  5
42C3
  8
AM_0
 10
551.30832941925519
 20
260.09924224896258
 30
0.0
 11
551.30832941925519
 21
280.09921324896249
 31
0.0
  0
LINE
  5
42C4
  8
AM_0
 10
701.30833841925505
 20
280.09921324896249
 30
0.0
 11
697.61490341925526
 21
322.31539924896248
 31
0.0
  0
LINE
  5
42C5
  8
AM_0
 10
664.80726941925525
 20
189.09922624896251
 30
0.0
 11
687.68310941925495
 21
189.09922624896251
 31
0.0
  0
LINE
  5
42C6
  8
AM_0
 10
551.30832941925519
 20
280.09921324896249
 30
0.0
 11
555.00177941925517
 21
322.31539924896248
 31
0.0
  0
LINE
  5
42C7
  8
AM_0
 10
551.30832941925519
 20
240.0992112489626
 30
0.0
 11
554.97162941925512
 21
198.22765924896251
 31
0.0
  0
LINE
  5
42C8
  8
AM_0
 10
701.30833841925505
 20
240.0992292489625
 30
0.0
 11
697.64505341925519
 21
198.2276742489625
 31
0.0
  0
LINE
  5
42C9
  8
AM_0
 10
551.30832941925519
 20
260.09924224896258
 30
0.0
 11
551.30832941925519
 21
240.0992292489625
 31
0.0
  0
LINE
  5
42CA
  8
AM_0
 10
587.80940441925486
 20
189.09922624896251
 30
0.0
 11
564.9335494192552
 21
189.09922624896251
 31
0.0
  0
LINE
  5
42CB
  8
AM_0
 10
701.30833841925505
 20
260.09924224896258
 30
0.0
 11
701.30833841925505
 21
240.0992292489625
 31
0.0
  0
LINE
  5
42CC
  8
AM_0
 10
602.19926741925519
 20
177.8948202489625
 30
0.0
 11
650.41739141925507
 21
177.8948202489625
 31
0.0
  0
LINE
  5
42CD
  8
ﾁｭｳｼﾝｾﾝ1
 10
573.97806941925512
 20
207.76893424896249
 30
0.0
 11
558.82986941925515
 21
192.62074024896251
 31
0.0
  0
LINE
  5
42CE
  8
ﾁｭｳｼﾝｾﾝ1
 10
678.63863141925526
 20
207.76893424896249
 30
0.0
 11
693.78680741925496
 21
192.6207552489625
 31
0.0
  0
LINE
  5
42CF
  8
ﾁｭｳｼﾝｾﾝ1
 10
678.63863141925526
 20
312.42949924896283
 30
0.0
 11
693.78682541925525
 21
327.57769924896257
 31
0.0
  0
LINE
  5
42D0
  8
AM_0
 10
295.84385828348962
 20
178.5613092489626
 30
0.0
 11
306.38309828348952
 21
178.28532124896259
 31
0.0
  0
LINE
  5
42D1
  8
AM_0
 10
294.38309828348952
 20
287.09924524896257
 30
0.0
 11
294.38309828348952
 21
268.88195824896258
 31
0.0
  0
LINE
  5
42D2
  8
AM_0
 10
294.38309828348952
 20
190.72882024896239
 30
0.0
 11
294.38309828348952
 21
180.06079024896249
 31
0.0
  0
LINE
  5
42D3
  8
AM_0
 10
300.38309828348952
 20
190.30735624896249
 30
0.0
 11
306.38309828348952
 21
190.30735624896249
 31
0.0
  0
LINE
  5
42D4
  8
AM_0
 10
294.38309828348952
 20
192.7288332489625
 30
0.0
 11
300.38309828348952
 21
192.7288332489625
 31
0.0
  0
LINE
  5
42D5
  8
AM_0
 10
346.38305828348962
 20
189.20731924896251
 30
0.0
 11
346.38305828348962
 21
180.5823042489626
 31
0.0
  0
LINE
  5
42D6
  8
AM_0
 10
345.9383082834895
 20
190.6448202489625
 30
0.0
 11
342.38309828348952
 21
190.6448202489625
 31
0.0
  0
LINE
  5
42D7
  8
AM_0
 10
345.9383082834895
 20
179.14481824896259
 30
0.0
 11
342.38309828348952
 21
179.14481824896259
 31
0.0
  0
LINE
  5
42D8
  8
AM_0
 10
345.9383082834895
 20
187.7698362489626
 30
0.0
 11
342.38309828348952
 21
187.7698362489626
 31
0.0
  0
LINE
  5
42D9
  8
AM_0
 10
345.9383082834895
 20
182.01982024896259
 30
0.0
 11
342.38309828348952
 21
182.01982024896259
 31
0.0
  0
CIRCLE
  5
42E8
  8
AM_0
 10
626.30833541925506
 20
260.09924224896258
 30
0.0
 40
2.4999998400000001
  0
CIRCLE
  5
42E9
  8
AM_5
 10
626.30833541925506
 20
260.09924224896258
 30
0.0
 40
3.0
  0
ARC
  5
42EA
  8
AM_0
 10
626.30833541925506
 20
260.09924224896258
 30
0.0
 40
9.5000003999999993
 50
108.40848
 51
71.591512000000776
  0
CIRCLE
  5
42EB
  8
AM_0
 10
676.28958641925522
 20
281.4512022489626
 30
0.0
 40
4.9999998000000003
  0
CIRCLE
  5
42EC
  8
AM_0
 10
602.19926741925519
 20
184.8948342489625
 30
0.0
 40
4.9999998000000003
  0
CIRCLE
  5
42ED
  8
AM_0
 10
576.32706941925505
 20
281.4512022489626
 30
0.0
 40
4.9999998000000003
  0
CIRCLE
  5
42EE
  8
AM_0
 10
650.41739141925507
 20
184.8948342489625
 30
0.0
 40
4.9999998000000003
  0
ARC
  5
42EF
  8
AM_0
 10
301.88309828348952
 20
301.48089724896261
 30
0.0
 40
1.500000029999998
 50
91.500001000001546
 51
180.0000099999977
  0
ARC
  5
42F0
  8
AM_0
 10
298.88309828348952
 20
301.03183024896259
 30
0.0
 40
1.500000029999998
 50
271.50000000000267
 51
0.0
  0
ARC
  5
4365
  8
AM_0
 10
343.3830582834895
 20
218.3639352489626
 30
0.0
 40
5.0000001000000003
 50
179.999989999999
 51
270.0
  0
ARC
  5
4368
  8
AM_0
 10
343.3830582834895
 20
193.0228092489626
 30
0.0
 40
1.0000000199999981
 50
91.500001000001546
 51
180.0000099999977
  0
ARC
  5
4369
  8
AM_0
 10
335.38310828348949
 20
306.85965124896262
 30
0.0
 40
3.0
 50
271.50000000000267
 51
0.0
  0
ARC
  5
436A
  8
AM_0
 10
353.38310828348949
 20
319.59925924896248
 30
0.0
 40
3.0
 50
0.0
 51
90.00000299999769
  0
ARC
  5
436B
  8
AM_0
 10
353.38310828348949
 20
332.81866924896258
 30
0.0
 40
2.00000007
 50
91.999998000000545
 51
180.0000099999977
  0
ARC
  5
436C
  8
AM_0
 10
343.3830582834895
 20
324.33034924896259
 30
0.0
 40
5.0000001000000003
 50
91.999998000000545
 51
180.0000099999977
  0
ARC
  5
436D
  8
AM_0
 10
353.38310828348949
 20
300.53961424896261
 30
0.0
 40
2.00000007
 50
179.999989999999
 51
271.51463999999908
  0
ARC
  5
436E
  8
AM_0
 10
348.38309828348952
 20
332.50984924896261
 30
0.0
 40
3.0
 50
271.9999999999971
 51
0.0
  0
ARC
  5
436F
  8
AM_0
 10
626.30833541925506
 20
260.09924224896258
 30
0.0
 40
44.000000999999983
 50
137.5473199999976
 51
174.50581000000039
  0
ARC
  5
4372
  8
AM_0
 10
645.83792441925505
 20
286.69989124896262
 30
0.0
 40
3.0
 50
233.7147499999995
 51
315.0
  0
ARC
  5
4373
  8
ﾁｭｳｼﾝｾﾝ1
 10
626.30833541925506
 20
260.09924224896258
 30
0.0
 40
85.000001999999981
 50
125.6955299999962
 51
144.1425800000026
  0
ARC
  5
4374
  8
AM_0
 10
599.70765941925515
 20
240.5696412489626
 30
0.0
 40
3.0
 50
315.0
 51
36.285256999999532
  0
ARC
  5
4375
  8
AM_0
 10
674.25107141925525
 20
300.97088824896258
 30
0.0
 40
3.0
 50
40.447928999996982
 51
135.0
  0
ARC
  5
4376
  8
AM_0
 10
621.80833541925506
 20
322.93828924896252
 30
0.0
 40
3.0
 50
0.0
 51
94.096045999998367
  0
ARC
  5
4377
  8
AM_0
 10
585.43666241925507
 20
212.1564792489626
 30
0.0
 40
3.0
 50
135.0
 51
229.5520800000011
  0
ARC
  5
4378
  8
AM_0
 10
585.43666241925507
 20
308.04196324896259
 30
0.0
 40
3.0
 50
130.4479300000001
 51
225.0
  0
ARC
  5
4379
  8
AM_0
 10
667.18001141925515
 20
308.04196324896259
 30
0.0
 40
3.0
 50
315.0
 51
49.552073000000021
  0
ARC
  5
437A
  8
AM_0
 10
578.36562941925513
 20
300.97088824896258
 30
0.0
 40
3.0
 50
45.00000100000149
 51
139.55207999999899
  0
ARC
  5
437B
  8
AM_0
 10
599.70765941925515
 20
279.62881624896249
 30
0.0
 40
3.0
 50
323.71473999999768
 51
45.00000100000149
  0
ARC
  5
437C
  8
AM_0
 10
606.55791041925511
 20
233.27772424896261
 30
0.0
 40
3.0
 50
45.82603099999853
 51
135.0
  0
ARC
  5
437D
  8
AM_0
 10
647.85834041925523
 20
225.21922324896261
 30
0.0
 40
20.000000700000001
 50
225.82602999999909
 51
17.592213999998648
  0
ARC
  5
437E
  8
AM_0
 10
626.30833541925506
 20
260.09924224896258
 30
0.0
 40
66.000003000000007
 50
291.27996000000218
 51
248.72003000000129
  0
ARC
  5
437F
  8
AM_0
 10
626.30833541925506
 20
260.09924224896258
 30
0.0
 40
70.000001999999995
 50
290.6561499999973
 51
249.34384000000119
  0
CIRCLE
  5
4380
  8
AM_0
 10
566.20425941925521
 20
320.20330924896263
 30
0.0
 40
5.0000001000000003
  0
ARC
  5
4381
  8
AM_0
 10
626.30833541925506
 20
243.09922924896259
 30
0.0
 40
60.000002999999992
 50
233.9334100000016
 51
236.89085000000171
  0
ARC
  5
4382
  8
AM_0
 10
626.30833541925506
 20
243.09922924896259
 30
0.0
 40
60.000002999999992
 50
303.10914000000042
 51
304.41150999999837
  0
ARC
  5
4383
  8
AM_0
 10
578.36562941925513
 20
219.2275542489626
 30
0.0
 40
3.0
 50
220.44792000000101
 51
315.0
  0
ARC
  5
4384
  8
AM_0
 10
663.57077441925514
 20
209.3004912489626
 30
0.0
 40
3.0
 50
211.70912000000229
 51
306.26119999999793
  0
ARC
  5
4385
  8
AM_0
 10
655.06349441925511
 20
204.04443124896261
 30
0.0
 40
3.0
 50
297.15705000000088
 51
31.709121999997731
  0
ARC
  5
4386
  8
AM_0
 10
626.30833541925506
 20
260.09924224896258
 30
0.0
 40
44.000000999999983
 50
19.999999000003221
 51
42.452681999998767
  0
ARC
  5
4387
  8
AM_0
 10
626.30833541925506
 20
260.09924224896258
 30
0.0
 40
44.000000999999983
 50
47.547317000001861
 51
84.505819000000741
  0
CIRCLE
  5
4388
  8
AM_0
 10
686.41240241925505
 20
199.9951452489625
 30
0.0
 40
5.0000001000000003
  0
ARC
  5
4389
  8
AM_0
 10
590.80302641925527
 20
188.65318024896251
 30
0.0
 40
5.0000001000000003
 50
341.74802000000159
 51
56.890858999997157
  0
ARC
  5
438A
  8
AM_0
 10
661.81364741925506
 20
188.65318024896251
 30
0.0
 40
5.0000001000000003
 50
123.1091299999986
 51
198.25197999999841
  0
CIRCLE
  5
438B
  8
AM_0
 10
566.20425941925521
 20
199.9951452489625
 30
0.0
 40
5.0000001000000003
  0
ARC
  5
438C
  8
AM_0
 10
602.19926741925519
 20
184.8948042489626
 30
0.0
 40
7.0000007999999987
 50
161.74802000000159
 51
270.0
  0
CIRCLE
  5
438D
  8
AM_0
 10
686.41240241925505
 20
320.20330924896263
 30
0.0
 40
5.0000001000000003
  0
ARC
  5
438E
  8
AM_0
 10
630.80833841925505
 20
322.93828924896252
 30
0.0
 40
3.0
 50
85.903959000000114
 51
180.0000099999977
  0
ARC
  5
438F
  8
AM_0
 10
563.46924941925522
 20
255.59924224896261
 30
0.0
 40
3.0
 50
90.00000299999769
 51
184.09603999999749
  0
ARC
  5
4390
  8
AM_0
 10
626.30833541925506
 20
260.09924224896258
 30
0.0
 40
44.000000999999983
 50
185.49418999999949
 51
222.45267999999999
  0
ARC
  5
4391
  8
AM_0
 10
621.80833541925506
 20
306.88330324896248
 30
0.0
 40
3.0
 50
275.49418000000247
 51
0.0
  0
ARC
  5
4392
  8
AM_0
 10
630.80833841925505
 20
306.88330324896248
 30
0.0
 40
3.0
 50
179.999989999999
 51
264.50581999999741
  0
ARC
  5
4393
  8
AM_0
 10
563.46924941925522
 20
264.59924524896257
 30
0.0
 40
3.0
 50
175.90395000000231
 51
270.0
  0
ARC
  5
4394
  8
AM_0
 10
579.52425941925515
 20
255.59924224896261
 30
0.0
 40
3.0
 50
5.4941789999992992
 51
90.00000299999769
  0
ARC
  5
4395
  8
AM_0
 10
579.52425941925515
 20
264.59924524896257
 30
0.0
 40
3.0
 50
270.0
 51
354.50582000000048
  0
ARC
  5
4396
  8
AM_0
 10
689.14740341925506
 20
264.59924524896257
 30
0.0
 40
3.0
 50
270.0
 51
4.096044000000556
  0
ARC
  5
4397
  8
AM_0
 10
689.14740341925506
 20
255.59924224896261
 30
0.0
 40
3.0
 50
355.90396000000248
 51
90.00000299999769
  0
ARC
  5
4398
  8
AM_0
 10
677.96254241925521
 20
255.59924224896261
 30
0.0
 40
3.0
 50
90.00000299999769
 51
200.0000000000006
  0
ARC
  5
4399
  8
AM_0
 10
674.68683341925509
 20
264.59924524896257
 30
0.0
 40
3.0
 50
200.0000000000006
 51
270.0
  0
ARC
  5
439A
  8
AM_0
 10
353.38310828348949
 20
219.5642382489626
 30
0.0
 40
2.00000007
 50
90.00000299999769
 51
180.0000099999977
  0
ARC
  5
439B
  8
AM_0
 10
353.38310828348949
 20
192.47601124896241
 30
0.0
 40
2.00000007
 50
179.999989999999
 51
268.00000999999861
  0
ARC
  5
439C
  8
AM_0
 10
354.38309828348952
 20
205.48393024896259
 30
0.0
 40
2.00000007
 50
268.0000000000029
 51
0.0
  0
ARC
  5
439D
  8
AM_0
 10
626.30833541925506
 20
260.09924224896258
 30
0.0
 40
30.0
 50
17.592213999998648
 51
225.82602999999909
  0
ARC
  5
439E
  8
AM_0
 10
652.90899941925511
 20
279.62881624896249
 30
0.0
 40
3.0
 50
135.0
 51
216.28526000000221
  0
ARC
  5
439F
  8
AM_0
 10
606.77873441925522
 20
286.69989124896262
 30
0.0
 40
3.0
 50
225.0
 51
306.28525999999772
  0
ARC
  5
43A0
  8
AM_0
 10
687.65294441925505
 20
321.4438392489626
 30
0.0
 40
10.000000200000001
 50
4.99999990000107
 51
84.999996999998572
  0
ARC
  5
43A1
  8
AM_0
 10
626.30833541925506
 20
243.09922924896259
 30
0.0
 40
60.000002999999992
 50
303.10914000000042
 51
306.06658999999843
  0
ARC
  5
43A2
  8
AM_0
 10
564.96372941925506
 20
321.4438392489626
 30
0.0
 40
10.000000200000001
 50
95.00000199999856
 51
175.0000100000004
  0
ARC
  5
43A3
  8
AM_0
 10
687.68310941925495
 20
199.09922524896251
 30
0.0
 40
10.000000200000001
 50
270.0
 51
354.99999999999977
  0
ARC
  5
43A4
  8
AM_0
 10
564.9335494192552
 20
199.09922524896251
 30
0.0
 40
10.000000200000001
 50
184.99998999999951
 51
270.0
  0
ARC
  5
43A5
  8
AM_0
 10
618.34028741925522
 20
201.59924224896261
 30
0.0
 40
3.0
 50
270.0
 51
45.00000100000149
  0
ARC
  5
43A6
  8
AM_0
 10
650.41739141925507
 20
184.8948042489626
 30
0.0
 40
7.0000007999999987
 50
270.0
 51
18.25197800000095
  0
ARC
  5
43A7
  8
ﾁｭｳｼﾝｾﾝ1
 10
626.30833541925506
 20
260.09924224896258
 30
0.0
 40
85.000001999999981
 50
215.69552999999891
 51
234.14257999999799
  0
ARC
  5
43A8
  8
ﾁｭｳｼﾝｾﾝ1
 10
626.30833541925506
 20
260.09924224896258
 30
0.0
 40
85.000001999999981
 50
305.69552999999621
 51
324.14258000000262
  0
ARC
  5
43A9
  8
ﾁｭｳｼﾝｾﾝ1
 10
626.30833541925506
 20
260.09924224896258
 30
0.0
 40
85.000001999999981
 50
35.695527999998077
 51
54.14258199999778
  0
ARC
  5
43AA
  8
AM_0
 10
292.88309828348952
 20
185.32377424896251
 30
0.0
 40
1.500000029999998
 50
0.0
 51
88.499997000000747
  0
ARC
  5
43AB
  8
AM_0
 10
295.88309828348952
 20
180.06079024896249
 30
0.0
 40
1.500000029999998
 50
179.999989999999
 51
268.50000999999878
  0
ARC
  5
43AC
  8
AM_0
 10
292.38308828348949
 20
190.72882024896239
 30
0.0
 40
2.00000007
 50
0.0
 51
90.00000299999769
  0
ARC
  5
43AD
  8
AM_0
 10
298.3830882834896
 20
192.30735724896249
 30
0.0
 40
2.00000007
 50
270.0
 51
0.0
  0
ARC
  5
43AE
  8
AM_0
 10
343.83767828348948
 20
180.5823042489626
 30
0.0
 40
2.5454064299999981
 50
325.61556999999817
 51
34.3844390000014
  0
ARC
  5
43AF
  8
AM_0
 10
343.83767828348948
 20
189.20731924896251
 30
0.0
 40
2.5454064299999981
 50
325.61556999999817
 51
34.3844390000014
  0
ARC
  5
43B0
  8
AM_0
 10
336.8685882834896
 20
184.89481924896239
 30
0.0
 40
9.5144921999999994
 50
342.41195999999911
 51
17.588032999999289
  0
ARC
  5
43EC
  8
AM_0
 10
626.30833541925506
 20
260.0992422489627
 30
0.0
 40
44.000000999999983
 50
95.494178999999249
 51
132.4526799999978
  0
LINE
  5
4C92
  8
AM_0
 10
253.40928813252989
 20
448.1592807205833
 30
0.0
 11
253.66383740655269
 21
457.87925072058312
 31
0.0
  0
LINE
  5
4C93
  8
AM_0
 10
193.3568561372893
 20
448.1592807205833
 30
0.0
 11
193.10237409615061
 21
457.87925072058312
 31
0.0
  0
LINE
  5
4C94
  8
AM_0
 10
189.8830982834894
 20
446.1592807205833
 30
0.0
 11
256.8830982834894
 21
446.1592807205833
 31
0.0
  0
LINE
  5
4C95
  8
AM_0
 10
189.8830982834894
 20
445.1592807205833
 30
0.0
 11
189.8830982834894
 21
446.1592807205833
 31
0.0
  0
LINE
  5
4C96
  8
AM_0
 10
256.8830982834894
 20
445.1592807205833
 30
0.0
 11
256.8830982834894
 21
446.1592807205833
 31
0.0
  0
LINE
  5
4C97
  8
AM_0
 10
175.3830982834894
 20
407.15928072058301
 30
0.0
 11
176.64268341975171
 21
443.22907971398831
 31
0.0
  0
LINE
  5
4C98
  8
AM_0
 10
178.6414650737899
 20
445.1592807205833
 30
0.0
 11
268.12473149318907
 21
445.1592807205833
 31
0.0
  0
ARC
  5
4C99
  8
AM_0
 10
178.64146507378999
 20
443.1592807205833
 30
0.0
 40
2.0
 50
90.0
 51
178.0000000000029
1001
GENIUS_GENODEF_13
1002
{
1000
HIER
1070
     0
1002
}
1002
{
1000
MANEDIT
1070
     0
1002
}
1002
{
1000
NOSEL
1070
     0
1002
}
1002
{
1000
BEHIND
1070
     0
1002
}
1002
{
1000
OTHER
1070
     0
1002
}
1002
{
1000
REACTOR
1002
}
1001
GENIUS_GENOBJ-N-FIL_13
1002
{
1000
OWNER
1000
GEN
1002
}
  0
LINE
  5
4C9A
  8
AM_0
 10
270.12351314722719
 20
443.22907971398831
 30
0.0
 11
271.38309828348952
 21
407.1592807205833
 31
0.0
  0
ARC
  5
4C9B
  8
AM_0
 10
268.12473149318907
 20
443.1592807205833
 30
0.0
 40
2.0
 50
1.9999999999971021
 51
90.0
1001
GENIUS_GENOBJ-N-FIL_13
1002
{
1000
OWNER
1000
GEN
1002
}
1001
GENIUS_GENODEF_13
1002
{
1000
HIER
1070
     0
1002
}
1002
{
1000
MANEDIT
1070
     0
1002
}
1002
{
1000
NOSEL
1070
     0
1002
}
1002
{
1000
BEHIND
1070
     0
1002
}
1002
{
1000
OTHER
1070
     0
1002
}
1002
{
1000
REACTOR
1002
}
  0
LINE
  5
4C9C
  8
AM_0
 10
271.38309828348952
 20
407.1592807205833
 30
0.0
 11
175.38309828348901
 21
407.15928072058301
 31
0.0
  0
LINE
  5
4C9D
  8
AM_0
 10
175.48786059196459
 20
410.15928072058313
 30
0.0
 11
174.3830982834894
 21
410.15928072058313
 31
0.0
  0
LINE
  5
4C9E
  8
AM_0
 10
176.6053252157005
 20
442.15928072058313
 30
0.0
 11
174.38309828348909
 21
442.15928072058313
 31
0.0
  0
LINE
  5
4C9F
  8
ﾁｭｳｼﾝｾﾝ1
 10
180.38309828349011
 20
396.89457322058331
 30
0.0
 11
180.38309828349011
 21
409.8945732205832
 31
0.0
  0
LINE
  5
4CA0
  8
ﾁｭｳｼﾝｾﾝ
 10
223.38309828348949
 20
452.45131139381232
 30
0.0
 11
223.38309828348949
 21
394.70875807977399
 31
0.0
  0
LINE
  5
4CA1
  8
AM_0
 10
171.8830982834894
 20
412.65928072058313
 30
0.0
 11
174.38309828348909
 21
412.65928072058267
 31
0.0
  0
LINE
  5
4CA2
  8
AM_0
 10
174.38309828348909
 20
439.6592807205829
 30
0.0
 11
171.8830982834894
 21
439.65928072058313
 31
0.0
  0
LINE
  5
4CA3
  8
AM_0
 10
160.98442718714341
 20
436.65928072058313
 30
0.0
 11
160.98442718714341
 21
415.65928072058301
 31
0.0
  0
LINE
  5
4CA4
  8
AM_0
 10
145.98442718714341
 20
418.12765566656788
 30
0.0
 11
145.98442718714341
 21
434.190905774599
 31
0.0
  0
LINE
  5
4CA5
  8
AM_0
 10
158.98442718714341
 20
438.15928072058313
 30
0.0
 11
158.98442718714341
 21
414.15928072058313
 31
0.0
  0
LINE
  5
4CA6
  8
AM_0
 10
149.48442718714341
 20
426.15928072058313
 30
0.0
 11
149.98442718714341
 21
426.65928072058313
 31
0.0
  0
LINE
  5
4CA7
  8
AM_0
 10
156.48442718714341
 20
414.45928072058302
 30
0.0
 11
156.48442718714341
 21
437.85928072058277
 31
0.0
  0
LINE
  5
4CA8
  8
AM_0
 10
166.3830982834894
 20
414.65928072058313
 30
0.0
 11
166.3830982834894
 21
437.65928072058313
 31
0.0
  0
LINE
  5
4CA9
  8
AM_0
 10
160.48442718714341
 20
426.85928072058471
 30
0.0
 11
160.48442718714341
 21
425.45928072058172
 31
0.0
  0
LINE
  5
4CAA
  8
AM_0
 10
162.58406291371421
 20
435.25928072058281
 30
0.0
 11
161.83406291371529
 21
417.05928072058299
 31
0.0
  0
LINE
  5
4CAB
  8
AM_0
 10
161.6330982834894
 20
435.25928072058281
 30
0.0
 11
160.98442718714341
 21
419.51819544926701
 31
0.0
  0
LINE
  5
4CAC
  8
AM_0
 10
162.38179087406141
 20
435.97493943294722
 30
0.0
 11
161.6345308306534
 21
416.34690895941588
 31
0.0
  0
LINE
  5
4CAD
  8
AM_0
 10
161.83263036655131
 20
435.97165248175088
 30
0.0
 11
161.08406291371529
 21
416.30928072058288
 31
0.0
  0
LINE
  5
4CAE
  8
AM_0
 10
158.98442718714341
 20
414.15928072058313
 30
0.0
 11
156.78442718714331
 21
414.15928072058313
 31
0.0
  0
ARC
  5
4CAF
  8
AM_0
 10
170.8830982834894
 20
413.65928072058313
 30
0.0
 40
0.5
 50
0.0
 51
90.000000000013017
  0
ARC
  5
4CB0
  8
AM_0
 10
171.8830982834894
 20
413.15928072058313
 30
0.0
 40
0.5
 50
180.0
 51
270.0
  0
LINE
  5
4CB1
  8
AM_0
 10
171.3830982834894
 20
413.65928072058313
 30
0.0
 11
171.3830982834894
 21
413.15928072058313
 31
0.0
  0
LINE
  5
4CB2
  8
AM_0
 10
162.3830982834894
 20
417.05928072058299
 30
0.0
 11
165.8830982834894
 21
417.05928072058299
 31
0.0
  0
LINE
  5
4CB3
  8
AM_0
 10
171.3830982834894
 20
415.30320939917578
 30
0.0
 11
171.3830982834894
 21
425.01535204199092
 31
0.0
  0
LINE
  5
4CB4
  8
AM_0
 10
166.8830982834894
 20
414.15928072058313
 30
0.0
 11
170.88309828348929
 21
414.15928072058313
 31
0.0
  0
LINE
  5
4CB5
  8
AM_0
 10
170.8830982834894
 20
414.80320939917578
 30
0.0
 11
166.3830982834894
 21
414.80320939917578
 31
0.0
  0
ARC
  5
4CB6
  8
AM_0
 10
170.8830982834894
 20
415.30320939917578
 30
0.0
 40
0.5
 50
270.0
 51
0.0
  0
ARC
  5
4CB7
  8
AM_0
 10
165.88309828348929
 20
416.55928072058322
 30
0.0
 40
0.5
 50
0.0
 51
90.0
  0
ARC
  5
4CB8
  8
AM_0
 10
166.88309828348929
 20
414.65928072058313
 30
0.0
 40
0.5
 50
180.0
 51
270.0
  0
LINE
  5
4CB9
  8
AM_0
 10
170.8830982834894
 20
425.51535204199081
 30
0.0
 11
166.3830982834894
 21
425.51535204199081
 31
0.0
  0
ARC
  5
4CBA
  8
AM_0
 10
170.88309828348929
 20
425.01535204199121
 30
0.0
 40
0.5
 50
0.0
 51
90.0
  0
LINE
  5
4CBB
  8
AM_0
 10
160.48442718714341
 20
420.01410996829071
 30
0.0
 11
160.48442718714341
 21
421.18635315472397
 31
0.0
  0
LINE
  5
4CBC
  8
AM_0
 10
161.9107953421402
 20
417.05928072058299
 30
0.0
 11
162.3830982834894
 21
417.05928072058299
 31
0.0
  0
LINE
  5
4CBD
  8
AM_0
 10
161.81420284760111
 20
416.98516295384621
 30
0.0
 11
161.83406291371529
 21
417.05928072058299
 31
0.0
  0
ARC
  5
4CBE
  8
AM_0
 10
161.9107953421402
 20
416.95928072058291
 30
0.0
 40
0.1000000000000346
 50
90.0
 51
164.99980499355539
  0
ARC
  5
4CBF
  8
AM_0
 10
160.1844271871434
 20
416.87244774007507
 30
0.0
 40
0.3000000000000043
 50
0.0
 51
90.0
  0
LINE
  5
4CC0
  8
AM_0
 10
158.98442718714341
 20
414.75928072058281
 30
0.0
 11
160.20438289030051
 21
414.84061110079409
 31
0.0
  0
LINE
  5
4CC1
  8
AM_0
 10
158.98442718714341
 20
415.91553275642298
 30
0.0
 11
160.18442718714331
 21
415.91553275642298
 31
0.0
  0
LINE
  5
4CC2
  8
AM_0
 10
160.48442718714341
 20
415.15928072058313
 30
0.0
 11
158.98442718714341
 21
415.15928072058313
 31
0.0
  0
ARC
  5
4CC3
  8
AM_0
 10
160.48442718714341
 20
415.65928072058301
 30
0.0
 40
0.5
 50
270.0
 51
0.0
  0
LINE
  5
4CC4
  8
AM_0
 10
160.48442718714341
 20
415.13994664815101
 30
0.0
 11
160.48442718714341
 21
415.15928072058313
 31
0.0
  0
LINE
  5
4CC5
  8
AM_0
 10
160.48442718714341
 20
414.85928072058289
 30
0.0
 11
160.48442718714341
 21
415.13994664815101
 31
0.0
  0
LINE
  5
4CC6
  8
AM_0
 10
160.20438289030051
 20
414.84061110079409
 30
0.0
 11
160.48442718714341
 21
414.85928072058289
 31
0.0
  0
ARC
  5
4CC7
  8
AM_0
 10
160.1844271871434
 20
415.13994664815101
 30
0.0
 40
0.3000000000000007
 50
273.81407483428148
 51
0.0
  0
LINE
  5
4CC8
  8
AM_0
 10
161.55636585506431
 20
416.30928072058288
 30
0.0
 11
161.63309828349031
 21
416.30928072058288
 31
0.0
  0
LINE
  5
4CC9
  8
AM_0
 10
161.63309828349031
 20
416.30928072058288
 30
0.0
 11
161.65295834960341
 21
416.38339848731943
 31
0.0
  0
LINE
  5
4CCA
  8
AM_0
 10
161.06420284760119
 20
416.38339848731943
 30
0.0
 11
161.08406291371529
 21
416.30928072058288
 31
0.0
  0
LINE
  5
4CCB
  8
AM_0
 10
161.08406291371529
 20
416.30928072058288
 30
0.0
 11
161.1607953421402
 21
416.30928072058288
 31
0.0
  0
LINE
  5
4CCC
  8
AM_0
 10
161.65295834960341
 20
416.38339848731943
 30
0.0
 11
161.81420284760111
 21
416.98516295384621
 31
0.0
  0
LINE
  5
4CCD
  8
AM_0
 10
161.1607953421402
 20
416.30928072058288
 30
0.0
 11
161.55636585506431
 21
416.30928072058288
 31
0.0
  0
LINE
  5
4CCE
  8
AM_0
 10
160.98442718714429
 20
416.68112125214401
 30
0.0
 11
161.06420284760119
 21
416.38339848731943
 31
0.0
  0
ARC
  5
4CCF
  8
AM_0
 10
161.55636585506431
 20
416.40928072058313
 30
0.0
 40
0.0999999999999866
 50
270.0
 51
344.99980499343371
  0
ARC
  5
4CD0
  8
AM_0
 10
161.1607953421404
 20
416.40928072058313
 30
0.0
 40
0.1000000000000014
 50
195.00019500656629
 51
270.0
  0
LINE
  5
4CD1
  8
AM_0
 10
160.48442718714341
 20
416.21553275642282
 30
0.0
 11
160.48442718714341
 21
416.87244774007507
 31
0.0
  0
ARC
  5
4CD2
  8
AM_0
 10
160.1844271871434
 20
416.21553275642322
 30
0.0
 40
0.3000000000000007
 50
270.0
 51
0.0
  0
LINE
  5
4CD3
  8
AM_0
 10
158.98442718714341
 20
419.71410996829081
 30
0.0
 11
160.18442718714331
 21
419.71410996829081
 31
0.0
  0
LINE
  5
4CD4
  8
AM_0
 10
160.18442718714331
 20
417.1724477400748
 30
0.0
 11
158.98442718714341
 21
417.1724477400748
 31
0.0
  0
LINE
  5
4CD5
  8
AM_0
 10
161.83406291371529
 20
417.05928072058299
 30
0.0
 11
161.9107953421402
 21
417.05928072058299
 31
0.0
  0
ARC
  5
4CD6
  8
AM_0
 10
160.1844271871434
 20
420.01410996829122
 30
0.0
 40
0.3000000000000007
 50
270.0
 51
0.0
  0
LINE
  5
4CD7
  8
AM_0
 10
160.18442718714331
 20
421.4863531547241
 30
0.0
 11
158.98442718714341
 21
421.4863531547241
 31
0.0
  0
ARC
  5
4CD8
  8
AM_0
 10
160.1844271871434
 20
421.18635315472397
 30
0.0
 40
0.3000000000000043
 50
0.0
 51
90.0
  0
LINE
  5
4CD9
  8
AM_0
 10
160.18442718714331
 20
425.15928072058199
 30
0.0
 11
158.98442718714341
 21
425.15928072058199
 31
0.0
  0
ARC
  5
4CDA
  8
AM_0
 10
160.1844271871434
 20
425.45928072058211
 30
0.0
 40
0.3000000000000007
 50
270.0
 51
0.0
  0
LINE
  5
4CDB
  8
AM_0
 10
149.98442718714341
 20
416.02600089193601
 30
0.0
 11
156.48442718714341
 21
416.02600089193601
 31
0.0
  0
LINE
  5
4CDC
  8
AM_0
 10
149.98442718714341
 20
415.52600089193601
 30
0.0
 11
156.48442718714341
 21
415.52600089193601
 31
0.0
  0
LINE
  5
4CDD
  8
AM_0
 10
156.48442718714341
 20
425.65928072058313
 30
0.0
 11
149.98442718714341
 21
425.65928072058313
 31
0.0
  0
LINE
  5
4CDE
  8
AM_0
 10
149.48442718714341
 20
425.15928072058313
 30
0.0
 11
156.48442718714341
 21
425.15928072058313
 31
0.0
  0
LINE
  5
4CDF
  8
AM_0
 10
156.18442718714331
 20
415.15928072058313
 30
0.0
 11
149.34647712232541
 21
415.15928072058313
 31
0.0
  0
LINE
  5
4CE0
  8
AM_0
 10
156.48442718714341
 20
424.81259265204159
 30
0.0
 11
149.98442718714341
 21
424.81259265204159
 31
0.0
  0
LINE
  5
4CE1
  8
AM_0
 10
156.48442718714341
 20
416.50596878912421
 30
0.0
 11
149.98442718714341
 21
416.50596878912421
 31
0.0
  0
ARC
  5
4CE2
  8
AM_0
 10
156.78442718714339
 20
414.45928072058302
 30
0.0
 40
0.2999999999999971
 50
180.0
 51
270.0
  0
ARC
  5
4CE3
  8
AM_0
 10
156.1844271871434
 20
414.85928072058289
 30
0.0
 40
0.2999999999999971
 50
0.0
 51
90.0
  0
ARC
  5
4CE4
  8
AM_0
 10
158.10942718714341
 20
420.65928072058313
 30
0.0
 40
9.124999999999984
 50
152.92493329271929
 51
207.07506670728071
  0
LINE
  5
4CE5
  8
AM_0
 10
148.70629272266081
 20
415.39105944098549
 30
0.0
 11
146.34424278747881
 21
417.35943438697052
 31
0.0
  0
LINE
  5
4CE6
  8
AM_0
 10
149.48442718714341
 20
415.73771330409107
 30
0.0
 11
149.98442718714341
 21
415.15928072058313
 31
0.0
  0
ARC
  5
4CE7
  8
AM_0
 10
149.3464771223253
 20
416.15928072058313
 30
0.0
 40
1.0
 50
230.19442890774391
 51
270.0
  0
LINE
  5
4CE8
  8
AM_0
 10
149.98442718714341
 20
415.52600089193601
 30
0.0
 11
149.48442718714341
 21
415.73771330409107
 31
0.0
  0
LINE
  5
4CE9
  8
AM_0
 10
149.48442718714341
 20
416.19998857706207
 30
0.0
 11
149.98442718714341
 21
415.52600089193601
 31
0.0
  0
LINE
  5
4CEA
  8
AM_0
 10
149.98442718714341
 20
416.02600089193601
 30
0.0
 11
149.48442718714341
 21
416.19998857706207
 31
0.0
  0
LINE
  5
4CEB
  8
AM_0
 10
149.48442718714341
 20
416.7377133040909
 30
0.0
 11
149.98442718714341
 21
416.02600089193601
 31
0.0
  0
LINE
  5
4CEC
  8
AM_0
 10
149.98442718714341
 20
416.50596878912421
 30
0.0
 11
149.48442718714341
 21
416.7377133040909
 31
0.0
  0
ARC
  5
4CED
  8
AM_0
 10
146.98442718714341
 20
418.1276556665681
 30
0.0
 40
1.0000000000000291
 50
180.0
 51
230.19442890773479
  0
LINE
  5
4CEE
  8
AM_0
 10
149.98442718714341
 20
425.65928072058313
 30
0.0
 11
149.48442718714341
 21
426.15928072058313
 31
0.0
  0
LINE
  5
4CEF
  8
AM_0
 10
149.48442718714341
 20
425.15928072058313
 30
0.0
 11
149.98442718714341
 21
425.65928072058313
 31
0.0
  0
LINE
  5
4CF0
  8
AM_0
 10
149.98442718714341
 20
424.81259265204159
 30
0.0
 11
149.48442718714341
 21
425.15928072058313
 31
0.0
  0
LINE
  5
4CF1
  8
AM_0
 10
156.78442718714331
 20
438.15928072058313
 30
0.0
 11
158.98442718714341
 21
438.15928072058313
 31
0.0
  0
ARC
  5
4CF2
  8
AM_0
 10
170.88309828348929
 20
438.65928072058313
 30
0.0
 40
0.5
 50
269.99999999998693
 51
0.0
  0
LINE
  5
4CF3
  8
AM_0
 10
165.8830982834894
 20
435.25928072058281
 30
0.0
 11
162.6607953421402
 21
435.25928072058281
 31
0.0
  0
LINE
  5
4CF4
  8
AM_0
 10
171.3830982834894
 20
427.30320939917578
 30
0.0
 11
171.3830982834894
 21
437.01535204199098
 31
0.0
  0
LINE
  5
4CF5
  8
AM_0
 10
166.3830982834894
 20
426.8032093991759
 30
0.0
 11
170.8830982834894
 21
426.8032093991759
 31
0.0
  0
ARC
  5
4CF6
  8
AM_0
 10
170.88309828348929
 20
427.30320939917578
 30
0.0
 40
0.5
 50
270.0
 51
0.0
  0
LINE
  5
4CF7
  8
AM_0
 10
166.3830982834894
 20
437.51535204199121
 30
0.0
 11
170.8830982834894
 21
437.51535204199121
 31
0.0
  0
LINE
  5
4CF8
  8
AM_0
 10
170.88309828348929
 20
438.15928072058313
 30
0.0
 11
166.8830982834894
 21
438.15928072058313
 31
0.0
  0
ARC
  5
4CF9
  8
AM_0
 10
170.88309828348929
 20
437.01535204199098
 30
0.0
 40
0.5
 50
0.0
 51
90.0
  0
ARC
  5
4CFA
  8
AM_0
 10
165.88309828348929
 20
435.75928072058281
 30
0.0
 40
0.5
 50
270.0
 51
0.0
  0
ARC
  5
4CFB
  8
AM_0
 10
166.88309828348929
 20
437.65928072058313
 30
0.0
 40
0.5
 50
90.0
 51
180.0
  0
ARC
  5
4CFC
  8
AM_0
 10
160.1844271871434
 20
432.3044514728748
 30
0.0
 40
0.3000000000000114
 50
0.0
 51
90.0
  0
LINE
  5
4CFD
  8
AM_0
 10
158.98442718714341
 20
427.15928072058472
 30
0.0
 11
160.18442718714331
 21
427.15928072058472
 31
0.0
  0
ARC
  5
4CFE
  8
AM_0
 10
160.1844271871434
 20
426.8592807205851
 30
0.0
 40
0.2999999999999971
 50
0.0
 51
90.0
  0
LINE
  5
4CFF
  8
AM_0
 10
158.98442718714341
 20
430.83220828644193
 30
0.0
 11
160.18442718714331
 21
430.83220828644193
 31
0.0
  0
ARC
  5
4D00
  8
AM_0
 10
160.1844271871434
 20
431.13220828644199
 30
0.0
 40
0.3000000000000007
 50
270.0
 51
0.0
  0
LINE
  5
4D01
  8
AM_0
 10
160.48442718714341
 20
431.13220828644199
 30
0.0
 11
160.48442718714341
 21
432.3044514728748
 31
0.0
  0
LINE
  5
4D02
  8
AM_0
 10
161.9107953421402
 20
436.00928072058298
 30
0.0
 11
162.30636585506431
 21
436.00928072058298
 31
0.0
  0
LINE
  5
4D03
  8
AM_0
 10
161.9107953421402
 20
436.00928072058298
 30
0.0
 11
162.30636585506431
 21
436.00928072058298
 31
0.0
  0
LINE
  5
4D04
  8
AM_0
 10
162.40295834960341
 20
435.93516295384649
 30
0.0
 11
162.56420284760119
 21
435.33339848731941
 31
0.0
  0
LINE
  5
4D05
  8
AM_0
 10
162.40295834960341
 20
435.93516295384649
 30
0.0
 11
162.56420284760119
 21
435.33339848731941
 31
0.0
  0
ARC
  5
4D06
  8
AM_0
 10
162.6607953421402
 20
435.35928072058289
 30
0.0
 40
0.0999999999999943
 50
195.00019500651879
 51
270.0
  0
ARC
  5
4D07
  8
AM_0
 10
162.30636585506431
 20
435.90928072058313
 30
0.0
 40
0.0999999999999943
 50
15.000195006505431
 51
90.0
  0
LINE
  5
4D08
  8
AM_0
 10
160.98358059860229
 20
435.63428072058321
 30
0.0
 11
161.06420284760119
 21
435.33339848731941
 31
0.0
  0
LINE
  5
4D09
  8
AM_0
 10
161.63580893569531
 20
435.29854525368103
 30
0.0
 11
161.81420284760119
 21
435.93516295384649
 31
0.0
  0
LINE
  5
4D0A
  8
AM_0
 10
161.65295834960341
 20
435.33339848731941
 30
0.0
 11
161.81420284760119
 21
435.93516295384649
 31
0.0
  0
LINE
  5
4D0B
  8
AM_0
 10
160.48442718714341
 20
435.44611370109209
 30
0.0
 11
160.48442718714341
 21
436.10302868474281
 31
0.0
  0
LINE
  5
4D0C
  8
AM_0
 10
160.98442718714341
 20
435.63112125214479
 30
0.0
 11
161.06420284760119
 21
435.33339848731941
 31
0.0
  0
LINE
  5
4D0D
  8
AM_0
 10
158.98442718714341
 20
435.14611370109208
 30
0.0
 11
160.18442718714331
 21
435.14611370109208
 31
0.0
  0
LINE
  5
4D0E
  8
AM_0
 10
160.18442718714331
 20
432.60445147287481
 30
0.0
 11
158.98442718714341
 21
432.60445147287561
 31
0.0
  0
LINE
  5
4D0F
  8
AM_0
 10
161.58899812057939
 20
435.25928072058281
 30
0.0
 11
161.63580893569531
 21
435.29854525368103
 31
0.0
  0
LINE
  5
4D10
  8
AM_0
 10
161.1607953421402
 20
435.25928072058281
 30
0.0
 11
161.58899812057939
 21
435.25928072058281
 31
0.0
  0
LINE
  5
4D11
  8
AM_0
 10
161.1607953421402
 20
435.25928072058281
 30
0.0
 11
161.55636585506431
 21
435.25928072058281
 31
0.0
  0
ARC
  5
4D12
  8
AM_0
 10
161.1607953421404
 20
435.35928072058289
 30
0.0
 40
0.0999999999999943
 50
195.00019500651879
 51
270.0
  0
ARC
  5
4D13
  8
AM_0
 10
161.55636585506431
 20
435.35928072058289
 30
0.0
 40
0.0999999999999608
 50
270.0
 51
344.99980499348112
  0
ARC
  5
4D14
  8
AM_0
 10
160.1844271871434
 20
435.44611370109209
 30
0.0
 40
0.3000000000000007
 50
270.0
 51
0.0
  0
LINE
  5
4D15
  8
AM_0
 10
158.98442718714341
 20
437.15928072058313
 30
0.0
 11
160.48442718714341
 21
437.15928072058313
 31
0.0
  0
LINE
  5
4D16
  8
AM_0
 10
160.18442718714331
 20
436.40302868474282
 30
0.0
 11
158.98442718714341
 21
436.40302868474282
 31
0.0
  0
LINE
  5
4D17
  8
AM_0
 10
160.20438289030051
 20
437.47795034037279
 30
0.0
 11
158.98442718714341
 21
437.55928072058299
 31
0.0
  0
ARC
  5
4D18
  8
AM_0
 10
160.48442718714341
 20
436.65928072058313
 30
0.0
 40
0.5
 50
0.0
 51
90.0
  0
ARC
  5
4D19
  8
AM_0
 10
161.9107953421402
 20
435.90928072058313
 30
0.0
 40
0.0999999999999606
 50
90.0
 51
164.99980499349451
  0
ARC
  5
4D1A
  8
AM_0
 10
160.1844271871434
 20
436.10302868474281
 30
0.0
 40
0.2999999999999971
 50
0.0
 51
90.0
  0
LINE
  5
4D1B
  8
AM_0
 10
160.48442718714341
 20
437.15928072058313
 30
0.0
 11
160.48442718714341
 21
437.17861479301581
 31
0.0
  0
ARC
  5
4D1C
  8
AM_0
 10
160.1844271871434
 20
437.17861479301581
 30
0.0
 40
0.3000000000000043
 50
0.0
 51
86.18592516571853
  0
ARC
  5
4D1D
  8
AM_0
 10
171.8830982834892
 20
439.15928072058313
 30
0.0
 40
0.5
 50
90.0
 51
180.0
  0
LINE
  5
4D1E
  8
AM_0
 10
171.3830982834894
 20
439.15928072058313
 30
0.0
 11
171.3830982834894
 21
438.65928072058313
 31
0.0
  0
LINE
  5
4D1F
  8
AM_0
 10
149.98442718714341
 20
435.8125926520417
 30
0.0
 11
156.48442718714341
 21
435.8125926520417
 31
0.0
  0
LINE
  5
4D20
  8
AM_0
 10
149.98442718714341
 20
427.5059687891241
 30
0.0
 11
156.48442718714341
 21
427.5059687891241
 31
0.0
  0
LINE
  5
4D21
  8
AM_0
 10
149.34647712232541
 20
437.15928072058313
 30
0.0
 11
156.18442718714331
 21
437.15928072058313
 31
0.0
  0
LINE
  5
4D22
  8
AM_0
 10
156.48442718714341
 20
427.15928072058313
 30
0.0
 11
149.48442718714341
 21
427.15928072058313
 31
0.0
  0
LINE
  5
4D23
  8
AM_0
 10
149.98442718714341
 20
426.65928072058313
 30
0.0
 11
156.48442718714341
 21
426.65928072058313
 31
0.0
  0
LINE
  5
4D24
  8
AM_0
 10
156.48442718714341
 20
436.79256054923093
 30
0.0
 11
149.98442718714341
 21
436.79256054923093
 31
0.0
  0
LINE
  5
4D25
  8
AM_0
 10
156.48442718714341
 20
436.29256054923081
 30
0.0
 11
149.98442718714341
 21
436.29256054923081
 31
0.0
  0
ARC
  5
4D26
  8
AM_0
 10
156.1844271871434
 20
437.45928072058291
 30
0.0
 40
0.3000000000000043
 50
270.0
 51
0.0
  0
ARC
  5
4D27
  8
AM_0
 10
156.78442718714339
 20
437.85928072058317
 30
0.0
 40
0.2999999999999971
 50
90.0
 51
180.0
  0
ARC
  5
4D28
  8
AM_0
 10
158.10942718714341
 20
431.65928072058313
 30
0.0
 40
9.124999999999984
 50
152.92493329271929
 51
207.07506670728071
  0
LINE
  5
4D29
  8
AM_0
 10
149.48442718714341
 20
427.15928072058313
 30
0.0
 11
149.98442718714341
 21
427.5059687891241
 31
0.0
  0
LINE
  5
4D2A
  8
AM_0
 10
149.98442718714341
 20
426.65928072058313
 30
0.0
 11
149.48442718714341
 21
427.15928072058313
 31
0.0
  0
LINE
  5
4D2B
  8
AM_0
 10
146.34424278747881
 20
434.9591270541963
 30
0.0
 11
148.70629272266081
 21
436.9275020001802
 31
0.0
  0
LINE
  5
4D2C
  8
AM_0
 10
149.98442718714341
 20
437.15928072058313
 30
0.0
 11
149.48442718714341
 21
436.58084813707598
 31
0.0
  0
ARC
  5
4D2D
  8
AM_0
 10
149.3464771223253
 20
436.15928072058301
 30
0.0
 40
1.0000000000000411
 50
90.0
 51
129.805571092256
  0
LINE
  5
4D2E
  8
AM_0
 10
149.48442718714341
 20
435.58084813707598
 30
0.0
 11
149.98442718714341
 21
435.8125926520417
 31
0.0
  0
LINE
  5
4D2F
  8
AM_0
 10
149.98442718714341
 20
436.29256054923081
 30
0.0
 11
149.48442718714341
 21
435.58084813707598
 31
0.0
  0
LINE
  5
4D30
  8
AM_0
 10
149.48442718714341
 20
436.1185728641039
 30
0.0
 11
149.98442718714341
 21
436.29256054923081
 31
0.0
  0
LINE
  5
4D31
  8
AM_0
 10
149.98442718714341
 20
436.79256054923093
 30
0.0
 11
149.48442718714341
 21
436.1185728641039
 31
0.0
  0
LINE
  5
4D32
  8
AM_0
 10
149.48442718714341
 20
436.58084813707598
 30
0.0
 11
149.98442718714341
 21
436.79256054923093
 31
0.0
  0
ARC
  5
4D33
  8
AM_0
 10
146.98442718714341
 20
434.190905774599
 30
0.0
 40
1.0
 50
129.80557109226521
 51
180.0
  0
LINE
  5
4D34
  8
AM_0
 10
271.3830982834894
 20
403.1592807205833
 30
0.0
 11
250.56859338395699
 21
403.1592807205833
 31
0.0
  0
LINE
  5
4D35
  8
AM_0
 10
196.19760318302181
 20
403.1592807205833
 30
0.0
 11
175.38309828349011
 21
403.1592807205833
 31
0.0
  0
LINE
  5
4D36
  8
AM_0
 10
265.24731661432838
 20
399.1592807205833
 30
0.0
 11
181.51887995265031
 21
399.1592807205833
 31
0.0
  0
LINE
  5
4D37
  8
AM_0
 10
184.29045325579639
 20
401.10034320845551
 30
0.0
 11
184.38309828349
 21
402.1592807205833
 31
0.0
  0
LINE
  5
4D38
  8
AM_0
 10
176.47574331118341
 20
401.10034320845551
 30
0.0
 11
176.38309828349011
 21
402.1592807205833
 31
0.0
  0
ARC
  5
4D39
  8
AM_0
 10
180.38309828349
 20
405.5592807205831
 30
0.0
 40
6.5
 50
241.82726586813479
 51
298.17273413186518
  0
ARC
  5
4D3A
  8
AM_0
 10
178.0696548281303
 20
401.23979239685161
 30
0.0
 40
1.6000000000000001
 50
184.99999999999969
 51
241.82726586813479
  0
LINE
  5
4D3B
  8
AM_0
 10
182.6830982834899
 20
399.47980705915512
 30
0.0
 11
180.38309828348989
 21
401.76936673795029
 31
0.0
  0
LINE
  5
4D3C
  8
AM_0
 10
180.69459828349
 20
401.45928072058319
 30
0.0
 11
180.07159828348981
 21
401.45928072058319
 31
0.0
  0
LINE
  5
4D3D
  8
AM_0
 10
178.08309828348999
 20
399.47980705915512
 30
0.0
 11
180.38309828348989
 21
401.76936673795029
 31
0.0
  0
LINE
  5
4D3E
  8
AM_0
 10
180.69459828349
 20
399.06674903024867
 30
0.0
 11
180.69459828349
 21
401.45928072058319
 31
0.0
  0
LINE
  5
4D3F
  8
AM_0
 10
180.07159828348981
 20
399.06674903024867
 30
0.0
 11
180.07159828348981
 21
401.45928072058319
 31
0.0
  0
ARC
  5
4D40
  8
AM_0
 10
182.69654173884959
 20
401.23979239685161
 30
0.0
 40
1.6000000000000001
 50
298.17273413186518
 51
355.00000000000023
  0
LINE
  5
4D41
  8
AM_0
 10
271.38309828348952
 20
403.1592807205833
 30
0.0
 11
271.38309828348952
 21
407.1592807205833
 31
0.0
  0
LINE
  5
4D42
  8
AM_0
 10
175.38309828348901
 20
407.15928072058301
 30
0.0
 11
175.38309828349011
 21
403.1592807205833
 31
0.0
  0
LINE
  5
4D43
  8
AM_0N
 10
184.1830982834899
 20
403.1592807205833
 30
0.0
 11
184.1830982834899
 21
402.1592807205833
 31
0.0
  0
LINE
  5
4D44
  8
AM_0N
 10
180.58309828348999
 20
402.1592807205833
 30
0.0
 11
180.94706851775621
 21
403.1592807205833
 31
0.0
  0
LINE
  5
4D45
  8
AM_0N
 10
180.18309828349001
 20
402.1592807205833
 30
0.0
 11
180.5470685177562
 21
403.1592807205833
 31
0.0
  0
LINE
  5
4D46
  8
AM_0N
 10
176.38309828348989
 20
402.1592807205833
 30
0.0
 11
184.38309828349
 21
402.1592807205833
 31
0.0
  0
LINE
  5
4D47
  8
AM_0N
 10
176.58309828348999
 20
402.1592807205833
 30
0.0
 11
176.58309828348999
 21
403.1592807205833
 31
0.0
  0
LINE
  5
4D48
  8
AM_0
 10
196.19760318302161
 20
399.1592807205833
 30
0.0
 11
196.19760318302161
 21
403.1592807205833
 31
0.0
  0
LINE
  5
4D49
  8
AM_0
 10
194.54074893352919
 20
403.1592807205833
 30
0.0
 11
196.19760318302161
 21
399.1592807205833
 31
0.0
  0
LINE
  5
4D4A
  8
AM_0
 10
250.56859338395699
 20
399.1592807205833
 30
0.0
 11
250.56859338395699
 21
403.1592807205833
 31
0.0
  0
LINE
  5
4D4B
  8
AM_0
 10
252.22544763344959
 20
403.1592807205833
 30
0.0
 11
250.56859338395699
 21
399.1592807205833
 31
0.0
  0
LINE
  5
4D4C
  8
AM_0
 10
189.8830982834894
 20
448.1592807205833
 30
0.0
 11
256.8830982834894
 21
448.1592807205833
 31
0.0
  0
LINE
  5
4D4D
  8
AM_0
 10
189.8830982834894
 20
448.1592807205833
 30
0.0
 11
189.8830982834894
 21
446.1592807205833
 31
0.0
  0
LINE
  5
4D4E
  8
AM_0
 10
256.8830982834894
 20
448.1592807205833
 30
0.0
 11
256.8830982834894
 21
446.1592807205833
 31
0.0
  0
LINE
  5
4D4F
  8
ﾁｭｳｼﾝｾﾝ1
 10
266.38309828348872
 20
396.89457322058331
 30
0.0
 11
266.38309828348872
 21
409.8945732205832
 31
0.0
  0
LINE
  5
4D50
  8
AM_0
 10
262.47574331118238
 20
401.10034320845551
 30
0.0
 11
262.38309828348878
 21
402.1592807205833
 31
0.0
  0
LINE
  5
4D51
  8
AM_0
 10
270.29045325579528
 20
401.10034320845551
 30
0.0
 11
270.38309828348872
 21
402.1592807205833
 31
0.0
  0
ARC
  5
4D52
  8
AM_0
 10
266.38309828348901
 20
405.55928072058299
 30
0.0
 40
6.5
 50
241.82726586813479
 51
298.17273413186518
  0
ARC
  5
4D53
  8
AM_0
 10
268.69654173884868
 20
401.23979239685161
 30
0.0
 40
1.6000000000000001
 50
298.17273413186518
 51
355.00000000000023
  0
LINE
  5
4D54
  8
AM_0
 10
264.08309828348888
 20
399.47980705915512
 30
0.0
 11
266.38309828348878
 21
401.76936673795029
 31
0.0
  0
LINE
  5
4D55
  8
AM_0
 10
266.07159828348881
 20
401.45928072058319
 30
0.0
 11
266.69459828348892
 21
401.45928072058319
 31
0.0
  0
LINE
  5
4D56
  8
AM_0
 10
268.68309828348879
 20
399.47980705915512
 30
0.0
 11
266.38309828348878
 21
401.76936673795029
 31
0.0
  0
LINE
  5
4D57
  8
AM_0
 10
266.07159828348881
 20
399.06674903024867
 30
0.0
 11
266.07159828348881
 21
401.45928072058319
 31
0.0
  0
LINE
  5
4D58
  8
AM_0
 10
266.69459828348892
 20
399.06674903024867
 30
0.0
 11
266.69459828348892
 21
401.45928072058319
 31
0.0
  0
ARC
  5
4D59
  8
AM_0
 10
264.06965482812927
 20
401.23979239685161
 30
0.0
 40
1.6000000000000001
 50
184.99999999999969
 51
241.82726586813479
  0
LINE
  5
4D5A
  8
AM_0N
 10
262.58309828348882
 20
403.1592807205833
 30
0.0
 11
262.58309828348882
 21
402.1592807205833
 31
0.0
  0
LINE
  5
4D5B
  8
AM_0N
 10
266.18309828348879
 20
402.1592807205833
 30
0.0
 11
265.81912804922263
 21
403.1592807205833
 31
0.0
  0
LINE
  5
4D5C
  8
AM_0N
 10
266.58309828348882
 20
402.1592807205833
 30
0.0
 11
266.2191280492226
 21
403.1592807205833
 31
0.0
  0
LINE
  5
4D5D
  8
AM_0N
 10
270.38309828348878
 20
402.1592807205833
 30
0.0
 11
262.38309828348878
 21
402.1592807205833
 31
0.0
  0
LINE
  5
4D5E
  8
AM_0N
 10
270.18309828348879
 20
402.1592807205833
 30
0.0
 11
270.18309828348879
 21
403.1592807205833
 31
0.0
  0
LINE
  5
4D5F
  8
AM_0
 10
174.3830982834894
 20
410.15928072058313
 30
0.0
 11
174.38309828348909
 21
442.15928072058313
 31
0.0
  0
LINE
  5
4D60
  8
ﾁｭｳｼﾝｾﾝ
 10
146.79966828348961
 20
514.1592807205833
 30
0.0
 11
401.74689828348949
 21
514.1592807205833
 31
0.0
  0
LINE
  5
4D61
  8
AM_0
 10
374.38309828348952
 20
511.15928072058301
 30
0.0
 11
374.38309828348952
 21
517.1592807205833
 31
0.0
  0
LINE
  5
4D62
  8
AM_0
 10
372.38307828348991
 20
504.65931072058311
 30
0.0
 11
396.38309828348952
 21
504.65931072058311
 31
0.0
  0
LINE
  5
4D63
  8
AM_0
 10
372.38307828348968
 20
523.65931072058299
 30
0.0
 11
396.38309828348952
 21
523.65931072058322
 31
0.0
  0
LINE
  5
4D64
  8
AM_0
 10
396.38309828348952
 20
504.65931072058311
 30
0.0
 11
396.38309828348952
 21
523.65931072058322
 31
0.0
  0
LINE
  5
4D65
  8
AM_0
 10
374.38309828348952
 20
511.15928072058301
 30
0.0
 11
396.38309828348952
 21
511.15928072058301
 31
0.0
  0
LINE
  5
4D66
  8
AM_0
 10
374.38309828348952
 20
517.1592807205833
 30
0.0
 11
396.38309828348952
 21
517.1592807205833
 31
0.0
  0
LINE
  5
4DA2
  8
AM_0
 10
282.38309828348952
 20
457.65928072058313
 30
0.0
 11
282.38309828348952
 21
570.65931072058322
 31
0.0
  0
LINE
  5
4DAB
  8
AM_0
 10
272.58884828348948
 20
559.08817072058321
 30
0.0
 11
268.44312828348961
 21
574.56928072058315
 31
0.0
  0
LINE
  5
4DAC
  8
AM_0
 10
272.58881828348962
 20
558.17817072058335
 30
0.0
 11
268.44309828348952
 21
573.65928072058318
 31
0.0
  0
LINE
  5
4DAD
  8
AM_0
 10
272.58881828348962
 20
556.32819072058328
 30
0.0
 11
268.44309828348952
 21
571.80933072058315
 31
0.0
  0
LINE
  5
4DAE
  8
AM_0
 10
274.38309828348952
 20
570.1592807205833
 30
0.0
 11
274.38309828348952
 21
458.15928072058313
 31
0.0
  0
LINE
  5
4DAF
  8
AM_0
 10
152.38309828348969
 20
562.17930072058323
 30
0.0
 11
152.38309828348969
 21
519.15928072058307
 31
0.0
  0
LINE
  5
4DB0
  8
AM_0
 10
154.6531182834895
 20
563.9092807205833
 30
0.0
 11
156.8830982834896
 21
563.9092807205833
 31
0.0
  0
LINE
  5
4DB1
  8
AM_0
 10
154.58310828348939
 20
549.84922072058305
 30
0.0
 11
156.6830882834895
 21
549.84922072058305
 31
0.0
  0
LINE
  5
4DB2
  8
AM_0
 10
154.1531182834895
 20
563.77924072058318
 30
0.0
 11
152.88315828348951
 21
563.03925072058325
 31
0.0
  0
LINE
  5
4DB3
  8
AM_0
 10
154.14304828348969
 20
561.65934072058315
 30
0.0
 11
152.8630782834895
 21
560.88932072058321
 31
0.0
  0
LINE
  5
4DB4
  8
AM_0
 10
154.1330382834897
 20
557.11930072058306
 30
0.0
 11
152.83304828348949
 21
556.26932072058332
 31
0.0
  0
LINE
  5
4DB5
  8
AM_0
 10
154.19309828348941
 20
549.76929072058317
 30
0.0
 11
152.99314828348969
 21
549.25928072058321
 31
0.0
  0
LINE
  5
4DB6
  8
AM_0
 10
154.66312828348961
 20
561.79929072058337
 30
0.0
 11
157.38309828348969
 21
561.79929072058337
 31
0.0
  0
LINE
  5
4DB7
  8
AM_0
 10
154.6831482834894
 20
557.28928072058295
 30
0.0
 11
157.38309828348969
 21
557.28928072058295
 31
0.0
  0
LINE
  5
4DB8
  8
AM_0
 10
154.53312828348959
 20
547.89927072058322
 30
0.0
 11
156.38309828348969
 21
547.89927072058322
 31
0.0
  0
LINE
  5
4DB9
  8
AM_0
 10
154.6531182834895
 20
556.1492707205831
 30
0.0
 11
156.38309828348969
 21
556.1492707205831
 31
0.0
  0
LINE
  5
4DBA
  8
AM_0
 10
154.63309828348949
 20
560.65928072058307
 30
0.0
 11
156.38309828348969
 21
560.65928072058307
 31
0.0
  0
LINE
  5
4DBB
  8
AM_0
 10
154.62308828348969
 20
562.75925072058305
 30
0.0
 11
156.8830982834896
 21
562.75925072058305
 31
0.0
  0
LINE
  5
4DBC
  8
AM_0
 10
154.15305828348971
 20
556.00931072058324
 30
0.0
 11
152.87308828348969
 21
555.25931072058324
 31
0.0
  0
LINE
  5
4DBD
  8
AM_0
 10
154.2430882834897
 20
547.85932072058324
 30
0.0
 11
153.0931182834897
 21
547.50931072058324
 31
0.0
  0
LINE
  5
4DBE
  8
AM_0
 10
154.17307828348959
 20
562.6592807205833
 30
0.0
 11
152.93308828348981
 21
562.02927072058287
 31
0.0
  0
LINE
  5
4DBF
  8
AM_0
 10
154.16312828348961
 20
560.54932072058318
 30
0.0
 11
152.91312828348961
 21
559.87931072058325
 31
0.0
  0
LINE
  5
4DC0
  8
AM_0
 10
156.38309828348969
 20
540.15928072058307
 30
0.0
 11
153.38309828348969
 21
540.15928072058307
 31
0.0
  0
LINE
  5
4DC1
  8
AM_0
 10
156.38309828348969
 20
538.1592807205833
 30
0.0
 11
153.38309828348969
 21
538.1592807205833
 31
0.0
  0
LINE
  5
4DC2
  8
AM_0
 10
156.38309828348969
 20
530.1592807205833
 30
0.0
 11
153.38309828348969
 21
530.1592807205833
 31
0.0
  0
LINE
  5
4DC3
  8
AM_0
 10
156.38309828348969
 20
528.15928072058296
 30
0.0
 11
153.38309828348969
 21
528.15928072058296
 31
0.0
  0
LINE
  5
4DC4
  8
AM_0
 10
156.38309828348969
 20
520.1592807205833
 30
0.0
 11
153.38309828348969
 21
520.1592807205833
 31
0.0
  0
LINE
  5
4DC5
  8
AM_0
 10
156.38309828348969
 20
518.1592807205833
 30
0.0
 11
153.38309828348969
 21
518.1592807205833
 31
0.0
  0
LINE
  5
4DC6
  8
AM_0
 10
154.38309828348969
 20
529.76926072058325
 30
0.0
 11
154.38309828348969
 21
528.55930072058311
 31
0.0
  0
LINE
  5
4DC7
  8
AM_0
 10
154.38309828348969
 20
519.76926072058325
 30
0.0
 11
154.38309828348969
 21
518.60923072058324
 31
0.0
  0
LINE
  5
4DC8
  8
AM_0
 10
154.38309828348969
 20
539.78928072058295
 30
0.0
 11
154.38309828348969
 21
538.41929072058315
 31
0.0
  0
LINE
  5
4DC9
  8
AM_0
 10
154.38309828348969
 20
549.54929072058314
 30
0.0
 11
154.38309828348969
 21
548.48923072058324
 31
0.0
  0
LINE
  5
4DCA
  8
AM_0
 10
154.38309828348969
 20
556.98923072058324
 30
0.0
 11
154.38309828348969
 21
556.51926072058325
 31
0.0
  0
LINE
  5
4DCB
  8
AM_0
 10
154.38309828348969
 20
561.55930072058334
 30
0.0
 11
154.38309828348969
 21
561.00925072058305
 31
0.0
  0
LINE
  5
4DCC
  8
AM_0
 10
154.38309828348969
 20
563.6592807205833
 30
0.0
 11
154.38309828348969
 21
563.12925072058329
 31
0.0
  0
LINE
  5
4DCD
  8
AM_0
 10
150.88309828348969
 20
534.1592807205833
 30
0.0
 11
150.88309828348969
 21
514.1592807205833
 31
0.0
  0
LINE
  5
4DCE
  8
AM_0
 10
150.88309828348969
 20
534.15925072058337
 30
0.0
 11
152.38309828348969
 21
534.28925072058325
 31
0.0
  0
LINE
  5
4DCF
  8
AM_0
 10
150.88309828348969
 20
529.30930072058322
 30
0.0
 11
152.38309828348969
 21
529.30930072058322
 31
0.0
  0
LINE
  5
4DD0
  8
AM_0
 10
150.88309828348969
 20
531.43931072058285
 30
0.0
 11
152.38309828348969
 21
531.43931072058285
 31
0.0
  0
LINE
  5
4DD1
  8
AM_0
 10
267.72312828348947
 20
550.1592807205833
 30
0.0
 11
168.74308828348961
 21
550.1592807205833
 31
0.0
  0
LINE
  5
4DD2
  8
AM_0
 10
267.72312828348947
 20
548.15928072058307
 30
0.0
 11
168.74308828348961
 21
548.15928072058307
 31
0.0
  0
LINE
  5
4DD3
  8
AM_0
 10
235.38309828348969
 20
540.15928072058307
 30
0.0
 11
168.74308828348961
 21
540.15928072058307
 31
0.0
  0
LINE
  5
4DD4
  8
AM_0
 10
267.71592828348969
 20
538.1592807205833
 30
0.0
 11
168.74308828348961
 21
538.1592807205833
 31
0.0
  0
LINE
  5
4DD5
  8
AM_0
 10
202.82181828348951
 20
530.1592807205833
 30
0.0
 11
168.74308828348961
 21
530.1592807205833
 31
0.0
  0
LINE
  5
4DD6
  8
AM_0
 10
202.82181828348951
 20
528.15928072058296
 30
0.0
 11
168.74308828348961
 21
528.15928072058296
 31
0.0
  0
LINE
  5
4DD7
  8
AM_0
 10
202.82181828348951
 20
520.1592807205833
 30
0.0
 11
168.74308828348961
 21
520.1592807205833
 31
0.0
  0
LINE
  5
4DD8
  8
AM_0
 10
202.82181828348951
 20
518.1592807205833
 30
0.0
 11
168.74308828348961
 21
518.1592807205833
 31
0.0
  0
LINE
  5
4DD9
  8
AM_0
 10
168.06308828348969
 20
550.87925072058295
 30
0.0
 11
271.20310828348943
 21
550.87925072058295
 31
0.0
  0
LINE
  5
4DDA
  8
AM_0
 10
168.06308828348969
 20
547.52927072058321
 30
0.0
 11
235.4031182834897
 21
547.52927072058321
 31
0.0
  0
LINE
  5
4DDB
  8
AM_0
 10
167.8431182834895
 20
540.64927072058322
 30
0.0
 11
235.38309828348969
 21
540.64927072058322
 31
0.0
  0
LINE
  5
4DDC
  8
AM_0
 10
167.8431182834895
 20
537.71933072058323
 30
0.0
 11
271.41733828348958
 21
537.71933072058323
 31
0.0
  0
LINE
  5
4DDD
  8
AM_0
 10
167.71311828348951
 20
530.4992407205832
 30
0.0
 11
204.04178828348969
 21
530.4992407205832
 31
0.0
  0
LINE
  5
4DDE
  8
AM_0
 10
167.71311828348951
 20
527.83933072058323
 30
0.0
 11
204.04178828348969
 21
527.83933072058323
 31
0.0
  0
LINE
  5
4DDF
  8
AM_0
 10
167.6531182834895
 20
520.42930072058323
 30
0.0
 11
204.10178828348961
 21
520.42930072058323
 31
0.0
  0
LINE
  5
4DE0
  8
AM_0
 10
167.6531182834895
 20
517.89927072058322
 30
0.0
 11
204.10178828348961
 21
517.89927072058322
 31
0.0
  0
LINE
  5
4DE1
  8
AM_0
 10
167.6531182834895
 20
510.42930072058311
 30
0.0
 11
204.10178828348961
 21
510.42930072058311
 31
0.0
  0
LINE
  5
4DE2
  8
AM_0
 10
202.82181828348951
 20
510.15928072058318
 30
0.0
 11
168.74308828348961
 21
510.15928072058318
 31
0.0
  0
LINE
  5
4DE3
  8
AM_0
 10
202.82181828348951
 20
508.1592807205833
 30
0.0
 11
168.74308828348961
 21
508.1592807205833
 31
0.0
  0
LINE
  5
4DE4
  8
AM_0
 10
167.6531182834895
 20
507.8892607205832
 30
0.0
 11
204.10178828348961
 21
507.8892607205832
 31
0.0
  0
LINE
  5
4DE5
  8
AM_0
 10
167.71311828348951
 20
500.47922072058333
 30
0.0
 11
204.04178828348969
 21
500.47922072058333
 31
0.0
  0
LINE
  5
4DE6
  8
AM_0
 10
202.82181828348951
 20
500.1592807205833
 30
0.0
 11
168.74308828348961
 21
500.1592807205833
 31
0.0
  0
LINE
  5
4DE7
  8
AM_0
 10
202.82181828348951
 20
498.15928072058313
 30
0.0
 11
168.74308828348961
 21
498.15928072058313
 31
0.0
  0
LINE
  5
4DE8
  8
AM_0
 10
167.71311828348951
 20
497.81931072058308
 30
0.0
 11
204.05436828348951
 21
497.81931072058308
 31
0.0
  0
LINE
  5
4DE9
  8
AM_0
 10
267.71592828348969
 20
490.15928072058313
 30
0.0
 11
168.74308828348961
 21
490.15928072058313
 31
0.0
  0
LINE
  5
4DEA
  8
AM_0
 10
167.8431182834895
 20
490.59922072058328
 30
0.0
 11
271.41733828348958
 21
490.59922072058328
 31
0.0
  0
LINE
  5
4DEB
  8
AM_0
 10
235.38309828348969
 20
488.1592807205833
 30
0.0
 11
168.74308828348961
 21
488.1592807205833
 31
0.0
  0
LINE
  5
4DEC
  8
AM_0
 10
167.8431182834895
 20
487.66929072058321
 30
0.0
 11
235.38309828348969
 21
487.66929072058321
 31
0.0
  0
LINE
  5
4DED
  8
AM_0
 10
267.72312828348947
 20
480.15928072058318
 30
0.0
 11
223.38309828348949
 21
480.15928072058318
 31
0.0
  0
LINE
  5
4DEE
  8
AM_0
 10
267.72312828348947
 20
478.15928072058313
 30
0.0
 11
223.38309828348949
 21
478.15928072058313
 31
0.0
  0
LINE
  5
4DEF
  8
AM_0
 10
168.06308828348969
 20
477.43931072058308
 30
0.0
 11
223.38309828348949
 21
477.43931072058308
 31
0.0
  0
LINE
  5
4DF0
  8
AM_0
 10
271.20310828348943
 20
480.78928072058301
 30
0.0
 11
253.36313828348949
 21
480.78928072058301
 31
0.0
  0
LINE
  5
4DF1
  8
AM_0
 10
154.58310828348939
 20
478.46933072058317
 30
0.0
 11
156.6830882834895
 21
478.46933072058317
 31
0.0
  0
LINE
  5
4DF2
  8
AM_0
 10
154.19315828348931
 20
478.54932072058301
 30
0.0
 11
152.99314828348969
 21
479.069340720583
 31
0.0
  0
LINE
  5
4DF3
  8
AM_0
 10
154.53312828348959
 20
480.41929072058298
 30
0.0
 11
156.38309828348969
 21
480.41929072058298
 31
0.0
  0
LINE
  5
4DF4
  8
AM_0
 10
154.2430882834897
 20
480.45926072058307
 30
0.0
 11
153.0931182834897
 21
480.81928072058309
 31
0.0
  0
LINE
  5
4DF5
  8
AM_0
 10
156.38309828348969
 20
488.1592807205833
 30
0.0
 11
153.38309828348969
 21
488.1592807205833
 31
0.0
  0
LINE
  5
4DF6
  8
AM_0
 10
156.38309828348969
 20
490.15928072058313
 30
0.0
 11
153.38309828348969
 21
490.15928072058313
 31
0.0
  0
LINE
  5
4DF7
  8
AM_0
 10
156.38309828348969
 20
498.15928072058313
 30
0.0
 11
153.38309828348969
 21
498.15928072058313
 31
0.0
  0
LINE
  5
4DF8
  8
AM_0
 10
156.38309828348969
 20
500.1592807205833
 30
0.0
 11
153.38309828348969
 21
500.1592807205833
 31
0.0
  0
LINE
  5
4DF9
  8
AM_0
 10
156.38309828348969
 20
508.1592807205833
 30
0.0
 11
153.38309828348969
 21
508.1592807205833
 31
0.0
  0
LINE
  5
4DFA
  8
AM_0
 10
156.38309828348969
 20
510.15928072058318
 30
0.0
 11
153.38309828348969
 21
510.15928072058318
 31
0.0
  0
LINE
  5
4DFB
  8
AM_0
 10
154.38309828348969
 20
498.5492907205832
 30
0.0
 11
154.38309828348969
 21
499.76926072058319
 31
0.0
  0
LINE
  5
4DFC
  8
AM_0
 10
154.38309828348969
 20
508.54929072058309
 30
0.0
 11
154.38309828348969
 21
509.70932072058332
 31
0.0
  0
LINE
  5
4DFD
  8
AM_0
 10
154.38309828348969
 20
488.52927072058333
 30
0.0
 11
154.38309828348969
 21
489.89927072058327
 31
0.0
  0
LINE
  5
4DFE
  8
AM_0
 10
154.38309828348969
 20
478.76926072058308
 30
0.0
 11
154.38309828348969
 21
479.82932072058333
 31
0.0
  0
LINE
  5
4DFF
  8
AM_0
 10
150.88309828348969
 20
494.15928072058313
 30
0.0
 11
150.88309828348969
 21
514.1592807205833
 31
0.0
  0
LINE
  5
4E00
  8
AM_0
 10
150.88309828348969
 20
494.15925072058309
 30
0.0
 11
152.38309828348969
 21
494.02924072058318
 31
0.0
  0
LINE
  5
4E01
  8
AM_0
 10
150.88309828348969
 20
499.009250720583
 30
0.0
 11
152.38309828348969
 21
499.009250720583
 31
0.0
  0
LINE
  5
4E02
  8
AM_0
 10
150.88309828348969
 20
496.87925072058312
 30
0.0
 11
152.38309828348969
 21
496.87925072058312
 31
0.0
  0
LINE
  5
4E03
  8
AM_0
 10
168.06308828348969
 20
480.78928072058301
 30
0.0
 11
235.4031182834897
 21
480.78928072058301
 31
0.0
  0
LINE
  5
4E04
  8
AM_0
 10
223.38309828348949
 20
480.15928072058318
 30
0.0
 11
168.74308828348961
 21
480.15928072058318
 31
0.0
  0
LINE
  5
4E05
  8
AM_0
 10
223.38309828348949
 20
478.15928072058313
 30
0.0
 11
168.74308828348961
 21
478.15928072058313
 31
0.0
  0
LINE
  5
4E06
  8
AM_0
 10
223.38309828348949
 20
477.43931072058308
 30
0.0
 11
271.20310828348943
 21
477.43931072058308
 31
0.0
  0
LINE
  5
4E07
  8
AM_0
 10
158.38309828348969
 20
567.1592807205833
 30
0.0
 11
158.38309828348969
 21
461.15928072058301
 31
0.0
  0
LINE
  5
4E08
  8
AM_0
 10
166.3830982834896
 20
567.1592807205833
 30
0.0
 11
166.3830982834896
 21
461.15928072058301
 31
0.0
  0
LINE
  5
4E09
  8
AM_0
 10
152.87308828348969
 20
473.05927072058307
 30
0.0
 11
152.85306828348951
 21
473.06925072058311
 31
0.0
  0
LINE
  5
4E0A
  8
AM_0
 10
157.38309828348969
 20
564.1592807205833
 30
0.0
 11
157.38309828348969
 21
464.15928072058313
 31
0.0
  0
LINE
  5
4E0B
  8
AM_0
 10
157.38309828348969
 20
564.1592807205833
 30
0.0
 11
158.38309828348969
 21
564.1592807205833
 31
0.0
  0
LINE
  5
4E0C
  8
AM_0
 10
158.38309828348969
 20
567.1592807205833
 30
0.0
 11
166.3830982834896
 21
567.1592807205833
 31
0.0
  0
LINE
  5
4E0D
  8
AM_0
 10
159.08310828348931
 20
557.34922072058305
 30
0.0
 11
165.3130882834898
 21
557.34922072058305
 31
0.0
  0
LINE
  5
4E0E
  8
AM_0
 10
274.38309828348952
 20
560.15928072058318
 30
0.0
 11
282.38309828348952
 21
560.15928072058318
 31
0.0
  0
LINE
  5
4E0F
  8
AM_0
 10
274.38309828348952
 20
546.09922072058328
 30
0.0
 11
282.38309828348952
 21
546.09922072058328
 31
0.0
  0
LINE
  5
4E10
  8
AM_0
 10
274.38309828348952
 20
570.1592807205833
 30
0.0
 11
282.38309828348952
 21
570.1592807205833
 31
0.0
  0
LINE
  5
4E11
  8
AM_0
 10
169.5931182834895
 20
570.43931072058331
 30
0.0
 11
266.51310828348937
 21
570.43931072058331
 31
0.0
  0
LINE
  5
4E12
  8
AM_0
 10
166.3830982834896
 20
562.25934072058305
 30
0.0
 11
167.62308828348961
 21
568.81934072058323
 31
0.0
  0
LINE
  5
4E13
  8
AM_0
 10
171.74314828348949
 20
550.80930072058322
 30
0.0
 11
166.38315828348951
 21
562.25928072058309
 31
0.0
  0
LINE
  5
4E14
  8
AM_0
 10
171.74308828348961
 20
477.50925072058311
 30
0.0
 11
166.38315828348951
 21
466.06934072058311
 31
0.0
  0
LINE
  5
4E15
  8
AM_0
 10
169.63309828348949
 20
573.28928072058295
 30
0.0
 11
266.51310828348937
 21
573.28928072058295
 31
0.0
  0
LINE
  5
4E16
  8
AM_0
 10
169.6531182834895
 20
575.13926072058337
 30
0.0
 11
266.51310828348937
 21
575.13926072058337
 31
0.0
  0
LINE
  5
4E17
  8
AM_0
 10
169.67313828348941
 20
576.04929072058337
 30
0.0
 11
266.51316828348962
 21
576.04929072058337
 31
0.0
  0
LINE
  5
4E18
  8
AM_0
 10
166.38315828348951
 20
563.59931072058316
 30
0.0
 11
167.66312828348961
 21
571.60926072058317
 31
0.0
  0
LINE
  5
4E19
  8
AM_0
 10
166.38315828348951
 20
564.94925072058311
 30
0.0
 11
167.67313828348941
 21
573.43934072058323
 31
0.0
  0
LINE
  5
4E1A
  8
AM_0
 10
166.3830982834896
 20
564.94928072058315
 30
0.0
 11
167.69309828348941
 21
574.32932072058315
 31
0.0
  0
LINE
  5
4E1B
  8
AM_0
 10
272.58316828348973
 20
553.49924072058332
 30
0.0
 11
268.44315828348948
 21
568.9592607205833
 31
0.0
  0
LINE
  5
4E1C
  8
AM_0
 10
268.92313828348961
 20
567.1592807205833
 30
0.0
 11
274.38309828348952
 21
567.1592807205833
 31
0.0
  0
LINE
  5
4E1D
  8
AM_0
 10
152.38309828348969
 20
466.1392607205832
 30
0.0
 11
152.38309828348969
 21
509.15928072058341
 31
0.0
  0
LINE
  5
4E1E
  8
AM_0
 10
154.6531182834895
 20
464.40928072058313
 30
0.0
 11
156.8830982834896
 21
464.40928072058313
 31
0.0
  0
LINE
  5
4E1F
  8
AM_0
 10
154.1531182834895
 20
464.5492907205832
 30
0.0
 11
152.88315828348951
 21
465.27927072058321
 31
0.0
  0
LINE
  5
4E20
  8
AM_0
 10
154.1431682834895
 20
466.65928072058313
 30
0.0
 11
152.86313828348969
 21
467.42930072058311
 31
0.0
  0
LINE
  5
4E21
  8
AM_0
 10
154.1330382834897
 20
471.19925072058311
 30
0.0
 11
152.83304828348949
 21
472.04926072058311
 31
0.0
  0
LINE
  5
4E22
  8
AM_0
 10
154.66312828348961
 20
466.51926072058308
 30
0.0
 11
157.38309828348969
 21
466.51926072058308
 31
0.0
  0
LINE
  5
4E23
  8
AM_0
 10
154.6831482834894
 20
471.03928072058312
 30
0.0
 11
157.38309828348969
 21
471.03928072058312
 31
0.0
  0
LINE
  5
4E24
  8
AM_0
 10
154.6531182834895
 20
472.17930072058329
 30
0.0
 11
156.38309828348969
 21
472.17930072058329
 31
0.0
  0
LINE
  5
4E25
  8
AM_0
 10
154.63309828348949
 20
467.65928072058313
 30
0.0
 11
156.38309828348969
 21
467.65928072058313
 31
0.0
  0
LINE
  5
4E26
  8
AM_0
 10
154.62308828348969
 20
465.55930072058322
 30
0.0
 11
156.8830982834896
 21
465.55930072058322
 31
0.0
  0
LINE
  5
4E27
  8
AM_0
 10
154.1531182834895
 20
472.30933072058309
 30
0.0
 11
152.87314828348971
 21
473.05930072058322
 31
0.0
  0
LINE
  5
4E28
  8
AM_0
 10
154.17307828348959
 20
465.66926072058311
 30
0.0
 11
152.93308828348981
 21
466.29926072058311
 31
0.0
  0
LINE
  5
4E29
  8
AM_0
 10
154.16312828348961
 20
467.7792707205831
 30
0.0
 11
152.91312828348961
 21
468.43927072058312
 31
0.0
  0
LINE
  5
4E2A
  8
AM_0
 10
154.38309828348969
 20
471.32932072058333
 30
0.0
 11
154.38309828348969
 21
471.79929072058309
 31
0.0
  0
LINE
  5
4E2B
  8
AM_0
 10
154.38309828348969
 20
466.75925072058311
 30
0.0
 11
154.38309828348969
 21
467.30930072058322
 31
0.0
  0
LINE
  5
4E2C
  8
AM_0
 10
154.38309828348969
 20
464.65928072058313
 30
0.0
 11
154.38309828348969
 21
465.18931072058319
 31
0.0
  0
LINE
  5
4E2D
  8
AM_0
 10
157.38309828348969
 20
464.15928072058313
 30
0.0
 11
158.38309828348969
 21
464.15928072058313
 31
0.0
  0
LINE
  5
4E2E
  8
AM_0
 10
158.38309828348969
 20
461.15928072058301
 30
0.0
 11
166.3830982834896
 21
461.15928072058301
 31
0.0
  0
LINE
  5
4E2F
  8
AM_0
 10
159.08310828348931
 20
470.96933072058317
 30
0.0
 11
165.3130882834898
 21
470.96933072058317
 31
0.0
  0
LINE
  5
4E30
  8
AM_0
 10
274.38309828348952
 20
468.15928072058313
 30
0.0
 11
282.38309828348952
 21
468.15928072058313
 31
0.0
  0
LINE
  5
4E31
  8
AM_0
 10
274.38309828348952
 20
458.15928072058313
 30
0.0
 11
282.38309828348952
 21
458.15928072058313
 31
0.0
  0
LINE
  5
4E32
  8
AM_0
 10
169.5931182834895
 20
457.87925072058312
 30
0.0
 11
266.51310828348937
 21
457.87925072058312
 31
0.0
  0
LINE
  5
4E33
  8
AM_0
 10
166.3830982834896
 20
466.06925072058323
 30
0.0
 11
167.62314828348951
 21
459.50925072058322
 31
0.0
  0
LINE
  5
4E34
  8
AM_0
 10
169.2893482834896
 20
455.02927072058333
 30
0.0
 11
191.7812282834895
 21
455.02927072058333
 31
0.0
  0
LINE
  5
4E35
  8
AM_0
 10
166.3830982834896
 20
464.71924072058317
 30
0.0
 11
167.66312828348961
 21
456.71933072058312
 31
0.0
  0
LINE
  5
4E36
  8
AM_0
 10
166.3830982834896
 20
463.37934072058312
 30
0.0
 11
167.39237828348951
 21
456.7291607205832
 31
0.0
  0
LINE
  5
4E37
  8
AM_0
 10
166.38315828348951
 20
463.37931072058308
 30
0.0
 11
167.30857828348951
 21
456.75272072058323
 31
0.0
  0
LINE
  5
4E38
  8
AM_0
 10
272.58881828348962
 20
474.84043072058319
 30
0.0
 11
268.44309828348952
 21
459.3592907205832
 31
0.0
  0
LINE
  5
4E39
  8
AM_0
 10
268.92514828348948
 20
461.15928072058301
 30
0.0
 11
274.38309828348952
 21
461.15928072058301
 31
0.0
  0
LINE
  5
4E3A
  8
AM_0
 10
274.38309828348952
 20
482.219330720583
 30
0.0
 11
282.38309828348952
 21
482.219330720583
 31
0.0
  0
LINE
  5
4E3B
  8
AM_0
 10
273.38309828348952
 20
461.15928072058301
 30
0.0
 11
267.65735828348937
 21
452.34238072058332
 31
0.0
  0
LINE
  5
4E3C
  8
AM_0
 10
254.8967082834896
 20
451.65928072058313
 30
0.0
 11
266.39933828348961
 21
451.65928072058313
 31
0.0
  0
LINE
  5
4E3D
  8
AM_0
 10
252.3631382834896
 20
541.6592807205833
 30
0.0
 11
252.3631382834896
 21
546.51926072058325
 31
0.0
  0
LINE
  5
4E3E
  8
AM_0
 10
236.40311828348959
 20
541.6592807205833
 30
0.0
 11
236.40311828348959
 21
546.51926072058325
 31
0.0
  0
LINE
  5
4E3F
  8
AM_0
 10
251.88309828348969
 20
541.6592807205833
 30
0.0
 11
251.88309828348969
 21
546.6592807205833
 31
0.0
  0
LINE
  5
4E40
  8
AM_0
 10
236.88309828348949
 20
541.6592807205833
 30
0.0
 11
236.88309828348949
 21
546.6592807205833
 31
0.0
  0
LINE
  5
4E41
  8
AM_0
 10
208.3830982834896
 20
527.15928072058318
 30
0.0
 11
271.38309828348952
 21
527.15928072058318
 31
0.0
  0
LINE
  5
4E42
  8
AM_0
 10
208.3830982834896
 20
493.65928072058318
 30
0.0
 11
271.38309828348952
 21
493.65928072058318
 31
0.0
  0
LINE
  5
4E43
  8
AM_0
 10
208.3830982834896
 20
534.6592807205833
 30
0.0
 11
271.38309828348952
 21
534.6592807205833
 31
0.0
  0
LINE
  5
4E44
  8
AM_0
 10
271.38309828348952
 20
534.6592807205833
 30
0.0
 11
271.38309828348952
 21
493.65928072058318
 31
0.0
  0
LINE
  5
4E45
  8
AM_0
 10
208.3830982834896
 20
534.6592807205833
 30
0.0
 11
208.3830982834896
 21
493.65928072058318
 31
0.0
  0
LINE
  5
4E46
  8
AM_0
 10
253.38309828348949
 20
540.64927072058322
 30
0.0
 11
271.42881828348948
 21
540.64927072058322
 31
0.0
  0
LINE
  5
4E47
  8
AM_0
 10
253.38309828348949
 20
487.67930072058311
 30
0.0
 11
271.41733828348958
 21
487.67930072058311
 31
0.0
  0
LINE
  5
4E48
  8
AM_0
 10
252.3631382834896
 20
486.65928072058313
 30
0.0
 11
252.3631382834896
 21
481.7992907205832
 31
0.0
  0
LINE
  5
4E49
  8
AM_0
 10
236.40311828348959
 20
486.65928072058313
 30
0.0
 11
236.40311828348959
 21
481.7992907205832
 31
0.0
  0
LINE
  5
4E4A
  8
AM_0
 10
251.88309828348969
 20
486.65928072058313
 30
0.0
 11
251.88309828348969
 21
481.65928072058313
 31
0.0
  0
LINE
  5
4E4B
  8
AM_0
 10
236.88309828348949
 20
486.65928072058313
 30
0.0
 11
236.88309828348949
 21
481.65928072058313
 31
0.0
  0
LINE
  5
4E4C
  8
AM_0
 10
267.71592828348969
 20
488.1592807205833
 30
0.0
 11
253.38309828348949
 21
488.1592807205833
 31
0.0
  0
LINE
  5
4E4D
  8
AM_0
 10
267.73026828348981
 20
540.15928072058307
 30
0.0
 11
253.38309828348949
 21
540.15928072058307
 31
0.0
  0
LINE
  5
4E4E
  8
AM_0
 10
253.36313828348949
 20
547.51926072058325
 30
0.0
 11
271.20310828348943
 21
547.51926072058325
 31
0.0
  0
ARC
  5
4E51
  8
AM_0
 10
374.38309828348952
 20
514.1592807205833
 30
0.0
 40
3.0
 50
89.986013999999244
 51
131.8108273668521
  0
ARC
  5
4E52
  8
AM_0
 10
374.38309828348952
 20
514.1592807205833
 30
0.0
 40
3.0
 50
228.18917263315009
 51
270.01398999999998
  0
ARC
  5
4E8C
  8
AM_0
 10
274.03629828348937
 20
559.49204072058296
 30
0.0
 40
1.502775999999999
 50
194.75642999999971
 51
269.87757999999872
  0
ARC
  5
4E8D
  8
AM_0
 10
274.03629828348937
 20
558.58201072058296
 30
0.0
 40
1.502775999999999
 50
194.75642999999971
 51
269.87757999999872
  0
ARC
  5
4E8E
  8
AM_0
 10
274.03629828348937
 20
556.73203072058334
 30
0.0
 40
1.502775999999999
 50
194.75642999999971
 51
269.87757999999872
  0
ARC
  5
4E8F
  8
AM_0
 10
266.50827828348969
 20
574.04453072058288
 30
0.0
 40
2.0047290000000002
 50
15.173495999999471
 51
89.861678000000197
  0
ARC
  5
4E90
  8
AM_0
 10
266.50827828348969
 20
573.13450072058276
 30
0.0
 40
2.0047290000000002
 50
15.173495999999471
 51
89.861678000000197
  0
ARC
  5
4E91
  8
AM_0
 10
266.50827828348969
 20
571.28452072058315
 30
0.0
 40
2.0047290000000002
 50
15.173495999999471
 51
89.861678000000197
  0
ARC
  5
4E92
  8
AM_0
 10
274.03629828348937
 20
474.43650072058313
 30
0.0
 40
1.502775999999999
 50
90.122413000001615
 51
165.2435700000002
  0
ARC
  5
4E93
  8
AM_0
 10
153.3763282834895
 20
562.17722072058325
 30
0.0
 40
0.99319202
 50
119.77338000000169
 51
179.87959000000129
  0
ARC
  5
4E94
  8
AM_0
 10
153.37870828348969
 20
561.13901072058331
 30
0.0
 40
0.995579
 50
116.5870900000007
 51
179.98263999999989
  0
ARC
  5
4E95
  8
AM_0
 10
154.6451282834895
 20
562.91343072058305
 30
0.0
 40
0.9959030199999999
 50
89.541266999999124
 51
119.6071699999994
  0
ARC
  5
4E96
  8
AM_0
 10
154.6078882834895
 20
561.76523072058308
 30
0.0
 40
0.99411702
 50
89.122643999998516
 51
115.9349799999988
  0
ARC
  5
4E97
  8
AM_0
 10
154.65195828348931
 20
560.80503072058332
 30
0.0
 40
0.99427301
 50
89.356066000000013
 51
120.7809100000017
  0
ARC
  5
4E98
  8
AM_0
 10
154.61820828348951
 20
559.66391072058332
 30
0.0
 40
0.99545902
 50
89.141290999999924
 51
117.2038199999995
  0
ARC
  5
4E99
  8
AM_0
 10
154.68973828348959
 20
556.29306072058307
 30
0.0
 40
0.99617702
 50
90.381317999999226
 51
123.9704899999999
  0
ARC
  5
4E9A
  8
AM_0
 10
154.6625182834895
 20
555.15281072058315
 30
0.0
 40
0.99648702
 50
90.540720999998641
 51
120.74377000000059
  0
ARC
  5
4E9B
  8
AM_0
 10
153.37717828348951
 20
554.40244072058317
 30
0.0
 40
0.99404597
 50
120.4681999999988
 51
180.18564000000021
  0
ARC
  5
4E9C
  8
AM_0
 10
153.37790828348949
 20
555.43686072058324
 30
0.0
 40
0.9948369899999999
 50
123.20496000000099
 51
180.43786000000131
  0
ARC
  5
4E9D
  8
AM_0
 10
153.3763282834895
 20
559.00071072058324
 30
0.0
 40
0.9932109699999999
 50
117.79932000000061
 51
180.08187000000001
  0
ARC
  5
4E9E
  8
AM_0
 10
153.37754828348929
 20
560.03830072058315
 30
0.0
 40
0.9944329899999999
 50
121.1521299999998
 51
179.94050999999911
  0
ARC
  5
4E9F
  8
AM_0
 10
154.5840882834899
 20
548.85386072058338
 30
0.0
 40
0.9954450099999999
 50
90.056904999999645
 51
113.1274500000013
  0
ARC
  5
4EA0
  8
AM_0
 10
154.52225828348941
 20
546.90659072058315
 30
0.0
 40
0.9927430199999999
 50
89.374554999998736
 51
106.3320700000007
  0
ARC
  5
4EA1
  8
AM_0
 10
153.37937828348959
 20
546.55503072058298
 30
0.0
 40
0.9962710099999999
 50
106.6979199999999
 51
180.33004999999989
  0
ARC
  5
4EA2
  8
AM_0
 10
153.37949828348971
 20
548.34079072058307
 30
0.0
 40
0.9963999999999998
 50
112.8173600000008
 51
180.0904199999996
  0
ARC
  5
4EA3
  8
AM_0
 10
153.3782182834895
 20
539.16416072058325
 30
0.0
 40
0.99507803
 50
89.715887000001331
 51
180.28410999999991
  0
ARC
  5
4EA4
  8
AM_0
 10
153.38334828348951
 20
539.15952072058315
 30
0.0
 40
1.000203
 50
180.01164999999889
 51
269.98835000000122
  0
ARC
  5
4EA5
  8
AM_0
 10
153.3782182834895
 20
529.16416072058325
 30
0.0
 40
0.99508202
 50
89.716099000001435
 51
180.2839100000011
  0
ARC
  5
4EA6
  8
AM_0
 10
153.38334828348951
 20
529.15952072058315
 30
0.0
 40
1.0001999999999991
 50
180.01142999999831
 51
269.98856999999839
  0
ARC
  5
4EA7
  8
AM_0
 10
153.3782182834895
 20
519.16416072058325
 30
0.0
 40
0.9950849999999999
 50
89.716311000000914
 51
180.2836899999995
  0
ARC
  5
4EA8
  8
AM_0
 10
153.38334828348951
 20
519.15952072058337
 30
0.0
 40
1.0001959999999981
 50
180.0112199999991
 51
269.98878000000087
  0
ARC
  5
4EA9
  8
AM_0
 10
156.38327828348929
 20
517.15940072058322
 30
0.0
 40
0.9998249999999999
 50
359.98994999999883
 51
90.010050000001243
  0
ARC
  5
4EAA
  8
AM_0
 10
156.3781582834896
 20
521.16416072058325
 30
0.0
 40
1.0049469
 50
270.28135000000037
 51
359.71866000000068
  0
ARC
  5
4EAB
  8
AM_0
 10
156.38327828348929
 20
527.15940072058322
 30
0.0
 40
0.9998210099999999
 50
359.98975000000149
 51
90.010254999998992
  0
ARC
  5
4EAC
  8
AM_0
 10
156.3781582834896
 20
531.16416072058325
 30
0.0
 40
1.004939
 50
270.2809100000008
 51
359.71909999999991
  0
ARC
  5
4EAD
  8
AM_0
 10
156.38327828348929
 20
537.15940072058322
 30
0.0
 40
0.9998289899999999
 50
359.99019000000038
 51
90.009811000000937
  0
ARC
  5
4EAE
  8
AM_0
 10
156.3781582834896
 20
541.16416072058325
 30
0.0
 40
1.004942999999999
 50
270.28111000000013
 51
359.71888999999987
  0
ARC
  5
4EAF
  8
AM_0
 10
156.38480828348969
 20
546.90097072058325
 30
0.0
 40
0.9982839799999999
 50
359.90142000000009
 51
90.098576000001358
  0
ARC
  5
4EB0
  8
AM_0
 10
156.38077828348941
 20
555.14695072058305
 30
0.0
 40
1.002353
 50
0.1343268199984526
 51
89.865672999999376
  0
ARC
  5
4EB1
  8
AM_0
 10
156.6785682834894
 20
550.55381072058321
 30
0.0
 40
0.704566
 50
270.37010000000009
 51
359.62991000000108
  0
ARC
  5
4EB2
  8
AM_0
 10
156.3840782834892
 20
559.66025072058335
 30
0.0
 40
0.9990100299999999
 50
359.94319000000121
 51
90.056809000000058
  0
ARC
  5
4EB3
  8
AM_0
 10
156.8848082834896
 20
562.26096072058317
 30
0.0
 40
0.4983060100000002
 50
359.80489000000108
 51
90.195107000000036
  0
ARC
  5
4EB4
  8
AM_0
 10
156.87851828348971
 20
564.41391072058298
 30
0.0
 40
0.50463498
 50
270.52383000000037
 51
359.47616999999963
  0
ARC
  5
4EB5
  8
AM_0
 10
168.92771828348961
 20
479.15928072058313
 30
0.0
 40
1.000013899999999
 50
89.691659999999231
 51
270.30834000000078
  0
ARC
  5
4EB6
  8
AM_0
 10
271.20310828348943
 20
549.20432072058304
 30
0.0
 40
1.6750020000000001
 50
269.999989999999
 51
90.000003000000945
  0
ARC
  5
4EB7
  8
AM_0
 10
267.72312828348947
 20
549.15928072058296
 30
0.0
 40
1.0
 50
269.999989999999
 51
90.000003000000945
  0
ARC
  5
4EB8
  8
AM_0
 10
267.72312828348947
 20
479.15928072058313
 30
0.0
 40
1.0
 50
269.999989999999
 51
90.000003000000945
  0
ARC
  5
4EB9
  8
AM_0
 10
271.20310828348943
 20
479.11423072058318
 30
0.0
 40
1.6750020000000001
 50
269.999989999999
 51
90.000003000000945
  0
ARC
  5
4EBA
  8
AM_0
 10
156.3797382834895
 20
481.4225807205832
 30
0.0
 40
1.003352
 50
270.19111000000021
 51
359.80890000000107
  0
ARC
  5
4EBB
  8
AM_0
 10
156.3781582834896
 20
491.16416072058291
 30
0.0
 40
1.0049469
 50
270.28136999999919
 51
359.71863000000081
  0
ARC
  5
4EBC
  8
AM_0
 10
156.38327828348929
 20
487.15940072058311
 30
0.0
 40
0.9998239899999999
 50
359.98991999999851
 51
90.01007700000045
  0
ARC
  5
4EBD
  8
AM_0
 10
156.6836382834897
 20
477.76987072058313
 30
0.0
 40
0.6994530000000001
 50
359.95517000000092
 51
90.044829000000746
  0
ARC
  5
4EBE
  8
AM_0
 10
154.58609828348941
 20
479.47446072058312
 30
0.0
 40
1.005233
 50
246.98639000000031
 51
269.82924999999938
  0
ARC
  5
4EBF
  8
AM_0
 10
154.5236682834894
 20
481.42197072058332
 30
0.0
 40
1.002699
 50
253.75271999999791
 51
270.54064000000108
  0
ARC
  5
4EC0
  8
AM_0
 10
153.37949828348971
 20
481.77366072058311
 30
0.0
 40
0.99638802
 50
180.24990999999889
 51
253.29664000000031
  0
ARC
  5
4EC1
  8
AM_0
 10
153.37961828348969
 20
479.98777072058323
 30
0.0
 40
0.9965090199999998
 50
179.91374999999979
 51
247.17844999999909
  0
ARC
  5
4EC2
  8
AM_0
 10
153.38334828348951
 20
489.15952072058292
 30
0.0
 40
1.0001959999999981
 50
180.01124999999939
 51
269.98875000000061
  0
ARC
  5
4EC3
  8
AM_0
 10
153.3782182834895
 20
489.16416072058308
 30
0.0
 40
0.9950849999999999
 50
89.716282999999422
 51
180.28371999999919
  0
ARC
  5
4EC4
  8
AM_0
 10
153.38334828348951
 20
499.1595207205832
 30
0.0
 40
1.0001999999999991
 50
180.01145999999861
 51
269.98854000000142
  0
ARC
  5
4EC5
  8
AM_0
 10
153.3782182834895
 20
499.16416072058308
 30
0.0
 40
0.9950810099999999
 50
89.716072000000082
 51
180.28392000000119
  0
ARC
  5
4EC6
  8
AM_0
 10
153.38334828348951
 20
509.15952072058309
 30
0.0
 40
1.0002040000000001
 50
180.01166000000001
 51
269.98832000000078
  0
ARC
  5
4EC7
  8
AM_0
 10
153.3782182834895
 20
509.1641607205832
 30
0.0
 40
0.9950770099999999
 50
89.715859999999481
 51
180.28414000000049
  0
ARC
  5
4EC8
  8
AM_0
 10
156.3781582834896
 20
511.16416072058308
 30
0.0
 40
1.004942999999999
 50
270.28113999999943
 51
359.7188700000014
  0
ARC
  5
4EC9
  8
AM_0
 10
156.38327828348929
 20
507.15940072058299
 30
0.0
 40
0.9998279799999998
 50
359.99016000000029
 51
90.009838000000187
  0
ARC
  5
4ECA
  8
AM_0
 10
156.3781582834896
 20
501.1641607205832
 30
0.0
 40
1.004939
 50
270.2809399999997
 51
359.71907000000078
  0
ARC
  5
4ECB
  8
AM_0
 10
156.38327828348929
 20
497.15940072058311
 30
0.0
 40
0.9998210099999999
 50
359.98972000000123
 51
90.010282000001538
  0
ARC
  5
4ECC
  8
AM_0
 10
168.05570828348971
 20
549.20432072058304
 30
0.0
 40
1.6750160000000001
 50
89.746145000001235
 51
270.25387000000092
  0
ARC
  5
4ECD
  8
AM_0
 10
168.92771828348961
 20
549.15928072058296
 30
0.0
 40
1.000013899999999
 50
89.691659999999231
 51
270.30834000000078
  0
ARC
  5
4ECE
  8
AM_0
 10
168.92771828348961
 20
539.1592807205833
 30
0.0
 40
1.000013899999999
 50
89.691659999999231
 51
270.30834000000078
  0
ARC
  5
4ECF
  8
AM_0
 10
168.92771828348961
 20
529.1592807205833
 30
0.0
 40
1.000013899999999
 50
89.691659999999231
 51
270.30834000000078
  0
ARC
  5
4ED0
  8
AM_0
 10
168.92771828348961
 20
519.15928072058307
 30
0.0
 40
1.000013899999999
 50
89.691659999999231
 51
270.30834000000078
  0
ARC
  5
4ED1
  8
AM_0
 10
168.92771828348961
 20
509.15928072058341
 30
0.0
 40
1.000013899999999
 50
89.691659999999231
 51
270.30834000000078
  0
ARC
  5
4ED2
  8
AM_0
 10
168.92771828348961
 20
499.15928072058313
 30
0.0
 40
1.000013899999999
 50
89.691659999999231
 51
270.30834000000078
  0
ARC
  5
4ED3
  8
AM_0
 10
168.92771828348961
 20
489.15928072058318
 30
0.0
 40
1.000013899999999
 50
89.691659999999231
 51
270.30834000000078
  0
ARC
  5
4ED4
  8
AM_0
 10
167.8431182834895
 20
539.18430072058322
 30
0.0
 40
1.465004
 50
90.000003000000945
 51
270.0
  0
ARC
  5
4ED5
  8
AM_0
 10
167.71311828348951
 20
529.16929072058315
 30
0.0
 40
1.3300049999999981
 50
90.000003000000945
 51
270.0
  0
ARC
  5
4ED6
  8
AM_0
 10
167.64725828348941
 20
519.16428072058295
 30
0.0
 40
1.2650129999999991
 50
89.735578999998495
 51
270.2644099999992
  0
ARC
  5
4ED7
  8
AM_0
 10
167.64725828348941
 20
509.15928072058341
 30
0.0
 40
1.2700129999999981
 50
89.736617000001587
 51
270.26336999999921
  0
ARC
  5
4ED8
  8
AM_0
 10
167.71311828348951
 20
499.14927072058322
 30
0.0
 40
1.3300049999999981
 50
90.000003000000945
 51
270.0
  0
ARC
  5
4ED9
  8
AM_0
 10
167.8431182834895
 20
489.134250720583
 30
0.0
 40
1.465004
 50
90.000003000000945
 51
270.0
  0
ARC
  5
4EDA
  8
AM_0
 10
168.05625828348951
 20
479.11423072058318
 30
0.0
 40
1.675014
 50
89.766499000000024
 51
270.2335099999994
  0
ARC
  5
4EDB
  8
AM_0
 10
156.3798682834896
 20
473.18601072058311
 30
0.0
 40
1.0032760000000001
 50
334.19810000000189
 51
359.6181099999983
  0
ARC
  5
4EDC
  8
AM_0
 10
153.38157828348949
 20
473.91855072058308
 30
0.0
 40
0.9984580299999999
 50
179.95957999999851
 51
239.38657000000219
  0
ARC
  5
4EDD
  8
AM_0
 10
169.5818282834895
 20
568.44516072058332
 30
0.0
 40
1.994108999999999
 50
89.67554799999948
 51
169.18776999999901
  0
ARC
  5
4EDE
  8
AM_0
 10
169.63334828348951
 20
571.29404072058321
 30
0.0
 40
1.9952829999999959
 50
90.00620400000011
 51
170.90835000000069
  0
ARC
  5
4EDF
  8
AM_0
 10
169.64768828348949
 20
573.14255072058324
 30
0.0
 40
1.9967330000000001
 50
89.843966999998912
 51
171.45388000000071
  0
ARC
  5
4EE0
  8
AM_0
 10
169.66959828348951
 20
574.05368072058332
 30
0.0
 40
1.995633
 50
89.899707999998995
 51
172.06112999999939
  0
ARC
  5
4EE1
  8
AM_0
 10
266.51322828348952
 20
568.44101072058334
 30
0.0
 40
1.9982919999999991
 50
15.03254799999914
 51
90.002632000001341
  0
ARC
  5
4EE2
  8
AM_0
 10
274.03629828348937
 20
553.88205072058315
 30
0.0
 40
1.502775999999999
 50
194.75642999999971
 51
269.87757999999872
  0
ARC
  5
4EE3
  8
AM_0
 10
266.50827828348969
 20
459.88401072058298
 30
0.0
 40
2.0047290000000002
 50
270.13832000000087
 51
344.82649999999882
  0
ARC
  5
4EE4
  8
AM_0
 10
153.3807182834897
 20
466.14389072058322
 30
0.0
 40
0.9976310099999999
 50
180.2678099999986
 51
240.0792399999994
  0
ARC
  5
4EE5
  8
AM_0
 10
153.3788282834895
 20
467.18967072058308
 30
0.0
 40
0.9956849800000001
 50
180.02113
 51
243.4091400000006
  0
ARC
  5
4EE6
  8
AM_0
 10
154.66379828348931
 20
465.41037072058322
 30
0.0
 40
1.001123999999999
 50
239.32781999999969
 51
269.38767999999868
  0
ARC
  5
4EE7
  8
AM_0
 10
154.62894828348931
 20
466.55857072058308
 30
0.0
 40
0.9993420200000001
 50
242.86200000000079
 51
269.6654599999984
  0
ARC
  5
4EE8
  8
AM_0
 10
154.65451828348969
 20
467.5229207205831
 30
0.0
 40
1.0037439999999991
 50
239.3711300000019
 51
270.49190000000061
  0
ARC
  5
4EE9
  8
AM_0
 10
154.63828828348949
 20
468.65989072058318
 30
0.0
 40
1.0006820000000001
 50
241.65062000000049
 51
269.70392999999888
  0
ARC
  5
4EEA
  8
AM_0
 10
154.6758882834896
 20
472.03977072058308
 30
0.0
 40
1.000521999999999
 50
237.1461799999995
 51
270.41344000000038
  0
ARC
  5
4EEB
  8
AM_0
 10
154.64646828348961
 20
473.18027072058322
 30
0.0
 40
1.0010449999999991
 50
240.4718699999996
 51
270.37970999999948
  0
ARC
  5
4EEC
  8
AM_0
 10
153.38157828348949
 20
473.91855072058308
 30
0.0
 40
0.9984580299999999
 50
179.95957999999851
 51
239.38657000000219
  0
ARC
  5
4EED
  8
AM_0
 10
153.38218828348931
 20
472.88401072058321
 30
0.0
 40
0.9990889999999998
 50
179.69508999999971
 51
236.66209000000109
  0
ARC
  5
4EEE
  8
AM_0
 10
153.38083828348931
 20
469.32053072058318
 30
0.0
 40
0.9977070099999998
 50
180.07402000000079
 51
242.04481000000081
  0
ARC
  5
4EEF
  8
AM_0
 10
153.38187828348961
 20
468.2828107205832
 30
0.0
 40
0.9987969999999998
 50
179.62728000000101
 51
238.70795000000021
  0
ARC
  5
4EF0
  8
AM_0
 10
156.38065828348931
 20
473.18174072058321
 30
0.0
 40
1.002470999999999
 50
270.14107000000013
 51
359.85892999999987
  0
ARC
  5
4EF1
  8
AM_0
 10
156.3790082834895
 20
468.66343072058322
 30
0.0
 40
1.004119999999999
 50
270.23460999999998
 51
359.76539000000008
  0
ARC
  5
4EF2
  8
AM_0
 10
156.8797382834895
 20
466.06272072058312
 30
0.0
 40
0.5033929900000002
 50
270.38491000000062
 51
359.61510000000141
  0
ARC
  5
4EF3
  8
AM_0
 10
156.88358828348959
 20
463.90976072058299
 30
0.0
 40
0.49952301
 50
359.9452300000014
 51
90.054773999999625
  0
ARC
  5
4EF4
  8
AM_0
 10
169.5879982834895
 20
459.87851072058322
 30
0.0
 40
1.9992490000000001
 50
190.643100000001
 51
270.14743000000129
  0
ARC
  5
4EF5
  8
AM_0
 10
169.63932828348959
 20
457.02964072058307
 30
0.0
 40
2.000420099999999
 50
188.9268200000011
 51
269.82270999999929
  0
ARC
  5
4EF6
  8
AM_0
 10
254.8967082834896
 20
450.15928072058313
 30
0.0
 40
1.5
 50
90.000003000000945
 51
178.50000000000051
  0
ARC
  5
4EF7
  8
AM_0
 10
266.39933828348961
 20
453.15928072058313
 30
0.0
 40
1.5
 50
269.999989999999
 51
326.99999999999892
  0
ARC
  5
4EF8
  8
AM_0
 10
169.36972828348959
 20
457.0292707205831
 30
0.0
 40
2.0
 50
188.6296200000007
 51
269.999989999999
  0
ARC
  5
4EF9
  8
AM_0
 10
169.2893482834896
 20
457.0292707205831
 30
0.0
 40
2.0
 50
187.95043999999999
 51
269.999989999999
  0
ARC
  5
4EFA
  8
AM_0
 10
191.7812282834895
 20
453.52927072058321
 30
0.0
 40
1.5
 50
1.5000026999989771
 51
90.000003000000945
  0
ARC
  5
4EFB
  8
AM_0
 10
202.82181828348951
 20
529.1592807205833
 30
0.0
 40
1.0000056999999991
 50
269.999989999999
 51
90.000003000000945
  0
ARC
  5
4EFC
  8
AM_0
 10
202.82181828348951
 20
519.15928072058307
 30
0.0
 40
1.0000056999999991
 50
269.999989999999
 51
90.000003000000945
  0
ARC
  5
4EFD
  8
AM_0
 10
202.82181828348951
 20
509.15928072058341
 30
0.0
 40
1.0000056999999991
 50
269.999989999999
 51
90.000003000000945
  0
ARC
  5
4EFE
  8
AM_0
 10
202.82181828348951
 20
499.15928072058313
 30
0.0
 40
1.0000056999999991
 50
269.999989999999
 51
90.000003000000945
  0
ARC
  5
4EFF
  8
AM_0
 10
253.38309828348949
 20
481.65928072058313
 30
0.0
 40
1.5
 50
179.999989999999
 51
270.0
  0
ARC
  5
4F00
  8
AM_0
 10
235.38309828348969
 20
481.65928072058313
 30
0.0
 40
1.5
 50
269.999989999999
 51
0.0000006832462478
  0
ARC
  5
4F01
  8
AM_0
 10
235.4031182834897
 20
481.7992907205832
 30
0.0
 40
1.0
 50
269.999989999999
 51
0.0000006832462478
  0
ARC
  5
4F02
  8
AM_0
 10
253.36313828348949
 20
481.7992907205832
 30
0.0
 40
1.0
 50
179.999989999999
 51
270.0
  0
CIRCLE
  5
4F03
  8
AM_0
 10
241.88309828348949
 20
542.6592807205833
 30
0.0
 40
1.1000000000000001
  0
CIRCLE
  5
4F04
  8
AM_0
 10
241.88309828348949
 20
542.6592807205833
 30
0.0
 40
1.149999999999999
  0
CIRCLE
  5
4F05
  8
AM_0
 10
246.8830982834894
 20
542.6592807205833
 30
0.0
 40
1.0
  0
ARC
  5
4F06
  8
AM_0
 10
235.38309828348969
 20
541.6592807205833
 30
0.0
 40
1.02
 50
269.999989999999
 51
0.0000006832429909
  0
ARC
  5
4F07
  8
AM_0
 10
253.38309828348949
 20
541.6592807205833
 30
0.0
 40
1.02
 50
179.999989999999
 51
270.0
  0
ARC
  5
4F08
  8
AM_0
 10
235.38309828348969
 20
541.6592807205833
 30
0.0
 40
1.5
 50
269.999989999999
 51
0.0000006832462478
  0
ARC
  5
4F09
  8
AM_0
 10
253.38309828348949
 20
541.6592807205833
 30
0.0
 40
1.5
 50
179.999989999999
 51
270.0
  0
CIRCLE
  5
4F0A
  8
AM_0
 10
246.8830982834894
 20
485.65928072058313
 30
0.0
 40
1.0
  0
CIRCLE
  5
4F0B
  8
AM_0
 10
241.88309828348949
 20
485.65928072058313
 30
0.0
 40
1.149999999999999
  0
CIRCLE
  5
4F0C
  8
AM_0
 10
241.88309828348949
 20
485.65928072058313
 30
0.0
 40
1.1000000000000001
  0
ARC
  5
4F0D
  8
AM_0
 10
235.38309828348969
 20
486.65928072058313
 30
0.0
 40
1.02
 50
0.0
 51
90.000003000000945
  0
ARC
  5
4F0E
  8
AM_0
 10
253.38309828348949
 20
486.65928072058313
 30
0.0
 40
1.02
 50
90.000003000000945
 51
180.00001000000091
  0
ARC
  5
4F0F
  8
AM_0
 10
235.38309828348969
 20
486.65928072058313
 30
0.0
 40
1.5
 50
0.0
 51
90.000003000000945
  0
ARC
  5
4F10
  8
AM_0
 10
253.38309828348949
 20
486.65928072058313
 30
0.0
 40
1.5
 50
90.000003000000945
 51
180.00001000000091
  0
ARC
  5
4F11
  8
AM_0
 10
204.04807828348959
 20
499.14927072058322
 30
0.0
 40
1.3300148000000001
 50
269.7294199999987
 51
90.270567000000995
  0
ARC
  5
4F12
  8
AM_0
 10
204.1100282834895
 20
509.15928072058341
 30
0.0
 40
1.2700266
 50
269.62932000000001
 51
90.370670000001468
  0
ARC
  5
4F13
  8
AM_0
 10
204.1100282834895
 20
519.16929072058315
 30
0.0
 40
1.2700266
 50
269.62932000000001
 51
90.370670000001468
  0
ARC
  5
4F14
  8
AM_0
 10
204.04807828348959
 20
529.17429072058337
 30
0.0
 40
1.3350147999999991
 50
269.7304299999999
 51
90.269556000001316
  0
ARC
  5
4F15
  8
AM_0
 10
267.72306828348962
 20
539.1592807205833
 30
0.0
 40
1.0000255999999981
 50
269.58947000000001
 51
90.410531000001029
  0
ARC
  5
4F16
  8
AM_0
 10
271.42307828348947
 20
539.18931072058331
 30
0.0
 40
1.460011199999999
 50
269.77524999999991
 51
90.224750000000114
  0
ARC
  5
4F17
  8
AM_0
 10
267.72306828348962
 20
489.15928072058318
 30
0.0
 40
1.0000255999999981
 50
269.58947000000001
 51
90.410531000001029
  0
ARC
  5
4F18
  8
AM_0
 10
271.42307828348947
 20
489.12925072058312
 30
0.0
 40
1.460011199999999
 50
269.77524999999991
 51
90.224750000000114
  0
ARC
  5
4F19
  8
AM_0
 10
253.36313828348949
 20
546.51926072058325
 30
0.0
 40
1.0
 50
90.000003000000945
 51
180.00001000000091
  0
ARC
  5
4F1A
  8
AM_0
 10
253.38309828348949
 20
546.6592807205833
 30
0.0
 40
1.5
 50
90.000003000000945
 51
180.00001000000091
  0
ARC
  5
4F1B
  8
AM_0
 10
235.38309828348969
 20
546.6592807205833
 30
0.0
 40
1.5
 50
0.0
 51
90.000003000000945
  0
ARC
  5
4F1C
  8
AM_0
 10
235.4031182834897
 20
546.51926072058325
 30
0.0
 40
1.0
 50
0.0
 51
90.000003000000945
  0
POLYLINE
  5
4F1F
  8
AM_0
 66
     1
 10
0.0
 20
0.0
 30
0.0
  0
VERTEX
  5
4F20
  8
AM_0
 10
168.74308828348961
 20
514.1592807205833
 30
0.0
 42
0.00039106593
  0
VERTEX
  5
4F21
  8
AM_0
 10
168.74072828348949
 20
513.84814072058327
 30
0.0
 42
0.00040574899
  0
VERTEX
  5
4F22
  8
AM_0
 10
168.73885828348941
 20
513.53703072058329
 30
0.0
 42
0.0003534546
  0
VERTEX
  5
4F23
  8
AM_0
 10
168.73746828348959
 20
513.22593072058305
 30
0.0
 42
0.00034407327
  0
VERTEX
  5
4F24
  8
AM_0
 10
168.73648828348951
 20
512.91479072058326
 30
0.0
 42
0.00045699408
  0
VERTEX
  5
4F25
  8
AM_0
 10
168.73602828348959
 20
512.60368072058316
 30
0.0
 42
0.00035571853
  0
VERTEX
  5
4F26
  8
AM_0
 10
168.7360682834896
 20
512.29258072058315
 30
0.0
 42
0.00038547362
  0
VERTEX
  5
4F27
  8
AM_0
 10
168.7365582834895
 20
511.98144072058312
 30
0.0
 42
0.00035501498
  0
VERTEX
  5
4F28
  8
AM_0
 10
168.73751828348941
 20
511.67034072058311
 30
0.0
 42
0.00040118614
  0
VERTEX
  5
4F29
  8
AM_0
 10
168.73893828348949
 20
511.35910072058311
 30
0.0
 42
0.00038319871
  0
VERTEX
  5
4F2A
  8
AM_0
 10
168.74084828348961
 20
511.04797072058329
 30
0.0
 42
0.00040742136
  0
VERTEX
  5
4F2B
  8
AM_0
 10
168.74324828348981
 20
510.73674072058321
 30
0.0
 42
0.0003578071
  0
VERTEX
  5
4F2C
  8
AM_0
 10
168.7461382834895
 20
510.42563072058289
 30
0.0
  0
SEQEND
  5
4F2D
  8
AM_0
  0
POLYLINE
  5
4F2E
  8
AM_0
 66
     1
 10
0.0
 20
0.0
 30
0.0
  0
VERTEX
  5
4F2F
  8
AM_0
 10
168.7871482834895
 20
507.88889072058328
 30
0.0
 42
0.00076695232
  0
VERTEX
  5
4F30
  8
AM_0
 10
168.80194828348951
 20
507.27113072058341
 30
0.0
 42
0.00073263044
  0
VERTEX
  5
4F31
  8
AM_0
 10
168.8185882834897
 20
506.65353072058321
 30
0.0
 42
0.0007652599
  0
VERTEX
  5
4F32
  8
AM_0
 10
168.8370782834894
 20
506.03586072058317
 30
0.0
 42
0.00075144485
  0
VERTEX
  5
4F33
  8
AM_0
 10
168.85744828348959
 20
505.41826072058319
 30
0.0
 42
0.00078594403
  0
VERTEX
  5
4F34
  8
AM_0
 10
168.87969828348949
 20
504.80083072058312
 30
0.0
 42
0.00073349202
  0
VERTEX
  5
4F35
  8
AM_0
 10
168.9038482834894
 20
504.18345072058293
 30
0.0
 42
0.0007358075
  0
VERTEX
  5
4F36
  8
AM_0
 10
168.92978828348959
 20
503.56605072058318
 30
0.0
 42
0.00078592699
  0
VERTEX
  5
4F37
  8
AM_0
 10
168.95761828348961
 20
502.94866072058312
 30
0.0
 42
0.00074823144
  0
VERTEX
  5
4F38
  8
AM_0
 10
168.9873482834895
 20
502.33127072058329
 30
0.0
 42
0.00074896603
  0
VERTEX
  5
4F39
  8
AM_0
 10
169.01890828348951
 20
501.71414072058332
 30
0.0
 42
0.00076039765
  0
VERTEX
  5
4F3A
  8
AM_0
 10
169.05232828348969
 20
501.0971107205832
 30
0.0
 42
0.00075616128
  0
VERTEX
  5
4F3B
  8
AM_0
 10
169.08762828348941
 20
500.4800807205832
 30
0.0
  0
SEQEND
  5
4F3C
  8
AM_0
  0
POLYLINE
  5
4F3D
  8
AM_0
 66
     1
 10
0.0
 20
0.0
 30
0.0
  0
VERTEX
  5
4F3E
  8
AM_0
 10
169.26133828348961
 20
497.81870072058308
 30
0.0
 42
0.00073721992
  0
VERTEX
  5
4F3F
  8
AM_0
 10
169.3054882834895
 20
497.21629072058329
 30
0.0
 42
0.00074398496
  0
VERTEX
  5
4F40
  8
AM_0
 10
169.35141828348949
 20
496.6140207205832
 30
0.0
 42
0.00073322625
  0
VERTEX
  5
4F41
  8
AM_0
 10
169.3991482834895
 20
496.0116907205832
 30
0.0
 42
0.00073594289
  0
VERTEX
  5
4F42
  8
AM_0
 10
169.44862828348951
 20
495.4097007205832
 30
0.0
 42
0.00074742568
  0
VERTEX
  5
4F43
  8
AM_0
 10
169.49989828348961
 20
494.80784072058327
 30
0.0
 42
0.00073216749
  0
VERTEX
  5
4F44
  8
AM_0
 10
169.5529582834896
 20
494.20603072058321
 30
0.0
 42
0.00074184065
  0
VERTEX
  5
4F45
  8
AM_0
 10
169.60777828348941
 20
493.6045007205833
 30
0.0
 42
0.00072077528
  0
VERTEX
  5
4F46
  8
AM_0
 10
169.6643582834898
 20
493.0032707205832
 30
0.0
 42
0.00074978179
  0
VERTEX
  5
4F47
  8
AM_0
 10
169.72269828348951
 20
492.40207072058308
 30
0.0
 42
0.00074288888
  0
VERTEX
  5
4F48
  8
AM_0
 10
169.7828482834895
 20
491.80105072058308
 30
0.0
 42
0.00072503679
  0
VERTEX
  5
4F49
  8
AM_0
 10
169.84475828348951
 20
491.2003107205831
 30
0.0
 42
0.00074640584
  0
VERTEX
  5
4F4A
  8
AM_0
 10
169.90842828348951
 20
490.59971072058312
 30
0.0
  0
SEQEND
  5
4F4B
  8
AM_0
  0
POLYLINE
  5
4F4C
  8
AM_0
 66
     1
 10
0.0
 20
0.0
 30
0.0
  0
VERTEX
  5
4F4D
  8
AM_0
 10
170.24399828348959
 20
487.67624072058311
 30
0.0
 42
0.0006890001
  0
VERTEX
  5
4F4E
  8
AM_0
 10
170.31487828348941
 20
487.10149072058312
 30
0.0
 42
0.00070644651
  0
VERTEX
  5
4F4F
  8
AM_0
 10
170.3873782834896
 20
486.52681072058323
 30
0.0
 42
0.0006924559
  0
VERTEX
  5
4F50
  8
AM_0
 10
170.46146828348961
 20
485.952490720583
 30
0.0
 42
0.00069587797
  0
VERTEX
  5
4F51
  8
AM_0
 10
170.5371482834895
 20
485.37835072058311
 30
0.0
 42
0.00071687041
  0
VERTEX
  5
4F52
  8
AM_0
 10
170.6144582834894
 20
484.80435072058282
 30
0.0
 42
0.00069759113
  0
VERTEX
  5
4F53
  8
AM_0
 10
170.6933982834895
 20
484.23056072058313
 30
0.0
 42
0.00071003142
  0
VERTEX
  5
4F54
  8
AM_0
 10
170.7739382834896
 20
483.65709072058308
 30
0.0
 42
0.00069954544
  0
VERTEX
  5
4F55
  8
AM_0
 10
170.85607828348961
 20
483.08399072058342
 30
0.0
 42
0.0007188852
  0
VERTEX
  5
4F56
  8
AM_0
 10
170.93985828348951
 20
482.510960720583
 30
0.0
 42
0.00071266165
  0
VERTEX
  5
4F57
  8
AM_0
 10
171.0252882834896
 20
481.93820072058281
 30
0.0
 42
0.00071614577
  0
VERTEX
  5
4F58
  8
AM_0
 10
171.11231828348949
 20
481.36585072058318
 30
0.0
 42
0.00072290806
  0
VERTEX
  5
4F59
  8
AM_0
 10
171.20102828348951
 20
480.7935507205832
 30
0.0
  0
SEQEND
  5
4F5A
  8
AM_0
  0
POLYLINE
  5
4F5B
  8
AM_0
 66
     1
 10
0.0
 20
0.0
 30
0.0
  0
VERTEX
  5
4F5C
  8
AM_0
 10
168.74308828348961
 20
514.1592807205833
 30
0.0
 42
-0.00039106653
  0
VERTEX
  5
4F5D
  8
AM_0
 10
168.74072828348949
 20
514.47041072058323
 30
0.0
 42
-0.00040574511
  0
VERTEX
  5
4F5E
  8
AM_0
 10
168.73885828348941
 20
514.78152072058322
 30
0.0
 42
-0.00035346331
  0
VERTEX
  5
4F5F
  8
AM_0
 10
168.73746828348959
 20
515.09263072058332
 30
0.0
 42
-0.00034406545
  0
VERTEX
  5
4F60
  8
AM_0
 10
168.73648828348951
 20
515.40377072058334
 30
0.0
 42
-0.00045699059
  0
VERTEX
  5
4F61
  8
AM_0
 10
168.73602828348959
 20
515.71487072058324
 30
0.0
 42
-0.00035573431
  0
VERTEX
  5
4F62
  8
AM_0
 10
168.7360682834896
 20
516.02597072058325
 30
0.0
 42
-0.00038545888
  0
VERTEX
  5
4F63
  8
AM_0
 10
168.7365582834895
 20
516.33711072058315
 30
0.0
 42
-0.00035501203
  0
VERTEX
  5
4F64
  8
AM_0
 10
168.73751828348941
 20
516.64822072058325
 30
0.0
 42
-0.00040120778
  0
VERTEX
  5
4F65
  8
AM_0
 10
168.73893828348949
 20
516.95945072058316
 30
0.0
 42
-0.00038317821
  0
VERTEX
  5
4F66
  8
AM_0
 10
168.74084828348961
 20
517.27058072058321
 30
0.0
 42
-0.00040741862
  0
VERTEX
  5
4F67
  8
AM_0
 10
168.74324828348981
 20
517.58181072058323
 30
0.0
 42
-0.00035783324
  0
VERTEX
  5
4F68
  8
AM_0
 10
168.7461382834895
 20
517.89292072058322
 30
0.0
  0
SEQEND
  5
4F69
  8
AM_0
  0
POLYLINE
  5
4F6A
  8
AM_0
 66
     1
 10
0.0
 20
0.0
 30
0.0
  0
VERTEX
  5
4F6B
  8
AM_0
 10
168.7871482834895
 20
520.42966072058323
 30
0.0
 42
-0.00076691987
  0
VERTEX
  5
4F6C
  8
AM_0
 10
168.80194828348951
 20
521.04742072058332
 30
0.0
 42
-0.00073262795
  0
VERTEX
  5
4F6D
  8
AM_0
 10
168.8185882834897
 20
521.66502072058324
 30
0.0
 42
-0.0007652954
  0
VERTEX
  5
4F6E
  8
AM_0
 10
168.8370782834894
 20
522.28269072058322
 30
0.0
 42
-0.00077334627
  0
VERTEX
  5
4F6F
  8
AM_0
 10
168.85748828348969
 20
522.90029072058314
 30
0.0
 42
-0.00073282897
  0
VERTEX
  5
4F70
  8
AM_0
 10
168.8797482834895
 20
523.51771072058307
 30
0.0
 42
-0.0007571179
  0
VERTEX
  5
4F71
  8
AM_0
 10
168.9038482834894
 20
524.13523072058331
 30
0.0
 42
-0.00073783152
  0
VERTEX
  5
4F72
  8
AM_0
 10
168.92978828348959
 20
524.75262072058285
 30
0.0
 42
-0.0007835518
  0
VERTEX
  5
4F73
  8
AM_0
 10
168.95761828348961
 20
525.36989072058327
 30
0.0
 42
-0.00074826133
  0
VERTEX
  5
4F74
  8
AM_0
 10
168.9873482834895
 20
525.98728072058304
 30
0.0
 42
-0.00074893555
  0
VERTEX
  5
4F75
  8
AM_0
 10
169.01890828348951
 20
526.60441072058325
 30
0.0
 42
-0.00076039841
  0
VERTEX
  5
4F76
  8
AM_0
 10
169.05232828348969
 20
527.22144072058325
 30
0.0
 42
-0.00075618789
  0
VERTEX
  5
4F77
  8
AM_0
 10
169.08762828348941
 20
527.83847072058325
 30
0.0
  0
SEQEND
  5
4F78
  8
AM_0
  0
POLYLINE
  5
4F79
  8
AM_0
 66
     1
 10
0.0
 20
0.0
 30
0.0
  0
VERTEX
  5
4F7A
  8
AM_0
 10
169.26133828348961
 20
530.49985072058337
 30
0.0
 42
-0.0007337051
  0
VERTEX
  5
4F7B
  8
AM_0
 10
169.3054782834898
 20
531.10226072058322
 30
0.0
 42
-0.00075211323
  0
VERTEX
  5
4F7C
  8
AM_0
 10
169.35141828348949
 20
531.70466072058332
 30
0.0
 42
-0.0007297491
  0
VERTEX
  5
4F7D
  8
AM_0
 10
169.3991482834895
 20
532.30686072058324
 30
0.0
 42
-0.00073593041
  0
VERTEX
  5
4F7E
  8
AM_0
 10
169.44862828348951
 20
532.90885072058325
 30
0.0
 42
-0.00074742739
  0
VERTEX
  5
4F7F
  8
AM_0
 10
169.49989828348961
 20
533.51071072058323
 30
0.0
 42
-0.00073217363
  0
VERTEX
  5
4F80
  8
AM_0
 10
169.5529582834896
 20
534.11252072058335
 30
0.0
 42
-0.00073754168
  0
VERTEX
  5
4F81
  8
AM_0
 10
169.60777828348941
 20
534.71406072058323
 30
0.0
 42
-0.00073075073
  0
VERTEX
  5
4F82
  8
AM_0
 10
169.6643582834898
 20
535.31541072058315
 30
0.0
 42
-0.00074550816
  0
VERTEX
  5
4F83
  8
AM_0
 10
169.72269828348951
 20
535.91648072058331
 30
0.0
 42
-0.00074288416
  0
VERTEX
  5
4F84
  8
AM_0
 10
169.7828482834895
 20
536.51750072058326
 30
0.0
 42
-0.00072504001
  0
VERTEX
  5
4F85
  8
AM_0
 10
169.84475828348951
 20
537.11824072058323
 30
0.0
 42
-0.00074640667
  0
VERTEX
  5
4F86
  8
AM_0
 10
169.90842828348951
 20
537.71885072058319
 30
0.0
  0
SEQEND
  5
4F87
  8
AM_0
  0
POLYLINE
  5
4F88
  8
AM_0
 66
     1
 10
0.0
 20
0.0
 30
0.0
  0
VERTEX
  5
4F89
  8
AM_0
 10
170.24399828348959
 20
540.64231072058305
 30
0.0
 42
-0.00068898283
  0
VERTEX
  5
4F8A
  8
AM_0
 10
170.31487828348941
 20
541.21706072058305
 30
0.0
 42
-0.00070644357
  0
VERTEX
  5
4F8B
  8
AM_0
 10
170.3873782834896
 20
541.7917507205832
 30
0.0
 42
-0.00069248074
  0
VERTEX
  5
4F8C
  8
AM_0
 10
170.46146828348961
 20
542.36606072058328
 30
0.0
 42
-0.0006958566
  0
VERTEX
  5
4F8D
  8
AM_0
 10
170.5371482834895
 20
542.94020072058311
 30
0.0
 42
-0.00071687219
  0
VERTEX
  5
4F8E
  8
AM_0
 10
170.6144582834894
 20
543.51420072058329
 30
0.0
 42
-0.00069760022
  0
VERTEX
  5
4F8F
  8
AM_0
 10
170.6933982834895
 20
544.08799072058321
 30
0.0
 42
-0.00071002302
  0
VERTEX
  5
4F90
  8
AM_0
 10
170.7739382834896
 20
544.66146072058325
 30
0.0
 42
-0.00069954889
  0
VERTEX
  5
4F91
  8
AM_0
 10
170.85607828348961
 20
545.23456072058332
 30
0.0
 42
-0.00071887947
  0
VERTEX
  5
4F92
  8
AM_0
 10
170.93985828348951
 20
545.80759072058322
 30
0.0
 42
-0.00071266929
  0
VERTEX
  5
4F93
  8
AM_0
 10
171.0252882834896
 20
546.38036072058298
 30
0.0
 42
-0.00071614429
  0
VERTEX
  5
4F94
  8
AM_0
 10
171.11231828348949
 20
546.95270072058304
 30
0.0
 42
-0.00072288978
  0
VERTEX
  5
4F95
  8
AM_0
 10
171.20102828348951
 20
547.52500072058331
 30
0.0
  0
SEQEND
  5
4F96
  8
AM_0
  0
LINE
  5
4FA1
  8
AM_0
 10
368.38307828348962
 20
538.65931072058322
 30
0.0
 11
372.38307828348951
 21
534.65931072058345
 31
0.0
  0
LINE
  5
4FA2
  8
AM_0
 10
365.88307828348962
 20
538.65931072058322
 30
0.0
 11
368.38307828348962
 21
538.65931072058322
 31
0.0
  0
LINE
  5
4FA4
  8
AM_0
 10
372.38307828348951
 20
534.65931072058345
 30
0.0
 11
372.38307828349019
 21
493.65931072058311
 31
0.0
  0
LINE
  5
4FA5
  8
AM_0
 10
368.38307828348962
 20
489.65931072058311
 30
0.0
 11
372.38307828348951
 21
493.65931072058311
 31
0.0
  0
LINE
  5
4FA6
  8
AM_0
 10
365.88307828348962
 20
489.65931072058311
 30
0.0
 11
368.38307828348962
 21
489.65931072058311
 31
0.0
  0
LINE
  5
4FA7
  8
AM_0
 10
365.38307828348962
 20
538.15931072058322
 30
0.0
 11
365.88307828348962
 21
538.65931072058322
 31
0.0
1001
GENIUS_GENFIL_13
1070
     0
1040
0.5
1040
0.5
1040
20.0
1040
0.0
1002
{
1002
}
1001
GENIUS_GENOBJ-N-CHA_13
1002
{
1000
OWNER
1000
GEN
1002
}
1001
GENIUS_GENODEF_13
1002
{
1000
HIER
1070
     0
1002
}
1002
{
1000
MANEDIT
1070
     0
1002
}
1002
{
1000
NOSEL
1070
     0
1002
}
1002
{
1000
BEHIND
1070
     0
1002
}
1002
{
1000
OTHER
1070
     0
1002
}
1002
{
1000
REACTOR
1002
}
  0
LINE
  5
4FA8
  8
AM_0
 10
365.38307828348962
 20
490.15931072058299
 30
0.0
 11
365.88307828348962
 21
489.65931072058311
 31
0.0
1001
GENIUS_GENFIL_13
1070
     0
1040
0.5
1040
0.5
1040
20.0
1040
0.0
1002
{
1002
}
1001
GENIUS_GENODEF_13
1002
{
1000
HIER
1070
     0
1002
}
1002
{
1000
MANEDIT
1070
     0
1002
}
1002
{
1000
NOSEL
1070
     0
1002
}
1002
{
1000
BEHIND
1070
     0
1002
}
1002
{
1000
OTHER
1070
     0
1002
}
1002
{
1000
REACTOR
1002
}
1001
GENIUS_GENOBJ-N-CHA_13
1002
{
1000
OWNER
1000
GEN
1002
}
  0
LINE
  5
4FA9
  8
AM_0
 10
368.38307828348968
 20
538.65931072058322
 30
0.0
 11
368.38307828348962
 21
489.65931072058311
 31
0.0
  0
LINE
  5
5007
  8
AM_0
 10
306.38309828348969
 20
454.15928072058313
 30
0.0
 11
306.38309828348969
 21
574.15931072058345
 31
0.0
  0
LINE
  5
5008
  8
AM_0
 10
306.38309828348969
 20
569.68564072058325
 30
0.0
 11
338.38312828348978
 21
569.68564072058325
 31
0.0
  0
LINE
  5
5009
  8
AM_0
 10
306.38309828348969
 20
458.63297072058322
 30
0.0
 11
338.38312828348978
 21
458.63297072058322
 31
0.0
  0
LINE
  5
500A
  8
AM_0
 10
300.38309828348952
 20
456.26474072058301
 30
0.0
 11
300.38309828348952
 21
572.05387072058318
 31
0.0
  0
LINE
  5
500B
  8
AM_0
 10
338.38312828348978
 20
453.32132072058312
 30
0.0
 11
302.3307882834896
 21
454.26542072058322
 31
0.0
  0
LINE
  5
500C
  8
AM_0
 10
302.33075828348962
 20
574.05320072058328
 30
0.0
 11
338.38312828348978
 21
574.9972607205832
 31
0.0
  0
LINE
  5
500E
  8
AM_0
 10
282.38312828348961
 20
570.65931072058345
 30
0.0
 11
292.3774582834896
 21
570.92099072058318
 31
0.0
  0
LINE
  5
500F
  8
AM_0
 10
291.38309828348952
 20
562.34360072058337
 30
0.0
 11
291.38309828348952
 21
569.1922307205831
 31
0.0
  0
LINE
  5
5010
  8
AM_0
 10
293.33075828348962
 20
571.19156072058331
 30
0.0
 11
299.01178828348981
 21
571.3403407205833
 31
0.0
  0
LINE
  5
5011
  8
AM_0
 10
282.38309828348952
 20
560.15961072058337
 30
0.0
 11
298.43546828348963
 21
560.57993072058332
 31
0.0
  0
LINE
  5
5012
  8
AM_0
 10
293.33075828348962
 20
457.12705072058299
 30
0.0
 11
299.0117582834896
 21
456.97828072058309
 31
0.0
  0
LINE
  5
5013
  8
AM_0
 10
282.38312828348961
 20
457.65931072058299
 30
0.0
 11
292.3774582834896
 21
457.39759072058331
 31
0.0
  0
LINE
  5
5014
  8
AM_0
 10
291.38309828348952
 20
465.97501072058321
 30
0.0
 11
291.38309828348952
 21
459.12635072058282
 31
0.0
  0
LINE
  5
5015
  8
AM_0
 10
282.38312828348961
 20
468.15900072058332
 30
0.0
 11
298.43546828348963
 21
467.73865072058311
 31
0.0
  0
LINE
  5
501C
  8
AM_0
 10
282.38309828348952
 20
482.21933072058312
 30
0.0
 11
298.38309828348952
 21
482.21933072058312
 31
0.0
  0
LINE
  5
501D
  8
AM_0
 10
282.38309828348952
 20
546.09922072058328
 30
0.0
 11
298.38309828348952
 21
546.09922072058328
 31
0.0
  0
LINE
  5
501E
  8
AM_0
 10
338.38312828348978
 20
578.39042072058317
 30
0.0
 11
338.38312828348978
 21
449.94568072058343
 31
0.0
  0
LINE
  5
5021
  8
AM_0
 10
353.31330828348962
 20
588.87751072058325
 30
0.0
 11
361.38309828348952
 21
589.15931072058345
 31
0.0
  0
LINE
  5
5022
  8
AM_0
 10
365.38312828348973
 20
584.15931072058345
 30
0.0
 11
365.38312828348973
 21
444.15928072058313
 31
0.0
  0
LINE
  5
5023
  8
AM_0
 10
361.38309828348952
 20
589.1592807205833
 30
0.0
 11
361.38309828348952
 21
439.15928072058318
 31
0.0
  0
LINE
  5
5024
  8
AM_0
 10
361.38309828348952
 20
584.15931072058345
 30
0.0
 11
365.38312828348973
 21
584.15931072058345
 31
0.0
  0
LINE
  5
5025
  8
AM_0
 10
356.3831282834895
 20
573.65931072058322
 30
0.0
 11
356.3831282834895
 21
454.6592807205833
 31
0.0
  0
LINE
  5
5026
  8
AM_0
 10
343.20862828348959
 20
583.38739072058331
 30
0.0
 11
348.48780828348958
 21
583.57175072058317
 31
0.0
  0
LINE
  5
5028
  8
AM_0
 10
351.38309828348952
 20
586.87870072058331
 30
0.0
 11
351.38309828348952
 21
554.59967072058339
 31
0.0
  0
LINE
  5
5029
  8
AM_0
 10
351.38309828348952
 20
441.43988072058329
 30
0.0
 11
351.38309828348952
 21
473.71891072058321
 31
0.0
  0
LINE
  5
502A
  8
AM_0
 10
343.20862828348959
 20
444.93119072058317
 30
0.0
 11
348.48783828348951
 21
444.74686072058319
 31
0.0
  0
LINE
  5
502B
  8
AM_0
 10
361.38309828348952
 20
444.15928072058313
 30
0.0
 11
365.38312828348973
 21
444.15928072058313
 31
0.0
  0
LINE
  5
502C
  8
AM_0
 10
353.3133382834896
 20
439.44108072058322
 30
0.0
 11
361.38309828348952
 21
439.15928072058318
 31
0.0
  0
ARC
  5
5030
  8
AM_0
 10
302.3830982834898
 20
572.05387072058318
 30
0.0
 40
2.0
 50
91.500001000001546
 51
180.00001000000091
  0
ARC
  5
5031
  8
AM_0
 10
302.3830982834898
 20
456.26474072058301
 30
0.0
 40
2.0
 50
180.00001000000091
 51
268.50000000000063
  0
ARC
  5
5032
  8
AM_0
 10
298.97251828348948
 20
572.83982072058336
 30
0.0
 40
1.5
 50
271.49999999999937
 51
347.02334999999613
  0
ARC
  5
5033
  8
AM_0
 10
293.38309828348969
 20
569.1922307205831
 30
0.0
 40
2.0
 50
91.500001000001546
 51
180.00001000000091
  0
ARC
  5
5034
  8
AM_0
 10
298.38309828348952
 20
562.57926072058308
 30
0.0
 40
2.0
 50
271.49999999999937
 51
0.0
  0
ARC
  5
5035
  8
AM_0
 10
289.38309828348969
 20
562.34360072058337
 30
0.0
 40
2.0
 50
271.49999999999937
 51
0.0
  0
ARC
  5
5036
  8
AM_0
 10
289.38309828348969
 20
465.97501072058321
 30
0.0
 40
2.0
 50
0.0
 51
88.499997000000647
  0
ARC
  5
5037
  8
AM_0
 10
293.38309828348969
 20
459.12635072058282
 30
0.0
 40
2.0
 50
180.00001000000091
 51
268.50000000000063
  0
ARC
  5
5038
  8
AM_0
 10
298.97251828348948
 20
455.47879072058328
 30
0.0
 40
1.5
 50
12.97665300000153
 51
88.499997000000647
  0
ARC
  5
5039
  8
AM_0
 10
298.38309828348952
 20
465.7393507205831
 30
0.0
 40
2.0
 50
0.0
 51
88.499997000000647
  0
ARC
  5
503A
  8
AM_0
 10
298.38309828348952
 20
480.21933072058329
 30
0.0
 40
2.0
 50
0.0
 51
90.000003000000945
  0
ARC
  5
503B
  8
AM_0
 10
298.38309828348952
 20
548.09922072058305
 30
0.0
 40
2.0
 50
270.0
 51
0.0
  0
ARC
  5
503C
  8
AM_0
 10
353.38312828348978
 20
554.59967072058339
 30
0.0
 40
2.0
 50
179.999989999999
 51
271.51463999999908
  0
ARC
  5
503D
  8
AM_0
 10
348.38309828348952
 20
586.56989072058332
 30
0.0
 40
3.0
 50
272.00000000000051
 51
0.0
  0
ARC
  5
503E
  8
AM_0
 10
343.38309828348952
 20
578.39042072058317
 30
0.0
 40
5.0
 50
91.999998000000545
 51
180.00001000000091
  0
ARC
  5
5040
  8
AM_0
 10
353.38312828348978
 20
573.65931072058322
 30
0.0
 40
3.0
 50
0.0
 51
90.000003000000945
  0
ARC
  5
5041
  8
AM_0
 10
353.38312828348978
 20
586.87870072058331
 30
0.0
 40
2.0
 50
91.999998000000545
 51
180.00001000000091
  0
ARC
  5
5042
  8
AM_0
 10
353.38312828348978
 20
441.43988072058329
 30
0.0
 40
2.0
 50
179.999989999999
 51
268.00000999999861
  0
ARC
  5
5043
  8
AM_0
 10
353.38312828348978
 20
454.6592807205833
 30
0.0
 40
3.0
 50
270.0
 51
0.0
  0
ARC
  5
5045
  8
AM_0
 10
343.38309828348952
 20
449.9281707205833
 30
0.0
 40
5.0
 50
179.999989999999
 51
268.00000999999861
  0
ARC
  5
5046
  8
AM_0
 10
348.38309828348952
 20
441.74869072058328
 30
0.0
 40
3.0
 50
0.0
 51
87.999999999999503
  0
ARC
  5
5047
  8
AM_0
 10
353.38312828348978
 20
473.71891072058321
 30
0.0
 40
2.0
 50
88.485353000001084
 51
180.00001000000091
  0
TEXT
  5
5361
  8
AM_0
 10
508.25870677197207
 20
511.50948977777517
 30
0.0
 40
10.0
  1
VX01-005MFW~VX01-050MFW
  0
ENDSEC
  0
EOF
