  0
SECTION
  2
HEADER
  9
$ACADVER
  1
AC1009
  9
$INSBASE
 10
0.0
 20
0.0
 30
0.0
  9
$EXTMIN
 10
142.1241095135035
 20
173.3864941986217
 30
-0.0000000349181948
  9
$EXTMAX
 10
704.47350492651276
 20
582.51567367685948
 30
0.0000000814935747
  9
$LIMMIN
 10
0.0
 20
0.0
  9
$LIMMAX
 10
853.5
 20
555.00000000000011
  9
$ORTHOMODE
 70
     0
  9
$REGENMODE
 70
     1
  9
$FILLMODE
 70
     1
  9
$QTEXTMODE
 70
     0
  9
$MIRRTEXT
 70
     1
  9
$DRAGMODE
 70
     2
  9
$LTSCALE
 40
3.0
  9
$OSMODE
 70
   551
  9
$ATTMODE
 70
     1
  9
$TEXTSIZE
 40
2.5
  9
$TRACEWID
 40
1.0
  9
$TEXTSTYLE
  7
STANDARD
  9
$CLAYER
  8
AM_0
  9
$CELTYPE
  6
BYLAYER
  9
$CECOLOR
 62
   256
  9
$DIMSCALE
 40
3.0
  9
$DIMASZ
 40
2.5
  9
$DIMEXO
 40
1.0
  9
$DIMDLI
 40
8.0
  9
$DIMRND
 40
0.0
  9
$DIMDLE
 40
0.0
  9
$DIMEXE
 40
0.6
  9
$DIMTP
 40
0.1
  9
$DIMTM
 40
0.1
  9
$DIMTXT
 40
2.5
  9
$DIMCEN
 40
0.0
  9
$DIMTSZ
 40
0.0
  9
$DIMTOL
 70
     0
  9
$DIMLIM
 70
     0
  9
$DIMTIH
 70
     0
  9
$DIMTOH
 70
     0
  9
$DIMSE1
 70
     0
  9
$DIMSE2
 70
     0
  9
$DIMTAD
 70
     1
  9
$DIMZIN
 70
     8
  9
$DIMBLK
  1

  9
$DIMASO
 70
     1
  9
$DIMSHO
 70
     1
  9
$DIMPOST
  1

  9
$DIMAPOST
  1
"
  9
$DIMALT
 70
     0
  9
$DIMALTD
 70
     2
  9
$DIMALTF
 40
0.0393701
  9
$DIMLFAC
 40
1.0
  9
$DIMTOFL
 70
     1
  9
$DIMTVP
 40
0.0
  9
$DIMTIX
 70
     0
  9
$DIMSOXD
 70
     0
  9
$DIMSAH
 70
     0
  9
$DIMBLK1
  1

  9
$DIMBLK2
  1

  9
$DIMSTYLE
  2
AM_ISO
  9
$DIMCLRD
 70
   256
  9
$DIMCLRE
 70
   256
  9
$DIMCLRT
 70
     4
  9
$DIMTFAC
 40
0.71
  9
$DIMGAP
 40
0.8
  9
$LUNITS
 70
     2
  9
$LUPREC
 70
     2
  9
$SKETCHINC
 40
1.0
  9
$FILLETRAD
 40
15.0
  9
$AUNITS
 70
     0
  9
$AUPREC
 70
     0
  9
$MENU
  1
.
  9
$ELEVATION
 40
0.0
  9
$PELEVATION
 40
0.0
  9
$THICKNESS
 40
0.0
  9
$LIMCHECK
 70
     0
  9
$BLIPMODE
 70
     0
  9
$CHAMFERA
 40
6.0
  9
$CHAMFERB
 40
3.0
  9
$SKPOLY
 70
     0
  9
$TDCREATE
 40
2452065.6056192131
  9
$TDUPDATE
 40
2458541.6028393982
  9
$TDINDWG
 40
0.3107399769
  9
$TDUSRTIMER
 40
0.3107395949
  9
$USRTIMER
 70
     1
  9
$ANGBASE
 50
0.0
  9
$ANGDIR
 70
     0
  9
$PDMODE
 70
     0
  9
$PDSIZE
 40
0.0
  9
$PLINEWID
 40
0.0
  9
$COORDS
 70
     1
  9
$SPLFRAME
 70
     0
  9
$SPLINETYPE
 70
     6
  9
$SPLINESEGS
 70
     8
  9
$ATTDIA
 70
     1
  9
$ATTREQ
 70
     1
  9
$HANDLING
 70
     1
  9
$HANDSEED
  5
619F
  9
$SURFTAB1
 70
     6
  9
$SURFTAB2
 70
     6
  9
$SURFTYPE
 70
     6
  9
$SURFU
 70
     6
  9
$SURFV
 70
     6
  9
$UCSNAME
  2

  9
$UCSORG
 10
0.0
 20
0.0
 30
0.0
  9
$UCSXDIR
 10
1.0
 20
0.0
 30
0.0
  9
$UCSYDIR
 10
0.0
 20
1.0
 30
0.0
  9
$PUCSNAME
  2

  9
$PUCSORG
 10
0.0
 20
0.0
 30
0.0
  9
$PUCSXDIR
 10
1.0
 20
0.0
 30
0.0
  9
$PUCSYDIR
 10
0.0
 20
1.0
 30
0.0
  9
$USERI1
 70
     0
  9
$USERI2
 70
     0
  9
$USERI3
 70
     0
  9
$USERI4
 70
     0
  9
$USERI5
 70
     0
  9
$USERR1
 40
0.0
  9
$USERR2
 40
0.0
  9
$USERR3
 40
0.0
  9
$USERR4
 40
0.0
  9
$USERR5
 40
0.0
  9
$WORLDVIEW
 70
     1
  9
$SHADEDGE
 70
     3
  9
$SHADEDIF
 70
    70
  9
$TILEMODE
 70
     1
  9
$MAXACTVP
 70
    64
  9
$PLIMCHECK
 70
     0
  9
$PEXTMIN
 10
1.0000000000000000E+020
 20
1.0000000000000000E+020
 30
1.0000000000000000E+020
  9
$PEXTMAX
 10
-1.0000000000000000E+020
 20
-1.0000000000000000E+020
 30
-1.0000000000000000E+020
  9
$PLIMMIN
 10
0.0
 20
0.0
  9
$PLIMMAX
 10
420.0
 20
297.0
  9
$UNITMODE
 70
     0
  9
$VISRETAIN
 70
     1
  9
$PLINEGEN
 70
     0
  9
$PSLTSCALE
 70
     1
  0
ENDSEC
  0
SECTION
  2
TABLES
  0
TABLE
  2
VPORT
 70
     1
  0
VPORT
  2
*ACTIVE
 70
     0
 10
0.0
 20
0.0
 11
1.0
 21
1.0
 12
423.2988072200082
 22
377.95108393774058
 13
0.0
 23
0.0
 14
7.5
 24
7.5
 15
30.0
 25
30.0
 16
0.0
 26
0.0
 36
1.0
 17
0.0
 27
0.0
 37
0.0
 40
411.93784661424399
 41
1.7571592210767459
 42
50.0
 43
0.0
 44
0.0
 50
0.0
 51
0.0
 71
     0
 72
   100
 73
     1
 74
     3
 75
     0
 76
     0
 77
     0
 78
     0
  0
ENDTAB
  0
TABLE
  2
LTYPE
 70
    26
  0
LTYPE
  2
CONTINUOUS
 70
     0
  3
Solid line
 72
    65
 73
     0
 40
0.0
  0
LTYPE
  2
AM_ISO02W050
 70
     0
  3
__ __ __ __ __ __ __ __ __ __ __ __ __ __ __
 72
    65
 73
     2
 40
7.5
 49
6.0
 49
-1.5
  0
LTYPE
  2
AM_ISO08W050
 70
     0
  3
____ . ____ . ____ . ____ . ____ . ____ . ____
 72
    65
 73
     4
 40
18.0
 49
12.0
 49
-1.5
 49
3.0
 49
-1.5
  0
LTYPE
  2
AM_ISO09W050
 70
     0
  3
_____ . . _____ . . _____ . . ____ .. ____
 72
    65
 73
     6
 40
22.5
 49
12.0
 49
-1.5
 49
3.0
 49
-1.5
 49
3.0
 49
-1.5
  0
LTYPE
  2
AMCONSTR
 70
     0
  3
_______________________
 72
    65
 73
     2
 40
9999.0
 49
9999.0
 49
0.0
  0
LTYPE
  2
AM_ISO08W050X2
 70
     0
  3
__ . __ . __ . __ . __ . __
 72
    65
 73
     4
 40
9.0
 49
6.0
 49
-0.75
 49
1.5
 49
-0.75
  0
LTYPE
  2
AM_ISO02W050X2
 70
     0
  3
 _ _ _ _ _ _ _ _ _ _ _ _
 72
    65
 73
     2
 40
3.75
 49
3.0
 49
-0.75
  0
LTYPE
  2
AMZIGZAG
 70
     0
  3
/\/-/\/-/\/-/\/-/\/-/\/
 72
    65
 73
     2
 40
11.0001
 49
0.0001
 49
-11.0
  0
LTYPE
  2
ACISOWELD
 70
     0
  3
_ _ _ _ _
 72
    65
 73
     2
 40
2.0
 49
2.0
 49
-1.0
  0
LTYPE
  2
ACISOTGB
 70
     0
  3
__ . . __ . .
 72
    65
 73
     6
 40
9.0
 49
4.0
 49
-1.0
 49
1.0
 49
-1.0
 49
1.0
 49
-1.0
  0
LTYPE
  2
ACISOTGL
 70
     0
  3
_ _ _ _ _
 72
    65
 73
     2
 40
3.0
 49
2.0
 49
-1.0
  0
LTYPE
  2
CENTER
 70
     0
  3
__ . __
 72
    65
 73
     4
 40
7.0
 49
4.0
 49
-1.0
 49
1.0
 49
-1.0
  0
LTYPE
  2
HIDDEN
 70
     0
  3
Hidden __ __ __ __ __ __ __ __ __ __ __ __ __ _
 72
    65
 73
     2
 40
9.5249999999999986
 49
6.349999999999997
 49
-3.174999999999998
  0
LTYPE
  2
PHANTOM2
 70
     0
  3
Phantom (.5x) ___ _ _ ___ _ _ ___ _ _ ___ _ _
 72
    65
 73
     6
 40
31.75
 49
15.875
 49
-3.174999999999998
 49
3.174999999999998
 49
-3.174999999999998
 49
3.174999999999998
 49
-3.174999999999998
  0
LTYPE
  2
ACANSTGBM
 70
     0
  3
__ . . __ . .
 72
    65
 73
     6
 40
9.0
 49
4.0
 49
-1.0
 49
1.0
 49
-1.0
 49
1.0
 49
-1.0
  0
LTYPE
  2
ACANSTGLM
 70
     0
  3
_ _ _ _ _
 72
    65
 73
     2
 40
3.0
 49
2.0
 49
-1.0
  0
LTYPE
  2
GEN7A
 70
     0
  3
__ . __ . __
 72
    65
 73
     4
 40
7.375
 49
4.75
 49
-0.875
 49
0.875
 49
-0.875
  0
LTYPE
  2
ACJISTGB
 70
     0
  3
__ . . __ . .
 72
    65
 73
     6
 40
9.0
 49
4.0
 49
-1.0
 49
1.0
 49
-1.0
 49
1.0
 49
-1.0
  0
LTYPE
  2
ACJISTGL
 70
     0
  3
_ _ _ _ _
 72
    65
 73
     2
 40
3.0
 49
2.0
 49
-1.0
  0
LTYPE
  2
GEN7
 70
     0
  3
____ . ____ . ____ . ____ . ____ . ____ . ____
 72
    65
 73
     4
 40
14.25
 49
9.75
 49
-1.5
 49
1.5
 49
-1.5
  0
LTYPE
  2
CENTER2
 70
     0
  3
Center (.5x) ___ _ ___ _ ___ _ ___ _ ___ _ ___
 72
    65
 73
     4
 40
1.125
 49
0.75
 49
-0.125
 49
0.125
 49
-0.125
  0
LTYPE
  2
HIDDEN2
 70
     0
  3
Hidden (.5x) _ _ _ _ _ _ _ _ _ _ _ _ _ _ _ _ _
 72
    65
 73
     2
 40
0.1875
 49
0.125
 49
-0.0625
  0
LTYPE
  2
AMZIGZAG2
 70
     0
  3
/\/-/\/-/\/-/\/-/\/-/\/
 72
    65
 73
     2
 40
0.4401
 49
0.0001
 49
-0.4400000000000001
  0
LTYPE
  2
ACANSTGB
 70
     0
  3
__ . . __ . .
 72
    65
 73
     6
 40
0.35433070866
 49
0.15748031496
 49
-0.03937007874
 49
0.03937007874
 49
-0.03937007874
 49
0.03937007874
 49
-0.03937007874
  0
LTYPE
  2
ACANSTGL
 70
     0
  3
_ _ _ _ _
 72
    65
 73
     2
 40
0.11811023622
 49
0.07874015748
 49
-0.03937007874
  0
ENDTAB
  0
TABLE
  2
LAYER
 70
     7
  0
LAYER
  2
0
 70
     0
 62
     7
  6
CONTINUOUS
  0
LAYER
  2
AM_0
 70
     0
 62
     7
  6
CONTINUOUS
  0
LAYER
  2
AM_5
 70
     0
 62
     2
  6
CONTINUOUS
  0
LAYER
  2
DEFPOINTS
 70
     0
 62
     7
  6
CONTINUOUS
  0
LAYER
  2
ﾁｭｳｼﾝｾﾝ1
 70
     0
 62
     1
  6
GEN7A
  0
LAYER
  2
AM_0N
 70
     0
 62
     7
  6
CONTINUOUS
  0
LAYER
  2
ﾁｭｳｼﾝｾﾝ
 70
     0
 62
     1
  6
GEN7
  0
ENDTAB
  0
TABLE
  2
STYLE
 70
    10
  0
STYLE
  2
STANDARD
 70
     0
 40
0.0
 41
0.8299999999999999
 50
0.0
 71
     0
 42
2.5
  3
txt.shx
  4
bigfont.shx
  0
STYLE
  2
ANNOTATIVE
 70
     0
 40
0.0
 41
1.0
 50
0.0
 71
     0
 42
0.2
  3
txt
  4

  0
STYLE
  2

 70
     1
 40
0.0
 41
1.0
 50
0.0
 71
     0
 42
2.5
  3
ltypeshp.shx
  4

  0
STYLE
  2
ACISOTS
 70
     0
 40
1.0
 41
1.0
 50
0.0
 71
     0
 42
2.5
  3
isocp.shx
  4
extfont.shx
  0
STYLE
  2
ACISOGDT
 70
     0
 40
0.0
 41
1.0
 50
0.0
 71
     0
 42
2.5
  3
amgdt.shx
  4

  0
STYLE
  2
ACANSTS
 70
     0
 40
1.0
 41
1.0
 50
0.0
 71
     0
 42
2.5
  3
romans.shx
  4
bigfont.shx
  0
STYLE
  2
ACANSGDT
 70
     0
 40
0.0
 41
1.0
 50
0.0
 71
     0
 42
2.5
  3
amgdt.shx
  4

  0
STYLE
  2
ACJISTS
 70
     0
 40
1.0
 41
1.0
 50
0.0
 71
     0
 42
2.5
  3
isocp.shx
  4
bigfont.shx
  0
STYLE
  2
ACJISGDT
 70
     0
 40
0.0
 41
1.0
 50
0.0
 71
     0
 42
2.5
  3
amgdt.shx
  4

  0
STYLE
  2

 70
     1
 40
0.0
 41
1.0
 50
0.0
 71
     0
 42
2.5
  3
genltshp.shx
  4

  0
ENDTAB
  0
TABLE
  2
VIEW
 70
     6
  0
VIEW
  2
AM_VIEW1
 70
     0
 40
277.50000000000011
 10
249.64779005524869
 20
416.24999999999989
 41
499.2955801104971
 11
0.0
 21
0.0
 31
1.0
 12
0.0
 22
0.0
 32
0.0
 42
50.0
 43
0.0
 44
0.0
 50
0.0
 71
     0
  0
VIEW
  2
AM_VIEW2
 70
     0
 40
277.50000000000011
 10
603.85220994475117
 20
416.24999999999989
 41
499.2955801104971
 11
0.0
 21
0.0
 31
1.0
 12
0.0
 22
0.0
 32
0.0
 42
50.0
 43
0.0
 44
0.0
 50
0.0
 71
     0
  0
VIEW
  2
AM_VIEW3
 70
     0
 40
277.50000000000011
 10
249.64779005524869
 20
138.75
 41
499.2955801104971
 11
0.0
 21
0.0
 31
1.0
 12
0.0
 22
0.0
 32
0.0
 42
50.0
 43
0.0
 44
0.0
 50
0.0
 71
     0
  0
VIEW
  2
AM_VIEW4
 70
     0
 40
277.50000000000011
 10
603.85220994475117
 20
138.75
 41
499.2955801104971
 11
0.0
 21
0.0
 31
1.0
 12
0.0
 22
0.0
 32
0.0
 42
50.0
 43
0.0
 44
0.0
 50
0.0
 71
     0
  0
VIEW
  2
AM_VIEW5
 70
     0
 40
277.50000000000011
 10
426.75
 20
277.50000000000011
 41
499.2955801104971
 11
0.0
 21
0.0
 31
1.0
 12
0.0
 22
0.0
 32
0.0
 42
50.0
 43
0.0
 44
0.0
 50
0.0
 71
     0
  0
VIEW
  2
AM_VIEW6
 70
     0
 40
554.99445000000014
 10
426.75
 20
277.5
 41
998.5811743093924
 11
0.0
 21
0.0
 31
1.0
 12
0.0
 22
0.0
 32
0.0
 42
50.0
 43
0.0
 44
0.0
 50
0.0
 71
     0
  0
ENDTAB
  0
TABLE
  2
UCS
 70
     0
  0
ENDTAB
  0
TABLE
  2
APPID
 70
   101
  0
APPID
  2
ACAD
 70
     0
  0
APPID
  2
ACADANNOTATIVE
 70
     0
  0
APPID
  2
MCAD_NO_VIS
 70
     0
  0
APPID
  2
ACAD_TEMP_GRAPHIC
 70
     0
  0
APPID
  2
ACATTRIBSERVICES
 70
     0
  0
APPID
  2
GENIUS_GENREC_14
 70
     0
  0
APPID
  2
GENIUS_GENOBJ-N-REC_13
 70
     0
  0
APPID
  2
GENIUS_GENODEF_13
 70
     0
  0
APPID
  2
GENIUS_GENOLIS_13
 70
     0
  0
APPID
  2
GENIUS_GENOBJ-N-TIT_13
 70
     0
  0
APPID
  2
GENIUS_GENOENT_13
 70
     0
  0
APPID
  2
GENIUS_GENTITLE_13
 70
     0
  0
APPID
  2
GENIUS_GENOREF_13
 70
     0
  0
APPID
  2
GENIUS_GENSCREG_15
 70
     0
  0
APPID
  2
GENIUS_GENOBJ-N-SDF_13
 70
     0
  0
APPID
  2
GENIUS_GENFIL_13
 70
     0
  0
APPID
  2
GENIUS_GENOBJ-N-CHA_13
 70
     0
  0
APPID
  2
GENIUS_GENDTOL_13
 70
     0
  0
APPID
  2
GENIUS_GENOBJ-N-FIL_13
 70
     0
  0
APPID
  2
AD_DRAW
 70
     0
  0
APPID
  2
DESIGNERASSEMBLIES
 70
     0
  0
APPID
  2
ASURF_PCURVE_APPNAME
 70
     0
  0
APPID
  2
GENIUS_GE3SECT_13
 70
     0
  0
APPID
  2
GENIUS_GENCFG_13
 70
     0
  0
APPID
  2
GENIUS_GE3CFG0_13
 70
     0
  0
APPID
  2
GENIUS_GENCFG0_13
 70
     0
  0
APPID
  2
GENIUS_GENCFG1_13
 70
     0
  0
APPID
  2
GENIUS_GENCFG2_13
 70
     0
  0
APPID
  2
GENIUS_GENCFG3_13
 70
     0
  0
APPID
  2
GENIUS_GENCFG4_13
 70
     0
  0
APPID
  2
GENIUS_GEVCFG0_13
 70
     0
  0
APPID
  2
GENIUS_GENHINW_13
 70
     0
  0
APPID
  2
GENIUS_FIRSTVISTXT_14
 70
     0
  0
APPID
  2
GENIUS_GENOBJ-N-LEADER_13
 70
     0
  0
APPID
  2
GEV_VCCNULL_SWITCH_OFF
 70
     0
  0
APPID
  2
GENIUS_GEFCFG0_13
 70
     0
  0
APPID
  2
GENIUS_GENZVEED_13
 70
     0
  0
APPID
  2
GENIUS_GENSCREG_13
 70
     0
  0
APPID
  2
GENIUS_DUMCFG0_13
 70
     0
  0
APPID
  2
GEVID936201362
 70
     0
  0
APPID
  2
GEVDC
 70
     0
  0
APPID
  2
GEVCON
 70
     0
  0
APPID
  2
VCC
 70
     0
  0
APPID
  2
GEVPT
 70
     0
  0
APPID
  2
GEVIT
 70
     0
  0
APPID
  2
GENBH
 70
     0
  0
APPID
  2
GEVMK
 70
     0
  0
APPID
  2
GENIUS_GENBH_13
 70
     0
  0
APPID
  2
GENIUS_GENOBJ-NBEHI-BHF_13
 70
     0
  0
APPID
  2
GENIUS_GENOBJ-NBEHI-BHB_13
 70
     0
  0
APPID
  2
GENIUS_GENOBJ-F-DESC_13
 70
     0
  0
APPID
  2
GENIUS_GEFDESC_14
 70
     0
  0
APPID
  2
GENIUS_GENOBJ-F-PART_13
 70
     0
  0
APPID
  2
GENIUS_GEFSTDP_13
 70
     0
  0
APPID
  2
GENIUS_GEFPARTINS_13
 70
     0
  0
APPID
  2
GENIUS_GENTRA_14
 70
     0
  0
APPID
  2
GENIUS_GENINF13_13
 70
     0
  0
APPID
  2
GENIUS_GENOBJ-N-INFOPT_13
 70
     0
  0
APPID
  2
GENIUS_GENOBJ-N-RSSYM_13
 70
     0
  0
APPID
  2
GENIUS_GENSYMENT_13
 70
     0
  0
APPID
  2
GENIUS_GENSCSYM_13
 70
     0
  0
APPID
  2
GENIUS_GEFINFNAM_13
 70
     0
  0
APPID
  2
GENIUS_GENOBJ-N-CEN_13
 70
     0
  0
APPID
  2
GENIUS_GENOBJ-N-CRS_13
 70
     0
  0
APPID
  2
GENIUS_GENOBJ-N-CRC_13
 70
     0
  0
APPID
  2
GENIUS_GENCRC_14
 70
     0
  0
APPID
  2
GEVID942827039
 70
     0
  0
APPID
  2
GEVID942827040
 70
     0
  0
APPID
  2
GEVID942827041
 70
     0
  0
APPID
  2
GENIUS_GENOBJ-F-SCPASSM_13
 70
     0
  0
APPID
  2
GENIUS_GENDIMSH_14
 70
     0
  0
APPID
  2
GEVID942827042
 70
     0
  0
APPID
  2
GEVID946020473
 70
     0
  0
APPID
  2
GEVID946020474
 70
     0
  0
APPID
  2
GEVID946020475
 70
     0
  0
APPID
  2
GENIUS_GENOBJ-N-HTC_13
 70
     0
  0
APPID
  2
GENIUS_GENHATCH_13
 70
     0
  0
APPID
  2
GEVID948854295
 70
     0
  0
APPID
  2
GEVID939402019
 70
     0
  0
APPID
  2
GEVID952919491
 70
     0
  0
APPID
  2
GEVID952919492
 70
     0
  0
APPID
  2
GENIUS_GEFWELD_13
 70
     0
  0
APPID
  2
GENIUS_GENOBJ-F-WELS_13
 70
     0
  0
APPID
  2
GEVID952919493
 70
     0
  0
APPID
  2
GENIUS_GENOBJ-N-RSBK_13
 70
     0
  0
APPID
  2
GENIUS_GENOBJ-N-LIB_13
 70
     0
  0
APPID
  2
GENIUS_GENSCALE_13
 70
     0
  0
APPID
  2
GEVID986376691
 70
     0
  0
APPID
  2
DCO15
 70
     0
  0
APPID
  2
GEVID988070561
 70
     0
  0
APPID
  2
GEVID988070562
 70
     0
  0
APPID
  2
GEVID988070563
 70
     0
  0
APPID
  2
ACADM_DIM_EDIT
 70
     0
  0
APPID
  2
AMDT_DM_ADJ
 70
     0
  0
APPID
  2
ACAD_PSEXT
 70
     0
  0
APPID
  2
ACAD_DSTYLE_DIMJAG
 70
     0
  0
APPID
  2
ACAD_DSTYLE_DIMBREAK
 70
     0
  0
APPID
  2
ACAD_NAV_VCDISPLAY
 70
     0
  0
APPID
  2
ACADANNOPO
 70
     0
  0
APPID
  2
ACAD_EXEMPT_FROM_CAD_STANDARDS
 70
     0
  0
APPID
  2
ACAD_MLEADERVER
 70
     0
  0
ENDTAB
  0
TABLE
  2
DIMSTYLE
 70
    23
  0
DIMSTYLE
  2
STANDARD
 70
     0
  3

  4

  5

  6

  7

 40
1.0
 41
0.18
 42
0.0625
 43
0.38
 44
0.18
 45
0.0
 46
0.0
 47
0.0
 48
0.0
140
0.18
141
0.09
142
0.0
143
25.399999999999999
144
1.0
145
0.0
146
1.0
147
0.09
 71
     0
 72
     0
 73
     1
 74
     1
 75
     0
 76
     0
 77
     0
 78
     0
170
     0
171
     2
172
     0
173
     0
174
     0
175
     0
176
     0
177
     0
178
     0
  0
DIMSTYLE
  2
ANNOTATIVE
 70
     0
  3

  4

  5

  6

  7

 40
1.0
 41
0.18
 42
0.0625
 43
0.38
 44
0.18
 45
0.0
 46
0.0
 47
0.0
 48
0.0
140
0.18
141
0.09
142
0.0
143
25.399999999999999
144
1.0
145
0.0
146
1.0
147
0.09
 71
     0
 72
     0
 73
     1
 74
     1
 75
     0
 76
     0
 77
     0
 78
     0
170
     0
171
     2
172
     0
173
     0
174
     0
175
     0
176
     0
177
     0
178
     0
  0
DIMSTYLE
  2
AM_ISO
 70
     0
  3

  4
"
  5

  6

  7

 40
1.0
 41
2.5
 42
1.0
 43
8.0
 44
0.6
 45
0.0
 46
0.0
 47
0.1
 48
0.1
140
2.5
141
0.0
142
0.0
143
0.0393701
144
1.0
145
0.0
146
0.71
147
0.8
 71
     0
 72
     0
 73
     0
 74
     0
 75
     0
 76
     0
 77
     1
 78
     8
170
     0
171
     2
172
     1
173
     0
174
     0
175
     0
176
   256
177
   256
178
     4
  0
DIMSTYLE
  2
AM_ISO$3
 70
     0
  3

  4
"
  5

  6

  7

 40
1.0
 41
2.5
 42
1.0
 43
8.0
 44
0.6
 45
0.0
 46
0.0
 47
0.1
 48
0.1
140
2.5
141
0.0
142
0.0
143
0.0393701
144
1.0
145
0.0
146
0.71
147
0.8
 71
     0
 72
     0
 73
     0
 74
     1
 75
     0
 76
     0
 77
     1
 78
     8
170
     0
171
     2
172
     0
173
     0
174
     0
175
     0
176
   256
177
   256
178
     4
  0
DIMSTYLE
  2
AM_ISO$4
 70
     0
  3

  4
"
  5

  6

  7

 40
1.0
 41
2.5
 42
1.0
 43
8.0
 44
0.6
 45
0.0
 46
0.0
 47
0.1
 48
0.1
140
2.5
141
0.0
142
0.0
143
0.0393701
144
1.0
145
0.0
146
0.71
147
0.8
 71
     0
 72
     0
 73
     0
 74
     1
 75
     0
 76
     0
 77
     1
 78
     8
170
     0
171
     2
172
     0
173
     0
174
     0
175
     0
176
   256
177
   256
178
     4
  0
DIMSTYLE
  2
AM_ISO$6
 70
     0
  3

  4
"
  5

  6

  7

 40
1.0
 41
2.5
 42
1.0
 43
8.0
 44
0.6
 45
0.0
 46
0.0
 47
0.1
 48
0.1
140
2.5
141
0.0
142
0.0
143
0.0393701
144
1.0
145
0.0
146
0.71
147
0.8
 71
     0
 72
     0
 73
     0
 74
     0
 75
     0
 76
     0
 77
     0
 78
     8
170
     0
171
     2
172
     1
173
     0
174
     0
175
     0
176
   256
177
   256
178
     4
  0
DIMSTYLE
  2
AM_ISO$7
 70
     0
  3

  4
"
  5

  6

  7

 40
1.0
 41
2.5
 42
1.0
 43
8.0
 44
0.6
 45
0.0
 46
0.0
 47
0.1
 48
0.1
140
2.5
141
0.0
142
0.0
143
0.0393701
144
1.0
145
0.0
146
0.71
147
0.8
 71
     0
 72
     0
 73
     0
 74
     0
 75
     0
 76
     0
 77
     1
 78
     8
170
     0
171
     2
172
     1
173
     0
174
     0
175
     0
176
   256
177
   256
178
     4
  0
DIMSTYLE
  2
AM_ISO$SF
 70
     0
  3

  4
"
  5

  6

  7

 40
1.0
 41
2.5
 42
1.0
 43
10.0
 44
1.0
 45
0.0
 46
0.0
 47
0.1
 48
0.1
140
3.5
141
0.0
142
0.0
143
0.0393701
144
1.0
145
0.0
146
0.71
147
1.5
 71
     0
 72
     0
 73
     0
 74
     0
 75
     1
 76
     1
 77
     1
 78
     8
170
     0
171
     2
172
     1
173
     0
174
     0
175
     0
176
   256
177
   256
178
     2
  0
DIMSTYLE
  2
AM_ISO$SH
 70
     0
  3

  4
"
  5

  6

  7

 40
1.0
 41
2.5
 42
1.0
 43
10.0
 44
1.0
 45
0.0
 46
0.0
 47
0.1
 48
0.1
140
3.5
141
0.0
142
0.0
143
0.0393701
144
2.0
145
0.0
146
0.71
147
1.5
 71
     0
 72
     0
 73
     0
 74
     0
 75
     1
 76
     1
 77
     1
 78
     8
170
     0
171
     2
172
     1
173
     1
174
     0
175
     0
176
   256
177
   256
178
     2
  0
DIMSTYLE
  2
AM_JIS
 70
     0
  3

  4
"
  5

  6

  7

 40
1.0
 41
2.5
 42
1.0
 43
7.0
 44
1.0
 45
0.0
 46
0.0
 47
0.1
 48
0.1000000001
140
2.5
141
0.0
142
0.0
143
0.0393701
144
1.0
145
0.0
146
0.71
147
1.0
 71
     0
 72
     0
 73
     0
 74
     0
 75
     0
 76
     0
 77
     3
 78
     8
170
     0
171
     2
172
     1
173
     0
174
     0
175
     0
176
   256
177
   256
178
     4
  0
DIMSTYLE
  2
AM_JIS$3
 70
     0
  3

  4
"
  5

  6

  7

 40
1.0
 41
2.5
 42
1.0
 43
7.0
 44
1.0
 45
0.0
 46
0.0
 47
0.1
 48
0.1000000001
140
2.5
141
0.0
142
0.0
143
0.0393701
144
1.0
145
0.0
146
0.71
147
1.0
 71
     0
 72
     0
 73
     0
 74
     1
 75
     0
 76
     0
 77
     3
 78
     8
170
     0
171
     2
172
     0
173
     0
174
     0
175
     0
176
   256
177
   256
178
     4
  0
DIMSTYLE
  2
AM_JIS$4
 70
     0
  3

  4
"
  5

  6

  7

 40
1.0
 41
2.5
 42
1.0
 43
7.0
 44
1.0
 45
0.0
 46
0.0
 47
0.1
 48
0.1000000001
140
2.5
141
0.0
142
0.0
143
0.0393701
144
1.0
145
0.0
146
0.71
147
1.0
 71
     0
 72
     0
 73
     0
 74
     0
 75
     0
 76
     0
 77
     3
 78
     8
170
     0
171
     2
172
     0
173
     0
174
     0
175
     0
176
   256
177
   256
178
     4
  0
DIMSTYLE
  2
AM_JIS$6
 70
     0
  3

  4
"
  5

  6

  7

 40
1.0
 41
2.5
 42
1.0
 43
7.0
 44
1.0
 45
0.0
 46
0.0
 47
0.1
 48
0.1000000001
140
2.5
141
0.0
142
0.0
143
0.0393701
144
1.0
145
0.0
146
0.71
147
1.0
 71
     0
 72
     0
 73
     0
 74
     0
 75
     0
 76
     0
 77
     0
 78
     8
170
     0
171
     2
172
     1
173
     0
174
     0
175
     0
176
   256
177
   256
178
     4
  0
DIMSTYLE
  2
AM_JIS$7
 70
     0
  3

  4
"
  5

  6

  7

 40
1.0
 41
2.5
 42
1.0
 43
7.0
 44
1.0
 45
0.0
 46
0.0
 47
0.1
 48
0.1000000001
140
2.5
141
0.0
142
0.0
143
0.0393701
144
1.0
145
0.0
146
0.71
147
1.0
 71
     0
 72
     0
 73
     0
 74
     0
 75
     0
 76
     0
 77
     3
 78
     8
170
     0
171
     2
172
     1
173
     0
174
     0
175
     0
176
   256
177
   256
178
     4
  0
DIMSTYLE
  2
AM_JIS$SF
 70
     0
  3

  4
"
  5

  6

  7

 40
1.0
 41
2.5
 42
1.0
 43
10.0
 44
1.0
 45
0.0
 46
0.0
 47
0.1
 48
0.1
140
3.5
141
0.0
142
0.0
143
0.0393701
144
1.0
145
0.0
146
0.71
147
1.5
 71
     0
 72
     0
 73
     0
 74
     0
 75
     1
 76
     1
 77
     3
 78
     8
170
     0
171
     2
172
     1
173
     0
174
     0
175
     0
176
   256
177
   256
178
     4
  0
DIMSTYLE
  2
AM_JIS$SH
 70
     0
  3

  4
"
  5

  6

  7

 40
1.0
 41
2.5
 42
1.0
 43
10.0
 44
1.0
 45
0.0
 46
0.0
 47
0.1
 48
0.1
140
3.5
141
0.0
142
0.0
143
0.0393701
144
1.0
145
0.0
146
0.71
147
1.5
 71
     0
 72
     0
 73
     0
 74
     0
 75
     1
 76
     0
 77
     3
 78
     8
170
     0
171
     2
172
     1
173
     1
174
     0
175
     0
176
   256
177
   256
178
     4
  0
DIMSTYLE
  2
AM_ISO$0
 70
     0
  3

  4
"
  5

  6

  7

 40
1.0
 41
2.5
 42
1.0
 43
8.0
 44
0.6
 45
0.0
 46
0.0
 47
0.1
 48
0.1
140
2.5
141
0.0
142
0.0
143
0.0393701
144
1.0
145
0.0
146
0.71
147
0.8
 71
     0
 72
     0
 73
     0
 74
     0
 75
     0
 76
     0
 77
     1
 78
     8
170
     0
171
     2
172
     1
173
     0
174
     0
175
     0
176
   256
177
   256
178
     4
  0
DIMSTYLE
  2
AM_ANSI
 70
     0
  3

  4
mm
  5

  6

  7

 40
1.0
 41
0.12
 42
0.05
 43
0.5
 44
0.1
 45
0.0
 46
0.0
 47
0.1
 48
0.1
140
0.12
141
0.0
142
0.0
143
25.399999999999999
144
1.0
145
0.0
146
0.71
147
0.06
 71
     0
 72
     0
 73
     1
 74
     1
 75
     0
 76
     0
 77
     0
 78
     7
170
     0
171
     2
172
     0
173
     0
174
     0
175
     0
176
   256
177
   256
178
     2
  0
DIMSTYLE
  2
AM_ANSI$3
 70
     0
  3

  4
mm
  5

  6

  7

 40
1.0
 41
0.12
 42
0.05
 43
0.5
 44
0.1
 45
0.0
 46
0.0
 47
0.1
 48
0.1
140
0.12
141
0.0
142
0.0
143
25.399999999999999
144
1.0
145
0.0
146
0.71
147
0.06
 71
     0
 72
     0
 73
     1
 74
     1
 75
     0
 76
     0
 77
     0
 78
     7
170
     0
171
     2
172
     0
173
     0
174
     0
175
     0
176
   256
177
   256
178
     2
  0
DIMSTYLE
  2
AM_ANSI$4
 70
     0
  3

  4
mm
  5

  6

  7

 40
1.0
 41
0.12
 42
0.05
 43
0.5
 44
0.1
 45
0.0
 46
0.0
 47
0.1
 48
0.1
140
0.12
141
0.0
142
0.0
143
25.399999999999999
144
1.0
145
0.0
146
0.71
147
0.06
 71
     0
 72
     0
 73
     1
 74
     1
 75
     0
 76
     0
 77
     0
 78
     7
170
     0
171
     2
172
     0
173
     0
174
     0
175
     0
176
   256
177
   256
178
     2
  0
DIMSTYLE
  2
AM_ANSI$7
 70
     0
  3

  4
mm
  5

  6

  7

 40
1.0
 41
0.12
 42
0.05
 43
0.5
 44
0.1
 45
0.0
 46
0.0
 47
0.1
 48
0.1
140
0.12
141
0.0
142
0.0
143
25.399999999999999
144
1.0
145
0.0
146
0.71
147
0.06
 71
     0
 72
     0
 73
     1
 74
     1
 75
     0
 76
     0
 77
     0
 78
     7
170
     0
171
     2
172
     0
173
     0
174
     0
175
     0
176
   256
177
   256
178
     2
  0
DIMSTYLE
  2
AM_ANSI$SF
 70
     0
  3

  4
mm
  5

  6

  7

 40
1.0
 41
0.12
 42
0.05
 43
0.5
 44
0.1
 45
0.0
 46
0.0
 47
0.1
 48
0.1
140
0.12
141
0.0
142
0.0
143
25.399999999999999
144
1.0
145
0.0
146
0.71
147
0.06
 71
     0
 72
     0
 73
     1
 74
     1
 75
     1
 76
     1
 77
     0
 78
     7
170
     0
171
     2
172
     0
173
     0
174
     0
175
     0
176
   256
177
   256
178
     2
  0
DIMSTYLE
  2
AM_ANSI$SH
 70
     0
  3

  4
mm
  5

  6
GENAXEH
  7

 40
1.0
 41
0.12
 42
0.05
 43
0.5
 44
0.1
 45
0.0
 46
0.0
 47
0.1
 48
0.1
140
0.12
141
0.0
142
0.0
143
25.399999999999999
144
1.0
145
0.0
146
0.71
147
0.06
 71
     0
 72
     0
 73
     1
 74
     1
 75
     1
 76
     1
 77
     0
 78
     7
170
     0
171
     2
172
     0
173
     1
174
     0
175
     0
176
   256
177
   256
178
     2
  0
ENDTAB
  0
ENDSEC
  0
SECTION
  2
BLOCKS
  0
BLOCK
  8
0
  2
$MODEL_SPACE
 70
     0
 10
0.0
 20
0.0
 30
0.0
  3
$MODEL_SPACE
  1

  0
ENDBLK
  5
6019
  8
0
  0
BLOCK
 67
     1
  8
0
  2
$PAPER_SPACE
 70
     0
 10
0.0
 20
0.0
 30
0.0
  3
$PAPER_SPACE
  1

  0
ENDBLK
  5
6015
 67
     1
  8
0
  0
BLOCK
  8
0
  2
GENAXEH
 70
     0
 10
0.0
 20
0.0
 30
0.0
  3
GENAXEH
  1

  0
LINE
  5
73
  8
0
 10
-1.0
 20
0.0
 30
0.0
 11
1.0
 21
0.0
 31
0.0
  0
ENDBLK
  5
75
  8
0
  0
BLOCK
  8
0
  2
_OPEN30
 70
     0
 10
0.0
 20
0.0
 30
0.0
  3
_OPEN30
  1

  0
LINE
  5
31A
  8
0
 62
     0
 10
-1.0
 20
0.26794919
 30
0.0
 11
0.0
 21
0.0
 31
0.0
  0
LINE
  5
31B
  8
0
 62
     0
 10
0.0
 20
0.0
 30
0.0
 11
-1.0
 21
-0.26794919
 31
0.0
  0
LINE
  5
31C
  8
0
 62
     0
 10
0.0
 20
0.0
 30
0.0
 11
-1.0
 21
0.0
 31
0.0
  0
ENDBLK
  5
31E
  8
0
  0
BLOCK
  8
0
  2
_NONE
 70
     0
 10
0.0
 20
0.0
 30
0.0
  3
_NONE
  1

  0
ENDBLK
  5
579
  8
0
  0
BLOCK
  8
0
  2
*U5
 70
     1
 10
0.0
 20
0.0
 30
0.0
  3
*U5
  1

  0
TEXT
  5
5E43
  8
AM_0
 10
529.75203277627816
 20
501.07640657459319
 30
0.0
 40
10.0
  1
ＶＸ０２－００５～０３０ＭＦＷ
 41
0.8299999999999999
  0
ENDBLK
  5
5E45
  8
0
  0
BLOCK
  8
0
  2
_ACMFILLEDHALF
 70
     0
 10
0.0
 20
0.0
 30
0.0
  3
_ACMFILLEDHALF
  1

  0
TRACE
  5
611B
  8
AM_0
 62
     0
 10
-0.8
 20
0.0
 30
0.0
 11
-1.0
 21
0.166666666
 31
0.0
 12
0.0
 22
0.0
 32
0.0
 13
0.0
 23
0.0
 33
0.0
  0
LINE
  5
611C
  8
AM_0
 62
     0
 10
-1.0
 20
0.0
 30
0.0
 11
-0.8
 21
0.0
 31
0.0
  0
ENDBLK
  5
611A
  8
0
  0
ENDSEC
  0
SECTION
  2
ENTITIES
  0
LINE
  5
5280
  8
AM_0
 10
271.38308828348983
 20
204.87616024896249
 30
0.0
 11
274.38308828348971
 21
204.87616024896261
 31
0.0
  0
LINE
  5
5281
  8
AM_0
 10
271.3830882834896
 20
281.32225924896261
 30
0.0
 11
274.38308828348971
 21
281.32225924896261
 31
0.0
  0
LINE
  5
5282
  8
AM_0
 10
169.5895182834895
 20
186.8159922489626
 30
0.0
 11
266.50925828348971
 21
186.8159922489626
 31
0.0
  0
LINE
  5
5283
  8
AM_0
 10
168.0610182834896
 20
206.37616024896261
 30
0.0
 11
175.3830882834896
 21
206.37616024896261
 31
0.0
  0
LINE
  5
5284
  8
AM_0
 10
175.3830882834896
 20
209.0992422489625
 30
0.0
 11
168.74849828348951
 21
209.09924224896261
 31
0.0
  0
LINE
  5
5285
  8
AM_0
 10
175.3830882834896
 20
207.09924424896261
 30
0.0
 11
168.74849828348951
 21
207.09924424896261
 31
0.0
  0
LINE
  5
5286
  8
AM_0
 10
175.3830882834896
 20
279.09925924896248
 30
0.0
 11
168.74849828348951
 21
279.09925924896248
 31
0.0
  0
LINE
  5
5287
  8
AM_0
 10
175.3830882834896
 20
277.09924624896257
 30
0.0
 11
168.74849828348951
 21
277.09924624896257
 31
0.0
  0
LINE
  5
5288
  8
AM_0
 10
168.0603882834896
 20
279.82225924896261
 30
0.0
 11
175.3830882834896
 21
279.82225924896261
 31
0.0
  0
LINE
  5
5289
  8
AM_0
 10
169.5895182834895
 20
299.38249924896257
 30
0.0
 11
266.50925828348971
 21
299.38249924896257
 31
0.0
  0
ARC
  5
528A
  8
AM_0
 10
168.0603882834896
 20
278.14435024896261
 30
0.0
 40
1.6779127499999991
 50
90.00000299999769
 51
270.0
  0
ARC
  5
528B
  8
AM_0
 10
168.93245828348961
 20
278.09924524896257
 30
0.0
 40
1.0000000199999981
 50
90.00000299999769
 51
270.0
  0
LINE
  5
528C
  8
AM_0
 10
154.3830882834896
 20
278.49212824896262
 30
0.0
 11
154.3830882834896
 21
277.43219224896262
 31
0.0
  0
ARC
  5
528D
  8
AM_0
 10
153.38309828348949
 20
277.27398724896261
 30
0.0
 40
1.0000000199999981
 50
113.12703000000251
 51
180.00001000000091
  0
LINE
  5
528E
  8
AM_0
 10
154.19492828348959
 20
278.7081612489626
 30
0.0
 11
152.99033828348971
 21
278.19369724896239
 31
0.0
  0
LINE
  5
528F
  8
AM_0
 10
152.38307828348951
 20
291.11560924896253
 30
0.0
 11
152.38307828348951
 21
254.09924424896269
 31
0.0
  0
LINE
  5
5290
  8
AM_0
 10
158.38307828348951
 20
296.09923924896248
 30
0.0
 11
158.38307828348951
 21
255.09924424896269
 31
0.0
  0
LINE
  5
5291
  8
AM_0
 10
158.38307828348951
 20
231.0992442489628
 30
0.0
 11
158.38307828348951
 21
190.09925824896251
 31
0.0
  0
LINE
  5
5292
  8
AM_0
 10
166.3830882834896
 20
296.09923924896248
 30
0.0
 11
166.3830882834896
 21
193.6590102489626
 31
0.0
  0
LINE
  5
5293
  8
AM_0
 10
157.3830882834896
 20
293.09923924896259
 30
0.0
 11
157.3830882834896
 21
255.09924424896261
 31
0.0
  0
LINE
  5
5294
  8
AM_0
 10
157.3830882834896
 20
231.09924424896269
 30
0.0
 11
157.3830882834896
 21
191.97601324896249
 31
0.0
  0
LINE
  5
5295
  8
AM_0
 10
171.74855828348959
 20
206.4479682489625
 30
0.0
 11
166.3831482834895
 21
195.00349324896251
 31
0.0
  0
ARC
  5
5296
  8
AM_0
 10
153.38309828348949
 20
195.08284024896261
 30
0.0
 40
1.0000000199999981
 50
179.999989999999
 51
239.97361000000231
  0
LINE
  5
5297
  8
AM_0
 10
154.16969828348951
 20
194.60449024896249
 30
0.0
 11
152.9304582834894
 21
195.23352124896249
 31
0.0
  0
ARC
  5
5298
  8
AM_0
 10
203.3830782834896
 20
185.9696022489625
 30
0.0
 40
2.00000007
 50
270.0
 51
0.0
  0
ARC
  5
5299
  8
AM_0
 10
203.3830782834896
 20
183.21130324896251
 30
0.0
 40
2.00000007
 50
270.0
 51
0.0
  0
LINE
  5
529A
  8
AM_0
 10
205.38308828348971
 20
183.21130324896251
 30
0.0
 11
205.38308828348971
 21
186.8159922489626
 31
0.0
  0
ARC
  5
529B
  8
AM_0
 10
203.3830782834896
 20
184.12182424896261
 30
0.0
 40
2.00000007
 50
270.0
 51
0.0
  0
LINE
  5
529C
  8
AM_0
 10
166.3830882834896
 20
195.0034632489625
 30
0.0
 11
167.62430828348951
 21
188.44410724896261
 31
0.0
  0
LINE
  5
529D
  8
AM_0
 10
166.3830882834896
 20
193.65893524896251
 30
0.0
 11
167.6631882834896
 21
185.65376224896241
 31
0.0
  0
LINE
  5
529E
  8
AM_0
 10
166.38302828348941
 20
192.3144072489626
 30
0.0
 11
167.6741082834896
 21
183.82128724896239
 31
0.0
  0
ARC
  5
529F
  8
AM_0
 10
169.5895182834895
 20
188.81597824896249
 30
0.0
 40
2.00000007
 50
190.71568999999951
 51
270.0
  0
ARC
  5
52A0
  8
AM_0
 10
169.63808828348971
 20
185.9696022489625
 30
0.0
 40
2.00000007
 50
189.08497000000031
 51
270.0
  0
LINE
  5
52A1
  8
AM_0
 10
157.3830882834896
 20
193.09925824896251
 30
0.0
 11
158.38307828348951
 21
193.09925824896251
 31
0.0
  0
ARC
  5
52A2
  8
AM_0
 10
156.88307828348951
 20
192.84986824896251
 30
0.0
 40
0.5000000100000001
 50
0.0
 51
90.00000299999769
  0
ARC
  5
52A3
  8
AM_0
 10
156.88307828348951
 20
194.9961552489624
 30
0.0
 40
0.5000000100000001
 50
270.0
 51
0.0
  0
LINE
  5
52A4
  8
AM_0
 10
158.38307828348951
 20
190.09925824896251
 30
0.0
 11
166.3830882834896
 21
190.09925824896251
 31
0.0
  0
ARC
  5
52A5
  8
AM_0
 10
169.6727682834896
 20
183.21130324896251
 30
0.0
 40
2.00000007
 50
187.94403999999901
 51
270.0
  0
LINE
  5
52A6
  8
AM_0
 10
166.38302828348941
 20
192.3143622489626
 30
0.0
 11
167.69192828348969
 21
182.9349192489625
 31
0.0
  0
ARC
  5
52A7
  8
AM_0
 10
169.65146828348969
 20
184.12182424896261
 30
0.0
 40
2.00000007
 50
188.6433899999989
 51
270.0
  0
ARC
  5
52A8
  8
AM_0
 10
154.65128828348941
 20
194.34986824896239
 30
0.0
 40
1.0000000199999981
 50
239.97359999999659
 51
270.0
  0
ARC
  5
52A9
  8
AM_0
 10
154.6223382834896
 20
195.4961532489626
 30
0.0
 40
1.0000000199999981
 50
243.08873999999739
 51
270.0
  0
LINE
  5
52AA
  8
AM_0
 10
154.3830882834896
 20
193.60308724896251
 30
0.0
 11
154.3830882834896
 21
194.12886124896249
 31
0.0
  0
LINE
  5
52AB
  8
AM_0
 10
154.15091828348969
 20
193.48405324896251
 30
0.0
 11
152.88272828348951
 21
194.2170402489626
 31
0.0
  0
LINE
  5
52AC
  8
AM_0
 10
154.65128828348941
 20
193.3498542489626
 30
0.0
 11
156.88307828348951
 21
193.3498542489626
 31
0.0
  0
LINE
  5
52AD
  8
AM_0
 10
154.6223382834896
 20
194.4961692489625
 30
0.0
 11
156.88307828348951
 21
194.4961692489625
 31
0.0
  0
LINE
  5
52AE
  8
AM_0
 10
169.63808828348971
 20
183.96961924896249
 30
0.0
 11
203.3830782834896
 21
183.96961924896249
 31
0.0
  0
LINE
  5
52AF
  8
AM_0
 10
169.65146828348969
 20
182.12182624896261
 30
0.0
 11
203.3830782834896
 21
182.12182624896261
 31
0.0
  0
LINE
  5
52B0
  8
AM_0
 10
169.6727682834896
 20
181.2113172489625
 30
0.0
 11
203.3830782834896
 21
181.2113172489625
 31
0.0
  0
ARC
  5
52B1
  8
AM_0
 10
156.38309828348949
 20
275.84234824896248
 30
0.0
 40
1.0000000199999981
 50
0.0
 51
90.00000299999769
  0
LINE
  5
52B2
  8
AM_0
 10
174.38308828348951
 20
267.09924424896258
 30
0.0
 11
168.74849828348951
 21
267.09924424896258
 31
0.0
  0
LINE
  5
52B3
  8
AM_0
 10
174.38308828348951
 20
269.09924524896257
 30
0.0
 11
168.74849828348951
 21
269.09924524896257
 31
0.0
  0
ARC
  5
52B4
  8
AM_0
 10
167.84456828348971
 20
268.12390324896251
 30
0.0
 40
1.461486869999999
 50
90.00000299999769
 51
270.0
  0
ARC
  5
52B5
  8
AM_0
 10
168.93245828348961
 20
268.09924624896257
 30
0.0
 40
1.0000000199999981
 50
90.00000299999769
 51
270.0
  0
LINE
  5
52B6
  8
AM_0
 10
167.84456828348971
 20
266.66241724896253
 30
0.0
 11
174.3830882834896
 21
266.66241724896253
 31
0.0
  0
LINE
  5
52B7
  8
AM_0
 10
167.84456828348971
 20
269.58538924896249
 30
0.0
 11
174.3830882834896
 21
269.58538924896249
 31
0.0
  0
LINE
  5
52B8
  8
AM_0
 10
174.3830882834896
 20
259.09924324896258
 30
0.0
 11
168.74849828348951
 21
259.09924324896258
 31
0.0
  0
LINE
  5
52B9
  8
AM_0
 10
174.3830882834896
 20
257.09924524896257
 30
0.0
 11
168.74849828348951
 21
257.09924524896257
 31
0.0
  0
ARC
  5
52BA
  8
AM_0
 10
167.71400828348951
 20
258.11181724896261
 30
0.0
 40
1.3309326599999991
 50
90.00000299999769
 51
270.0
  0
ARC
  5
52BB
  8
AM_0
 10
168.93245828348961
 20
258.09924424896258
 30
0.0
 40
1.0000000199999981
 50
90.00000299999769
 51
270.0
  0
LINE
  5
52BC
  8
AM_0
 10
167.71400828348951
 20
259.44274924896263
 30
0.0
 11
174.3830882834896
 21
259.44274924896263
 31
0.0
  0
LINE
  5
52BD
  8
AM_0
 10
167.71400828348951
 20
256.78088524896248
 30
0.0
 11
174.3830882834896
 21
256.78088524896248
 31
0.0
  0
POLYLINE
  5
52BE
  8
AM_0
 66
     1
 10
0.0
 20
0.0
 30
0.0
  0
VERTEX
  5
52BF
  8
AM_0
  6
CONTINUOUS
 10
169.2635682834896
 20
259.44179224896249
 30
0.0
  0
VERTEX
  5
52C0
  8
AM_0
  6
CONTINUOUS
 10
169.90961828348969
 20
266.66271424896252
 30
0.0
 42
-1.0
  0
SEQEND
  5
52C1
  8
AM_0
  0
ARC
  5
52C2
  8
AM_0
 10
156.38309828348949
 20
266.09924524896257
 30
0.0
 40
1.0000000199999981
 50
0.0
 51
90.00000299999769
  0
ARC
  5
52C3
  8
AM_0
 10
156.38309828348949
 20
270.09924424896258
 30
0.0
 40
1.0000000199999981
 50
270.0
 51
0.0
  0
ARC
  5
52C4
  8
AM_0
 10
156.38309828348949
 20
256.09924324896258
 30
0.0
 40
1.0000000199999981
 50
0.0
 51
90.00000299999769
  0
ARC
  5
52C5
  8
AM_0
 10
156.38309828348949
 20
260.09924524896257
 30
0.0
 40
1.0000000199999981
 50
270.0
 51
0.0
  0
POLYLINE
  5
52C6
  8
AM_0
 66
     1
 10
0.0
 20
0.0
 30
0.0
  0
VERTEX
  5
52C7
  8
AM_0
  6
CONTINUOUS
 10
170.24531828348969
 20
269.58618124896248
 30
0.0
  0
VERTEX
  5
52C8
  8
AM_0
  6
CONTINUOUS
 10
171.20579828348971
 20
276.46781524896261
 30
0.0
 42
-1.0
  0
SEQEND
  5
52C9
  8
AM_0
  0
LINE
  5
52CA
  8
AM_0
 10
168.0603882834896
 20
276.46643224896252
 30
0.0
 11
175.3830882834896
 21
276.46643224896252
 31
0.0
  0
POLYLINE
  5
52CB
  8
AM_0
 66
     1
 10
0.0
 20
0.0
 30
0.0
  0
VERTEX
  5
52CC
  8
AM_0
  6
CONTINUOUS
 10
169.2635682834896
 20
226.7566572489626
 30
0.0
  0
VERTEX
  5
52CD
  8
AM_0
  6
CONTINUOUS
 10
169.90961828348969
 20
219.53572024896249
 30
0.0
 42
-1.0
  0
SEQEND
  5
52CE
  8
AM_0
  0
LINE
  5
52CF
  8
AM_0
 10
174.3830882834896
 20
219.09924424896261
 30
0.0
 11
168.74849828348951
 21
219.09924424896261
 31
0.0
  0
LINE
  5
52D0
  8
AM_0
 10
174.3830882834896
 20
229.0992582489626
 30
0.0
 11
168.74849828348951
 21
229.0992582489626
 31
0.0
  0
LINE
  5
52D1
  8
AM_0
 10
174.3830882834896
 20
227.09924224896261
 30
0.0
 11
168.74849828348951
 21
227.09924224896261
 31
0.0
  0
ARC
  5
52D2
  8
AM_0
 10
167.71400828348951
 20
228.08668624896259
 30
0.0
 40
1.3309326599999991
 50
90.00000299999769
 51
270.0
  0
LINE
  5
52D3
  8
AM_0
 10
167.8446282834895
 20
219.5360262489626
 30
0.0
 11
174.3830882834896
 21
219.5360262489626
 31
0.0
  0
ARC
  5
52D4
  8
AM_0
 10
168.93245828348961
 20
228.09924424896261
 30
0.0
 40
1.0000000199999981
 50
90.00000299999769
 51
270.0
  0
LINE
  5
52D5
  8
AM_0
 10
167.71400828348951
 20
229.41760324896259
 30
0.0
 11
174.3830882834896
 21
229.41760324896259
 31
0.0
  0
LINE
  5
52D6
  8
AM_0
 10
167.71400828348951
 20
226.75573624896251
 30
0.0
 11
174.3830882834896
 21
226.75573624896251
 31
0.0
  0
ARC
  5
52D7
  8
AM_0
 10
156.38309828348949
 20
220.09925824896251
 30
0.0
 40
1.0000000199999981
 50
270.0
 51
0.0
  0
ARC
  5
52D8
  8
AM_0
 10
156.38309828348949
 20
230.09924224896261
 30
0.0
 40
1.0000000199999981
 50
270.0
 51
0.0
  0
ARC
  5
52D9
  8
AM_0
 10
156.38309828348949
 20
226.09925824896251
 30
0.0
 40
1.0000000199999981
 50
0.0
 51
90.00000299999769
  0
POLYLINE
  5
52DA
  8
AM_0
 66
     1
 10
0.0
 20
0.0
 30
0.0
  0
VERTEX
  5
52DB
  8
AM_0
 10
169.02276694669419
 20
231.09924424896261
 30
0.0
  0
VERTEX
  5
52DC
  8
AM_0
 10
169.0904382834897
 20
229.41985624896259
 30
0.0
 42
-1.0
  0
SEQEND
  5
52DD
  8
AM_0
  0
POLYLINE
  5
52DE
  8
AM_0
 66
     1
 10
0.0
 20
0.0
 30
0.0
  0
VERTEX
  5
52DF
  8
AM_0
 10
169.0227677220025
 20
255.09924424896261
 30
0.0
  0
VERTEX
  5
52E0
  8
AM_0
 10
169.0904382834897
 20
256.77860824896248
 30
0.0
 42
-1.0
  0
SEQEND
  5
52E1
  8
AM_0
  0
ARC
  5
52E2
  8
AM_0
 10
154.53341828348971
 20
275.84234824896248
 30
0.0
 40
1.0000000199999981
 50
90.00000299999769
 51
107.0976299999969
  0
ARC
  5
52E3
  8
AM_0
 10
153.38309828348949
 20
275.48852824896261
 30
0.0
 40
1.0000000199999981
 50
107.0976299999969
 51
180.00001000000091
  0
LINE
  5
52E4
  8
AM_0
 10
154.23941828348961
 20
276.79815724896253
 30
0.0
 11
153.08909828348959
 21
276.44430724896262
 31
0.0
  0
LINE
  5
52E5
  8
AM_0
 10
154.3830882834896
 20
268.72540324896261
 30
0.0
 11
154.3830882834896
 21
267.36261124896248
 31
0.0
  0
ARC
  5
52E6
  8
AM_0
 10
153.38309828348949
 20
268.09924624896257
 30
0.0
 40
1.0000000199999981
 50
179.999989999999
 51
270.0
  0
ARC
  5
52E7
  8
AM_0
 10
153.38309828348949
 20
268.09924624896257
 30
0.0
 40
1.0000000199999981
 50
90.00000299999769
 51
180.00001000000091
  0
LINE
  5
52E8
  8
AM_0
 10
154.3830882834896
 20
258.7063602489626
 30
0.0
 11
154.3830882834896
 21
257.49493624896252
 31
0.0
  0
LINE
  5
52E9
  8
AM_0
 10
150.88307828348951
 20
263.09924524896257
 30
0.0
 11
152.38307828348951
 21
263.23047124896249
 31
0.0
  0
LINE
  5
52EA
  8
AM_0
 10
150.88307828348951
 20
260.38122724896249
 30
0.0
 11
152.38307828348951
 21
260.38122724896249
 31
0.0
  0
ARC
  5
52EB
  8
AM_0
 10
153.38309828348949
 20
258.09924424896258
 30
0.0
 40
1.0000000199999981
 50
90.00000299999769
 51
180.00001000000091
  0
ARC
  5
52EC
  8
AM_0
 10
153.38309828348949
 20
258.09924424896258
 30
0.0
 40
1.0000000199999981
 50
179.999989999999
 51
270.0
  0
LINE
  5
52ED
  8
AM_0
 10
154.3830882834896
 20
227.49214324896249
 30
0.0
 11
154.3830882834896
 21
228.70349224896259
 31
0.0
  0
LINE
  5
52EE
  8
AM_0
 10
150.88313828348959
 20
223.09925824896251
 30
0.0
 11
152.38307828348951
 21
222.9680172489625
 31
0.0
  0
LINE
  5
52EF
  8
AM_0
 10
150.88307828348951
 20
225.8172012489625
 30
0.0
 11
152.38307828348951
 21
225.8172012489625
 31
0.0
  0
ARC
  5
52F0
  8
AM_0
 10
153.38309828348949
 20
228.09924424896261
 30
0.0
 40
1.0000000199999981
 50
179.999989999999
 51
270.0
  0
ARC
  5
52F1
  8
AM_0
 10
153.38309828348949
 20
228.09924424896261
 30
0.0
 40
1.0000000199999981
 50
90.00000299999769
 51
180.00001000000091
  0
LINE
  5
52F2
  8
AM_0
 10
150.88307828348951
 20
227.94922024896249
 30
0.0
 11
154.17677828348951
 21
227.94922024896249
 31
0.0
  0
LINE
  5
52F3
  8
AM_0
 10
150.88307828348951
 20
223.09925824896251
 30
0.0
 11
150.88307828348951
 21
232.09924424896269
 31
0.0
  0
LINE
  5
52F4
  8
AM_0
 10
150.88307828348951
 20
263.09924524896257
 30
0.0
 11
150.88307828348951
 21
254.09924424896261
 31
0.0
  0
LINE
  5
52F5
  8
AM_0
 10
156.38309828348949
 20
267.09924424896258
 30
0.0
 11
153.38309828348949
 21
267.09924424896258
 31
0.0
  0
LINE
  5
52F6
  8
AM_0
 10
154.53341828348971
 20
276.8423472489626
 30
0.0
 11
156.38309828348949
 21
276.8423472489626
 31
0.0
  0
LINE
  5
52F7
  8
AM_0
 10
156.38309828348949
 20
269.09924524896257
 30
0.0
 11
153.38309828348949
 21
269.09924524896257
 31
0.0
  0
LINE
  5
52F8
  8
AM_0
 10
156.38309828348949
 20
259.09924324896258
 30
0.0
 11
153.38309828348949
 21
259.09924324896258
 31
0.0
  0
LINE
  5
52F9
  8
AM_0
 10
156.38309828348949
 20
257.09924524896257
 30
0.0
 11
153.38309828348949
 21
257.09924524896257
 31
0.0
  0
LINE
  5
52FA
  8
AM_0
 10
156.38309828348949
 20
219.09924424896261
 30
0.0
 11
153.38309828348949
 21
219.09924424896261
 31
0.0
  0
LINE
  5
52FB
  8
AM_0
 10
156.38309828348949
 20
227.09924224896261
 30
0.0
 11
153.38309828348949
 21
227.09924224896261
 31
0.0
  0
LINE
  5
52FC
  8
AM_0
 10
156.38309828348949
 20
229.0992582489626
 30
0.0
 11
153.38309828348949
 21
229.0992582489626
 31
0.0
  0
LINE
  5
52FD
  8
AM_0
 10
150.88307828348951
 20
258.24926824896261
 30
0.0
 11
155.56058828348941
 21
258.24926824896261
 31
0.0
  0
LINE
  5
52FE
  8
AM_0
 10
174.3830882834896
 20
217.09925824896251
 30
0.0
 11
168.74849828348951
 21
217.09925824896251
 31
0.0
  0
POLYLINE
  5
52FF
  8
AM_0
 66
     1
 10
0.0
 20
0.0
 30
0.0
  0
VERTEX
  5
5300
  8
AM_0
  6
CONTINUOUS
 10
170.24531828348969
 20
216.6122592489626
 30
0.0
  0
VERTEX
  5
5301
  8
AM_0
  6
CONTINUOUS
 10
171.20579828348971
 20
209.7306672489625
 30
0.0
 42
-1.0
  0
SEQEND
  5
5302
  8
AM_0
  0
ARC
  5
5303
  8
AM_0
 10
168.0610182834896
 20
208.0540782489625
 30
0.0
 40
1.6779175200000001
 50
90.00000299999769
 51
270.0
  0
ARC
  5
5304
  8
AM_0
 10
168.93245828348961
 20
208.0992582489626
 30
0.0
 40
1.0000000199999981
 50
90.00000299999769
 51
270.0
  0
LINE
  5
5305
  8
AM_0
 10
167.8446282834895
 20
216.61303624896249
 30
0.0
 11
174.3830882834896
 21
216.61303624896249
 31
0.0
  0
ARC
  5
5306
  8
AM_0
 10
156.38309828348949
 20
216.09924424896261
 30
0.0
 40
1.0000000199999981
 50
0.0
 51
90.00000299999769
  0
ARC
  5
5307
  8
AM_0
 10
156.38309828348949
 20
202.11431824896249
 30
0.0
 40
1.0000000199999981
 50
334.6367599999997
 51
0.0
  0
ARC
  5
5308
  8
AM_0
 10
156.38309828348949
 20
210.3560802489626
 30
0.0
 40
1.0000000199999981
 50
270.0
 51
0.0
  0
ARC
  5
5309
  8
AM_0
 10
156.6830682834896
 20
206.7100362489625
 30
0.0
 40
0.7000000200000001
 50
0.0
 51
90.00000299999769
  0
ARC
  5
530A
  8
AM_0
 10
156.38309828348949
 20
197.59761124896241
 30
0.0
 40
1.0000000199999981
 50
270.0
 51
0.0
  0
LINE
  5
530B
  8
AM_0
 10
159.0812082834895
 20
199.90777624896239
 30
0.0
 11
165.31100828348971
 21
199.90777624896239
 31
0.0
  0
ARC
  5
530C
  8
AM_0
 10
156.38309828348949
 20
202.11431824896249
 30
0.0
 40
1.0000000199999981
 50
270.0
 51
0.0
  0
LINE
  5
530D
  8
AM_0
 10
168.0610182834896
 20
209.73201124896261
 30
0.0
 11
175.3830882834896
 21
209.73201124896261
 31
0.0
  0
ARC
  5
530E
  8
AM_0
 10
154.65437828348951
 20
202.11431824896249
 30
0.0
 40
1.0000000199999981
 50
239.64050000000299
 51
270.0
  0
ARC
  5
530F
  8
AM_0
 10
154.58774828348959
 20
208.4099892489626
 30
0.0
 40
1.0000000199999981
 50
246.87296999999739
 51
270.0
  0
ARC
  5
5310
  8
AM_0
 10
154.53341828348971
 20
210.3560802489626
 30
0.0
 40
1.0000000199999981
 50
252.90236999999641
 51
270.0
  0
LINE
  5
5311
  8
AM_0
 10
154.3830882834896
 20
207.70636024896251
 30
0.0
 11
154.3830882834896
 21
208.76631124896261
 31
0.0
  0
ARC
  5
5312
  8
AM_0
 10
153.38309828348949
 20
202.85900824896251
 30
0.0
 40
1.0000000199999981
 50
179.999989999999
 51
239.64048999999909
  0
ARC
  5
5313
  8
AM_0
 10
153.38309828348949
 20
202.85900824896251
 30
0.0
 40
1.0000000199999981
 50
179.999989999999
 51
239.64048999999909
  0
LINE
  5
5314
  8
AM_0
 10
152.87765828348969
 20
201.99610924896251
 30
0.0
 11
152.85404828348959
 21
202.00994824896259
 31
0.0
  0
ARC
  5
5315
  8
AM_0
 10
153.38309828348949
 20
210.70997524896251
 30
0.0
 40
1.0000000199999981
 50
179.999989999999
 51
252.90236999999641
  0
ARC
  5
5316
  8
AM_0
 10
153.38309828348949
 20
208.92451324896251
 30
0.0
 40
1.0000000199999981
 50
179.999989999999
 51
246.87297999999811
  0
LINE
  5
5317
  8
AM_0
 10
154.14896828348969
 20
201.2514042489627
 30
0.0
 11
152.87765828348969
 21
201.99607924896259
 31
0.0
  0
LINE
  5
5318
  8
AM_0
 10
154.19492828348959
 20
207.49035724896251
 30
0.0
 11
152.99027828348949
 21
208.0048512489625
 31
0.0
  0
LINE
  5
5319
  8
AM_0
 10
154.23941828348961
 20
209.4002982489626
 30
0.0
 11
153.08909828348959
 21
209.7541512489627
 31
0.0
  0
ARC
  5
531A
  8
AM_0
 10
153.38309828348949
 20
218.09924224896261
 30
0.0
 40
1.0000000199999981
 50
179.999989999999
 51
270.0
  0
ARC
  5
531B
  8
AM_0
 10
154.68173828348969
 20
200.97430324896251
 30
0.0
 40
1.0000000199999981
 50
236.7452700000002
 51
270.0
  0
LINE
  5
531C
  8
AM_0
 10
154.3830882834896
 20
200.26879924896249
 30
0.0
 11
154.3830882834896
 21
200.7409062489626
 31
0.0
  0
ARC
  5
531D
  8
AM_0
 10
154.66013828348969
 20
196.45759624896249
 30
0.0
 40
1.0000000199999981
 50
239.0333999999992
 51
270.0
  0
ARC
  5
531E
  8
AM_0
 10
154.63175828348969
 20
197.59761124896241
 30
0.0
 40
1.0000000199999981
 50
242.0734000000032
 51
270.0
  0
LINE
  5
531F
  8
AM_0
 10
154.3830882834896
 20
195.70269724896241
 30
0.0
 11
154.3830882834896
 21
196.2487182489626
 31
0.0
  0
ARC
  5
5320
  8
AM_0
 10
153.38309828348949
 20
196.1251812489626
 30
0.0
 40
1.0000000199999981
 50
179.999989999999
 51
243.08874999999691
  0
ARC
  5
5321
  8
AM_0
 10
153.38309828348949
 20
198.25945924896249
 30
0.0
 40
1.0000000199999981
 50
179.999989999999
 51
242.07341000000071
  0
ARC
  5
5322
  8
AM_0
 10
153.38309828348949
 20
197.2238922489625
 30
0.0
 40
1.0000000199999981
 50
179.999989999999
 51
239.0333999999992
  0
LINE
  5
5323
  8
AM_0
 10
154.1455482834894
 20
195.60014224896261
 30
0.0
 11
152.86856828348959
 21
196.36640824896239
 31
0.0
  0
LINE
  5
5324
  8
AM_0
 10
154.16342828348971
 20
196.71405124896239
 30
0.0
 11
152.91476828348959
 21
197.37591424896249
 31
0.0
  0
ARC
  5
5325
  8
AM_0
 10
153.38309828348949
 20
201.82588024896239
 30
0.0
 40
1.0000000199999981
 50
179.999989999999
 51
236.74528000000271
  0
LINE
  5
5326
  8
AM_0
 10
154.13333828348959
 20
200.1380622489626
 30
0.0
 11
152.83469828348959
 21
200.9896242489626
 31
0.0
  0
LINE
  5
5327
  8
AM_0
 10
156.38309828348949
 20
217.09925824896251
 30
0.0
 11
153.38309828348949
 21
217.09925824896251
 31
0.0
  0
LINE
  5
5328
  8
AM_0
 10
154.68173828348969
 20
199.9743192489625
 30
0.0
 11
157.3830882834896
 21
199.9743192489625
 31
0.0
  0
LINE
  5
5329
  8
AM_0
 10
154.65437828348951
 20
201.11433424896259
 30
0.0
 11
156.38309828348949
 21
201.11433424896259
 31
0.0
  0
LINE
  5
532A
  8
AM_0
 10
154.58774828348959
 20
207.4099722489625
 30
0.0
 11
156.6830682834896
 21
207.4099722489625
 31
0.0
  0
LINE
  5
532B
  8
AM_0
 10
154.53341828348971
 20
209.35609324896259
 30
0.0
 11
156.38309828348949
 21
209.35609324896259
 31
0.0
  0
LINE
  5
532C
  8
AM_0
 10
154.66013828348969
 20
195.4575792489625
 30
0.0
 11
157.3830882834896
 21
195.4575792489625
 31
0.0
  0
LINE
  5
532D
  8
AM_0
 10
154.63175828348969
 20
196.59759424896251
 30
0.0
 11
156.38309828348949
 21
196.59759424896251
 31
0.0
  0
ARC
  5
532E
  8
AM_0
 10
167.8446282834895
 20
218.0745252489626
 30
0.0
 40
1.4615021100000001
 50
90.00000299999769
 51
270.0
  0
LINE
  5
532F
  8
AM_0
 10
154.3830882834896
 20
217.47302224896251
 30
0.0
 11
154.3830882834896
 21
218.83587724896259
 31
0.0
  0
ARC
  5
5330
  8
AM_0
 10
168.93245828348961
 20
218.09924224896261
 30
0.0
 40
1.0000000199999981
 50
90.00000299999769
 51
270.0
  0
ARC
  5
5331
  8
AM_0
 10
153.38309828348949
 20
218.09924224896261
 30
0.0
 40
1.0000000199999981
 50
90.00000299999769
 51
180.00001000000091
  0
LINE
  5
5332
  8
AM_0
 10
152.38307828348951
 20
195.08284024896261
 30
0.0
 11
152.38307828348951
 21
232.09924424896269
 31
0.0
  0
ARC
  5
5333
  8
AM_0
 10
203.3830782834896
 20
300.22888924896262
 30
0.0
 40
2.00000007
 50
0.0
 51
90.00000299999769
  0
ARC
  5
5334
  8
AM_0
 10
203.3830782834896
 20
302.07658924896248
 30
0.0
 40
2.00000007
 50
0.0
 51
90.00000299999769
  0
ARC
  5
5335
  8
AM_0
 10
203.3830782834896
 20
302.98711924896247
 30
0.0
 40
2.00000007
 50
0.0
 51
90.00000299999769
  0
LINE
  5
5336
  8
AM_0
 10
205.38308828348971
 20
302.98711924896247
 30
0.0
 11
205.38308828348971
 21
299.38249924896257
 31
0.0
  0
ARC
  5
5337
  8
AM_0
 10
169.5895182834895
 20
297.38251924896258
 30
0.0
 40
2.00000007
 50
90.00000299999769
 51
169.2843100000004
  0
ARC
  5
5338
  8
AM_0
 10
169.63808828348971
 20
300.22888924896262
 30
0.0
 40
2.00000007
 50
90.00000299999769
 51
170.9150299999996
  0
ARC
  5
5339
  8
AM_0
 10
169.65146828348969
 20
302.07658924896248
 30
0.0
 40
2.00000007
 50
90.00000299999769
 51
171.35661000000101
  0
ARC
  5
533A
  8
AM_0
 10
169.6727682834896
 20
302.98711924896247
 30
0.0
 40
2.00000007
 50
90.00000299999769
 51
172.05596000000091
  0
LINE
  5
533B
  8
AM_0
 10
166.3830882834896
 20
292.5394992489625
 30
0.0
 11
167.66312828348961
 21
300.54463924896248
 31
0.0
  0
LINE
  5
533C
  8
AM_0
 10
166.3830882834896
 20
293.88409924896263
 30
0.0
 11
167.6741082834896
 21
302.37715924896253
 31
0.0
  0
LINE
  5
533D
  8
AM_0
 10
166.3830882834896
 20
293.88409924896263
 30
0.0
 11
167.69192828348969
 21
303.26350924896258
 31
0.0
  0
LINE
  5
533E
  8
AM_0
 10
166.3830882834896
 20
291.1949592489625
 30
0.0
 11
167.62436828348959
 21
297.75436924896258
 31
0.0
  0
LINE
  5
533F
  8
AM_0
 10
157.3830882834896
 20
293.09923924896259
 30
0.0
 11
158.38307828348951
 21
293.09923924896259
 31
0.0
  0
ARC
  5
5340
  8
AM_0
 10
156.88307828348951
 20
291.20233924896252
 30
0.0
 40
0.5000000100000001
 50
0.0
 51
90.00000299999769
  0
ARC
  5
5341
  8
AM_0
 10
156.88307828348951
 20
293.34862924896248
 30
0.0
 40
0.5000000100000001
 50
270.0
 51
0.0
  0
LINE
  5
5342
  8
AM_0
 10
158.38307828348951
 20
296.09923924896248
 30
0.0
 11
166.3830882834896
 21
296.09923924896248
 31
0.0
  0
ARC
  5
5343
  8
AM_0
 10
154.65128828348941
 20
291.84862924896248
 30
0.0
 40
1.0000000199999981
 50
90.00000299999769
 51
120.02640000000341
  0
ARC
  5
5344
  8
AM_0
 10
154.6223382834896
 20
290.70232924896249
 30
0.0
 40
1.0000000199999981
 50
90.00000299999769
 51
116.9112600000025
  0
ARC
  5
5345
  8
AM_0
 10
154.66013828348969
 20
289.74085924896258
 30
0.0
 40
1.0000000199999981
 50
90.00000299999769
 51
120.9666000000008
  0
ARC
  5
5346
  8
AM_0
 10
154.63175828348969
 20
288.60088924896252
 30
0.0
 40
1.0000000199999981
 50
90.00000299999769
 51
117.9265999999967
  0
LINE
  5
5347
  8
AM_0
 10
154.3830882834896
 20
290.49577924896249
 30
0.0
 11
154.3830882834896
 21
289.94971924896248
 31
0.0
  0
LINE
  5
5348
  8
AM_0
 10
154.3830882834896
 20
292.59538924896259
 30
0.0
 11
154.3830882834896
 21
292.06963924896252
 31
0.0
  0
ARC
  5
5349
  8
AM_0
 10
153.38309828348949
 20
291.11560924896253
 30
0.0
 40
1.0000000199999981
 50
120.02640000000341
 51
180.00001000000091
  0
ARC
  5
534A
  8
AM_0
 10
153.38309828348949
 20
290.07331924896249
 30
0.0
 40
1.0000000199999981
 50
116.9112600000025
 51
180.00001000000091
  0
LINE
  5
534B
  8
AM_0
 10
154.15091828348969
 20
292.71433924896257
 30
0.0
 11
152.88272828348951
 21
291.98137924896258
 31
0.0
  0
LINE
  5
534C
  8
AM_0
 10
154.1455482834894
 20
290.59834924896251
 30
0.0
 11
152.8685082834896
 21
289.83205924896248
 31
0.0
  0
LINE
  5
534D
  8
AM_0
 10
154.1697582834897
 20
291.59407924896249
 30
0.0
 11
152.9304582834894
 21
290.96506924896261
 31
0.0
  0
LINE
  5
534E
  8
AM_0
 10
154.65128828348941
 20
292.84864924896277
 30
0.0
 11
156.88307828348951
 21
292.84864924896277
 31
0.0
  0
LINE
  5
534F
  8
AM_0
 10
154.66013828348969
 20
290.7408492489626
 30
0.0
 11
157.3830882834896
 21
290.7408492489626
 31
0.0
  0
LINE
  5
5350
  8
AM_0
 10
154.63175828348969
 20
289.6008792489626
 30
0.0
 11
156.38309828348949
 21
289.6008792489626
 31
0.0
  0
LINE
  5
5351
  8
AM_0
 10
154.6223382834896
 20
291.70231924896262
 30
0.0
 11
156.88307828348951
 21
291.70231924896262
 31
0.0
  0
ARC
  5
5352
  8
AM_0
 10
156.38309828348949
 20
284.08417924896253
 30
0.0
 40
1.0000000199999981
 50
0.0
 51
90.00000299999769
  0
ARC
  5
5353
  8
AM_0
 10
156.6830682834896
 20
279.48847924896262
 30
0.0
 40
0.7000000200000001
 50
270.0
 51
0.0
  0
LINE
  5
5354
  8
AM_0
 10
159.0812082834895
 20
286.29064924896261
 30
0.0
 11
165.31100828348971
 21
286.29064924896261
 31
0.0
  0
ARC
  5
5355
  8
AM_0
 10
154.68173828348969
 20
285.2241192489625
 30
0.0
 40
1.0000000199999981
 50
90.00000299999769
 51
123.2547299999998
  0
ARC
  5
5356
  8
AM_0
 10
154.65437828348951
 20
284.08417924896253
 30
0.0
 40
1.0000000199999981
 50
90.00000299999769
 51
120.359499999997
  0
LINE
  5
5357
  8
AM_0
 10
154.3830882834896
 20
285.92968924896252
 30
0.0
 11
154.3830882834896
 21
285.45751924896263
 31
0.0
  0
ARC
  5
5358
  8
AM_0
 10
154.58774828348959
 20
277.78845424896258
 30
0.0
 40
1.0000000199999981
 50
90.00000299999769
 51
113.12703000000251
  0
ARC
  5
5359
  8
AM_0
 10
153.38309828348949
 20
287.93896924896251
 30
0.0
 40
1.0000000199999981
 50
117.9265999999967
 51
180.00001000000091
  0
ARC
  5
535A
  8
AM_0
 10
153.38309828348949
 20
283.33948924896248
 30
0.0
 40
1.0000000199999981
 50
120.359499999997
 51
180.00001000000091
  0
ARC
  5
535B
  8
AM_0
 10
153.38309828348949
 20
284.37256924896252
 30
0.0
 40
1.0000000199999981
 50
123.2547299999998
 51
180.00001000000091
  0
LINE
  5
535C
  8
AM_0
 10
154.13333828348959
 20
286.06039924896248
 30
0.0
 11
152.83469828348959
 21
285.20881924896253
 31
0.0
  0
LINE
  5
535D
  8
AM_0
 10
154.14896828348969
 20
284.94703924896248
 30
0.0
 11
152.87765828348969
 21
284.20234924896249
 31
0.0
  0
LINE
  5
535E
  8
AM_0
 10
154.68173828348969
 20
286.22410924896258
 30
0.0
 11
157.3830882834896
 21
286.22410924896258
 31
0.0
  0
LINE
  5
535F
  8
AM_0
 10
154.65437828348951
 20
285.0841692489625
 30
0.0
 11
156.38309828348949
 21
285.0841692489625
 31
0.0
  0
LINE
  5
5360
  8
AM_0
 10
154.58774828348959
 20
278.78845324896258
 30
0.0
 11
156.6830682834896
 21
278.78845324896258
 31
0.0
  0
ARC
  5
5361
  8
AM_0
 10
156.38309828348949
 20
288.60088924896252
 30
0.0
 40
1.0000000199999981
 50
0.0
 51
90.00000299999769
  0
LINE
  5
5362
  8
AM_0
 10
171.74849828348951
 20
279.75043924896249
 30
0.0
 11
166.3830882834896
 21
291.19492924896258
 31
0.0
  0
ARC
  5
5363
  8
AM_0
 10
153.38309828348949
 20
288.97453924896251
 30
0.0
 40
1.0000000199999981
 50
120.9666000000008
 51
180.00001000000091
  0
LINE
  5
5364
  8
AM_0
 10
154.16342828348971
 20
289.4843892489626
 30
0.0
 11
152.91476828348959
 21
288.82249924896257
 31
0.0
  0
LINE
  5
5365
  8
AM_0
 10
169.63808828348971
 20
302.22889924896248
 30
0.0
 11
203.3830782834896
 21
302.22889924896248
 31
0.0
  0
LINE
  5
5366
  8
AM_0
 10
169.65146828348969
 20
304.07659924896251
 30
0.0
 11
203.3830782834896
 21
304.07659924896251
 31
0.0
  0
LINE
  5
5367
  8
AM_0
 10
169.6727682834896
 20
304.98712924896262
 30
0.0
 11
203.3830782834896
 21
304.98712924896262
 31
0.0
  0
ARC
  5
5368
  8
AM_0
 10
271.20518828348958
 20
278.14435024896261
 30
0.0
 40
1.6779127499999991
 50
276.08620038401659
 51
83.913799615983365
  0
LINE
  5
5369
  8
ﾁｭｳｼﾝｾﾝ
 10
223.3830882834896
 20
294.09924424896258
 30
0.0
 11
223.3830882834896
 21
192.09924424896249
 31
0.0
  0
LINE
  5
536A
  8
AM_0
 10
274.38308828348971
 20
299.09923924896259
 30
0.0
 11
274.38308828348971
 21
187.09925824896251
 31
0.0
  0
LINE
  5
536B
  8
AM_0
 10
272.88308828348971
 20
204.87620524896261
 30
0.0
 11
268.44107828348962
 21
188.2983402489626
 31
0.0
  0
LINE
  5
536C
  8
AM_0
 10
274.38308828348971
 20
187.09925824896251
 30
0.0
 11
282.38309828348952
 21
187.09925824896251
 31
0.0
  0
LINE
  5
536D
  8
AM_0
 10
268.92362828348951
 20
190.09925824896251
 30
0.0
 11
274.38308828348971
 21
190.09925824896251
 31
0.0
  0
ARC
  5
536E
  8
AM_0
 10
266.50925828348971
 20
188.81597824896249
 30
0.0
 40
2.00000007
 50
270.0
 51
345.00000000000011
  0
LINE
  5
536F
  8
AM_0
 10
274.38308828348971
 20
275.03668324896262
 30
0.0
 11
282.38309828348952
 21
275.03668324896262
 31
0.0
  0
LINE
  5
5370
  8
AM_0
 10
274.38308828348971
 20
211.16180524896251
 30
0.0
 11
282.38309828348952
 21
211.16180524896251
 31
0.0
  0
LINE
  5
5371
  8
AM_0
 10
274.38308828348971
 20
197.09924224896261
 30
0.0
 11
282.38309828348952
 21
197.09924224896261
 31
0.0
  0
ARC
  5
5372
  8
AM_0
 10
271.20518828348958
 20
208.0540782489625
 30
0.0
 40
1.6779127499999991
 50
276.08620038402319
 51
83.913799615976814
  0
LINE
  5
5373
  8
AM_0
 10
274.38308828348971
 20
299.09923924896259
 30
0.0
 11
282.38309828348952
 21
299.09923924896259
 31
0.0
  0
LINE
  5
5374
  8
AM_0
 10
274.38308828348971
 20
289.09924924896262
 30
0.0
 11
282.38309828348952
 21
289.09924924896262
 31
0.0
  0
LINE
  5
5375
  8
AM_0
 10
268.92362828348951
 20
296.09923924896248
 30
0.0
 11
274.38308828348971
 21
296.09923924896248
 31
0.0
  0
ARC
  5
5376
  8
AM_0
 10
266.50925828348971
 20
297.38251924896258
 30
0.0
 40
2.00000007
 50
14.99999999999995
 51
90.00000299999769
  0
ARC
  5
5377
  8
AM_0
 10
274.0340982834897
 20
282.82225924896261
 30
0.0
 40
1.500000029999998
 50
195.0000100000004
 51
270.0
  0
LINE
  5
5378
  8
AM_0
 10
272.58524828348959
 20
282.43405924896251
 30
0.0
 11
268.44107828348962
 21
297.90013924896249
 31
0.0
  0
LINE
  5
537B
  8
AM_0
 10
267.38308828348983
 20
197.09924424896261
 30
0.0
 11
179.3830882834896
 21
197.09924424896261
 31
0.0
  0
ARC
  5
537C
  8
AM_0
 10
197.4541560953549
 20
202.09924424896261
 30
0.0
 40
5.0
 50
225.0
 51
270.0
1001
GENIUS_GENOBJ-N-FIL_13
1002
{
1000
OWNER
1000
GEN
1002
}
1001
GENIUS_GENODEF_13
1002
{
1000
HIER
1070
     0
1002
}
1002
{
1000
MANEDIT
1070
     0
1002
}
1002
{
1000
NOSEL
1070
     0
1002
}
1002
{
1000
BEHIND
1070
     0
1002
}
1002
{
1000
OTHER
1070
     0
1002
}
1002
{
1000
REACTOR
1002
}
  0
LINE
  5
537D
  8
AM_0
 10
248.6551662221319
 20
202.09924424896261
 30
0.0
 11
198.11101034484739
 21
202.09924424896261
 31
0.0
  0
ARC
  5
537E
  8
AM_0
 10
248.6551662221319
 20
207.09924424896261
 30
0.0
 40
5.0
 50
270.0
 51
315.0
1001
GENIUS_GENOBJ-N-FIL_13
1002
{
1000
OWNER
1000
GEN
1002
}
1001
GENIUS_GENODEF_13
1002
{
1000
HIER
1070
     0
1002
}
1002
{
1000
MANEDIT
1070
     0
1002
}
1002
{
1000
NOSEL
1070
     0
1002
}
1002
{
1000
BEHIND
1070
     0
1002
}
1002
{
1000
OTHER
1070
     0
1002
}
1002
{
1000
REACTOR
1002
}
  0
ARC
  5
537F
  8
AM_0
 10
267.38308828348983
 20
201.09924424896249
 30
0.0
 40
4.0
 50
270.0
 51
0.0
1001
GENIUS_GENOBJ-N-FIL_13
1002
{
1000
OWNER
1000
GEN
1002
}
1001
GENIUS_GENODEF_13
1002
{
1000
HIER
1070
     0
1002
}
1002
{
1000
MANEDIT
1070
     0
1002
}
1002
{
1000
NOSEL
1070
     0
1002
}
1002
{
1000
BEHIND
1070
     0
1002
}
1002
{
1000
OTHER
1070
     0
1002
}
1002
{
1000
REACTOR
1002
}
  0
LINE
  5
5380
  8
AM_0
 10
267.3830882834896
 20
289.09924424896269
 30
0.0
 11
179.3830882834896
 21
289.09924424896258
 31
0.0
  0
ARC
  5
5381
  8
AM_0
 10
249.31202047162409
 20
284.09924424896269
 30
0.0
 40
5.0
 50
45.0
 51
90.0
1001
GENIUS_GENOBJ-N-FIL_13
1002
{
1000
OWNER
1000
GEN
1002
}
1001
GENIUS_GENODEF_13
1002
{
1000
HIER
1070
     0
1002
}
1002
{
1000
MANEDIT
1070
     0
1002
}
1002
{
1000
NOSEL
1070
     0
1002
}
1002
{
1000
BEHIND
1070
     0
1002
}
1002
{
1000
OTHER
1070
     0
1002
}
1002
{
1000
REACTOR
1002
}
  0
ARC
  5
5382
  8
AM_0
 10
197.4541560953553
 20
284.09924424896269
 30
0.0
 40
5.0
 50
90.0
 51
135.0
1001
GENIUS_GENODEF_13
1002
{
1000
HIER
1070
     0
1002
}
1002
{
1000
MANEDIT
1070
     0
1002
}
1002
{
1000
NOSEL
1070
     0
1002
}
1002
{
1000
BEHIND
1070
     0
1002
}
1002
{
1000
OTHER
1070
     0
1002
}
1002
{
1000
REACTOR
1002
}
1001
GENIUS_GENOBJ-N-FIL_13
1002
{
1000
OWNER
1000
GEN
1002
}
  0
LINE
  5
5383
  8
AM_0
 10
248.65516622213181
 20
284.09924424896258
 30
0.0
 11
198.1110103448475
 21
284.09924424896269
 31
0.0
  0
ARC
  5
5384
  8
AM_0
 10
198.1110103448475
 20
279.09924424896269
 30
0.0
 40
5.0
 50
90.0
 51
135.0
1001
GENIUS_GENODEF_13
1002
{
1000
HIER
1070
     0
1002
}
1002
{
1000
MANEDIT
1070
     0
1002
}
1002
{
1000
NOSEL
1070
     0
1002
}
1002
{
1000
BEHIND
1070
     0
1002
}
1002
{
1000
OTHER
1070
     0
1002
}
1002
{
1000
REACTOR
1002
}
1001
GENIUS_GENOBJ-N-FIL_13
1002
{
1000
OWNER
1000
GEN
1002
}
  0
ARC
  5
5385
  8
AM_0
 10
179.3830882834896
 20
285.09924424896258
 30
0.0
 40
4.0
 50
90.0
 51
180.0
1001
GENIUS_GENODEF_13
1002
{
1000
HIER
1070
     0
1002
}
1002
{
1000
MANEDIT
1070
     0
1002
}
1002
{
1000
NOSEL
1070
     0
1002
}
1002
{
1000
BEHIND
1070
     0
1002
}
1002
{
1000
OTHER
1070
     0
1002
}
1002
{
1000
REACTOR
1002
}
1001
GENIUS_GENOBJ-N-FIL_13
1002
{
1000
OWNER
1000
GEN
1002
}
  0
LINE
  5
5386
  8
AM_0
 10
175.3830882834896
 20
285.09924424896258
 30
0.0
 11
175.3830882834896
 21
201.09924424896261
 31
0.0
  0
ARC
  5
5387
  8
AM_0
 10
180.3830882834896
 20
219.17031206082771
 30
0.0
 40
5.0
 50
180.0
 51
225.0
1001
GENIUS_GENOBJ-N-FIL_13
1002
{
1000
OWNER
1000
GEN
1002
}
1001
GENIUS_GENODEF_13
1002
{
1000
HIER
1070
     0
1002
}
1002
{
1000
MANEDIT
1070
     0
1002
}
1002
{
1000
NOSEL
1070
     0
1002
}
1002
{
1000
BEHIND
1070
     0
1002
}
1002
{
1000
OTHER
1070
     0
1002
}
1002
{
1000
REACTOR
1002
}
  0
ARC
  5
5388
  8
AM_0
 10
180.3830882834896
 20
267.02817643709739
 30
0.0
 40
5.0
 50
135.0
 51
180.0
1001
GENIUS_GENOBJ-N-FIL_13
1002
{
1000
OWNER
1000
GEN
1002
}
1001
GENIUS_GENODEF_13
1002
{
1000
HIER
1070
     0
1002
}
1002
{
1000
MANEDIT
1070
     0
1002
}
1002
{
1000
NOSEL
1070
     0
1002
}
1002
{
1000
BEHIND
1070
     0
1002
}
1002
{
1000
OTHER
1070
     0
1002
}
1002
{
1000
REACTOR
1002
}
  0
LINE
  5
5389
  8
AM_0
 10
180.3830882834896
 20
266.3713221876049
 30
0.0
 11
180.38308828348951
 21
219.82716631032019
 31
0.0
  0
ARC
  5
538A
  8
AM_0
 10
185.38308828348951
 20
219.82716631032019
 30
0.0
 40
5.0
 50
180.0
 51
225.0
1001
GENIUS_GENOBJ-N-FIL_13
1002
{
1000
OWNER
1000
GEN
1002
}
1001
GENIUS_GENODEF_13
1002
{
1000
HIER
1070
     0
1002
}
1002
{
1000
MANEDIT
1070
     0
1002
}
1002
{
1000
NOSEL
1070
     0
1002
}
1002
{
1000
BEHIND
1070
     0
1002
}
1002
{
1000
OTHER
1070
     0
1002
}
1002
{
1000
REACTOR
1002
}
  0
ARC
  5
538B
  8
AM_0
 10
179.3830882834896
 20
201.09924424896261
 30
0.0
 40
4.0
 50
180.0
 51
270.0
1001
GENIUS_GENODEF_13
1002
{
1000
HIER
1070
     0
1002
}
1002
{
1000
MANEDIT
1070
     0
1002
}
1002
{
1000
NOSEL
1070
     0
1002
}
1002
{
1000
BEHIND
1070
     0
1002
}
1002
{
1000
OTHER
1070
     0
1002
}
1002
{
1000
REACTOR
1002
}
1001
GENIUS_GENOBJ-N-FIL_13
1002
{
1000
OWNER
1000
GEN
1002
}
  0
LINE
  5
538C
  8
AM_0
 10
271.3830882834896
 20
285.09924424896269
 30
0.0
 11
271.38308828348983
 21
201.09924424896249
 31
0.0
  0
ARC
  5
538D
  8
AM_0
 10
266.38308828348971
 20
267.02817643709727
 30
0.0
 40
5.0
 50
0.0
 51
45.0
1001
GENIUS_GENOBJ-N-FIL_13
1002
{
1000
OWNER
1000
GEN
1002
}
1001
GENIUS_GENODEF_13
1002
{
1000
HIER
1070
     0
1002
}
1002
{
1000
MANEDIT
1070
     0
1002
}
1002
{
1000
NOSEL
1070
     0
1002
}
1002
{
1000
BEHIND
1070
     0
1002
}
1002
{
1000
OTHER
1070
     0
1002
}
1002
{
1000
REACTOR
1002
}
  0
ARC
  5
538E
  8
AM_0
 10
266.38308828348971
 20
219.17031206082791
 30
0.0
 40
5.0
 50
315.0
 51
0.0
1001
GENIUS_GENOBJ-N-FIL_13
1002
{
1000
OWNER
1000
GEN
1002
}
1001
GENIUS_GENODEF_13
1002
{
1000
HIER
1070
     0
1002
}
1002
{
1000
MANEDIT
1070
     0
1002
}
1002
{
1000
NOSEL
1070
     0
1002
}
1002
{
1000
BEHIND
1070
     0
1002
}
1002
{
1000
OTHER
1070
     0
1002
}
1002
{
1000
REACTOR
1002
}
  0
LINE
  5
538F
  8
AM_0
 10
252.84755437755689
 20
287.6347781548954
 30
0.0
 11
269.91862218942242
 21
270.56371034302992
 31
0.0
  0
LINE
  5
5390
  8
AM_0
 10
252.19070012806449
 20
282.63477815489517
 30
0.0
 11
264.91862218942208
 21
269.90685609353773
 31
0.0
  0
ARC
  5
5391
  8
AM_0
 10
248.65516622213181
 20
279.09924424896258
 30
0.0
 40
5.0
 50
45.0
 51
90.0
1001
GENIUS_GENOBJ-N-FIL_13
1002
{
1000
OWNER
1000
GEN
1002
}
1001
GENIUS_GENODEF_13
1002
{
1000
HIER
1070
     0
1002
}
1002
{
1000
MANEDIT
1070
     0
1002
}
1002
{
1000
NOSEL
1070
     0
1002
}
1002
{
1000
BEHIND
1070
     0
1002
}
1002
{
1000
OTHER
1070
     0
1002
}
1002
{
1000
REACTOR
1002
}
  0
LINE
  5
5392
  8
AM_0
 10
266.38308828348943
 20
266.3713221876049
 30
0.0
 11
266.38308828348971
 21
219.82716631032019
 31
0.0
  0
ARC
  5
5393
  8
AM_0
 10
261.38308828348943
 20
266.3713221876049
 30
0.0
 40
5.0
 50
0.0
 51
45.0
1001
GENIUS_GENODEF_13
1002
{
1000
HIER
1070
     0
1002
}
1002
{
1000
MANEDIT
1070
     0
1002
}
1002
{
1000
NOSEL
1070
     0
1002
}
1002
{
1000
BEHIND
1070
     0
1002
}
1002
{
1000
OTHER
1070
     0
1002
}
1002
{
1000
REACTOR
1002
}
1001
GENIUS_GENOBJ-N-FIL_13
1002
{
1000
OWNER
1000
GEN
1002
}
  0
ARC
  5
5394
  8
AM_0
 10
267.3830882834896
 20
285.09924424896269
 30
0.0
 40
4.0
 50
0.0
 51
90.0
1001
GENIUS_GENODEF_13
1002
{
1000
HIER
1070
     0
1002
}
1002
{
1000
MANEDIT
1070
     0
1002
}
1002
{
1000
NOSEL
1070
     0
1002
}
1002
{
1000
BEHIND
1070
     0
1002
}
1002
{
1000
OTHER
1070
     0
1002
}
1002
{
1000
REACTOR
1002
}
1001
GENIUS_GENOBJ-N-FIL_13
1002
{
1000
OWNER
1000
GEN
1002
}
  0
LINE
  5
5395
  8
ﾁｭｳｼﾝｾﾝ1
 10
266.38308828349108
 20
278.09924424896229
 30
0.0
 11
266.38308828349187
 21
290.09924424896218
 31
0.0
  0
LINE
  5
5396
  8
ﾁｭｳｼﾝｾﾝ1
 10
272.38308828349147
 20
284.09924424896201
 30
0.0
 11
260.38308828349147
 21
284.09924424896258
 31
0.0
  0
LINE
  5
5397
  8
AM_0
 10
171.8830882834896
 20
256.59924424896258
 30
0.0
 11
174.38308828348951
 21
256.5992442489628
 31
0.0
  0
LINE
  5
5398
  8
AM_0
 10
174.3830882834896
 20
229.5992442489628
 30
0.0
 11
171.8830882834896
 21
229.59924424896261
 31
0.0
  0
LINE
  5
5399
  8
AM_0
 10
160.98441718714361
 20
232.59924424896261
 30
0.0
 11
160.98441718714361
 21
253.59924424896261
 31
0.0
  0
LINE
  5
539A
  8
AM_0
 10
145.98441718714361
 20
251.13086930297769
 30
0.0
 11
145.98441718714361
 21
235.0676191949467
 31
0.0
  0
LINE
  5
539B
  8
AM_0
 10
158.98441718714361
 20
231.09924424896269
 30
0.0
 11
158.98441718714361
 21
255.09924424896261
 31
0.0
  0
LINE
  5
539C
  8
AM_0
 10
149.48441718714361
 20
243.09924424896261
 30
0.0
 11
149.98441718714361
 21
242.59924424896269
 31
0.0
  0
LINE
  5
539D
  8
AM_0
 10
156.48441718714361
 20
254.79924424896259
 30
0.0
 11
156.48441718714361
 21
231.39924424896259
 31
0.0
  0
LINE
  5
539E
  8
AM_0
 10
166.3830882834896
 20
254.59924424896261
 30
0.0
 11
166.3830882834896
 21
231.59924424896261
 31
0.0
  0
LINE
  5
539F
  8
AM_0
 10
160.48441718714361
 20
242.39924424896071
 30
0.0
 11
160.48441718714361
 21
243.79924424896359
 31
0.0
  0
LINE
  5
53A0
  8
AM_0
 10
162.58405291371469
 20
233.9992442489627
 30
0.0
 11
161.8340529137156
 21
252.19924424896271
 31
0.0
  0
LINE
  5
53A1
  8
AM_0
 10
161.6330882834896
 20
233.9992442489627
 30
0.0
 11
160.98441718714361
 21
249.74032952027869
 31
0.0
  0
LINE
  5
53A2
  8
AM_0
 10
162.3817808740616
 20
233.28358553659871
 30
0.0
 11
161.6345208306536
 21
252.91161601012959
 31
0.0
  0
LINE
  5
53A3
  8
AM_0
 10
161.83262036655159
 20
233.2868724877946
 30
0.0
 11
161.0840529137156
 21
252.94924424896271
 31
0.0
  0
LINE
  5
53A4
  8
AM_0
 10
158.98441718714361
 20
255.09924424896261
 30
0.0
 11
156.78441718714359
 21
255.09924424896261
 31
0.0
  0
ARC
  5
53A5
  8
AM_0
 10
170.88308828348971
 20
255.59924424896261
 30
0.0
 40
0.5
 50
269.99999999998693
 51
0.0
  0
ARC
  5
53A6
  8
AM_0
 10
171.88308828348971
 20
256.09924424896258
 30
0.0
 40
0.5
 50
90.0
 51
180.0
  0
LINE
  5
53A7
  8
AM_0
 10
171.3830882834896
 20
255.59924424896261
 30
0.0
 11
171.3830882834896
 21
256.09924424896258
 31
0.0
  0
LINE
  5
53A8
  8
AM_0
 10
162.3830882834896
 20
252.19924424896271
 30
0.0
 11
165.8830882834896
 21
252.19924424896271
 31
0.0
  0
LINE
  5
53A9
  8
AM_0
 10
171.3830882834896
 20
253.95531557036961
 30
0.0
 11
171.3830882834896
 21
244.2431729275547
 31
0.0
  0
LINE
  5
53AA
  8
AM_0
 10
166.8830882834896
 20
255.09924424896261
 30
0.0
 11
170.88308828348951
 21
255.09924424896261
 31
0.0
  0
LINE
  5
53AB
  8
AM_0
 10
170.8830882834896
 20
254.45531557036961
 30
0.0
 11
166.3830882834896
 21
254.45531557036961
 31
0.0
  0
ARC
  5
53AC
  8
AM_0
 10
170.88308828348971
 20
253.95531557036961
 30
0.0
 40
0.5
 50
0.0
 51
90.0
  0
ARC
  5
53AD
  8
AM_0
 10
165.8830882834896
 20
252.6992442489626
 30
0.0
 40
0.5
 50
270.0
 51
0.0
  0
ARC
  5
53AE
  8
AM_0
 10
166.8830882834896
 20
254.59924424896261
 30
0.0
 40
0.5
 50
90.0
 51
180.0
  0
LINE
  5
53AF
  8
AM_0
 10
170.8830882834896
 20
243.7431729275547
 30
0.0
 11
166.3830882834896
 21
243.7431729275547
 31
0.0
  0
ARC
  5
53B0
  8
AM_0
 10
170.8830882834896
 20
244.24317292755461
 30
0.0
 40
0.5
 50
270.0
 51
0.0
  0
LINE
  5
53B1
  8
AM_0
 10
160.48441718714361
 20
249.24441500125479
 30
0.0
 11
160.48441718714361
 21
248.0721718148217
 31
0.0
  0
LINE
  5
53B2
  8
AM_0
 10
161.9107853421406
 20
252.19924424896271
 30
0.0
 11
162.3830882834896
 21
252.19924424896271
 31
0.0
  0
LINE
  5
53B3
  8
AM_0
 10
161.8141928476013
 20
252.27336201569921
 30
0.0
 11
161.8340529137156
 21
252.19924424896271
 31
0.0
  0
ARC
  5
53B4
  8
AM_0
 10
161.91078534214071
 20
252.29924424896259
 30
0.0
 40
0.1000000000000346
 50
195.00019500644621
 51
270.0
  0
ARC
  5
53B5
  8
AM_0
 10
160.18441718714371
 20
252.3860772294706
 30
0.0
 40
0.3000000000000043
 50
270.0
 51
0.0
  0
LINE
  5
53B6
  8
AM_0
 10
158.98441718714361
 20
254.4992442489627
 30
0.0
 11
160.2043728903007
 21
254.41791386875161
 31
0.0
  0
LINE
  5
53B7
  8
AM_0
 10
158.98441718714361
 20
253.3429922131227
 30
0.0
 11
160.18441718714371
 21
253.3429922131227
 31
0.0
  0
LINE
  5
53B8
  8
AM_0
 10
160.48441718714361
 20
254.09924424896261
 30
0.0
 11
158.98441718714361
 21
254.09924424896261
 31
0.0
  0
ARC
  5
53B9
  8
AM_0
 10
160.48441718714361
 20
253.59924424896261
 30
0.0
 40
0.5
 50
0.0
 51
90.0
  0
LINE
  5
53BA
  8
AM_0
 10
160.48441718714361
 20
254.11857832139461
 30
0.0
 11
160.48441718714361
 21
254.09924424896261
 31
0.0
  0
LINE
  5
53BB
  8
AM_0
 10
160.48441718714361
 20
254.39924424896259
 30
0.0
 11
160.48441718714361
 21
254.11857832139461
 31
0.0
  0
LINE
  5
53BC
  8
AM_0
 10
160.2043728903007
 20
254.41791386875161
 30
0.0
 11
160.48441718714361
 21
254.39924424896259
 31
0.0
  0
ARC
  5
53BD
  8
AM_0
 10
160.18441718714371
 20
254.11857832139461
 30
0.0
 40
0.3000000000000007
 50
0.0
 51
86.185925165718459
  0
LINE
  5
53BE
  8
AM_0
 10
161.55635585506451
 20
252.94924424896271
 30
0.0
 11
161.63308828349071
 21
252.94924424896271
 31
0.0
  0
LINE
  5
53BF
  8
AM_0
 10
161.63308828349071
 20
252.94924424896271
 30
0.0
 11
161.65294834960369
 21
252.87512648222631
 31
0.0
  0
LINE
  5
53C0
  8
AM_0
 10
161.06419284760159
 20
252.87512648222631
 30
0.0
 11
161.0840529137156
 21
252.94924424896271
 31
0.0
  0
LINE
  5
53C1
  8
AM_0
 10
161.0840529137156
 20
252.94924424896271
 30
0.0
 11
161.16078534214051
 21
252.94924424896271
 31
0.0
  0
LINE
  5
53C2
  8
AM_0
 10
161.65294834960369
 20
252.87512648222631
 30
0.0
 11
161.8141928476013
 21
252.27336201569921
 31
0.0
  0
LINE
  5
53C3
  8
AM_0
 10
161.16078534214051
 20
252.94924424896271
 30
0.0
 11
161.55635585506451
 21
252.94924424896271
 31
0.0
  0
LINE
  5
53C4
  8
AM_0
 10
160.9844171871444
 20
252.57740371740169
 30
0.0
 11
161.06419284760159
 21
252.87512648222631
 31
0.0
  0
ARC
  5
53C5
  8
AM_0
 10
161.55635585506471
 20
252.84924424896261
 30
0.0
 40
0.0999999999999866
 50
15.00019500657419
 51
90.0
  0
ARC
  5
53C6
  8
AM_0
 10
161.16078534214071
 20
252.84924424896261
 30
0.0
 40
0.1000000000000014
 50
90.0
 51
164.99980499342581
  0
LINE
  5
53C7
  8
AM_0
 10
160.48441718714361
 20
253.04299221312269
 30
0.0
 11
160.48441718714361
 21
252.3860772294706
 31
0.0
  0
ARC
  5
53C8
  8
AM_0
 10
160.18441718714371
 20
253.0429922131226
 30
0.0
 40
0.3000000000000007
 50
0.0
 51
90.0
  0
LINE
  5
53C9
  8
AM_0
 10
158.98441718714361
 20
249.54441500125469
 30
0.0
 11
160.18441718714371
 21
249.54441500125469
 31
0.0
  0
LINE
  5
53CA
  8
AM_0
 10
160.18441718714371
 20
252.0860772294707
 30
0.0
 11
158.98441718714361
 21
252.0860772294707
 31
0.0
  0
LINE
  5
53CB
  8
AM_0
 10
161.8340529137156
 20
252.19924424896271
 30
0.0
 11
161.9107853421406
 21
252.19924424896271
 31
0.0
  0
ARC
  5
53CC
  8
AM_0
 10
160.18441718714371
 20
249.24441500125479
 30
0.0
 40
0.3000000000000007
 50
0.0
 51
90.0
  0
LINE
  5
53CD
  8
AM_0
 10
160.18441718714371
 20
247.77217181482169
 30
0.0
 11
158.98441718714361
 21
247.77217181482169
 31
0.0
  0
ARC
  5
53CE
  8
AM_0
 10
160.18441718714371
 20
248.0721718148217
 30
0.0
 40
0.3000000000000043
 50
270.0
 51
0.0
  0
LINE
  5
53CF
  8
AM_0
 10
160.18441718714371
 20
244.09924424896371
 30
0.0
 11
158.98441718714361
 21
244.09924424896371
 31
0.0
  0
ARC
  5
53D0
  8
AM_0
 10
160.18441718714371
 20
243.79924424896359
 30
0.0
 40
0.3000000000000007
 50
0.0
 51
90.0
  0
LINE
  5
53D1
  8
AM_0
 10
149.98441718714361
 20
253.23252407760961
 30
0.0
 11
156.48441718714361
 21
253.23252407760961
 31
0.0
  0
LINE
  5
53D2
  8
AM_0
 10
149.98441718714361
 20
253.7325240776097
 30
0.0
 11
156.48441718714361
 21
253.7325240776097
 31
0.0
  0
LINE
  5
53D3
  8
AM_0
 10
156.48441718714361
 20
243.59924424896269
 30
0.0
 11
149.98441718714361
 21
243.59924424896269
 31
0.0
  0
LINE
  5
53D4
  8
AM_0
 10
149.48441718714361
 20
244.09924424896269
 30
0.0
 11
156.48441718714361
 21
244.09924424896269
 31
0.0
  0
LINE
  5
53D5
  8
AM_0
 10
156.18441718714371
 20
254.09924424896261
 30
0.0
 11
149.34646712232561
 21
254.09924424896261
 31
0.0
  0
LINE
  5
53D6
  8
AM_0
 10
156.48441718714361
 20
244.44593231750369
 30
0.0
 11
149.98441718714361
 21
244.44593231750369
 31
0.0
  0
LINE
  5
53D7
  8
AM_0
 10
156.48441718714361
 20
252.75255618042169
 30
0.0
 11
149.98441718714361
 21
252.75255618042169
 31
0.0
  0
ARC
  5
53D8
  8
AM_0
 10
156.78441718714359
 20
254.79924424896259
 30
0.0
 40
0.2999999999999971
 50
90.0
 51
180.0
  0
ARC
  5
53D9
  8
AM_0
 10
156.18441718714371
 20
254.39924424896259
 30
0.0
 40
0.2999999999999971
 50
270.0
 51
0.0
  0
ARC
  5
53DA
  8
AM_0
 10
158.10941718714361
 20
248.59924424896261
 30
0.0
 40
9.124999999999984
 50
152.92493329272071
 51
207.07506670727921
  0
LINE
  5
53DB
  8
AM_0
 10
148.70628272266109
 20
253.8674655285601
 30
0.0
 11
146.34423278747909
 21
251.8990905825751
 31
0.0
  0
LINE
  5
53DC
  8
AM_0
 10
149.48441718714361
 20
253.5208116654546
 30
0.0
 11
149.98441718714361
 21
254.09924424896261
 31
0.0
  0
ARC
  5
53DD
  8
AM_0
 10
149.34646712232561
 20
253.09924424896261
 30
0.0
 40
1.0
 50
90.0
 51
129.80557109225549
  0
LINE
  5
53DE
  8
AM_0
 10
149.98441718714361
 20
253.7325240776097
 30
0.0
 11
149.48441718714361
 21
253.5208116654546
 31
0.0
  0
LINE
  5
53DF
  8
AM_0
 10
149.48441718714361
 20
253.0585363924836
 30
0.0
 11
149.98441718714361
 21
253.7325240776097
 31
0.0
  0
LINE
  5
53E0
  8
AM_0
 10
149.98441718714361
 20
253.23252407760961
 30
0.0
 11
149.48441718714361
 21
253.0585363924836
 31
0.0
  0
LINE
  5
53E1
  8
AM_0
 10
149.48441718714361
 20
252.5208116654546
 30
0.0
 11
149.98441718714361
 21
253.23252407760961
 31
0.0
  0
LINE
  5
53E2
  8
AM_0
 10
149.98441718714361
 20
252.75255618042169
 30
0.0
 11
149.48441718714361
 21
252.5208116654546
 31
0.0
  0
ARC
  5
53E3
  8
AM_0
 10
146.98441718714361
 20
251.13086930297769
 30
0.0
 40
1.0000000000000291
 50
129.8055710922641
 51
180.0
  0
LINE
  5
53E4
  8
AM_0
 10
149.98441718714361
 20
243.59924424896269
 30
0.0
 11
149.48441718714361
 21
243.09924424896261
 31
0.0
  0
LINE
  5
53E5
  8
AM_0
 10
149.48441718714361
 20
244.09924424896269
 30
0.0
 11
149.98441718714361
 21
243.59924424896269
 31
0.0
  0
LINE
  5
53E6
  8
AM_0
 10
149.98441718714361
 20
244.44593231750369
 30
0.0
 11
149.48441718714361
 21
244.09924424896269
 31
0.0
  0
LINE
  5
53E7
  8
AM_0
 10
156.78441718714359
 20
231.09924424896269
 30
0.0
 11
158.98441718714361
 21
231.09924424896269
 31
0.0
  0
ARC
  5
53E8
  8
AM_0
 10
170.8830882834896
 20
230.59924424896261
 30
0.0
 40
0.5
 50
0.0
 51
90.000000000006537
  0
LINE
  5
53E9
  8
AM_0
 10
165.8830882834896
 20
233.9992442489627
 30
0.0
 11
162.66078534214051
 21
233.9992442489627
 31
0.0
  0
LINE
  5
53EA
  8
AM_0
 10
171.3830882834896
 20
241.95531557036961
 30
0.0
 11
171.3830882834896
 21
232.24317292755461
 31
0.0
  0
LINE
  5
53EB
  8
AM_0
 10
166.3830882834896
 20
242.45531557036969
 30
0.0
 11
170.8830882834896
 21
242.45531557036969
 31
0.0
  0
ARC
  5
53EC
  8
AM_0
 10
170.8830882834896
 20
241.95531557036961
 30
0.0
 40
0.5
 50
0.0
 51
90.0
  0
LINE
  5
53ED
  8
AM_0
 10
166.3830882834896
 20
231.74317292755461
 30
0.0
 11
170.8830882834896
 21
231.74317292755461
 31
0.0
  0
LINE
  5
53EE
  8
AM_0
 10
170.88308828348951
 20
231.09924424896261
 30
0.0
 11
166.8830882834896
 21
231.09924424896261
 31
0.0
  0
ARC
  5
53EF
  8
AM_0
 10
170.8830882834896
 20
232.24317292755461
 30
0.0
 40
0.5
 50
270.0
 51
0.0
  0
ARC
  5
53F0
  8
AM_0
 10
165.8830882834896
 20
233.4992442489627
 30
0.0
 40
0.5
 50
0.0
 51
90.0
  0
ARC
  5
53F1
  8
AM_0
 10
166.8830882834896
 20
231.59924424896261
 30
0.0
 40
0.5
 50
180.0
 51
270.0
  0
ARC
  5
53F2
  8
AM_0
 10
160.18441718714371
 20
236.9540734966705
 30
0.0
 40
0.3000000000000114
 50
270.0
 51
0.0
  0
LINE
  5
53F3
  8
AM_0
 10
158.98441718714361
 20
242.0992442489605
 30
0.0
 11
160.18441718714371
 21
242.0992442489605
 31
0.0
  0
ARC
  5
53F4
  8
AM_0
 10
160.18441718714371
 20
242.3992442489606
 30
0.0
 40
0.2999999999999971
 50
270.0
 51
0.0
  0
LINE
  5
53F5
  8
AM_0
 10
158.98441718714361
 20
238.42631668310369
 30
0.0
 11
160.18441718714371
 21
238.42631668310369
 31
0.0
  0
ARC
  5
53F6
  8
AM_0
 10
160.18441718714371
 20
238.1263166831036
 30
0.0
 40
0.3000000000000007
 50
0.0
 51
90.0
  0
LINE
  5
53F7
  8
AM_0
 10
160.48441718714361
 20
238.12631668310371
 30
0.0
 11
160.48441718714361
 21
236.9540734966707
 31
0.0
  0
LINE
  5
53F8
  8
AM_0
 10
161.9107853421406
 20
233.2492442489627
 30
0.0
 11
162.30635585506451
 21
233.2492442489627
 31
0.0
  0
LINE
  5
53F9
  8
AM_0
 10
161.9107853421406
 20
233.2492442489627
 30
0.0
 11
162.30635585506451
 21
233.2492442489627
 31
0.0
  0
LINE
  5
53FA
  8
AM_0
 10
162.4029483496038
 20
233.32336201569919
 30
0.0
 11
162.56419284760159
 21
233.9251264822262
 31
0.0
  0
LINE
  5
53FB
  8
AM_0
 10
162.4029483496038
 20
233.32336201569919
 30
0.0
 11
162.56419284760159
 21
233.9251264822262
 31
0.0
  0
ARC
  5
53FC
  8
AM_0
 10
162.66078534214051
 20
233.89924424896259
 30
0.0
 40
0.0999999999999943
 50
90.0
 51
164.99980499348811
  0
ARC
  5
53FD
  8
AM_0
 10
162.30635585506451
 20
233.34924424896261
 30
0.0
 40
0.0999999999999943
 50
270.0
 51
344.99980499349448
  0
LINE
  5
53FE
  8
AM_0
 10
160.98357059860251
 20
233.62424424896241
 30
0.0
 11
161.06419284760159
 21
233.9251264822262
 31
0.0
  0
LINE
  5
53FF
  8
AM_0
 10
161.6357989356957
 20
233.95997971586451
 30
0.0
 11
161.81419284760159
 21
233.32336201569919
 31
0.0
  0
LINE
  5
5400
  8
AM_0
 10
161.65294834960369
 20
233.9251264822262
 30
0.0
 11
161.81419284760159
 21
233.32336201569919
 31
0.0
  0
LINE
  5
5401
  8
AM_0
 10
160.48441718714361
 20
233.8124112684537
 30
0.0
 11
160.48441718714361
 21
233.15549628480269
 31
0.0
  0
LINE
  5
5402
  8
AM_0
 10
160.98441718714361
 20
233.6274037174006
 30
0.0
 11
161.06419284760159
 21
233.9251264822262
 31
0.0
  0
LINE
  5
5403
  8
AM_0
 10
158.98441718714361
 20
234.11241126845371
 30
0.0
 11
160.18441718714371
 21
234.11241126845371
 31
0.0
  0
LINE
  5
5404
  8
AM_0
 10
160.18441718714371
 20
236.65407349667069
 30
0.0
 11
158.98441718714361
 21
236.65407349666961
 31
0.0
  0
LINE
  5
5405
  8
AM_0
 10
161.58898812057959
 20
233.9992442489627
 30
0.0
 11
161.6357989356957
 21
233.95997971586451
 31
0.0
  0
LINE
  5
5406
  8
AM_0
 10
161.16078534214051
 20
233.9992442489627
 30
0.0
 11
161.58898812057959
 21
233.9992442489627
 31
0.0
  0
LINE
  5
5407
  8
AM_0
 10
161.16078534214051
 20
233.9992442489627
 30
0.0
 11
161.55635585506451
 21
233.9992442489627
 31
0.0
  0
ARC
  5
5408
  8
AM_0
 10
161.16078534214051
 20
233.89924424896259
 30
0.0
 40
0.0999999999999943
 50
90.0
 51
164.99980499348811
  0
ARC
  5
5409
  8
AM_0
 10
161.55635585506451
 20
233.89924424896259
 30
0.0
 40
0.0999999999999608
 50
15.000195006510941
 51
90.0
  0
ARC
  5
540A
  8
AM_0
 10
160.18441718714371
 20
233.81241126845359
 30
0.0
 40
0.3000000000000007
 50
0.0
 51
90.0
  0
LINE
  5
540B
  8
AM_0
 10
158.98441718714361
 20
232.09924424896269
 30
0.0
 11
160.48441718714361
 21
232.09924424896269
 31
0.0
  0
LINE
  5
540C
  8
AM_0
 10
160.18441718714371
 20
232.85549628480271
 30
0.0
 11
158.98441718714361
 21
232.85549628480271
 31
0.0
  0
LINE
  5
540D
  8
AM_0
 10
160.2043728903007
 20
231.78057462917261
 30
0.0
 11
158.98441718714361
 21
231.69924424896271
 31
0.0
  0
ARC
  5
540E
  8
AM_0
 10
160.48441718714361
 20
232.59924424896261
 30
0.0
 40
0.5
 50
270.0
 51
0.0
  0
ARC
  5
540F
  8
AM_0
 10
161.9107853421406
 20
233.34924424896261
 30
0.0
 40
0.0999999999999606
 50
195.00019500650541
 51
270.0
  0
ARC
  5
5410
  8
AM_0
 10
160.18441718714371
 20
233.15549628480269
 30
0.0
 40
0.2999999999999971
 50
270.0
 51
0.0
  0
LINE
  5
5411
  8
AM_0
 10
160.48441718714361
 20
232.09924424896269
 30
0.0
 11
160.48441718714361
 21
232.07991017652969
 31
0.0
  0
ARC
  5
5412
  8
AM_0
 10
160.18441718714371
 20
232.07991017652969
 30
0.0
 40
0.3000000000000043
 50
273.81407483428148
 51
0.0
  0
ARC
  5
5413
  8
AM_0
 10
171.8830882834896
 20
230.09924424896261
 30
0.0
 40
0.5
 50
180.0
 51
270.0
  0
LINE
  5
5414
  8
AM_0
 10
171.3830882834896
 20
230.09924424896261
 30
0.0
 11
171.3830882834896
 21
230.59924424896261
 31
0.0
  0
LINE
  5
5415
  8
AM_0
 10
149.98441718714361
 20
233.44593231750369
 30
0.0
 11
156.48441718714361
 21
233.44593231750369
 31
0.0
  0
LINE
  5
5416
  8
AM_0
 10
149.98441718714361
 20
241.75255618042169
 30
0.0
 11
156.48441718714361
 21
241.75255618042169
 31
0.0
  0
LINE
  5
5417
  8
AM_0
 10
149.34646712232561
 20
232.09924424896269
 30
0.0
 11
156.18441718714371
 21
232.09924424896269
 31
0.0
  0
LINE
  5
5418
  8
AM_0
 10
156.48441718714361
 20
242.09924424896269
 30
0.0
 11
149.48441718714361
 21
242.09924424896269
 31
0.0
  0
LINE
  5
5419
  8
AM_0
 10
149.98441718714361
 20
242.59924424896269
 30
0.0
 11
156.48441718714361
 21
242.59924424896269
 31
0.0
  0
LINE
  5
541A
  8
AM_0
 10
156.48441718714361
 20
232.46596442031469
 30
0.0
 11
149.98441718714361
 21
232.46596442031469
 31
0.0
  0
LINE
  5
541B
  8
AM_0
 10
156.48441718714361
 20
232.96596442031469
 30
0.0
 11
149.98441718714361
 21
232.96596442031469
 31
0.0
  0
ARC
  5
541C
  8
AM_0
 10
156.18441718714371
 20
231.79924424896259
 30
0.0
 40
0.3000000000000043
 50
0.0
 51
90.0
  0
ARC
  5
541D
  8
AM_0
 10
156.78441718714359
 20
231.39924424896259
 30
0.0
 40
0.2999999999999971
 50
180.0
 51
270.0
  0
ARC
  5
541E
  8
AM_0
 10
158.10941718714361
 20
237.59924424896261
 30
0.0
 40
9.124999999999984
 50
152.92493329272071
 51
207.07506670727921
  0
LINE
  5
541F
  8
AM_0
 10
149.48441718714361
 20
242.09924424896269
 30
0.0
 11
149.98441718714361
 21
241.75255618042169
 31
0.0
  0
LINE
  5
5420
  8
AM_0
 10
149.98441718714361
 20
242.59924424896269
 30
0.0
 11
149.48441718714361
 21
242.09924424896269
 31
0.0
  0
LINE
  5
5421
  8
AM_0
 10
146.34423278747909
 20
234.2993979153492
 30
0.0
 11
148.70628272266109
 21
232.33102296936519
 31
0.0
  0
LINE
  5
5422
  8
AM_0
 10
149.98441718714361
 20
232.09924424896269
 30
0.0
 11
149.48441718714361
 21
232.6776768324697
 31
0.0
  0
ARC
  5
5423
  8
AM_0
 10
149.34646712232561
 20
233.09924424896261
 30
0.0
 40
1.0000000000000411
 50
230.19442890774451
 51
270.0
  0
LINE
  5
5424
  8
AM_0
 10
149.48441718714361
 20
233.6776768324697
 30
0.0
 11
149.98441718714361
 21
233.44593231750369
 31
0.0
  0
LINE
  5
5425
  8
AM_0
 10
149.98441718714361
 20
232.96596442031469
 30
0.0
 11
149.48441718714361
 21
233.6776768324697
 31
0.0
  0
LINE
  5
5426
  8
AM_0
 10
149.48441718714361
 20
233.13995210544169
 30
0.0
 11
149.98441718714361
 21
232.96596442031469
 31
0.0
  0
LINE
  5
5427
  8
AM_0
 10
149.98441718714361
 20
232.46596442031469
 30
0.0
 11
149.48441718714361
 21
233.13995210544169
 31
0.0
  0
LINE
  5
5428
  8
AM_0
 10
149.48441718714361
 20
232.6776768324697
 30
0.0
 11
149.98441718714361
 21
232.46596442031469
 31
0.0
  0
ARC
  5
5429
  8
AM_0
 10
146.98441718714361
 20
235.0676191949467
 30
0.0
 40
1.0
 50
180.0
 51
230.19442890773581
  0
CIRCLE
  5
542A
  8
AM_0
 10
180.38308828348789
 20
284.09924424896218
 30
0.0
 40
4.0
  0
LINE
  5
542B
  8
AM_0
 10
180.0715882834879
 20
281.82043584323782
 30
0.0
 11
180.69458828348789
 21
281.82043584323782
 31
0.0
  0
LINE
  5
542C
  8
AM_0
 10
180.0715882834879
 20
286.3780526546866
 30
0.0
 11
180.69458828348789
 21
286.3780526546866
 31
0.0
  0
LINE
  5
542D
  8
AM_0
 10
180.0715882834879
 20
281.82043584323782
 30
0.0
 11
180.0715882834879
 21
283.78774424896238
 31
0.0
  0
LINE
  5
542E
  8
AM_0
 10
180.0715882834879
 20
284.41074424896237
 30
0.0
 11
180.0715882834879
 21
286.3780526546866
 31
0.0
  0
LINE
  5
542F
  8
AM_0
 10
180.0715882834879
 20
284.41074424896237
 30
0.0
 11
178.10427987776359
 21
284.41074424896237
 31
0.0
  0
LINE
  5
5430
  8
AM_0
 10
180.0715882834879
 20
283.78774424896238
 30
0.0
 11
178.10427987776359
 21
283.78774424896238
 31
0.0
  0
LINE
  5
5431
  8
AM_0
 10
178.10427987776359
 20
284.41074424896237
 30
0.0
 11
178.10427987776359
 21
283.78774424896238
 31
0.0
  0
LINE
  5
5432
  8
AM_0
 10
180.69458828348789
 20
281.82043584323782
 30
0.0
 11
180.69458828348789
 21
283.78774424896238
 31
0.0
  0
LINE
  5
5433
  8
AM_0
 10
180.69458828348789
 20
284.41074424896237
 30
0.0
 11
180.69458828348789
 21
286.3780526546866
 31
0.0
  0
LINE
  5
5434
  8
AM_0
 10
182.66189668921231
 20
283.78774424896238
 30
0.0
 11
180.69458828348789
 21
283.78774424896238
 31
0.0
  0
LINE
  5
5435
  8
AM_0
 10
182.66189668921231
 20
284.41074424896237
 30
0.0
 11
180.69458828348789
 21
284.41074424896237
 31
0.0
  0
LINE
  5
5436
  8
AM_0
 10
182.66189668921231
 20
284.41074424896237
 30
0.0
 11
182.66189668921231
 21
283.78774424896238
 31
0.0
  0
CIRCLE
  5
5437
  8
AM_0
 10
266.38308828349147
 20
284.09924424896218
 30
0.0
 40
4.0
  0
LINE
  5
5438
  8
AM_0
 10
266.07158828349162
 20
281.82043584323782
 30
0.0
 11
266.6945882834915
 21
281.82043584323782
 31
0.0
  0
LINE
  5
5439
  8
AM_0
 10
266.07158828349162
 20
286.3780526546866
 30
0.0
 11
266.6945882834915
 21
286.3780526546866
 31
0.0
  0
LINE
  5
543A
  8
AM_0
 10
266.07158828349162
 20
281.82043584323782
 30
0.0
 11
266.07158828349162
 21
283.78774424896238
 31
0.0
  0
LINE
  5
543B
  8
AM_0
 10
266.07158828349162
 20
284.41074424896198
 30
0.0
 11
266.07158828349162
 21
286.3780526546866
 31
0.0
  0
LINE
  5
543C
  8
AM_0
 10
266.07158828349162
 20
284.41074424896198
 30
0.0
 11
264.10427987776728
 21
284.41074424896198
 31
0.0
  0
LINE
  5
543D
  8
AM_0
 10
266.07158828349162
 20
283.78774424896238
 30
0.0
 11
264.10427987776728
 21
283.78774424896238
 31
0.0
  0
LINE
  5
543E
  8
AM_0
 10
264.10427987776728
 20
284.41074424896198
 30
0.0
 11
264.10427987776728
 21
283.78774424896238
 31
0.0
  0
LINE
  5
543F
  8
AM_0
 10
266.6945882834915
 20
281.82043584323782
 30
0.0
 11
266.6945882834915
 21
283.78774424896238
 31
0.0
  0
LINE
  5
5440
  8
AM_0
 10
266.6945882834915
 20
284.41074424896198
 30
0.0
 11
266.6945882834915
 21
286.3780526546866
 31
0.0
  0
LINE
  5
5441
  8
AM_0
 10
268.66189668921572
 20
283.78774424896238
 30
0.0
 11
266.6945882834915
 21
283.78774424896238
 31
0.0
  0
LINE
  5
5442
  8
AM_0
 10
268.66189668921572
 20
284.41074424896198
 30
0.0
 11
266.6945882834915
 21
284.41074424896198
 31
0.0
  0
LINE
  5
5443
  8
AM_0
 10
268.66189668921572
 20
284.41074424896198
 30
0.0
 11
268.66189668921572
 21
283.78774424896238
 31
0.0
  0
LINE
  5
5444
  8
AM_0
 10
193.91862218942239
 20
287.6347781548954
 30
0.0
 11
176.84755437755689
 21
270.5637103430301
 31
0.0
  0
LINE
  5
5445
  8
AM_0
 10
194.57547643891479
 20
282.63477815489551
 30
0.0
 11
181.84755437755689
 21
269.9068560935375
 31
0.0
  0
ARC
  5
5446
  8
AM_0
 10
185.3830882834896
 20
266.3713221876049
 30
0.0
 40
5.0
 50
135.0
 51
180.0
1001
GENIUS_GENOBJ-N-FIL_13
1002
{
1000
OWNER
1000
GEN
1002
}
1001
GENIUS_GENODEF_13
1002
{
1000
HIER
1070
     0
1002
}
1002
{
1000
MANEDIT
1070
     0
1002
}
1002
{
1000
NOSEL
1070
     0
1002
}
1002
{
1000
BEHIND
1070
     0
1002
}
1002
{
1000
OTHER
1070
     0
1002
}
1002
{
1000
REACTOR
1002
}
  0
LINE
  5
5447
  8
AM_0
 10
252.84755437755689
 20
198.56371034302961
 30
0.0
 11
269.91862218942242
 21
215.6347781548952
 31
0.0
  0
ARC
  5
5448
  8
AM_0
 10
249.31202047162421
 20
202.09924424896261
 30
0.0
 40
5.0
 50
270.0
 51
315.0
1001
GENIUS_GENODEF_13
1002
{
1000
HIER
1070
     0
1002
}
1002
{
1000
MANEDIT
1070
     0
1002
}
1002
{
1000
NOSEL
1070
     0
1002
}
1002
{
1000
BEHIND
1070
     0
1002
}
1002
{
1000
OTHER
1070
     0
1002
}
1002
{
1000
REACTOR
1002
}
1001
GENIUS_GENOBJ-N-FIL_13
1002
{
1000
OWNER
1000
GEN
1002
}
  0
LINE
  5
5449
  8
AM_0
 10
252.19070012806469
 20
203.5637103430297
 30
0.0
 11
264.91862218942242
 21
216.2916324043874
 31
0.0
  0
ARC
  5
544A
  8
AM_0
 10
261.38308828348983
 20
219.82716631032019
 30
0.0
 40
5.0
 50
315.0
 51
0.0
1001
GENIUS_GENOBJ-N-FIL_13
1002
{
1000
OWNER
1000
GEN
1002
}
1001
GENIUS_GENODEF_13
1002
{
1000
HIER
1070
     0
1002
}
1002
{
1000
MANEDIT
1070
     0
1002
}
1002
{
1000
NOSEL
1070
     0
1002
}
1002
{
1000
BEHIND
1070
     0
1002
}
1002
{
1000
OTHER
1070
     0
1002
}
1002
{
1000
REACTOR
1002
}
  0
LINE
  5
544B
  8
AM_0
 10
193.91862218942239
 20
198.56371034302961
 30
0.0
 11
176.84755437755689
 21
215.634778154895
 31
0.0
  0
LINE
  5
544C
  8
AM_0
 10
194.57547643891439
 20
203.56371034302981
 30
0.0
 11
181.84755437755689
 21
216.2916324043874
 31
0.0
  0
ARC
  5
544D
  8
AM_0
 10
198.11101034484739
 20
207.09924424896261
 30
0.0
 40
5.0
 50
225.0
 51
270.0
1001
GENIUS_GENOBJ-N-FIL_13
1002
{
1000
OWNER
1000
GEN
1002
}
1001
GENIUS_GENODEF_13
1002
{
1000
HIER
1070
     0
1002
}
1002
{
1000
MANEDIT
1070
     0
1002
}
1002
{
1000
NOSEL
1070
     0
1002
}
1002
{
1000
BEHIND
1070
     0
1002
}
1002
{
1000
OTHER
1070
     0
1002
}
1002
{
1000
REACTOR
1002
}
  0
CIRCLE
  5
544E
  8
AM_0
 10
180.38308828348781
 20
202.09924424896289
 30
0.0
 40
4.0
  0
LINE
  5
544F
  8
AM_0
 10
180.0715882834879
 20
204.37805265468731
 30
0.0
 11
180.6945882834878
 21
204.37805265468731
 31
0.0
  0
LINE
  5
5450
  8
AM_0
 10
180.0715882834879
 20
199.8204358432385
 30
0.0
 11
180.6945882834878
 21
199.8204358432385
 31
0.0
  0
LINE
  5
5451
  8
AM_0
 10
180.0715882834879
 20
204.37805265468731
 30
0.0
 11
180.0715882834879
 21
202.4107442489628
 31
0.0
  0
LINE
  5
5452
  8
AM_0
 10
180.0715882834879
 20
201.78774424896289
 30
0.0
 11
180.0715882834879
 21
199.8204358432385
 31
0.0
  0
LINE
  5
5453
  8
AM_0
 10
180.0715882834879
 20
201.78774424896289
 30
0.0
 11
178.10427987776339
 21
201.78774424896289
 31
0.0
  0
LINE
  5
5454
  8
AM_0
 10
180.0715882834879
 20
202.4107442489628
 30
0.0
 11
178.10427987776339
 21
202.4107442489628
 31
0.0
  0
LINE
  5
5455
  8
AM_0
 10
178.10427987776339
 20
201.78774424896289
 30
0.0
 11
178.10427987776339
 21
202.4107442489628
 31
0.0
  0
LINE
  5
5456
  8
AM_0
 10
180.6945882834878
 20
204.37805265468731
 30
0.0
 11
180.6945882834878
 21
202.4107442489628
 31
0.0
  0
LINE
  5
5457
  8
AM_0
 10
180.6945882834878
 20
201.78774424896289
 30
0.0
 11
180.6945882834878
 21
199.8204358432385
 31
0.0
  0
LINE
  5
5458
  8
AM_0
 10
182.6618966892122
 20
202.4107442489628
 30
0.0
 11
180.6945882834878
 21
202.4107442489628
 31
0.0
  0
LINE
  5
5459
  8
AM_0
 10
182.6618966892122
 20
201.78774424896289
 30
0.0
 11
180.6945882834878
 21
201.78774424896289
 31
0.0
  0
LINE
  5
545A
  8
AM_0
 10
182.6618966892122
 20
201.78774424896289
 30
0.0
 11
182.6618966892122
 21
202.4107442489628
 31
0.0
  0
CIRCLE
  5
545B
  8
AM_0
 10
266.3830882834913
 20
202.0992442489628
 30
0.0
 40
4.0
  0
LINE
  5
545C
  8
AM_0
 10
266.07158828349128
 20
204.378052654687
 30
0.0
 11
266.69458828349138
 21
204.378052654687
 31
0.0
  0
LINE
  5
545D
  8
AM_0
 10
266.07158828349128
 20
199.8204358432383
 30
0.0
 11
266.69458828349138
 21
199.8204358432383
 31
0.0
  0
LINE
  5
545E
  8
AM_0
 10
266.07158828349128
 20
204.378052654687
 30
0.0
 11
266.07158828349128
 21
202.41074424896269
 31
0.0
  0
LINE
  5
545F
  8
AM_0
 10
266.07158828349128
 20
201.78774424896281
 30
0.0
 11
266.07158828349128
 21
199.8204358432383
 31
0.0
  0
LINE
  5
5460
  8
AM_0
 10
266.07158828349128
 20
201.78774424896281
 30
0.0
 11
264.104279877767
 21
201.78774424896281
 31
0.0
  0
LINE
  5
5461
  8
AM_0
 10
266.07158828349128
 20
202.41074424896269
 30
0.0
 11
264.104279877767
 21
202.41074424896269
 31
0.0
  0
LINE
  5
5462
  8
AM_0
 10
264.104279877767
 20
201.78774424896281
 30
0.0
 11
264.104279877767
 21
202.41074424896269
 31
0.0
  0
LINE
  5
5463
  8
AM_0
 10
266.69458828349138
 20
204.378052654687
 30
0.0
 11
266.69458828349138
 21
202.41074424896269
 31
0.0
  0
LINE
  5
5464
  8
AM_0
 10
266.69458828349138
 20
201.78774424896281
 30
0.0
 11
266.69458828349138
 21
199.8204358432383
 31
0.0
  0
LINE
  5
5465
  8
AM_0
 10
268.66189668921572
 20
202.41074424896269
 30
0.0
 11
266.69458828349138
 21
202.41074424896269
 31
0.0
  0
LINE
  5
5466
  8
AM_0
 10
268.66189668921572
 20
201.78774424896281
 30
0.0
 11
266.69458828349138
 21
201.78774424896281
 31
0.0
  0
LINE
  5
5467
  8
AM_0
 10
268.66189668921572
 20
201.78774424896281
 30
0.0
 11
268.66189668921572
 21
202.41074424896269
 31
0.0
  0
LINE
  5
5468
  8
AM_0
 10
175.3830882834896
 20
212.09924424896261
 30
0.0
 11
174.3830882834896
 21
212.09924424896261
 31
0.0
  0
LINE
  5
5469
  8
AM_0
 10
175.3830882834896
 20
274.09924424896258
 30
0.0
 11
174.3830882834896
 21
274.09924424896258
 31
0.0
  0
LINE
  5
546A
  8
AM_0
 10
174.3830882834896
 20
212.09924424896261
 30
0.0
 11
174.3830882834896
 21
274.09924424896258
 31
0.0
  0
LINE
  5
546C
  8
AM_0
 10
503.26476605018468
 20
197.09924424896261
 30
0.0
 11
538.91785722545285
 21
198.34427762756229
 31
0.0
  0
LINE
  5
546D
  8
AM_0
 10
535.95229701370886
 20
287.95777051493121
 30
0.0
 11
503.26476605018479
 21
289.09924424896269
 31
0.0
  0
LINE
  5
546E
  8
AM_0
 10
503.26476605018479
 20
289.09924424896269
 30
0.0
 11
503.26476605018468
 21
197.09924424896229
 31
0.0
  0
LINE
  5
546F
  8
ﾁｭｳｼﾝｾﾝ1
 10
492.26476605018479
 20
202.09924424896329
 30
0.0
 11
508.09228906272159
 21
202.09924424896329
 31
0.0
  0
LINE
  5
5470
  8
AM_0
 10
499.26476605018479
 20
289.09924424896258
 30
0.0
 11
499.26476605018479
 21
268.2847393494302
 31
0.0
  0
LINE
  5
5471
  8
AM_0
 10
499.26476605018468
 20
217.9137491484949
 30
0.0
 11
499.26476605018468
 21
197.0992442489632
 31
0.0
  0
LINE
  5
5472
  8
AM_0
 10
495.26476605018479
 20
282.96346257980201
 30
0.0
 11
495.26476605018468
 21
203.23502591812331
 31
0.0
  0
LINE
  5
5473
  8
AM_0
 10
497.20582853805672
 20
206.00659922126971
 30
0.0
 11
498.26476605018468
 21
206.09924424896309
 31
0.0
  0
LINE
  5
5474
  8
AM_0
 10
497.20582853805672
 20
198.19188927665661
 30
0.0
 11
498.26476605018468
 21
198.0992442489632
 31
0.0
  0
ARC
  5
5475
  8
AM_0
 10
501.66476605018482
 20
202.09924424896309
 30
0.0
 40
6.5
 50
151.82726586813479
 51
208.1727341318651
  0
ARC
  5
5476
  8
AM_0
 10
497.34527772645322
 20
199.7858007936035
 30
0.0
 40
1.6000000000000001
 50
208.1727341318651
 51
265.00000000000028
  0
LINE
  5
5477
  8
AM_0
 10
495.58529238875661
 20
204.3992442489631
 30
0.0
 11
497.8748520675519
 21
202.09924424896309
 31
0.0
  0
LINE
  5
5478
  8
AM_0
 10
497.5647660501848
 20
202.4107442489632
 30
0.0
 11
497.5647660501848
 21
201.78774424896309
 31
0.0
  0
LINE
  5
5479
  8
AM_0
 10
495.58529238875661
 20
199.79924424896319
 30
0.0
 11
497.8748520675519
 21
202.09924424896309
 31
0.0
  0
LINE
  5
547A
  8
AM_0
 10
495.17223435984999
 20
202.4107442489632
 30
0.0
 11
497.5647660501848
 21
202.4107442489632
 31
0.0
  0
LINE
  5
547B
  8
AM_0
 10
495.17223435984999
 20
201.78774424896309
 30
0.0
 11
497.5647660501848
 21
201.78774424896309
 31
0.0
  0
ARC
  5
547C
  8
AM_0
 10
497.34527772645322
 20
204.41268770432279
 30
0.0
 40
1.6000000000000001
 50
94.999999999999758
 51
151.82726586813479
  0
LINE
  5
547D
  8
AM_0
 10
499.26476605018479
 20
289.09924424896269
 30
0.0
 11
503.26476605018479
 21
289.09924424896269
 31
0.0
  0
LINE
  5
547E
  8
AM_0
 10
498.26476605018468
 20
288.09924424896241
 30
0.0
 11
499.26476605018479
 21
289.09924424896269
 31
0.0
  0
LINE
  5
547F
  8
AM_0
 10
503.26476605018468
 20
197.09924424896229
 30
0.0
 11
499.26476605018468
 21
197.09924424896329
 31
0.0
  0
LINE
  5
5480
  8
AM_0N
 10
499.26476605018468
 20
205.89924424896321
 30
0.0
 11
498.26476605018468
 21
205.89924424896321
 31
0.0
  0
LINE
  5
5481
  8
AM_0N
 10
498.26476605018468
 20
202.29924424896319
 30
0.0
 11
499.26476605018468
 21
202.6632144832293
 31
0.0
  0
LINE
  5
5482
  8
AM_0N
 10
498.26476605018468
 20
201.89924424896321
 30
0.0
 11
499.26476605018468
 21
202.2632144832294
 31
0.0
  0
LINE
  5
5483
  8
AM_0N
 10
498.26476605018468
 20
198.09924424896309
 30
0.0
 11
498.26476605018468
 21
206.09924424896309
 31
0.0
  0
LINE
  5
5484
  8
AM_0N
 10
498.26476605018468
 20
198.29924424896319
 30
0.0
 11
499.26476605018468
 21
198.29924424896319
 31
0.0
  0
LINE
  5
5485
  8
AM_0
 10
495.26476605018468
 20
217.9137491484949
 30
0.0
 11
499.26476605018468
 21
217.9137491484949
 31
0.0
  0
LINE
  5
5486
  8
AM_0
 10
499.26476605018468
 20
216.25689489900239
 30
0.0
 11
495.26476605018468
 21
217.9137491484949
 31
0.0
  0
LINE
  5
5487
  8
AM_0
 10
495.26476605018479
 20
268.2847393494302
 30
0.0
 11
499.26476605018479
 21
268.2847393494302
 31
0.0
  0
LINE
  5
5488
  8
AM_0
 10
499.26476605018479
 20
269.94159359892279
 30
0.0
 11
495.26476605018479
 21
268.2847393494302
 31
0.0
  0
LINE
  5
5489
  8
ﾁｭｳｼﾝｾﾝ1
 10
492.26476605018502
 20
284.0992442489619
 30
0.0
 11
508.09228906272159
 21
284.0992442489619
 31
0.0
  0
LINE
  5
548A
  8
AM_0
 10
497.20582853805672
 20
280.1918892766555
 30
0.0
 11
498.26476605018468
 21
280.09924424896201
 31
0.0
  0
LINE
  5
548B
  8
AM_0
 10
497.20582853805672
 20
288.00659922126852
 30
0.0
 11
498.26476605018468
 21
288.0992442489619
 31
0.0
  0
ARC
  5
548C
  8
AM_0
 10
501.66476605018482
 20
284.09924424896201
 30
0.0
 40
6.5
 50
151.82726586813479
 51
208.1727341318651
  0
ARC
  5
548D
  8
AM_0
 10
497.34527772645322
 20
286.41268770432168
 30
0.0
 40
1.6000000000000001
 50
94.999999999999758
 51
151.82726586813479
  0
LINE
  5
548E
  8
AM_0
 10
495.58529238875661
 20
281.79924424896211
 30
0.0
 11
497.8748520675519
 21
284.09924424896201
 31
0.0
  0
LINE
  5
548F
  8
AM_0
 10
497.5647660501848
 20
283.78774424896199
 30
0.0
 11
497.5647660501848
 21
284.41074424896198
 31
0.0
  0
LINE
  5
5490
  8
AM_0
 10
495.58529238875661
 20
286.39924424896202
 30
0.0
 11
497.8748520675519
 21
284.09924424896201
 31
0.0
  0
LINE
  5
5491
  8
AM_0
 10
495.17223435984999
 20
283.78774424896199
 30
0.0
 11
497.5647660501848
 21
283.78774424896199
 31
0.0
  0
LINE
  5
5492
  8
AM_0
 10
495.17223435984999
 20
284.41074424896198
 30
0.0
 11
497.5647660501848
 21
284.41074424896198
 31
0.0
  0
ARC
  5
5493
  8
AM_0
 10
497.34527772645322
 20
281.78580079360239
 30
0.0
 40
1.6000000000000001
 50
208.1727341318651
 51
265.00000000000028
  0
LINE
  5
5494
  8
AM_0N
 10
499.26476605018468
 20
280.29924424896188
 30
0.0
 11
498.26476605018468
 21
280.29924424896188
 31
0.0
  0
LINE
  5
5495
  8
AM_0N
 10
498.26476605018468
 20
283.89924424896202
 30
0.0
 11
499.26476605018468
 21
283.5352740146958
 31
0.0
  0
LINE
  5
5496
  8
AM_0N
 10
498.26476605018468
 20
284.29924424896188
 30
0.0
 11
499.26476605018468
 21
283.93527401469572
 31
0.0
  0
LINE
  5
5497
  8
AM_0N
 10
498.26476605018468
 20
288.09924424896201
 30
0.0
 11
498.26476605018468
 21
280.09924424896201
 31
0.0
  0
LINE
  5
5498
  8
AM_0N
 10
498.26476605018468
 20
287.89924424896202
 30
0.0
 11
499.26476605018468
 21
287.89924424896202
 31
0.0
  0
LINE
  5
5499
  8
AM_0
 10
368.38307828348962
 20
284.5992422489627
 30
0.0
 11
372.38307828348951
 21
280.5992422489627
 31
0.0
  0
LINE
  5
549A
  8
AM_0
 10
365.88307828348962
 20
284.5992422489627
 30
0.0
 11
368.38307828348962
 21
284.59924224896258
 31
0.0
  0
LINE
  5
549B
  8
AM_0
 10
372.38307828348951
 20
280.5992422489627
 30
0.0
 11
372.38307828349019
 21
239.5992422489625
 31
0.0
  0
LINE
  5
549C
  8
AM_0
 10
368.38307828348962
 20
235.5992422489627
 30
0.0
 11
372.38307828348951
 21
239.5992422489625
 31
0.0
  0
LINE
  5
549D
  8
AM_0
 10
365.88307828348962
 20
235.5992422489627
 30
0.0
 11
368.38307828348962
 21
235.5992422489627
 31
0.0
  0
LINE
  5
549E
  8
AM_0
 10
365.38307828348962
 20
284.0992422489627
 30
0.0
 11
365.88307828348962
 21
284.5992422489627
 31
0.0
1001
GENIUS_GENFIL_13
1070
     0
1040
0.5
1040
0.5
1040
20.0
1040
0.0
1002
{
1002
}
1001
GENIUS_GENOBJ-N-CHA_13
1002
{
1000
OWNER
1000
GEN
1002
}
1001
GENIUS_GENODEF_13
1002
{
1000
HIER
1070
     0
1002
}
1002
{
1000
MANEDIT
1070
     0
1002
}
1002
{
1000
NOSEL
1070
     0
1002
}
1002
{
1000
BEHIND
1070
     0
1002
}
1002
{
1000
OTHER
1070
     0
1002
}
1002
{
1000
REACTOR
1002
}
  0
LINE
  5
549F
  8
AM_0
 10
365.38307828348962
 20
236.0992422489627
 30
0.0
 11
365.88307828348962
 21
235.5992422489627
 31
0.0
1001
GENIUS_GENFIL_13
1070
     0
1040
0.5
1040
0.5
1040
20.0
1040
0.0
1002
{
1002
}
1001
GENIUS_GENODEF_13
1002
{
1000
HIER
1070
     0
1002
}
1002
{
1000
MANEDIT
1070
     0
1002
}
1002
{
1000
NOSEL
1070
     0
1002
}
1002
{
1000
BEHIND
1070
     0
1002
}
1002
{
1000
OTHER
1070
     0
1002
}
1002
{
1000
REACTOR
1002
}
1001
GENIUS_GENOBJ-N-CHA_13
1002
{
1000
OWNER
1000
GEN
1002
}
  0
CIRCLE
  5
54A0
  8
AM_0
 10
610.26476605018502
 20
260.09924224896258
 30
0.0
 40
24.49999999999989
  0
CIRCLE
  5
54A1
  8
AM_0
 10
610.26476605018502
 20
260.09924224896258
 30
0.0
 40
20.50000000000011
  0
LINE
  5
54A2
  8
AM_0
 10
368.38307828348968
 20
284.59924224896258
 30
0.0
 11
368.38307828348962
 21
235.5992422489627
 31
0.0
  0
LINE
  5
54A3
  8
ﾁｭｳｼﾝｾﾝ1
 10
180.38308828348761
 20
278.09924424896229
 30
0.0
 11
180.38308828348821
 21
290.09924424896241
 31
0.0
  0
LINE
  5
54A4
  8
ﾁｭｳｼﾝｾﾝ1
 10
186.38308828348789
 20
284.09924424896212
 30
0.0
 11
174.38308828348789
 21
284.09924424896269
 31
0.0
  0
LINE
  5
54A5
  8
ﾁｭｳｼﾝｾﾝ1
 10
180.3830882834875
 20
196.0992442489628
 30
0.0
 11
180.38308828348821
 21
208.09924424896289
 31
0.0
  0
LINE
  5
54A6
  8
ﾁｭｳｼﾝｾﾝ1
 10
186.38308828348781
 20
202.09924424896269
 30
0.0
 11
174.38308828348781
 21
202.09924424896329
 31
0.0
  0
LINE
  5
54A7
  8
ﾁｭｳｼﾝｾﾝ1
 10
266.38308828349102
 20
196.0992442489628
 30
0.0
 11
266.38308828349159
 21
208.0992442489628
 31
0.0
  0
LINE
  5
54A8
  8
ﾁｭｳｼﾝｾﾝ1
 10
272.38308828349142
 20
202.09924424896261
 30
0.0
 11
260.3830882834913
 21
202.09924424896309
 31
0.0
  0
LINE
  5
54AC
  8
AM_0
 10
374.38307828348951
 20
272.09924424896258
 30
0.0
 11
396.38309828348952
 21
272.09924424896258
 31
0.0
  0
LINE
  5
54AD
  8
ﾁｭｳｼﾝｾﾝ
 10
533.82674005018475
 20
260.09924224896258
 30
0.0
 11
688.99519697671815
 21
260.09924224896258
 31
0.0
  0
LINE
  5
54AE
  8
ﾁｭｳｼﾝｾﾝ
 10
295.03367828348951
 20
260.09924224896258
 30
0.0
 11
402.6948658659428
 21
260.09924224896258
 31
0.0
  0
LINE
  5
54AF
  8
AM_0
 10
396.38309828348952
 20
250.59924424896261
 30
0.0
 11
396.3830982834894
 21
272.09924424896258
 31
0.0
  0
LINE
  5
54B0
  8
AM_0
 10
372.38307828349008
 20
250.59924424896261
 30
0.0
 11
396.38309828348952
 21
250.59924424896261
 31
0.0
  0
LINE
  5
54B1
  8
AM_0
 10
372.38307828348968
 20
269.59924324896258
 30
0.0
 11
396.38309828348952
 21
269.59924324896258
 31
0.0
  0
LINE
  5
54B2
  8
AM_0
 10
613.26476605018502
 20
272.09924524896257
 30
0.0
 11
607.26476605018502
 21
272.09924524896257
 31
0.0
  0
LINE
  5
54B3
  8
AM_0
 10
613.26476605018502
 20
266.09924524896257
 30
0.0
 11
613.26476605018502
 21
272.09924524896257
 31
0.0
  0
LINE
  5
54B4
  8
AM_0
 10
607.26476605018502
 20
266.09924524896257
 30
0.0
 11
613.26476605018502
 21
266.09924524896257
 31
0.0
  0
LINE
  5
54B5
  8
AM_0
 10
607.26476605018502
 20
272.09924524896257
 30
0.0
 11
607.26476605018502
 21
266.09924524896257
 31
0.0
  0
LINE
  5
54B6
  8
AM_0
 10
306.38309828348952
 20
303.09924424896258
 30
0.0
 11
306.38309828348952
 21
178.28532124896259
 31
0.0
  0
LINE
  5
54B7
  8
AM_0
 10
665.24603005018503
 20
278.56445524896247
 30
0.0
 11
665.24603005018503
 21
284.33795224896249
 31
0.0
  0
LINE
  5
54B8
  8
AM_0
 10
660.24603205018502
 20
275.67770524896252
 30
0.0
 11
665.24603005018503
 21
278.56448524896263
 31
0.0
  0
LINE
  5
54B9
  8
AM_0
 10
586.15569805018504
 20
179.12135224896241
 30
0.0
 11
591.15569605018504
 21
182.00809924896251
 31
0.0
  0
LINE
  5
54BA
  8
AM_0
 10
591.15569605018504
 20
182.00805424896251
 30
0.0
 11
591.15569605018504
 21
187.7815842489625
 31
0.0
  0
LINE
  5
54BB
  8
AM_0
 10
591.15569605018504
 20
187.7815692489624
 30
0.0
 11
586.15572805018485
 21
190.66831924896249
 31
0.0
  0
LINE
  5
54BC
  8
AM_0
 10
586.15569805018504
 20
190.66833424896251
 30
0.0
 11
581.15569705018481
 21
187.7815842489625
 31
0.0
  0
LINE
  5
54BD
  8
AM_0
 10
629.37383905018476
 20
182.00805424896251
 30
0.0
 11
634.37382205018503
 21
179.1213042489625
 31
0.0
  0
LINE
  5
54BE
  8
AM_0
 10
634.37382205018503
 20
179.1213372489625
 30
0.0
 11
639.37382305018502
 21
182.00808424896249
 31
0.0
  0
LINE
  5
54BF
  8
AM_0
 10
655.24601605018495
 20
284.33795224896249
 30
0.0
 11
655.24601605018495
 21
278.56445524896247
 31
0.0
  0
LINE
  5
54C0
  8
AM_0
 10
655.24603105018491
 20
278.56445524896247
 30
0.0
 11
660.24601705018495
 21
275.67770524896252
 31
0.0
  0
LINE
  5
54C1
  8
AM_0
 10
629.37380605018495
 20
187.7815842489625
 30
0.0
 11
629.37380605018495
 21
182.00805424896251
 31
0.0
  0
LINE
  5
54C2
  8
AM_0
 10
639.37382305018502
 20
182.00805424896251
 30
0.0
 11
639.37382305018502
 21
187.7815842489625
 31
0.0
  0
LINE
  5
54C3
  8
AM_0
 10
660.24601705018495
 20
287.22473224896282
 30
0.0
 11
655.24601605018495
 21
284.33798224896248
 31
0.0
  0
LINE
  5
54C4
  8
AM_0
 10
555.28349005018481
 20
278.56445524896247
 30
0.0
 11
560.2835000501849
 21
275.67770524896252
 31
0.0
  0
LINE
  5
54C5
  8
AM_0
 10
555.28349005018481
 20
284.33795224896249
 30
0.0
 11
555.28349005018481
 21
278.56445524896247
 31
0.0
  0
LINE
  5
54C6
  8
AM_0
 10
560.28353005018505
 20
287.2247022489625
 30
0.0
 11
555.28349005018481
 21
284.33795224896249
 31
0.0
  0
LINE
  5
54C7
  8
AM_0
 10
565.28351005018499
 20
284.33795224896249
 30
0.0
 11
560.2835000501849
 21
287.2247022489625
 31
0.0
  0
LINE
  5
54C8
  8
AM_0
 10
565.28351005018499
 20
278.56445524896247
 30
0.0
 11
565.28351005018499
 21
284.33795224896249
 31
0.0
  0
LINE
  5
54C9
  8
AM_0
 10
634.37382205018503
 20
190.66834924896261
 30
0.0
 11
629.37380605018495
 21
187.78159924896261
 31
0.0
  0
LINE
  5
54CA
  8
AM_0
 10
560.2835000501849
 20
275.67770524896252
 30
0.0
 11
565.28351005018499
 21
278.56445524896247
 31
0.0
  0
LINE
  5
54CB
  8
AM_0
 10
639.37382305018502
 20
187.7815692489624
 30
0.0
 11
634.37383705018465
 21
190.66831924896249
 31
0.0
  0
LINE
  5
54CC
  8
AM_0
 10
581.15572705018485
 20
182.0080692489625
 30
0.0
 11
586.15572805018485
 21
179.12131924896241
 31
0.0
  0
LINE
  5
54CD
  8
AM_0
 10
665.24603005018503
 20
284.33795224896249
 30
0.0
 11
660.24603205018502
 21
287.2247022489625
 31
0.0
  0
LINE
  5
54CE
  8
AM_0
 10
581.15572705018485
 20
187.7815842489625
 30
0.0
 11
581.15572705018485
 21
182.00805424896251
 31
0.0
  0
LINE
  5
54CF
  8
AM_0
 10
374.38307828348951
 20
269.59924324896258
 30
0.0
 11
374.38307828348962
 21
272.09924424896269
 31
0.0
  0
LINE
  5
54D0
  8
AM_0
 10
294.38309828348952
 20
285.7060872489626
 30
0.0
 11
306.38309828348952
 21
285.7060872489626
 31
0.0
  0
LINE
  5
54D1
  8
AM_0
 10
300.38309828348952
 20
282.97287124896258
 30
0.0
 11
300.38309828348952
 21
243.09924424896261
 31
0.0
  0
LINE
  5
54D2
  8
AM_0
 10
294.38309828348952
 20
287.09924524896257
 30
0.0
 11
300.38309828348952
 21
287.09924524896257
 31
0.0
  0
LINE
  5
54D3
  8
AM_0
 10
282.3830382834895
 20
187.09922524896251
 30
0.0
 11
292.92233828348952
 21
186.8232552489626
 31
0.0
  0
LINE
  5
54D4
  8
AM_0
 10
294.38309828348952
 20
268.88195824896258
 30
0.0
 11
300.38309828348952
 21
268.88195824896258
 31
0.0
  0
LINE
  5
54D5
  8
AM_0
 10
300.38309828348952
 20
192.30735724896249
 30
0.0
 11
300.38309828348952
 21
243.09924424896261
 31
0.0
  0
LINE
  5
54D6
  8
AM_0
 10
301.84385828348962
 20
302.98040824896248
 30
0.0
 11
306.38309828348952
 21
303.09924424896258
 31
0.0
  0
LINE
  5
54D7
  8
AM_0
 10
282.38309828348952
 20
299.09924524896257
 30
0.0
 11
298.92233828348952
 21
299.53234924896248
 31
0.0
  0
LINE
  5
54D8
  8
AM_0
 10
282.38309828348952
 20
289.09924324896258
 30
0.0
 11
300.38309828348952
 21
289.09924324896258
 31
0.0
  0
LINE
  5
54D9
  8
AM_0
 10
282.38309828348952
 20
211.1618022489626
 30
0.0
 11
300.38309828348952
 21
211.1618022489626
 31
0.0
  0
LINE
  5
54DA
  8
AM_0
 10
282.38309828348952
 20
197.09922724896239
 30
0.0
 11
300.38309828348952
 21
197.09922724896239
 31
0.0
  0
LINE
  5
54DB
  8
AM_0
 10
282.38309828348952
 20
299.09927524896261
 30
0.0
 11
282.38309828348952
 21
187.0992402489625
 31
0.0
  0
LINE
  5
54DC
  8
AM_0
 10
282.38309828348952
 20
275.03668324896262
 30
0.0
 11
294.38309828348952
 21
275.03668324896262
 31
0.0
  0
LINE
  5
54DD
  8
AM_0
 10
300.38309828348952
 20
301.48089724896261
 30
0.0
 11
300.38309828348952
 21
287.09924524896257
 31
0.0
  0
LINE
  5
54DE
  8
ﾁｭｳｼﾝｾﾝ
 10
142.13600828348939
 20
243.09924424896261
 30
0.0
 11
304.34666828348952
 21
243.09924424896261
 31
0.0
  0
LINE
  5
54DF
  8
ﾁｭｳｼﾝｾﾝ
 10
610.26476605018502
 20
173.42747224896249
 30
0.0
 11
610.26476605018502
 21
339.53963152142819
 31
0.0
  0
LINE
  5
54E0
  8
ﾁｭｳｼﾝｾﾝ
 10
641.85224515956395
 20
243.09924424896261
 30
0.0
 11
578.6772869408062
 21
243.09924424896261
 31
0.0
  0
LINE
  5
54E1
  8
AM_0
 10
353.3133282834894
 20
190.47721624896249
 30
0.0
 11
361.3830582834895
 21
190.1954172489626
 31
0.0
  0
LINE
  5
54E2
  8
AM_0
 10
365.38310828348961
 20
260.09924224896258
 30
0.0
 11
365.38310828348961
 21
194.5992252489626
 31
0.0
  0
LINE
  5
54E3
  8
AM_0
 10
356.38310828348949
 20
319.59925924896248
 30
0.0
 11
356.38310828348949
 21
205.48393024896259
 31
0.0
  0
LINE
  5
54E4
  8
AM_0
 10
571.76583505018482
 20
189.09922624896251
 30
0.0
 11
574.94124805018498
 21
194.5992252489626
 31
0.0
  0
LINE
  5
54E5
  8
AM_0
 10
361.3830582834895
 20
335.09923924896248
 30
0.0
 11
361.3830582834895
 21
190.1954172489626
 31
0.0
  0
LINE
  5
54E6
  8
AM_0
 10
361.38308828348949
 20
194.49447424896249
 30
0.0
 11
365.38310828348961
 21
194.5992252489626
 31
0.0
  0
LINE
  5
54E7
  8
AM_0
 10
351.38309828348952
 20
332.81866924896258
 30
0.0
 11
351.38309828348952
 21
300.53961424896261
 31
0.0
  0
LINE
  5
54E8
  8
AM_0
 10
361.3830582834895
 20
330.09925924896248
 30
0.0
 11
365.38310828348961
 21
330.09925924896248
 31
0.0
  0
LINE
  5
54E9
  8
AM_0
 10
343.20863828348951
 20
329.32732924896249
 30
0.0
 11
348.48779828348961
 21
329.51167924896259
 31
0.0
  0
LINE
  5
54EA
  8
AM_0
 10
353.31329828348947
 20
334.81744924896248
 30
0.0
 11
361.38308828348949
 21
335.09923924896248
 31
0.0
  0
LINE
  5
54EB
  8
AM_0
 10
342.38309828348952
 20
193.29801724896251
 30
0.0
 11
342.38309828348952
 21
177.09922624896251
 31
0.0
  0
LINE
  5
54EC
  8
AM_0
 10
365.38310828348961
 20
330.09925924896248
 30
0.0
 11
365.38310828348961
 21
260.09924224896258
 31
0.0
  0
LINE
  5
54ED
  8
AM_0
 10
306.38309828348952
 20
178.28532124896259
 30
0.0
 11
342.3831282834895
 21
177.02816524896261
 31
0.0
  0
LINE
  5
54EE
  8
AM_0
 10
343.3568982834895
 20
194.02244524896261
 30
0.0
 11
351.38309828348952
 21
194.23261924896241
 31
0.0
  0
LINE
  5
54EF
  8
AM_0
 10
306.38309828348952
 20
285.7060872489626
 30
0.0
 11
336.57911828348949
 21
285.7060872489626
 31
0.0
  0
LINE
  5
54F0
  8
AM_0
 10
306.38309828348952
 20
190.31860324896249
 30
0.0
 11
342.38309828348952
 21
190.31860324896249
 31
0.0
  0
LINE
  5
54F1
  8
AM_0
 10
343.3830582834895
 20
213.36395224896259
 30
0.0
 11
351.38309828348952
 21
213.36395224896259
 31
0.0
  0
LINE
  5
54F2
  8
AM_0
 10
306.38309828348952
 20
303.09924424896258
 30
0.0
 11
335.46161828348937
 21
303.8606892489625
 31
0.0
  0
LINE
  5
54F3
  8
AM_0
 10
338.38310828348949
 20
324.33034924896259
 30
0.0
 11
338.38310828348949
 21
218.3639352489626
 31
0.0
  0
LINE
  5
54F4
  8
AM_0
 10
640.57276705018512
 20
207.23873824896259
 30
0.0
 11
641.57211205018496
 21
205.62126124896261
 31
0.0
  0
LINE
  5
54F5
  8
AM_0
 10
643.97567605018503
 20
209.34117124896261
 30
0.0
 11
644.97501805018476
 21
207.7236942489626
 31
0.0
  0
LINE
  5
54F6
  8
AM_0
 10
634.21784605018502
 20
198.59922724896251
 30
0.0
 11
586.31170405018474
 21
198.59922724896251
 31
0.0
  0
LINE
  5
54F7
  8
AM_0
 10
651.61123405018475
 20
275.14810324896263
 30
0.0
 11
655.82417005018499
 21
263.57316724896259
 31
0.0
  0
LINE
  5
54F8
  8
AM_0
 10
585.78542605018504
 20
238.44831724896261
 30
0.0
 11
564.44336005018499
 21
217.10623024896259
 31
0.0
  0
LINE
  5
54F9
  8
ﾁｭｳｼﾝｾﾝ1
 10
557.93447005018481
 20
312.42949924896283
 30
0.0
 11
542.78630005018499
 21
327.57769924896257
 31
0.0
  0
LINE
  5
54FA
  8
AM_0
 10
588.39300205018503
 20
235.39903324896261
 30
0.0
 11
567.27179005018502
 21
214.27780024896259
 31
0.0
  0
LINE
  5
54FB
  8
AM_0
 10
588.61385605018506
 20
284.57858524896261
 30
0.0
 11
567.27179005018502
 21
305.92062424896261
 31
0.0
  0
LINE
  5
54FC
  8
AM_0
 10
585.78542605018504
 20
281.75015524896253
 30
0.0
 11
564.44336005018499
 21
303.09219424896253
 31
0.0
  0
LINE
  5
54FD
  8
AM_0
 10
634.74410905018499
 20
281.75015524896253
 30
0.0
 11
656.08619605018475
 21
303.09222724896262
 31
0.0
  0
LINE
  5
54FE
  8
AM_0
 10
631.91567605018486
 20
284.57858524896261
 30
0.0
 11
653.25776605018496
 21
305.92065724896253
 31
0.0
  0
LINE
  5
54FF
  8
AM_0
 10
580.56628105018513
 20
227.57231224896259
 30
0.0
 11
604.41805705018498
 21
203.72054824896259
 31
0.0
  0
LINE
  5
5500
  8
AM_0
 10
574.94124805018498
 20
194.5992252489626
 30
0.0
 11
610.26476605018502
 21
194.5992252489626
 31
0.0
  0
LINE
  5
5501
  8
AM_0
 10
685.26476905018501
 20
260.09924224896258
 30
0.0
 11
685.26476905018501
 21
280.09921324896249
 31
0.0
  0
LINE
  5
5502
  8
AM_0
 10
645.58828405018505
 20
194.5992252489626
 30
0.0
 11
610.26476605018502
 21
194.5992252489626
 31
0.0
  0
LINE
  5
5503
  8
AM_0
 10
610.26476605018502
 20
335.09923924896248
 30
0.0
 11
630.26475205018505
 21
335.09923924896248
 31
0.0
  0
LINE
  5
5504
  8
AM_0
 10
659.09991205018491
 20
254.57316724896259
 30
0.0
 11
668.12411305018497
 21
229.77935824896261
 31
0.0
  0
LINE
  5
5505
  8
AM_0
 10
608.76476605018502
 20
322.93828924896252
 30
0.0
 11
608.76476605018502
 21
306.88330324896248
 31
0.0
  0
LINE
  5
5506
  8
AM_0
 10
611.76476605018502
 20
322.93828924896252
 30
0.0
 11
611.76476605018502
 21
306.88330324896248
 31
0.0
  0
LINE
  5
5507
  8
AM_0
 10
547.42568005018506
 20
258.59924224896258
 30
0.0
 11
563.4806900501851
 21
258.59924224896258
 31
0.0
  0
LINE
  5
5508
  8
AM_0
 10
547.42568005018506
 20
261.59924224896258
 30
0.0
 11
563.4806900501851
 21
261.59924224896258
 31
0.0
  0
LINE
  5
5509
  8
AM_0
 10
673.10383405018501
 20
261.59924224896258
 30
0.0
 11
658.64326405018505
 21
261.59924224896258
 31
0.0
  0
LINE
  5
550A
  8
AM_0
 10
673.10383405018501
 20
258.59924224896258
 30
0.0
 11
661.91897305018495
 21
258.59924224896258
 31
0.0
  0
LINE
  5
550B
  8
AM_0
 10
351.38309828348952
 20
192.47601124896241
 30
0.0
 11
351.38309828348952
 21
219.5642382489626
 31
0.0
  0
LINE
  5
550C
  8
AM_0
 10
617.87798905018485
 20
210.8746782489626
 30
0.0
 11
589.35958405018505
 21
238.58241124896259
 31
0.0
  0
LINE
  5
550D
  8
AM_0
 10
650.87939305018494
 20
231.26403724896261
 30
0.0
 11
638.86172305018499
 21
269.1664422489626
 31
0.0
  0
LINE
  5
550E
  8
AM_0
 10
648.76370005018475
 20
189.0992112489626
 30
0.0
 11
645.58826905018498
 21
194.59921024896261
 31
0.0
  0
LINE
  5
550F
  8
AM_0
 10
610.26476605018502
 20
335.09923924896248
 30
0.0
 11
590.26476805018501
 21
335.09923924896248
 31
0.0
  0
LINE
  5
5510
  8
AM_0
 10
630.2647670501849
 20
335.09923924896248
 30
0.0
 11
672.48094105018504
 21
331.40578924896261
 31
0.0
  0
LINE
  5
5511
  8
AM_0
 10
590.26476805018501
 20
335.0992092489625
 30
0.0
 11
548.04860005018497
 21
331.40578924896261
 31
0.0
  0
LINE
  5
5512
  8
AM_0
 10
535.2647600501848
 20
260.09924224896258
 30
0.0
 11
535.2647600501848
 21
280.09921324896249
 31
0.0
  0
LINE
  5
5513
  8
AM_0
 10
685.26476905018501
 20
280.09921324896249
 30
0.0
 11
681.57133405018499
 21
322.31539924896248
 31
0.0
  0
LINE
  5
5514
  8
AM_0
 10
648.76370005018475
 20
189.09922624896251
 30
0.0
 11
671.63954005018513
 21
189.09922624896251
 31
0.0
  0
LINE
  5
5515
  8
AM_0
 10
535.2647600501848
 20
280.09921324896249
 30
0.0
 11
538.9582100501849
 21
322.31539924896248
 31
0.0
  0
LINE
  5
5516
  8
AM_0
 10
535.2647600501848
 20
240.0992112489626
 30
0.0
 11
538.92806005018485
 21
198.22765924896251
 31
0.0
  0
LINE
  5
5517
  8
AM_0
 10
685.26476905018501
 20
240.0992292489625
 30
0.0
 11
681.60148405018504
 21
198.2276742489625
 31
0.0
  0
LINE
  5
5518
  8
AM_0
 10
535.2647600501848
 20
260.09924224896258
 30
0.0
 11
535.2647600501848
 21
240.0992292489625
 31
0.0
  0
LINE
  5
5519
  8
AM_0
 10
571.76583505018482
 20
189.09922624896251
 30
0.0
 11
548.88998005018505
 21
189.09922624896251
 31
0.0
  0
LINE
  5
551A
  8
AM_0
 10
685.26476905018501
 20
260.09924224896258
 30
0.0
 11
685.26476905018501
 21
240.0992292489625
 31
0.0
  0
LINE
  5
551B
  8
AM_0
 10
586.15569805018504
 20
177.8948202489625
 30
0.0
 11
634.37382205018503
 21
177.8948202489625
 31
0.0
  0
LINE
  5
551C
  8
ﾁｭｳｼﾝｾﾝ1
 10
557.93450005018497
 20
207.76893424896249
 30
0.0
 11
542.78630005018499
 21
192.62074024896251
 31
0.0
  0
LINE
  5
551D
  8
ﾁｭｳｼﾝｾﾝ1
 10
662.59506205018499
 20
207.76893424896249
 30
0.0
 11
677.74323805018503
 21
192.6207552489625
 31
0.0
  0
LINE
  5
551E
  8
ﾁｭｳｼﾝｾﾝ1
 10
662.59506205018499
 20
312.42949924896283
 30
0.0
 11
677.74325605018498
 21
327.57769924896257
 31
0.0
  0
LINE
  5
551F
  8
AM_0
 10
295.84385828348962
 20
178.5613092489626
 30
0.0
 11
306.38309828348952
 21
178.28532124896259
 31
0.0
  0
LINE
  5
5520
  8
AM_0
 10
294.38309828348952
 20
287.09924524896257
 30
0.0
 11
294.38309828348952
 21
268.88195824896258
 31
0.0
  0
LINE
  5
5521
  8
AM_0
 10
294.38309828348952
 20
190.72882024896239
 30
0.0
 11
294.38309828348952
 21
180.06079024896249
 31
0.0
  0
LINE
  5
5522
  8
AM_0
 10
300.38309828348952
 20
190.30735624896249
 30
0.0
 11
306.38309828348952
 21
190.30735624896249
 31
0.0
  0
LINE
  5
5523
  8
AM_0
 10
294.38309828348952
 20
192.7288332489625
 30
0.0
 11
300.38309828348952
 21
192.7288332489625
 31
0.0
  0
LINE
  5
5524
  8
AM_0
 10
346.38305828348962
 20
189.20731924896251
 30
0.0
 11
346.38305828348962
 21
180.5823042489626
 31
0.0
  0
LINE
  5
5525
  8
AM_0
 10
345.9383082834895
 20
190.6448202489625
 30
0.0
 11
342.38309828348952
 21
190.6448202489625
 31
0.0
  0
LINE
  5
5526
  8
AM_0
 10
345.9383082834895
 20
179.14481824896259
 30
0.0
 11
342.38309828348952
 21
179.14481824896259
 31
0.0
  0
LINE
  5
5527
  8
AM_0
 10
345.9383082834895
 20
187.7698362489626
 30
0.0
 11
342.38309828348952
 21
187.7698362489626
 31
0.0
  0
LINE
  5
5528
  8
AM_0
 10
345.9383082834895
 20
182.01982024896259
 30
0.0
 11
342.38309828348952
 21
182.01982024896259
 31
0.0
  0
CIRCLE
  5
5529
  8
AM_0
 10
610.26476605018502
 20
260.09924224896258
 30
0.0
 40
2.4999998400000001
  0
CIRCLE
  5
552A
  8
AM_5
 10
610.26476605018502
 20
260.09924224896258
 30
0.0
 40
3.0
  0
ARC
  5
552B
  8
AM_0
 10
610.26476605018502
 20
260.09924224896258
 30
0.0
 40
9.5000003999999993
 50
108.4084799999997
 51
71.591512000000776
  0
CIRCLE
  5
552C
  8
AM_0
 10
660.24601705018495
 20
281.4512022489626
 30
0.0
 40
4.9999998000000003
  0
CIRCLE
  5
552D
  8
AM_0
 10
586.15569805018504
 20
184.8948342489625
 30
0.0
 40
4.9999998000000003
  0
CIRCLE
  5
552E
  8
AM_0
 10
560.2835000501849
 20
281.4512022489626
 30
0.0
 40
4.9999998000000003
  0
CIRCLE
  5
552F
  8
AM_0
 10
634.37382205018503
 20
184.8948342489625
 30
0.0
 40
4.9999998000000003
  0
ARC
  5
5530
  8
AM_0
 10
301.88309828348952
 20
301.48089724896261
 30
0.0
 40
1.500000029999998
 50
91.500001000001546
 51
180.0000099999977
  0
ARC
  5
5531
  8
AM_0
 10
298.88309828348952
 20
301.03183024896259
 30
0.0
 40
1.500000029999998
 50
271.50000000000267
 51
0.0
  0
ARC
  5
5532
  8
AM_0
 10
343.3830582834895
 20
218.3639352489626
 30
0.0
 40
5.0000001000000003
 50
179.999989999999
 51
270.0
  0
ARC
  5
5533
  8
AM_0
 10
343.3830582834895
 20
193.0228092489626
 30
0.0
 40
1.0000000199999981
 50
91.500001000001546
 51
180.0000099999977
  0
ARC
  5
5534
  8
AM_0
 10
335.38310828348949
 20
306.85965124896262
 30
0.0
 40
3.0
 50
271.50000000000267
 51
0.0
  0
ARC
  5
5535
  8
AM_0
 10
353.38310828348949
 20
319.59925924896248
 30
0.0
 40
3.0
 50
0.0
 51
90.00000299999769
  0
ARC
  5
5536
  8
AM_0
 10
353.38310828348949
 20
332.81866924896258
 30
0.0
 40
2.00000007
 50
91.999998000000545
 51
180.0000099999977
  0
ARC
  5
5537
  8
AM_0
 10
343.3830582834895
 20
324.33034924896259
 30
0.0
 40
5.0000001000000003
 50
91.999998000000545
 51
180.0000099999977
  0
ARC
  5
5538
  8
AM_0
 10
353.38310828348949
 20
300.53961424896261
 30
0.0
 40
2.00000007
 50
179.999989999999
 51
271.51463999999908
  0
ARC
  5
5539
  8
AM_0
 10
348.38309828348952
 20
332.50984924896261
 30
0.0
 40
3.0
 50
271.9999999999971
 51
0.0
  0
ARC
  5
553A
  8
AM_0
 10
610.26476605018502
 20
260.09924224896258
 30
0.0
 40
44.000000999999983
 50
137.54731999999819
 51
174.50581000000039
  0
ARC
  5
553B
  8
AM_0
 10
629.794355050185
 20
286.69989124896262
 30
0.0
 40
3.0
 50
233.71475000000001
 51
315.0
  0
ARC
  5
553C
  8
ﾁｭｳｼﾝｾﾝ1
 10
610.26476605018502
 20
260.09924224896258
 30
0.0
 40
85.000001999999981
 50
125.6955299999962
 51
144.1425800000026
  0
ARC
  5
553D
  8
AM_0
 10
583.664090050185
 20
240.5696412489626
 30
0.0
 40
3.0
 50
315.0
 51
36.285256999998218
  0
ARC
  5
553E
  8
AM_0
 10
658.20750205018464
 20
300.97088824896258
 30
0.0
 40
3.0
 50
40.447928999996982
 51
135.0
  0
ARC
  5
553F
  8
AM_0
 10
605.76476605018479
 20
322.93828924896252
 30
0.0
 40
3.0
 50
0.0
 51
94.096045999998367
  0
ARC
  5
5540
  8
AM_0
 10
569.39309305018503
 20
212.1564792489626
 30
0.0
 40
3.0
 50
135.0
 51
229.5520800000011
  0
ARC
  5
5541
  8
AM_0
 10
569.39309305018503
 20
308.04196324896259
 30
0.0
 40
3.0
 50
130.4479300000001
 51
225.0
  0
ARC
  5
5542
  8
AM_0
 10
651.13644205018466
 20
308.04196324896259
 30
0.0
 40
3.0
 50
315.0
 51
49.552073000000021
  0
ARC
  5
5543
  8
AM_0
 10
562.32206005018486
 20
300.97088824896258
 30
0.0
 40
3.0
 50
45.000001000003223
 51
139.55207999999709
  0
ARC
  5
5544
  8
AM_0
 10
583.664090050185
 20
279.62881624896249
 30
0.0
 40
3.0
 50
323.71473999999722
 51
45.000001000003223
  0
ARC
  5
5545
  8
AM_0
 10
590.51434105018495
 20
233.27772424896261
 30
0.0
 40
3.0
 50
45.826030999997961
 51
135.0
  0
ARC
  5
5546
  8
AM_0
 10
631.81477105018485
 20
225.21922324896261
 30
0.0
 40
20.000000700000001
 50
225.8260300000002
 51
17.592213999998648
  0
ARC
  5
5547
  8
AM_0
 10
610.26476605018502
 20
260.09924224896258
 30
0.0
 40
66.000003000000007
 50
291.2799600000028
 51
248.72003000000129
  0
ARC
  5
5548
  8
AM_0
 10
610.26476605018502
 20
260.09924224896258
 30
0.0
 40
70.000001999999995
 50
290.6561499999973
 51
249.34384000000179
  0
CIRCLE
  5
5549
  8
AM_0
 10
550.16069005018505
 20
320.20330924896263
 30
0.0
 40
5.0000001000000003
  0
ARC
  5
554A
  8
AM_0
 10
610.26476605018502
 20
243.09922924896259
 30
0.0
 40
60.000002999999992
 50
233.93341000000211
 51
236.89085000000259
  0
ARC
  5
554B
  8
AM_0
 10
610.26476605018502
 20
243.09922924896259
 30
0.0
 40
60.000002999999992
 50
303.10914000000122
 51
304.41150999999837
  0
ARC
  5
554C
  8
AM_0
 10
562.32206005018486
 20
219.2275542489626
 30
0.0
 40
3.0
 50
220.4479200000028
 51
315.0
  0
ARC
  5
554D
  8
AM_0
 10
647.52720505018499
 20
209.3004912489626
 30
0.0
 40
3.0
 50
211.70912000000229
 51
306.26119999999651
  0
ARC
  5
554E
  8
AM_0
 10
639.01992505018507
 20
204.04443124896261
 30
0.0
 40
3.0
 50
297.15705000000168
 51
31.709121999997731
  0
ARC
  5
554F
  8
AM_0
 10
610.26476605018502
 20
260.09924224896258
 30
0.0
 40
44.000000999999983
 50
19.99999900000476
 51
42.452681999998767
  0
ARC
  5
5550
  8
AM_0
 10
610.26476605018502
 20
260.09924224896258
 30
0.0
 40
44.000000999999983
 50
47.547317000001861
 51
84.50581900000067
  0
CIRCLE
  5
5551
  8
AM_0
 10
670.368833050185
 20
199.9951452489625
 30
0.0
 40
5.0000001000000003
  0
ARC
  5
5552
  8
AM_0
 10
574.75945705018512
 20
188.65318024896251
 30
0.0
 40
5.0000001000000003
 50
341.74802000000159
 51
56.890858999997633
  0
ARC
  5
5553
  8
AM_0
 10
645.77007805018502
 20
188.65318024896251
 30
0.0
 40
5.0000001000000003
 50
123.1091299999986
 51
198.25197999999841
  0
CIRCLE
  5
5554
  8
AM_0
 10
550.16069005018505
 20
199.9951452489625
 30
0.0
 40
5.0000001000000003
  0
ARC
  5
5555
  8
AM_0
 10
586.15569805018504
 20
184.8948042489626
 30
0.0
 40
7.0000007999999987
 50
161.74802000000159
 51
270.0
  0
CIRCLE
  5
5556
  8
AM_0
 10
670.368833050185
 20
320.20330924896263
 30
0.0
 40
5.0000001000000003
  0
ARC
  5
5557
  8
AM_0
 10
614.76476905018512
 20
322.93828924896252
 30
0.0
 40
3.0
 50
85.903958999999986
 51
180.0000099999977
  0
ARC
  5
5558
  8
AM_0
 10
547.42568005018506
 20
255.59924224896261
 30
0.0
 40
3.0
 50
90.00000299999769
 51
184.09603999999749
  0
ARC
  5
5559
  8
AM_0
 10
610.26476605018502
 20
260.09924224896258
 30
0.0
 40
44.000000999999983
 50
185.49418999999949
 51
222.45268000000121
  0
ARC
  5
555A
  8
AM_0
 10
605.76476605018479
 20
306.88330324896248
 30
0.0
 40
3.0
 50
275.49418000000247
 51
0.0
  0
ARC
  5
555B
  8
AM_0
 10
614.76476905018512
 20
306.88330324896248
 30
0.0
 40
3.0
 50
179.999989999999
 51
264.50581999999741
  0
ARC
  5
555C
  8
AM_0
 10
547.42568005018506
 20
264.59924524896257
 30
0.0
 40
3.0
 50
175.90395000000231
 51
270.0
  0
ARC
  5
555D
  8
AM_0
 10
563.4806900501851
 20
255.59924224896261
 30
0.0
 40
3.0
 50
5.4941789999992992
 51
90.00000299999769
  0
ARC
  5
555E
  8
AM_0
 10
563.4806900501851
 20
264.59924524896257
 30
0.0
 40
3.0
 50
270.0
 51
354.50582000000048
  0
ARC
  5
555F
  8
AM_0
 10
673.10383405018501
 20
264.59924524896257
 30
0.0
 40
3.0
 50
270.0
 51
4.096044000000556
  0
ARC
  5
5560
  8
AM_0
 10
673.10383405018501
 20
255.59924224896261
 30
0.0
 40
3.0
 50
355.90396000000248
 51
90.00000299999769
  0
ARC
  5
5561
  8
AM_0
 10
661.91897305018495
 20
255.59924224896261
 30
0.0
 40
3.0
 50
90.00000299999769
 51
200.00000000000219
  0
ARC
  5
5562
  8
AM_0
 10
658.64326405018505
 20
264.59924524896257
 30
0.0
 40
3.0
 50
200.00000000000219
 51
270.0
  0
ARC
  5
5563
  8
AM_0
 10
353.38310828348949
 20
219.5642382489626
 30
0.0
 40
2.00000007
 50
90.00000299999769
 51
180.0000099999977
  0
ARC
  5
5564
  8
AM_0
 10
353.38310828348949
 20
192.47601124896241
 30
0.0
 40
2.00000007
 50
179.999989999999
 51
268.00000999999872
  0
ARC
  5
5565
  8
AM_0
 10
354.38309828348952
 20
205.48393024896259
 30
0.0
 40
2.00000007
 50
268.0000000000029
 51
0.0
  0
ARC
  5
5566
  8
AM_0
 10
610.26476605018502
 20
260.09924224896258
 30
0.0
 40
30.0
 50
17.592213999998648
 51
225.8260300000002
  0
ARC
  5
5567
  8
AM_0
 10
636.86543005018507
 20
279.62881624896249
 30
0.0
 40
3.0
 50
135.0
 51
216.28526000000289
  0
ARC
  5
5568
  8
AM_0
 10
590.73516505018495
 20
286.69989124896262
 30
0.0
 40
3.0
 50
225.0
 51
306.28525999999772
  0
ARC
  5
5569
  8
AM_0
 10
671.60937505018478
 20
321.4438392489626
 30
0.0
 40
10.000000200000001
 50
4.99999990000107
 51
84.999996999998729
  0
ARC
  5
556A
  8
AM_0
 10
610.26476605018502
 20
243.09922924896259
 30
0.0
 40
60.000002999999992
 50
303.10914000000122
 51
306.06658999999792
  0
ARC
  5
556B
  8
AM_0
 10
548.9201600501849
 20
321.4438392489626
 30
0.0
 40
10.000000200000001
 50
95.00000199999856
 51
175.0000100000004
  0
ARC
  5
556C
  8
AM_0
 10
671.63954005018513
 20
199.09922524896251
 30
0.0
 40
10.000000200000001
 50
270.0
 51
354.99999999999977
  0
ARC
  5
556D
  8
AM_0
 10
548.88998005018505
 20
199.09922524896251
 30
0.0
 40
10.000000200000001
 50
184.99998999999951
 51
270.0
  0
ARC
  5
556E
  8
AM_0
 10
602.29671805018506
 20
201.59924224896261
 30
0.0
 40
3.0
 50
270.0
 51
45.000001000003223
  0
ARC
  5
556F
  8
AM_0
 10
634.37382205018503
 20
184.8948042489626
 30
0.0
 40
7.0000007999999987
 50
270.0
 51
18.251978000001721
  0
ARC
  5
5570
  8
ﾁｭｳｼﾝｾﾝ1
 10
610.26476605018502
 20
260.09924224896258
 30
0.0
 40
85.000001999999981
 50
215.69552999999689
 51
234.14257999999799
  0
ARC
  5
5571
  8
ﾁｭｳｼﾝｾﾝ1
 10
610.26476605018502
 20
260.09924224896258
 30
0.0
 40
85.000001999999981
 50
305.69552999999621
 51
324.14258000000262
  0
ARC
  5
5572
  8
ﾁｭｳｼﾝｾﾝ1
 10
610.26476605018502
 20
260.09924224896258
 30
0.0
 40
85.000001999999981
 50
35.69552799999677
 51
54.142581999996843
  0
ARC
  5
5573
  8
AM_0
 10
292.88309828348952
 20
185.32377424896251
 30
0.0
 40
1.500000029999998
 50
0.0
 51
88.499997000000747
  0
ARC
  5
5574
  8
AM_0
 10
295.88309828348952
 20
180.06079024896249
 30
0.0
 40
1.500000029999998
 50
179.999989999999
 51
268.50000999999878
  0
ARC
  5
5575
  8
AM_0
 10
292.38308828348949
 20
190.72882024896239
 30
0.0
 40
2.00000007
 50
0.0
 51
90.00000299999769
  0
ARC
  5
5576
  8
AM_0
 10
298.3830882834896
 20
192.30735724896249
 30
0.0
 40
2.00000007
 50
270.0
 51
0.0
  0
ARC
  5
5577
  8
AM_0
 10
343.83767828348948
 20
180.5823042489626
 30
0.0
 40
2.5454064299999981
 50
325.61556999999817
 51
34.38443900000275
  0
ARC
  5
5578
  8
AM_0
 10
343.83767828348948
 20
189.20731924896251
 30
0.0
 40
2.5454064299999981
 50
325.61556999999817
 51
34.38443900000275
  0
ARC
  5
5579
  8
AM_0
 10
336.8685882834896
 20
184.89481924896239
 30
0.0
 40
9.5144921999999994
 50
342.41195999999752
 51
17.588032999999289
  0
ARC
  5
558F
  8
AM_0
 10
610.26476605018502
 20
260.0992422489627
 30
0.0
 40
44.000000999999983
 50
95.494178999999434
 51
132.4526799999984
  0
LINE
  5
5785
  8
AM_0
 10
338.38309828348952
 20
571.73647658336472
 30
0.0
 11
338.38309828348952
 21
443.29173658336441
 31
0.0
  0
LINE
  5
5788
  8
AM_0
 10
353.31327828348958
 20
582.22356658336435
 30
0.0
 11
361.38309828348952
 21
582.50536658336443
 31
0.0
  0
LINE
  5
5789
  8
AM_0
 10
365.38309828348952
 20
577.50536658336443
 30
0.0
 11
365.38309828348952
 21
437.50533658336468
 31
0.0
  0
LINE
  5
578A
  8
AM_0
 10
361.38306828348959
 20
582.50533658336485
 30
0.0
 11
361.38306828348959
 21
432.50533658336479
 31
0.0
  0
LINE
  5
578B
  8
AM_0
 10
361.38306828348959
 20
577.50536658336443
 30
0.0
 11
365.38309828348952
 21
577.50536658336443
 31
0.0
  0
LINE
  5
578C
  8
AM_0
 10
356.38309828348952
 20
567.00536658336466
 30
0.0
 11
356.38309828348952
 21
448.00533658336462
 31
0.0
  0
LINE
  5
578D
  8
AM_0
 10
343.20862828348959
 20
576.73341658336471
 30
0.0
 11
348.48780828348958
 21
576.91777658336468
 31
0.0
  0
LINE
  5
578F
  8
AM_0
 10
351.38306828348959
 20
580.22475658336475
 30
0.0
 11
351.38306828348959
 21
547.94572658336483
 31
0.0
  0
LINE
  5
5790
  8
AM_0
 10
282.38309828348952
 20
539.44530658336475
 30
0.0
 11
298.38309828348952
 21
539.44530658336475
 31
0.0
  0
LINE
  5
5791
  8
AM_0
 10
306.38309828348969
 20
447.50536658336472
 30
0.0
 11
306.38309828348969
 21
567.50536658336466
 31
0.0
  0
LINE
  5
5792
  8
AM_0
 10
338.38309828348952
 20
446.66737658336478
 30
0.0
 11
302.33072828348952
 21
447.61143658336448
 31
0.0
  0
LINE
  5
5794
  8
AM_0
 10
300.38309828348952
 20
449.61076658336481
 30
0.0
 11
300.38309828348952
 21
565.39992658336473
 31
0.0
  0
LINE
  5
5795
  8
AM_0
 10
282.38306828348959
 20
553.50563658336455
 30
0.0
 11
298.43540828348961
 21
553.92598658336465
 31
0.0
  0
LINE
  5
5797
  8
AM_0
 10
282.38309828348952
 20
461.50502658336461
 30
0.0
 11
298.43540828348961
 21
461.08470658336438
 31
0.0
  0
LINE
  5
5798
  8
AM_0
 10
282.38309828348952
 20
475.56541658336471
 30
0.0
 11
298.38309828348952
 21
475.56541658336471
 31
0.0
  0
LINE
  5
5799
  8
AM_0
 10
282.38306828348959
 20
451.00536658336461
 30
0.0
 11
292.37738828348961
 21
450.74364658336481
 31
0.0
  0
LINE
  5
579A
  8
AM_0
 10
293.33072828348952
 20
450.47307658336479
 30
0.0
 11
299.01172828348967
 21
450.32429658336468
 31
0.0
  0
LINE
  5
579B
  8
AM_0
 10
291.38309828348952
 20
555.68962658336466
 30
0.0
 11
291.38309828348952
 21
562.53828658336465
 31
0.0
  0
LINE
  5
579C
  8
AM_0
 10
282.38306828348959
 20
564.00533658336485
 30
0.0
 11
292.37738828348961
 21
564.26704658336473
 31
0.0
  0
LINE
  5
579D
  8
AM_0
 10
293.33072828348952
 20
564.5375865833646
 30
0.0
 11
299.01172828348967
 21
564.6863665833647
 31
0.0
  0
LINE
  5
579E
  8
AM_0
 10
302.33069828348948
 20
567.39922658336445
 30
0.0
 11
338.38309828348952
 21
568.34331658336464
 31
0.0
  0
LINE
  5
57A5
  8
AM_0
 10
343.20862828348959
 20
438.27727658336482
 30
0.0
 11
348.48780828348958
 21
438.0929165833648
 31
0.0
  0
LINE
  5
57A6
  8
AM_0
 10
351.38306828348959
 20
434.78593658336462
 30
0.0
 11
351.38306828348959
 21
467.06496658336448
 31
0.0
  0
LINE
  5
57A8
  8
AM_0
 10
353.31327828348958
 20
432.78716658336458
 30
0.0
 11
361.38309828348952
 21
432.50536658336478
 31
0.0
  0
LINE
  5
57A9
  8
AM_0
 10
361.38306828348959
 20
437.50533658336468
 30
0.0
 11
365.38309828348952
 21
437.50533658336468
 31
0.0
  0
LINE
  5
57AC
  8
AM_0
 10
306.38309828348969
 20
563.03169658336469
 30
0.0
 11
338.38309828348952
 21
563.03169658336469
 31
0.0
  0
LINE
  5
57AD
  8
AM_0
 10
306.38309828348969
 20
451.97899658336451
 30
0.0
 11
338.38309828348952
 21
451.97899658336451
 31
0.0
  0
LINE
  5
57AE
  8
AM_0
 10
291.38309828348952
 20
459.3210665833646
 30
0.0
 11
291.38309828348952
 21
452.4724065833646
 31
0.0
  0
ARC
  5
57AF
  8
AM_0
 10
353.38309828348952
 20
547.94572658336483
 30
0.0
 40
2.0
 50
179.999989999999
 51
271.51463999999908
  0
ARC
  5
57B0
  8
AM_0
 10
348.38306828348959
 20
579.91594658336464
 30
0.0
 40
3.0
 50
271.9999999999971
 51
0.0
  0
ARC
  5
57B1
  8
AM_0
 10
343.38306828348959
 20
571.73647658336472
 30
0.0
 40
5.0
 50
91.999998000000545
 51
180.00001000000091
  0
ARC
  5
57B3
  8
AM_0
 10
353.38309828348952
 20
567.00536658336466
 30
0.0
 40
3.0
 50
0.0
 51
90.00000299999769
  0
ARC
  5
57B4
  8
AM_0
 10
353.38309828348952
 20
580.22475658336475
 30
0.0
 40
2.0
 50
91.999998000000545
 51
180.00001000000091
  0
ARC
  5
57B5
  8
AM_0
 10
298.38309828348952
 20
473.56541658336471
 30
0.0
 40
2.0
 50
0.0
 51
90.00000299999769
  0
ARC
  5
57B6
  8
AM_0
 10
343.38306828348959
 20
443.27422658336468
 30
0.0
 40
5.0
 50
179.999989999999
 51
268.00000999999861
  0
ARC
  5
57B7
  8
AM_0
 10
289.38309828348969
 20
459.3210665833646
 30
0.0
 40
2.0
 50
0.0
 51
88.499997000000747
  0
ARC
  5
57B8
  8
AM_0
 10
298.38309828348952
 20
555.92531658336452
 30
0.0
 40
2.0
 50
271.50000000000267
 51
0.0
  0
ARC
  5
57B9
  8
AM_0
 10
302.3830982834898
 20
565.39992658336473
 30
0.0
 40
2.0
 50
91.500001000001546
 51
180.00001000000091
  0
ARC
  5
57BA
  8
AM_0
 10
298.38309828348952
 20
459.08537658336468
 30
0.0
 40
2.0
 50
0.0
 51
88.499997000000747
  0
ARC
  5
57BB
  8
AM_0
 10
298.97245828348952
 20
448.82484658336472
 30
0.0
 40
1.5
 50
12.97665300000153
 51
88.499997000000747
  0
ARC
  5
57BC
  8
AM_0
 10
298.97245828348952
 20
566.18587658336446
 30
0.0
 40
1.5
 50
271.50000000000267
 51
347.02334999999908
  0
ARC
  5
57BD
  8
AM_0
 10
293.38309828348969
 20
452.4724065833646
 30
0.0
 40
2.0
 50
180.00001000000091
 51
268.49999999999721
  0
ARC
  5
57BE
  8
AM_0
 10
298.38309828348952
 20
541.44530658336475
 30
0.0
 40
2.0
 50
270.0
 51
0.0
  0
ARC
  5
57BF
  8
AM_0
 10
293.38309828348969
 20
562.53828658336465
 30
0.0
 40
2.0
 50
91.500001000001546
 51
180.00001000000091
  0
ARC
  5
57C0
  8
AM_0
 10
302.3830982834898
 20
449.61076658336481
 30
0.0
 40
2.0
 50
180.00001000000091
 51
268.49999999999721
  0
ARC
  5
57C1
  8
AM_0
 10
348.38306828348959
 20
435.0947465833645
 30
0.0
 40
3.0
 50
0.0
 51
88.000000000002899
  0
ARC
  5
57C2
  8
AM_0
 10
353.38309828348952
 20
448.00533658336462
 30
0.0
 40
3.0
 50
270.0
 51
0.0
  0
ARC
  5
57C4
  8
AM_0
 10
353.38309828348952
 20
467.06496658336448
 30
0.0
 40
2.0
 50
88.485353000001012
 51
180.00001000000091
  0
ARC
  5
57C6
  8
AM_0
 10
289.38309828348969
 20
555.68962658336466
 30
0.0
 40
2.0
 50
271.50000000000267
 51
0.0
  0
ARC
  5
57C7
  8
AM_0
 10
353.38309828348952
 20
434.78593658336462
 30
0.0
 40
2.0
 50
179.999989999999
 51
268.00000999999861
  0
LINE
  5
5AE9
  8
AM_0
 10
253.40928813252989
 20
441.50536658336478
 30
0.0
 11
253.66383740655269
 21
451.22533658336471
 31
0.0
  0
LINE
  5
5AEA
  8
AM_0
 10
193.3568561372893
 20
441.50536658336478
 30
0.0
 11
193.10237409615061
 21
451.22533658336471
 31
0.0
  0
LINE
  5
5AEB
  8
AM_0
 10
189.8830982834894
 20
439.50536658336472
 30
0.0
 11
256.8830982834894
 21
439.50536658336472
 31
0.0
  0
LINE
  5
5AEC
  8
AM_0
 10
189.8830982834894
 20
438.50536658336461
 30
0.0
 11
189.8830982834894
 21
439.50536658336472
 31
0.0
  0
LINE
  5
5AED
  8
AM_0
 10
256.8830982834894
 20
438.50536658336461
 30
0.0
 11
256.8830982834894
 21
439.50536658336472
 31
0.0
  0
LINE
  5
5AEE
  8
AM_0
 10
175.3830982834894
 20
400.50536658336472
 30
0.0
 11
176.64268341975171
 21
436.57516557676968
 31
0.0
  0
LINE
  5
5AEF
  8
AM_0
 10
178.6414650737899
 20
438.50536658336461
 30
0.0
 11
268.12473149318907
 21
438.50536658336461
 31
0.0
  0
ARC
  5
5AF0
  8
AM_0
 10
178.64146507378999
 20
436.50536658336478
 30
0.0
 40
2.0
 50
90.0
 51
178.0000000000029
1001
GENIUS_GENODEF_13
1002
{
1000
HIER
1070
     0
1002
}
1002
{
1000
MANEDIT
1070
     0
1002
}
1002
{
1000
NOSEL
1070
     0
1002
}
1002
{
1000
BEHIND
1070
     0
1002
}
1002
{
1000
OTHER
1070
     0
1002
}
1002
{
1000
REACTOR
1002
}
1001
GENIUS_GENOBJ-N-FIL_13
1002
{
1000
OWNER
1000
GEN
1002
}
  0
LINE
  5
5AF1
  8
AM_0
 10
270.12351314722719
 20
436.57516557676968
 30
0.0
 11
271.38309828348952
 21
400.50536658336472
 31
0.0
  0
ARC
  5
5AF2
  8
AM_0
 10
268.12473149318907
 20
436.50536658336478
 30
0.0
 40
2.0
 50
1.9999999999971021
 51
90.0
1001
GENIUS_GENOBJ-N-FIL_13
1002
{
1000
OWNER
1000
GEN
1002
}
1001
GENIUS_GENODEF_13
1002
{
1000
HIER
1070
     0
1002
}
1002
{
1000
MANEDIT
1070
     0
1002
}
1002
{
1000
NOSEL
1070
     0
1002
}
1002
{
1000
BEHIND
1070
     0
1002
}
1002
{
1000
OTHER
1070
     0
1002
}
1002
{
1000
REACTOR
1002
}
  0
LINE
  5
5AF3
  8
AM_0
 10
271.38309828348952
 20
400.50536658336472
 30
0.0
 11
175.38309828348901
 21
400.50536658336472
 31
0.0
  0
LINE
  5
5AF4
  8
AM_0
 10
175.48786059196459
 20
403.50536658336461
 30
0.0
 11
174.3830982834894
 21
403.50536658336461
 31
0.0
  0
LINE
  5
5AF5
  8
AM_0
 10
176.6053252157005
 20
435.50536658336438
 30
0.0
 11
174.38309828348909
 21
435.50536658336438
 31
0.0
  0
LINE
  5
5AF6
  8
ﾁｭｳｼﾝｾﾝ1
 10
180.38309828349011
 20
390.24065908336468
 30
0.0
 11
180.38309828349011
 21
403.24065908336468
 31
0.0
  0
LINE
  5
5AF7
  8
ﾁｭｳｼﾝｾﾝ
 10
223.38309828348949
 20
445.79739725659368
 30
0.0
 11
223.38309828348949
 21
388.05484394255552
 31
0.0
  0
LINE
  5
5AF8
  8
AM_0
 10
171.8830982834894
 20
406.00536658336449
 30
0.0
 11
174.38309828348909
 21
406.00536658336438
 31
0.0
  0
LINE
  5
5AF9
  8
AM_0
 10
174.38309828348909
 20
433.00536658336432
 30
0.0
 11
171.8830982834894
 21
433.00536658336461
 31
0.0
  0
LINE
  5
5AFA
  8
AM_0
 10
160.98442718714341
 20
430.00536658336472
 30
0.0
 11
160.98442718714341
 21
409.00536658336472
 31
0.0
  0
LINE
  5
5AFB
  8
AM_0
 10
145.98442718714341
 20
411.47374152934941
 30
0.0
 11
145.98442718714341
 21
427.53699163738031
 31
0.0
  0
LINE
  5
5AFC
  8
AM_0
 10
158.98442718714341
 20
431.50536658336438
 30
0.0
 11
158.98442718714341
 21
407.50536658336461
 31
0.0
  0
LINE
  5
5AFD
  8
AM_0
 10
149.48442718714341
 20
419.50536658336438
 30
0.0
 11
149.98442718714341
 21
420.00536658336461
 31
0.0
  0
LINE
  5
5AFE
  8
AM_0
 10
156.48442718714341
 20
407.80536658336428
 30
0.0
 11
156.48442718714341
 21
431.20536658336431
 31
0.0
  0
LINE
  5
5AFF
  8
AM_0
 10
166.3830982834894
 20
408.00536658336461
 30
0.0
 11
166.3830982834894
 21
431.00536658336449
 31
0.0
  0
LINE
  5
5B00
  8
AM_0
 10
160.48442718714341
 20
420.20536658336641
 30
0.0
 11
160.48442718714341
 21
418.8053665833632
 31
0.0
  0
LINE
  5
5B01
  8
AM_0
 10
162.58406291371421
 20
428.6053665833644
 30
0.0
 11
161.83406291371529
 21
410.40536658336441
 31
0.0
  0
LINE
  5
5B02
  8
AM_0
 10
161.6330982834894
 20
428.6053665833644
 30
0.0
 11
160.98442718714341
 21
412.86428131204832
 31
0.0
  0
LINE
  5
5B03
  8
AM_0
 10
162.38179087406141
 20
429.32102529572848
 30
0.0
 11
161.6345308306534
 21
409.69299482219742
 31
0.0
  0
LINE
  5
5B04
  8
AM_0
 10
161.83263036655131
 20
429.31773834453242
 30
0.0
 11
161.08406291371529
 21
409.65536658336441
 31
0.0
  0
LINE
  5
5B05
  8
AM_0
 10
158.98442718714341
 20
407.50536658336461
 30
0.0
 11
156.78442718714331
 21
407.50536658336461
 31
0.0
  0
ARC
  5
5B06
  8
AM_0
 10
170.88309828348949
 20
407.00536658336438
 30
0.0
 40
0.5
 50
0.0
 51
90.000000000013017
  0
ARC
  5
5B07
  8
AM_0
 10
171.8830982834894
 20
406.50536658336438
 30
0.0
 40
0.5
 50
180.0
 51
270.0
  0
LINE
  5
5B08
  8
AM_0
 10
171.3830982834894
 20
407.00536658336438
 30
0.0
 11
171.3830982834894
 21
406.50536658336438
 31
0.0
  0
LINE
  5
5B09
  8
AM_0
 10
162.3830982834894
 20
410.40536658336441
 30
0.0
 11
165.8830982834894
 21
410.40536658336441
 31
0.0
  0
LINE
  5
5B0A
  8
AM_0
 10
171.3830982834894
 20
408.64929526195749
 30
0.0
 11
171.3830982834894
 21
418.36143790477229
 31
0.0
  0
LINE
  5
5B0B
  8
AM_0
 10
166.8830982834894
 20
407.50536658336461
 30
0.0
 11
170.88309828348929
 21
407.50536658336461
 31
0.0
  0
LINE
  5
5B0C
  8
AM_0
 10
170.8830982834894
 20
408.1492952619576
 30
0.0
 11
166.3830982834894
 21
408.1492952619576
 31
0.0
  0
ARC
  5
5B0D
  8
AM_0
 10
170.88309828348949
 20
408.64929526195749
 30
0.0
 40
0.5
 50
270.0
 51
0.0
  0
ARC
  5
5B0E
  8
AM_0
 10
165.88309828348929
 20
409.9053665833647
 30
0.0
 40
0.5
 50
0.0
 51
90.0
  0
ARC
  5
5B0F
  8
AM_0
 10
166.88309828348929
 20
408.00536658336461
 30
0.0
 40
0.5
 50
180.0
 51
270.0
  0
LINE
  5
5B10
  8
AM_0
 10
170.8830982834894
 20
418.86143790477252
 30
0.0
 11
166.3830982834894
 21
418.86143790477252
 31
0.0
  0
ARC
  5
5B11
  8
AM_0
 10
170.88309828348929
 20
418.36143790477257
 30
0.0
 40
0.5
 50
0.0
 51
90.0
  0
LINE
  5
5B12
  8
AM_0
 10
160.48442718714341
 20
413.36019583107219
 30
0.0
 11
160.48442718714341
 21
414.53243901750511
 31
0.0
  0
LINE
  5
5B13
  8
AM_0
 10
161.9107953421402
 20
410.40536658336441
 30
0.0
 11
162.3830982834894
 21
410.40536658336441
 31
0.0
  0
LINE
  5
5B14
  8
AM_0
 10
161.81420284760111
 20
410.33124881662758
 30
0.0
 11
161.83406291371529
 21
410.40536658336441
 31
0.0
  0
ARC
  5
5B15
  8
AM_0
 10
161.9107953421402
 20
410.30536658336462
 30
0.0
 40
0.1000000000000346
 50
90.0
 51
164.99980499355539
  0
ARC
  5
5B16
  8
AM_0
 10
160.1844271871434
 20
410.2185336028565
 30
0.0
 40
0.3000000000000043
 50
0.0
 51
90.0
  0
LINE
  5
5B17
  8
AM_0
 10
158.98442718714341
 20
408.1053665833644
 30
0.0
 11
160.20438289030051
 21
408.18669696357551
 31
0.0
  0
LINE
  5
5B18
  8
AM_0
 10
158.98442718714341
 20
409.2616186192044
 30
0.0
 11
160.18442718714331
 21
409.2616186192044
 31
0.0
  0
LINE
  5
5B19
  8
AM_0
 10
160.48442718714341
 20
408.50536658336461
 30
0.0
 11
158.98442718714341
 21
408.50536658336461
 31
0.0
  0
ARC
  5
5B1A
  8
AM_0
 10
160.48442718714341
 20
409.00536658336472
 30
0.0
 40
0.5
 50
270.0
 51
0.0
  0
LINE
  5
5B1B
  8
AM_0
 10
160.48442718714341
 20
408.4860325109326
 30
0.0
 11
160.48442718714341
 21
408.50536658336461
 31
0.0
  0
LINE
  5
5B1C
  8
AM_0
 10
160.48442718714341
 20
408.20536658336448
 30
0.0
 11
160.48442718714341
 21
408.4860325109326
 31
0.0
  0
LINE
  5
5B1D
  8
AM_0
 10
160.20438289030051
 20
408.18669696357551
 30
0.0
 11
160.48442718714341
 21
408.20536658336448
 31
0.0
  0
ARC
  5
5B1E
  8
AM_0
 10
160.1844271871434
 20
408.4860325109326
 30
0.0
 40
0.3000000000000007
 50
273.81407483428148
 51
0.0
  0
LINE
  5
5B1F
  8
AM_0
 10
161.55636585506431
 20
409.65536658336441
 30
0.0
 11
161.63309828349031
 21
409.65536658336441
 31
0.0
  0
LINE
  5
5B20
  8
AM_0
 10
161.63309828349031
 20
409.65536658336441
 30
0.0
 11
161.65295834960341
 21
409.72948435010079
 31
0.0
  0
LINE
  5
5B21
  8
AM_0
 10
161.06420284760119
 20
409.72948435010079
 30
0.0
 11
161.08406291371529
 21
409.65536658336441
 31
0.0
  0
LINE
  5
5B22
  8
AM_0
 10
161.08406291371529
 20
409.65536658336441
 30
0.0
 11
161.1607953421402
 21
409.65536658336441
 31
0.0
  0
LINE
  5
5B23
  8
AM_0
 10
161.65295834960341
 20
409.72948435010079
 30
0.0
 11
161.81420284760111
 21
410.33124881662758
 31
0.0
  0
LINE
  5
5B24
  8
AM_0
 10
161.1607953421402
 20
409.65536658336441
 30
0.0
 11
161.55636585506431
 21
409.65536658336441
 31
0.0
  0
LINE
  5
5B25
  8
AM_0
 10
160.98442718714429
 20
410.0272071149252
 30
0.0
 11
161.06420284760119
 21
409.72948435010079
 31
0.0
  0
ARC
  5
5B26
  8
AM_0
 10
161.55636585506431
 20
409.75536658336461
 30
0.0
 40
0.0999999999999866
 50
270.0
 51
344.99980499343371
  0
ARC
  5
5B27
  8
AM_0
 10
161.1607953421402
 20
409.75536658336461
 30
0.0
 40
0.1000000000000014
 50
195.00019500656629
 51
270.0
  0
LINE
  5
5B28
  8
AM_0
 10
160.48442718714341
 20
409.56161861920441
 30
0.0
 11
160.48442718714341
 21
410.2185336028565
 31
0.0
  0
ARC
  5
5B29
  8
AM_0
 10
160.1844271871434
 20
409.56161861920469
 30
0.0
 40
0.3000000000000007
 50
270.0
 51
0.0
  0
LINE
  5
5B2A
  8
AM_0
 10
158.98442718714341
 20
413.06019583107241
 30
0.0
 11
160.18442718714331
 21
413.06019583107241
 31
0.0
  0
LINE
  5
5B2B
  8
AM_0
 10
160.18442718714331
 20
410.51853360285651
 30
0.0
 11
158.98442718714341
 21
410.51853360285651
 31
0.0
  0
LINE
  5
5B2C
  8
AM_0
 10
161.83406291371529
 20
410.40536658336441
 30
0.0
 11
161.9107953421402
 21
410.40536658336441
 31
0.0
  0
ARC
  5
5B2D
  8
AM_0
 10
160.1844271871434
 20
413.36019583107242
 30
0.0
 40
0.3000000000000007
 50
270.0
 51
0.0
  0
LINE
  5
5B2E
  8
AM_0
 10
160.18442718714331
 20
414.83243901750552
 30
0.0
 11
158.98442718714341
 21
414.83243901750552
 31
0.0
  0
ARC
  5
5B2F
  8
AM_0
 10
160.1844271871434
 20
414.53243901750562
 30
0.0
 40
0.3000000000000043
 50
0.0
 51
90.0
  0
LINE
  5
5B30
  8
AM_0
 10
160.18442718714331
 20
418.5053665833633
 30
0.0
 11
158.98442718714341
 21
418.5053665833633
 31
0.0
  0
ARC
  5
5B31
  8
AM_0
 10
160.1844271871434
 20
418.80536658336359
 30
0.0
 40
0.3000000000000007
 50
270.0
 51
0.0
  0
LINE
  5
5B32
  8
AM_0
 10
149.98442718714341
 20
409.37208675471737
 30
0.0
 11
156.48442718714341
 21
409.37208675471737
 31
0.0
  0
LINE
  5
5B33
  8
AM_0
 10
149.98442718714341
 20
408.87208675471737
 30
0.0
 11
156.48442718714341
 21
408.87208675471737
 31
0.0
  0
LINE
  5
5B34
  8
AM_0
 10
156.48442718714341
 20
419.00536658336438
 30
0.0
 11
149.98442718714341
 21
419.00536658336438
 31
0.0
  0
LINE
  5
5B35
  8
AM_0
 10
149.48442718714341
 20
418.50536658336449
 30
0.0
 11
156.48442718714341
 21
418.50536658336449
 31
0.0
  0
LINE
  5
5B36
  8
AM_0
 10
156.18442718714331
 20
408.50536658336461
 30
0.0
 11
149.34647712232541
 21
408.50536658336461
 31
0.0
  0
LINE
  5
5B37
  8
AM_0
 10
156.48442718714341
 20
418.15867851482312
 30
0.0
 11
149.98442718714341
 21
418.15867851482312
 31
0.0
  0
LINE
  5
5B38
  8
AM_0
 10
156.48442718714341
 20
409.85205465190552
 30
0.0
 11
149.98442718714341
 21
409.85205465190552
 31
0.0
  0
ARC
  5
5B39
  8
AM_0
 10
156.78442718714331
 20
407.80536658336428
 30
0.0
 40
0.2999999999999971
 50
180.0
 51
270.0
  0
ARC
  5
5B3A
  8
AM_0
 10
156.1844271871434
 20
408.20536658336448
 30
0.0
 40
0.2999999999999971
 50
0.0
 51
90.0
  0
ARC
  5
5B3B
  8
AM_0
 10
158.10942718714341
 20
414.00536658336449
 30
0.0
 40
9.124999999999984
 50
152.92493329271929
 51
207.07506670728071
  0
LINE
  5
5B3C
  8
AM_0
 10
148.70629272266081
 20
408.73714530376702
 30
0.0
 11
146.34424278747881
 21
410.70552024975188
 31
0.0
  0
LINE
  5
5B3D
  8
AM_0
 10
149.48442718714341
 20
409.0837991668725
 30
0.0
 11
149.98442718714341
 21
408.50536658336461
 31
0.0
  0
ARC
  5
5B3E
  8
AM_0
 10
149.34647712232521
 20
409.50536658336461
 30
0.0
 40
1.0
 50
230.19442890774391
 51
270.0
  0
LINE
  5
5B3F
  8
AM_0
 10
149.98442718714341
 20
408.87208675471737
 30
0.0
 11
149.48442718714341
 21
409.0837991668725
 31
0.0
  0
LINE
  5
5B40
  8
AM_0
 10
149.48442718714341
 20
409.54607443984361
 30
0.0
 11
149.98442718714341
 21
408.87208675471737
 31
0.0
  0
LINE
  5
5B41
  8
AM_0
 10
149.98442718714341
 20
409.37208675471737
 30
0.0
 11
149.48442718714341
 21
409.54607443984361
 31
0.0
  0
LINE
  5
5B42
  8
AM_0
 10
149.48442718714341
 20
410.0837991668725
 30
0.0
 11
149.98442718714341
 21
409.37208675471737
 31
0.0
  0
LINE
  5
5B43
  8
AM_0
 10
149.98442718714341
 20
409.85205465190552
 30
0.0
 11
149.48442718714341
 21
410.0837991668725
 31
0.0
  0
ARC
  5
5B44
  8
AM_0
 10
146.98442718714341
 20
411.47374152934952
 30
0.0
 40
1.0000000000000291
 50
180.0
 51
230.19442890773689
  0
LINE
  5
5B45
  8
AM_0
 10
149.98442718714341
 20
419.00536658336438
 30
0.0
 11
149.48442718714341
 21
419.50536658336438
 31
0.0
  0
LINE
  5
5B46
  8
AM_0
 10
149.48442718714341
 20
418.50536658336449
 30
0.0
 11
149.98442718714341
 21
419.00536658336438
 31
0.0
  0
LINE
  5
5B47
  8
AM_0
 10
149.98442718714341
 20
418.15867851482312
 30
0.0
 11
149.48442718714341
 21
418.50536658336449
 31
0.0
  0
LINE
  5
5B48
  8
AM_0
 10
156.78442718714331
 20
431.50536658336438
 30
0.0
 11
158.98442718714341
 21
431.50536658336438
 31
0.0
  0
ARC
  5
5B49
  8
AM_0
 10
170.88309828348929
 20
432.00536658336461
 30
0.0
 40
0.5
 50
269.99999999998693
 51
0.0
  0
LINE
  5
5B4A
  8
AM_0
 10
165.8830982834894
 20
428.6053665833644
 30
0.0
 11
162.6607953421402
 21
428.6053665833644
 31
0.0
  0
LINE
  5
5B4B
  8
AM_0
 10
171.3830982834894
 20
420.6492952619576
 30
0.0
 11
171.3830982834894
 21
430.36143790477269
 31
0.0
  0
LINE
  5
5B4C
  8
AM_0
 10
166.3830982834894
 20
420.14929526195772
 30
0.0
 11
170.8830982834894
 21
420.14929526195772
 31
0.0
  0
ARC
  5
5B4D
  8
AM_0
 10
170.88309828348929
 20
420.6492952619576
 30
0.0
 40
0.5
 50
270.0
 51
0.0
  0
LINE
  5
5B4E
  8
AM_0
 10
166.3830982834894
 20
430.86143790477257
 30
0.0
 11
170.8830982834894
 21
430.86143790477257
 31
0.0
  0
LINE
  5
5B4F
  8
AM_0
 10
170.88309828348929
 20
431.50536658336438
 30
0.0
 11
166.8830982834894
 21
431.50536658336438
 31
0.0
  0
ARC
  5
5B50
  8
AM_0
 10
170.88309828348929
 20
430.36143790477269
 30
0.0
 40
0.5
 50
0.0
 51
90.0
  0
ARC
  5
5B51
  8
AM_0
 10
165.88309828348929
 20
429.1053665833644
 30
0.0
 40
0.5
 50
270.0
 51
0.0
  0
ARC
  5
5B52
  8
AM_0
 10
166.88309828348929
 20
431.00536658336449
 30
0.0
 40
0.5
 50
90.0
 51
180.0
  0
ARC
  5
5B53
  8
AM_0
 10
160.1844271871434
 20
425.65053733565628
 30
0.0
 40
0.3000000000000114
 50
0.0
 51
90.0
  0
LINE
  5
5B54
  8
AM_0
 10
158.98442718714341
 20
420.50536658336642
 30
0.0
 11
160.18442718714331
 21
420.50536658336642
 31
0.0
  0
ARC
  5
5B55
  8
AM_0
 10
160.1844271871434
 20
420.20536658336641
 30
0.0
 40
0.2999999999999971
 50
0.0
 51
90.0
  0
LINE
  5
5B56
  8
AM_0
 10
158.98442718714341
 20
424.1782941492234
 30
0.0
 11
160.18442718714331
 21
424.1782941492234
 31
0.0
  0
ARC
  5
5B57
  8
AM_0
 10
160.1844271871434
 20
424.47829414922359
 30
0.0
 40
0.3000000000000007
 50
270.0
 51
0.0
  0
LINE
  5
5B58
  8
AM_0
 10
160.48442718714341
 20
424.47829414922359
 30
0.0
 11
160.48442718714341
 21
425.65053733565628
 31
0.0
  0
LINE
  5
5B59
  8
AM_0
 10
161.9107953421402
 20
429.35536658336451
 30
0.0
 11
162.30636585506431
 21
429.35536658336451
 31
0.0
  0
LINE
  5
5B5A
  8
AM_0
 10
161.9107953421402
 20
429.35536658336451
 30
0.0
 11
162.30636585506431
 21
429.35536658336451
 31
0.0
  0
LINE
  5
5B5B
  8
AM_0
 10
162.40295834960341
 20
429.28124881662802
 30
0.0
 11
162.56420284760119
 21
428.67948435010078
 31
0.0
  0
LINE
  5
5B5C
  8
AM_0
 10
162.40295834960341
 20
429.28124881662802
 30
0.0
 11
162.56420284760119
 21
428.67948435010078
 31
0.0
  0
ARC
  5
5B5D
  8
AM_0
 10
162.6607953421402
 20
428.70536658336448
 30
0.0
 40
0.0999999999999943
 50
195.00019500651561
 51
270.0
  0
ARC
  5
5B5E
  8
AM_0
 10
162.30636585506431
 20
429.25536658336438
 30
0.0
 40
0.0999999999999943
 50
15.000195006505431
 51
90.0
  0
LINE
  5
5B5F
  8
AM_0
 10
160.98358059860229
 20
428.98036658336468
 30
0.0
 11
161.06420284760119
 21
428.67948435010078
 31
0.0
  0
LINE
  5
5B60
  8
AM_0
 10
161.63580893569531
 20
428.64463111646251
 30
0.0
 11
161.81420284760119
 21
429.28124881662802
 31
0.0
  0
LINE
  5
5B61
  8
AM_0
 10
161.65295834960341
 20
428.67948435010078
 30
0.0
 11
161.81420284760119
 21
429.28124881662802
 31
0.0
  0
LINE
  5
5B62
  8
AM_0
 10
160.48442718714341
 20
428.79219956387328
 30
0.0
 11
160.48442718714341
 21
429.44911454752452
 31
0.0
  0
LINE
  5
5B63
  8
AM_0
 10
160.98442718714341
 20
428.97720711492639
 30
0.0
 11
161.06420284760119
 21
428.67948435010078
 31
0.0
  0
LINE
  5
5B64
  8
AM_0
 10
158.98442718714341
 20
428.49219956387361
 30
0.0
 11
160.18442718714331
 21
428.49219956387361
 31
0.0
  0
LINE
  5
5B65
  8
AM_0
 10
160.18442718714331
 20
425.95053733565652
 30
0.0
 11
158.98442718714341
 21
425.95053733565732
 31
0.0
  0
LINE
  5
5B66
  8
AM_0
 10
161.58899812057939
 20
428.6053665833644
 30
0.0
 11
161.63580893569531
 21
428.64463111646251
 31
0.0
  0
LINE
  5
5B67
  8
AM_0
 10
161.1607953421402
 20
428.6053665833644
 30
0.0
 11
161.58899812057939
 21
428.6053665833644
 31
0.0
  0
LINE
  5
5B68
  8
AM_0
 10
161.1607953421402
 20
428.6053665833644
 30
0.0
 11
161.55636585506431
 21
428.6053665833644
 31
0.0
  0
ARC
  5
5B69
  8
AM_0
 10
161.1607953421402
 20
428.70536658336448
 30
0.0
 40
0.0999999999999943
 50
195.00019500651561
 51
270.0
  0
ARC
  5
5B6A
  8
AM_0
 10
161.55636585506431
 20
428.70536658336448
 30
0.0
 40
0.0999999999999608
 50
270.0
 51
344.99980499348419
  0
ARC
  5
5B6B
  8
AM_0
 10
160.1844271871434
 20
428.79219956387328
 30
0.0
 40
0.3000000000000007
 50
270.0
 51
0.0
  0
LINE
  5
5B6C
  8
AM_0
 10
158.98442718714341
 20
430.50536658336461
 30
0.0
 11
160.48442718714341
 21
430.50536658336461
 31
0.0
  0
LINE
  5
5B6D
  8
AM_0
 10
160.18442718714331
 20
429.74911454752453
 30
0.0
 11
158.98442718714341
 21
429.74911454752453
 31
0.0
  0
LINE
  5
5B6E
  8
AM_0
 10
160.20438289030051
 20
430.82403620315449
 30
0.0
 11
158.98442718714341
 21
430.9053665833643
 31
0.0
  0
ARC
  5
5B6F
  8
AM_0
 10
160.48442718714341
 20
430.00536658336472
 30
0.0
 40
0.5
 50
0.0
 51
90.0
  0
ARC
  5
5B70
  8
AM_0
 10
161.9107953421402
 20
429.25536658336438
 30
0.0
 40
0.0999999999999606
 50
90.0
 51
164.99980499349451
  0
ARC
  5
5B71
  8
AM_0
 10
160.1844271871434
 20
429.44911454752452
 30
0.0
 40
0.2999999999999971
 50
0.0
 51
90.0
  0
LINE
  5
5B72
  8
AM_0
 10
160.48442718714341
 20
430.50536658336461
 30
0.0
 11
160.48442718714341
 21
430.52470065579752
 31
0.0
  0
ARC
  5
5B73
  8
AM_0
 10
160.1844271871434
 20
430.52470065579752
 30
0.0
 40
0.3000000000000043
 50
0.0
 51
86.18592516571853
  0
ARC
  5
5B74
  8
AM_0
 10
171.8830982834892
 20
432.50536658336461
 30
0.0
 40
0.5
 50
90.0
 51
180.0
  0
LINE
  5
5B75
  8
AM_0
 10
171.3830982834894
 20
432.50536658336461
 30
0.0
 11
171.3830982834894
 21
432.00536658336461
 31
0.0
  0
LINE
  5
5B76
  8
AM_0
 10
149.98442718714341
 20
429.15867851482341
 30
0.0
 11
156.48442718714341
 21
429.15867851482341
 31
0.0
  0
LINE
  5
5B77
  8
AM_0
 10
149.98442718714341
 20
420.85205465190541
 30
0.0
 11
156.48442718714341
 21
420.85205465190541
 31
0.0
  0
LINE
  5
5B78
  8
AM_0
 10
149.34647712232541
 20
430.50536658336461
 30
0.0
 11
156.18442718714331
 21
430.50536658336461
 31
0.0
  0
LINE
  5
5B79
  8
AM_0
 10
156.48442718714341
 20
420.50536658336461
 30
0.0
 11
149.48442718714341
 21
420.50536658336461
 31
0.0
  0
LINE
  5
5B7A
  8
AM_0
 10
149.98442718714341
 20
420.00536658336461
 30
0.0
 11
156.48442718714341
 21
420.00536658336461
 31
0.0
  0
LINE
  5
5B7B
  8
AM_0
 10
156.48442718714341
 20
430.13864641201241
 30
0.0
 11
149.98442718714341
 21
430.13864641201241
 31
0.0
  0
LINE
  5
5B7C
  8
AM_0
 10
156.48442718714341
 20
429.63864641201241
 30
0.0
 11
149.98442718714341
 21
429.63864641201241
 31
0.0
  0
ARC
  5
5B7D
  8
AM_0
 10
156.1844271871434
 20
430.80536658336462
 30
0.0
 40
0.3000000000000043
 50
270.0
 51
0.0
  0
ARC
  5
5B7E
  8
AM_0
 10
156.78442718714331
 20
431.20536658336442
 30
0.0
 40
0.2999999999999971
 50
90.0
 51
180.0
  0
ARC
  5
5B7F
  8
AM_0
 10
158.10942718714341
 20
425.00536658336461
 30
0.0
 40
9.124999999999984
 50
152.92493329271929
 51
207.07506670728071
  0
LINE
  5
5B80
  8
AM_0
 10
149.48442718714341
 20
420.50536658336461
 30
0.0
 11
149.98442718714341
 21
420.85205465190541
 31
0.0
  0
LINE
  5
5B81
  8
AM_0
 10
149.98442718714341
 20
420.00536658336461
 30
0.0
 11
149.48442718714341
 21
420.50536658336461
 31
0.0
  0
LINE
  5
5B82
  8
AM_0
 10
146.34424278747881
 20
428.30521291697761
 30
0.0
 11
148.70629272266081
 21
430.2735878629619
 31
0.0
  0
LINE
  5
5B83
  8
AM_0
 10
149.98442718714341
 20
430.50536658336461
 30
0.0
 11
149.48442718714341
 21
429.92693399985728
 31
0.0
  0
ARC
  5
5B84
  8
AM_0
 10
149.34647712232521
 20
429.50536658336472
 30
0.0
 40
1.0000000000000411
 50
90.0
 51
129.805571092256
  0
LINE
  5
5B85
  8
AM_0
 10
149.48442718714341
 20
428.92693399985751
 30
0.0
 11
149.98442718714341
 21
429.15867851482341
 31
0.0
  0
LINE
  5
5B86
  8
AM_0
 10
149.98442718714341
 20
429.63864641201241
 30
0.0
 11
149.48442718714341
 21
428.92693399985751
 31
0.0
  0
LINE
  5
5B87
  8
AM_0
 10
149.48442718714341
 20
429.46465872688549
 30
0.0
 11
149.98442718714341
 21
429.63864641201241
 31
0.0
  0
LINE
  5
5B88
  8
AM_0
 10
149.98442718714341
 20
430.13864641201241
 30
0.0
 11
149.48442718714341
 21
429.46465872688549
 31
0.0
  0
LINE
  5
5B89
  8
AM_0
 10
149.48442718714341
 20
429.92693399985728
 30
0.0
 11
149.98442718714341
 21
430.13864641201241
 31
0.0
  0
ARC
  5
5B8A
  8
AM_0
 10
146.98442718714341
 20
427.53699163738031
 30
0.0
 40
1.0
 50
129.80557109226311
 51
180.0
  0
LINE
  5
5B8B
  8
AM_0
 10
271.3830982834894
 20
396.50536658336478
 30
0.0
 11
250.56859338395699
 21
396.50536658336478
 31
0.0
  0
LINE
  5
5B8C
  8
AM_0
 10
196.19760318302181
 20
396.50536658336478
 30
0.0
 11
175.38309828349011
 21
396.50536658336478
 31
0.0
  0
LINE
  5
5B8D
  8
AM_0
 10
265.24731661432838
 20
392.50536658336478
 30
0.0
 11
181.51887995265031
 21
392.50536658336478
 31
0.0
  0
LINE
  5
5B8E
  8
AM_0
 10
184.29045325579639
 20
394.44642907123688
 30
0.0
 11
184.38309828349
 21
395.50536658336489
 31
0.0
  0
LINE
  5
5B8F
  8
AM_0
 10
176.47574331118341
 20
394.44642907123688
 30
0.0
 11
176.38309828349011
 21
395.50536658336489
 31
0.0
  0
ARC
  5
5B90
  8
AM_0
 10
180.38309828349
 20
398.90536658336481
 30
0.0
 40
6.5
 50
241.82726586813479
 51
298.17273413186518
  0
ARC
  5
5B91
  8
AM_0
 10
178.0696548281303
 20
394.5858782596332
 30
0.0
 40
1.6000000000000001
 50
184.99999999999969
 51
241.82726586813479
  0
LINE
  5
5B92
  8
AM_0
 10
182.6830982834899
 20
392.82589292193649
 30
0.0
 11
180.38309828348989
 21
395.11545260073189
 31
0.0
  0
LINE
  5
5B93
  8
AM_0
 10
180.69459828349
 20
394.80536658336479
 30
0.0
 11
180.07159828348981
 21
394.80536658336479
 31
0.0
  0
LINE
  5
5B94
  8
AM_0
 10
178.08309828348999
 20
392.82589292193649
 30
0.0
 11
180.38309828348989
 21
395.11545260073189
 31
0.0
  0
LINE
  5
5B95
  8
AM_0
 10
180.69459828349
 20
392.41283489303032
 30
0.0
 11
180.69459828349
 21
394.80536658336479
 31
0.0
  0
LINE
  5
5B96
  8
AM_0
 10
180.07159828348981
 20
392.41283489303032
 30
0.0
 11
180.07159828348981
 21
394.80536658336479
 31
0.0
  0
ARC
  5
5B97
  8
AM_0
 10
182.69654173884959
 20
394.5858782596332
 30
0.0
 40
1.6000000000000001
 50
298.17273413186518
 51
355.00000000000023
  0
LINE
  5
5B98
  8
AM_0
 10
271.38309828348952
 20
396.50536658336478
 30
0.0
 11
271.38309828348952
 21
400.50536658336472
 31
0.0
  0
LINE
  5
5B99
  8
AM_0
 10
175.38309828348901
 20
400.50536658336472
 30
0.0
 11
175.38309828349011
 21
396.50536658336478
 31
0.0
  0
LINE
  5
5B9A
  8
AM_0N
 10
184.1830982834899
 20
396.50536658336478
 30
0.0
 11
184.1830982834899
 21
395.50536658336489
 31
0.0
  0
LINE
  5
5B9B
  8
AM_0N
 10
180.58309828348999
 20
395.50536658336489
 30
0.0
 11
180.94706851775621
 21
396.50536658336478
 31
0.0
  0
LINE
  5
5B9C
  8
AM_0N
 10
180.18309828349001
 20
395.50536658336489
 30
0.0
 11
180.5470685177562
 21
396.50536658336478
 31
0.0
  0
LINE
  5
5B9D
  8
AM_0N
 10
176.38309828348989
 20
395.50536658336489
 30
0.0
 11
184.38309828349
 21
395.50536658336489
 31
0.0
  0
LINE
  5
5B9E
  8
AM_0N
 10
176.58309828348999
 20
395.50536658336489
 30
0.0
 11
176.58309828348999
 21
396.50536658336478
 31
0.0
  0
LINE
  5
5B9F
  8
AM_0
 10
196.19760318302161
 20
392.50536658336478
 30
0.0
 11
196.19760318302161
 21
396.50536658336478
 31
0.0
  0
LINE
  5
5BA0
  8
AM_0
 10
194.54074893352919
 20
396.50536658336478
 30
0.0
 11
196.19760318302161
 21
392.50536658336478
 31
0.0
  0
LINE
  5
5BA1
  8
AM_0
 10
250.56859338395699
 20
392.50536658336478
 30
0.0
 11
250.56859338395699
 21
396.50536658336478
 31
0.0
  0
LINE
  5
5BA2
  8
AM_0
 10
252.22544763344959
 20
396.50536658336478
 30
0.0
 11
250.56859338395699
 21
392.50536658336478
 31
0.0
  0
LINE
  5
5BA3
  8
AM_0
 10
189.8830982834894
 20
441.50536658336478
 30
0.0
 11
256.8830982834894
 21
441.50536658336478
 31
0.0
  0
LINE
  5
5BA4
  8
AM_0
 10
189.8830982834894
 20
441.50536658336478
 30
0.0
 11
189.8830982834894
 21
439.50536658336472
 31
0.0
  0
LINE
  5
5BA5
  8
AM_0
 10
256.8830982834894
 20
441.50536658336478
 30
0.0
 11
256.8830982834894
 21
439.50536658336472
 31
0.0
  0
LINE
  5
5BA6
  8
ﾁｭｳｼﾝｾﾝ1
 10
266.38309828348872
 20
390.24065908336468
 30
0.0
 11
266.38309828348872
 21
403.24065908336468
 31
0.0
  0
LINE
  5
5BA7
  8
AM_0
 10
262.47574331118238
 20
394.44642907123688
 30
0.0
 11
262.38309828348878
 21
395.50536658336489
 31
0.0
  0
LINE
  5
5BA8
  8
AM_0
 10
270.29045325579528
 20
394.44642907123688
 30
0.0
 11
270.38309828348872
 21
395.50536658336489
 31
0.0
  0
ARC
  5
5BA9
  8
AM_0
 10
266.38309828348901
 20
398.9053665833647
 30
0.0
 40
6.5
 50
241.82726586813479
 51
298.17273413186518
  0
ARC
  5
5BAA
  8
AM_0
 10
268.69654173884868
 20
394.5858782596332
 30
0.0
 40
1.6000000000000001
 50
298.17273413186518
 51
355.00000000000023
  0
LINE
  5
5BAB
  8
AM_0
 10
264.08309828348888
 20
392.82589292193649
 30
0.0
 11
266.38309828348878
 21
395.11545260073189
 31
0.0
  0
LINE
  5
5BAC
  8
AM_0
 10
266.07159828348881
 20
394.80536658336479
 30
0.0
 11
266.69459828348892
 21
394.80536658336479
 31
0.0
  0
LINE
  5
5BAD
  8
AM_0
 10
268.68309828348879
 20
392.82589292193649
 30
0.0
 11
266.38309828348878
 21
395.11545260073189
 31
0.0
  0
LINE
  5
5BAE
  8
AM_0
 10
266.07159828348881
 20
392.41283489303032
 30
0.0
 11
266.07159828348881
 21
394.80536658336479
 31
0.0
  0
LINE
  5
5BAF
  8
AM_0
 10
266.69459828348892
 20
392.41283489303032
 30
0.0
 11
266.69459828348892
 21
394.80536658336479
 31
0.0
  0
ARC
  5
5BB0
  8
AM_0
 10
264.06965482812927
 20
394.5858782596332
 30
0.0
 40
1.6000000000000001
 50
184.99999999999969
 51
241.82726586813479
  0
LINE
  5
5BB1
  8
AM_0N
 10
262.58309828348882
 20
396.50536658336478
 30
0.0
 11
262.58309828348882
 21
395.50536658336489
 31
0.0
  0
LINE
  5
5BB2
  8
AM_0N
 10
266.18309828348879
 20
395.50536658336489
 30
0.0
 11
265.81912804922263
 21
396.50536658336478
 31
0.0
  0
LINE
  5
5BB3
  8
AM_0N
 10
266.58309828348882
 20
395.50536658336489
 30
0.0
 11
266.2191280492226
 21
396.50536658336478
 31
0.0
  0
LINE
  5
5BB4
  8
AM_0N
 10
270.38309828348878
 20
395.50536658336489
 30
0.0
 11
262.38309828348878
 21
395.50536658336489
 31
0.0
  0
LINE
  5
5BB5
  8
AM_0N
 10
270.18309828348879
 20
395.50536658336489
 30
0.0
 11
270.18309828348879
 21
396.50536658336478
 31
0.0
  0
LINE
  5
5BB6
  8
AM_0
 10
174.3830982834894
 20
403.50536658336461
 30
0.0
 11
174.38309828348909
 21
435.50536658336438
 31
0.0
  0
LINE
  5
5BB7
  8
ﾁｭｳｼﾝｾﾝ
 10
146.79966828348961
 20
507.50536658336478
 30
0.0
 11
401.74689828348949
 21
507.50536658336478
 31
0.0
  0
LINE
  5
5BB8
  8
AM_0
 10
374.38309828348952
 20
504.50536658336478
 30
0.0
 11
374.38309828348952
 21
510.50536658336472
 31
0.0
  0
LINE
  5
5BB9
  8
AM_0
 10
372.38307828348991
 20
498.00539658336442
 30
0.0
 11
396.38309828348952
 21
498.00539658336442
 31
0.0
  0
LINE
  5
5BBA
  8
AM_0
 10
372.38307828348968
 20
517.00539658336459
 30
0.0
 11
396.38309828348952
 21
517.0053965833647
 31
0.0
  0
LINE
  5
5BBB
  8
AM_0
 10
396.38309828348952
 20
498.00539658336442
 30
0.0
 11
396.38309828348952
 21
517.0053965833647
 31
0.0
  0
LINE
  5
5BBC
  8
AM_0
 10
374.38309828348952
 20
504.50536658336478
 30
0.0
 11
396.38309828348952
 21
504.50536658336478
 31
0.0
  0
LINE
  5
5BBD
  8
AM_0
 10
374.38309828348952
 20
510.50536658336472
 30
0.0
 11
396.38309828348952
 21
510.50536658336472
 31
0.0
  0
LINE
  5
5BF9
  8
AM_0
 10
282.38309828348952
 20
451.00536658336461
 30
0.0
 11
282.38309828348952
 21
564.00539658336447
 31
0.0
  0
LINE
  5
5C02
  8
AM_0
 10
272.58884828348948
 20
552.4342565833648
 30
0.0
 11
268.44312828348961
 21
567.91536658336463
 31
0.0
  0
LINE
  5
5C03
  8
AM_0
 10
272.58881828348962
 20
551.52425658336483
 30
0.0
 11
268.44309828348952
 21
567.00536658336466
 31
0.0
  0
LINE
  5
5C04
  8
AM_0
 10
272.58881828348962
 20
549.67427658336487
 30
0.0
 11
268.44309828348952
 21
565.15541658336474
 31
0.0
  0
LINE
  5
5C05
  8
AM_0
 10
274.38309828348952
 20
563.50536658336443
 30
0.0
 11
274.38309828348952
 21
451.50536658336449
 31
0.0
  0
LINE
  5
5C06
  8
AM_0
 10
152.38309828348969
 20
555.52538658336459
 30
0.0
 11
152.38309828348969
 21
512.50536658336478
 31
0.0
  0
LINE
  5
5C07
  8
AM_0
 10
154.65311828348939
 20
557.25536658336455
 30
0.0
 11
156.88309828348949
 21
557.25536658336455
 31
0.0
  0
LINE
  5
5C08
  8
AM_0
 10
154.58310828348931
 20
543.19530658336475
 30
0.0
 11
156.6830882834895
 21
543.19530658336475
 31
0.0
  0
LINE
  5
5C09
  8
AM_0
 10
154.15311828348939
 20
557.12532658336465
 30
0.0
 11
152.88315828348959
 21
556.38533658336473
 31
0.0
  0
LINE
  5
5C0A
  8
AM_0
 10
154.14304828348941
 20
555.00542658336474
 30
0.0
 11
152.86307828348961
 21
554.23540658336481
 31
0.0
  0
LINE
  5
5C0B
  8
AM_0
 10
154.13303828348961
 20
550.46538658336465
 30
0.0
 11
152.8330482834894
 21
549.6154065833648
 31
0.0
  0
LINE
  5
5C0C
  8
AM_0
 10
154.19309828348941
 20
543.11537658336476
 30
0.0
 11
152.99314828348969
 21
542.6053665833648
 31
0.0
  0
LINE
  5
5C0D
  8
AM_0
 10
154.66312828348961
 20
555.14537658336485
 30
0.0
 11
157.38309828348969
 21
555.14537658336485
 31
0.0
  0
LINE
  5
5C0E
  8
AM_0
 10
154.6831482834894
 20
550.63536658336443
 30
0.0
 11
157.38309828348969
 21
550.63536658336443
 31
0.0
  0
LINE
  5
5C0F
  8
AM_0
 10
154.5331282834895
 20
541.24535658336481
 30
0.0
 11
156.38309828348969
 21
541.24535658336481
 31
0.0
  0
LINE
  5
5C10
  8
AM_0
 10
154.65311828348939
 20
549.49535658336481
 30
0.0
 11
156.38309828348969
 21
549.49535658336481
 31
0.0
  0
LINE
  5
5C11
  8
AM_0
 10
154.63309828348949
 20
554.00536658336478
 30
0.0
 11
156.38309828348969
 21
554.00536658336478
 31
0.0
  0
LINE
  5
5C12
  8
AM_0
 10
154.62308828348981
 20
556.10533658336476
 30
0.0
 11
156.88309828348949
 21
556.10533658336476
 31
0.0
  0
LINE
  5
5C13
  8
AM_0
 10
154.1530582834898
 20
549.35539658336484
 30
0.0
 11
152.87308828348969
 21
548.60539658336461
 31
0.0
  0
LINE
  5
5C14
  8
AM_0
 10
154.24308828348961
 20
541.20540658336472
 30
0.0
 11
153.0931182834897
 21
540.85539658336484
 31
0.0
  0
LINE
  5
5C15
  8
AM_0
 10
154.1730782834895
 20
556.00536658336455
 30
0.0
 11
152.9330882834897
 21
555.37535658336458
 31
0.0
  0
LINE
  5
5C16
  8
AM_0
 10
154.16312828348961
 20
553.89540658336477
 30
0.0
 11
152.91312828348961
 21
553.22539658336473
 31
0.0
  0
LINE
  5
5C17
  8
AM_0
 10
156.38309828348969
 20
533.50536658336478
 30
0.0
 11
153.38309828348969
 21
533.50536658336478
 31
0.0
  0
LINE
  5
5C18
  8
AM_0
 10
156.38309828348969
 20
531.50536658336455
 30
0.0
 11
153.38309828348969
 21
531.50536658336455
 31
0.0
  0
LINE
  5
5C19
  8
AM_0
 10
156.38309828348969
 20
523.50536658336455
 30
0.0
 11
153.38309828348969
 21
523.50536658336455
 31
0.0
  0
LINE
  5
5C1A
  8
AM_0
 10
156.38309828348969
 20
521.50536658336466
 30
0.0
 11
153.38309828348969
 21
521.50536658336466
 31
0.0
  0
LINE
  5
5C1B
  8
AM_0
 10
156.38309828348969
 20
513.50536658336455
 30
0.0
 11
153.38309828348969
 21
513.50536658336455
 31
0.0
  0
LINE
  5
5C1C
  8
AM_0
 10
156.38309828348969
 20
511.50536658336478
 30
0.0
 11
153.38309828348969
 21
511.50536658336478
 31
0.0
  0
LINE
  5
5C1D
  8
AM_0
 10
154.38309828348969
 20
523.11534658336473
 30
0.0
 11
154.38309828348969
 21
521.9053865833647
 31
0.0
  0
LINE
  5
5C1E
  8
AM_0
 10
154.38309828348969
 20
513.11534658336473
 30
0.0
 11
154.38309828348969
 21
511.95531658336472
 31
0.0
  0
LINE
  5
5C1F
  8
AM_0
 10
154.38309828348969
 20
533.13536658336443
 30
0.0
 11
154.38309828348969
 21
531.76537658336474
 31
0.0
  0
LINE
  5
5C20
  8
AM_0
 10
154.38309828348969
 20
542.89537658336474
 30
0.0
 11
154.38309828348969
 21
541.83531658336472
 31
0.0
  0
LINE
  5
5C21
  8
AM_0
 10
154.38309828348969
 20
550.3353165833646
 30
0.0
 11
154.38309828348969
 21
549.86534658336473
 31
0.0
  0
LINE
  5
5C22
  8
AM_0
 10
154.38309828348969
 20
554.90538658336482
 30
0.0
 11
154.38309828348969
 21
554.35533658336465
 31
0.0
  0
LINE
  5
5C23
  8
AM_0
 10
154.38309828348969
 20
557.00536658336455
 30
0.0
 11
154.38309828348969
 21
556.47533658336465
 31
0.0
  0
LINE
  5
5C24
  8
AM_0
 10
150.88309828348969
 20
527.50536658336455
 30
0.0
 11
150.88309828348969
 21
507.50536658336478
 31
0.0
  0
LINE
  5
5C25
  8
AM_0
 10
150.88309828348969
 20
527.50533658336485
 30
0.0
 11
152.38309828348969
 21
527.63533658336473
 31
0.0
  0
LINE
  5
5C26
  8
AM_0
 10
150.88309828348969
 20
522.6553865833647
 30
0.0
 11
152.38309828348969
 21
522.6553865833647
 31
0.0
  0
LINE
  5
5C27
  8
AM_0
 10
150.88309828348969
 20
524.78539658336456
 30
0.0
 11
152.38309828348969
 21
524.78539658336456
 31
0.0
  0
LINE
  5
5C28
  8
AM_0
 10
267.72312828348947
 20
543.50536658336455
 30
0.0
 11
168.74308828348961
 21
543.50536658336455
 31
0.0
  0
LINE
  5
5C29
  8
AM_0
 10
267.72312828348947
 20
541.50536658336478
 30
0.0
 11
168.74308828348961
 21
541.50536658336478
 31
0.0
  0
LINE
  5
5C2A
  8
AM_0
 10
235.38309828348969
 20
533.50536658336478
 30
0.0
 11
168.74308828348961
 21
533.50536658336478
 31
0.0
  0
LINE
  5
5C2B
  8
AM_0
 10
267.71592828348969
 20
531.50536658336455
 30
0.0
 11
168.74308828348961
 21
531.50536658336455
 31
0.0
  0
LINE
  5
5C2C
  8
AM_0
 10
202.82181828348951
 20
523.50536658336455
 30
0.0
 11
168.74308828348961
 21
523.50536658336455
 31
0.0
  0
LINE
  5
5C2D
  8
AM_0
 10
202.82181828348951
 20
521.50536658336466
 30
0.0
 11
168.74308828348961
 21
521.50536658336466
 31
0.0
  0
LINE
  5
5C2E
  8
AM_0
 10
202.82181828348951
 20
513.50536658336455
 30
0.0
 11
168.74308828348961
 21
513.50536658336455
 31
0.0
  0
LINE
  5
5C2F
  8
AM_0
 10
202.82181828348951
 20
511.50536658336478
 30
0.0
 11
168.74308828348961
 21
511.50536658336478
 31
0.0
  0
LINE
  5
5C30
  8
AM_0
 10
168.0630882834898
 20
544.22533658336465
 30
0.0
 11
271.20310828348943
 21
544.22533658336465
 31
0.0
  0
LINE
  5
5C31
  8
AM_0
 10
168.0630882834898
 20
540.87535658336481
 30
0.0
 11
235.4031182834897
 21
540.87535658336481
 31
0.0
  0
LINE
  5
5C32
  8
AM_0
 10
167.8431182834895
 20
533.99535658336458
 30
0.0
 11
235.38309828348969
 21
533.99535658336458
 31
0.0
  0
LINE
  5
5C33
  8
AM_0
 10
167.8431182834895
 20
531.06541658336448
 30
0.0
 11
271.41733828348958
 21
531.06541658336448
 31
0.0
  0
LINE
  5
5C34
  8
AM_0
 10
167.71311828348959
 20
523.84532658336479
 30
0.0
 11
204.04178828348969
 21
523.84532658336479
 31
0.0
  0
LINE
  5
5C35
  8
AM_0
 10
167.71311828348959
 20
521.18541658336471
 30
0.0
 11
204.04178828348969
 21
521.18541658336471
 31
0.0
  0
LINE
  5
5C36
  8
AM_0
 10
167.65311828348939
 20
513.77538658336471
 30
0.0
 11
204.10178828348961
 21
513.77538658336471
 31
0.0
  0
LINE
  5
5C37
  8
AM_0
 10
167.65311828348939
 20
511.24535658336458
 30
0.0
 11
204.10178828348961
 21
511.24535658336458
 31
0.0
  0
LINE
  5
5C38
  8
AM_0
 10
167.65311828348939
 20
503.77538658336448
 30
0.0
 11
204.10178828348961
 21
503.77538658336448
 31
0.0
  0
LINE
  5
5C39
  8
AM_0
 10
202.82181828348951
 20
503.50536658336478
 30
0.0
 11
168.74308828348961
 21
503.50536658336478
 31
0.0
  0
LINE
  5
5C3A
  8
AM_0
 10
202.82181828348951
 20
501.50536658336461
 30
0.0
 11
168.74308828348961
 21
501.50536658336461
 31
0.0
  0
LINE
  5
5C3B
  8
AM_0
 10
167.65311828348939
 20
501.23534658336479
 30
0.0
 11
204.10178828348961
 21
501.23534658336479
 31
0.0
  0
LINE
  5
5C3C
  8
AM_0
 10
167.71311828348959
 20
493.82530658336481
 30
0.0
 11
204.04178828348969
 21
493.82530658336481
 31
0.0
  0
LINE
  5
5C3D
  8
AM_0
 10
202.82181828348951
 20
493.50536658336472
 30
0.0
 11
168.74308828348961
 21
493.50536658336472
 31
0.0
  0
LINE
  5
5C3E
  8
AM_0
 10
202.82181828348951
 20
491.50536658336478
 30
0.0
 11
168.74308828348961
 21
491.50536658336478
 31
0.0
  0
LINE
  5
5C3F
  8
AM_0
 10
167.71311828348959
 20
491.16539658336472
 30
0.0
 11
204.05436828348951
 21
491.16539658336472
 31
0.0
  0
LINE
  5
5C40
  8
AM_0
 10
267.71592828348969
 20
483.50536658336478
 30
0.0
 11
168.74308828348961
 21
483.50536658336478
 31
0.0
  0
LINE
  5
5C41
  8
AM_0
 10
167.8431182834895
 20
483.94530658336453
 30
0.0
 11
271.41733828348958
 21
483.94530658336453
 31
0.0
  0
LINE
  5
5C42
  8
AM_0
 10
235.38309828348969
 20
481.50536658336472
 30
0.0
 11
168.74308828348961
 21
481.50536658336472
 31
0.0
  0
LINE
  5
5C43
  8
AM_0
 10
167.8431182834895
 20
481.01537658336468
 30
0.0
 11
235.38309828348969
 21
481.01537658336468
 31
0.0
  0
LINE
  5
5C44
  8
AM_0
 10
267.72312828348947
 20
473.50536658336461
 30
0.0
 11
223.38309828348949
 21
473.50536658336461
 31
0.0
  0
LINE
  5
5C45
  8
AM_0
 10
267.72312828348947
 20
471.50536658336472
 30
0.0
 11
223.38309828348949
 21
471.50536658336472
 31
0.0
  0
LINE
  5
5C46
  8
AM_0
 10
168.0630882834898
 20
470.78539658336462
 30
0.0
 11
223.38309828348949
 21
470.78539658336462
 31
0.0
  0
LINE
  5
5C47
  8
AM_0
 10
271.20310828348943
 20
474.13536658336471
 30
0.0
 11
253.36313828348949
 21
474.13536658336471
 31
0.0
  0
LINE
  5
5C48
  8
AM_0
 10
154.58310828348931
 20
471.81541658336471
 30
0.0
 11
156.6830882834895
 21
471.81541658336471
 31
0.0
  0
LINE
  5
5C49
  8
AM_0
 10
154.19315828348931
 20
471.89540658336472
 30
0.0
 11
152.99314828348969
 21
472.41542658336471
 31
0.0
  0
LINE
  5
5C4A
  8
AM_0
 10
154.5331282834895
 20
473.76537658336463
 30
0.0
 11
156.38309828348969
 21
473.76537658336463
 31
0.0
  0
LINE
  5
5C4B
  8
AM_0
 10
154.24308828348961
 20
473.80534658336472
 30
0.0
 11
153.0931182834897
 21
474.1653665833648
 31
0.0
  0
LINE
  5
5C4C
  8
AM_0
 10
156.38309828348969
 20
481.50536658336472
 30
0.0
 11
153.38309828348969
 21
481.50536658336472
 31
0.0
  0
LINE
  5
5C4D
  8
AM_0
 10
156.38309828348969
 20
483.50536658336478
 30
0.0
 11
153.38309828348969
 21
483.50536658336478
 31
0.0
  0
LINE
  5
5C4E
  8
AM_0
 10
156.38309828348969
 20
491.50536658336478
 30
0.0
 11
153.38309828348969
 21
491.50536658336478
 31
0.0
  0
LINE
  5
5C4F
  8
AM_0
 10
156.38309828348969
 20
493.50536658336472
 30
0.0
 11
153.38309828348969
 21
493.50536658336472
 31
0.0
  0
LINE
  5
5C50
  8
AM_0
 10
156.38309828348969
 20
501.50536658336461
 30
0.0
 11
153.38309828348969
 21
501.50536658336461
 31
0.0
  0
LINE
  5
5C51
  8
AM_0
 10
156.38309828348969
 20
503.50536658336478
 30
0.0
 11
153.38309828348969
 21
503.50536658336478
 31
0.0
  0
LINE
  5
5C52
  8
AM_0
 10
154.38309828348969
 20
491.89537658336479
 30
0.0
 11
154.38309828348969
 21
493.11534658336473
 31
0.0
  0
LINE
  5
5C53
  8
AM_0
 10
154.38309828348969
 20
501.89537658336468
 30
0.0
 11
154.38309828348969
 21
503.0554065833648
 31
0.0
  0
LINE
  5
5C54
  8
AM_0
 10
154.38309828348969
 20
481.87535658336481
 30
0.0
 11
154.38309828348969
 21
483.24535658336481
 31
0.0
  0
LINE
  5
5C55
  8
AM_0
 10
154.38309828348969
 20
472.11534658336461
 30
0.0
 11
154.38309828348969
 21
473.1754065833648
 31
0.0
  0
LINE
  5
5C56
  8
AM_0
 10
150.88309828348969
 20
487.50536658336478
 30
0.0
 11
150.88309828348969
 21
507.50536658336478
 31
0.0
  0
LINE
  5
5C57
  8
AM_0
 10
150.88309828348969
 20
487.50533658336491
 30
0.0
 11
152.38309828348969
 21
487.37532658336482
 31
0.0
  0
LINE
  5
5C58
  8
AM_0
 10
150.88309828348969
 20
492.35533658336459
 30
0.0
 11
152.38309828348969
 21
492.35533658336459
 31
0.0
  0
LINE
  5
5C59
  8
AM_0
 10
150.88309828348969
 20
490.22533658336448
 30
0.0
 11
152.38309828348969
 21
490.22533658336448
 31
0.0
  0
LINE
  5
5C5A
  8
AM_0
 10
168.0630882834898
 20
474.13536658336471
 30
0.0
 11
235.4031182834897
 21
474.13536658336471
 31
0.0
  0
LINE
  5
5C5B
  8
AM_0
 10
223.38309828348949
 20
473.50536658336461
 30
0.0
 11
168.74308828348961
 21
473.50536658336461
 31
0.0
  0
LINE
  5
5C5C
  8
AM_0
 10
223.38309828348949
 20
471.50536658336472
 30
0.0
 11
168.74308828348961
 21
471.50536658336472
 31
0.0
  0
LINE
  5
5C5D
  8
AM_0
 10
223.38309828348949
 20
470.78539658336462
 30
0.0
 11
271.20310828348943
 21
470.78539658336462
 31
0.0
  0
LINE
  5
5C5E
  8
AM_0
 10
158.38309828348969
 20
560.50536658336455
 30
0.0
 11
158.38309828348969
 21
454.50536658336478
 31
0.0
  0
LINE
  5
5C5F
  8
AM_0
 10
166.38309828348949
 20
560.50536658336455
 30
0.0
 11
166.38309828348949
 21
454.50536658336478
 31
0.0
  0
LINE
  5
5C60
  8
AM_0
 10
152.87308828348969
 20
466.40535658336461
 30
0.0
 11
152.85306828348959
 21
466.41533658336471
 31
0.0
  0
LINE
  5
5C61
  8
AM_0
 10
157.38309828348969
 20
557.50536658336478
 30
0.0
 11
157.38309828348969
 21
457.50536658336461
 31
0.0
  0
LINE
  5
5C62
  8
AM_0
 10
157.38309828348969
 20
557.50536658336478
 30
0.0
 11
158.38309828348969
 21
557.50536658336478
 31
0.0
  0
LINE
  5
5C63
  8
AM_0
 10
158.38309828348969
 20
560.50536658336455
 30
0.0
 11
166.38309828348949
 21
560.50536658336455
 31
0.0
  0
LINE
  5
5C64
  8
AM_0
 10
159.08310828348931
 20
550.69530658336475
 30
0.0
 11
165.3130882834898
 21
550.69530658336475
 31
0.0
  0
LINE
  5
5C65
  8
AM_0
 10
274.38309828348952
 20
553.50536658336478
 30
0.0
 11
282.38309828348952
 21
553.50536658336478
 31
0.0
  0
LINE
  5
5C66
  8
AM_0
 10
274.38309828348952
 20
539.44530658336475
 30
0.0
 11
282.38309828348952
 21
539.44530658336475
 31
0.0
  0
LINE
  5
5C67
  8
AM_0
 10
274.38309828348952
 20
563.50536658336443
 30
0.0
 11
282.38309828348952
 21
563.50536658336443
 31
0.0
  0
LINE
  5
5C68
  8
AM_0
 10
169.5931182834895
 20
563.7853965833649
 30
0.0
 11
266.51310828348937
 21
563.7853965833649
 31
0.0
  0
LINE
  5
5C69
  8
AM_0
 10
166.38309828348949
 20
555.60542658336476
 30
0.0
 11
167.62308828348941
 21
562.16542658336471
 31
0.0
  0
LINE
  5
5C6A
  8
AM_0
 10
171.74314828348949
 20
544.1553865833647
 30
0.0
 11
166.38315828348959
 21
555.60536658336468
 31
0.0
  0
LINE
  5
5C6B
  8
AM_0
 10
171.74308828348961
 20
470.8553365833647
 30
0.0
 11
166.38315828348959
 21
459.41542658336471
 31
0.0
  0
LINE
  5
5C6C
  8
AM_0
 10
169.63309828348949
 20
566.63536658336443
 30
0.0
 11
266.51310828348937
 21
566.63536658336443
 31
0.0
  0
LINE
  5
5C6D
  8
AM_0
 10
169.65311828348939
 20
568.48534658336473
 30
0.0
 11
266.51310828348937
 21
568.48534658336473
 31
0.0
  0
LINE
  5
5C6E
  8
AM_0
 10
169.67313828348941
 20
569.39537658336485
 30
0.0
 11
266.51316828348962
 21
569.39537658336485
 31
0.0
  0
LINE
  5
5C6F
  8
AM_0
 10
166.38315828348959
 20
556.94539658336475
 30
0.0
 11
167.66312828348961
 21
564.95534658336487
 31
0.0
  0
LINE
  5
5C70
  8
AM_0
 10
166.38315828348959
 20
558.29533658336436
 30
0.0
 11
167.67313828348941
 21
566.78542658336448
 31
0.0
  0
LINE
  5
5C71
  8
AM_0
 10
166.38309828348949
 20
558.29536658336474
 30
0.0
 11
167.69309828348941
 21
567.67540658336475
 31
0.0
  0
LINE
  5
5C72
  8
AM_0
 10
272.58316828348973
 20
546.84532658336445
 30
0.0
 11
268.44315828348948
 21
562.30534658336455
 31
0.0
  0
LINE
  5
5C73
  8
AM_0
 10
268.92313828348961
 20
560.50536658336455
 30
0.0
 11
274.38309828348952
 21
560.50536658336455
 31
0.0
  0
LINE
  5
5C74
  8
AM_0
 10
152.38309828348969
 20
459.48534658336467
 30
0.0
 11
152.38309828348969
 21
502.50536658336472
 31
0.0
  0
LINE
  5
5C75
  8
AM_0
 10
154.65311828348939
 20
457.75536658336449
 30
0.0
 11
156.88309828348949
 21
457.75536658336449
 31
0.0
  0
LINE
  5
5C76
  8
AM_0
 10
154.15311828348939
 20
457.89537658336462
 30
0.0
 11
152.88315828348959
 21
458.62535658336481
 31
0.0
  0
LINE
  5
5C77
  8
AM_0
 10
154.1431682834895
 20
460.00536658336449
 30
0.0
 11
152.8631382834896
 21
460.77538658336471
 31
0.0
  0
LINE
  5
5C78
  8
AM_0
 10
154.13303828348961
 20
464.54533658336442
 30
0.0
 11
152.8330482834894
 21
465.39534658336441
 31
0.0
  0
LINE
  5
5C79
  8
AM_0
 10
154.66312828348961
 20
459.8653465833645
 30
0.0
 11
157.38309828348969
 21
459.8653465833645
 31
0.0
  0
LINE
  5
5C7A
  8
AM_0
 10
154.6831482834894
 20
464.3853665833646
 30
0.0
 11
157.38309828348969
 21
464.3853665833646
 31
0.0
  0
LINE
  5
5C7B
  8
AM_0
 10
154.65311828348939
 20
465.52538658336471
 30
0.0
 11
156.38309828348969
 21
465.52538658336471
 31
0.0
  0
LINE
  5
5C7C
  8
AM_0
 10
154.63309828348949
 20
461.00536658336438
 30
0.0
 11
156.38309828348969
 21
461.00536658336438
 31
0.0
  0
LINE
  5
5C7D
  8
AM_0
 10
154.62308828348981
 20
458.9053865833647
 30
0.0
 11
156.88309828348949
 21
458.9053865833647
 31
0.0
  0
LINE
  5
5C7E
  8
AM_0
 10
154.15311828348939
 20
465.6554165833648
 30
0.0
 11
152.8731482834896
 21
466.4053865833647
 31
0.0
  0
LINE
  5
5C7F
  8
AM_0
 10
154.1730782834895
 20
459.0153465833647
 30
0.0
 11
152.9330882834897
 21
459.64534658336441
 31
0.0
  0
LINE
  5
5C80
  8
AM_0
 10
154.16312828348961
 20
461.12535658336469
 30
0.0
 11
152.91312828348961
 21
461.78535658336472
 31
0.0
  0
LINE
  5
5C81
  8
AM_0
 10
154.38309828348969
 20
464.6754065833648
 30
0.0
 11
154.38309828348969
 21
465.14537658336479
 31
0.0
  0
LINE
  5
5C82
  8
AM_0
 10
154.38309828348969
 20
460.1053365833647
 30
0.0
 11
154.38309828348969
 21
460.6553865833647
 31
0.0
  0
LINE
  5
5C83
  8
AM_0
 10
154.38309828348969
 20
458.00536658336461
 30
0.0
 11
154.38309828348969
 21
458.53539658336479
 31
0.0
  0
LINE
  5
5C84
  8
AM_0
 10
157.38309828348969
 20
457.50536658336461
 30
0.0
 11
158.38309828348969
 21
457.50536658336461
 31
0.0
  0
LINE
  5
5C85
  8
AM_0
 10
158.38309828348969
 20
454.50536658336478
 30
0.0
 11
166.38309828348949
 21
454.50536658336478
 31
0.0
  0
LINE
  5
5C86
  8
AM_0
 10
159.08310828348931
 20
464.31541658336471
 30
0.0
 11
165.3130882834898
 21
464.31541658336471
 31
0.0
  0
LINE
  5
5C87
  8
AM_0
 10
274.38309828348952
 20
461.50536658336461
 30
0.0
 11
282.38309828348952
 21
461.50536658336461
 31
0.0
  0
LINE
  5
5C88
  8
AM_0
 10
274.38309828348952
 20
451.50536658336449
 30
0.0
 11
282.38309828348952
 21
451.50536658336449
 31
0.0
  0
LINE
  5
5C89
  8
AM_0
 10
169.5931182834895
 20
451.22533658336471
 30
0.0
 11
266.51310828348937
 21
451.22533658336471
 31
0.0
  0
LINE
  5
5C8A
  8
AM_0
 10
166.38309828348949
 20
459.41533658336471
 30
0.0
 11
167.6231482834896
 21
452.8553365833647
 31
0.0
  0
LINE
  5
5C8B
  8
AM_0
 10
169.28934828348949
 20
448.37535658336481
 30
0.0
 11
191.7812282834895
 21
448.37535658336481
 31
0.0
  0
LINE
  5
5C8C
  8
AM_0
 10
166.38309828348949
 20
458.06532658336471
 30
0.0
 11
167.66312828348961
 21
450.06541658336471
 31
0.0
  0
LINE
  5
5C8D
  8
AM_0
 10
166.38309828348949
 20
456.72542658336448
 30
0.0
 11
167.39237828348951
 21
450.07524658336462
 31
0.0
  0
LINE
  5
5C8E
  8
AM_0
 10
166.38315828348959
 20
456.72539658336473
 30
0.0
 11
167.3085782834896
 21
450.09880658336471
 31
0.0
  0
LINE
  5
5C8F
  8
AM_0
 10
272.58881828348962
 20
468.18651658336461
 30
0.0
 11
268.44309828348952
 21
452.7053765833648
 31
0.0
  0
LINE
  5
5C90
  8
AM_0
 10
268.92514828348948
 20
454.50536658336478
 30
0.0
 11
274.38309828348952
 21
454.50536658336478
 31
0.0
  0
LINE
  5
5C91
  8
AM_0
 10
274.38309828348952
 20
475.56541658336471
 30
0.0
 11
282.38309828348952
 21
475.56541658336471
 31
0.0
  0
LINE
  5
5C92
  8
AM_0
 10
273.38309828348952
 20
454.50536658336478
 30
0.0
 11
267.65735828348937
 21
445.6884665833648
 31
0.0
  0
LINE
  5
5C93
  8
AM_0
 10
254.8967082834896
 20
445.00536658336461
 30
0.0
 11
266.39933828348961
 21
445.00536658336461
 31
0.0
  0
LINE
  5
5C94
  8
AM_0
 10
252.3631382834896
 20
535.00536658336455
 30
0.0
 11
252.3631382834896
 21
539.86534658336473
 31
0.0
  0
LINE
  5
5C95
  8
AM_0
 10
236.40311828348959
 20
535.00536658336455
 30
0.0
 11
236.40311828348959
 21
539.86534658336473
 31
0.0
  0
LINE
  5
5C96
  8
AM_0
 10
251.88309828348969
 20
535.00536658336455
 30
0.0
 11
251.88309828348969
 21
540.00536658336455
 31
0.0
  0
LINE
  5
5C97
  8
AM_0
 10
236.88309828348949
 20
535.00536658336455
 30
0.0
 11
236.88309828348949
 21
540.00536658336455
 31
0.0
  0
LINE
  5
5C98
  8
AM_0
 10
208.3830982834896
 20
520.50536658336478
 30
0.0
 11
271.38309828348952
 21
520.50536658336478
 31
0.0
  0
LINE
  5
5C99
  8
AM_0
 10
208.3830982834896
 20
487.00536658336478
 30
0.0
 11
271.38309828348952
 21
487.00536658336478
 31
0.0
  0
LINE
  5
5C9A
  8
AM_0
 10
208.3830982834896
 20
528.00536658336455
 30
0.0
 11
271.38309828348952
 21
528.00536658336455
 31
0.0
  0
LINE
  5
5C9B
  8
AM_0
 10
271.38309828348952
 20
528.00536658336455
 30
0.0
 11
271.38309828348952
 21
487.00536658336478
 31
0.0
  0
LINE
  5
5C9C
  8
AM_0
 10
208.3830982834896
 20
528.00536658336455
 30
0.0
 11
208.3830982834896
 21
487.00536658336478
 31
0.0
  0
LINE
  5
5C9D
  8
AM_0
 10
253.38309828348949
 20
533.99535658336458
 30
0.0
 11
271.42881828348948
 21
533.99535658336458
 31
0.0
  0
LINE
  5
5C9E
  8
AM_0
 10
253.38309828348949
 20
481.02538658336448
 30
0.0
 11
271.41733828348958
 21
481.02538658336448
 31
0.0
  0
LINE
  5
5C9F
  8
AM_0
 10
252.3631382834896
 20
480.00536658336472
 30
0.0
 11
252.3631382834896
 21
475.14537658336468
 31
0.0
  0
LINE
  5
5CA0
  8
AM_0
 10
236.40311828348959
 20
480.00536658336472
 30
0.0
 11
236.40311828348959
 21
475.14537658336468
 31
0.0
  0
LINE
  5
5CA1
  8
AM_0
 10
251.88309828348969
 20
480.00536658336472
 30
0.0
 11
251.88309828348969
 21
475.00536658336478
 31
0.0
  0
LINE
  5
5CA2
  8
AM_0
 10
236.88309828348949
 20
480.00536658336472
 30
0.0
 11
236.88309828348949
 21
475.00536658336478
 31
0.0
  0
LINE
  5
5CA3
  8
AM_0
 10
267.71592828348969
 20
481.50536658336472
 30
0.0
 11
253.38309828348949
 21
481.50536658336472
 31
0.0
  0
LINE
  5
5CA4
  8
AM_0
 10
267.73026828348981
 20
533.50536658336478
 30
0.0
 11
253.38309828348949
 21
533.50536658336478
 31
0.0
  0
LINE
  5
5CA5
  8
AM_0
 10
253.36313828348949
 20
540.86534658336473
 30
0.0
 11
271.20310828348943
 21
540.86534658336473
 31
0.0
  0
ARC
  5
5CA8
  8
AM_0
 10
374.38309828348952
 20
507.50536658336478
 30
0.0
 40
3.0
 50
89.986014000002498
 51
131.81082736685451
  0
ARC
  5
5CA9
  8
AM_0
 10
374.38309828348952
 20
507.50536658336478
 30
0.0
 40
3.0
 50
228.18917263315251
 51
270.01399000000328
  0
ARC
  5
5CE3
  8
AM_0
 10
274.03629828348937
 20
552.83812658336467
 30
0.0
 40
1.502775999999999
 50
194.75642999999971
 51
269.87757999999872
  0
ARC
  5
5CE4
  8
AM_0
 10
274.03629828348937
 20
551.92809658336466
 30
0.0
 40
1.502775999999999
 50
194.75642999999971
 51
269.87757999999872
  0
ARC
  5
5CE5
  8
AM_0
 10
274.03629828348937
 20
550.07811658336482
 30
0.0
 40
1.502775999999999
 50
194.75642999999971
 51
269.87757999999872
  0
ARC
  5
5CE6
  8
AM_0
 10
266.50827828348969
 20
567.39061658336448
 30
0.0
 40
2.0047290000000002
 50
15.173495999999471
 51
89.861678000000197
  0
ARC
  5
5CE7
  8
AM_0
 10
266.50827828348969
 20
566.48058658336447
 30
0.0
 40
2.0047290000000002
 50
15.173495999999471
 51
89.861678000000197
  0
ARC
  5
5CE8
  8
AM_0
 10
266.50827828348969
 20
564.63060658336474
 30
0.0
 40
2.0047290000000002
 50
15.173495999999471
 51
89.861678000000197
  0
ARC
  5
5CE9
  8
AM_0
 10
274.03629828348937
 20
467.7825865833646
 30
0.0
 40
1.502775999999999
 50
90.122413000001615
 51
165.2435700000002
  0
ARC
  5
5CEA
  8
AM_0
 10
153.3763282834895
 20
555.52330658336473
 30
0.0
 40
0.99319202
 50
119.77338000000449
 51
179.87959000000129
  0
ARC
  5
5CEB
  8
AM_0
 10
153.37870828348969
 20
554.48509658336479
 30
0.0
 40
0.995579
 50
116.5870899999978
 51
179.98263999999989
  0
ARC
  5
5CEC
  8
AM_0
 10
154.64512828348961
 20
556.25951658336476
 30
0.0
 40
0.9959030199999999
 50
89.541266999999124
 51
119.6071699999965
  0
ARC
  5
5CED
  8
AM_0
 10
154.6078882834895
 20
555.11131658336467
 30
0.0
 40
0.99411702
 50
89.122643999998516
 51
115.9349799999958
  0
ARC
  5
5CEE
  8
AM_0
 10
154.65195828348939
 20
554.1511165833648
 30
0.0
 40
0.99427301
 50
89.356065999996758
 51
120.78090999999731
  0
ARC
  5
5CEF
  8
AM_0
 10
154.61820828348959
 20
553.0099965833648
 30
0.0
 40
0.99545902
 50
89.141290999999924
 51
117.2038199999995
  0
ARC
  5
5CF0
  8
AM_0
 10
154.6897382834895
 20
549.63914658336478
 30
0.0
 40
0.99617702
 50
90.381317999995943
 51
123.9704900000018
  0
ARC
  5
5CF1
  8
AM_0
 10
154.66251828348959
 20
548.49889658336485
 30
0.0
 40
0.99648702
 50
90.540721000001824
 51
120.7437700000024
  0
ARC
  5
5CF2
  8
AM_0
 10
153.3771782834894
 20
547.74852658336476
 30
0.0
 40
0.99404597
 50
120.4681999999988
 51
180.18564000000021
  0
ARC
  5
5CF3
  8
AM_0
 10
153.3779082834894
 20
548.78294658336472
 30
0.0
 40
0.9948369899999999
 50
123.2049599999982
 51
180.43786000000131
  0
ARC
  5
5CF4
  8
AM_0
 10
153.3763282834895
 20
552.34679658336461
 30
0.0
 40
0.9932109699999999
 50
117.799320000005
 51
180.08187000000001
  0
ARC
  5
5CF5
  8
AM_0
 10
153.3775482834894
 20
553.38438658336463
 30
0.0
 40
0.9944329899999999
 50
121.152129999997
 51
179.94050999999911
  0
ARC
  5
5CF6
  8
AM_0
 10
154.58408828348999
 20
542.19994658336475
 30
0.0
 40
0.9954450099999999
 50
90.056904999996419
 51
113.1274500000043
  0
ARC
  5
5CF7
  8
AM_0
 10
154.52225828348941
 20
540.25267658336475
 30
0.0
 40
0.9927430199999999
 50
89.374555000002019
 51
106.33207000000171
  0
ARC
  5
5CF8
  8
AM_0
 10
153.37937828348981
 20
539.90111658336468
 30
0.0
 40
0.9962710099999999
 50
106.6979199999999
 51
180.33004999999989
  0
ARC
  5
5CF9
  8
AM_0
 10
153.37949828348971
 20
541.68687658336478
 30
0.0
 40
0.9963999999999998
 50
112.8173600000008
 51
180.0904199999996
  0
ARC
  5
5CFA
  8
AM_0
 10
153.3782182834895
 20
532.51024658336473
 30
0.0
 40
0.99507803
 50
89.715886999998034
 51
180.28410999999991
  0
ARC
  5
5CFB
  8
AM_0
 10
153.38334828348951
 20
532.50560658336474
 30
0.0
 40
1.000203
 50
180.01164999999889
 51
269.9883500000044
  0
ARC
  5
5CFC
  8
AM_0
 10
153.3782182834895
 20
522.51024658336473
 30
0.0
 40
0.99508202
 50
89.716099000001435
 51
180.2839100000011
  0
ARC
  5
5CFD
  8
AM_0
 10
153.38334828348951
 20
522.50560658336485
 30
0.0
 40
1.0001999999999991
 50
180.01142999999831
 51
269.98856999999839
  0
ARC
  5
5CFE
  8
AM_0
 10
153.3782182834895
 20
512.51024658336473
 30
0.0
 40
0.9950849999999999
 50
89.716311000000914
 51
180.2836899999995
  0
ARC
  5
5CFF
  8
AM_0
 10
153.38334828348951
 20
512.50560658336485
 30
0.0
 40
1.0001959999999981
 50
180.0112199999991
 51
269.98877999999758
  0
ARC
  5
5D00
  8
AM_0
 10
156.38327828348929
 20
510.5054865833647
 30
0.0
 40
0.9998249999999999
 50
359.98994999999883
 51
90.010050000001243
  0
ARC
  5
5D01
  8
AM_0
 10
156.37815828348971
 20
514.51024658336473
 30
0.0
 40
1.0049469
 50
270.28134999999719
 51
359.71866000000068
  0
ARC
  5
5D02
  8
AM_0
 10
156.38327828348929
 20
520.5054865833647
 30
0.0
 40
0.9998210099999999
 50
359.98975000000149
 51
90.010254999998992
  0
ARC
  5
5D03
  8
AM_0
 10
156.37815828348971
 20
524.51024658336473
 30
0.0
 40
1.004939
 50
270.28091000000438
 51
359.71909999999991
  0
ARC
  5
5D04
  8
AM_0
 10
156.38327828348929
 20
530.50548658336436
 30
0.0
 40
0.9998289899999999
 50
359.99019000000038
 51
90.009811000000937
  0
ARC
  5
5D05
  8
AM_0
 10
156.37815828348971
 20
534.51024658336473
 30
0.0
 40
1.004942999999999
 50
270.28111000000013
 51
359.71888999999987
  0
ARC
  5
5D06
  8
AM_0
 10
156.38480828348969
 20
540.24705658336472
 30
0.0
 40
0.9982839799999999
 50
359.90142000000009
 51
90.098576000001358
  0
ARC
  5
5D07
  8
AM_0
 10
156.38077828348941
 20
548.49303658336476
 30
0.0
 40
1.002353
 50
0.1343268199984526
 51
89.865672999999376
  0
ARC
  5
5D08
  8
AM_0
 10
156.67856828348931
 20
543.89989658336481
 30
0.0
 40
0.704566
 50
270.3700999999968
 51
359.62991000000108
  0
ARC
  5
5D09
  8
AM_0
 10
156.3840782834892
 20
553.00633658336471
 30
0.0
 40
0.9990100299999999
 50
359.94319000000121
 51
90.056808999996804
  0
ARC
  5
5D0A
  8
AM_0
 10
156.88480828348941
 20
555.60704658336476
 30
0.0
 40
0.4983060100000002
 50
359.80489000000108
 51
90.195107000000036
  0
ARC
  5
5D0B
  8
AM_0
 10
156.87851828348971
 20
557.75999658336468
 30
0.0
 40
0.50463498
 50
270.52383000000037
 51
359.47616999999963
  0
ARC
  5
5D0C
  8
AM_0
 10
168.92771828348961
 20
472.50536658336461
 30
0.0
 40
1.000013899999999
 50
89.691659999999231
 51
270.30834000000078
  0
ARC
  5
5D0D
  8
AM_0
 10
271.20310828348943
 20
542.55040658336452
 30
0.0
 40
1.6750020000000001
 50
269.999989999999
 51
90.00000299999769
  0
ARC
  5
5D0E
  8
AM_0
 10
267.72312828348947
 20
542.50536658336466
 30
0.0
 40
1.0
 50
269.999989999999
 51
90.00000299999769
  0
ARC
  5
5D0F
  8
AM_0
 10
267.72312828348947
 20
472.50536658336461
 30
0.0
 40
1.0
 50
269.999989999999
 51
90.00000299999769
  0
ARC
  5
5D10
  8
AM_0
 10
271.20310828348943
 20
472.46031658336472
 30
0.0
 40
1.6750020000000001
 50
269.999989999999
 51
90.00000299999769
  0
ARC
  5
5D11
  8
AM_0
 10
156.37973828348959
 20
474.76866658336468
 30
0.0
 40
1.003352
 50
270.19110999999691
 51
359.80890000000107
  0
ARC
  5
5D12
  8
AM_0
 10
156.37815828348971
 20
484.51024658336451
 30
0.0
 40
1.0049469
 50
270.28136999999919
 51
359.71863000000081
  0
ARC
  5
5D13
  8
AM_0
 10
156.38327828348929
 20
480.50548658336442
 30
0.0
 40
0.9998239899999999
 50
359.98991999999851
 51
90.01007700000045
  0
ARC
  5
5D14
  8
AM_0
 10
156.6836382834897
 20
471.11595658336461
 30
0.0
 40
0.6994530000000001
 50
359.95517000000092
 51
90.044828999997534
  0
ARC
  5
5D15
  8
AM_0
 10
154.58609828348941
 20
472.82054658336477
 30
0.0
 40
1.005233
 50
246.9863899999973
 51
269.82924999999938
  0
ARC
  5
5D16
  8
AM_0
 10
154.52366828348929
 20
474.7680565833648
 30
0.0
 40
1.002699
 50
253.75271999999481
 51
270.54064000000108
  0
ARC
  5
5D17
  8
AM_0
 10
153.37949828348971
 20
475.1197465833647
 30
0.0
 40
0.99638802
 50
180.24990999999889
 51
253.29664000000031
  0
ARC
  5
5D18
  8
AM_0
 10
153.37961828348961
 20
473.33385658336471
 30
0.0
 40
0.9965090199999998
 50
179.91374999999979
 51
247.1784499999961
  0
ARC
  5
5D19
  8
AM_0
 10
153.38334828348951
 20
482.50560658336462
 30
0.0
 40
1.0001959999999981
 50
180.01124999999951
 51
269.98875000000061
  0
ARC
  5
5D1A
  8
AM_0
 10
153.3782182834895
 20
482.51024658336422
 30
0.0
 40
0.9950849999999999
 50
89.716283000002676
 51
180.28371999999919
  0
ARC
  5
5D1B
  8
AM_0
 10
153.38334828348951
 20
492.50560658336468
 30
0.0
 40
1.0001999999999991
 50
180.01145999999861
 51
269.98854000000142
  0
ARC
  5
5D1C
  8
AM_0
 10
153.3782182834895
 20
492.51024658336468
 30
0.0
 40
0.9950810099999999
 50
89.716071999996828
 51
180.28392000000119
  0
ARC
  5
5D1D
  8
AM_0
 10
153.38334828348951
 20
502.50560658336479
 30
0.0
 40
1.0002040000000001
 50
180.01166000000001
 51
269.98832000000078
  0
ARC
  5
5D1E
  8
AM_0
 10
153.3782182834895
 20
502.51024658336468
 30
0.0
 40
0.9950770099999999
 50
89.715859999999481
 51
180.28414000000049
  0
ARC
  5
5D1F
  8
AM_0
 10
156.37815828348971
 20
504.51024658336468
 30
0.0
 40
1.004942999999999
 50
270.28113999999943
 51
359.7188700000014
  0
ARC
  5
5D20
  8
AM_0
 10
156.38327828348929
 20
500.50548658336459
 30
0.0
 40
0.9998279799999998
 50
359.99016000000029
 51
90.009838000000187
  0
ARC
  5
5D21
  8
AM_0
 10
156.37815828348971
 20
494.51024658336468
 30
0.0
 40
1.004939
 50
270.280940000003
 51
359.71907000000078
  0
ARC
  5
5D22
  8
AM_0
 10
156.38327828348929
 20
490.5054865833647
 30
0.0
 40
0.9998210099999999
 50
359.98972000000123
 51
90.010282000004793
  0
ARC
  5
5D23
  8
AM_0
 10
168.05570828348979
 20
542.55040658336452
 30
0.0
 40
1.6750160000000001
 50
89.746145000004447
 51
270.25387000000092
  0
ARC
  5
5D24
  8
AM_0
 10
168.92771828348961
 20
542.50536658336466
 30
0.0
 40
1.000013899999999
 50
89.691659999999231
 51
270.30834000000078
  0
ARC
  5
5D25
  8
AM_0
 10
168.92771828348961
 20
532.50536658336478
 30
0.0
 40
1.000013899999999
 50
89.691659999999231
 51
270.30834000000078
  0
ARC
  5
5D26
  8
AM_0
 10
168.92771828348961
 20
522.50536658336455
 30
0.0
 40
1.000013899999999
 50
89.691659999999231
 51
270.30834000000078
  0
ARC
  5
5D27
  8
AM_0
 10
168.92771828348961
 20
512.50536658336478
 30
0.0
 40
1.000013899999999
 50
89.691659999999231
 51
270.30834000000078
  0
ARC
  5
5D28
  8
AM_0
 10
168.92771828348961
 20
502.50536658336472
 30
0.0
 40
1.000013899999999
 50
89.691659999999231
 51
270.30834000000078
  0
ARC
  5
5D29
  8
AM_0
 10
168.92771828348961
 20
492.50536658336472
 30
0.0
 40
1.000013899999999
 50
89.691659999999231
 51
270.30834000000078
  0
ARC
  5
5D2A
  8
AM_0
 10
168.92771828348961
 20
482.50536658336461
 30
0.0
 40
1.000013899999999
 50
89.691659999999231
 51
270.30834000000078
  0
ARC
  5
5D2B
  8
AM_0
 10
167.8431182834895
 20
532.5303865833647
 30
0.0
 40
1.465004
 50
90.00000299999769
 51
270.0
  0
ARC
  5
5D2C
  8
AM_0
 10
167.71311828348959
 20
522.51537658336474
 30
0.0
 40
1.3300049999999981
 50
90.00000299999769
 51
270.0
  0
ARC
  5
5D2D
  8
AM_0
 10
167.64725828348941
 20
512.51036658336466
 30
0.0
 40
1.2650129999999991
 50
89.735579000001735
 51
270.2644100000025
  0
ARC
  5
5D2E
  8
AM_0
 10
167.64725828348941
 20
502.50536658336472
 30
0.0
 40
1.2700129999999981
 50
89.736617000001587
 51
270.26336999999921
  0
ARC
  5
5D2F
  8
AM_0
 10
167.71311828348959
 20
492.49535658336458
 30
0.0
 40
1.3300049999999981
 50
90.00000299999769
 51
270.0
  0
ARC
  5
5D30
  8
AM_0
 10
167.8431182834895
 20
482.4803365833647
 30
0.0
 40
1.465004
 50
90.00000299999769
 51
270.0
  0
ARC
  5
5D31
  8
AM_0
 10
168.0562582834896
 20
472.46031658336472
 30
0.0
 40
1.675014
 50
89.766498999996756
 51
270.2335099999994
  0
ARC
  5
5D32
  8
AM_0
 10
156.37986828348971
 20
466.53209658336471
 30
0.0
 40
1.0032760000000001
 50
334.19810000000189
 51
359.6181099999983
  0
ARC
  5
5D33
  8
AM_0
 10
153.38157828348949
 20
467.26463658336479
 30
0.0
 40
0.9984580299999999
 50
179.95957999999851
 51
239.38657000000219
  0
ARC
  5
5D34
  8
AM_0
 10
169.58182828348961
 20
561.79124658336445
 30
0.0
 40
1.994108999999999
 50
89.675548000002749
 51
169.18776999999901
  0
ARC
  5
5D35
  8
AM_0
 10
169.63334828348951
 20
564.64012658336435
 30
0.0
 40
1.9952829999999959
 50
90.006203999996856
 51
170.90835000000069
  0
ARC
  5
5D36
  8
AM_0
 10
169.64768828348949
 20
566.48863658336472
 30
0.0
 40
1.9967330000000001
 50
89.843966999998912
 51
171.45388000000071
  0
ARC
  5
5D37
  8
AM_0
 10
169.66959828348939
 20
567.39976658336445
 30
0.0
 40
1.995633
 50
89.899707999995783
 51
172.06112999999939
  0
ARC
  5
5D38
  8
AM_0
 10
266.51322828348952
 20
561.78709658336481
 30
0.0
 40
1.9982919999999991
 50
15.03254799999914
 51
90.002632000001341
  0
ARC
  5
5D39
  8
AM_0
 10
274.03629828348937
 20
547.22813658336463
 30
0.0
 40
1.502775999999999
 50
194.75642999999971
 51
269.87757999999872
  0
ARC
  5
5D3A
  8
AM_0
 10
266.50827828348969
 20
453.23009658336468
 30
0.0
 40
2.0047290000000002
 50
270.13832000000423
 51
344.82649999999882
  0
ARC
  5
5D3B
  8
AM_0
 10
153.38071828348981
 20
459.48997658336469
 30
0.0
 40
0.9976310099999999
 50
180.2678099999986
 51
240.0792399999965
  0
ARC
  5
5D3C
  8
AM_0
 10
153.37882828348961
 20
460.53575658336479
 30
0.0
 40
0.9956849800000001
 50
180.02113
 51
243.4091400000006
  0
ARC
  5
5D3D
  8
AM_0
 10
154.66379828348931
 20
458.7564565833647
 30
0.0
 40
1.001123999999999
 50
239.32781999999969
 51
269.38768000000198
  0
ARC
  5
5D3E
  8
AM_0
 10
154.62894828348931
 20
459.90465658336473
 30
0.0
 40
0.9993420200000001
 50
242.86200000000241
 51
269.6654599999984
  0
ARC
  5
5D3F
  8
AM_0
 10
154.65451828348969
 20
460.86900658336481
 30
0.0
 40
1.0037439999999991
 50
239.3711300000019
 51
270.49190000000061
  0
ARC
  5
5D40
  8
AM_0
 10
154.6382882834896
 20
462.00597658336471
 30
0.0
 40
1.0006820000000001
 50
241.65062000000049
 51
269.70392999999558
  0
ARC
  5
5D41
  8
AM_0
 10
154.67588828348971
 20
465.38585658336473
 30
0.0
 40
1.000521999999999
 50
237.14618000000229
 51
270.41344000000367
  0
ARC
  5
5D42
  8
AM_0
 10
154.64646828348961
 20
466.52635658336459
 30
0.0
 40
1.0010449999999991
 50
240.47186999999661
 51
270.37970999999948
  0
ARC
  5
5D43
  8
AM_0
 10
153.38157828348949
 20
467.26463658336479
 30
0.0
 40
0.9984580299999999
 50
179.95957999999851
 51
239.38657000000219
  0
ARC
  5
5D44
  8
AM_0
 10
153.38218828348931
 20
466.23009658336468
 30
0.0
 40
0.9990889999999998
 50
179.69508999999971
 51
236.66209000000109
  0
ARC
  5
5D45
  8
AM_0
 10
153.38083828348931
 20
462.66661658336471
 30
0.0
 40
0.9977070099999998
 50
180.07402000000079
 51
242.04481000000081
  0
ARC
  5
5D46
  8
AM_0
 10
153.38187828348961
 20
461.62889658336468
 30
0.0
 40
0.9987969999999998
 50
179.62728000000101
 51
238.70794999999561
  0
ARC
  5
5D47
  8
AM_0
 10
156.38065828348931
 20
466.5278265833648
 30
0.0
 40
1.002470999999999
 50
270.14107000000013
 51
359.85892999999987
  0
ARC
  5
5D48
  8
AM_0
 10
156.37900828348961
 20
462.00951658336481
 30
0.0
 40
1.004119999999999
 50
270.23460999999998
 51
359.76539000000008
  0
ARC
  5
5D49
  8
AM_0
 10
156.87973828348959
 20
459.40880658336471
 30
0.0
 40
0.5033929900000002
 50
270.38491000000062
 51
359.61510000000141
  0
ARC
  5
5D4A
  8
AM_0
 10
156.88358828348959
 20
457.2558465833647
 30
0.0
 40
0.49952301
 50
359.9452300000014
 51
90.054773999999625
  0
ARC
  5
5D4B
  8
AM_0
 10
169.58799828348941
 20
453.2245965833647
 30
0.0
 40
1.9992490000000001
 50
190.643100000001
 51
270.14743000000129
  0
ARC
  5
5D4C
  8
AM_0
 10
169.6393282834897
 20
450.3757265833645
 30
0.0
 40
2.000420099999999
 50
188.9268200000011
 51
269.82270999999599
  0
ARC
  5
5D4D
  8
AM_0
 10
254.8967082834896
 20
443.50536658336449
 30
0.0
 40
1.5
 50
90.00000299999769
 51
178.50000000000051
  0
ARC
  5
5D4E
  8
AM_0
 10
266.39933828348961
 20
446.50536658336472
 30
0.0
 40
1.5
 50
269.999989999999
 51
326.99999999999892
  0
ARC
  5
5D4F
  8
AM_0
 10
169.36972828348959
 20
450.37535658336481
 30
0.0
 40
2.0
 50
188.6296200000007
 51
269.999989999999
  0
ARC
  5
5D50
  8
AM_0
 10
169.28934828348949
 20
450.37535658336481
 30
0.0
 40
2.0
 50
187.95043999999999
 51
269.999989999999
  0
ARC
  5
5D51
  8
AM_0
 10
191.7812282834895
 20
446.87535658336469
 30
0.0
 40
1.5
 50
1.5000026999989771
 51
90.00000299999769
  0
ARC
  5
5D52
  8
AM_0
 10
202.82181828348951
 20
522.50536658336455
 30
0.0
 40
1.0000056999999991
 50
269.999989999999
 51
90.00000299999769
  0
ARC
  5
5D53
  8
AM_0
 10
202.82181828348951
 20
512.50536658336478
 30
0.0
 40
1.0000056999999991
 50
269.999989999999
 51
90.00000299999769
  0
ARC
  5
5D54
  8
AM_0
 10
202.82181828348951
 20
502.50536658336472
 30
0.0
 40
1.0000056999999991
 50
269.999989999999
 51
90.00000299999769
  0
ARC
  5
5D55
  8
AM_0
 10
202.82181828348951
 20
492.50536658336472
 30
0.0
 40
1.0000056999999991
 50
269.999989999999
 51
90.00000299999769
  0
ARC
  5
5D56
  8
AM_0
 10
253.38309828348949
 20
475.00536658336478
 30
0.0
 40
1.5
 50
179.999989999999
 51
270.0
  0
ARC
  5
5D57
  8
AM_0
 10
235.38309828348969
 20
475.00536658336478
 30
0.0
 40
1.5
 50
269.999989999999
 51
0.0000006832462478
  0
ARC
  5
5D58
  8
AM_0
 10
235.4031182834897
 20
475.14537658336468
 30
0.0
 40
1.0
 50
269.999989999999
 51
0.0000006832462478
  0
ARC
  5
5D59
  8
AM_0
 10
253.36313828348949
 20
475.14537658336468
 30
0.0
 40
1.0
 50
179.999989999999
 51
270.0
  0
CIRCLE
  5
5D5A
  8
AM_0
 10
241.88309828348949
 20
536.00536658336455
 30
0.0
 40
1.1000000000000001
  0
CIRCLE
  5
5D5B
  8
AM_0
 10
241.88309828348949
 20
536.00536658336455
 30
0.0
 40
1.149999999999999
  0
CIRCLE
  5
5D5C
  8
AM_0
 10
246.8830982834894
 20
536.00536658336455
 30
0.0
 40
1.0
  0
ARC
  5
5D5D
  8
AM_0
 10
235.38309828348969
 20
535.00536658336455
 30
0.0
 40
1.02
 50
269.999989999999
 51
0.0000006832429909
  0
ARC
  5
5D5E
  8
AM_0
 10
253.38309828348949
 20
535.00536658336455
 30
0.0
 40
1.02
 50
179.999989999999
 51
270.0
  0
ARC
  5
5D5F
  8
AM_0
 10
235.38309828348969
 20
535.00536658336455
 30
0.0
 40
1.5
 50
269.999989999999
 51
0.0000006832462478
  0
ARC
  5
5D60
  8
AM_0
 10
253.38309828348949
 20
535.00536658336455
 30
0.0
 40
1.5
 50
179.999989999999
 51
270.0
  0
CIRCLE
  5
5D61
  8
AM_0
 10
246.8830982834894
 20
479.00536658336478
 30
0.0
 40
1.0
  0
CIRCLE
  5
5D62
  8
AM_0
 10
241.88309828348949
 20
479.00536658336478
 30
0.0
 40
1.149999999999999
  0
CIRCLE
  5
5D63
  8
AM_0
 10
241.88309828348949
 20
479.00536658336478
 30
0.0
 40
1.1000000000000001
  0
ARC
  5
5D64
  8
AM_0
 10
235.38309828348969
 20
480.00536658336472
 30
0.0
 40
1.02
 50
0.0
 51
90.00000299999769
  0
ARC
  5
5D65
  8
AM_0
 10
253.38309828348949
 20
480.00536658336472
 30
0.0
 40
1.02
 50
90.00000299999769
 51
180.00001000000091
  0
ARC
  5
5D66
  8
AM_0
 10
235.38309828348969
 20
480.00536658336472
 30
0.0
 40
1.5
 50
0.0
 51
90.00000299999769
  0
ARC
  5
5D67
  8
AM_0
 10
253.38309828348949
 20
480.00536658336472
 30
0.0
 40
1.5
 50
90.00000299999769
 51
180.00001000000091
  0
ARC
  5
5D68
  8
AM_0
 10
204.04807828348959
 20
492.49535658336458
 30
0.0
 40
1.3300148000000001
 50
269.7294199999987
 51
90.270567000000995
  0
ARC
  5
5D69
  8
AM_0
 10
204.1100282834895
 20
502.50536658336472
 30
0.0
 40
1.2700266
 50
269.62932000000001
 51
90.370669999998185
  0
ARC
  5
5D6A
  8
AM_0
 10
204.1100282834895
 20
512.51537658336474
 30
0.0
 40
1.2700266
 50
269.62932000000001
 51
90.370669999998185
  0
ARC
  5
5D6B
  8
AM_0
 10
204.04807828348959
 20
522.52037658336485
 30
0.0
 40
1.3350147999999991
 50
269.7304299999999
 51
90.269556000001316
  0
ARC
  5
5D6C
  8
AM_0
 10
267.72306828348962
 20
532.50536658336478
 30
0.0
 40
1.0000255999999981
 50
269.5894700000033
 51
90.410530999997775
  0
ARC
  5
5D6D
  8
AM_0
 10
271.42307828348947
 20
532.53539658336479
 30
0.0
 40
1.460011199999999
 50
269.77524999999667
 51
90.224750000003354
  0
ARC
  5
5D6E
  8
AM_0
 10
267.72306828348962
 20
482.50536658336461
 30
0.0
 40
1.0000255999999981
 50
269.5894700000033
 51
90.410530999997775
  0
ARC
  5
5D6F
  8
AM_0
 10
271.42307828348947
 20
482.47533658336442
 30
0.0
 40
1.460011199999999
 50
269.77524999999667
 51
90.224750000003354
  0
ARC
  5
5D70
  8
AM_0
 10
253.36313828348949
 20
539.86534658336473
 30
0.0
 40
1.0
 50
90.00000299999769
 51
180.00001000000091
  0
ARC
  5
5D71
  8
AM_0
 10
253.38309828348949
 20
540.00536658336455
 30
0.0
 40
1.5
 50
90.00000299999769
 51
180.00001000000091
  0
ARC
  5
5D72
  8
AM_0
 10
235.38309828348969
 20
540.00536658336455
 30
0.0
 40
1.5
 50
0.0
 51
90.00000299999769
  0
ARC
  5
5D73
  8
AM_0
 10
235.4031182834897
 20
539.86534658336473
 30
0.0
 40
1.0
 50
0.0
 51
90.00000299999769
  0
POLYLINE
  5
5D76
  8
AM_0
 66
     1
 10
0.0
 20
0.0
 30
0.0
  0
VERTEX
  5
5D77
  8
AM_0
 10
168.74308828348961
 20
507.50536658336478
 30
0.0
 42
0.00039106593
  0
VERTEX
  5
5D78
  8
AM_0
 10
168.74072828348949
 20
507.1942265833647
 30
0.0
 42
0.00040574899
  0
VERTEX
  5
5D79
  8
AM_0
 10
168.73885828348941
 20
506.88311658336471
 30
0.0
 42
0.0003534546
  0
VERTEX
  5
5D7A
  8
AM_0
 10
168.73746828348951
 20
506.5720165833647
 30
0.0
 42
0.00034407327
  0
VERTEX
  5
5D7B
  8
AM_0
 10
168.73648828348951
 20
506.26087658336468
 30
0.0
 42
0.00045699408
  0
VERTEX
  5
5D7C
  8
AM_0
 10
168.7360282834895
 20
505.94976658336492
 30
0.0
 42
0.00035571853
  0
VERTEX
  5
5D7D
  8
AM_0
 10
168.7360682834896
 20
505.63866658336468
 30
0.0
 42
0.00038547362
  0
VERTEX
  5
5D7E
  8
AM_0
 10
168.7365582834895
 20
505.3275265833646
 30
0.0
 42
0.00035501498
  0
VERTEX
  5
5D7F
  8
AM_0
 10
168.73751828348941
 20
505.01642658336471
 30
0.0
 42
0.00040118614
  0
VERTEX
  5
5D80
  8
AM_0
 10
168.7389382834894
 20
504.70518658336471
 30
0.0
 42
0.00038319871
  0
VERTEX
  5
5D81
  8
AM_0
 10
168.74084828348961
 20
504.39405658336472
 30
0.0
 42
0.00040742136
  0
VERTEX
  5
5D82
  8
AM_0
 10
168.74324828348969
 20
504.08282658336458
 30
0.0
 42
0.0003578071
  0
VERTEX
  5
5D83
  8
AM_0
 10
168.7461382834895
 20
503.77171658336471
 30
0.0
  0
SEQEND
  5
5D84
  8
AM_0
  0
POLYLINE
  5
5D85
  8
AM_0
 66
     1
 10
0.0
 20
0.0
 30
0.0
  0
VERTEX
  5
5D86
  8
AM_0
 10
168.78714828348961
 20
501.23497658336481
 30
0.0
 42
0.00076695232
  0
VERTEX
  5
5D87
  8
AM_0
 10
168.80194828348951
 20
500.61721658336472
 30
0.0
 42
0.00073263044
  0
VERTEX
  5
5D88
  8
AM_0
 10
168.81858828348979
 20
499.99961658336468
 30
0.0
 42
0.0007652599
  0
VERTEX
  5
5D89
  8
AM_0
 10
168.8370782834894
 20
499.38194658336442
 30
0.0
 42
0.00075144485
  0
VERTEX
  5
5D8A
  8
AM_0
 10
168.85744828348959
 20
498.76434658336473
 30
0.0
 42
0.00078594403
  0
VERTEX
  5
5D8B
  8
AM_0
 10
168.8796982834894
 20
498.1469165833646
 30
0.0
 42
0.00073349202
  0
VERTEX
  5
5D8C
  8
AM_0
 10
168.9038482834894
 20
497.52953658336457
 30
0.0
 42
0.0007358075
  0
VERTEX
  5
5D8D
  8
AM_0
 10
168.92978828348959
 20
496.91213658336471
 30
0.0
 42
0.00078592699
  0
VERTEX
  5
5D8E
  8
AM_0
 10
168.95761828348961
 20
496.2947465833646
 30
0.0
 42
0.00074823144
  0
VERTEX
  5
5D8F
  8
AM_0
 10
168.98734828348961
 20
495.67735658336471
 30
0.0
 42
0.00074896603
  0
VERTEX
  5
5D90
  8
AM_0
 10
169.01890828348951
 20
495.06022658336468
 30
0.0
 42
0.00076039765
  0
VERTEX
  5
5D91
  8
AM_0
 10
169.05232828348969
 20
494.44319658336468
 30
0.0
 42
0.00075616128
  0
VERTEX
  5
5D92
  8
AM_0
 10
169.08762828348941
 20
493.82616658336468
 30
0.0
  0
SEQEND
  5
5D93
  8
AM_0
  0
POLYLINE
  5
5D94
  8
AM_0
 66
     1
 10
0.0
 20
0.0
 30
0.0
  0
VERTEX
  5
5D95
  8
AM_0
 10
169.26133828348941
 20
491.16478658336467
 30
0.0
 42
0.00073721992
  0
VERTEX
  5
5D96
  8
AM_0
 10
169.3054882834895
 20
490.56237658336471
 30
0.0
 42
0.00074398496
  0
VERTEX
  5
5D97
  8
AM_0
 10
169.35141828348949
 20
489.96010658336462
 30
0.0
 42
0.00073322625
  0
VERTEX
  5
5D98
  8
AM_0
 10
169.3991482834895
 20
489.35777658336468
 30
0.0
 42
0.00073594289
  0
VERTEX
  5
5D99
  8
AM_0
 10
169.4486282834896
 20
488.7557865833648
 30
0.0
 42
0.00074742568
  0
VERTEX
  5
5D9A
  8
AM_0
 10
169.4998982834895
 20
488.15392658336481
 30
0.0
 42
0.00073216749
  0
VERTEX
  5
5D9B
  8
AM_0
 10
169.55295828348969
 20
487.55211658336469
 30
0.0
 42
0.00074184065
  0
VERTEX
  5
5D9C
  8
AM_0
 10
169.60777828348941
 20
486.95058658336472
 30
0.0
 42
0.00072077528
  0
VERTEX
  5
5D9D
  8
AM_0
 10
169.66435828348969
 20
486.34935658336479
 30
0.0
 42
0.00074978179
  0
VERTEX
  5
5D9E
  8
AM_0
 10
169.72269828348951
 20
485.74815658336428
 30
0.0
 42
0.00074288888
  0
VERTEX
  5
5D9F
  8
AM_0
 10
169.7828482834895
 20
485.14713658336461
 30
0.0
 42
0.00072503679
  0
VERTEX
  5
5DA0
  8
AM_0
 10
169.8447582834894
 20
484.54639658336441
 30
0.0
 42
0.00074640584
  0
VERTEX
  5
5DA1
  8
AM_0
 10
169.9084282834894
 20
483.9457965833646
 30
0.0
  0
SEQEND
  5
5DA2
  8
AM_0
  0
POLYLINE
  5
5DA3
  8
AM_0
 66
     1
 10
0.0
 20
0.0
 30
0.0
  0
VERTEX
  5
5DA4
  8
AM_0
 10
170.24399828348959
 20
481.02232658336487
 30
0.0
 42
0.0006890001
  0
VERTEX
  5
5DA5
  8
AM_0
 10
170.31487828348941
 20
480.44757658336471
 30
0.0
 42
0.00070644651
  0
VERTEX
  5
5DA6
  8
AM_0
 10
170.3873782834896
 20
479.87289658336471
 30
0.0
 42
0.0006924559
  0
VERTEX
  5
5DA7
  8
AM_0
 10
170.46146828348969
 20
479.29857658336448
 30
0.0
 42
0.00069587797
  0
VERTEX
  5
5DA8
  8
AM_0
 10
170.53714828348961
 20
478.72443658336442
 30
0.0
 42
0.00071687041
  0
VERTEX
  5
5DA9
  8
AM_0
 10
170.61445828348951
 20
478.15043658336458
 30
0.0
 42
0.00069759113
  0
VERTEX
  5
5DAA
  8
AM_0
 10
170.69339828348961
 20
477.57664658336478
 30
0.0
 42
0.00071003142
  0
VERTEX
  5
5DAB
  8
AM_0
 10
170.77393828348951
 20
477.00317658336462
 30
0.0
 42
0.00069954544
  0
VERTEX
  5
5DAC
  8
AM_0
 10
170.8560782834895
 20
476.43007658336472
 30
0.0
 42
0.0007188852
  0
VERTEX
  5
5DAD
  8
AM_0
 10
170.9398582834894
 20
475.85704658336448
 30
0.0
 42
0.00071266165
  0
VERTEX
  5
5DAE
  8
AM_0
 10
171.02528828348949
 20
475.28428658336452
 30
0.0
 42
0.00071614577
  0
VERTEX
  5
5DAF
  8
AM_0
 10
171.1123182834894
 20
474.71193658336472
 30
0.0
 42
0.00072290806
  0
VERTEX
  5
5DB0
  8
AM_0
 10
171.20102828348939
 20
474.13963658336468
 30
0.0
  0
SEQEND
  5
5DB1
  8
AM_0
  0
POLYLINE
  5
5DB2
  8
AM_0
 66
     1
 10
0.0
 20
0.0
 30
0.0
  0
VERTEX
  5
5DB3
  8
AM_0
 10
168.74308828348961
 20
507.50536658336478
 30
0.0
 42
-0.00039106653
  0
VERTEX
  5
5DB4
  8
AM_0
 10
168.74072828348949
 20
507.8164965833646
 30
0.0
 42
-0.00040574511
  0
VERTEX
  5
5DB5
  8
AM_0
 10
168.73885828348941
 20
508.12760658336452
 30
0.0
 42
-0.00035346331
  0
VERTEX
  5
5DB6
  8
AM_0
 10
168.73746828348951
 20
508.43871658336468
 30
0.0
 42
-0.00034406545
  0
VERTEX
  5
5DB7
  8
AM_0
 10
168.73648828348951
 20
508.74985658336482
 30
0.0
 42
-0.00045699059
  0
VERTEX
  5
5DB8
  8
AM_0
 10
168.7360282834895
 20
509.06095658336471
 30
0.0
 42
-0.00035573431
  0
VERTEX
  5
5DB9
  8
AM_0
 10
168.7360682834896
 20
509.37205658336472
 30
0.0
 42
-0.00038545888
  0
VERTEX
  5
5DBA
  8
AM_0
 10
168.7365582834895
 20
509.68319658336441
 30
0.0
 42
-0.00035501203
  0
VERTEX
  5
5DBB
  8
AM_0
 10
168.73751828348941
 20
509.99430658336468
 30
0.0
 42
-0.00040120778
  0
VERTEX
  5
5DBC
  8
AM_0
 10
168.7389382834894
 20
510.3055365833647
 30
0.0
 42
-0.00038317821
  0
VERTEX
  5
5DBD
  8
AM_0
 10
168.74084828348961
 20
510.61666658336452
 30
0.0
 42
-0.00040741862
  0
VERTEX
  5
5DBE
  8
AM_0
 10
168.74324828348969
 20
510.92789658336471
 30
0.0
 42
-0.00035783324
  0
VERTEX
  5
5DBF
  8
AM_0
 10
168.7461382834895
 20
511.23900658336481
 30
0.0
  0
SEQEND
  5
5DC0
  8
AM_0
  0
POLYLINE
  5
5DC1
  8
AM_0
 66
     1
 10
0.0
 20
0.0
 30
0.0
  0
VERTEX
  5
5DC2
  8
AM_0
 10
168.78714828348961
 20
513.77574658336459
 30
0.0
 42
-0.00076691987
  0
VERTEX
  5
5DC3
  8
AM_0
 10
168.80194828348951
 20
514.39350658336457
 30
0.0
 42
-0.00073262795
  0
VERTEX
  5
5DC4
  8
AM_0
 10
168.81858828348979
 20
515.01110658336472
 30
0.0
 42
-0.0007652954
  0
VERTEX
  5
5DC5
  8
AM_0
 10
168.8370782834894
 20
515.6287765833647
 30
0.0
 42
-0.00077334627
  0
VERTEX
  5
5DC6
  8
AM_0
 10
168.8574882834898
 20
516.24637658336474
 30
0.0
 42
-0.00073282897
  0
VERTEX
  5
5DC7
  8
AM_0
 10
168.8797482834895
 20
516.86379658336477
 30
0.0
 42
-0.0007571179
  0
VERTEX
  5
5DC8
  8
AM_0
 10
168.9038482834894
 20
517.48131658336445
 30
0.0
 42
-0.00073783152
  0
VERTEX
  5
5DC9
  8
AM_0
 10
168.92978828348959
 20
518.09870658336456
 30
0.0
 42
-0.0007835518
  0
VERTEX
  5
5DCA
  8
AM_0
 10
168.95761828348961
 20
518.71597658336475
 30
0.0
 42
-0.00074826133
  0
VERTEX
  5
5DCB
  8
AM_0
 10
168.98734828348961
 20
519.33336658336475
 30
0.0
 42
-0.00074893555
  0
VERTEX
  5
5DCC
  8
AM_0
 10
169.01890828348951
 20
519.95049658336461
 30
0.0
 42
-0.00076039841
  0
VERTEX
  5
5DCD
  8
AM_0
 10
169.05232828348969
 20
520.56752658336461
 30
0.0
 42
-0.00075618789
  0
VERTEX
  5
5DCE
  8
AM_0
 10
169.08762828348941
 20
521.18455658336472
 30
0.0
  0
SEQEND
  5
5DCF
  8
AM_0
  0
POLYLINE
  5
5DD0
  8
AM_0
 66
     1
 10
0.0
 20
0.0
 30
0.0
  0
VERTEX
  5
5DD1
  8
AM_0
 10
169.26133828348941
 20
523.84593658336485
 30
0.0
 42
-0.0007337051
  0
VERTEX
  5
5DD2
  8
AM_0
 10
169.30547828348969
 20
524.44834658336458
 30
0.0
 42
-0.00075211323
  0
VERTEX
  5
5DD3
  8
AM_0
 10
169.35141828348949
 20
525.05074658336468
 30
0.0
 42
-0.0007297491
  0
VERTEX
  5
5DD4
  8
AM_0
 10
169.3991482834895
 20
525.65294658336472
 30
0.0
 42
-0.00073593041
  0
VERTEX
  5
5DD5
  8
AM_0
 10
169.4486282834896
 20
526.25493658336472
 30
0.0
 42
-0.00074742739
  0
VERTEX
  5
5DD6
  8
AM_0
 10
169.4998982834895
 20
526.85679658336448
 30
0.0
 42
-0.00073217363
  0
VERTEX
  5
5DD7
  8
AM_0
 10
169.55295828348969
 20
527.45860658336483
 30
0.0
 42
-0.00073754168
  0
VERTEX
  5
5DD8
  8
AM_0
 10
169.60777828348941
 20
528.06014658336471
 30
0.0
 42
-0.00073075073
  0
VERTEX
  5
5DD9
  8
AM_0
 10
169.66435828348969
 20
528.66149658336474
 30
0.0
 42
-0.00074550816
  0
VERTEX
  5
5DDA
  8
AM_0
 10
169.72269828348951
 20
529.26256658336467
 30
0.0
 42
-0.00074288416
  0
VERTEX
  5
5DDB
  8
AM_0
 10
169.7828482834895
 20
529.86358658336485
 30
0.0
 42
-0.00072504001
  0
VERTEX
  5
5DDC
  8
AM_0
 10
169.8447582834894
 20
530.46432658336471
 30
0.0
 42
-0.00074640667
  0
VERTEX
  5
5DDD
  8
AM_0
 10
169.9084282834894
 20
531.06493658336456
 30
0.0
  0
SEQEND
  5
5DDE
  8
AM_0
  0
POLYLINE
  5
5DDF
  8
AM_0
 66
     1
 10
0.0
 20
0.0
 30
0.0
  0
VERTEX
  5
5DE0
  8
AM_0
 10
170.24399828348959
 20
533.98839658336476
 30
0.0
 42
-0.00068898283
  0
VERTEX
  5
5DE1
  8
AM_0
 10
170.31487828348941
 20
534.56314658336487
 30
0.0
 42
-0.00070644357
  0
VERTEX
  5
5DE2
  8
AM_0
 10
170.3873782834896
 20
535.13783658336479
 30
0.0
 42
-0.00069248074
  0
VERTEX
  5
5DE3
  8
AM_0
 10
170.46146828348969
 20
535.71214658336476
 30
0.0
 42
-0.0006958566
  0
VERTEX
  5
5DE4
  8
AM_0
 10
170.53714828348961
 20
536.28628658336481
 30
0.0
 42
-0.00071687219
  0
VERTEX
  5
5DE5
  8
AM_0
 10
170.61445828348951
 20
536.86028658336465
 30
0.0
 42
-0.00069760022
  0
VERTEX
  5
5DE6
  8
AM_0
 10
170.69339828348961
 20
537.4340765833648
 30
0.0
 42
-0.00071002302
  0
VERTEX
  5
5DE7
  8
AM_0
 10
170.77393828348951
 20
538.00754658336473
 30
0.0
 42
-0.00069954889
  0
VERTEX
  5
5DE8
  8
AM_0
 10
170.8560782834895
 20
538.58064658336446
 30
0.0
 42
-0.00071887947
  0
VERTEX
  5
5DE9
  8
AM_0
 10
170.9398582834894
 20
539.15367658336481
 30
0.0
 42
-0.00071266929
  0
VERTEX
  5
5DEA
  8
AM_0
 10
171.02528828348949
 20
539.72644658336458
 30
0.0
 42
-0.00071614429
  0
VERTEX
  5
5DEB
  8
AM_0
 10
171.1123182834894
 20
540.29878658336452
 30
0.0
 42
-0.00072288978
  0
VERTEX
  5
5DEC
  8
AM_0
 10
171.20102828348939
 20
540.87108658336444
 30
0.0
  0
SEQEND
  5
5DED
  8
AM_0
  0
LINE
  5
5DF8
  8
AM_0
 10
368.38307828348962
 20
532.0053965833647
 30
0.0
 11
372.38307828348951
 21
528.00539658336481
 31
0.0
  0
LINE
  5
5DF9
  8
AM_0
 10
365.88307828348962
 20
532.0053965833647
 30
0.0
 11
368.38307828348962
 21
532.0053965833647
 31
0.0
  0
LINE
  5
5DFB
  8
AM_0
 10
372.38307828348951
 20
528.00539658336481
 30
0.0
 11
372.38307828349019
 21
487.0053965833647
 31
0.0
  0
LINE
  5
5DFC
  8
AM_0
 10
368.38307828348962
 20
483.0053965833647
 30
0.0
 11
372.38307828348951
 21
487.0053965833647
 31
0.0
  0
LINE
  5
5DFD
  8
AM_0
 10
365.88307828348962
 20
483.0053965833647
 30
0.0
 11
368.38307828348962
 21
483.00539658336481
 31
0.0
  0
LINE
  5
5DFE
  8
AM_0
 10
365.38307828348962
 20
531.5053965833647
 30
0.0
 11
365.88307828348962
 21
532.0053965833647
 31
0.0
1001
GENIUS_GENFIL_13
1070
     0
1040
0.5
1040
0.5
1040
20.0
1040
0.0
1002
{
1002
}
1001
GENIUS_GENOBJ-N-CHA_13
1002
{
1000
OWNER
1000
GEN
1002
}
1001
GENIUS_GENODEF_13
1002
{
1000
HIER
1070
     0
1002
}
1002
{
1000
MANEDIT
1070
     0
1002
}
1002
{
1000
NOSEL
1070
     0
1002
}
1002
{
1000
BEHIND
1070
     0
1002
}
1002
{
1000
OTHER
1070
     0
1002
}
1002
{
1000
REACTOR
1002
}
  0
LINE
  5
5DFF
  8
AM_0
 10
365.38307828348962
 20
483.5053965833647
 30
0.0
 11
365.88307828348962
 21
483.0053965833647
 31
0.0
1001
GENIUS_GENFIL_13
1070
     0
1040
0.5
1040
0.5
1040
20.0
1040
0.0
1002
{
1002
}
1001
GENIUS_GENODEF_13
1002
{
1000
HIER
1070
     0
1002
}
1002
{
1000
MANEDIT
1070
     0
1002
}
1002
{
1000
NOSEL
1070
     0
1002
}
1002
{
1000
BEHIND
1070
     0
1002
}
1002
{
1000
OTHER
1070
     0
1002
}
1002
{
1000
REACTOR
1002
}
1001
GENIUS_GENOBJ-N-CHA_13
1002
{
1000
OWNER
1000
GEN
1002
}
  0
LINE
  5
5E00
  8
AM_0
 10
368.38307828348968
 20
532.0053965833647
 30
0.0
 11
368.38307828348962
 21
483.00539658336481
 31
0.0
  0
TEXT
  5
6140
  8
AM_0
 10
474.41694517699977
 20
508.00138983157109
 30
0.0
 40
10.0
  1
VX02-005MFW~VX02-030MFW
  0
ENDSEC
  0
EOF
