  0
SECTION
  2
HEADER
  9
$ACADVER
  1
AC1009
  9
$INSBASE
 10
0.0
 20
0.0
 30
0.0
  9
$EXTMIN
 10
114.5796682582931
 20
151.8078900459993
 30
-0.0015258207003583
  9
$EXTMAX
 10
718.14805023051804
 20
590.78675260537898
 30
0.0000000349246037
  9
$LIMMIN
 10
0.0
 20
0.0
  9
$LIMMAX
 10
853.5
 20
555.00000000000011
  9
$ORTHOMODE
 70
     0
  9
$REGENMODE
 70
     1
  9
$FILLMODE
 70
     1
  9
$QTEXTMODE
 70
     0
  9
$MIRRTEXT
 70
     1
  9
$DRAGMODE
 70
     2
  9
$LTSCALE
 40
3.0
  9
$OSMODE
 70
   551
  9
$ATTMODE
 70
     1
  9
$TEXTSIZE
 40
2.5
  9
$TRACEWID
 40
1.0
  9
$TEXTSTYLE
  7
STANDARD
  9
$CLAYER
  8
AM_0
  9
$CELTYPE
  6
BYLAYER
  9
$CECOLOR
 62
   256
  9
$DIMSCALE
 40
3.0
  9
$DIMASZ
 40
2.5
  9
$DIMEXO
 40
1.0
  9
$DIMDLI
 40
8.0
  9
$DIMRND
 40
0.0
  9
$DIMDLE
 40
0.0
  9
$DIMEXE
 40
0.6
  9
$DIMTP
 40
0.1
  9
$DIMTM
 40
0.1
  9
$DIMTXT
 40
2.5
  9
$DIMCEN
 40
0.0
  9
$DIMTSZ
 40
0.0
  9
$DIMTOL
 70
     0
  9
$DIMLIM
 70
     0
  9
$DIMTIH
 70
     0
  9
$DIMTOH
 70
     0
  9
$DIMSE1
 70
     0
  9
$DIMSE2
 70
     0
  9
$DIMTAD
 70
     1
  9
$DIMZIN
 70
     8
  9
$DIMBLK
  1

  9
$DIMASO
 70
     1
  9
$DIMSHO
 70
     1
  9
$DIMPOST
  1

  9
$DIMAPOST
  1
"
  9
$DIMALT
 70
     0
  9
$DIMALTD
 70
     2
  9
$DIMALTF
 40
0.0393701
  9
$DIMLFAC
 40
1.0
  9
$DIMTOFL
 70
     1
  9
$DIMTVP
 40
0.0
  9
$DIMTIX
 70
     0
  9
$DIMSOXD
 70
     0
  9
$DIMSAH
 70
     0
  9
$DIMBLK1
  1

  9
$DIMBLK2
  1

  9
$DIMSTYLE
  2
AM_ISO
  9
$DIMCLRD
 70
   256
  9
$DIMCLRE
 70
   256
  9
$DIMCLRT
 70
     4
  9
$DIMTFAC
 40
0.71
  9
$DIMGAP
 40
0.8
  9
$LUNITS
 70
     2
  9
$LUPREC
 70
     2
  9
$SKETCHINC
 40
1.0
  9
$FILLETRAD
 40
15.0
  9
$AUNITS
 70
     0
  9
$AUPREC
 70
     0
  9
$MENU
  1
.
  9
$ELEVATION
 40
0.0
  9
$PELEVATION
 40
0.0
  9
$THICKNESS
 40
0.0
  9
$LIMCHECK
 70
     0
  9
$BLIPMODE
 70
     0
  9
$CHAMFERA
 40
6.0
  9
$CHAMFERB
 40
3.0
  9
$SKPOLY
 70
     0
  9
$TDCREATE
 40
2452065.6056192131
  9
$TDUPDATE
 40
2458541.603155579
  9
$TDINDWG
 40
0.3450705556
  9
$TDUSRTIMER
 40
0.3450703588
  9
$USRTIMER
 70
     1
  9
$ANGBASE
 50
0.0
  9
$ANGDIR
 70
     0
  9
$PDMODE
 70
     0
  9
$PDSIZE
 40
0.0
  9
$PLINEWID
 40
0.0
  9
$COORDS
 70
     1
  9
$SPLFRAME
 70
     0
  9
$SPLINETYPE
 70
     6
  9
$SPLINESEGS
 70
     8
  9
$ATTDIA
 70
     1
  9
$ATTREQ
 70
     1
  9
$HANDLING
 70
     1
  9
$HANDSEED
  5
6469
  9
$SURFTAB1
 70
     6
  9
$SURFTAB2
 70
     6
  9
$SURFTYPE
 70
     6
  9
$SURFU
 70
     6
  9
$SURFV
 70
     6
  9
$UCSNAME
  2

  9
$UCSORG
 10
0.0
 20
0.0
 30
0.0
  9
$UCSXDIR
 10
1.0
 20
0.0
 30
0.0
  9
$UCSYDIR
 10
0.0
 20
1.0
 30
0.0
  9
$PUCSNAME
  2

  9
$PUCSORG
 10
0.0
 20
0.0
 30
0.0
  9
$PUCSXDIR
 10
1.0
 20
0.0
 30
0.0
  9
$PUCSYDIR
 10
0.0
 20
1.0
 30
0.0
  9
$USERI1
 70
     0
  9
$USERI2
 70
     0
  9
$USERI3
 70
     0
  9
$USERI4
 70
     0
  9
$USERI5
 70
     0
  9
$USERR1
 40
0.0
  9
$USERR2
 40
0.0
  9
$USERR3
 40
0.0
  9
$USERR4
 40
0.0
  9
$USERR5
 40
0.0
  9
$WORLDVIEW
 70
     1
  9
$SHADEDGE
 70
     3
  9
$SHADEDIF
 70
    70
  9
$TILEMODE
 70
     1
  9
$MAXACTVP
 70
    64
  9
$PLIMCHECK
 70
     0
  9
$PEXTMIN
 10
1.0000000000000000E+020
 20
1.0000000000000000E+020
 30
1.0000000000000000E+020
  9
$PEXTMAX
 10
-1.0000000000000000E+020
 20
-1.0000000000000000E+020
 30
-1.0000000000000000E+020
  9
$PLIMMIN
 10
0.0
 20
0.0
  9
$PLIMMAX
 10
420.0
 20
297.0
  9
$UNITMODE
 70
     0
  9
$VISRETAIN
 70
     1
  9
$PLINEGEN
 70
     0
  9
$PSLTSCALE
 70
     1
  0
ENDSEC
  0
SECTION
  2
TABLES
  0
TABLE
  2
VPORT
 70
     1
  0
VPORT
  2
*ACTIVE
 70
     0
 10
0.0
 20
0.0
 11
1.0
 21
1.0
 12
416.3638592444056
 22
371.29732132568921
 13
0.0
 23
0.0
 14
7.5
 24
7.5
 15
30.0
 25
30.0
 16
0.0
 26
0.0
 36
1.0
 17
0.0
 27
0.0
 37
0.0
 40
441.99244742820832
 41
1.7571592210767459
 42
50.0
 43
0.0
 44
0.0
 50
0.0
 51
0.0
 71
     0
 72
   100
 73
     1
 74
     3
 75
     0
 76
     0
 77
     0
 78
     0
  0
ENDTAB
  0
TABLE
  2
LTYPE
 70
    26
  0
LTYPE
  2
CONTINUOUS
 70
     0
  3
Solid line
 72
    65
 73
     0
 40
0.0
  0
LTYPE
  2
AM_ISO02W050
 70
     0
  3
__ __ __ __ __ __ __ __ __ __ __ __ __ __ __
 72
    65
 73
     2
 40
7.5
 49
6.0
 49
-1.5
  0
LTYPE
  2
AM_ISO08W050
 70
     0
  3
____ . ____ . ____ . ____ . ____ . ____ . ____
 72
    65
 73
     4
 40
18.0
 49
12.0
 49
-1.5
 49
3.0
 49
-1.5
  0
LTYPE
  2
AM_ISO09W050
 70
     0
  3
_____ . . _____ . . _____ . . ____ .. ____
 72
    65
 73
     6
 40
22.5
 49
12.0
 49
-1.5
 49
3.0
 49
-1.5
 49
3.0
 49
-1.5
  0
LTYPE
  2
AMCONSTR
 70
     0
  3
_______________________
 72
    65
 73
     2
 40
9999.0
 49
9999.0
 49
0.0
  0
LTYPE
  2
AM_ISO08W050X2
 70
     0
  3
__ . __ . __ . __ . __ . __
 72
    65
 73
     4
 40
9.0
 49
6.0
 49
-0.75
 49
1.5
 49
-0.75
  0
LTYPE
  2
AM_ISO02W050X2
 70
     0
  3
 _ _ _ _ _ _ _ _ _ _ _ _
 72
    65
 73
     2
 40
3.75
 49
3.0
 49
-0.75
  0
LTYPE
  2
AMZIGZAG
 70
     0
  3
/\/-/\/-/\/-/\/-/\/-/\/
 72
    65
 73
     2
 40
11.0001
 49
0.0001
 49
-11.0
  0
LTYPE
  2
ACISOWELD
 70
     0
  3
_ _ _ _ _
 72
    65
 73
     2
 40
2.0
 49
2.0
 49
-1.0
  0
LTYPE
  2
ACISOTGB
 70
     0
  3
__ . . __ . .
 72
    65
 73
     6
 40
9.0
 49
4.0
 49
-1.0
 49
1.0
 49
-1.0
 49
1.0
 49
-1.0
  0
LTYPE
  2
ACISOTGL
 70
     0
  3
_ _ _ _ _
 72
    65
 73
     2
 40
3.0
 49
2.0
 49
-1.0
  0
LTYPE
  2
CENTER
 70
     0
  3
__ . __
 72
    65
 73
     4
 40
7.0
 49
4.0
 49
-1.0
 49
1.0
 49
-1.0
  0
LTYPE
  2
HIDDEN
 70
     0
  3
Hidden __ __ __ __ __ __ __ __ __ __ __ __ __ _
 72
    65
 73
     2
 40
9.5249999999999986
 49
6.3499999999999979
 49
-3.174999999999998
  0
LTYPE
  2
PHANTOM2
 70
     0
  3
Phantom (.5x) ___ _ _ ___ _ _ ___ _ _ ___ _ _
 72
    65
 73
     6
 40
31.75
 49
15.875
 49
-3.174999999999998
 49
3.174999999999998
 49
-3.174999999999998
 49
3.174999999999998
 49
-3.174999999999998
  0
LTYPE
  2
ACANSTGBM
 70
     0
  3
__ . . __ . .
 72
    65
 73
     6
 40
9.0
 49
4.0
 49
-1.0
 49
1.0
 49
-1.0
 49
1.0
 49
-1.0
  0
LTYPE
  2
ACANSTGLM
 70
     0
  3
_ _ _ _ _
 72
    65
 73
     2
 40
3.0
 49
2.0
 49
-1.0
  0
LTYPE
  2
GEN7A
 70
     0
  3
__ . __ . __
 72
    65
 73
     4
 40
7.375
 49
4.75
 49
-0.875
 49
0.875
 49
-0.875
  0
LTYPE
  2
ACJISTGB
 70
     0
  3
__ . . __ . .
 72
    65
 73
     6
 40
9.0
 49
4.0
 49
-1.0
 49
1.0
 49
-1.0
 49
1.0
 49
-1.0
  0
LTYPE
  2
ACJISTGL
 70
     0
  3
_ _ _ _ _
 72
    65
 73
     2
 40
3.0
 49
2.0
 49
-1.0
  0
LTYPE
  2
GEN7
 70
     0
  3
____ . ____ . ____ . ____ . ____ . ____ . ____
 72
    65
 73
     4
 40
14.25
 49
9.75
 49
-1.5
 49
1.5
 49
-1.5
  0
LTYPE
  2
CENTER2
 70
     0
  3
Center (.5x) ___ _ ___ _ ___ _ ___ _ ___ _ ___
 72
    65
 73
     4
 40
1.125
 49
0.75
 49
-0.125
 49
0.125
 49
-0.125
  0
LTYPE
  2
HIDDEN2
 70
     0
  3
Hidden (.5x) _ _ _ _ _ _ _ _ _ _ _ _ _ _ _ _ _
 72
    65
 73
     2
 40
0.1875
 49
0.125
 49
-0.0625
  0
LTYPE
  2
AMZIGZAG2
 70
     0
  3
/\/-/\/-/\/-/\/-/\/-/\/
 72
    65
 73
     2
 40
0.4401
 49
0.0001
 49
-0.4400000000000001
  0
LTYPE
  2
ACANSTGB
 70
     0
  3
__ . . __ . .
 72
    65
 73
     6
 40
0.35433070866
 49
0.15748031496
 49
-0.03937007874
 49
0.03937007874
 49
-0.03937007874
 49
0.03937007874
 49
-0.03937007874
  0
LTYPE
  2
ACANSTGL
 70
     0
  3
_ _ _ _ _
 72
    65
 73
     2
 40
0.11811023622
 49
0.07874015748
 49
-0.03937007874
  0
ENDTAB
  0
TABLE
  2
LAYER
 70
     6
  0
LAYER
  2
0
 70
     0
 62
     7
  6
CONTINUOUS
  0
LAYER
  2
AM_0
 70
     0
 62
     7
  6
CONTINUOUS
  0
LAYER
  2
DEFPOINTS
 70
     0
 62
     7
  6
CONTINUOUS
  0
LAYER
  2
ﾁｭｳｼﾝｾﾝ1
 70
     0
 62
     1
  6
GEN7A
  0
LAYER
  2
AM_0N
 70
     0
 62
     7
  6
CONTINUOUS
  0
LAYER
  2
ﾁｭｳｼﾝｾﾝ
 70
     0
 62
     1
  6
GEN7
  0
ENDTAB
  0
TABLE
  2
STYLE
 70
    10
  0
STYLE
  2
STANDARD
 70
     0
 40
0.0
 41
0.8299999999999999
 50
0.0
 71
     0
 42
2.5
  3
txt.shx
  4
bigfont.shx
  0
STYLE
  2
ANNOTATIVE
 70
     0
 40
0.0
 41
1.0
 50
0.0
 71
     0
 42
0.2
  3
txt
  4

  0
STYLE
  2

 70
     1
 40
0.0
 41
1.0
 50
0.0
 71
     0
 42
2.5
  3
ltypeshp.shx
  4

  0
STYLE
  2
ACISOTS
 70
     0
 40
1.0
 41
1.0
 50
0.0
 71
     0
 42
2.5
  3
isocp.shx
  4
extfont.shx
  0
STYLE
  2
ACISOGDT
 70
     0
 40
0.0
 41
1.0
 50
0.0
 71
     0
 42
2.5
  3
amgdt.shx
  4

  0
STYLE
  2
ACANSTS
 70
     0
 40
1.0
 41
1.0
 50
0.0
 71
     0
 42
2.5
  3
romans.shx
  4
bigfont.shx
  0
STYLE
  2
ACANSGDT
 70
     0
 40
0.0
 41
1.0
 50
0.0
 71
     0
 42
2.5
  3
amgdt.shx
  4

  0
STYLE
  2
ACJISTS
 70
     0
 40
1.0
 41
1.0
 50
0.0
 71
     0
 42
2.5
  3
isocp.shx
  4
bigfont.shx
  0
STYLE
  2
ACJISGDT
 70
     0
 40
0.0
 41
1.0
 50
0.0
 71
     0
 42
2.5
  3
amgdt.shx
  4

  0
STYLE
  2

 70
     1
 40
0.0
 41
1.0
 50
0.0
 71
     0
 42
2.5
  3
genltshp.shx
  4

  0
ENDTAB
  0
TABLE
  2
VIEW
 70
     6
  0
VIEW
  2
AM_VIEW1
 70
     0
 40
277.50000000000011
 10
249.64779005524869
 20
416.25
 41
499.29558011049721
 11
0.0
 21
0.0
 31
1.0
 12
0.0
 22
0.0
 32
0.0
 42
50.0
 43
0.0
 44
0.0
 50
0.0
 71
     0
  0
VIEW
  2
AM_VIEW2
 70
     0
 40
277.50000000000011
 10
603.85220994475117
 20
416.25
 41
499.29558011049721
 11
0.0
 21
0.0
 31
1.0
 12
0.0
 22
0.0
 32
0.0
 42
50.0
 43
0.0
 44
0.0
 50
0.0
 71
     0
  0
VIEW
  2
AM_VIEW3
 70
     0
 40
277.50000000000011
 10
249.64779005524869
 20
138.75
 41
499.29558011049721
 11
0.0
 21
0.0
 31
1.0
 12
0.0
 22
0.0
 32
0.0
 42
50.0
 43
0.0
 44
0.0
 50
0.0
 71
     0
  0
VIEW
  2
AM_VIEW4
 70
     0
 40
277.50000000000011
 10
603.85220994475117
 20
138.75
 41
499.29558011049721
 11
0.0
 21
0.0
 31
1.0
 12
0.0
 22
0.0
 32
0.0
 42
50.0
 43
0.0
 44
0.0
 50
0.0
 71
     0
  0
VIEW
  2
AM_VIEW5
 70
     0
 40
277.50000000000011
 10
426.75
 20
277.50000000000011
 41
499.2955801104971
 11
0.0
 21
0.0
 31
1.0
 12
0.0
 22
0.0
 32
0.0
 42
50.0
 43
0.0
 44
0.0
 50
0.0
 71
     0
  0
VIEW
  2
AM_VIEW6
 70
     0
 40
554.99445000000014
 10
426.75
 20
277.5
 41
998.5811743093924
 11
0.0
 21
0.0
 31
1.0
 12
0.0
 22
0.0
 32
0.0
 42
50.0
 43
0.0
 44
0.0
 50
0.0
 71
     0
  0
ENDTAB
  0
TABLE
  2
UCS
 70
     0
  0
ENDTAB
  0
TABLE
  2
APPID
 70
   101
  0
APPID
  2
ACAD
 70
     0
  0
APPID
  2
ACADANNOTATIVE
 70
     0
  0
APPID
  2
MCAD_NO_VIS
 70
     0
  0
APPID
  2
ACAD_TEMP_GRAPHIC
 70
     0
  0
APPID
  2
ACATTRIBSERVICES
 70
     0
  0
APPID
  2
GENIUS_GENREC_14
 70
     0
  0
APPID
  2
GENIUS_GENOBJ-N-REC_13
 70
     0
  0
APPID
  2
GENIUS_GENODEF_13
 70
     0
  0
APPID
  2
GENIUS_GENOLIS_13
 70
     0
  0
APPID
  2
GENIUS_GENOBJ-N-TIT_13
 70
     0
  0
APPID
  2
GENIUS_GENOENT_13
 70
     0
  0
APPID
  2
GENIUS_GENTITLE_13
 70
     0
  0
APPID
  2
GENIUS_GENOREF_13
 70
     0
  0
APPID
  2
GENIUS_GENSCREG_15
 70
     0
  0
APPID
  2
GENIUS_GENOBJ-N-SDF_13
 70
     0
  0
APPID
  2
GENIUS_GENFIL_13
 70
     0
  0
APPID
  2
GENIUS_GENOBJ-N-CHA_13
 70
     0
  0
APPID
  2
GENIUS_GENDTOL_13
 70
     0
  0
APPID
  2
GENIUS_GENOBJ-N-FIL_13
 70
     0
  0
APPID
  2
AD_DRAW
 70
     0
  0
APPID
  2
DESIGNERASSEMBLIES
 70
     0
  0
APPID
  2
ASURF_PCURVE_APPNAME
 70
     0
  0
APPID
  2
GENIUS_GE3SECT_13
 70
     0
  0
APPID
  2
GENIUS_GENCFG_13
 70
     0
  0
APPID
  2
GENIUS_GE3CFG0_13
 70
     0
  0
APPID
  2
GENIUS_GENCFG0_13
 70
     0
  0
APPID
  2
GENIUS_GENCFG1_13
 70
     0
  0
APPID
  2
GENIUS_GENCFG2_13
 70
     0
  0
APPID
  2
GENIUS_GENCFG3_13
 70
     0
  0
APPID
  2
GENIUS_GENCFG4_13
 70
     0
  0
APPID
  2
GENIUS_GEVCFG0_13
 70
     0
  0
APPID
  2
GENIUS_GENHINW_13
 70
     0
  0
APPID
  2
GENIUS_FIRSTVISTXT_14
 70
     0
  0
APPID
  2
GENIUS_GENOBJ-N-LEADER_13
 70
     0
  0
APPID
  2
GEV_VCCNULL_SWITCH_OFF
 70
     0
  0
APPID
  2
GENIUS_GEFCFG0_13
 70
     0
  0
APPID
  2
GENIUS_GENZVEED_13
 70
     0
  0
APPID
  2
GENIUS_GENSCREG_13
 70
     0
  0
APPID
  2
GENIUS_DUMCFG0_13
 70
     0
  0
APPID
  2
GEVID936201362
 70
     0
  0
APPID
  2
GEVDC
 70
     0
  0
APPID
  2
GEVCON
 70
     0
  0
APPID
  2
VCC
 70
     0
  0
APPID
  2
GEVPT
 70
     0
  0
APPID
  2
GEVIT
 70
     0
  0
APPID
  2
GENBH
 70
     0
  0
APPID
  2
GEVMK
 70
     0
  0
APPID
  2
GENIUS_GENBH_13
 70
     0
  0
APPID
  2
GENIUS_GENOBJ-NBEHI-BHF_13
 70
     0
  0
APPID
  2
GENIUS_GENOBJ-NBEHI-BHB_13
 70
     0
  0
APPID
  2
GENIUS_GENOBJ-F-DESC_13
 70
     0
  0
APPID
  2
GENIUS_GEFDESC_14
 70
     0
  0
APPID
  2
GENIUS_GENOBJ-F-PART_13
 70
     0
  0
APPID
  2
GENIUS_GEFSTDP_13
 70
     0
  0
APPID
  2
GENIUS_GEFPARTINS_13
 70
     0
  0
APPID
  2
GENIUS_GENTRA_14
 70
     0
  0
APPID
  2
GENIUS_GENINF13_13
 70
     0
  0
APPID
  2
GENIUS_GENOBJ-N-INFOPT_13
 70
     0
  0
APPID
  2
GENIUS_GENOBJ-N-RSSYM_13
 70
     0
  0
APPID
  2
GENIUS_GENSYMENT_13
 70
     0
  0
APPID
  2
GENIUS_GENSCSYM_13
 70
     0
  0
APPID
  2
GENIUS_GEFINFNAM_13
 70
     0
  0
APPID
  2
GENIUS_GENOBJ-N-CEN_13
 70
     0
  0
APPID
  2
GENIUS_GENOBJ-N-CRS_13
 70
     0
  0
APPID
  2
GENIUS_GENOBJ-N-CRC_13
 70
     0
  0
APPID
  2
GENIUS_GENCRC_14
 70
     0
  0
APPID
  2
GEVID942827039
 70
     0
  0
APPID
  2
GEVID942827040
 70
     0
  0
APPID
  2
GEVID942827041
 70
     0
  0
APPID
  2
GENIUS_GENOBJ-F-SCPASSM_13
 70
     0
  0
APPID
  2
GENIUS_GENDIMSH_14
 70
     0
  0
APPID
  2
GEVID942827042
 70
     0
  0
APPID
  2
GEVID946020473
 70
     0
  0
APPID
  2
GEVID946020474
 70
     0
  0
APPID
  2
GEVID946020475
 70
     0
  0
APPID
  2
GENIUS_GENOBJ-N-HTC_13
 70
     0
  0
APPID
  2
GENIUS_GENHATCH_13
 70
     0
  0
APPID
  2
GEVID948854295
 70
     0
  0
APPID
  2
GEVID939402019
 70
     0
  0
APPID
  2
GEVID952919491
 70
     0
  0
APPID
  2
GEVID952919492
 70
     0
  0
APPID
  2
GENIUS_GEFWELD_13
 70
     0
  0
APPID
  2
GENIUS_GENOBJ-F-WELS_13
 70
     0
  0
APPID
  2
GEVID952919493
 70
     0
  0
APPID
  2
GENIUS_GENOBJ-N-RSBK_13
 70
     0
  0
APPID
  2
GENIUS_GENOBJ-N-LIB_13
 70
     0
  0
APPID
  2
GENIUS_GENSCALE_13
 70
     0
  0
APPID
  2
GEVID986376691
 70
     0
  0
APPID
  2
DCO15
 70
     0
  0
APPID
  2
GEVID988070561
 70
     0
  0
APPID
  2
GEVID988070562
 70
     0
  0
APPID
  2
GEVID988070563
 70
     0
  0
APPID
  2
ACADM_DIM_EDIT
 70
     0
  0
APPID
  2
AMDT_DM_ADJ
 70
     0
  0
APPID
  2
ACAD_PSEXT
 70
     0
  0
APPID
  2
ACAD_DSTYLE_DIMJAG
 70
     0
  0
APPID
  2
ACAD_DSTYLE_DIMBREAK
 70
     0
  0
APPID
  2
ACAD_NAV_VCDISPLAY
 70
     0
  0
APPID
  2
ACADANNOPO
 70
     0
  0
APPID
  2
ACAD_EXEMPT_FROM_CAD_STANDARDS
 70
     0
  0
APPID
  2
ACAD_MLEADERVER
 70
     0
  0
ENDTAB
  0
TABLE
  2
DIMSTYLE
 70
    23
  0
DIMSTYLE
  2
STANDARD
 70
     0
  3

  4

  5

  6

  7

 40
1.0
 41
0.18
 42
0.0625
 43
0.38
 44
0.18
 45
0.0
 46
0.0
 47
0.0
 48
0.0
140
0.18
141
0.09
142
0.0
143
25.399999999999999
144
1.0
145
0.0
146
1.0
147
0.09
 71
     0
 72
     0
 73
     1
 74
     1
 75
     0
 76
     0
 77
     0
 78
     0
170
     0
171
     2
172
     0
173
     0
174
     0
175
     0
176
     0
177
     0
178
     0
  0
DIMSTYLE
  2
ANNOTATIVE
 70
     0
  3

  4

  5

  6

  7

 40
1.0
 41
0.18
 42
0.0625
 43
0.38
 44
0.18
 45
0.0
 46
0.0
 47
0.0
 48
0.0
140
0.18
141
0.09
142
0.0
143
25.399999999999999
144
1.0
145
0.0
146
1.0
147
0.09
 71
     0
 72
     0
 73
     1
 74
     1
 75
     0
 76
     0
 77
     0
 78
     0
170
     0
171
     2
172
     0
173
     0
174
     0
175
     0
176
     0
177
     0
178
     0
  0
DIMSTYLE
  2
AM_ISO
 70
     0
  3

  4
"
  5

  6

  7

 40
1.0
 41
2.5
 42
1.0
 43
8.0
 44
0.6
 45
0.0
 46
0.0
 47
0.1
 48
0.1
140
2.5
141
0.0
142
0.0
143
0.0393701
144
1.0
145
0.0
146
0.71
147
0.8
 71
     0
 72
     0
 73
     0
 74
     0
 75
     0
 76
     0
 77
     1
 78
     8
170
     0
171
     2
172
     1
173
     0
174
     0
175
     0
176
   256
177
   256
178
     4
  0
DIMSTYLE
  2
AM_ISO$3
 70
     0
  3

  4
"
  5

  6

  7

 40
1.0
 41
2.5
 42
1.0
 43
8.0
 44
0.6
 45
0.0
 46
0.0
 47
0.1
 48
0.1
140
2.5
141
0.0
142
0.0
143
0.0393701
144
1.0
145
0.0
146
0.71
147
0.8
 71
     0
 72
     0
 73
     0
 74
     1
 75
     0
 76
     0
 77
     1
 78
     8
170
     0
171
     2
172
     0
173
     0
174
     0
175
     0
176
   256
177
   256
178
     4
  0
DIMSTYLE
  2
AM_ISO$4
 70
     0
  3

  4
"
  5

  6

  7

 40
1.0
 41
2.5
 42
1.0
 43
8.0
 44
0.6
 45
0.0
 46
0.0
 47
0.1
 48
0.1
140
2.5
141
0.0
142
0.0
143
0.0393701
144
1.0
145
0.0
146
0.71
147
0.8
 71
     0
 72
     0
 73
     0
 74
     1
 75
     0
 76
     0
 77
     1
 78
     8
170
     0
171
     2
172
     0
173
     0
174
     0
175
     0
176
   256
177
   256
178
     4
  0
DIMSTYLE
  2
AM_ISO$6
 70
     0
  3

  4
"
  5

  6

  7

 40
1.0
 41
2.5
 42
1.0
 43
8.0
 44
0.6
 45
0.0
 46
0.0
 47
0.1
 48
0.1
140
2.5
141
0.0
142
0.0
143
0.0393701
144
1.0
145
0.0
146
0.71
147
0.8
 71
     0
 72
     0
 73
     0
 74
     0
 75
     0
 76
     0
 77
     0
 78
     8
170
     0
171
     2
172
     1
173
     0
174
     0
175
     0
176
   256
177
   256
178
     4
  0
DIMSTYLE
  2
AM_ISO$7
 70
     0
  3

  4
"
  5

  6

  7

 40
1.0
 41
2.5
 42
1.0
 43
8.0
 44
0.6
 45
0.0
 46
0.0
 47
0.1
 48
0.1
140
2.5
141
0.0
142
0.0
143
0.0393701
144
1.0
145
0.0
146
0.71
147
0.8
 71
     0
 72
     0
 73
     0
 74
     0
 75
     0
 76
     0
 77
     1
 78
     8
170
     0
171
     2
172
     1
173
     0
174
     0
175
     0
176
   256
177
   256
178
     4
  0
DIMSTYLE
  2
AM_ISO$SF
 70
     0
  3

  4
"
  5

  6

  7

 40
1.0
 41
2.5
 42
1.0
 43
10.0
 44
1.0
 45
0.0
 46
0.0
 47
0.1
 48
0.1
140
3.5
141
0.0
142
0.0
143
0.0393701
144
1.0
145
0.0
146
0.71
147
1.5
 71
     0
 72
     0
 73
     0
 74
     0
 75
     1
 76
     1
 77
     1
 78
     8
170
     0
171
     2
172
     1
173
     0
174
     0
175
     0
176
   256
177
   256
178
     2
  0
DIMSTYLE
  2
AM_ISO$SH
 70
     0
  3

  4
"
  5

  6

  7

 40
1.0
 41
2.5
 42
1.0
 43
10.0
 44
1.0
 45
0.0
 46
0.0
 47
0.1
 48
0.1
140
3.5
141
0.0
142
0.0
143
0.0393701
144
2.0
145
0.0
146
0.71
147
1.5
 71
     0
 72
     0
 73
     0
 74
     0
 75
     1
 76
     1
 77
     1
 78
     8
170
     0
171
     2
172
     1
173
     1
174
     0
175
     0
176
   256
177
   256
178
     2
  0
DIMSTYLE
  2
AM_JIS
 70
     0
  3

  4
"
  5

  6

  7

 40
1.0
 41
2.5
 42
1.0
 43
7.0
 44
1.0
 45
0.0
 46
0.0
 47
0.1
 48
0.1000000001
140
2.5
141
0.0
142
0.0
143
0.0393701
144
1.0
145
0.0
146
0.71
147
1.0
 71
     0
 72
     0
 73
     0
 74
     0
 75
     0
 76
     0
 77
     3
 78
     8
170
     0
171
     2
172
     1
173
     0
174
     0
175
     0
176
   256
177
   256
178
     4
  0
DIMSTYLE
  2
AM_JIS$3
 70
     0
  3

  4
"
  5

  6

  7

 40
1.0
 41
2.5
 42
1.0
 43
7.0
 44
1.0
 45
0.0
 46
0.0
 47
0.1
 48
0.1000000001
140
2.5
141
0.0
142
0.0
143
0.0393701
144
1.0
145
0.0
146
0.71
147
1.0
 71
     0
 72
     0
 73
     0
 74
     1
 75
     0
 76
     0
 77
     3
 78
     8
170
     0
171
     2
172
     0
173
     0
174
     0
175
     0
176
   256
177
   256
178
     4
  0
DIMSTYLE
  2
AM_JIS$4
 70
     0
  3

  4
"
  5

  6

  7

 40
1.0
 41
2.5
 42
1.0
 43
7.0
 44
1.0
 45
0.0
 46
0.0
 47
0.1
 48
0.1000000001
140
2.5
141
0.0
142
0.0
143
0.0393701
144
1.0
145
0.0
146
0.71
147
1.0
 71
     0
 72
     0
 73
     0
 74
     0
 75
     0
 76
     0
 77
     3
 78
     8
170
     0
171
     2
172
     0
173
     0
174
     0
175
     0
176
   256
177
   256
178
     4
  0
DIMSTYLE
  2
AM_JIS$6
 70
     0
  3

  4
"
  5

  6

  7

 40
1.0
 41
2.5
 42
1.0
 43
7.0
 44
1.0
 45
0.0
 46
0.0
 47
0.1
 48
0.1000000001
140
2.5
141
0.0
142
0.0
143
0.0393701
144
1.0
145
0.0
146
0.71
147
1.0
 71
     0
 72
     0
 73
     0
 74
     0
 75
     0
 76
     0
 77
     0
 78
     8
170
     0
171
     2
172
     1
173
     0
174
     0
175
     0
176
   256
177
   256
178
     4
  0
DIMSTYLE
  2
AM_JIS$7
 70
     0
  3

  4
"
  5

  6

  7

 40
1.0
 41
2.5
 42
1.0
 43
7.0
 44
1.0
 45
0.0
 46
0.0
 47
0.1
 48
0.1000000001
140
2.5
141
0.0
142
0.0
143
0.0393701
144
1.0
145
0.0
146
0.71
147
1.0
 71
     0
 72
     0
 73
     0
 74
     0
 75
     0
 76
     0
 77
     3
 78
     8
170
     0
171
     2
172
     1
173
     0
174
     0
175
     0
176
   256
177
   256
178
     4
  0
DIMSTYLE
  2
AM_JIS$SF
 70
     0
  3

  4
"
  5

  6

  7

 40
1.0
 41
2.5
 42
1.0
 43
10.0
 44
1.0
 45
0.0
 46
0.0
 47
0.1
 48
0.1
140
3.5
141
0.0
142
0.0
143
0.0393701
144
1.0
145
0.0
146
0.71
147
1.5
 71
     0
 72
     0
 73
     0
 74
     0
 75
     1
 76
     1
 77
     3
 78
     8
170
     0
171
     2
172
     1
173
     0
174
     0
175
     0
176
   256
177
   256
178
     4
  0
DIMSTYLE
  2
AM_JIS$SH
 70
     0
  3

  4
"
  5

  6

  7

 40
1.0
 41
2.5
 42
1.0
 43
10.0
 44
1.0
 45
0.0
 46
0.0
 47
0.1
 48
0.1
140
3.5
141
0.0
142
0.0
143
0.0393701
144
1.0
145
0.0
146
0.71
147
1.5
 71
     0
 72
     0
 73
     0
 74
     0
 75
     1
 76
     0
 77
     3
 78
     8
170
     0
171
     2
172
     1
173
     1
174
     0
175
     0
176
   256
177
   256
178
     4
  0
DIMSTYLE
  2
AM_ISO$0
 70
     0
  3

  4
"
  5

  6

  7

 40
1.0
 41
2.5
 42
1.0
 43
8.0
 44
0.6
 45
0.0
 46
0.0
 47
0.1
 48
0.1
140
2.5
141
0.0
142
0.0
143
0.0393701
144
1.0
145
0.0
146
0.71
147
0.8
 71
     0
 72
     0
 73
     0
 74
     0
 75
     0
 76
     0
 77
     1
 78
     8
170
     0
171
     2
172
     1
173
     0
174
     0
175
     0
176
   256
177
   256
178
     4
  0
DIMSTYLE
  2
AM_ANSI
 70
     0
  3

  4
mm
  5

  6

  7

 40
1.0
 41
0.12
 42
0.05
 43
0.5
 44
0.1
 45
0.0
 46
0.0
 47
0.1
 48
0.1
140
0.12
141
0.0
142
0.0
143
25.399999999999999
144
1.0
145
0.0
146
0.71
147
0.06
 71
     0
 72
     0
 73
     1
 74
     1
 75
     0
 76
     0
 77
     0
 78
     7
170
     0
171
     2
172
     0
173
     0
174
     0
175
     0
176
   256
177
   256
178
     2
  0
DIMSTYLE
  2
AM_ANSI$3
 70
     0
  3

  4
mm
  5

  6

  7

 40
1.0
 41
0.12
 42
0.05
 43
0.5
 44
0.1
 45
0.0
 46
0.0
 47
0.1
 48
0.1
140
0.12
141
0.0
142
0.0
143
25.399999999999999
144
1.0
145
0.0
146
0.71
147
0.06
 71
     0
 72
     0
 73
     1
 74
     1
 75
     0
 76
     0
 77
     0
 78
     7
170
     0
171
     2
172
     0
173
     0
174
     0
175
     0
176
   256
177
   256
178
     2
  0
DIMSTYLE
  2
AM_ANSI$4
 70
     0
  3

  4
mm
  5

  6

  7

 40
1.0
 41
0.12
 42
0.05
 43
0.5
 44
0.1
 45
0.0
 46
0.0
 47
0.1
 48
0.1
140
0.12
141
0.0
142
0.0
143
25.399999999999999
144
1.0
145
0.0
146
0.71
147
0.06
 71
     0
 72
     0
 73
     1
 74
     1
 75
     0
 76
     0
 77
     0
 78
     7
170
     0
171
     2
172
     0
173
     0
174
     0
175
     0
176
   256
177
   256
178
     2
  0
DIMSTYLE
  2
AM_ANSI$7
 70
     0
  3

  4
mm
  5

  6

  7

 40
1.0
 41
0.12
 42
0.05
 43
0.5
 44
0.1
 45
0.0
 46
0.0
 47
0.1
 48
0.1
140
0.12
141
0.0
142
0.0
143
25.399999999999999
144
1.0
145
0.0
146
0.71
147
0.06
 71
     0
 72
     0
 73
     1
 74
     1
 75
     0
 76
     0
 77
     0
 78
     7
170
     0
171
     2
172
     0
173
     0
174
     0
175
     0
176
   256
177
   256
178
     2
  0
DIMSTYLE
  2
AM_ANSI$SF
 70
     0
  3

  4
mm
  5

  6

  7

 40
1.0
 41
0.12
 42
0.05
 43
0.5
 44
0.1
 45
0.0
 46
0.0
 47
0.1
 48
0.1
140
0.12
141
0.0
142
0.0
143
25.399999999999999
144
1.0
145
0.0
146
0.71
147
0.06
 71
     0
 72
     0
 73
     1
 74
     1
 75
     1
 76
     1
 77
     0
 78
     7
170
     0
171
     2
172
     0
173
     0
174
     0
175
     0
176
   256
177
   256
178
     2
  0
DIMSTYLE
  2
AM_ANSI$SH
 70
     0
  3

  4
mm
  5

  6
GENAXEH
  7

 40
1.0
 41
0.12
 42
0.05
 43
0.5
 44
0.1
 45
0.0
 46
0.0
 47
0.1
 48
0.1
140
0.12
141
0.0
142
0.0
143
25.399999999999999
144
1.0
145
0.0
146
0.71
147
0.06
 71
     0
 72
     0
 73
     1
 74
     1
 75
     1
 76
     1
 77
     0
 78
     7
170
     0
171
     2
172
     0
173
     1
174
     0
175
     0
176
   256
177
   256
178
     2
  0
ENDTAB
  0
ENDSEC
  0
SECTION
  2
BLOCKS
  0
BLOCK
  8
0
  2
$MODEL_SPACE
 70
     0
 10
0.0
 20
0.0
 30
0.0
  3
$MODEL_SPACE
  1

  0
ENDBLK
  5
62E6
  8
0
  0
BLOCK
 67
     1
  8
0
  2
$PAPER_SPACE
 70
     0
 10
0.0
 20
0.0
 30
0.0
  3
$PAPER_SPACE
  1

  0
ENDBLK
  5
62E2
 67
     1
  8
0
  0
BLOCK
  8
0
  2
GENAXEH
 70
     0
 10
0.0
 20
0.0
 30
0.0
  3
GENAXEH
  1

  0
LINE
  5
73
  8
0
 10
-1.0
 20
0.0
 30
0.0
 11
1.0
 21
0.0
 31
0.0
  0
ENDBLK
  5
75
  8
0
  0
BLOCK
  8
0
  2
_OPEN30
 70
     0
 10
0.0
 20
0.0
 30
0.0
  3
_OPEN30
  1

  0
LINE
  5
31A
  8
0
 62
     0
 10
-1.0
 20
0.26794919
 30
0.0
 11
0.0
 21
0.0
 31
0.0
  0
LINE
  5
31B
  8
0
 62
     0
 10
0.0
 20
0.0
 30
0.0
 11
-1.0
 21
-0.26794919
 31
0.0
  0
LINE
  5
31C
  8
0
 62
     0
 10
0.0
 20
0.0
 30
0.0
 11
-1.0
 21
0.0
 31
0.0
  0
ENDBLK
  5
31E
  8
0
  0
BLOCK
  8
0
  2
_NONE
 70
     0
 10
0.0
 20
0.0
 30
0.0
  3
_NONE
  1

  0
ENDBLK
  5
579
  8
0
  0
BLOCK
  8
0
  2
*U5
 70
     1
 10
0.0
 20
0.0
 30
0.0
  3
*U5
  1

  0
TEXT
  5
6273
  8
AM_0
 10
535.51932774086208
 20
499.32181990556847
 30
0.0
 40
10.0
  1
ＶＸ０２－０４０～０６０ＭＦＷ
 41
0.8299999999999999
  0
ENDBLK
  5
6275
  8
0
  0
BLOCK
  8
0
  2
_ACMFILLEDHALF
 70
     0
 10
0.0
 20
0.0
 30
0.0
  3
_ACMFILLEDHALF
  1

  0
TRACE
  5
63E7
  8
AM_0
 62
     0
 10
-0.8
 20
0.0
 30
0.0
 11
-1.0
 21
0.166666666
 31
0.0
 12
0.0
 22
0.0
 32
0.0
 13
0.0
 23
0.0
 33
0.0
  0
LINE
  5
63E8
  8
AM_0
 62
     0
 10
-1.0
 20
0.0
 30
0.0
 11
-0.8
 21
0.0
 31
0.0
  0
ENDBLK
  5
63E6
  8
0
  0
ENDSEC
  0
SECTION
  2
ENTITIES
  0
LINE
  5
56AD
  8
AM_0
 10
245.57311847969549
 20
195.4912695717824
 30
0.0
 11
248.57311847969541
 21
195.4912695717824
 31
0.0
  0
LINE
  5
56AE
  8
AM_0
 10
245.57311847969541
 20
271.93736857178237
 30
0.0
 11
248.57311847969541
 21
271.93736857178237
 31
0.0
  0
LINE
  5
56AF
  8
AM_0
 10
143.77954847969531
 20
177.43110157178239
 30
0.0
 11
240.69928847969541
 21
177.43110157178239
 31
0.0
  0
LINE
  5
56B0
  8
AM_0
 10
142.2510484796953
 20
196.99126957178231
 30
0.0
 11
149.57311847969541
 21
196.9912695717824
 31
0.0
  0
LINE
  5
56B1
  8
AM_0
 10
149.57311847969541
 20
199.7143515717822
 30
0.0
 11
142.93852847969521
 21
199.7143515717822
 31
0.0
  0
LINE
  5
56B2
  8
AM_0
 10
149.57311847969541
 20
197.71435357178231
 30
0.0
 11
142.93852847969521
 21
197.71435357178231
 31
0.0
  0
LINE
  5
56B3
  8
AM_0
 10
149.57311847969541
 20
269.71436857178242
 30
0.0
 11
142.93852847969521
 21
269.71436857178242
 31
0.0
  0
LINE
  5
56B4
  8
AM_0
 10
149.57311847969541
 20
267.71435557178251
 30
0.0
 11
142.93852847969521
 21
267.71435557178251
 31
0.0
  0
LINE
  5
56B5
  8
AM_0
 10
142.2504184796953
 20
270.43736857178237
 30
0.0
 11
149.57311847969541
 21
270.43736857178237
 31
0.0
  0
LINE
  5
56B6
  8
AM_0
 10
143.77954847969531
 20
289.99760857178239
 30
0.0
 11
240.69928847969541
 21
289.99760857178239
 31
0.0
  0
ARC
  5
56B7
  8
AM_0
 10
142.2504184796953
 20
268.75945957178237
 30
0.0
 40
1.6779127499999991
 50
90.00000299999769
 51
270.0
  0
ARC
  5
56B8
  8
AM_0
 10
143.12248847969531
 20
268.71435457178239
 30
0.0
 40
1.0000000199999981
 50
90.00000299999769
 51
270.0
  0
LINE
  5
56B9
  8
AM_0
 10
128.57311847969541
 20
269.10723757178238
 30
0.0
 11
128.57311847969541
 21
268.04730157178238
 31
0.0
  0
ARC
  5
56BA
  8
AM_0
 10
127.5731284796952
 20
267.88909657178237
 30
0.0
 40
1.0000000199999981
 50
113.12703000000219
 51
180.0000100000002
  0
LINE
  5
56BB
  8
AM_0
 10
128.38495847969531
 20
269.32327057178247
 30
0.0
 11
127.1803684796954
 21
268.80880657178238
 31
0.0
  0
LINE
  5
56BC
  8
AM_0
 10
126.57310847969531
 20
281.73071857178252
 30
0.0
 11
126.57310847969531
 21
244.7143535717826
 31
0.0
  0
LINE
  5
56BD
  8
AM_0
 10
132.57310847969529
 20
286.71434857178252
 30
0.0
 11
132.57310847969529
 21
245.71435357178251
 31
0.0
  0
LINE
  5
56BE
  8
AM_0
 10
132.57310847969529
 20
221.7143535717826
 30
0.0
 11
132.57310847969529
 21
180.71436757178239
 31
0.0
  0
LINE
  5
56BF
  8
AM_0
 10
140.57311847969541
 20
286.71434857178252
 30
0.0
 11
140.57311847969541
 21
184.27411957178239
 31
0.0
  0
LINE
  5
56C0
  8
AM_0
 10
131.57311847969541
 20
283.71434857178252
 30
0.0
 11
131.57311847969541
 21
245.71435357178251
 31
0.0
  0
LINE
  5
56C1
  8
AM_0
 10
131.57311847969541
 20
221.7143535717826
 30
0.0
 11
131.57311847969541
 21
182.59112257178239
 31
0.0
  0
LINE
  5
56C2
  8
AM_0
 10
145.9385884796954
 20
197.0630775717824
 30
0.0
 11
140.5731784796952
 21
185.6186025717825
 31
0.0
  0
ARC
  5
56C3
  8
AM_0
 10
127.5731284796952
 20
185.6979495717824
 30
0.0
 40
1.0000000199999981
 50
179.9999899999998
 51
239.97361000000231
  0
LINE
  5
56C4
  8
AM_0
 10
128.35972847969521
 20
185.2195995717824
 30
0.0
 11
127.1204884796953
 21
185.84863057178239
 31
0.0
  0
ARC
  5
56C5
  8
AM_0
 10
177.57310847969529
 20
176.58471157178241
 30
0.0
 40
2.00000007
 50
270.0
 51
0.0
  0
ARC
  5
56C6
  8
AM_0
 10
177.57310847969529
 20
173.82641257178241
 30
0.0
 40
2.00000007
 50
270.0
 51
0.0
  0
LINE
  5
56C7
  8
AM_0
 10
179.57311847969541
 20
173.82641257178241
 30
0.0
 11
179.57311847969541
 21
177.43110157178239
 31
0.0
  0
ARC
  5
56C8
  8
AM_0
 10
177.57310847969529
 20
174.7369335717824
 30
0.0
 40
2.00000007
 50
270.0
 51
0.0
  0
LINE
  5
56C9
  8
AM_0
 10
140.57311847969541
 20
185.61857257178249
 30
0.0
 11
141.81433847969521
 21
179.0592165717822
 31
0.0
  0
LINE
  5
56CA
  8
AM_0
 10
140.57311847969541
 20
184.2740445717825
 30
0.0
 11
141.8532184796953
 21
176.26887157178251
 31
0.0
  0
LINE
  5
56CB
  8
AM_0
 10
140.57305847969519
 20
182.92951657178239
 30
0.0
 11
141.86413847969541
 21
174.43639657178241
 31
0.0
  0
ARC
  5
56CC
  8
AM_0
 10
143.77954847969531
 20
179.4310875717824
 30
0.0
 40
2.00000007
 50
190.71569000000031
 51
270.0
  0
ARC
  5
56CD
  8
AM_0
 10
143.82811847969541
 20
176.58471157178241
 30
0.0
 40
2.00000007
 50
189.08497000000031
 51
270.0
  0
LINE
  5
56CE
  8
AM_0
 10
131.57311847969541
 20
183.71436757178239
 30
0.0
 11
132.57310847969529
 21
183.71436757178239
 31
0.0
  0
ARC
  5
56CF
  8
AM_0
 10
131.07310847969529
 20
183.4649775717825
 30
0.0
 40
0.5000000100000001
 50
0.0
 51
90.00000299999769
  0
ARC
  5
56D0
  8
AM_0
 10
131.07310847969529
 20
185.6112645717823
 30
0.0
 40
0.5000000100000001
 50
270.0
 51
0.0
  0
LINE
  5
56D1
  8
AM_0
 10
132.57310847969529
 20
180.71436757178239
 30
0.0
 11
140.57311847969541
 21
180.71436757178239
 31
0.0
  0
ARC
  5
56D2
  8
AM_0
 10
143.8627984796953
 20
173.82641257178241
 30
0.0
 40
2.00000007
 50
187.9440399999998
 51
270.0
  0
LINE
  5
56D3
  8
AM_0
 10
140.57305847969519
 20
182.92947157178239
 30
0.0
 11
141.88195847969541
 21
173.55002857178241
 31
0.0
  0
ARC
  5
56D4
  8
AM_0
 10
143.84149847969539
 20
174.7369335717824
 30
0.0
 40
2.00000007
 50
188.64338999999981
 51
270.0
  0
ARC
  5
56D5
  8
AM_0
 10
128.84131847969519
 20
184.9649775717825
 30
0.0
 40
1.0000000199999981
 50
239.97359999999699
 51
270.0
  0
ARC
  5
56D6
  8
AM_0
 10
128.81236847969529
 20
186.11126257178239
 30
0.0
 40
1.0000000199999981
 50
243.0887399999979
 51
270.0
  0
LINE
  5
56D7
  8
AM_0
 10
128.57311847969541
 20
184.2181965717825
 30
0.0
 11
128.57311847969541
 21
184.7439705717824
 31
0.0
  0
LINE
  5
56D8
  8
AM_0
 10
128.3409484796955
 20
184.09916257178239
 30
0.0
 11
127.0727584796953
 21
184.83214957178231
 31
0.0
  0
LINE
  5
56D9
  8
AM_0
 10
128.84131847969519
 20
183.96496357178239
 30
0.0
 11
131.07310847969529
 21
183.96496357178239
 31
0.0
  0
LINE
  5
56DA
  8
AM_0
 10
128.81236847969529
 20
185.11127857178221
 30
0.0
 11
131.07310847969529
 21
185.11127857178221
 31
0.0
  0
LINE
  5
56DB
  8
AM_0
 10
143.82811847969541
 20
174.58472857178239
 30
0.0
 11
177.57310847969529
 21
174.58472857178239
 31
0.0
  0
LINE
  5
56DC
  8
AM_0
 10
143.84149847969539
 20
172.7369355717824
 30
0.0
 11
177.57310847969529
 21
172.7369355717824
 31
0.0
  0
LINE
  5
56DD
  8
AM_0
 10
143.8627984796953
 20
171.82642657178241
 30
0.0
 11
177.57310847969529
 21
171.82642657178241
 31
0.0
  0
ARC
  5
56DE
  8
AM_0
 10
130.57312847969521
 20
266.45745757178253
 30
0.0
 40
1.0000000199999981
 50
0.0
 51
90.00000299999769
  0
LINE
  5
56DF
  8
AM_0
 10
148.5731184796953
 20
257.71435357178251
 30
0.0
 11
142.93852847969521
 21
257.71435357178251
 31
0.0
  0
LINE
  5
56E0
  8
AM_0
 10
148.5731184796953
 20
259.71435457178251
 30
0.0
 11
142.93852847969521
 21
259.71435457178251
 31
0.0
  0
ARC
  5
56E1
  8
AM_0
 10
142.0345984796954
 20
258.7390125717825
 30
0.0
 40
1.461486869999999
 50
90.00000299999769
 51
270.0
  0
ARC
  5
56E2
  8
AM_0
 10
143.12248847969531
 20
258.71435557178239
 30
0.0
 40
1.0000000199999981
 50
90.00000299999769
 51
270.0
  0
LINE
  5
56E3
  8
AM_0
 10
142.0345984796954
 20
257.27752657178252
 30
0.0
 11
148.57311847969541
 21
257.27752657178252
 31
0.0
  0
LINE
  5
56E4
  8
AM_0
 10
142.0345984796954
 20
260.20049857178242
 30
0.0
 11
148.57311847969541
 21
260.20049857178242
 31
0.0
  0
LINE
  5
56E5
  8
AM_0
 10
148.57311847969541
 20
249.71435257178251
 30
0.0
 11
142.93852847969521
 21
249.71435257178251
 31
0.0
  0
LINE
  5
56E6
  8
AM_0
 10
148.57311847969541
 20
247.71435457178251
 30
0.0
 11
142.93852847969521
 21
247.71435457178251
 31
0.0
  0
ARC
  5
56E7
  8
AM_0
 10
141.90403847969509
 20
248.7269265717824
 30
0.0
 40
1.3309326599999991
 50
90.00000299999769
 51
270.0
  0
ARC
  5
56E8
  8
AM_0
 10
143.12248847969531
 20
248.7143535717824
 30
0.0
 40
1.0000000199999981
 50
90.00000299999769
 51
270.0
  0
LINE
  5
56E9
  8
AM_0
 10
141.90403847969509
 20
250.05785857178239
 30
0.0
 11
148.57311847969541
 21
250.0578585717825
 31
0.0
  0
LINE
  5
56EA
  8
AM_0
 10
141.90403847969509
 20
247.3959945717825
 30
0.0
 11
148.57311847969541
 21
247.3959945717825
 31
0.0
  0
POLYLINE
  5
56EB
  8
AM_0
 66
     1
 10
0.0
 20
0.0
 30
0.0
  0
VERTEX
  5
56EC
  8
AM_0
  6
CONTINUOUS
 10
143.4535984796953
 20
250.05690157178239
 30
0.0
  0
VERTEX
  5
56ED
  8
AM_0
  6
CONTINUOUS
 10
144.09964847969539
 20
257.27782357178239
 30
0.0
 42
-1.0
  0
SEQEND
  5
56EE
  8
AM_0
  0
ARC
  5
56EF
  8
AM_0
 10
130.57312847969521
 20
256.71435457178239
 30
0.0
 40
1.0000000199999981
 50
0.0
 51
90.00000299999769
  0
ARC
  5
56F0
  8
AM_0
 10
130.57312847969521
 20
260.7143535717824
 30
0.0
 40
1.0000000199999981
 50
270.0
 51
0.0
  0
ARC
  5
56F1
  8
AM_0
 10
130.57312847969521
 20
246.7143525717824
 30
0.0
 40
1.0000000199999981
 50
0.0
 51
90.00000299999769
  0
ARC
  5
56F2
  8
AM_0
 10
130.57312847969521
 20
250.71435457178239
 30
0.0
 40
1.0000000199999981
 50
270.0
 51
0.0
  0
POLYLINE
  5
56F3
  8
AM_0
 66
     1
 10
0.0
 20
0.0
 30
0.0
  0
VERTEX
  5
56F4
  8
AM_0
  6
CONTINUOUS
 10
144.43534847969539
 20
260.20129057178241
 30
0.0
  0
VERTEX
  5
56F5
  8
AM_0
  6
CONTINUOUS
 10
145.39582847969541
 20
267.08292457178243
 30
0.0
 42
-1.0
  0
SEQEND
  5
56F6
  8
AM_0
  0
LINE
  5
56F7
  8
AM_0
 10
142.2504184796953
 20
267.08154157178251
 30
0.0
 11
149.57311847969541
 21
267.08154157178251
 31
0.0
  0
POLYLINE
  5
56F8
  8
AM_0
 66
     1
 10
0.0
 20
0.0
 30
0.0
  0
VERTEX
  5
56F9
  8
AM_0
  6
CONTINUOUS
 10
143.4535984796953
 20
217.3717665717825
 30
0.0
  0
VERTEX
  5
56FA
  8
AM_0
  6
CONTINUOUS
 10
144.09964847969539
 20
210.1508295717824
 30
0.0
 42
-1.0
  0
SEQEND
  5
56FB
  8
AM_0
  0
LINE
  5
56FC
  8
AM_0
 10
148.57311847969541
 20
209.71435357178251
 30
0.0
 11
142.93852847969521
 21
209.71435357178251
 31
0.0
  0
LINE
  5
56FD
  8
AM_0
 10
148.57311847969541
 20
219.71436757178239
 30
0.0
 11
142.93852847969521
 21
219.71436757178239
 31
0.0
  0
LINE
  5
56FE
  8
AM_0
 10
148.57311847969541
 20
217.7143515717824
 30
0.0
 11
142.93852847969521
 21
217.7143515717824
 31
0.0
  0
ARC
  5
56FF
  8
AM_0
 10
141.90403847969509
 20
218.70179557178241
 30
0.0
 40
1.3309326599999991
 50
90.00000299999769
 51
270.0
  0
LINE
  5
5700
  8
AM_0
 10
142.0346584796952
 20
210.15113557178239
 30
0.0
 11
148.57311847969541
 21
210.15113557178239
 31
0.0
  0
ARC
  5
5701
  8
AM_0
 10
143.12248847969531
 20
218.71435357178251
 30
0.0
 40
1.0000000199999981
 50
90.00000299999769
 51
270.0
  0
LINE
  5
5702
  8
AM_0
 10
141.90403847969509
 20
220.03271257178241
 30
0.0
 11
148.57311847969541
 21
220.03271257178241
 31
0.0
  0
LINE
  5
5703
  8
AM_0
 10
141.90403847969509
 20
217.37084557178241
 30
0.0
 11
148.57311847969541
 21
217.37084557178241
 31
0.0
  0
ARC
  5
5704
  8
AM_0
 10
130.57312847969521
 20
210.71436757178239
 30
0.0
 40
1.0000000199999981
 50
270.0
 51
0.0
  0
ARC
  5
5705
  8
AM_0
 10
130.57312847969521
 20
220.71435157178249
 30
0.0
 40
1.0000000199999981
 50
270.0
 51
0.0
  0
ARC
  5
5706
  8
AM_0
 10
130.57312847969521
 20
216.71436757178239
 30
0.0
 40
1.0000000199999981
 50
0.0
 51
90.00000299999769
  0
POLYLINE
  5
5707
  8
AM_0
 66
     1
 10
0.0
 20
0.0
 30
0.0
  0
VERTEX
  5
5708
  8
AM_0
 10
143.21279714289989
 20
221.7143535717826
 30
0.0
  0
VERTEX
  5
5709
  8
AM_0
 10
143.2804684796954
 20
220.03496557178249
 30
0.0
 42
-1.0
  0
SEQEND
  5
570A
  8
AM_0
  0
POLYLINE
  5
570B
  8
AM_0
 66
     1
 10
0.0
 20
0.0
 30
0.0
  0
VERTEX
  5
570C
  8
AM_0
 10
143.2127979182082
 20
245.71435357178251
 30
0.0
  0
VERTEX
  5
570D
  8
AM_0
 10
143.2804684796954
 20
247.39371757178239
 30
0.0
 42
-1.0
  0
SEQEND
  5
570E
  8
AM_0
  0
ARC
  5
570F
  8
AM_0
 10
128.72344847969541
 20
266.45745757178253
 30
0.0
 40
1.0000000199999981
 50
90.00000299999769
 51
107.0976299999969
  0
ARC
  5
5710
  8
AM_0
 10
127.5731284796952
 20
266.10363757178237
 30
0.0
 40
1.0000000199999981
 50
107.0976299999969
 51
180.0000100000002
  0
LINE
  5
5711
  8
AM_0
 10
128.42944847969531
 20
267.4132665717824
 30
0.0
 11
127.2791284796954
 21
267.05941657178238
 31
0.0
  0
LINE
  5
5712
  8
AM_0
 10
128.57311847969541
 20
259.34051257178248
 30
0.0
 11
128.57311847969541
 21
257.97772057178241
 31
0.0
  0
ARC
  5
5713
  8
AM_0
 10
127.5731284796952
 20
258.71435557178239
 30
0.0
 40
1.0000000199999981
 50
179.9999899999998
 51
270.0
  0
ARC
  5
5714
  8
AM_0
 10
127.5731284796952
 20
258.71435557178239
 30
0.0
 40
1.0000000199999981
 50
90.00000299999769
 51
180.0000100000002
  0
LINE
  5
5715
  8
AM_0
 10
128.57311847969541
 20
249.3214695717825
 30
0.0
 11
128.57311847969541
 21
248.11004557178239
 31
0.0
  0
LINE
  5
5716
  8
AM_0
 10
125.07310847969531
 20
253.71435457178251
 30
0.0
 11
126.57310847969531
 21
253.84558057178239
 31
0.0
  0
LINE
  5
5717
  8
AM_0
 10
125.07310847969531
 20
250.99633657178239
 30
0.0
 11
126.57310847969531
 21
250.99633657178239
 31
0.0
  0
ARC
  5
5718
  8
AM_0
 10
127.5731284796952
 20
248.7143535717824
 30
0.0
 40
1.0000000199999981
 50
90.00000299999769
 51
180.0000100000002
  0
ARC
  5
5719
  8
AM_0
 10
127.5731284796952
 20
248.7143535717824
 30
0.0
 40
1.0000000199999981
 50
179.9999899999998
 51
270.0
  0
LINE
  5
571A
  8
AM_0
 10
128.57311847969541
 20
218.1072525717824
 30
0.0
 11
128.57311847969541
 21
219.31860157178241
 31
0.0
  0
LINE
  5
571B
  8
AM_0
 10
125.0731684796953
 20
213.71436757178239
 30
0.0
 11
126.57310847969531
 21
213.58312657178249
 31
0.0
  0
LINE
  5
571C
  8
AM_0
 10
125.07310847969531
 20
216.43231057178241
 30
0.0
 11
126.57310847969531
 21
216.43231057178241
 31
0.0
  0
ARC
  5
571D
  8
AM_0
 10
127.5731284796952
 20
218.71435357178251
 30
0.0
 40
1.0000000199999981
 50
179.9999899999998
 51
270.0
  0
ARC
  5
571E
  8
AM_0
 10
127.5731284796952
 20
218.71435357178251
 30
0.0
 40
1.0000000199999981
 50
90.00000299999769
 51
180.0000100000002
  0
LINE
  5
571F
  8
AM_0
 10
125.07310847969531
 20
218.56432957178239
 30
0.0
 11
128.36680847969521
 21
218.56432957178239
 31
0.0
  0
LINE
  5
5720
  8
AM_0
 10
125.07310847969531
 20
213.71436757178239
 30
0.0
 11
125.07310847969531
 21
222.71435357178251
 31
0.0
  0
LINE
  5
5721
  8
AM_0
 10
125.07310847969531
 20
253.71435457178251
 30
0.0
 11
125.07310847969531
 21
244.7143535717826
 31
0.0
  0
LINE
  5
5722
  8
AM_0
 10
130.57312847969521
 20
257.71435357178251
 30
0.0
 11
127.5731284796952
 21
257.71435357178251
 31
0.0
  0
LINE
  5
5723
  8
AM_0
 10
128.72344847969541
 20
267.45745657178247
 30
0.0
 11
130.57312847969521
 21
267.45745657178247
 31
0.0
  0
LINE
  5
5724
  8
AM_0
 10
130.57312847969521
 20
259.71435457178251
 30
0.0
 11
127.5731284796952
 21
259.71435457178251
 31
0.0
  0
LINE
  5
5725
  8
AM_0
 10
130.57312847969521
 20
249.71435257178251
 30
0.0
 11
127.5731284796952
 21
249.71435257178251
 31
0.0
  0
LINE
  5
5726
  8
AM_0
 10
130.57312847969521
 20
247.71435457178251
 30
0.0
 11
127.5731284796952
 21
247.71435457178251
 31
0.0
  0
LINE
  5
5727
  8
AM_0
 10
130.57312847969521
 20
209.71435357178251
 30
0.0
 11
127.5731284796952
 21
209.71435357178251
 31
0.0
  0
LINE
  5
5728
  8
AM_0
 10
130.57312847969521
 20
217.7143515717824
 30
0.0
 11
127.5731284796952
 21
217.7143515717824
 31
0.0
  0
LINE
  5
5729
  8
AM_0
 10
130.57312847969521
 20
219.71436757178239
 30
0.0
 11
127.5731284796952
 21
219.71436757178239
 31
0.0
  0
LINE
  5
572A
  8
AM_0
 10
125.07310847969531
 20
248.8643775717824
 30
0.0
 11
129.75061847969531
 21
248.8643775717824
 31
0.0
  0
LINE
  5
572B
  8
AM_0
 10
148.57311847969541
 20
207.71436757178239
 30
0.0
 11
142.93852847969521
 21
207.71436757178239
 31
0.0
  0
POLYLINE
  5
572C
  8
AM_0
 66
     1
 10
0.0
 20
0.0
 30
0.0
  0
VERTEX
  5
572D
  8
AM_0
  6
CONTINUOUS
 10
144.43534847969539
 20
207.22736857178239
 30
0.0
  0
VERTEX
  5
572E
  8
AM_0
  6
CONTINUOUS
 10
145.39582847969541
 20
200.34577657178241
 30
0.0
 42
-1.0
  0
SEQEND
  5
572F
  8
AM_0
  0
ARC
  5
5730
  8
AM_0
 10
142.2510484796953
 20
198.6691875717824
 30
0.0
 40
1.6779175200000001
 50
90.00000299999769
 51
270.0
  0
ARC
  5
5731
  8
AM_0
 10
143.12248847969531
 20
198.71436757178239
 30
0.0
 40
1.0000000199999981
 50
90.00000299999769
 51
270.0
  0
LINE
  5
5732
  8
AM_0
 10
142.0346584796952
 20
207.22814557178239
 30
0.0
 11
148.57311847969541
 21
207.22814557178239
 31
0.0
  0
ARC
  5
5733
  8
AM_0
 10
130.57312847969521
 20
206.7143535717824
 30
0.0
 40
1.0000000199999981
 50
0.0
 51
90.00000299999769
  0
ARC
  5
5734
  8
AM_0
 10
130.57312847969521
 20
192.7294275717824
 30
0.0
 40
1.0000000199999981
 50
334.63675999999958
 51
0.0
  0
ARC
  5
5735
  8
AM_0
 10
130.57312847969521
 20
200.97118957178239
 30
0.0
 40
1.0000000199999981
 50
270.0
 51
0.0
  0
ARC
  5
5736
  8
AM_0
 10
130.87309847969539
 20
197.3251455717824
 30
0.0
 40
0.7000000200000001
 50
0.0
 51
90.00000299999769
  0
ARC
  5
5737
  8
AM_0
 10
130.57312847969521
 20
188.2127205717824
 30
0.0
 40
1.0000000199999981
 50
270.0
 51
0.0
  0
LINE
  5
5738
  8
AM_0
 10
133.27123847969531
 20
190.5228855717823
 30
0.0
 11
139.50103847969541
 21
190.5228855717823
 31
0.0
  0
ARC
  5
5739
  8
AM_0
 10
130.57312847969521
 20
192.7294275717824
 30
0.0
 40
1.0000000199999981
 50
270.0
 51
0.0
  0
LINE
  5
573A
  8
AM_0
 10
142.2510484796953
 20
200.3471205717824
 30
0.0
 11
149.57311847969541
 21
200.34712057178251
 31
0.0
  0
ARC
  5
573B
  8
AM_0
 10
128.84440847969529
 20
192.7294275717824
 30
0.0
 40
1.0000000199999981
 50
239.6405000000025
 51
270.0
  0
ARC
  5
573C
  8
AM_0
 10
128.7777784796954
 20
199.02509857178231
 30
0.0
 40
1.0000000199999981
 50
246.87296999999771
 51
270.0
  0
ARC
  5
573D
  8
AM_0
 10
128.72344847969541
 20
200.97118957178239
 30
0.0
 40
1.0000000199999981
 50
252.90236999999641
 51
270.0
  0
LINE
  5
573E
  8
AM_0
 10
128.57311847969541
 20
198.32146957178239
 30
0.0
 11
128.57311847969541
 21
199.3814205717824
 31
0.0
  0
ARC
  5
573F
  8
AM_0
 10
127.5731284796952
 20
193.4741175717825
 30
0.0
 40
1.0000000199999981
 50
179.9999899999998
 51
239.64048999999909
  0
ARC
  5
5740
  8
AM_0
 10
127.5731284796952
 20
193.4741175717825
 30
0.0
 40
1.0000000199999981
 50
179.9999899999998
 51
239.64048999999909
  0
LINE
  5
5741
  8
AM_0
 10
127.06768847969541
 20
192.6112185717825
 30
0.0
 11
127.0440784796953
 21
192.62505757178241
 31
0.0
  0
ARC
  5
5742
  8
AM_0
 10
127.5731284796952
 20
201.32508457178241
 30
0.0
 40
1.0000000199999981
 50
179.9999899999998
 51
252.90236999999641
  0
ARC
  5
5743
  8
AM_0
 10
127.5731284796952
 20
199.5396225717825
 30
0.0
 40
1.0000000199999981
 50
179.9999899999998
 51
246.87297999999811
  0
LINE
  5
5744
  8
AM_0
 10
128.33899847969539
 20
191.86651357178241
 30
0.0
 11
127.06768847969541
 21
192.61118857178229
 31
0.0
  0
LINE
  5
5745
  8
AM_0
 10
128.38495847969531
 20
198.1054665717825
 30
0.0
 11
127.1803084796952
 21
198.6199605717824
 31
0.0
  0
LINE
  5
5746
  8
AM_0
 10
128.42944847969531
 20
200.01540757178239
 30
0.0
 11
127.2791284796954
 21
200.36926057178241
 31
0.0
  0
ARC
  5
5747
  8
AM_0
 10
127.5731284796952
 20
208.71435157178249
 30
0.0
 40
1.0000000199999981
 50
179.9999899999998
 51
270.0
  0
ARC
  5
5748
  8
AM_0
 10
128.87176847969539
 20
191.58941257178239
 30
0.0
 40
1.0000000199999981
 50
236.7452700000002
 51
270.0
  0
LINE
  5
5749
  8
AM_0
 10
128.57311847969541
 20
190.8839085717824
 30
0.0
 11
128.57311847969541
 21
191.35601557178231
 31
0.0
  0
ARC
  5
574A
  8
AM_0
 10
128.85016847969541
 20
187.07270557178239
 30
0.0
 40
1.0000000199999981
 50
239.0333999999996
 51
270.0
  0
ARC
  5
574B
  8
AM_0
 10
128.82178847969541
 20
188.2127205717824
 30
0.0
 40
1.0000000199999981
 50
242.07340000000289
 51
270.0
  0
LINE
  5
574C
  8
AM_0
 10
128.57311847969541
 20
186.3178065717824
 30
0.0
 11
128.57311847969541
 21
186.86382757178239
 31
0.0
  0
ARC
  5
574D
  8
AM_0
 10
127.5731284796952
 20
186.7402905717824
 30
0.0
 40
1.0000000199999981
 50
179.9999899999998
 51
243.08874999999691
  0
ARC
  5
574E
  8
AM_0
 10
127.5731284796952
 20
188.87456857178239
 30
0.0
 40
1.0000000199999981
 50
179.9999899999998
 51
242.07341000000071
  0
ARC
  5
574F
  8
AM_0
 10
127.5731284796952
 20
187.8390015717824
 30
0.0
 40
1.0000000199999981
 50
179.9999899999998
 51
239.0333999999996
  0
LINE
  5
5750
  8
AM_0
 10
128.33557847969519
 20
186.2152515717822
 30
0.0
 11
127.05859847969531
 21
186.9815175717824
 31
0.0
  0
LINE
  5
5751
  8
AM_0
 10
128.35345847969541
 20
187.3291605717825
 30
0.0
 11
127.1047984796953
 21
187.99102357178239
 31
0.0
  0
ARC
  5
5752
  8
AM_0
 10
127.5731284796952
 20
192.44098957178241
 30
0.0
 40
1.0000000199999981
 50
179.9999899999998
 51
236.74528000000271
  0
LINE
  5
5753
  8
AM_0
 10
128.32336847969529
 20
190.75317157178239
 30
0.0
 11
127.0247284796953
 21
191.60473357178239
 31
0.0
  0
LINE
  5
5754
  8
AM_0
 10
130.57312847969521
 20
207.71436757178239
 30
0.0
 11
127.5731284796952
 21
207.71436757178239
 31
0.0
  0
LINE
  5
5755
  8
AM_0
 10
128.87176847969539
 20
190.58942857178241
 30
0.0
 11
131.57311847969541
 21
190.58942857178241
 31
0.0
  0
LINE
  5
5756
  8
AM_0
 10
128.84440847969529
 20
191.72944357178241
 30
0.0
 11
130.57312847969521
 21
191.72944357178241
 31
0.0
  0
LINE
  5
5757
  8
AM_0
 10
128.7777784796954
 20
198.02508157178241
 30
0.0
 11
130.87309847969539
 21
198.02508157178241
 31
0.0
  0
LINE
  5
5758
  8
AM_0
 10
128.72344847969541
 20
199.97120257178241
 30
0.0
 11
130.57312847969521
 21
199.97120257178241
 31
0.0
  0
LINE
  5
5759
  8
AM_0
 10
128.85016847969541
 20
186.07268857178241
 30
0.0
 11
131.57311847969541
 21
186.07268857178241
 31
0.0
  0
LINE
  5
575A
  8
AM_0
 10
128.82178847969541
 20
187.21270357178241
 30
0.0
 11
130.57312847969521
 21
187.21270357178241
 31
0.0
  0
ARC
  5
575B
  8
AM_0
 10
142.0346584796952
 20
208.68963457178239
 30
0.0
 40
1.4615021100000001
 50
90.00000299999769
 51
270.0
  0
LINE
  5
575C
  8
AM_0
 10
128.57311847969541
 20
208.08813157178241
 30
0.0
 11
128.57311847969541
 21
209.45098657178241
 31
0.0
  0
ARC
  5
575D
  8
AM_0
 10
143.12248847969531
 20
208.71435157178249
 30
0.0
 40
1.0000000199999981
 50
90.00000299999769
 51
270.0
  0
ARC
  5
575E
  8
AM_0
 10
127.5731284796952
 20
208.71435157178249
 30
0.0
 40
1.0000000199999981
 50
90.00000299999769
 51
180.0000100000002
  0
LINE
  5
575F
  8
AM_0
 10
126.57310847969531
 20
185.6979495717824
 30
0.0
 11
126.57310847969531
 21
222.71435357178251
 31
0.0
  0
ARC
  5
5760
  8
AM_0
 10
177.57310847969529
 20
290.84399857178238
 30
0.0
 40
2.00000007
 50
0.0
 51
90.00000299999769
  0
ARC
  5
5761
  8
AM_0
 10
177.57310847969529
 20
292.69169857178241
 30
0.0
 40
2.00000007
 50
0.0
 51
90.00000299999769
  0
ARC
  5
5762
  8
AM_0
 10
177.57310847969529
 20
293.60222857178252
 30
0.0
 40
2.00000007
 50
0.0
 51
90.00000299999769
  0
LINE
  5
5763
  8
AM_0
 10
179.57311847969541
 20
293.60222857178252
 30
0.0
 11
179.57311847969541
 21
289.99760857178239
 31
0.0
  0
ARC
  5
5764
  8
AM_0
 10
143.77954847969531
 20
287.99762857178251
 30
0.0
 40
2.00000007
 50
90.00000299999769
 51
169.28430999999961
  0
ARC
  5
5765
  8
AM_0
 10
143.82811847969541
 20
290.84399857178238
 30
0.0
 40
2.00000007
 50
90.00000299999769
 51
170.9150299999996
  0
ARC
  5
5766
  8
AM_0
 10
143.84149847969539
 20
292.69169857178241
 30
0.0
 40
2.00000007
 50
90.00000299999769
 51
171.35661000000019
  0
ARC
  5
5767
  8
AM_0
 10
143.8627984796953
 20
293.60222857178252
 30
0.0
 40
2.00000007
 50
90.00000299999769
 51
172.05596000000011
  0
LINE
  5
5768
  8
AM_0
 10
140.57311847969541
 20
283.15460857178238
 30
0.0
 11
141.85315847969531
 21
291.15974857178247
 31
0.0
  0
LINE
  5
5769
  8
AM_0
 10
140.57311847969541
 20
284.49920857178239
 30
0.0
 11
141.86413847969541
 21
292.99226857178252
 31
0.0
  0
LINE
  5
576A
  8
AM_0
 10
140.57311847969541
 20
284.49920857178239
 30
0.0
 11
141.88195847969541
 21
293.87861857178251
 31
0.0
  0
LINE
  5
576B
  8
AM_0
 10
140.57311847969541
 20
281.81006857178249
 30
0.0
 11
141.8143984796954
 21
288.36947857178228
 31
0.0
  0
LINE
  5
576C
  8
AM_0
 10
131.57311847969541
 20
283.71434857178252
 30
0.0
 11
132.57310847969529
 21
283.71434857178252
 31
0.0
  0
ARC
  5
576D
  8
AM_0
 10
131.07310847969529
 20
281.81744857178251
 30
0.0
 40
0.5000000100000001
 50
0.0
 51
90.00000299999769
  0
ARC
  5
576E
  8
AM_0
 10
131.07310847969529
 20
283.96373857178241
 30
0.0
 40
0.5000000100000001
 50
270.0
 51
0.0
  0
LINE
  5
576F
  8
AM_0
 10
132.57310847969529
 20
286.71434857178252
 30
0.0
 11
140.57311847969541
 21
286.71434857178252
 31
0.0
  0
ARC
  5
5770
  8
AM_0
 10
128.84131847969519
 20
282.4637385717823
 30
0.0
 40
1.0000000199999981
 50
90.00000299999769
 51
120.02640000000299
  0
ARC
  5
5771
  8
AM_0
 10
128.81236847969529
 20
281.31743857178242
 30
0.0
 40
1.0000000199999981
 50
90.00000299999769
 51
116.9112600000021
  0
ARC
  5
5772
  8
AM_0
 10
128.85016847969541
 20
280.35596857178251
 30
0.0
 40
1.0000000199999981
 50
90.00000299999769
 51
120.9666000000004
  0
ARC
  5
5773
  8
AM_0
 10
128.82178847969541
 20
279.21599857178239
 30
0.0
 40
1.0000000199999981
 50
90.00000299999769
 51
117.92659999999709
  0
LINE
  5
5774
  8
AM_0
 10
128.57311847969541
 20
281.11088857178248
 30
0.0
 11
128.57311847969541
 21
280.56482857178241
 31
0.0
  0
LINE
  5
5775
  8
AM_0
 10
128.57311847969541
 20
283.2104985717823
 30
0.0
 11
128.57311847969541
 21
282.68474857178239
 31
0.0
  0
ARC
  5
5776
  8
AM_0
 10
127.5731284796952
 20
281.73071857178252
 30
0.0
 40
1.0000000199999981
 50
120.02640000000299
 51
180.0000100000002
  0
ARC
  5
5777
  8
AM_0
 10
127.5731284796952
 20
280.68842857178242
 30
0.0
 40
1.0000000199999981
 50
116.9112600000021
 51
180.0000100000002
  0
LINE
  5
5778
  8
AM_0
 10
128.3409484796955
 20
283.32944857178251
 30
0.0
 11
127.0727584796953
 21
282.5964885717824
 31
0.0
  0
LINE
  5
5779
  8
AM_0
 10
128.33557847969519
 20
281.21345857178238
 30
0.0
 11
127.0585384796953
 21
280.44716857178241
 31
0.0
  0
LINE
  5
577A
  8
AM_0
 10
128.3597884796954
 20
282.20918857178242
 30
0.0
 11
127.1204884796953
 21
281.58017857178248
 31
0.0
  0
LINE
  5
577B
  8
AM_0
 10
128.84131847969519
 20
283.46375857178248
 30
0.0
 11
131.07310847969529
 21
283.46375857178248
 31
0.0
  0
LINE
  5
577C
  8
AM_0
 10
128.85016847969541
 20
281.35595857178248
 30
0.0
 11
131.57311847969541
 21
281.35595857178248
 31
0.0
  0
LINE
  5
577D
  8
AM_0
 10
128.82178847969541
 20
280.21598857178242
 30
0.0
 11
130.57312847969521
 21
280.21598857178242
 31
0.0
  0
LINE
  5
577E
  8
AM_0
 10
128.81236847969529
 20
282.31742857178239
 30
0.0
 11
131.07310847969529
 21
282.31742857178239
 31
0.0
  0
ARC
  5
577F
  8
AM_0
 10
130.57312847969521
 20
274.6992885717824
 30
0.0
 40
1.0000000199999981
 50
0.0
 51
90.00000299999769
  0
ARC
  5
5780
  8
AM_0
 10
130.87309847969539
 20
270.10358857178238
 30
0.0
 40
0.7000000200000001
 50
270.0
 51
0.0
  0
LINE
  5
5781
  8
AM_0
 10
133.27123847969531
 20
276.90575857178243
 30
0.0
 11
139.50103847969541
 21
276.90575857178243
 31
0.0
  0
ARC
  5
5782
  8
AM_0
 10
128.87176847969539
 20
275.83922857178243
 30
0.0
 40
1.0000000199999981
 50
90.00000299999769
 51
123.2547299999998
  0
ARC
  5
5783
  8
AM_0
 10
128.84440847969529
 20
274.6992885717824
 30
0.0
 40
1.0000000199999981
 50
90.00000299999769
 51
120.3594999999974
  0
LINE
  5
5784
  8
AM_0
 10
128.57311847969541
 20
276.54479857178239
 30
0.0
 11
128.57311847969541
 21
276.07262857178239
 31
0.0
  0
ARC
  5
5785
  8
AM_0
 10
128.7777784796954
 20
268.40356357178251
 30
0.0
 40
1.0000000199999981
 50
90.00000299999769
 51
113.12703000000219
  0
ARC
  5
5786
  8
AM_0
 10
127.5731284796952
 20
278.55407857178238
 30
0.0
 40
1.0000000199999981
 50
117.92659999999709
 51
180.0000100000002
  0
ARC
  5
5787
  8
AM_0
 10
127.5731284796952
 20
273.95459857178241
 30
0.0
 40
1.0000000199999981
 50
120.3594999999974
 51
180.0000100000002
  0
ARC
  5
5788
  8
AM_0
 10
127.5731284796952
 20
274.98767857178251
 30
0.0
 40
1.0000000199999981
 50
123.2547299999998
 51
180.0000100000002
  0
LINE
  5
5789
  8
AM_0
 10
128.32336847969529
 20
276.67550857178247
 30
0.0
 11
127.0247284796953
 21
275.8239285717824
 31
0.0
  0
LINE
  5
578A
  8
AM_0
 10
128.33899847969539
 20
275.56214857178247
 30
0.0
 11
127.06768847969541
 21
274.81745857178248
 31
0.0
  0
LINE
  5
578B
  8
AM_0
 10
128.87176847969539
 20
276.83921857178251
 30
0.0
 11
131.57311847969541
 21
276.83921857178251
 31
0.0
  0
LINE
  5
578C
  8
AM_0
 10
128.84440847969529
 20
275.69927857178237
 30
0.0
 11
130.57312847969521
 21
275.69927857178237
 31
0.0
  0
LINE
  5
578D
  8
AM_0
 10
128.7777784796954
 20
269.40356257178252
 30
0.0
 11
130.87309847969539
 21
269.40356257178252
 31
0.0
  0
ARC
  5
578E
  8
AM_0
 10
130.57312847969521
 20
279.21599857178239
 30
0.0
 40
1.0000000199999981
 50
0.0
 51
90.00000299999769
  0
LINE
  5
578F
  8
AM_0
 10
145.93852847969509
 20
270.36554857178248
 30
0.0
 11
140.57311847969541
 21
281.81003857178251
 31
0.0
  0
ARC
  5
5790
  8
AM_0
 10
127.5731284796952
 20
279.58964857178239
 30
0.0
 40
1.0000000199999981
 50
120.9666000000004
 51
180.0000100000002
  0
LINE
  5
5791
  8
AM_0
 10
128.35345847969541
 20
280.09949857178242
 30
0.0
 11
127.1047984796953
 21
279.4376085717825
 31
0.0
  0
LINE
  5
5792
  8
AM_0
 10
143.82811847969541
 20
292.84400857178241
 30
0.0
 11
177.57310847969529
 21
292.84400857178241
 31
0.0
  0
LINE
  5
5793
  8
AM_0
 10
143.84149847969539
 20
294.69170857178239
 30
0.0
 11
177.57310847969529
 21
294.69170857178239
 31
0.0
  0
LINE
  5
5794
  8
AM_0
 10
143.8627984796953
 20
295.60223857178238
 30
0.0
 11
177.57310847969529
 21
295.60223857178238
 31
0.0
  0
ARC
  5
5795
  8
AM_0
 10
245.3952184796953
 20
268.75945957178237
 30
0.0
 40
1.6779127499999991
 50
276.08620038401659
 51
83.913799615983365
  0
LINE
  5
5796
  8
ﾁｭｳｼﾝｾﾝ
 10
197.57311847969541
 20
284.71435357178251
 30
0.0
 11
197.57311847969541
 21
182.71435357178231
 31
0.0
  0
LINE
  5
5797
  8
AM_0
 10
248.57311847969541
 20
289.71434857178252
 30
0.0
 11
248.57311847969541
 21
177.71436757178239
 31
0.0
  0
LINE
  5
5798
  8
AM_0
 10
247.07311847969541
 20
195.49131457178231
 30
0.0
 11
242.63110847969531
 21
178.91344957178239
 31
0.0
  0
LINE
  5
5799
  8
AM_0
 10
248.57311847969541
 20
177.71436757178239
 30
0.0
 11
256.5731284796953
 21
177.71436757178239
 31
0.0
  0
LINE
  5
579A
  8
AM_0
 10
243.1136584796952
 20
180.71436757178239
 30
0.0
 11
248.57311847969541
 21
180.71436757178239
 31
0.0
  0
ARC
  5
579B
  8
AM_0
 10
240.69928847969541
 20
179.4310875717824
 30
0.0
 40
2.00000007
 50
270.0
 51
345.00000000000091
  0
LINE
  5
579C
  8
AM_0
 10
248.57311847969541
 20
265.65179257178249
 30
0.0
 11
256.5731284796953
 21
265.65179257178249
 31
0.0
  0
LINE
  5
579D
  8
AM_0
 10
248.57311847969541
 20
201.77691457178241
 30
0.0
 11
256.5731284796953
 21
201.77691457178241
 31
0.0
  0
LINE
  5
579E
  8
AM_0
 10
248.57311847969541
 20
187.7143515717822
 30
0.0
 11
256.5731284796953
 21
187.7143515717822
 31
0.0
  0
ARC
  5
579F
  8
AM_0
 10
245.3952184796953
 20
198.6691875717824
 30
0.0
 40
1.6779127499999991
 50
276.08620038402319
 51
83.913799615976814
  0
LINE
  5
57A0
  8
AM_0
 10
248.57311847969541
 20
289.71434857178252
 30
0.0
 11
256.5731284796953
 21
289.71434857178252
 31
0.0
  0
LINE
  5
57A1
  8
AM_0
 10
248.57311847969541
 20
279.7143585717825
 30
0.0
 11
256.5731284796953
 21
279.7143585717825
 31
0.0
  0
LINE
  5
57A2
  8
AM_0
 10
243.1136584796952
 20
286.71434857178252
 30
0.0
 11
248.57311847969541
 21
286.71434857178252
 31
0.0
  0
ARC
  5
57A3
  8
AM_0
 10
240.69928847969541
 20
287.99762857178251
 30
0.0
 40
2.00000007
 50
14.99999999999917
 51
90.00000299999769
  0
ARC
  5
57A4
  8
AM_0
 10
248.22412847969539
 20
273.43736857178237
 30
0.0
 40
1.5000000299999989
 50
195.00000999999889
 51
270.0
  0
LINE
  5
57A5
  8
AM_0
 10
246.77527847969529
 20
273.0491685717825
 30
0.0
 11
242.63110847969531
 21
288.51524857178242
 31
0.0
  0
LINE
  5
57A8
  8
AM_0
 10
241.57311847969549
 20
187.71435357178231
 30
0.0
 11
153.57311847969541
 21
187.71435357178231
 31
0.0
  0
ARC
  5
57A9
  8
AM_0
 10
171.6441862915608
 20
192.71435357178231
 30
0.0
 40
5.0
 50
225.0
 51
270.0
1001
GENIUS_GENOBJ-N-FIL_13
1002
{
1000
OWNER
1000
GEN
1002
}
1001
GENIUS_GENODEF_13
1002
{
1000
HIER
1070
     0
1002
}
1002
{
1000
MANEDIT
1070
     0
1002
}
1002
{
1000
NOSEL
1070
     0
1002
}
1002
{
1000
BEHIND
1070
     0
1002
}
1002
{
1000
OTHER
1070
     0
1002
}
1002
{
1000
REACTOR
1002
}
  0
LINE
  5
57AA
  8
AM_0
 10
222.84519641833759
 20
192.71435357178231
 30
0.0
 11
172.30104054105311
 21
192.71435357178231
 31
0.0
  0
ARC
  5
57AB
  8
AM_0
 10
222.84519641833759
 20
197.71435357178231
 30
0.0
 40
5.0
 50
270.0
 51
315.0
1001
GENIUS_GENOBJ-N-FIL_13
1002
{
1000
OWNER
1000
GEN
1002
}
1001
GENIUS_GENODEF_13
1002
{
1000
HIER
1070
     0
1002
}
1002
{
1000
MANEDIT
1070
     0
1002
}
1002
{
1000
NOSEL
1070
     0
1002
}
1002
{
1000
BEHIND
1070
     0
1002
}
1002
{
1000
OTHER
1070
     0
1002
}
1002
{
1000
REACTOR
1002
}
  0
ARC
  5
57AC
  8
AM_0
 10
241.57311847969549
 20
191.71435357178231
 30
0.0
 40
4.0
 50
270.0
 51
0.0
1001
GENIUS_GENOBJ-N-FIL_13
1002
{
1000
OWNER
1000
GEN
1002
}
1001
GENIUS_GENODEF_13
1002
{
1000
HIER
1070
     0
1002
}
1002
{
1000
MANEDIT
1070
     0
1002
}
1002
{
1000
NOSEL
1070
     0
1002
}
1002
{
1000
BEHIND
1070
     0
1002
}
1002
{
1000
OTHER
1070
     0
1002
}
1002
{
1000
REACTOR
1002
}
  0
LINE
  5
57AD
  8
AM_0
 10
241.5731184796953
 20
279.71435357178262
 30
0.0
 11
153.57311847969541
 21
279.71435357178262
 31
0.0
  0
ARC
  5
57AE
  8
AM_0
 10
223.50205066782971
 20
274.71435357178251
 30
0.0
 40
5.0
 50
45.0
 51
90.0
1001
GENIUS_GENOBJ-N-FIL_13
1002
{
1000
OWNER
1000
GEN
1002
}
1001
GENIUS_GENODEF_13
1002
{
1000
HIER
1070
     0
1002
}
1002
{
1000
MANEDIT
1070
     0
1002
}
1002
{
1000
NOSEL
1070
     0
1002
}
1002
{
1000
BEHIND
1070
     0
1002
}
1002
{
1000
OTHER
1070
     0
1002
}
1002
{
1000
REACTOR
1002
}
  0
ARC
  5
57AF
  8
AM_0
 10
171.644186291561
 20
274.71435357178251
 30
0.0
 40
5.0
 50
90.0
 51
135.0
1001
GENIUS_GENODEF_13
1002
{
1000
HIER
1070
     0
1002
}
1002
{
1000
MANEDIT
1070
     0
1002
}
1002
{
1000
NOSEL
1070
     0
1002
}
1002
{
1000
BEHIND
1070
     0
1002
}
1002
{
1000
OTHER
1070
     0
1002
}
1002
{
1000
REACTOR
1002
}
1001
GENIUS_GENOBJ-N-FIL_13
1002
{
1000
OWNER
1000
GEN
1002
}
  0
LINE
  5
57B0
  8
AM_0
 10
222.84519641833751
 20
274.71435357178251
 30
0.0
 11
172.3010405410532
 21
274.71435357178251
 31
0.0
  0
ARC
  5
57B1
  8
AM_0
 10
172.3010405410532
 20
269.71435357178262
 30
0.0
 40
5.0
 50
90.0
 51
135.0
1001
GENIUS_GENODEF_13
1002
{
1000
HIER
1070
     0
1002
}
1002
{
1000
MANEDIT
1070
     0
1002
}
1002
{
1000
NOSEL
1070
     0
1002
}
1002
{
1000
BEHIND
1070
     0
1002
}
1002
{
1000
OTHER
1070
     0
1002
}
1002
{
1000
REACTOR
1002
}
1001
GENIUS_GENOBJ-N-FIL_13
1002
{
1000
OWNER
1000
GEN
1002
}
  0
ARC
  5
57B2
  8
AM_0
 10
153.57311847969541
 20
275.71435357178262
 30
0.0
 40
4.0
 50
90.0
 51
180.0
1001
GENIUS_GENODEF_13
1002
{
1000
HIER
1070
     0
1002
}
1002
{
1000
MANEDIT
1070
     0
1002
}
1002
{
1000
NOSEL
1070
     0
1002
}
1002
{
1000
BEHIND
1070
     0
1002
}
1002
{
1000
OTHER
1070
     0
1002
}
1002
{
1000
REACTOR
1002
}
1001
GENIUS_GENOBJ-N-FIL_13
1002
{
1000
OWNER
1000
GEN
1002
}
  0
LINE
  5
57B3
  8
AM_0
 10
149.57311847969541
 20
275.71435357178262
 30
0.0
 11
149.57311847969541
 21
191.71435357178231
 31
0.0
  0
ARC
  5
57B4
  8
AM_0
 10
154.57311847969541
 20
209.78542138364759
 30
0.0
 40
5.0
 50
180.0
 51
225.0
1001
GENIUS_GENOBJ-N-FIL_13
1002
{
1000
OWNER
1000
GEN
1002
}
1001
GENIUS_GENODEF_13
1002
{
1000
HIER
1070
     0
1002
}
1002
{
1000
MANEDIT
1070
     0
1002
}
1002
{
1000
NOSEL
1070
     0
1002
}
1002
{
1000
BEHIND
1070
     0
1002
}
1002
{
1000
OTHER
1070
     0
1002
}
1002
{
1000
REACTOR
1002
}
  0
ARC
  5
57B5
  8
AM_0
 10
154.57311847969541
 20
257.64328575991732
 30
0.0
 40
5.0
 50
135.0
 51
180.0
1001
GENIUS_GENOBJ-N-FIL_13
1002
{
1000
OWNER
1000
GEN
1002
}
1001
GENIUS_GENODEF_13
1002
{
1000
HIER
1070
     0
1002
}
1002
{
1000
MANEDIT
1070
     0
1002
}
1002
{
1000
NOSEL
1070
     0
1002
}
1002
{
1000
BEHIND
1070
     0
1002
}
1002
{
1000
OTHER
1070
     0
1002
}
1002
{
1000
REACTOR
1002
}
  0
LINE
  5
57B6
  8
AM_0
 10
154.57311847969541
 20
256.98643151042461
 30
0.0
 11
154.57311847969521
 21
210.4422756331401
 31
0.0
  0
ARC
  5
57B7
  8
AM_0
 10
159.5731184796951
 20
210.4422756331401
 30
0.0
 40
5.0
 50
180.0
 51
225.0
1001
GENIUS_GENOBJ-N-FIL_13
1002
{
1000
OWNER
1000
GEN
1002
}
1001
GENIUS_GENODEF_13
1002
{
1000
HIER
1070
     0
1002
}
1002
{
1000
MANEDIT
1070
     0
1002
}
1002
{
1000
NOSEL
1070
     0
1002
}
1002
{
1000
BEHIND
1070
     0
1002
}
1002
{
1000
OTHER
1070
     0
1002
}
1002
{
1000
REACTOR
1002
}
  0
ARC
  5
57B8
  8
AM_0
 10
153.57311847969541
 20
191.71435357178231
 30
0.0
 40
4.0
 50
180.0
 51
270.0
1001
GENIUS_GENODEF_13
1002
{
1000
HIER
1070
     0
1002
}
1002
{
1000
MANEDIT
1070
     0
1002
}
1002
{
1000
NOSEL
1070
     0
1002
}
1002
{
1000
BEHIND
1070
     0
1002
}
1002
{
1000
OTHER
1070
     0
1002
}
1002
{
1000
REACTOR
1002
}
1001
GENIUS_GENOBJ-N-FIL_13
1002
{
1000
OWNER
1000
GEN
1002
}
  0
LINE
  5
57B9
  8
AM_0
 10
245.57311847969541
 20
275.71435357178262
 30
0.0
 11
245.57311847969549
 21
191.71435357178231
 31
0.0
  0
ARC
  5
57BA
  8
AM_0
 10
240.57311847969549
 20
257.64328575991698
 30
0.0
 40
5.0
 50
0.0
 51
45.0
1001
GENIUS_GENOBJ-N-FIL_13
1002
{
1000
OWNER
1000
GEN
1002
}
1001
GENIUS_GENODEF_13
1002
{
1000
HIER
1070
     0
1002
}
1002
{
1000
MANEDIT
1070
     0
1002
}
1002
{
1000
NOSEL
1070
     0
1002
}
1002
{
1000
BEHIND
1070
     0
1002
}
1002
{
1000
OTHER
1070
     0
1002
}
1002
{
1000
REACTOR
1002
}
  0
ARC
  5
57BB
  8
AM_0
 10
240.57311847969549
 20
209.7854213836479
 30
0.0
 40
5.0
 50
315.0
 51
0.0
1001
GENIUS_GENOBJ-N-FIL_13
1002
{
1000
OWNER
1000
GEN
1002
}
1001
GENIUS_GENODEF_13
1002
{
1000
HIER
1070
     0
1002
}
1002
{
1000
MANEDIT
1070
     0
1002
}
1002
{
1000
NOSEL
1070
     0
1002
}
1002
{
1000
BEHIND
1070
     0
1002
}
1002
{
1000
OTHER
1070
     0
1002
}
1002
{
1000
REACTOR
1002
}
  0
LINE
  5
57BC
  8
AM_0
 10
227.03758457376259
 20
278.24988747771511
 30
0.0
 11
244.10865238562809
 21
261.1788196658498
 31
0.0
  0
LINE
  5
57BD
  8
AM_0
 10
226.3807303242701
 20
273.24988747771522
 30
0.0
 11
239.10865238562789
 21
260.5219654163576
 31
0.0
  0
ARC
  5
57BE
  8
AM_0
 10
222.84519641833751
 20
269.71435357178262
 30
0.0
 40
5.0
 50
45.0
 51
90.0
1001
GENIUS_GENOBJ-N-FIL_13
1002
{
1000
OWNER
1000
GEN
1002
}
1001
GENIUS_GENODEF_13
1002
{
1000
HIER
1070
     0
1002
}
1002
{
1000
MANEDIT
1070
     0
1002
}
1002
{
1000
NOSEL
1070
     0
1002
}
1002
{
1000
BEHIND
1070
     0
1002
}
1002
{
1000
OTHER
1070
     0
1002
}
1002
{
1000
REACTOR
1002
}
  0
LINE
  5
57BF
  8
AM_0
 10
240.5731184796953
 20
256.98643151042478
 30
0.0
 11
240.57311847969549
 21
210.4422756331401
 31
0.0
  0
ARC
  5
57C0
  8
AM_0
 10
235.5731184796953
 20
256.98643151042478
 30
0.0
 40
5.0
 50
0.0
 51
45.0
1001
GENIUS_GENODEF_13
1002
{
1000
HIER
1070
     0
1002
}
1002
{
1000
MANEDIT
1070
     0
1002
}
1002
{
1000
NOSEL
1070
     0
1002
}
1002
{
1000
BEHIND
1070
     0
1002
}
1002
{
1000
OTHER
1070
     0
1002
}
1002
{
1000
REACTOR
1002
}
1001
GENIUS_GENOBJ-N-FIL_13
1002
{
1000
OWNER
1000
GEN
1002
}
  0
ARC
  5
57C1
  8
AM_0
 10
241.5731184796953
 20
275.71435357178262
 30
0.0
 40
4.0
 50
0.0
 51
90.0
1001
GENIUS_GENODEF_13
1002
{
1000
HIER
1070
     0
1002
}
1002
{
1000
MANEDIT
1070
     0
1002
}
1002
{
1000
NOSEL
1070
     0
1002
}
1002
{
1000
BEHIND
1070
     0
1002
}
1002
{
1000
OTHER
1070
     0
1002
}
1002
{
1000
REACTOR
1002
}
1001
GENIUS_GENOBJ-N-FIL_13
1002
{
1000
OWNER
1000
GEN
1002
}
  0
LINE
  5
57C2
  8
ﾁｭｳｼﾝｾﾝ1
 10
240.57311847969689
 20
268.71435357178211
 30
0.0
 11
240.57311847969751
 21
280.71435357178211
 31
0.0
  0
LINE
  5
57C3
  8
ﾁｭｳｼﾝｾﾝ1
 10
246.5731184796972
 20
274.71435357178188
 30
0.0
 11
234.5731184796972
 21
274.71435357178251
 31
0.0
  0
LINE
  5
57C4
  8
AM_0
 10
146.0731184796953
 20
247.2143535717826
 30
0.0
 11
148.5731184796953
 21
247.21435357178271
 31
0.0
  0
LINE
  5
57C5
  8
AM_0
 10
148.57311847969541
 20
220.2143535717826
 30
0.0
 11
146.0731184796953
 21
220.2143535717826
 31
0.0
  0
LINE
  5
57C6
  8
AM_0
 10
135.17444738334939
 20
223.2143535717826
 30
0.0
 11
135.17444738334939
 21
244.2143535717826
 31
0.0
  0
LINE
  5
57C7
  8
AM_0
 10
120.1744473833494
 20
241.74597862579751
 30
0.0
 11
120.1744473833494
 21
225.68272851776661
 31
0.0
  0
LINE
  5
57C8
  8
AM_0
 10
133.17444738334939
 20
221.7143535717826
 30
0.0
 11
133.17444738334939
 21
245.71435357178251
 31
0.0
  0
LINE
  5
57C9
  8
AM_0
 10
123.6744473833494
 20
233.7143535717826
 30
0.0
 11
124.1744473833494
 21
233.21435357178251
 31
0.0
  0
LINE
  5
57CA
  8
AM_0
 10
130.67444738334939
 20
245.4143535717825
 30
0.0
 11
130.67444738334939
 21
222.01435357178241
 31
0.0
  0
LINE
  5
57CB
  8
AM_0
 10
140.57311847969541
 20
245.2143535717826
 30
0.0
 11
140.57311847969541
 21
222.2143535717826
 31
0.0
  0
LINE
  5
57CC
  8
AM_0
 10
134.67444738334939
 20
233.01435357178059
 30
0.0
 11
134.67444738334939
 21
234.41435357178349
 31
0.0
  0
LINE
  5
57CD
  8
AM_0
 10
136.77408310992041
 20
224.6143535717826
 30
0.0
 11
136.02408310992129
 21
242.81435357178259
 31
0.0
  0
LINE
  5
57CE
  8
AM_0
 10
135.82311847969541
 20
224.6143535717826
 30
0.0
 11
135.17444738334939
 21
240.3554388430986
 31
0.0
  0
LINE
  5
57CF
  8
AM_0
 10
136.5718110702673
 20
223.89869485941861
 30
0.0
 11
135.8245510268593
 21
243.52672533294961
 31
0.0
  0
LINE
  5
57D0
  8
AM_0
 10
136.02265056275729
 20
223.9019818106145
 30
0.0
 11
135.27408310992129
 21
243.5643535717825
 31
0.0
  0
LINE
  5
57D1
  8
AM_0
 10
133.17444738334939
 20
245.71435357178251
 30
0.0
 11
130.97444738334929
 21
245.71435357178251
 31
0.0
  0
ARC
  5
57D2
  8
AM_0
 10
145.07311847969541
 20
246.2143535717826
 30
0.0
 40
0.5
 50
269.99999999998693
 51
0.0
  0
ARC
  5
57D3
  8
AM_0
 10
146.07311847969541
 20
246.7143535717826
 30
0.0
 40
0.5
 50
90.0
 51
180.0
  0
LINE
  5
57D4
  8
AM_0
 10
145.57311847969541
 20
246.2143535717826
 30
0.0
 11
145.57311847969541
 21
246.7143535717826
 31
0.0
  0
LINE
  5
57D5
  8
AM_0
 10
136.5731184796953
 20
242.81435357178259
 30
0.0
 11
140.07311847969541
 21
242.8143535717825
 31
0.0
  0
LINE
  5
57D6
  8
AM_0
 10
145.57311847969541
 20
244.5704248931896
 30
0.0
 11
145.57311847969541
 21
234.85828225037449
 31
0.0
  0
LINE
  5
57D7
  8
AM_0
 10
141.07311847969541
 20
245.71435357178251
 30
0.0
 11
145.07311847969521
 21
245.71435357178251
 31
0.0
  0
LINE
  5
57D8
  8
AM_0
 10
145.0731184796953
 20
245.07042489318951
 30
0.0
 11
140.57311847969541
 21
245.07042489318951
 31
0.0
  0
ARC
  5
57D9
  8
AM_0
 10
145.07311847969541
 20
244.5704248931896
 30
0.0
 40
0.5
 50
0.0
 51
90.0
  0
ARC
  5
57DA
  8
AM_0
 10
140.07311847969541
 20
243.3143535717825
 30
0.0
 40
0.5
 50
270.0
 51
0.0
  0
ARC
  5
57DB
  8
AM_0
 10
141.07311847969541
 20
245.2143535717826
 30
0.0
 40
0.5
 50
90.0
 51
180.0
  0
LINE
  5
57DC
  8
AM_0
 10
145.0731184796953
 20
234.35828225037449
 30
0.0
 11
140.57311847969541
 21
234.35828225037449
 31
0.0
  0
ARC
  5
57DD
  8
AM_0
 10
145.0731184796953
 20
234.85828225037449
 30
0.0
 40
0.5
 50
270.0
 51
0.0
  0
LINE
  5
57DE
  8
AM_0
 10
134.67444738334939
 20
239.8595243240745
 30
0.0
 11
134.67444738334939
 21
238.68728113764161
 31
0.0
  0
LINE
  5
57DF
  8
AM_0
 10
136.1008155383463
 20
242.81435357178259
 30
0.0
 11
136.5731184796953
 21
242.81435357178259
 31
0.0
  0
LINE
  5
57E0
  8
AM_0
 10
136.00422304380709
 20
242.88847133851911
 30
0.0
 11
136.02408310992129
 21
242.81435357178259
 31
0.0
  0
ARC
  5
57E1
  8
AM_0
 10
136.10081553834641
 20
242.9143535717825
 30
0.0
 40
0.1000000000000346
 50
195.00019500644621
 51
270.0
  0
ARC
  5
57E2
  8
AM_0
 10
134.37444738334941
 20
243.00118655229039
 30
0.0
 40
0.3000000000000043
 50
270.0
 51
0.0
  0
LINE
  5
57E3
  8
AM_0
 10
133.17444738334939
 20
245.11435357178249
 30
0.0
 11
134.39440308650649
 21
245.0330231915716
 31
0.0
  0
LINE
  5
57E4
  8
AM_0
 10
133.17444738334939
 20
243.9581015359426
 30
0.0
 11
134.37444738334941
 21
243.9581015359426
 31
0.0
  0
LINE
  5
57E5
  8
AM_0
 10
134.67444738334939
 20
244.7143535717826
 30
0.0
 11
133.17444738334939
 21
244.7143535717826
 31
0.0
  0
ARC
  5
57E6
  8
AM_0
 10
134.67444738334939
 20
244.2143535717826
 30
0.0
 40
0.5
 50
0.0
 51
90.0
  0
LINE
  5
57E7
  8
AM_0
 10
134.67444738334939
 20
244.7336876442146
 30
0.0
 11
134.67444738334939
 21
244.7143535717826
 31
0.0
  0
LINE
  5
57E8
  8
AM_0
 10
134.67444738334939
 20
245.01435357178241
 30
0.0
 11
134.67444738334939
 21
244.7336876442146
 31
0.0
  0
LINE
  5
57E9
  8
AM_0
 10
134.39440308650649
 20
245.0330231915716
 30
0.0
 11
134.67444738334939
 21
245.01435357178241
 31
0.0
  0
ARC
  5
57EA
  8
AM_0
 10
134.37444738334941
 20
244.7336876442146
 30
0.0
 40
0.3000000000000007
 50
0.0
 51
86.185925165718459
  0
LINE
  5
57EB
  8
AM_0
 10
135.74638605127021
 20
243.5643535717825
 30
0.0
 11
135.8231184796964
 21
243.5643535717825
 31
0.0
  0
LINE
  5
57EC
  8
AM_0
 10
135.8231184796964
 20
243.5643535717825
 30
0.0
 11
135.8429785458095
 21
243.49023580504601
 31
0.0
  0
LINE
  5
57ED
  8
AM_0
 10
135.25422304380729
 20
243.49023580504601
 30
0.0
 11
135.27408310992129
 21
243.5643535717825
 31
0.0
  0
LINE
  5
57EE
  8
AM_0
 10
135.27408310992129
 20
243.5643535717825
 30
0.0
 11
135.3508155383463
 21
243.5643535717825
 31
0.0
  0
LINE
  5
57EF
  8
AM_0
 10
135.8429785458095
 20
243.49023580504601
 30
0.0
 11
136.00422304380709
 21
242.88847133851911
 31
0.0
  0
LINE
  5
57F0
  8
AM_0
 10
135.3508155383463
 20
243.5643535717825
 30
0.0
 11
135.74638605127021
 21
243.5643535717825
 31
0.0
  0
LINE
  5
57F1
  8
AM_0
 10
135.1744473833503
 20
243.1925130402216
 30
0.0
 11
135.25422304380729
 21
243.49023580504601
 31
0.0
  0
ARC
  5
57F2
  8
AM_0
 10
135.74638605127041
 20
243.46435357178251
 30
0.0
 40
0.0999999999999866
 50
15.000195006571049
 51
90.0
  0
ARC
  5
57F3
  8
AM_0
 10
135.35081553834641
 20
243.46435357178251
 30
0.0
 40
0.1000000000000014
 50
90.0
 51
164.99980499342891
  0
LINE
  5
57F4
  8
AM_0
 10
134.67444738334939
 20
243.65810153594251
 30
0.0
 11
134.67444738334939
 21
243.00118655229039
 31
0.0
  0
ARC
  5
57F5
  8
AM_0
 10
134.37444738334941
 20
243.65810153594251
 30
0.0
 40
0.3000000000000007
 50
0.0
 51
90.0
  0
LINE
  5
57F6
  8
AM_0
 10
133.17444738334939
 20
240.1595243240746
 30
0.0
 11
134.37444738334941
 21
240.1595243240746
 31
0.0
  0
LINE
  5
57F7
  8
AM_0
 10
134.37444738334941
 20
242.70118655229061
 30
0.0
 11
133.17444738334939
 21
242.70118655229061
 31
0.0
  0
LINE
  5
57F8
  8
AM_0
 10
136.02408310992129
 20
242.81435357178259
 30
0.0
 11
136.1008155383463
 21
242.81435357178259
 31
0.0
  0
ARC
  5
57F9
  8
AM_0
 10
134.37444738334941
 20
239.8595243240745
 30
0.0
 40
0.3000000000000007
 50
0.0
 51
90.0
  0
LINE
  5
57FA
  8
AM_0
 10
134.37444738334941
 20
238.38728113764159
 30
0.0
 11
133.17444738334939
 21
238.38728113764159
 31
0.0
  0
ARC
  5
57FB
  8
AM_0
 10
134.37444738334941
 20
238.68728113764161
 30
0.0
 40
0.3000000000000043
 50
270.0
 51
0.0
  0
LINE
  5
57FC
  8
AM_0
 10
134.37444738334941
 20
234.71435357178359
 30
0.0
 11
133.17444738334939
 21
234.71435357178359
 31
0.0
  0
ARC
  5
57FD
  8
AM_0
 10
134.37444738334941
 20
234.41435357178349
 30
0.0
 40
0.3000000000000007
 50
0.0
 51
90.0
  0
LINE
  5
57FE
  8
AM_0
 10
124.1744473833494
 20
243.8476334004294
 30
0.0
 11
130.67444738334939
 21
243.8476334004294
 31
0.0
  0
LINE
  5
57FF
  8
AM_0
 10
124.1744473833494
 20
244.3476334004294
 30
0.0
 11
130.67444738334939
 21
244.3476334004294
 31
0.0
  0
LINE
  5
5800
  8
AM_0
 10
130.67444738334939
 20
234.2143535717826
 30
0.0
 11
124.1744473833494
 21
234.2143535717826
 31
0.0
  0
LINE
  5
5801
  8
AM_0
 10
123.6744473833494
 20
234.7143535717826
 30
0.0
 11
130.67444738334939
 21
234.7143535717826
 31
0.0
  0
LINE
  5
5802
  8
AM_0
 10
130.37444738334941
 20
244.7143535717826
 30
0.0
 11
123.5364973185313
 21
244.7143535717826
 31
0.0
  0
LINE
  5
5803
  8
AM_0
 10
130.67444738334939
 20
235.06104164032351
 30
0.0
 11
124.1744473833494
 21
235.06104164032351
 31
0.0
  0
LINE
  5
5804
  8
AM_0
 10
130.67444738334939
 20
243.3676655032416
 30
0.0
 11
124.1744473833494
 21
243.3676655032416
 31
0.0
  0
ARC
  5
5805
  8
AM_0
 10
130.97444738334929
 20
245.4143535717825
 30
0.0
 40
0.2999999999999971
 50
90.0
 51
180.0
  0
ARC
  5
5806
  8
AM_0
 10
130.37444738334941
 20
245.01435357178241
 30
0.0
 40
0.2999999999999971
 50
270.0
 51
0.0
  0
ARC
  5
5807
  8
AM_0
 10
132.29944738334939
 20
239.2143535717826
 30
0.0
 40
9.124999999999984
 50
152.92493329272219
 51
207.07506670727781
  0
LINE
  5
5808
  8
AM_0
 10
122.8963129188669
 20
244.48257485138001
 30
0.0
 11
120.5342629836848
 21
242.514199905395
 31
0.0
  0
LINE
  5
5809
  8
AM_0
 10
123.6744473833494
 20
244.13592098827439
 30
0.0
 11
124.1744473833494
 21
244.7143535717826
 31
0.0
  0
ARC
  5
580A
  8
AM_0
 10
123.5364973185313
 20
243.7143535717826
 30
0.0
 40
1.0
 50
90.0
 51
129.80557109225549
  0
LINE
  5
580B
  8
AM_0
 10
124.1744473833494
 20
244.3476334004294
 30
0.0
 11
123.6744473833494
 21
244.13592098827439
 31
0.0
  0
LINE
  5
580C
  8
AM_0
 10
123.6744473833494
 20
243.67364571530359
 30
0.0
 11
124.1744473833494
 21
244.3476334004294
 31
0.0
  0
LINE
  5
580D
  8
AM_0
 10
124.1744473833494
 20
243.8476334004294
 30
0.0
 11
123.6744473833494
 21
243.67364571530359
 31
0.0
  0
LINE
  5
580E
  8
AM_0
 10
123.6744473833494
 20
243.13592098827451
 30
0.0
 11
124.1744473833494
 21
243.8476334004294
 31
0.0
  0
LINE
  5
580F
  8
AM_0
 10
124.1744473833494
 20
243.3676655032416
 30
0.0
 11
123.6744473833494
 21
243.13592098827451
 31
0.0
  0
ARC
  5
5810
  8
AM_0
 10
121.1744473833494
 20
241.74597862579751
 30
0.0
 40
1.0000000000000291
 50
129.80557109226359
 51
180.0
  0
LINE
  5
5811
  8
AM_0
 10
124.1744473833494
 20
234.2143535717826
 30
0.0
 11
123.6744473833494
 21
233.7143535717826
 31
0.0
  0
LINE
  5
5812
  8
AM_0
 10
123.6744473833494
 20
234.7143535717826
 30
0.0
 11
124.1744473833494
 21
234.2143535717826
 31
0.0
  0
LINE
  5
5813
  8
AM_0
 10
124.1744473833494
 20
235.06104164032351
 30
0.0
 11
123.6744473833494
 21
234.7143535717826
 31
0.0
  0
LINE
  5
5814
  8
AM_0
 10
130.97444738334929
 20
221.7143535717826
 30
0.0
 11
133.17444738334939
 21
221.7143535717826
 31
0.0
  0
ARC
  5
5815
  8
AM_0
 10
145.0731184796953
 20
221.2143535717826
 30
0.0
 40
0.5
 50
0.0
 51
90.000000000006537
  0
LINE
  5
5816
  8
AM_0
 10
140.07311847969541
 20
224.6143535717826
 30
0.0
 11
136.8508155383463
 21
224.6143535717826
 31
0.0
  0
LINE
  5
5817
  8
AM_0
 10
145.57311847969541
 20
232.57042489318951
 30
0.0
 11
145.57311847969541
 21
222.8582822503744
 31
0.0
  0
LINE
  5
5818
  8
AM_0
 10
140.57311847969541
 20
233.07042489318951
 30
0.0
 11
145.0731184796953
 21
233.07042489318951
 31
0.0
  0
ARC
  5
5819
  8
AM_0
 10
145.0731184796953
 20
232.57042489318951
 30
0.0
 40
0.5
 50
0.0
 51
90.0
  0
LINE
  5
581A
  8
AM_0
 10
140.57311847969541
 20
222.35828225037449
 30
0.0
 11
145.0731184796953
 21
222.35828225037449
 31
0.0
  0
LINE
  5
581B
  8
AM_0
 10
145.07311847969521
 20
221.7143535717826
 30
0.0
 11
141.07311847969541
 21
221.7143535717826
 31
0.0
  0
ARC
  5
581C
  8
AM_0
 10
145.0731184796953
 20
222.8582822503744
 30
0.0
 40
0.5
 50
270.0
 51
0.0
  0
ARC
  5
581D
  8
AM_0
 10
140.07311847969541
 20
224.1143535717824
 30
0.0
 40
0.5
 50
0.0
 51
90.0
  0
ARC
  5
581E
  8
AM_0
 10
141.07311847969541
 20
222.2143535717826
 30
0.0
 40
0.5
 50
180.0
 51
270.0
  0
ARC
  5
581F
  8
AM_0
 10
134.37444738334941
 20
227.56918281949049
 30
0.0
 40
0.3000000000000114
 50
270.0
 51
0.0
  0
LINE
  5
5820
  8
AM_0
 10
133.17444738334939
 20
232.71435357178049
 30
0.0
 11
134.37444738334941
 21
232.71435357178049
 31
0.0
  0
ARC
  5
5821
  8
AM_0
 10
134.37444738334941
 20
233.0143535717805
 30
0.0
 40
0.2999999999999971
 50
270.0
 51
0.0
  0
LINE
  5
5822
  8
AM_0
 10
133.17444738334939
 20
229.0414260059236
 30
0.0
 11
134.37444738334941
 21
229.0414260059236
 31
0.0
  0
ARC
  5
5823
  8
AM_0
 10
134.37444738334941
 20
228.7414260059235
 30
0.0
 40
0.3000000000000007
 50
0.0
 51
90.0
  0
LINE
  5
5824
  8
AM_0
 10
134.67444738334939
 20
228.74142600592361
 30
0.0
 11
134.67444738334939
 21
227.56918281949061
 31
0.0
  0
LINE
  5
5825
  8
AM_0
 10
136.1008155383463
 20
223.8643535717824
 30
0.0
 11
136.49638605127021
 21
223.8643535717824
 31
0.0
  0
LINE
  5
5826
  8
AM_0
 10
136.1008155383463
 20
223.8643535717824
 30
0.0
 11
136.49638605127021
 21
223.8643535717824
 31
0.0
  0
LINE
  5
5827
  8
AM_0
 10
136.5929785458095
 20
223.93847133851909
 30
0.0
 11
136.75422304380729
 21
224.54023580504611
 31
0.0
  0
LINE
  5
5828
  8
AM_0
 10
136.5929785458095
 20
223.93847133851909
 30
0.0
 11
136.75422304380729
 21
224.54023580504611
 31
0.0
  0
ARC
  5
5829
  8
AM_0
 10
136.8508155383463
 20
224.51435357178249
 30
0.0
 40
0.0999999999999943
 50
90.0
 51
164.9998049934859
  0
ARC
  5
582A
  8
AM_0
 10
136.49638605127021
 20
223.9643535717826
 30
0.0
 40
0.0999999999999943
 50
270.0
 51
344.99980499349448
  0
LINE
  5
582B
  8
AM_0
 10
135.17360079480821
 20
224.23935357178229
 30
0.0
 11
135.25422304380729
 21
224.54023580504611
 31
0.0
  0
LINE
  5
582C
  8
AM_0
 10
135.8258291319014
 20
224.5750890386845
 30
0.0
 11
136.00422304380729
 21
223.93847133851909
 31
0.0
  0
LINE
  5
582D
  8
AM_0
 10
135.8429785458095
 20
224.54023580504611
 30
0.0
 11
136.00422304380729
 21
223.93847133851909
 31
0.0
  0
LINE
  5
582E
  8
AM_0
 10
134.67444738334939
 20
224.42752059127361
 30
0.0
 11
134.67444738334939
 21
223.7706056076226
 31
0.0
  0
LINE
  5
582F
  8
AM_0
 10
135.17444738334939
 20
224.2425130402205
 30
0.0
 11
135.25422304380729
 21
224.54023580504611
 31
0.0
  0
LINE
  5
5830
  8
AM_0
 10
133.17444738334939
 20
224.7275205912735
 30
0.0
 11
134.37444738334941
 21
224.7275205912735
 31
0.0
  0
LINE
  5
5831
  8
AM_0
 10
134.37444738334941
 20
227.2691828194906
 30
0.0
 11
133.17444738334939
 21
227.26918281948949
 31
0.0
  0
LINE
  5
5832
  8
AM_0
 10
135.77901831678531
 20
224.6143535717826
 30
0.0
 11
135.8258291319014
 21
224.5750890386845
 31
0.0
  0
LINE
  5
5833
  8
AM_0
 10
135.3508155383463
 20
224.6143535717826
 30
0.0
 11
135.77901831678531
 21
224.6143535717826
 31
0.0
  0
LINE
  5
5834
  8
AM_0
 10
135.3508155383463
 20
224.6143535717826
 30
0.0
 11
135.74638605127021
 21
224.6143535717826
 31
0.0
  0
ARC
  5
5835
  8
AM_0
 10
135.3508155383463
 20
224.51435357178249
 30
0.0
 40
0.0999999999999943
 50
90.0
 51
164.9998049934859
  0
ARC
  5
5836
  8
AM_0
 10
135.74638605127021
 20
224.51435357178249
 30
0.0
 40
0.0999999999999608
 50
15.00019500651408
 51
90.0
  0
ARC
  5
5837
  8
AM_0
 10
134.37444738334941
 20
224.42752059127349
 30
0.0
 40
0.3000000000000007
 50
0.0
 51
90.0
  0
LINE
  5
5838
  8
AM_0
 10
133.17444738334939
 20
222.71435357178251
 30
0.0
 11
134.67444738334939
 21
222.71435357178251
 31
0.0
  0
LINE
  5
5839
  8
AM_0
 10
134.37444738334941
 20
223.4706056076225
 30
0.0
 11
133.17444738334939
 21
223.4706056076225
 31
0.0
  0
LINE
  5
583A
  8
AM_0
 10
134.39440308650649
 20
222.3956839519924
 30
0.0
 11
133.17444738334939
 21
222.3143535717825
 31
0.0
  0
ARC
  5
583B
  8
AM_0
 10
134.67444738334939
 20
223.2143535717826
 30
0.0
 40
0.5
 50
270.0
 51
0.0
  0
ARC
  5
583C
  8
AM_0
 10
136.1008155383463
 20
223.9643535717826
 30
0.0
 40
0.0999999999999606
 50
195.00019500650541
 51
270.0
  0
ARC
  5
583D
  8
AM_0
 10
134.37444738334941
 20
223.7706056076226
 30
0.0
 40
0.2999999999999971
 50
270.0
 51
0.0
  0
LINE
  5
583E
  8
AM_0
 10
134.67444738334939
 20
222.71435357178251
 30
0.0
 11
134.67444738334939
 21
222.6950194993496
 31
0.0
  0
ARC
  5
583F
  8
AM_0
 10
134.37444738334941
 20
222.6950194993496
 30
0.0
 40
0.3000000000000043
 50
273.81407483428148
 51
0.0
  0
ARC
  5
5840
  8
AM_0
 10
146.0731184796953
 20
220.71435357178251
 30
0.0
 40
0.5
 50
180.0
 51
270.0
  0
LINE
  5
5841
  8
AM_0
 10
145.57311847969541
 20
220.71435357178251
 30
0.0
 11
145.57311847969541
 21
221.2143535717826
 31
0.0
  0
LINE
  5
5842
  8
AM_0
 10
124.1744473833494
 20
224.06104164032351
 30
0.0
 11
130.67444738334939
 21
224.06104164032351
 31
0.0
  0
LINE
  5
5843
  8
AM_0
 10
124.1744473833494
 20
232.3676655032416
 30
0.0
 11
130.67444738334939
 21
232.3676655032416
 31
0.0
  0
LINE
  5
5844
  8
AM_0
 10
123.5364973185313
 20
222.71435357178251
 30
0.0
 11
130.37444738334941
 21
222.71435357178251
 31
0.0
  0
LINE
  5
5845
  8
AM_0
 10
130.67444738334939
 20
232.7143535717826
 30
0.0
 11
123.6744473833494
 21
232.7143535717826
 31
0.0
  0
LINE
  5
5846
  8
AM_0
 10
124.1744473833494
 20
233.21435357178251
 30
0.0
 11
130.67444738334939
 21
233.21435357178251
 31
0.0
  0
LINE
  5
5847
  8
AM_0
 10
130.67444738334939
 20
223.0810737431344
 30
0.0
 11
124.1744473833494
 21
223.0810737431344
 31
0.0
  0
LINE
  5
5848
  8
AM_0
 10
130.67444738334939
 20
223.5810737431346
 30
0.0
 11
124.1744473833494
 21
223.5810737431346
 31
0.0
  0
ARC
  5
5849
  8
AM_0
 10
130.37444738334941
 20
222.4143535717825
 30
0.0
 40
0.3000000000000043
 50
0.0
 51
90.0
  0
ARC
  5
584A
  8
AM_0
 10
130.97444738334929
 20
222.01435357178241
 30
0.0
 40
0.2999999999999971
 50
180.0
 51
270.0
  0
ARC
  5
584B
  8
AM_0
 10
132.29944738334939
 20
228.2143535717826
 30
0.0
 40
9.124999999999984
 50
152.92493329272219
 51
207.07506670727781
  0
LINE
  5
584C
  8
AM_0
 10
123.6744473833494
 20
232.7143535717826
 30
0.0
 11
124.1744473833494
 21
232.3676655032416
 31
0.0
  0
LINE
  5
584D
  8
AM_0
 10
124.1744473833494
 20
233.21435357178251
 30
0.0
 11
123.6744473833494
 21
232.7143535717826
 31
0.0
  0
LINE
  5
584E
  8
AM_0
 10
120.5342629836848
 20
224.91450723816911
 30
0.0
 11
122.8963129188669
 21
222.9461322921851
 31
0.0
  0
LINE
  5
584F
  8
AM_0
 10
124.1744473833494
 20
222.71435357178251
 30
0.0
 11
123.6744473833494
 21
223.2927861552896
 31
0.0
  0
ARC
  5
5850
  8
AM_0
 10
123.5364973185313
 20
223.7143535717826
 30
0.0
 40
1.0000000000000411
 50
230.19442890774451
 51
270.0
  0
LINE
  5
5851
  8
AM_0
 10
123.6744473833494
 20
224.2927861552896
 30
0.0
 11
124.1744473833494
 21
224.06104164032351
 31
0.0
  0
LINE
  5
5852
  8
AM_0
 10
124.1744473833494
 20
223.5810737431346
 30
0.0
 11
123.6744473833494
 21
224.2927861552896
 31
0.0
  0
LINE
  5
5853
  8
AM_0
 10
123.6744473833494
 20
223.7550614282616
 30
0.0
 11
124.1744473833494
 21
223.5810737431346
 31
0.0
  0
LINE
  5
5854
  8
AM_0
 10
124.1744473833494
 20
223.0810737431344
 30
0.0
 11
123.6744473833494
 21
223.7550614282616
 31
0.0
  0
LINE
  5
5855
  8
AM_0
 10
123.6744473833494
 20
223.2927861552896
 30
0.0
 11
124.1744473833494
 21
223.0810737431344
 31
0.0
  0
ARC
  5
5856
  8
AM_0
 10
121.1744473833494
 20
225.68272851776641
 30
0.0
 40
1.0
 50
180.0
 51
230.19442890773641
  0
CIRCLE
  5
5857
  8
AM_0
 10
154.5731184796937
 20
274.71435357178211
 30
0.0
 40
4.0
  0
LINE
  5
5858
  8
AM_0
 10
154.2616184796936
 20
272.43554516605792
 30
0.0
 11
154.8846184796937
 21
272.43554516605792
 31
0.0
  0
LINE
  5
5859
  8
AM_0
 10
154.2616184796936
 20
276.99316197750659
 30
0.0
 11
154.8846184796937
 21
276.99316197750659
 31
0.0
  0
LINE
  5
585A
  8
AM_0
 10
154.2616184796936
 20
272.43554516605792
 30
0.0
 11
154.2616184796936
 21
274.4028535717822
 31
0.0
  0
LINE
  5
585B
  8
AM_0
 10
154.2616184796936
 20
275.02585357178208
 30
0.0
 11
154.2616184796936
 21
276.99316197750659
 31
0.0
  0
LINE
  5
585C
  8
AM_0
 10
154.2616184796936
 20
275.02585357178208
 30
0.0
 11
152.29431007396931
 21
275.02585357178208
 31
0.0
  0
LINE
  5
585D
  8
AM_0
 10
154.2616184796936
 20
274.4028535717822
 30
0.0
 11
152.29431007396931
 21
274.4028535717822
 31
0.0
  0
LINE
  5
585E
  8
AM_0
 10
152.29431007396931
 20
275.02585357178208
 30
0.0
 11
152.29431007396931
 21
274.4028535717822
 31
0.0
  0
LINE
  5
585F
  8
AM_0
 10
154.8846184796937
 20
272.43554516605792
 30
0.0
 11
154.8846184796937
 21
274.4028535717822
 31
0.0
  0
LINE
  5
5860
  8
AM_0
 10
154.8846184796937
 20
275.02585357178208
 30
0.0
 11
154.8846184796937
 21
276.99316197750659
 31
0.0
  0
LINE
  5
5861
  8
AM_0
 10
156.85192688541801
 20
274.4028535717822
 30
0.0
 11
154.8846184796937
 21
274.4028535717822
 31
0.0
  0
LINE
  5
5862
  8
AM_0
 10
156.85192688541801
 20
275.02585357178208
 30
0.0
 11
154.8846184796937
 21
275.02585357178208
 31
0.0
  0
LINE
  5
5863
  8
AM_0
 10
156.85192688541801
 20
275.02585357178208
 30
0.0
 11
156.85192688541801
 21
274.4028535717822
 31
0.0
  0
CIRCLE
  5
5864
  8
AM_0
 10
240.5731184796972
 20
274.71435357178211
 30
0.0
 40
4.0
  0
LINE
  5
5865
  8
AM_0
 10
240.2616184796972
 20
272.43554516605769
 30
0.0
 11
240.8846184796972
 21
272.43554516605769
 31
0.0
  0
LINE
  5
5866
  8
AM_0
 10
240.2616184796972
 20
276.99316197750647
 30
0.0
 11
240.8846184796972
 21
276.99316197750647
 31
0.0
  0
LINE
  5
5867
  8
AM_0
 10
240.2616184796972
 20
272.43554516605769
 30
0.0
 11
240.2616184796972
 21
274.40285357178209
 31
0.0
  0
LINE
  5
5868
  8
AM_0
 10
240.2616184796972
 20
275.02585357178208
 30
0.0
 11
240.2616184796972
 21
276.99316197750647
 31
0.0
  0
LINE
  5
5869
  8
AM_0
 10
240.2616184796972
 20
275.02585357178208
 30
0.0
 11
238.29431007397289
 21
275.02585357178208
 31
0.0
  0
LINE
  5
586A
  8
AM_0
 10
240.2616184796972
 20
274.40285357178209
 30
0.0
 11
238.29431007397289
 21
274.40285357178209
 31
0.0
  0
LINE
  5
586B
  8
AM_0
 10
238.29431007397289
 20
275.02585357178208
 30
0.0
 11
238.29431007397289
 21
274.40285357178209
 31
0.0
  0
LINE
  5
586C
  8
AM_0
 10
240.8846184796972
 20
272.43554516605769
 30
0.0
 11
240.8846184796972
 21
274.40285357178209
 31
0.0
  0
LINE
  5
586D
  8
AM_0
 10
240.8846184796972
 20
275.02585357178208
 30
0.0
 11
240.8846184796972
 21
276.99316197750647
 31
0.0
  0
LINE
  5
586E
  8
AM_0
 10
242.85192688542159
 20
274.40285357178209
 30
0.0
 11
240.8846184796972
 21
274.40285357178209
 31
0.0
  0
LINE
  5
586F
  8
AM_0
 10
242.85192688542159
 20
275.02585357178208
 30
0.0
 11
240.8846184796972
 21
275.02585357178208
 31
0.0
  0
LINE
  5
5870
  8
AM_0
 10
242.85192688542159
 20
275.02585357178208
 30
0.0
 11
242.85192688542159
 21
274.40285357178209
 31
0.0
  0
LINE
  5
5871
  8
AM_0
 10
168.1086523856284
 20
278.24988747771528
 30
0.0
 11
151.03758457376259
 21
261.17881966585003
 31
0.0
  0
LINE
  5
5872
  8
AM_0
 10
168.7655066351204
 20
273.24988747771522
 30
0.0
 11
156.03758457376259
 21
260.52196541635738
 31
0.0
  0
ARC
  5
5873
  8
AM_0
 10
159.5731184796953
 20
256.98643151042461
 30
0.0
 40
5.0
 50
135.0
 51
180.0
1001
GENIUS_GENOBJ-N-FIL_13
1002
{
1000
OWNER
1000
GEN
1002
}
1001
GENIUS_GENODEF_13
1002
{
1000
HIER
1070
     0
1002
}
1002
{
1000
MANEDIT
1070
     0
1002
}
1002
{
1000
NOSEL
1070
     0
1002
}
1002
{
1000
BEHIND
1070
     0
1002
}
1002
{
1000
OTHER
1070
     0
1002
}
1002
{
1000
REACTOR
1002
}
  0
LINE
  5
5874
  8
AM_0
 10
227.03758457376259
 20
189.17881966584969
 30
0.0
 11
244.10865238562809
 21
206.24988747771491
 31
0.0
  0
ARC
  5
5875
  8
AM_0
 10
223.50205066782999
 20
192.71435357178231
 30
0.0
 40
5.0
 50
270.0
 51
315.0
1001
GENIUS_GENODEF_13
1002
{
1000
HIER
1070
     0
1002
}
1002
{
1000
MANEDIT
1070
     0
1002
}
1002
{
1000
NOSEL
1070
     0
1002
}
1002
{
1000
BEHIND
1070
     0
1002
}
1002
{
1000
OTHER
1070
     0
1002
}
1002
{
1000
REACTOR
1002
}
1001
GENIUS_GENOBJ-N-FIL_13
1002
{
1000
OWNER
1000
GEN
1002
}
  0
LINE
  5
5876
  8
AM_0
 10
226.38073032427039
 20
194.17881966584969
 30
0.0
 11
239.10865238562809
 21
206.9067417272073
 31
0.0
  0
ARC
  5
5877
  8
AM_0
 10
235.57311847969549
 20
210.4422756331401
 30
0.0
 40
5.0
 50
315.0
 51
0.0
1001
GENIUS_GENOBJ-N-FIL_13
1002
{
1000
OWNER
1000
GEN
1002
}
1001
GENIUS_GENODEF_13
1002
{
1000
HIER
1070
     0
1002
}
1002
{
1000
MANEDIT
1070
     0
1002
}
1002
{
1000
NOSEL
1070
     0
1002
}
1002
{
1000
BEHIND
1070
     0
1002
}
1002
{
1000
OTHER
1070
     0
1002
}
1002
{
1000
REACTOR
1002
}
  0
LINE
  5
5878
  8
AM_0
 10
168.10865238562809
 20
189.17881966584969
 30
0.0
 11
151.03758457376259
 21
206.24988747771491
 31
0.0
  0
LINE
  5
5879
  8
AM_0
 10
168.76550663512029
 20
194.17881966584969
 30
0.0
 11
156.03758457376259
 21
206.9067417272073
 31
0.0
  0
ARC
  5
587A
  8
AM_0
 10
172.30104054105311
 20
197.71435357178231
 30
0.0
 40
5.0
 50
225.0
 51
270.0
1001
GENIUS_GENOBJ-N-FIL_13
1002
{
1000
OWNER
1000
GEN
1002
}
1001
GENIUS_GENODEF_13
1002
{
1000
HIER
1070
     0
1002
}
1002
{
1000
MANEDIT
1070
     0
1002
}
1002
{
1000
NOSEL
1070
     0
1002
}
1002
{
1000
BEHIND
1070
     0
1002
}
1002
{
1000
OTHER
1070
     0
1002
}
1002
{
1000
REACTOR
1002
}
  0
CIRCLE
  5
587B
  8
AM_0
 10
154.57311847969351
 20
192.71435357178279
 30
0.0
 40
4.0
  0
LINE
  5
587C
  8
AM_0
 10
154.2616184796936
 20
194.9931619775071
 30
0.0
 11
154.88461847969359
 21
194.9931619775071
 31
0.0
  0
LINE
  5
587D
  8
AM_0
 10
154.2616184796936
 20
190.4355451660584
 30
0.0
 11
154.88461847969359
 21
190.4355451660584
 31
0.0
  0
LINE
  5
587E
  8
AM_0
 10
154.2616184796936
 20
194.9931619775071
 30
0.0
 11
154.2616184796936
 21
193.02585357178279
 31
0.0
  0
LINE
  5
587F
  8
AM_0
 10
154.2616184796936
 20
192.40285357178271
 30
0.0
 11
154.2616184796936
 21
190.4355451660584
 31
0.0
  0
LINE
  5
5880
  8
AM_0
 10
154.2616184796936
 20
192.40285357178271
 30
0.0
 11
152.2943100739692
 21
192.40285357178271
 31
0.0
  0
LINE
  5
5881
  8
AM_0
 10
154.2616184796936
 20
193.02585357178279
 30
0.0
 11
152.2943100739692
 21
193.02585357178279
 31
0.0
  0
LINE
  5
5882
  8
AM_0
 10
152.2943100739692
 20
192.40285357178271
 30
0.0
 11
152.2943100739692
 21
193.02585357178279
 31
0.0
  0
LINE
  5
5883
  8
AM_0
 10
154.88461847969359
 20
194.9931619775071
 30
0.0
 11
154.88461847969359
 21
193.02585357178279
 31
0.0
  0
LINE
  5
5884
  8
AM_0
 10
154.88461847969359
 20
192.40285357178271
 30
0.0
 11
154.88461847969359
 21
190.4355451660584
 31
0.0
  0
LINE
  5
5885
  8
AM_0
 10
156.8519268854179
 20
193.02585357178279
 30
0.0
 11
154.88461847969359
 21
193.02585357178279
 31
0.0
  0
LINE
  5
5886
  8
AM_0
 10
156.8519268854179
 20
192.40285357178271
 30
0.0
 11
154.88461847969359
 21
192.40285357178271
 31
0.0
  0
LINE
  5
5887
  8
AM_0
 10
156.8519268854179
 20
192.40285357178271
 30
0.0
 11
156.8519268854179
 21
193.02585357178279
 31
0.0
  0
CIRCLE
  5
5888
  8
AM_0
 10
240.57311847969709
 20
192.7143535717824
 30
0.0
 40
4.0
  0
LINE
  5
5889
  8
AM_0
 10
240.26161847969709
 20
194.99316197750699
 30
0.0
 11
240.88461847969711
 21
194.99316197750699
 31
0.0
  0
LINE
  5
588A
  8
AM_0
 10
240.26161847969709
 20
190.43554516605829
 30
0.0
 11
240.88461847969711
 21
190.43554516605829
 31
0.0
  0
LINE
  5
588B
  8
AM_0
 10
240.26161847969709
 20
194.99316197750699
 30
0.0
 11
240.26161847969709
 21
193.02585357178251
 31
0.0
  0
LINE
  5
588C
  8
AM_0
 10
240.26161847969709
 20
192.4028535717824
 30
0.0
 11
240.26161847969709
 21
190.43554516605829
 31
0.0
  0
LINE
  5
588D
  8
AM_0
 10
240.26161847969709
 20
192.4028535717824
 30
0.0
 11
238.2943100739727
 21
192.4028535717824
 31
0.0
  0
LINE
  5
588E
  8
AM_0
 10
240.26161847969709
 20
193.02585357178251
 30
0.0
 11
238.2943100739727
 21
193.02585357178251
 31
0.0
  0
LINE
  5
588F
  8
AM_0
 10
238.2943100739727
 20
192.4028535717824
 30
0.0
 11
238.2943100739727
 21
193.02585357178251
 31
0.0
  0
LINE
  5
5890
  8
AM_0
 10
240.88461847969711
 20
194.99316197750699
 30
0.0
 11
240.88461847969711
 21
193.02585357178251
 31
0.0
  0
LINE
  5
5891
  8
AM_0
 10
240.88461847969711
 20
192.4028535717824
 30
0.0
 11
240.88461847969711
 21
190.43554516605829
 31
0.0
  0
LINE
  5
5892
  8
AM_0
 10
242.85192688542139
 20
193.02585357178251
 30
0.0
 11
240.88461847969711
 21
193.02585357178251
 31
0.0
  0
LINE
  5
5893
  8
AM_0
 10
242.85192688542139
 20
192.4028535717824
 30
0.0
 11
240.88461847969711
 21
192.4028535717824
 31
0.0
  0
LINE
  5
5894
  8
AM_0
 10
242.85192688542139
 20
192.4028535717824
 30
0.0
 11
242.85192688542139
 21
193.02585357178251
 31
0.0
  0
LINE
  5
5895
  8
AM_0
 10
149.57311847969541
 20
202.7143535717824
 30
0.0
 11
148.57311847969541
 21
202.7143535717824
 31
0.0
  0
LINE
  5
5896
  8
AM_0
 10
149.57311847969541
 20
264.71435357178262
 30
0.0
 11
148.57311847969541
 21
264.71435357178251
 31
0.0
  0
LINE
  5
5897
  8
AM_0
 10
148.57311847969541
 20
202.7143535717824
 30
0.0
 11
148.57311847969541
 21
264.71435357178251
 31
0.0
  0
LINE
  5
5899
  8
AM_0
 10
509.95504892366029
 20
187.71437307178221
 30
0.0
 11
533.79810030525482
 21
188.54699077305889
 31
0.0
  0
LINE
  5
589A
  8
AM_0
 10
531.95507692366004
 20
278.9461151651825
 30
0.0
 11
509.95504892366029
 21
279.71437307178252
 31
0.0
  0
LINE
  5
589B
  8
AM_0
 10
509.95504892366029
 20
279.71437307178252
 30
0.0
 11
509.95504892366029
 21
187.71437307178209
 31
0.0
  0
LINE
  5
589C
  8
ﾁｭｳｼﾝｾﾝ1
 10
498.95504892366029
 20
192.714373071783
 30
0.0
 11
514.78257193619675
 21
192.71437307178289
 31
0.0
  0
LINE
  5
589D
  8
AM_0
 10
505.95504892366029
 20
279.71437307178252
 30
0.0
 11
505.95504892366029
 21
258.89986817225002
 31
0.0
  0
LINE
  5
589E
  8
AM_0
 10
505.95504892366029
 20
208.5288779713147
 30
0.0
 11
505.95504892366029
 21
187.71437307178309
 31
0.0
  0
LINE
  5
589F
  8
AM_0
 10
501.95504892366051
 20
273.57859140262178
 30
0.0
 11
501.95504892366017
 21
193.85015474094291
 31
0.0
  0
LINE
  5
58A0
  8
AM_0
 10
503.89611141153262
 20
196.62172804408939
 30
0.0
 11
504.95504892366029
 21
196.71437307178289
 31
0.0
  0
LINE
  5
58A1
  8
AM_0
 10
503.89611141153262
 20
188.80701809947641
 30
0.0
 11
504.95504892366029
 21
188.71437307178289
 31
0.0
  0
ARC
  5
58A2
  8
AM_0
 10
508.35504892366038
 20
192.71437307178289
 30
0.0
 40
6.5
 50
151.82726586813479
 51
208.1727341318651
  0
ARC
  5
58A3
  8
AM_0
 10
504.03556059992877
 20
190.40092961642321
 30
0.0
 40
1.6000000000000001
 50
208.1727341318651
 51
265.00000000000028
  0
LINE
  5
58A4
  8
AM_0
 10
502.27557526223222
 20
195.01437307178281
 30
0.0
 11
504.56513494102762
 21
192.71437307178289
 31
0.0
  0
LINE
  5
58A5
  8
AM_0
 10
504.2550489236603
 20
193.02587307178291
 30
0.0
 11
504.2550489236603
 21
192.40287307178289
 31
0.0
  0
LINE
  5
58A6
  8
AM_0
 10
502.27557526223222
 20
190.4143730717829
 30
0.0
 11
504.56513494102762
 21
192.71437307178289
 31
0.0
  0
LINE
  5
58A7
  8
AM_0
 10
501.86251723332572
 20
193.02587307178291
 30
0.0
 11
504.2550489236603
 21
193.02587307178291
 31
0.0
  0
LINE
  5
58A8
  8
AM_0
 10
501.86251723332572
 20
192.40287307178289
 30
0.0
 11
504.2550489236603
 21
192.40287307178289
 31
0.0
  0
ARC
  5
58A9
  8
AM_0
 10
504.03556059992877
 20
195.02781652714251
 30
0.0
 40
1.6000000000000001
 50
94.999999999999758
 51
151.82726586813479
  0
LINE
  5
58AA
  8
AM_0
 10
505.95504892366029
 20
279.71437307178252
 30
0.0
 11
509.95504892366029
 21
279.71437307178252
 31
0.0
  0
LINE
  5
58AB
  8
AM_0
 10
504.95504892366017
 20
278.71437307178218
 30
0.0
 11
505.95504892366063
 21
279.71437307178252
 31
0.0
  0
LINE
  5
58AC
  8
AM_0
 10
509.95504892366029
 20
187.71437307178209
 30
0.0
 11
505.95504892366029
 21
187.71437307178309
 31
0.0
  0
LINE
  5
58AD
  8
AM_0N
 10
505.95504892366029
 20
196.51437307178301
 30
0.0
 11
504.95504892366029
 21
196.51437307178301
 31
0.0
  0
LINE
  5
58AE
  8
AM_0N
 10
504.95504892366029
 20
192.9143730717829
 30
0.0
 11
505.95504892366029
 21
193.27834330604901
 31
0.0
  0
LINE
  5
58AF
  8
AM_0N
 10
504.95504892366029
 20
192.5143730717829
 30
0.0
 11
505.95504892366029
 21
192.87834330604909
 31
0.0
  0
LINE
  5
58B0
  8
AM_0N
 10
504.95504892366029
 20
188.71437307178289
 30
0.0
 11
504.95504892366029
 21
196.71437307178289
 31
0.0
  0
LINE
  5
58B1
  8
AM_0N
 10
504.95504892366029
 20
188.9143730717829
 30
0.0
 11
505.95504892366029
 21
188.9143730717829
 31
0.0
  0
LINE
  5
58B2
  8
AM_0
 10
501.95504892366017
 20
208.52887797131461
 30
0.0
 11
505.95504892366029
 21
208.5288779713147
 31
0.0
  0
LINE
  5
58B3
  8
AM_0
 10
505.95504892366029
 20
206.87202372182219
 30
0.0
 11
501.95504892366017
 21
208.52887797131461
 31
0.0
  0
LINE
  5
58B4
  8
AM_0
 10
501.95504892366051
 20
258.89986817225002
 30
0.0
 11
505.95504892366029
 21
258.89986817225002
 31
0.0
  0
LINE
  5
58B5
  8
AM_0
 10
505.95504892366029
 20
260.55672242174239
 30
0.0
 11
501.95504892366051
 21
258.89986817225002
 31
0.0
  0
LINE
  5
58B6
  8
ﾁｭｳｼﾝｾﾝ1
 10
498.95504892366051
 20
274.71437307178172
 30
0.0
 11
514.78257193619675
 21
274.71437307178178
 31
0.0
  0
LINE
  5
58B7
  8
AM_0
 10
503.89611141153262
 20
270.80701809947527
 30
0.0
 11
504.95504892366029
 21
270.71437307178178
 31
0.0
  0
LINE
  5
58B8
  8
AM_0
 10
503.89611141153262
 20
278.62172804408817
 30
0.0
 11
504.95504892366029
 21
278.71437307178178
 31
0.0
  0
ARC
  5
58B9
  8
AM_0
 10
508.35504892366038
 20
274.71437307178178
 30
0.0
 40
6.5
 50
151.82726586813479
 51
208.1727341318651
  0
ARC
  5
58BA
  8
AM_0
 10
504.03556059992877
 20
277.02781652714151
 30
0.0
 40
1.6000000000000001
 50
94.999999999999758
 51
151.82726586813479
  0
LINE
  5
58BB
  8
AM_0
 10
502.27557526223222
 20
272.41437307178182
 30
0.0
 11
504.56513494102762
 21
274.71437307178178
 31
0.0
  0
LINE
  5
58BC
  8
AM_0
 10
504.2550489236603
 20
274.4028730717817
 30
0.0
 11
504.2550489236603
 21
275.0258730717818
 31
0.0
  0
LINE
  5
58BD
  8
AM_0
 10
502.27557526223222
 20
277.01437307178168
 30
0.0
 11
504.56513494102762
 21
274.71437307178178
 31
0.0
  0
LINE
  5
58BE
  8
AM_0
 10
501.86251723332572
 20
274.4028730717817
 30
0.0
 11
504.2550489236603
 21
274.4028730717817
 31
0.0
  0
LINE
  5
58BF
  8
AM_0
 10
501.86251723332572
 20
275.0258730717818
 30
0.0
 11
504.2550489236603
 21
275.0258730717818
 31
0.0
  0
ARC
  5
58C0
  8
AM_0
 10
504.03556059992877
 20
272.4009296164221
 30
0.0
 40
1.6000000000000001
 50
208.1727341318651
 51
265.00000000000028
  0
LINE
  5
58C1
  8
AM_0N
 10
505.95504892366029
 20
270.91437307178171
 30
0.0
 11
504.95504892366029
 21
270.91437307178171
 31
0.0
  0
LINE
  5
58C2
  8
AM_0N
 10
504.95504892366029
 20
274.51437307178168
 30
0.0
 11
505.95504892366029
 21
274.15040283751563
 31
0.0
  0
LINE
  5
58C3
  8
AM_0N
 10
504.95504892366029
 20
274.91437307178171
 30
0.0
 11
505.95504892366029
 21
274.55040283751549
 31
0.0
  0
LINE
  5
58C4
  8
AM_0N
 10
504.95504892366029
 20
278.71437307178178
 30
0.0
 11
504.95504892366029
 21
270.71437307178178
 31
0.0
  0
LINE
  5
58C5
  8
AM_0N
 10
504.95504892366029
 20
278.51437307178168
 30
0.0
 11
505.95504892366029
 21
278.51437307178168
 31
0.0
  0
LINE
  5
58C6
  8
ﾁｭｳｼﾝｾﾝ1
 10
154.57311847969331
 20
268.71435357178211
 30
0.0
 11
154.5731184796939
 21
280.71435357178211
 31
0.0
  0
LINE
  5
58C7
  8
ﾁｭｳｼﾝｾﾝ1
 10
160.5731184796937
 20
274.71435357178188
 30
0.0
 11
148.5731184796937
 21
274.71435357178251
 31
0.0
  0
LINE
  5
58C8
  8
ﾁｭｳｼﾝｾﾝ1
 10
154.57311847969319
 20
186.71435357178279
 30
0.0
 11
154.5731184796939
 21
198.71435357178279
 31
0.0
  0
LINE
  5
58C9
  8
ﾁｭｳｼﾝｾﾝ1
 10
160.57311847969351
 20
192.7143535717824
 30
0.0
 11
148.57311847969351
 21
192.71435357178311
 31
0.0
  0
LINE
  5
58CA
  8
ﾁｭｳｼﾝｾﾝ1
 10
240.57311847969669
 20
186.7143535717824
 30
0.0
 11
240.57311847969731
 21
198.7143535717826
 31
0.0
  0
LINE
  5
58CB
  8
ﾁｭｳｼﾝｾﾝ1
 10
246.57311847969709
 20
192.71435357178231
 30
0.0
 11
234.57311847969709
 21
192.71435357178291
 31
0.0
  0
CIRCLE
  5
58CF
  8
AM_0
 10
616.95504892366046
 20
253.71438907178211
 30
0.0
 40
33.499999999999893
  0
CIRCLE
  5
58D0
  8
AM_0
 10
616.95504892366046
 20
253.71438907178211
 30
0.0
 40
28.49999999999994
  0
LINE
  5
58D6
  8
AM_0
 10
367.57306847969488
 20
265.71435907178238
 30
0.0
 11
401.57311847969493
 21
265.71435907178238
 31
0.0
  0
LINE
  5
58D7
  8
AM_0
 10
401.57311847969493
 20
268.71435907178238
 30
0.0
 11
401.57311847969493
 21
241.7143590717823
 31
0.0
  0
LINE
  5
58D8
  8
AM_0
 10
367.57306847969488
 20
241.7143590717823
 30
0.0
 11
401.57311847969493
 21
241.7143590717823
 31
0.0
  0
LINE
  5
58D9
  8
ﾁｭｳｼﾝｾﾝ
 10
405.28558847969532
 20
253.7143590717823
 30
0.0
 11
272.2508584796953
 21
253.7143590717823
 31
0.0
  0
LINE
  5
58DA
  8
AM_0
 10
369.5730784796952
 20
268.71435907178238
 30
0.0
 11
369.5730784796952
 21
265.71435907178238
 31
0.0
  0
LINE
  5
58DB
  8
AM_0
 10
620.95503292366016
 20
268.71435907178238
 30
0.0
 11
620.95503292366016
 21
261.71436007178232
 31
0.0
  0
LINE
  5
58DC
  8
AM_0
 10
612.95503192366039
 20
268.71435907178238
 30
0.0
 11
612.95503192366039
 21
261.71436007178232
 31
0.0
  0
LINE
  5
58DD
  8
AM_0
 10
612.95503192366039
 20
268.71435907178238
 30
0.0
 11
620.95503292366016
 21
268.71435907178238
 31
0.0
  0
LINE
  5
58DE
  8
AM_0
 10
612.95503192366039
 20
261.71436007178232
 30
0.0
 11
620.95503292366016
 21
261.71436007178232
 31
0.0
  0
LINE
  5
58DF
  8
AM_0
 10
369.5730784796952
 20
268.71435907178238
 30
0.0
 11
401.57311847969493
 21
268.71435907178238
 31
0.0
  0
LINE
  5
58E0
  8
AM_0
 10
282.5730784796952
 20
283.38150307178228
 30
0.0
 11
282.5730784796952
 21
263.74240507178229
 31
0.0
  0
LINE
  5
58E1
  8
ﾁｭｳｼﾝｾﾝ
 10
114.5833992048394
 20
233.71437307178229
 30
0.0
 11
301.54702847969531
 21
233.71437307178229
 31
0.0
  0
LINE
  5
58E2
  8
AM_0
 10
256.5731284796953
 20
289.71435907178238
 30
0.0
 11
282.7039984796952
 21
290.3986260717823
 31
0.0
  0
LINE
  5
58E3
  8
AM_0
 10
256.5731284796953
 20
177.7143570717823
 30
0.0
 11
279.65161847969512
 21
177.1100310717824
 31
0.0
  0
LINE
  5
58E4
  8
AM_0
 10
256.5731284796953
 20
177.71437207178221
 30
0.0
 11
256.5731284796953
 21
289.71435907178238
 31
0.0
  0
LINE
  5
58E5
  8
AM_0
 10
289.57312847969519
 20
304.71435907178238
 30
0.0
 11
294.5730784796952
 21
304.71435907178238
 31
0.0
  0
LINE
  5
58E6
  8
AM_0
 10
287.57314847969519
 20
302.71436107178238
 30
0.0
 11
287.57314847969519
 21
287.38153507178231
 31
0.0
  0
LINE
  5
58E7
  8
AM_0
 10
284.57314847969531
 20
285.38150407178227
 30
0.0
 11
285.57307847969531
 21
285.38150407178227
 31
0.0
  0
LINE
  5
58E8
  8
AM_0
 10
282.5730784796952
 20
170.84428507178231
 30
0.0
 11
287.57314847969519
 21
170.84428507178231
 31
0.0
  0
LINE
  5
58E9
  8
AM_0
 10
282.5730784796952
 20
184.4986140717823
 30
0.0
 11
287.57314847969519
 21
184.4986140717823
 31
0.0
  0
LINE
  5
58EA
  8
AM_0
 10
282.5730784796952
 20
261.74241907178231
 30
0.0
 11
287.57314847969519
 21
261.74241907178231
 31
0.0
  0
LINE
  5
58EB
  8
AM_0
 10
284.57314847969531
 20
277.20871507178231
 30
0.0
 11
285.57307847969531
 21
277.20871507178231
 31
0.0
  0
LINE
  5
58EC
  8
AM_0
 10
287.57314847969519
 20
275.20868407178227
 30
0.0
 11
287.57314847969519
 21
164.7143700717823
 31
0.0
  0
LINE
  5
58ED
  8
AM_0
 10
282.5730784796952
 20
182.49862807178241
 30
0.0
 11
282.5730784796952
 21
170.71437307178229
 31
0.0
  0
LINE
  5
58EE
  8
AM_0
 10
256.5731284796953
 20
279.71436007178232
 30
0.0
 11
282.5730784796952
 21
279.71436007178232
 31
0.0
  0
LINE
  5
58EF
  8
AM_0
 10
256.5731284796953
 20
265.65137107178242
 30
0.0
 11
282.5730784796952
 21
265.65137107178242
 31
0.0
  0
LINE
  5
58F0
  8
AM_0
 10
256.5731284796953
 20
201.77736007178231
 30
0.0
 11
287.57314847969519
 21
201.77736007178231
 31
0.0
  0
LINE
  5
58F1
  8
AM_0
 10
256.5731284796953
 20
187.71435607178211
 30
0.0
 11
287.57314847969519
 21
187.71435607178211
 31
0.0
  0
LINE
  5
58F2
  8
AM_0
 10
289.57312847969519
 20
162.7143570717823
 30
0.0
 11
294.5730784796952
 21
162.7143570717823
 31
0.0
  0
LINE
  5
58F3
  8
AM_0
 10
355.2853384796951
 20
285.94498207178231
 30
0.0
 11
357.57306847969488
 21
283.21853755642081
 31
0.0
  0
LINE
  5
58F4
  8
AM_0
 10
354.57307847969531
 20
171.2143560717823
 30
0.0
 11
354.57307847969531
 21
338.71437607178228
 31
0.0
  0
LINE
  5
58F5
  8
AM_0
 10
344.57311847969493
 20
173.49493507178221
 30
0.0
 11
344.57311847969493
 21
206.5600290717824
 31
0.0
  0
LINE
  5
58F6
  8
AM_0
 10
326.57311847969493
 20
317.78832607178242
 30
0.0
 11
326.57311847969493
 21
272.5592070717824
 31
0.0
  0
LINE
  5
58F7
  8
AM_0
 10
354.57307847969531
 20
323.7143460717823
 30
0.0
 11
358.57309847969492
 21
323.7143460717823
 31
0.0
  0
LINE
  5
58F8
  8
AM_0
 10
346.50328847969519
 20
338.43255607178219
 30
0.0
 11
354.57307847969531
 21
338.71437607178228
 31
0.0
  0
LINE
  5
58F9
  8
AM_0
 10
331.89859847969512
 20
322.78527607178228
 30
0.0
 11
341.67781847969508
 21
323.1267660717823
 31
0.0
  0
LINE
  5
58FA
  8
ﾁｭｳｼﾝｾﾝ
 10
526.97921842366031
 20
253.71438907178211
 30
0.0
 11
706.93087942366037
 21
253.71438907178211
 31
0.0
  0
LINE
  5
58FB
  8
ﾁｭｳｼﾝｾﾝ
 10
655.93039404945057
 20
233.7143730717824
 30
0.0
 11
577.97970379787046
 21
233.7143730717824
 31
0.0
  0
LINE
  5
58FC
  8
ﾁｭｳｼﾝｾﾝ
 10
616.95504892366046
 20
343.21266934699378
 30
0.0
 11
616.95504892366046
 21
151.8510750717823
 31
0.0
  0
LINE
  5
58FD
  8
AM_0
 10
668.95506292366053
 20
248.7143730717824
 30
0.0
 11
668.95506292366053
 21
231.71437207178221
 31
0.0
  0
LINE
  5
58FE
  8
AM_0
 10
294.5730784796952
 20
304.71435907178238
 30
0.0
 11
294.5730784796952
 21
160.2143700717823
 31
0.0
  0
LINE
  5
58FF
  8
AM_0
 10
550.01711692366052
 20
265.5173220717823
 30
0.0
 11
550.01711692366052
 21
265.5173220717823
 31
0.0
  0
LINE
  5
5900
  8
AM_0
 10
354.57307847969531
 20
183.71437207178221
 30
0.0
 11
358.57309847969492
 21
183.71437207178221
 31
0.0
  0
LINE
  5
5901
  8
AM_0
 10
672.63330292366015
 20
292.70068807178239
 30
0.0
 11
672.63330292366015
 21
292.70068807178239
 31
0.0
  0
LINE
  5
5902
  8
AM_0
 10
683.89302292366006
 20
265.5173220717823
 30
0.0
 11
683.89302292366006
 21
265.5173220717823
 31
0.0
  0
LINE
  5
5903
  8
AM_0
 10
358.57309847969492
 20
265.5173220717823
 30
0.0
 11
358.57309847969492
 21
183.71437207178221
 31
0.0
  0
LINE
  5
5904
  8
AM_0
 10
561.27682192366035
 20
292.70068807178239
 30
0.0
 11
561.27682192366035
 21
292.70068807178239
 31
0.0
  0
LINE
  5
5905
  8
AM_0
 10
344.57311847969493
 20
295.66602007178238
 30
0.0
 11
344.57311847969493
 21
336.43374607178242
 31
0.0
  0
LINE
  5
5907
  8
ﾁｭｳｼﾝｾﾝ1
 10
537.05197328968245
 20
173.81128660125259
 30
0.0
 11
555.43675697597405
 21
192.1960555366586
 31
0.0
  0
LINE
  5
5908
  8
AM_0
 10
531.95507692366004
 20
283.71435907178238
 30
0.0
 11
534.22271692366019
 21
326.98377607178219
 31
0.0
  0
LINE
  5
5909
  8
AM_0
 10
586.95504592366035
 20
338.71437607178228
 30
0.0
 11
616.95504892366046
 21
338.71437607178228
 31
0.0
  0
LINE
  5
590A
  8
AM_0
 10
578.95504492366013
 20
228.71437207178229
 30
0.0
 11
557.92117192366049
 21
228.71437207178229
 31
0.0
  0
LINE
  5
590B
  8
AM_0
 10
531.95507692366004
 20
283.71435907178238
 30
0.0
 11
531.95507692366004
 21
253.7143590717823
 31
0.0
  0
LINE
  5
590C
  8
AM_0
 10
586.95506092366031
 20
338.71437607178228
 30
0.0
 11
543.68563492366025
 21
336.44670607178227
 31
0.0
  0
LINE
  5
590D
  8
AM_0
 10
331.57309847969492
 20
267.5592240717823
 30
0.0
 11
345.80386847969521
 21
267.5592240717823
 31
0.0
  0
LINE
  5
590E
  8
AM_0
 10
348.5730784796952
 20
189.43303207178221
 30
0.0
 11
348.5730784796952
 21
320.49570607178242
 31
0.0
  0
LINE
  5
590F
  8
AM_0
 10
346.50331847969511
 20
171.4961550717822
 30
0.0
 11
354.57310847969518
 21
171.2143560717823
 31
0.0
  0
LINE
  5
5910
  8
AM_0
 10
294.5731384796951
 20
304.71435907178238
 30
0.0
 11
323.65162847969492
 21
305.47580407178219
 31
0.0
  0
LINE
  5
5911
  8
AM_0
 10
531.95504692366035
 20
223.7143590717823
 30
0.0
 11
534.20981692366024
 21
180.6910110717821
 31
0.0
  0
LINE
  5
5912
  8
AM_0
 10
531.95507692366004
 20
223.7143590717823
 30
0.0
 11
531.95507692366004
 21
253.7143590717823
 31
0.0
  0
LINE
  5
5913
  8
AM_0
 10
544.19610292366053
 20
171.2143560717823
 30
0.0
 11
573.4057589236603
 21
171.2143560717823
 31
0.0
  0
LINE
  5
5914
  8
AM_0
 10
660.50433592366051
 20
171.2143560717823
 30
0.0
 11
689.71400692366046
 21
171.2143560717823
 31
0.0
  0
LINE
  5
5915
  8
AM_0
 10
701.95505092366011
 20
223.7143590717823
 30
0.0
 11
701.95505092366011
 21
253.7143590717823
 31
0.0
  0
LINE
  5
5917
  8
AM_0
 10
646.95504892366046
 20
338.71437607178228
 30
0.0
 11
616.95504892366046
 21
338.71437607178228
 31
0.0
  0
LINE
  5
5918
  8
AM_0
 10
294.5730784796952
 20
282.5113860717824
 30
0.0
 11
324.89137847969522
 21
282.5113860717824
 31
0.0
  0
LINE
  5
5919
  8
AM_0
 10
294.5730784796952
 20
160.2143700717823
 30
0.0
 11
330.57307847969531
 21
158.7143700717823
 31
0.0
  0
LINE
  5
591A
  8
AM_0
 10
330.57307847969531
 20
174.12483307178221
 30
0.0
 11
330.57307847969531
 21
158.7143700717823
 31
0.0
  0
LINE
  5
591B
  8
AM_0
 10
331.5469384796952
 20
175.1244960717822
 30
0.0
 11
344.57311847969493
 21
175.46559307178231
 31
0.0
  0
LINE
  5
591C
  8
AM_0
 10
328.0212784796953
 20
293.44302907178229
 30
0.0
 11
345.05854847969522
 21
293.44302907178229
 31
0.0
  0
LINE
  5
591D
  8
AM_0
 10
564.95504692366035
 20
248.7143730717824
 30
0.0
 11
564.95504692366035
 21
231.71437207178221
 31
0.0
  0
LINE
  5
591E
  8
AM_0
 10
554.15377492366031
 20
255.71437507178231
 30
0.0
 11
562.18279792366025
 21
255.71437507178231
 31
0.0
  0
LINE
  5
591F
  8
AM_0
 10
649.95504892366046
 20
247.94810777444761
 30
0.0
 11
649.95504892366046
 21
233.71437307178229
 31
0.0
  0
LINE
  5
5920
  8
AM_0
 10
554.15377492366031
 20
251.71437307178229
 30
0.0
 11
561.95504692366035
 21
251.71437307178229
 31
0.0
  0
LINE
  5
5921
  8
AM_0
 10
659.56494292366051
 20
299.85977707178239
 30
0.0
 11
640.34429992366051
 21
280.63913407178239
 31
0.0
  0
LINE
  5
5922
  8
AM_0
 10
663.1004639236603
 20
296.32425307178232
 30
0.0
 11
643.87983892366037
 21
277.10361007178238
 31
0.0
  0
LINE
  5
5923
  8
AM_0
 10
574.34518192366033
 20
299.85977707178239
 30
0.0
 11
593.56582492366033
 21
280.63913407178239
 31
0.0
  0
LINE
  5
5924
  8
AM_0
 10
588.82777192366041
 20
158.8092510717824
 30
0.0
 11
645.08233792366025
 21
158.8092510717824
 31
0.0
  0
LINE
  5
5925
  8
AM_0
 10
654.9550649236603
 20
228.71437207178229
 30
0.0
 11
675.98895292366035
 21
228.71437207178229
 31
0.0
  0
LINE
  5
5926
  8
AM_0
 10
618.9550619236602
 20
316.5156360717823
 30
0.0
 11
618.9550619236602
 21
308.4866370717823
 31
0.0
  0
LINE
  5
5927
  8
AM_0
 10
614.95504792366012
 20
316.5156360717823
 30
0.0
 11
614.95504792366012
 21
308.4866370717823
 31
0.0
  0
LINE
  5
5928
  8
AM_0
 10
570.80966092366032
 20
296.32422307178228
 30
0.0
 11
590.03028892366046
 21
277.10361007178238
 31
0.0
  0
LINE
  5
5929
  8
AM_0
 10
679.75633492366035
 20
255.71437507178231
 30
0.0
 11
671.72731192366052
 21
255.71437507178231
 31
0.0
  0
LINE
  5
592A
  8
AM_0
 10
679.75633492366035
 20
251.71437307178229
 30
0.0
 11
671.95506292366053
 21
251.71437307178229
 31
0.0
  0
LINE
  5
592B
  8
AM_0
 10
573.4057589236603
 20
171.21437107178221
 30
0.0
 11
576.0038429236605
 21
175.71437107178221
 31
0.0
  0
LINE
  5
592C
  8
AM_0
 10
660.50435092366047
 20
171.2143560717823
 30
0.0
 11
657.90626692366038
 21
175.71437107178221
 31
0.0
  0
LINE
  5
592D
  8
AM_0
 10
294.5730784796952
 20
170.84428507178231
 30
0.0
 11
330.57307847969531
 21
170.84428507178231
 31
0.0
  0
LINE
  5
592E
  8
AM_0
 10
326.57311847969493
 20
299.94803407178227
 30
0.0
 11
342.90223847969492
 21
308.0178570717822
 31
0.0
  0
LINE
  5
592F
  8
AM_0
 10
328.57309847969492
 20
296.37152707178228
 30
0.0
 11
342.02917847969542
 21
296.37152707178228
 31
0.0
  0
LINE
  5
5930
  8
AM_0
 10
701.95505092366011
 20
283.71435907178238
 30
0.0
 11
701.95505092366011
 21
253.7143590717823
 31
0.0
  0
LINE
  5
5931
  8
AM_0
 10
701.95505092366011
 20
283.71435907178238
 30
0.0
 11
699.68739592366035
 21
326.98377607178219
 31
0.0
  0
LINE
  5
5932
  8
AM_0
 10
701.95506592366041
 20
223.7143590717823
 30
0.0
 11
699.70030492366016
 21
180.6910110717821
 31
0.0
  0
LINE
  5
5933
  8
AM_0
 10
646.9550639236603
 20
338.71437607178228
 30
0.0
 11
690.2244749236603
 21
336.44673607178242
 31
0.0
  0
LINE
  5
5934
  8
AM_0
 10
576.0038429236605
 20
175.7143860717824
 30
0.0
 11
657.90626692366038
 21
175.7143860717824
 31
0.0
  0
LINE
  5
5935
  8
AM_0
 10
354.57307847969531
 20
292.33899307178228
 30
0.0
 11
358.57309847969492
 21
292.33899307178228
 31
0.0
  0
LINE
  5
5936
  8
AM_0
 10
354.57307847969531
 20
265.5173220717823
 30
0.0
 11
358.57309847969492
 21
265.5173220717823
 31
0.0
  0
LINE
  5
5937
  8
AM_0
 10
358.57309847969492
 20
292.33899307178228
 30
0.0
 11
358.57309847969492
 21
323.7143460717823
 31
0.0
  0
LINE
  5
5939
  8
AM_0
 10
583.95504592366035
 20
247.94812494325089
 30
0.0
 11
583.95504592366035
 21
233.71437307178229
 31
0.0
  0
LINE
  5
593A
  8
AM_0
 10
650.83233592366025
 20
165.80925007178229
 30
0.0
 11
647.95733692366025
 21
160.82960707178239
 31
0.0
  0
LINE
  5
593B
  8
AM_0
 10
647.95733692366025
 20
160.82960707178239
 30
0.0
 11
642.20735092366033
 21
160.82960707178239
 31
0.0
  0
LINE
  5
593C
  8
AM_0
 10
642.20733592366037
 20
160.82960707178239
 30
0.0
 11
639.33233692366025
 21
165.8092350717821
 31
0.0
  0
LINE
  5
593D
  8
AM_0
 10
639.33233692366025
 20
165.80925007178229
 30
0.0
 11
642.20733592366037
 21
170.78889607178229
 31
0.0
  0
LINE
  5
593E
  8
AM_0
 10
647.95733692366025
 20
170.78889607178229
 30
0.0
 11
642.20735092366033
 21
170.78889607178229
 31
0.0
  0
LINE
  5
593F
  8
AM_0
 10
650.83233592366025
 20
165.80925007178229
 30
0.0
 11
647.9573519236601
 21
170.78889607178229
 31
0.0
  0
LINE
  5
5940
  8
AM_0
 10
594.57777292366029
 20
165.80925007178229
 30
0.0
 11
591.70277392366052
 21
170.78889607178229
 31
0.0
  0
LINE
  5
5941
  8
AM_0
 10
591.70275892366055
 20
170.78889607178229
 30
0.0
 11
585.95278792366025
 21
170.78889607178229
 31
0.0
  0
LINE
  5
5942
  8
AM_0
 10
583.07775892366055
 20
165.80925007178229
 30
0.0
 11
585.95275792366033
 21
170.78889607178229
 31
0.0
  0
LINE
  5
5943
  8
AM_0
 10
585.95275792366033
 20
160.82960707178239
 30
0.0
 11
583.07775892366055
 21
165.8092350717821
 31
0.0
  0
LINE
  5
5944
  8
AM_0
 10
591.70275892366055
 20
160.82960707178239
 30
0.0
 11
585.95278792366025
 21
160.82960707178239
 31
0.0
  0
LINE
  5
5945
  8
AM_0
 10
594.57775792366033
 20
165.80925007178229
 30
0.0
 11
591.70275892366055
 21
160.82960707178239
 31
0.0
  0
LINE
  5
5946
  8
AM_0
 10
564.39361492366015
 20
278.45837707178242
 30
0.0
 11
561.51861292366027
 21
273.47870407178232
 31
0.0
  0
LINE
  5
5947
  8
AM_0
 10
561.51861292366027
 20
273.47870407178232
 30
0.0
 11
555.76861492366015
 21
273.47870407178232
 31
0.0
  0
LINE
  5
5948
  8
AM_0
 10
555.76861492366015
 20
273.47873407178241
 30
0.0
 11
552.89361292366004
 21
278.45834707178238
 31
0.0
  0
LINE
  5
5949
  8
AM_0
 10
552.89361292366004
 20
278.45834707178238
 30
0.0
 11
555.76861492366015
 21
283.43802307178231
 31
0.0
  0
LINE
  5
594A
  8
AM_0
 10
561.51861292366027
 20
283.43799307178239
 30
0.0
 11
555.76861492366015
 21
283.43799307178239
 31
0.0
  0
LINE
  5
594B
  8
AM_0
 10
564.39358492366046
 20
278.45837707178242
 30
0.0
 11
561.51861292366027
 21
283.43799307178239
 31
0.0
  0
LINE
  5
594C
  8
AM_0
 10
681.0165419236605
 20
278.45828707178231
 30
0.0
 11
678.14155792366034
 21
273.47864107178231
 31
0.0
  0
LINE
  5
594D
  8
AM_0
 10
678.14155792366034
 20
273.47864107178231
 30
0.0
 11
672.39155692366035
 21
273.47864107178231
 31
0.0
  0
LINE
  5
594E
  8
AM_0
 10
672.3915419236605
 20
273.47867107178217
 30
0.0
 11
669.51654292366015
 21
278.45828707178231
 31
0.0
  0
LINE
  5
594F
  8
AM_0
 10
669.51655792366034
 20
278.45828707178231
 30
0.0
 11
672.39155692366035
 21
283.4379300717822
 31
0.0
  0
LINE
  5
5950
  8
AM_0
 10
678.14155792366034
 20
283.43796307178229
 30
0.0
 11
672.39155692366035
 21
283.43796307178229
 31
0.0
  0
LINE
  5
5951
  8
AM_0
 10
681.0165419236605
 20
278.45831707178229
 30
0.0
 11
678.14155792366034
 21
283.43796307178229
 31
0.0
  0
ARC
  5
5952
  8
AM_0
 10
616.95504892366046
 20
253.7143590717823
 30
0.0
 40
12.0000003
 50
109.4712200000001
 51
70.528788999999307
  0
CIRCLE
  5
5953
  8
AM_0
 62
     2
 10
616.95504892366046
 20
253.7143590717823
 30
0.0
 40
4.0000001999999979
  0
CIRCLE
  5
5954
  8
AM_0
 10
616.95504892366046
 20
253.7143590717823
 30
0.0
 40
3.0
  0
ARC
  5
5955
  8
AM_0
 10
282.5730784796952
 20
295.39691707178241
 30
0.0
 40
5.0000001000000003
 50
271.50000000000267
 51
0.0
  0
ARC
  5
5956
  8
AM_0
 10
289.57312847969519
 20
302.71436107178238
 30
0.0
 40
2.00000007
 50
90.00000299999769
 51
180.00000999999941
  0
ARC
  5
5957
  8
AM_0
 10
279.57307847969531
 20
174.11106907178231
 30
0.0
 40
3.0
 50
0.0
 51
88.499997000000747
  0
ARC
  5
5958
  8
AM_0
 10
284.57314847969531
 20
283.38150307178228
 30
0.0
 40
2.00000007
 50
90.00000299999769
 51
180.00000999999941
  0
ARC
  5
5959
  8
AM_0
 10
285.57307847969531
 20
287.38153507178231
 30
0.0
 40
2.00000007
 50
270.0
 51
0.0
  0
ARC
  5
595A
  8
AM_0
 10
284.57314847969531
 20
279.20871307178248
 30
0.0
 40
2.00000007
 50
179.99999000000059
 51
270.0
  0
ARC
  5
595B
  8
AM_0
 10
285.57307847969531
 20
275.20868407178227
 30
0.0
 40
2.00000007
 50
0.0
 51
90.00000299999769
  0
ARC
  5
595C
  8
AM_0
 10
280.57312847969519
 20
263.74240507178229
 30
0.0
 40
2.00000007
 50
270.0
 51
0.0
  0
ARC
  5
595D
  8
AM_0
 10
280.57312847969519
 20
182.49862807178241
 30
0.0
 40
2.00000007
 50
0.0
 51
90.00000299999769
  0
ARC
  5
595E
  8
AM_0
 10
284.57314847969531
 20
168.8442990717823
 30
0.0
 40
2.00000007
 50
90.00000299999769
 51
110.7662300000012
  0
ARC
  5
595F
  8
AM_0
 10
289.57312847969519
 20
164.7143700717823
 30
0.0
 40
2.00000007
 50
179.99999000000059
 51
270.0
  0
ARC
  5
5960
  8
AM_0
 10
331.57309847969492
 20
174.12483307178221
 30
0.0
 40
1.0000000199999981
 50
91.500001000001546
 51
180.00000999999941
  0
ARC
  5
5961
  8
AM_0
 10
549.66979792366021
 20
263.54771707178242
 30
0.0
 40
2.00000007
 50
351.68540999999948
 51
79.999998000000929
  0
ARC
  5
5962
  8
AM_0
 10
616.95504892366046
 20
253.7143590717823
 30
0.0
 40
66.000003000000007
 50
34.109953999997551
 51
145.8900400000021
  0
ARC
  5
5963
  8
AM_0
 10
684.24031192366033
 20
263.54771707178242
 30
0.0
 40
2.00000007
 50
99.999999999998593
 51
188.31459000000041
  0
ARC
  5
5964
  8
AM_0
 10
559.8256199236605
 20
292.40839207178232
 30
0.0
 40
3.0
 50
265.15681999999839
 51
325.89004999999969
  0
ARC
  5
5965
  8
AM_0
 10
684.24031192366033
 20
263.54771707178242
 30
0.0
 40
2.00000007
 50
8.3145874000007272
 51
99.999999999998593
  0
ARC
  5
5966
  8
AM_0
 10
675.26651092366035
 20
278.45834707178238
 30
0.0
 40
11.000000399999999
 50
311.14394000000323
 51
94.843180000001595
  0
ARC
  5
5967
  8
AM_0
 10
323.57314847969531
 20
308.47479607178241
 30
0.0
 40
3.0
 50
271.50000000000267
 51
0.0
  0
ARC
  5
5968
  8
AM_0
 10
562.42397992366045
 20
294.33899407178228
 30
0.0
 40
2.00000007
 50
235.00000000000259
 51
323.31459000000137
  0
ARC
  5
5969
  8
AM_0
 10
331.57309847969492
 20
317.78832607178242
 30
0.0
 40
5.0000001000000003
 50
91.999998000000545
 51
180.00000999999941
  0
ARC
  5
596A
  8
AM_0
 10
549.43227892366031
 20
267.91554607178227
 30
0.0
 40
3.0
 50
348.12283999999801
 51
48.856062999999523
  0
ARC
  5
596B
  8
AM_0
 10
684.47784592366054
 20
267.91554607178227
 30
0.0
 40
3.0
 50
131.14394000000331
 51
191.87716000000199
  0
ARC
  5
596C
  8
AM_0
 10
345.57307847969531
 20
189.43303207178221
 30
0.0
 40
3.0
 50
270.0
 51
0.0
  0
ARC
  5
596D
  8
AM_0
 10
558.6436139236605
 20
278.45834707178238
 30
0.0
 40
11.000000399999999
 50
85.1568180000002
 51
228.8560599999966
  0
ARC
  5
596E
  8
AM_0
 10
616.95504892366046
 20
253.7143590717823
 30
0.0
 40
70.000001999999995
 50
30.534626999999471
 51
149.4653700000006
  0
ARC
  5
596F
  8
AM_0
 10
616.95504892366046
 20
253.7143590717823
 30
0.0
 40
66.000003000000007
 50
0.0
 51
11.877162000000441
  0
ARC
  5
5970
  8
AM_0
 10
616.95504892366046
 20
233.71437307178229
 30
0.0
 40
71.000000999999983
 50
301.50671999999952
 51
305.22420999999957
  0
ARC
  5
5971
  8
AM_0
 10
671.48614792366027
 20
294.33899407178228
 30
0.0
 40
2.00000007
 50
304.99999999999739
 51
36.685413999996868
  0
ARC
  5
5972
  8
AM_0
 10
616.95504892366046
 20
253.7143590717823
 30
0.0
 40
52.000007999999987
 50
137.75567000000359
 51
174.78408999999999
  0
ARC
  5
5973
  8
AM_0
 10
657.44361892366032
 20
301.98108307178228
 30
0.0
 40
3.0
 50
315.0
 51
50.008388000003357
  0
ARC
  5
5974
  8
AM_0
 10
616.95504892366046
 20
253.7143590717823
 30
0.0
 40
52.000007999999987
 50
5.2159077000001099
 51
42.244334000004017
  0
ARC
  5
5975
  8
AM_0
 10
346.57309847969492
 20
336.43374607178242
 30
0.0
 40
2.00000007
 50
91.999998000000545
 51
180.00000999999941
  0
ARC
  5
5976
  8
AM_0
 10
549.66979792366021
 20
263.54771707178242
 30
0.0
 40
2.00000007
 50
79.999998000000929
 51
171.68540999999939
  0
ARC
  5
5977
  8
AM_0
 10
616.95504892366046
 20
253.7143590717823
 30
0.0
 40
66.000003000000007
 50
168.12283999999789
 51
0.000010017912262
  0
ARC
  5
5978
  8
AM_0
 10
562.42397992366045
 20
294.33899407178228
 30
0.0
 40
2.00000007
 50
143.31457999999611
 51
235.00000999999719
  0
ARC
  5
5979
  8
AM_0
 10
671.95506292366053
 20
231.71437207178221
 30
0.0
 40
3.0
 50
179.99999000000059
 51
270.0
  0
ARC
  5
597A
  8
AM_0
 10
665.22178792366014
 20
294.20291707178228
 30
0.0
 40
3.0
 50
39.991611000003481
 51
135.0
  0
ARC
  5
597B
  8
AM_0
 10
616.95504892366046
 20
253.7143590717823
 30
0.0
 40
70.000001999999995
 50
0.0
 51
15.45248699999985
  0
ARC
  5
597C
  8
AM_0
 10
674.08450492366035
 20
292.40839207178232
 30
0.0
 40
3.0
 50
214.1099599999979
 51
274.84318000000161
  0
ARC
  5
597D
  8
AM_0
 10
331.57309847969492
 20
272.5592070717824
 30
0.0
 40
5.0000001000000003
 50
179.99999000000059
 51
270.0
  0
ARC
  5
597E
  8
AM_0
 10
616.95504892366046
 20
253.7143590717823
 30
0.0
 40
70.000001999999995
 50
164.54750999999871
 51
0.000010017912262
  0
ARC
  5
597F
  8
AM_0
 10
346.57309847969492
 20
173.49493507178221
 30
0.0
 40
2.00000007
 50
179.99999000000059
 51
268.00000999999872
  0
ARC
  5
5980
  8
AM_0
 10
345.57307847969531
 20
320.49570607178242
 30
0.0
 40
3.0
 50
0.0
 51
90.00000299999769
  0
ARC
  5
5981
  8
ﾁｭｳｼﾝｾﾝ1
 10
616.95504892366046
 20
253.7143590717823
 30
0.0
 40
100.000011
 50
216.3975580451669
 51
233.60244536774741
  0
CIRCLE
  5
5983
  8
AM_0
 10
546.24438292366028
 20
324.42504607178228
 30
0.0
 40
6.0000002999999991
  0
ARC
  5
5984
  8
AM_0
 10
544.20901192366023
 20
326.46042607178231
 30
0.0
 40
10.000000200000001
 50
92.999999000001623
 51
176.9999900000002
  0
CIRCLE
  5
5985
  8
AM_0
 10
546.24438292366028
 20
183.00369307178221
 30
0.0
 40
6.0000002999999991
  0
CIRCLE
  5
5987
  8
AM_0
 10
687.66572692366015
 20
183.00369307178221
 30
0.0
 40
6.0000002999999991
  0
CIRCLE
  5
5989
  8
AM_0
 10
687.66572692366015
 20
324.42504607178228
 30
0.0
 40
6.0000002999999991
  0
ARC
  5
598A
  8
AM_0
 10
689.70111292366028
 20
326.46042607178231
 30
0.0
 40
10.000000200000001
 50
3.0000001000004741
 51
86.999998999996933
  0
ARC
  5
598B
  8
AM_0
 10
561.95504692366035
 20
231.71437207178221
 30
0.0
 40
3.0
 50
270.0
 51
0.0
  0
ARC
  5
598C
  8
AM_0
 10
595.68713392366055
 20
282.7604730717822
 30
0.0
 40
3.0
 50
225.0
 51
273.99790033610373
  0
ARC
  5
598D
  8
AM_0
 10
554.15377492366031
 20
258.71437507178229
 30
0.0
 40
3.0
 50
175.4479299999995
 51
270.0
  0
ARC
  5
598E
  8
AM_0
 10
554.15377492366031
 20
248.7143730717824
 30
0.0
 40
3.0
 50
90.00000299999769
 51
184.55207000000041
  0
ARC
  5
598F
  8
AM_0
 10
616.95504892366046
 20
253.7143590717823
 30
0.0
 40
52.000007999999987
 50
47.755664999999361
 51
84.78409399999758
  0
ARC
  5
5990
  8
AM_0
 10
638.22297592366033
 20
282.7604730717822
 30
0.0
 40
3.0
 50
266.00184817577963
 51
315.0
  0
ARC
  5
5991
  8
AM_0
 10
568.68832192366028
 20
294.20291707178228
 30
0.0
 40
3.0
 50
45.000001000003223
 51
140.00838999999601
  0
ARC
  5
5992
  8
AM_0
 10
646.00115992366045
 20
274.98227407178229
 30
0.0
 40
3.0
 50
135.0
 51
183.99797167042081
  0
ARC
  5
5993
  8
AM_0
 10
576.4664909236601
 20
301.98108307178228
 30
0.0
 40
3.0
 50
129.99160999999941
 51
225.0
  0
ARC
  5
5994
  8
AM_0
 10
347.57311847969493
 20
295.66602007178238
 30
0.0
 40
3.0
 50
179.99999000000059
 51
270.0
  0
ARC
  5
5995
  8
AM_0
 10
347.57311847969493
 20
206.5600290717824
 30
0.0
 40
3.0
 50
90.00000299999769
 51
180.00000999999941
  0
ARC
  5
5996
  8
AM_0
 10
577.23754792366014
 20
168.91838107178219
 30
0.0
 40
5.0000001000000003
 50
344.9836399999993
 51
56.872543000003567
  0
ARC
  5
5997
  8
AM_0
 10
588.82777192366041
 20
165.80925007178229
 30
0.0
 40
7.0000007999999987
 50
164.9194399999995
 51
270.0
  0
ARC
  5
5998
  8
AM_0
 10
656.67256192366028
 20
168.91838107178219
 30
0.0
 40
5.0000001000000003
 50
121.5067300000014
 51
195.01635000000229
  0
ARC
  5
5999
  8
AM_0
 10
557.92117192366049
 20
231.71437207178221
 30
0.0
 40
3.0
 50
200.43878000000279
 51
270.0
  0
ARC
  5
599A
  8
AM_0
 10
675.98895292366035
 20
231.71437207178221
 30
0.0
 40
3.0
 50
270.0
 51
339.56121999999698
  0
ARC
  5
599B
  8
AM_0
 10
578.95504492366013
 20
233.71437307178229
 30
0.0
 40
5.0000001000000003
 50
270.0
 51
0.0
  0
ARC
  5
599C
  8
AM_0
 10
654.9550649236603
 20
233.71437307178229
 30
0.0
 40
5.0000001000000003
 50
179.99999000000059
 51
270.0
  0
ARC
  5
599D
  8
AM_0
 10
341.57311847969493
 20
326.12496607178218
 30
0.0
 40
3.0
 50
271.9999999999971
 51
0.0
  0
ARC
  5
599F
  8
AM_0
 10
621.95506192366031
 20
308.4866370717823
 30
0.0
 40
3.0
 50
179.99999000000059
 51
264.78408999999982
  0
ARC
  5
59A0
  8
AM_0
 10
562.18279792366025
 20
258.71437507178229
 30
0.0
 40
3.0
 50
270.0
 51
354.78408999999999
  0
ARC
  5
59A1
  8
AM_0
 10
561.95504692366035
 20
248.7143730717824
 30
0.0
 40
3.0
 50
0.0
 51
90.00000299999769
  0
ARC
  5
59A2
  8
AM_0
 10
671.95506292366053
 20
248.7143730717824
 30
0.0
 40
3.0
 50
90.00000299999769
 51
180.00000999999941
  0
ARC
  5
59A3
  8
AM_0
 10
611.95504792366
 20
308.4866370717823
 30
0.0
 40
3.0
 50
275.21591000000018
 51
0.0
  0
ARC
  5
59A4
  8
AM_0
 10
621.95506192366031
 20
316.5156360717823
 30
0.0
 40
3.0
 50
85.447926999998117
 51
180.00000999999941
  0
ARC
  5
59A5
  8
AM_0
 10
671.72731192366052
 20
258.71437507178229
 30
0.0
 40
3.0
 50
185.21590999999989
 51
270.0
  0
ARC
  5
59A6
  8
AM_0
 10
587.90894992366032
 20
274.98227407178229
 30
0.0
 40
3.0
 50
356.0023394636645
 51
45.000001000003223
  0
ARC
  5
59A7
  8
AM_0
 10
611.95504792366
 20
316.5156360717823
 30
0.0
 40
3.0
 50
0.0
 51
94.552071000002115
  0
ARC
  5
59A8
  8
AM_0
 10
679.75633492366035
 20
248.7143730717824
 30
0.0
 40
3.0
 50
355.44792999999947
 51
90.00000299999769
  0
ARC
  5
59A9
  8
AM_0
 10
679.75633492366035
 20
258.71437507178229
 30
0.0
 40
3.0
 50
270.0
 51
4.5520713999997291
  0
ARC
  5
59AA
  8
AM_0
 10
671.48614792366027
 20
294.33899407178228
 30
0.0
 40
2.00000007
 50
216.6854200000038
 51
304.99999999999739
  0
ARC
  5
59AB
  8
AM_0
 10
342.02917847969542
 20
293.3715270717824
 30
0.0
 40
3.0
 50
22.48353600000415
 51
90.00000299999769
  0
ARC
  5
59AC
  8
AM_0
 10
341.57311847969493
 20
310.70734207178242
 30
0.0
 40
3.0
 50
296.29843000000261
 51
0.0
  0
ARC
  5
59AD
  8
AM_0
 10
328.57309847969492
 20
298.3715250717824
 30
0.0
 40
2.00000007
 50
179.99999000000059
 51
270.0
  0
ARC
  5
59AE
  8
AM_0
 10
352.98721847969512
 20
284.01663607178227
 30
0.0
 40
3.0
 50
39.999999000003022
 51
58.086796999996537
  0
ARC
  5
59AF
  8
AM_0
 10
544.19610292366053
 20
181.21437307178221
 30
0.0
 40
10.000000200000001
 50
183.00000999999969
 51
270.0
  0
ARC
  5
59B0
  8
AM_0
 10
689.71400692366046
 20
181.21437307178221
 30
0.0
 40
10.000000200000001
 50
270.0
 51
356.99999999999949
  0
ARC
  5
59B1
  8
AM_0
 10
616.95504892366046
 20
233.71437307178229
 30
0.0
 40
71.000000999999983
 50
234.7757900000008
 51
238.4932699999986
  0
ARC
  5
59B2
  8
AM_0
 10
645.08233792366025
 20
165.80925007178229
 30
0.0
 40
7.0000007999999987
 50
270.000020000002
 51
15.08055899999769
  0
CIRCLE
  5
59B3
  8
AM_0
 10
645.08233792366025
 20
165.80925007178229
 30
0.0
 40
4.979646299999998
  0
CIRCLE
  5
59B4
  8
AM_0
 10
588.82777192366041
 20
165.80925007178229
 30
0.0
 40
4.979646299999998
  0
CIRCLE
  5
59B5
  8
AM_0
 10
558.6436139236605
 20
278.45834707178238
 30
0.0
 40
4.979646299999998
  0
CIRCLE
  5
59B6
  8
AM_0
 10
675.26655592366035
 20
278.45828707178231
 30
0.0
 40
4.979646299999998
  0
ARC
  5
59CD
  8
AM_0
 10
616.95504892366046
 20
253.7143590717823
 30
0.0
 40
52.000007999999987
 50
95.215910999999593
 51
132.24432999999581
  0
LINE
  5
59D1
  8
AM_0
 10
362.57306847969488
 20
287.21435607178228
 30
0.0
 11
367.57306847969483
 21
282.21435607178228
 31
0.0
  0
LINE
  5
59D2
  8
AM_0
 10
358.073068479695
 20
287.21435607178228
 30
0.0
 11
362.57306847969511
 21
287.21435607178228
 31
0.0
  0
LINE
  5
59D3
  8
AM_0
 10
357.573068479695
 20
286.71435607178211
 30
0.0
 11
357.57306847969488
 21
265.5173220717823
 31
0.0
  0
LINE
  5
59D4
  8
AM_0
 10
367.57306847969483
 20
282.21435607178228
 30
0.0
 11
367.573068479695
 21
225.2143560717823
 31
0.0
  0
LINE
  5
59D5
  8
AM_0
 10
358.57309847969492
 20
220.21435607178211
 30
0.0
 11
362.57306847969488
 21
220.21435607178211
 31
0.0
  0
LINE
  5
59D6
  8
AM_0
 10
362.57306847969488
 20
220.21435607178211
 30
0.0
 11
367.57306847969488
 21
225.2143560717823
 31
0.0
  0
LINE
  5
59D7
  8
AM_0
 10
358.073068479695
 20
287.21435607178228
 30
0.0
 11
357.573068479695
 21
286.71435607178211
 31
0.0
1001
GENIUS_GENFIL_13
1070
     0
1040
0.5
1040
0.5
1040
20.0
1040
0.0
1002
{
1002
}
1001
GENIUS_GENOBJ-N-CHA_13
1002
{
1000
OWNER
1000
GEN
1002
}
1001
GENIUS_GENODEF_13
1002
{
1000
HIER
1070
     0
1002
}
1002
{
1000
MANEDIT
1070
     0
1002
}
1002
{
1000
NOSEL
1070
     0
1002
}
1002
{
1000
BEHIND
1070
     0
1002
}
1002
{
1000
OTHER
1070
     0
1002
}
1002
{
1000
REACTOR
1002
}
  0
LINE
  5
59D8
  8
AM_0
 10
362.57306847969511
 20
287.21435607178228
 30
0.0
 11
362.57306847969488
 21
220.21435607178211
 31
0.0
  0
LINE
  5
5B74
  8
ﾁｭｳｼﾝｾﾝ1
 10
696.85812139418999
 20
173.81128343780441
 30
0.0
 11
678.47335245878412
 21
192.1960671240958
 31
0.0
  0
ARC
  5
5B75
  8
ﾁｭｳｼﾝｾﾝ1
 10
616.95504892366046
 20
253.71435907178221
 30
0.0
 40
100.000011
 50
306.39755804516682
 51
323.60244536774741
  0
LINE
  5
5B76
  8
ﾁｭｳｼﾝｾﾝ1
 10
696.85812455763835
 20
333.61743154231181
 30
0.0
 11
678.47334087134675
 21
315.23266260690582
 31
0.0
  0
ARC
  5
5B77
  8
ﾁｭｳｼﾝｾﾝ1
 10
616.95504892366046
 20
253.7143590717823
 30
0.0
 40
100.000011
 50
36.397558045166789
 51
53.602445367747393
  0
LINE
  5
5B78
  8
ﾁｭｳｼﾝｾﾝ1
 10
537.05197645313092
 20
333.6174347057601
 30
0.0
 11
555.43674538853691
 21
315.23265101946862
 31
0.0
  0
ARC
  5
5B79
  8
ﾁｭｳｼﾝｾﾝ1
 10
616.95504892366034
 20
253.7143590717823
 30
0.0
 40
100.000011
 50
126.3975580451667
 51
143.60244536774729
  0
LINE
  5
5E92
  8
ﾁｭｳｼﾝｾﾝ
 10
121.22362847969509
 20
505.75077991434023
 30
0.0
 11
403.7642184796951
 21
505.75077991434023
 31
0.0
  0
LINE
  5
5E9C
  8
AM_0
 10
401.57311847969493
 20
517.75077991434023
 30
0.0
 11
401.57311847969493
 21
493.75077991434023
 31
0.0
  0
LINE
  5
5E9D
  8
AM_0
 10
367.57306847969483
 20
517.75077991433989
 30
0.0
 11
401.57311847969493
 21
517.75077991434023
 31
0.0
  0
LINE
  5
5E9E
  8
AM_0
 10
367.57306847969488
 20
493.75077991434
 30
0.0
 11
401.57311847969493
 21
493.75077991434023
 31
0.0
  0
LINE
  5
5E9F
  8
AM_0
 10
369.57311847969493
 20
509.7507499143403
 30
0.0
 11
369.57311847969493
 21
501.75077991434023
 31
0.0
  0
LINE
  5
5EAF
  8
AM_0
 10
369.57311847969493
 20
501.75077991434023
 30
0.0
 11
401.57311847969493
 21
501.75077991434023
 31
0.0
  0
LINE
  5
5EB0
  8
AM_0
 10
369.57311847969493
 20
509.7507499143403
 30
0.0
 11
401.57311847969493
 21
509.7507499143403
 31
0.0
  0
LINE
  5
5ED6
  8
AM_0
 10
256.57314847969508
 20
449.75077991434023
 30
0.0
 11
256.57314847969508
 21
561.75077991434023
 31
0.0
  0
ARC
  5
5EF1
  8
AM_0
 10
369.57311847969493
 20
505.7507499143403
 30
0.0
 40
3.9999962
 50
90.00000299999769
 51
120.0008584236235
  0
ARC
  5
5EF2
  8
AM_0
 10
369.57311847969493
 20
505.7507499143403
 30
0.0
 40
3.9999962
 50
239.99914157637639
 51
270.0
  0
LINE
  5
5F14
  8
AM_0
 10
227.59933832873551
 20
439.75077991434028
 30
0.0
 11
227.85388760275831
 21
449.4707499143401
 31
0.0
  0
LINE
  5
5F15
  8
AM_0
 10
167.5469063334948
 20
439.75077991434028
 30
0.0
 11
167.29242429235609
 21
449.4707499143401
 31
0.0
  0
LINE
  5
5F16
  8
AM_0
 10
164.07314847969491
 20
437.75077991434023
 30
0.0
 11
231.07314847969499
 21
437.75077991434023
 31
0.0
  0
LINE
  5
5F17
  8
AM_0
 10
164.07314847969491
 20
436.75077991434023
 30
0.0
 11
164.07314847969491
 21
437.75077991434023
 31
0.0
  0
LINE
  5
5F18
  8
AM_0
 10
231.07314847969499
 20
436.75077991434023
 30
0.0
 11
231.07314847969499
 21
437.75077991434023
 31
0.0
  0
LINE
  5
5F19
  8
AM_0
 10
149.57314847969491
 20
398.75077991434023
 30
0.0
 11
150.8327336159573
 21
434.82057890774519
 31
0.0
  0
LINE
  5
5F1A
  8
AM_0
 10
152.83151526999561
 20
436.75077991434023
 30
0.0
 11
242.31478168939461
 21
436.75077991434023
 31
0.0
  0
ARC
  5
5F1B
  8
AM_0
 10
152.83151526999561
 20
434.75077991434028
 30
0.0
 40
2.0
 50
90.0
 51
178.0000000000029
1001
GENIUS_GENODEF_13
1002
{
1000
HIER
1070
     0
1002
}
1002
{
1000
MANEDIT
1070
     0
1002
}
1002
{
1000
NOSEL
1070
     0
1002
}
1002
{
1000
BEHIND
1070
     0
1002
}
1002
{
1000
OTHER
1070
     0
1002
}
1002
{
1000
REACTOR
1002
}
1001
GENIUS_GENOBJ-N-FIL_13
1002
{
1000
OWNER
1000
GEN
1002
}
  0
LINE
  5
5F1C
  8
AM_0
 10
244.3135633434328
 20
434.82057890774519
 30
0.0
 11
245.57314847969519
 21
398.75077991434028
 31
0.0
  0
ARC
  5
5F1D
  8
AM_0
 10
242.31478168939461
 20
434.75077991434028
 30
0.0
 40
2.0
 50
1.9999999999971021
 51
90.0
1001
GENIUS_GENOBJ-N-FIL_13
1002
{
1000
OWNER
1000
GEN
1002
}
1001
GENIUS_GENODEF_13
1002
{
1000
HIER
1070
     0
1002
}
1002
{
1000
MANEDIT
1070
     0
1002
}
1002
{
1000
NOSEL
1070
     0
1002
}
1002
{
1000
BEHIND
1070
     0
1002
}
1002
{
1000
OTHER
1070
     0
1002
}
1002
{
1000
REACTOR
1002
}
  0
LINE
  5
5F1E
  8
AM_0
 10
245.57314847969519
 20
398.75077991434028
 30
0.0
 11
149.57314847969471
 21
398.75077991434023
 31
0.0
  0
LINE
  5
5F1F
  8
AM_0
 10
149.67791078817021
 20
401.75077991434
 30
0.0
 11
148.57314847969491
 21
401.75077991434
 31
0.0
  0
LINE
  5
5F20
  8
AM_0
 10
150.79537541190609
 20
433.75077991433989
 30
0.0
 11
148.57314847969491
 21
433.75077991433989
 31
0.0
  0
LINE
  5
5F21
  8
ﾁｭｳｼﾝｾﾝ1
 10
154.57314847969559
 20
388.48607241434019
 30
0.0
 11
154.5731484796957
 21
401.48607241434007
 31
0.0
  0
LINE
  5
5F22
  8
ﾁｭｳｼﾝｾﾝ
 10
197.57314847969491
 20
444.04281058756919
 30
0.0
 11
197.57314847969491
 21
386.30025727353092
 31
0.0
  0
LINE
  5
5F23
  8
AM_0
 10
146.07314847969491
 20
404.25077991433989
 30
0.0
 11
148.57314847969491
 21
404.25077991433977
 31
0.0
  0
LINE
  5
5F24
  8
AM_0
 10
148.57314847969491
 20
431.25077991433972
 30
0.0
 11
146.07314847969491
 21
431.25077991434
 31
0.0
  0
LINE
  5
5F25
  8
AM_0
 10
135.17447738334911
 20
428.25077991434011
 30
0.0
 11
135.17447738334911
 21
407.25077991434
 31
0.0
  0
LINE
  5
5F26
  8
AM_0
 10
120.1744773833491
 20
409.71915486032469
 30
0.0
 11
120.1744773833491
 21
425.78240496835588
 31
0.0
  0
LINE
  5
5F27
  8
AM_0
 10
133.17447738334911
 20
429.75077991433989
 30
0.0
 11
133.17447738334911
 21
405.75077991433989
 31
0.0
  0
LINE
  5
5F28
  8
AM_0
 10
123.6744773833491
 20
417.75077991433989
 30
0.0
 11
124.1744773833491
 21
418.25077991433989
 31
0.0
  0
LINE
  5
5F29
  8
AM_0
 10
130.67447738334911
 20
406.05077991433978
 30
0.0
 11
130.67447738334911
 21
429.45077991433971
 31
0.0
  0
LINE
  5
5F2A
  8
AM_0
 10
140.57314847969491
 20
406.25077991434
 30
0.0
 11
140.57314847969491
 21
429.25077991433989
 31
0.0
  0
LINE
  5
5F2B
  8
AM_0
 10
134.67447738334911
 20
418.45077991434169
 30
0.0
 11
134.67447738334911
 21
417.05077991433882
 31
0.0
  0
LINE
  5
5F2C
  8
AM_0
 10
136.77411310991991
 20
426.85077991433991
 30
0.0
 11
136.02411310992099
 21
408.65077991433992
 31
0.0
  0
LINE
  5
5F2D
  8
AM_0
 10
135.82314847969491
 20
426.85077991433991
 30
0.0
 11
135.17447738334911
 21
411.10969464302377
 31
0.0
  0
LINE
  5
5F2E
  8
AM_0
 10
136.571841070267
 20
427.56643862670398
 30
0.0
 11
135.82458102685899
 21
407.93840815317287
 31
0.0
  0
LINE
  5
5F2F
  8
AM_0
 10
136.0226805627569
 20
427.56315167550798
 30
0.0
 11
135.27411310992099
 21
407.90077991433992
 31
0.0
  0
LINE
  5
5F30
  8
AM_0
 10
133.17447738334911
 20
405.75077991433989
 30
0.0
 11
130.97447738334901
 21
405.75077991433989
 31
0.0
  0
ARC
  5
5F31
  8
AM_0
 10
145.07314847969511
 20
405.25077991433989
 30
0.0
 40
0.5
 50
0.0
 51
90.000000000013017
  0
ARC
  5
5F32
  8
AM_0
 10
146.07314847969511
 20
404.75077991433989
 30
0.0
 40
0.5
 50
180.0
 51
270.0
  0
LINE
  5
5F33
  8
AM_0
 10
145.57314847969491
 20
405.25077991433989
 30
0.0
 11
145.57314847969491
 21
404.75077991433989
 31
0.0
  0
LINE
  5
5F34
  8
AM_0
 10
136.57314847969491
 20
408.65077991433992
 30
0.0
 11
140.07314847969491
 21
408.65077991433992
 31
0.0
  0
LINE
  5
5F35
  8
AM_0
 10
145.57314847969491
 20
406.89470859293289
 30
0.0
 11
145.57314847969491
 21
416.60685123574791
 31
0.0
  0
LINE
  5
5F36
  8
AM_0
 10
141.07314847969491
 20
405.75077991433989
 30
0.0
 11
145.07314847969491
 21
405.75077991433989
 31
0.0
  0
LINE
  5
5F37
  8
AM_0
 10
145.07314847969491
 20
406.39470859293289
 30
0.0
 11
140.57314847969491
 21
406.39470859293289
 31
0.0
  0
ARC
  5
5F38
  8
AM_0
 10
145.07314847969511
 20
406.89470859293289
 30
0.0
 40
0.5
 50
270.0
 51
0.0
  0
ARC
  5
5F39
  8
AM_0
 10
140.07314847969491
 20
408.15077991433998
 30
0.0
 40
0.5
 50
0.0
 51
90.0
  0
ARC
  5
5F3A
  8
AM_0
 10
141.07314847969491
 20
406.25077991434
 30
0.0
 40
0.5
 50
180.0
 51
270.0
  0
LINE
  5
5F3B
  8
AM_0
 10
145.07314847969491
 20
417.10685123574791
 30
0.0
 11
140.57314847969491
 21
417.10685123574791
 31
0.0
  0
ARC
  5
5F3C
  8
AM_0
 10
145.07314847969491
 20
416.60685123574802
 30
0.0
 40
0.5
 50
0.0
 51
90.0
  0
LINE
  5
5F3D
  8
AM_0
 10
134.67447738334911
 20
411.6056091620477
 30
0.0
 11
134.67447738334911
 21
412.77785234848079
 31
0.0
  0
LINE
  5
5F3E
  8
AM_0
 10
136.10084553834599
 20
408.65077991433992
 30
0.0
 11
136.57314847969491
 21
408.65077991433992
 31
0.0
  0
LINE
  5
5F3F
  8
AM_0
 10
136.00425304380681
 20
408.57666214760309
 30
0.0
 11
136.02411310992099
 21
408.65077991433992
 31
0.0
  0
ARC
  5
5F40
  8
AM_0
 10
136.10084553834599
 20
408.5507799143399
 30
0.0
 40
0.1000000000000346
 50
90.0
 51
164.99980499355539
  0
ARC
  5
5F41
  8
AM_0
 10
134.37447738334899
 20
408.46394693383201
 30
0.0
 40
0.3000000000000043
 50
0.0
 51
90.0
  0
LINE
  5
5F42
  8
AM_0
 10
133.17447738334911
 20
406.3507799143398
 30
0.0
 11
134.39443308650601
 21
406.43211029455108
 31
0.0
  0
LINE
  5
5F43
  8
AM_0
 10
133.17447738334911
 20
407.50703195017991
 30
0.0
 11
134.3744773833489
 21
407.50703195017991
 31
0.0
  0
LINE
  5
5F44
  8
AM_0
 10
134.67447738334911
 20
406.75077991434
 30
0.0
 11
133.17447738334911
 21
406.75077991434
 31
0.0
  0
ARC
  5
5F45
  8
AM_0
 10
134.67447738334911
 20
407.25077991434
 30
0.0
 40
0.5
 50
270.0
 51
0.0
  0
LINE
  5
5F46
  8
AM_0
 10
134.67447738334911
 20
406.73144584190811
 30
0.0
 11
134.67447738334911
 21
406.75077991434
 31
0.0
  0
LINE
  5
5F47
  8
AM_0
 10
134.67447738334911
 20
406.4507799143401
 30
0.0
 11
134.67447738334911
 21
406.73144584190811
 31
0.0
  0
LINE
  5
5F48
  8
AM_0
 10
134.39443308650601
 20
406.43211029455108
 30
0.0
 11
134.67447738334911
 21
406.4507799143401
 31
0.0
  0
ARC
  5
5F49
  8
AM_0
 10
134.37447738334899
 20
406.73144584190811
 30
0.0
 40
0.3000000000000007
 50
273.81407483428148
 51
0.0
  0
LINE
  5
5F4A
  8
AM_0
 10
135.74641605126999
 20
407.90077991433992
 30
0.0
 11
135.82314847969579
 21
407.90077991433992
 31
0.0
  0
LINE
  5
5F4B
  8
AM_0
 10
135.82314847969579
 20
407.90077991433992
 30
0.0
 11
135.84300854580891
 21
407.9748976810763
 31
0.0
  0
LINE
  5
5F4C
  8
AM_0
 10
135.25425304380681
 20
407.9748976810763
 30
0.0
 11
135.27411310992099
 21
407.90077991433992
 31
0.0
  0
LINE
  5
5F4D
  8
AM_0
 10
135.27411310992099
 20
407.90077991433992
 30
0.0
 11
135.35084553834599
 21
407.90077991433992
 31
0.0
  0
LINE
  5
5F4E
  8
AM_0
 10
135.84300854580891
 20
407.9748976810763
 30
0.0
 11
136.00425304380681
 21
408.57666214760309
 31
0.0
  0
LINE
  5
5F4F
  8
AM_0
 10
135.35084553834599
 20
407.90077991433992
 30
0.0
 11
135.74641605126999
 21
407.90077991433992
 31
0.0
  0
LINE
  5
5F50
  8
AM_0
 10
135.17447738334999
 20
408.27262044590083
 30
0.0
 11
135.25425304380681
 21
407.9748976810763
 31
0.0
  0
ARC
  5
5F51
  8
AM_0
 10
135.74641605126999
 20
408.00077991434
 30
0.0
 40
0.0999999999999866
 50
270.0
 51
344.99980499343371
  0
ARC
  5
5F52
  8
AM_0
 10
135.35084553834599
 20
408.00077991434
 30
0.0
 40
0.1000000000000014
 50
195.00019500656629
 51
270.0
  0
LINE
  5
5F53
  8
AM_0
 10
134.67447738334911
 20
407.80703195017992
 30
0.0
 11
134.67447738334911
 21
408.46394693383201
 31
0.0
  0
ARC
  5
5F54
  8
AM_0
 10
134.37447738334899
 20
407.80703195017998
 30
0.0
 40
0.3000000000000007
 50
270.0
 51
0.0
  0
LINE
  5
5F55
  8
AM_0
 10
133.17447738334911
 20
411.30560916204792
 30
0.0
 11
134.3744773833489
 21
411.30560916204792
 31
0.0
  0
LINE
  5
5F56
  8
AM_0
 10
134.3744773833489
 20
408.76394693383179
 30
0.0
 11
133.17447738334911
 21
408.76394693383179
 31
0.0
  0
LINE
  5
5F57
  8
AM_0
 10
136.02411310992099
 20
408.65077991433992
 30
0.0
 11
136.10084553834599
 21
408.65077991433992
 31
0.0
  0
ARC
  5
5F58
  8
AM_0
 10
134.37447738334899
 20
411.6056091620481
 30
0.0
 40
0.3000000000000007
 50
270.0
 51
0.0
  0
LINE
  5
5F59
  8
AM_0
 10
134.3744773833489
 20
413.07785234848092
 30
0.0
 11
133.17447738334911
 21
413.07785234848092
 31
0.0
  0
ARC
  5
5F5A
  8
AM_0
 10
134.37447738334899
 20
412.77785234848108
 30
0.0
 40
0.3000000000000043
 50
0.0
 51
90.0
  0
LINE
  5
5F5B
  8
AM_0
 10
134.3744773833489
 20
416.75077991433892
 30
0.0
 11
133.17447738334911
 21
416.75077991433892
 31
0.0
  0
ARC
  5
5F5C
  8
AM_0
 10
134.37447738334899
 20
417.05077991433922
 30
0.0
 40
0.3000000000000007
 50
270.0
 51
0.0
  0
LINE
  5
5F5D
  8
AM_0
 10
124.1744773833491
 20
407.61750008569282
 30
0.0
 11
130.67447738334911
 21
407.61750008569282
 31
0.0
  0
LINE
  5
5F5E
  8
AM_0
 10
124.1744773833491
 20
407.11750008569282
 30
0.0
 11
130.67447738334911
 21
407.11750008569282
 31
0.0
  0
LINE
  5
5F5F
  8
AM_0
 10
130.67447738334911
 20
417.25077991433989
 30
0.0
 11
124.1744773833491
 21
417.25077991433989
 31
0.0
  0
LINE
  5
5F60
  8
AM_0
 10
123.6744773833491
 20
416.75077991433989
 30
0.0
 11
130.67447738334911
 21
416.75077991433989
 31
0.0
  0
LINE
  5
5F61
  8
AM_0
 10
130.3744773833489
 20
406.75077991434
 30
0.0
 11
123.5365273185309
 21
406.75077991434
 31
0.0
  0
LINE
  5
5F62
  8
AM_0
 10
130.67447738334911
 20
416.40409184579869
 30
0.0
 11
124.1744773833491
 21
416.40409184579869
 31
0.0
  0
LINE
  5
5F63
  8
AM_0
 10
130.67447738334911
 20
408.09746798288091
 30
0.0
 11
124.1744773833491
 21
408.09746798288091
 31
0.0
  0
ARC
  5
5F64
  8
AM_0
 10
130.97447738334901
 20
406.05077991433978
 30
0.0
 40
0.2999999999999971
 50
180.0
 51
270.0
  0
ARC
  5
5F65
  8
AM_0
 10
130.37447738334899
 20
406.4507799143401
 30
0.0
 40
0.2999999999999971
 50
0.0
 51
90.0
  0
ARC
  5
5F66
  8
AM_0
 10
132.29947738334911
 20
412.25077991434
 30
0.0
 40
9.124999999999984
 50
152.92493329271929
 51
207.07506670728071
  0
LINE
  5
5F67
  8
AM_0
 10
122.89634291886659
 20
406.9825586347423
 30
0.0
 11
120.5342929836844
 21
408.95093358072739
 31
0.0
  0
LINE
  5
5F68
  8
AM_0
 10
123.6744773833491
 20
407.329212497848
 30
0.0
 11
124.1744773833491
 21
406.75077991434
 31
0.0
  0
ARC
  5
5F69
  8
AM_0
 10
123.5365273185309
 20
407.75077991434011
 30
0.0
 40
1.0
 50
230.19442890774391
 51
270.0
  0
LINE
  5
5F6A
  8
AM_0
 10
124.1744773833491
 20
407.11750008569282
 30
0.0
 11
123.6744773833491
 21
407.329212497848
 31
0.0
  0
LINE
  5
5F6B
  8
AM_0
 10
123.6744773833491
 20
407.791487770819
 30
0.0
 11
124.1744773833491
 21
407.11750008569282
 31
0.0
  0
LINE
  5
5F6C
  8
AM_0
 10
124.1744773833491
 20
407.61750008569282
 30
0.0
 11
123.6744773833491
 21
407.791487770819
 31
0.0
  0
LINE
  5
5F6D
  8
AM_0
 10
123.6744773833491
 20
408.329212497848
 30
0.0
 11
124.1744773833491
 21
407.61750008569282
 31
0.0
  0
LINE
  5
5F6E
  8
AM_0
 10
124.1744773833491
 20
408.09746798288091
 30
0.0
 11
123.6744773833491
 21
408.329212497848
 31
0.0
  0
ARC
  5
5F6F
  8
AM_0
 10
121.174477383349
 20
409.71915486032509
 30
0.0
 40
1.0000000000000291
 50
180.0
 51
230.19442890773689
  0
LINE
  5
5F70
  8
AM_0
 10
124.1744773833491
 20
417.25077991433989
 30
0.0
 11
123.6744773833491
 21
417.75077991433989
 31
0.0
  0
LINE
  5
5F71
  8
AM_0
 10
123.6744773833491
 20
416.75077991433989
 30
0.0
 11
124.1744773833491
 21
417.25077991433989
 31
0.0
  0
LINE
  5
5F72
  8
AM_0
 10
124.1744773833491
 20
416.40409184579869
 30
0.0
 11
123.6744773833491
 21
416.75077991433989
 31
0.0
  0
LINE
  5
5F73
  8
AM_0
 10
130.97447738334901
 20
429.75077991433989
 30
0.0
 11
133.17447738334911
 21
429.75077991433989
 31
0.0
  0
ARC
  5
5F74
  8
AM_0
 10
145.07314847969491
 20
430.25077991433989
 30
0.0
 40
0.5
 50
269.99999999998693
 51
0.0
  0
LINE
  5
5F75
  8
AM_0
 10
140.07314847969491
 20
426.85077991433991
 30
0.0
 11
136.85084553834599
 21
426.85077991433991
 31
0.0
  0
LINE
  5
5F76
  8
AM_0
 10
145.57314847969491
 20
418.89470859293289
 30
0.0
 11
145.57314847969491
 21
428.60685123574808
 31
0.0
  0
LINE
  5
5F77
  8
AM_0
 10
140.57314847969491
 20
418.39470859293311
 30
0.0
 11
145.07314847969491
 21
418.39470859293311
 31
0.0
  0
ARC
  5
5F78
  8
AM_0
 10
145.07314847969491
 20
418.89470859293289
 30
0.0
 40
0.5
 50
270.0
 51
0.0
  0
LINE
  5
5F79
  8
AM_0
 10
140.57314847969491
 20
429.10685123574802
 30
0.0
 11
145.07314847969491
 21
429.10685123574802
 31
0.0
  0
LINE
  5
5F7A
  8
AM_0
 10
145.07314847969491
 20
429.75077991433989
 30
0.0
 11
141.07314847969491
 21
429.75077991433989
 31
0.0
  0
ARC
  5
5F7B
  8
AM_0
 10
145.07314847969491
 20
428.60685123574808
 30
0.0
 40
0.5
 50
0.0
 51
90.0
  0
ARC
  5
5F7C
  8
AM_0
 10
140.07314847969491
 20
427.3507799143398
 30
0.0
 40
0.5
 50
270.0
 51
0.0
  0
ARC
  5
5F7D
  8
AM_0
 10
141.07314847969491
 20
429.25077991433989
 30
0.0
 40
0.5
 50
90.0
 51
180.0
  0
ARC
  5
5F7E
  8
AM_0
 10
134.37447738334899
 20
423.89595066663179
 30
0.0
 40
0.3000000000000114
 50
0.0
 51
90.0
  0
LINE
  5
5F7F
  8
AM_0
 10
133.17447738334911
 20
418.75077991434182
 30
0.0
 11
134.3744773833489
 21
418.75077991434182
 31
0.0
  0
ARC
  5
5F80
  8
AM_0
 10
134.37447738334899
 20
418.45077991434198
 30
0.0
 40
0.2999999999999971
 50
0.0
 51
90.0
  0
LINE
  5
5F81
  8
AM_0
 10
133.17447738334911
 20
422.42370748019891
 30
0.0
 11
134.3744773833489
 21
422.42370748019891
 31
0.0
  0
ARC
  5
5F82
  8
AM_0
 10
134.37447738334899
 20
422.72370748019898
 30
0.0
 40
0.3000000000000007
 50
270.0
 51
0.0
  0
LINE
  5
5F83
  8
AM_0
 10
134.67447738334911
 20
422.72370748019898
 30
0.0
 11
134.67447738334911
 21
423.89595066663179
 31
0.0
  0
LINE
  5
5F84
  8
AM_0
 10
136.10084553834599
 20
427.60077991433991
 30
0.0
 11
136.49641605126999
 21
427.60077991433991
 31
0.0
  0
LINE
  5
5F85
  8
AM_0
 10
136.10084553834599
 20
427.60077991433991
 30
0.0
 11
136.49641605126999
 21
427.60077991433991
 31
0.0
  0
LINE
  5
5F86
  8
AM_0
 10
136.593008545809
 20
427.52666214760342
 30
0.0
 11
136.75425304380681
 21
426.92489768107629
 31
0.0
  0
LINE
  5
5F87
  8
AM_0
 10
136.593008545809
 20
427.52666214760342
 30
0.0
 11
136.75425304380681
 21
426.92489768107629
 31
0.0
  0
ARC
  5
5F88
  8
AM_0
 10
136.85084553834599
 20
426.95077991434022
 30
0.0
 40
0.0999999999999943
 50
195.00019500651879
 51
270.0
  0
ARC
  5
5F89
  8
AM_0
 10
136.49641605126999
 20
427.50077991433989
 30
0.0
 40
0.0999999999999943
 50
15.000195006505431
 51
90.0
  0
LINE
  5
5F8A
  8
AM_0
 10
135.17363079480791
 20
427.22577991434002
 30
0.0
 11
135.25425304380681
 21
426.92489768107629
 31
0.0
  0
LINE
  5
5F8B
  8
AM_0
 10
135.8258591319009
 20
426.8900444474379
 30
0.0
 11
136.00425304380681
 21
427.52666214760342
 31
0.0
  0
LINE
  5
5F8C
  8
AM_0
 10
135.84300854580891
 20
426.92489768107629
 30
0.0
 11
136.00425304380681
 21
427.52666214760342
 31
0.0
  0
LINE
  5
5F8D
  8
AM_0
 10
134.67447738334911
 20
427.03761289484891
 30
0.0
 11
134.67447738334911
 21
427.69452787849991
 31
0.0
  0
LINE
  5
5F8E
  8
AM_0
 10
135.17447738334911
 20
427.2226204459019
 30
0.0
 11
135.25425304380681
 21
426.92489768107629
 31
0.0
  0
LINE
  5
5F8F
  8
AM_0
 10
133.17447738334911
 20
426.73761289484889
 30
0.0
 11
134.3744773833489
 21
426.73761289484889
 31
0.0
  0
LINE
  5
5F90
  8
AM_0
 10
134.3744773833489
 20
424.19595066663197
 30
0.0
 11
133.17447738334911
 21
424.19595066663283
 31
0.0
  0
LINE
  5
5F91
  8
AM_0
 10
135.77904831678501
 20
426.85077991433991
 30
0.0
 11
135.8258591319009
 21
426.8900444474379
 31
0.0
  0
LINE
  5
5F92
  8
AM_0
 10
135.35084553834599
 20
426.85077991433991
 30
0.0
 11
135.77904831678501
 21
426.85077991433991
 31
0.0
  0
LINE
  5
5F93
  8
AM_0
 10
135.35084553834599
 20
426.85077991433991
 30
0.0
 11
135.74641605126999
 21
426.85077991433991
 31
0.0
  0
ARC
  5
5F94
  8
AM_0
 10
135.35084553834599
 20
426.95077991434022
 30
0.0
 40
0.0999999999999943
 50
195.00019500651879
 51
270.0
  0
ARC
  5
5F95
  8
AM_0
 10
135.74641605126999
 20
426.95077991434022
 30
0.0
 40
0.0999999999999608
 50
270.0
 51
344.99980499348112
  0
ARC
  5
5F96
  8
AM_0
 10
134.37447738334899
 20
427.03761289484891
 30
0.0
 40
0.3000000000000007
 50
270.0
 51
0.0
  0
LINE
  5
5F97
  8
AM_0
 10
133.17447738334911
 20
428.75077991434
 30
0.0
 11
134.67447738334911
 21
428.75077991434
 31
0.0
  0
LINE
  5
5F98
  8
AM_0
 10
134.3744773833489
 20
427.99452787849992
 30
0.0
 11
133.17447738334911
 21
427.99452787849992
 31
0.0
  0
LINE
  5
5F99
  8
AM_0
 10
134.39443308650601
 20
429.06944953412972
 30
0.0
 11
133.17447738334911
 21
429.15077991433992
 31
0.0
  0
ARC
  5
5F9A
  8
AM_0
 10
134.67447738334911
 20
428.25077991434011
 30
0.0
 40
0.5
 50
0.0
 51
90.0
  0
ARC
  5
5F9B
  8
AM_0
 10
136.10084553834599
 20
427.50077991433989
 30
0.0
 40
0.0999999999999606
 50
90.0
 51
164.99980499349451
  0
ARC
  5
5F9C
  8
AM_0
 10
134.37447738334899
 20
427.69452787849991
 30
0.0
 40
0.2999999999999971
 50
0.0
 51
90.0
  0
LINE
  5
5F9D
  8
AM_0
 10
134.67447738334911
 20
428.75077991434
 30
0.0
 11
134.67447738334911
 21
428.77011398677291
 31
0.0
  0
ARC
  5
5F9E
  8
AM_0
 10
134.37447738334899
 20
428.77011398677291
 30
0.0
 40
0.3000000000000043
 50
0.0
 51
86.18592516571853
  0
ARC
  5
5F9F
  8
AM_0
 10
146.07314847969491
 20
430.75077991434
 30
0.0
 40
0.5
 50
90.0
 51
180.0
  0
LINE
  5
5FA0
  8
AM_0
 10
145.57314847969491
 20
430.75077991434
 30
0.0
 11
145.57314847969491
 21
430.25077991433989
 31
0.0
  0
LINE
  5
5FA1
  8
AM_0
 10
124.1744773833491
 20
427.40409184579892
 30
0.0
 11
130.67447738334911
 21
427.40409184579892
 31
0.0
  0
LINE
  5
5FA2
  8
AM_0
 10
124.1744773833491
 20
419.09746798288091
 30
0.0
 11
130.67447738334911
 21
419.09746798288091
 31
0.0
  0
LINE
  5
5FA3
  8
AM_0
 10
123.5365273185309
 20
428.75077991434
 30
0.0
 11
130.3744773833489
 21
428.75077991434
 31
0.0
  0
LINE
  5
5FA4
  8
AM_0
 10
130.67447738334911
 20
418.75077991434
 30
0.0
 11
123.6744773833491
 21
418.75077991434
 31
0.0
  0
LINE
  5
5FA5
  8
AM_0
 10
124.1744773833491
 20
418.25077991433989
 30
0.0
 11
130.67447738334911
 21
418.25077991433989
 31
0.0
  0
LINE
  5
5FA6
  8
AM_0
 10
130.67447738334911
 20
428.3840597429878
 30
0.0
 11
124.1744773833491
 21
428.3840597429878
 31
0.0
  0
LINE
  5
5FA7
  8
AM_0
 10
130.67447738334911
 20
427.88405974298769
 30
0.0
 11
124.1744773833491
 21
427.88405974298769
 31
0.0
  0
ARC
  5
5FA8
  8
AM_0
 10
130.37447738334899
 20
429.0507799143399
 30
0.0
 40
0.3000000000000043
 50
270.0
 51
0.0
  0
ARC
  5
5FA9
  8
AM_0
 10
130.97447738334901
 20
429.4507799143401
 30
0.0
 40
0.2999999999999971
 50
90.0
 51
180.0
  0
ARC
  5
5FAA
  8
AM_0
 10
132.29947738334911
 20
423.25077991434
 30
0.0
 40
9.124999999999984
 50
152.92493329271929
 51
207.07506670728071
  0
LINE
  5
5FAB
  8
AM_0
 10
123.6744773833491
 20
418.75077991434
 30
0.0
 11
124.1744773833491
 21
419.09746798288091
 31
0.0
  0
LINE
  5
5FAC
  8
AM_0
 10
124.1744773833491
 20
418.25077991433989
 30
0.0
 11
123.6744773833491
 21
418.75077991434
 31
0.0
  0
LINE
  5
5FAD
  8
AM_0
 10
120.5342929836844
 20
426.55062624795312
 30
0.0
 11
122.89634291886659
 21
428.5190011939373
 31
0.0
  0
LINE
  5
5FAE
  8
AM_0
 10
124.1744773833491
 20
428.75077991434
 30
0.0
 11
123.6744773833491
 21
428.17234733083279
 31
0.0
  0
ARC
  5
5FAF
  8
AM_0
 10
123.5365273185309
 20
427.75077991434
 30
0.0
 40
1.0000000000000411
 50
90.0
 51
129.805571092256
  0
LINE
  5
5FB0
  8
AM_0
 10
123.6744773833491
 20
427.17234733083291
 30
0.0
 11
124.1744773833491
 21
427.40409184579892
 31
0.0
  0
LINE
  5
5FB1
  8
AM_0
 10
124.1744773833491
 20
427.88405974298769
 30
0.0
 11
123.6744773833491
 21
427.17234733083291
 31
0.0
  0
LINE
  5
5FB2
  8
AM_0
 10
123.6744773833491
 20
427.710072057861
 30
0.0
 11
124.1744773833491
 21
427.88405974298769
 31
0.0
  0
LINE
  5
5FB3
  8
AM_0
 10
124.1744773833491
 20
428.3840597429878
 30
0.0
 11
123.6744773833491
 21
427.710072057861
 31
0.0
  0
LINE
  5
5FB4
  8
AM_0
 10
123.6744773833491
 20
428.17234733083279
 30
0.0
 11
124.1744773833491
 21
428.3840597429878
 31
0.0
  0
ARC
  5
5FB5
  8
AM_0
 10
121.174477383349
 20
425.78240496835588
 30
0.0
 40
1.0
 50
129.80557109226311
 51
180.0
  0
LINE
  5
5FB6
  8
AM_0
 10
245.57314847969499
 20
394.75077991434028
 30
0.0
 11
224.75864358016261
 21
394.75077991434028
 31
0.0
  0
LINE
  5
5FB7
  8
AM_0
 10
170.3876533792274
 20
394.75077991434028
 30
0.0
 11
149.57314847969559
 21
394.75077991434028
 31
0.0
  0
LINE
  5
5FB8
  8
AM_0
 10
239.437366810534
 20
390.75077991434028
 30
0.0
 11
155.70893014885581
 21
390.75077991434028
 31
0.0
  0
LINE
  5
5FB9
  8
AM_0
 10
158.48050345200201
 20
392.6918424022125
 30
0.0
 11
158.57314847969559
 21
393.75077991434028
 31
0.0
  0
LINE
  5
5FBA
  8
AM_0
 10
150.665793507389
 20
392.6918424022125
 30
0.0
 11
150.57314847969559
 21
393.75077991434028
 31
0.0
  0
ARC
  5
5FBB
  8
AM_0
 10
154.57314847969559
 20
397.15077991434032
 30
0.0
 40
6.5
 50
241.82726586813479
 51
298.17273413186518
  0
ARC
  5
5FBC
  8
AM_0
 10
152.25970502433589
 20
392.83129159060883
 30
0.0
 40
1.6000000000000001
 50
184.99999999999969
 51
241.82726586813479
  0
LINE
  5
5FBD
  8
AM_0
 10
156.8731484796956
 20
391.07130625291188
 30
0.0
 11
154.57314847969559
 21
393.36086593170751
 31
0.0
  0
LINE
  5
5FBE
  8
AM_0
 10
154.88464847969561
 20
393.05077991434018
 30
0.0
 11
154.26164847969559
 21
393.05077991434018
 31
0.0
  0
LINE
  5
5FBF
  8
AM_0
 10
152.27314847969569
 20
391.07130625291188
 30
0.0
 11
154.57314847969559
 21
393.36086593170751
 31
0.0
  0
LINE
  5
5FC0
  8
AM_0
 10
154.88464847969561
 20
390.6582482240056
 30
0.0
 11
154.88464847969561
 21
393.05077991434018
 31
0.0
  0
LINE
  5
5FC1
  8
AM_0
 10
154.26164847969559
 20
390.6582482240056
 30
0.0
 11
154.26164847969559
 21
393.05077991434018
 31
0.0
  0
ARC
  5
5FC2
  8
AM_0
 10
156.88659193505521
 20
392.83129159060883
 30
0.0
 40
1.6000000000000001
 50
298.17273413186518
 51
355.00000000000023
  0
LINE
  5
5FC3
  8
AM_0
 10
245.57314847969519
 20
394.75077991434028
 30
0.0
 11
245.57314847969519
 21
398.75077991434028
 31
0.0
  0
LINE
  5
5FC4
  8
AM_0
 10
149.57314847969471
 20
398.75077991434023
 30
0.0
 11
149.57314847969579
 21
394.75077991434028
 31
0.0
  0
LINE
  5
5FC5
  8
AM_0N
 10
158.3731484796956
 20
394.75077991434028
 30
0.0
 11
158.3731484796956
 21
393.75077991434028
 31
0.0
  0
LINE
  5
5FC6
  8
AM_0N
 10
154.77314847969569
 20
393.75077991434028
 30
0.0
 11
155.1371187139618
 21
394.75077991434028
 31
0.0
  0
LINE
  5
5FC7
  8
AM_0N
 10
154.3731484796956
 20
393.75077991434028
 30
0.0
 11
154.73711871396171
 21
394.75077991434028
 31
0.0
  0
LINE
  5
5FC8
  8
AM_0N
 10
150.57314847969559
 20
393.75077991434028
 30
0.0
 11
158.57314847969559
 21
393.75077991434028
 31
0.0
  0
LINE
  5
5FC9
  8
AM_0N
 10
150.77314847969569
 20
393.75077991434028
 30
0.0
 11
150.77314847969569
 21
394.75077991434028
 31
0.0
  0
LINE
  5
5FCA
  8
AM_0
 10
170.3876533792272
 20
390.75077991434028
 30
0.0
 11
170.3876533792272
 21
394.75077991434028
 31
0.0
  0
LINE
  5
5FCB
  8
AM_0
 10
168.73079912973481
 20
394.75077991434028
 30
0.0
 11
170.3876533792272
 21
390.75077991434028
 31
0.0
  0
LINE
  5
5FCC
  8
AM_0
 10
224.75864358016261
 20
390.75077991434028
 30
0.0
 11
224.75864358016261
 21
394.75077991434028
 31
0.0
  0
LINE
  5
5FCD
  8
AM_0
 10
226.41549782965521
 20
394.75077991434028
 30
0.0
 11
224.75864358016261
 21
390.75077991434028
 31
0.0
  0
LINE
  5
5FCE
  8
AM_0
 10
164.07314847969491
 20
439.75077991434028
 30
0.0
 11
231.07314847969499
 21
439.75077991434028
 31
0.0
  0
LINE
  5
5FCF
  8
AM_0
 10
164.07314847969491
 20
439.75077991434028
 30
0.0
 11
164.07314847969491
 21
437.75077991434023
 31
0.0
  0
LINE
  5
5FD0
  8
AM_0
 10
231.07314847969499
 20
439.75077991434028
 30
0.0
 11
231.07314847969499
 21
437.75077991434023
 31
0.0
  0
LINE
  5
5FD1
  8
ﾁｭｳｼﾝｾﾝ1
 10
240.57314847969431
 20
388.48607241434019
 30
0.0
 11
240.57314847969431
 21
401.48607241434007
 31
0.0
  0
LINE
  5
5FD2
  8
AM_0
 10
236.665793507388
 20
392.6918424022125
 30
0.0
 11
236.57314847969451
 21
393.75077991434028
 31
0.0
  0
LINE
  5
5FD3
  8
AM_0
 10
244.48050345200099
 20
392.6918424022125
 30
0.0
 11
244.57314847969431
 21
393.75077991434028
 31
0.0
  0
ARC
  5
5FD4
  8
AM_0
 10
240.57314847969451
 20
397.15077991434021
 30
0.0
 40
6.5
 50
241.82726586813479
 51
298.17273413186518
  0
ARC
  5
5FD5
  8
AM_0
 10
242.8865919350543
 20
392.8312915906086
 30
0.0
 40
1.6000000000000001
 50
298.17273413186518
 51
355.00000000000023
  0
LINE
  5
5FD6
  8
AM_0
 10
238.2731484796945
 20
391.07130625291188
 30
0.0
 11
240.57314847969451
 21
393.36086593170751
 31
0.0
  0
LINE
  5
5FD7
  8
AM_0
 10
240.2616484796944
 20
393.05077991434018
 30
0.0
 11
240.8846484796945
 21
393.05077991434018
 31
0.0
  0
LINE
  5
5FD8
  8
AM_0
 10
242.87314847969441
 20
391.07130625291188
 30
0.0
 11
240.57314847969451
 21
393.36086593170751
 31
0.0
  0
LINE
  5
5FD9
  8
AM_0
 10
240.2616484796944
 20
390.6582482240056
 30
0.0
 11
240.2616484796944
 21
393.05077991434018
 31
0.0
  0
LINE
  5
5FDA
  8
AM_0
 10
240.8846484796945
 20
390.6582482240056
 30
0.0
 11
240.8846484796945
 21
393.05077991434018
 31
0.0
  0
ARC
  5
5FDB
  8
AM_0
 10
238.25970502433501
 20
392.8312915906086
 30
0.0
 40
1.6000000000000001
 50
184.99999999999969
 51
241.82726586813479
  0
LINE
  5
5FDC
  8
AM_0N
 10
236.77314847969441
 20
394.75077991434028
 30
0.0
 11
236.77314847969441
 21
393.75077991434028
 31
0.0
  0
LINE
  5
5FDD
  8
AM_0N
 10
240.37314847969441
 20
393.75077991434028
 30
0.0
 11
240.00917824542819
 21
394.75077991434028
 31
0.0
  0
LINE
  5
5FDE
  8
AM_0N
 10
240.77314847969441
 20
393.75077991434028
 30
0.0
 11
240.40917824542819
 21
394.75077991434028
 31
0.0
  0
LINE
  5
5FDF
  8
AM_0N
 10
244.57314847969451
 20
393.75077991434028
 30
0.0
 11
236.57314847969451
 21
393.75077991434028
 31
0.0
  0
LINE
  5
5FE0
  8
AM_0N
 10
244.37314847969441
 20
393.75077991434028
 30
0.0
 11
244.37314847969441
 21
394.75077991434028
 31
0.0
  0
LINE
  5
5FE1
  8
AM_0
 10
148.57314847969491
 20
401.75077991434
 30
0.0
 11
148.57314847969491
 21
433.75077991433989
 31
0.0
  0
LINE
  5
5FE2
  8
AM_0
 10
246.77889847969519
 20
550.67966991434025
 30
0.0
 11
242.6331784796952
 21
566.16077991434008
 31
0.0
  0
LINE
  5
5FE3
  8
AM_0
 10
246.77886847969529
 20
549.76966991434028
 30
0.0
 11
242.63314847969511
 21
565.25077991434011
 31
0.0
  0
LINE
  5
5FE4
  8
AM_0
 10
246.77886847969529
 20
547.91968991434032
 30
0.0
 11
242.63314847969511
 21
563.40082991434008
 31
0.0
  0
LINE
  5
5FE5
  8
AM_0
 10
248.57314847969511
 20
561.75077991434023
 30
0.0
 11
248.57314847969511
 21
449.75077991434
 31
0.0
  0
LINE
  5
5FE6
  8
AM_0
 10
126.57314847969531
 20
553.77079991434005
 30
0.0
 11
126.57314847969531
 21
510.75077991434023
 31
0.0
  0
LINE
  5
5FE7
  8
AM_0
 10
128.84316847969501
 20
555.50077991434023
 30
0.0
 11
131.07314847969519
 21
555.50077991434023
 31
0.0
  0
LINE
  5
5FE8
  8
AM_0
 10
128.77315847969501
 20
541.44071991434009
 30
0.0
 11
130.87313847969509
 21
541.44071991434009
 31
0.0
  0
LINE
  5
5FE9
  8
AM_0
 10
128.34316847969501
 20
555.37073991434022
 30
0.0
 11
127.0732084796951
 21
554.63074991433996
 31
0.0
  0
LINE
  5
5FEA
  8
AM_0
 10
128.33309847969531
 20
553.25083991433996
 30
0.0
 11
127.0531284796951
 21
552.48081991434015
 31
0.0
  0
LINE
  5
5FEB
  8
AM_0
 10
128.32308847969529
 20
548.71079991433987
 30
0.0
 11
127.02309847969509
 21
547.86081991434025
 31
0.0
  0
LINE
  5
5FEC
  8
AM_0
 10
128.38314847969511
 20
541.36078991434022
 30
0.0
 11
127.18319847969531
 21
540.85077991434025
 31
0.0
  0
LINE
  5
5FED
  8
AM_0
 10
128.8531784796952
 20
553.3907899143403
 30
0.0
 11
131.57314847969531
 21
553.3907899143403
 31
0.0
  0
LINE
  5
5FEE
  8
AM_0
 10
128.87319847969511
 20
548.88077991434
 30
0.0
 11
131.57314847969531
 21
548.88077991434
 31
0.0
  0
LINE
  5
5FEF
  8
AM_0
 10
128.72317847969521
 20
539.49076991434015
 30
0.0
 11
130.57314847969531
 21
539.49076991434015
 31
0.0
  0
LINE
  5
5FF0
  8
AM_0
 10
128.84316847969501
 20
547.74076991434026
 30
0.0
 11
130.57314847969531
 21
547.74076991434026
 31
0.0
  0
LINE
  5
5FF1
  8
AM_0
 10
128.82314847969519
 20
552.25077991434023
 30
0.0
 11
130.57314847969531
 21
552.25077991434023
 31
0.0
  0
LINE
  5
5FF2
  8
AM_0
 10
128.81313847969531
 20
554.35074991434021
 30
0.0
 11
131.07314847969519
 21
554.35074991434021
 31
0.0
  0
LINE
  5
5FF3
  8
AM_0
 10
128.34310847969539
 20
547.60080991434029
 30
0.0
 11
127.0631384796953
 21
546.85080991433995
 31
0.0
  0
LINE
  5
5FF4
  8
AM_0
 10
128.43313847969529
 20
539.45081991433995
 30
0.0
 11
127.28316847969531
 21
539.10080991434029
 31
0.0
  0
LINE
  5
5FF5
  8
AM_0
 10
128.36312847969521
 20
554.25077991434023
 30
0.0
 11
127.1231384796954
 21
553.62076991434003
 31
0.0
  0
LINE
  5
5FF6
  8
AM_0
 10
128.3531784796952
 20
552.14081991434023
 30
0.0
 11
127.1031784796952
 21
551.47080991433995
 31
0.0
  0
LINE
  5
5FF7
  8
AM_0
 10
130.57314847969531
 20
531.75077991434023
 30
0.0
 11
127.57314847969531
 21
531.75077991434023
 31
0.0
  0
LINE
  5
5FF8
  8
AM_0
 10
130.57314847969531
 20
529.75077991434023
 30
0.0
 11
127.57314847969531
 21
529.75077991434023
 31
0.0
  0
LINE
  5
5FF9
  8
AM_0
 10
130.57314847969531
 20
521.75077991434023
 30
0.0
 11
127.57314847969531
 21
521.75077991434023
 31
0.0
  0
LINE
  5
5FFA
  8
AM_0
 10
130.57314847969531
 20
519.75077991434
 30
0.0
 11
127.57314847969531
 21
519.75077991434
 31
0.0
  0
LINE
  5
5FFB
  8
AM_0
 10
130.57314847969531
 20
511.75077991434023
 30
0.0
 11
127.57314847969531
 21
511.75077991434023
 31
0.0
  0
LINE
  5
5FFC
  8
AM_0
 10
130.57314847969531
 20
509.75077991434023
 30
0.0
 11
127.57314847969531
 21
509.75077991434023
 31
0.0
  0
LINE
  5
5FFD
  8
AM_0
 10
128.57314847969531
 20
521.36075991434018
 30
0.0
 11
128.57314847969531
 21
520.15079991434015
 31
0.0
  0
LINE
  5
5FFE
  8
AM_0
 10
128.57314847969531
 20
511.36075991434001
 30
0.0
 11
128.57314847969531
 21
510.20072991434017
 31
0.0
  0
LINE
  5
5FFF
  8
AM_0
 10
128.57314847969531
 20
531.38077991434
 30
0.0
 11
128.57314847969531
 21
530.01078991434019
 31
0.0
  0
LINE
  5
6000
  8
AM_0
 10
128.57314847969531
 20
541.14078991434019
 30
0.0
 11
128.57314847969531
 21
540.08072991434005
 31
0.0
  0
LINE
  5
6001
  8
AM_0
 10
128.57314847969531
 20
548.58072991434005
 30
0.0
 11
128.57314847969531
 21
548.11075991434018
 31
0.0
  0
LINE
  5
6002
  8
AM_0
 10
128.57314847969531
 20
553.15079991434027
 30
0.0
 11
128.57314847969531
 21
552.60074991434021
 31
0.0
  0
LINE
  5
6003
  8
AM_0
 10
128.57314847969531
 20
555.25077991434023
 30
0.0
 11
128.57314847969531
 21
554.7207499143401
 31
0.0
  0
LINE
  5
6004
  8
AM_0
 10
125.07314847969531
 20
525.75077991434023
 30
0.0
 11
125.07314847969531
 21
505.75077991434023
 31
0.0
  0
LINE
  5
6005
  8
AM_0
 10
125.07314847969531
 20
525.7507499143403
 30
0.0
 11
126.57314847969531
 21
525.88074991434019
 31
0.0
  0
LINE
  5
6006
  8
AM_0
 10
125.07314847969531
 20
520.90079991434015
 30
0.0
 11
126.57314847969531
 21
520.90079991434015
 31
0.0
  0
LINE
  5
6007
  8
AM_0
 10
125.07314847969531
 20
523.03080991434001
 30
0.0
 11
126.57314847969531
 21
523.03080991434001
 31
0.0
  0
LINE
  5
6008
  8
AM_0
 10
241.9131784796952
 20
541.75077991434023
 30
0.0
 11
142.93313847969509
 21
541.75077991434023
 31
0.0
  0
LINE
  5
6009
  8
AM_0
 10
241.9131784796952
 20
539.75077991434023
 30
0.0
 11
142.93313847969509
 21
539.75077991434023
 31
0.0
  0
LINE
  5
600A
  8
AM_0
 10
209.57314847969531
 20
531.75077991434023
 30
0.0
 11
142.93313847969509
 21
531.75077991434023
 31
0.0
  0
LINE
  5
600B
  8
AM_0
 10
241.90597847969531
 20
529.75077991434023
 30
0.0
 11
142.93313847969509
 21
529.75077991434023
 31
0.0
  0
LINE
  5
600C
  8
AM_0
 10
177.01186847969521
 20
521.75077991434023
 30
0.0
 11
142.93313847969509
 21
521.75077991434023
 31
0.0
  0
LINE
  5
600D
  8
AM_0
 10
177.01186847969521
 20
519.75077991434
 30
0.0
 11
142.93313847969509
 21
519.75077991434
 31
0.0
  0
LINE
  5
600E
  8
AM_0
 10
177.01186847969521
 20
511.75077991434023
 30
0.0
 11
142.93313847969509
 21
511.75077991434023
 31
0.0
  0
LINE
  5
600F
  8
AM_0
 10
177.01186847969521
 20
509.75077991434023
 30
0.0
 11
142.93313847969509
 21
509.75077991434023
 31
0.0
  0
LINE
  5
6010
  8
AM_0
 10
142.25313847969539
 20
542.4707499143401
 30
0.0
 11
245.39315847969519
 21
542.4707499143401
 31
0.0
  0
LINE
  5
6011
  8
AM_0
 10
142.25313847969539
 20
539.12076991434014
 30
0.0
 11
209.59316847969529
 21
539.12076991434014
 31
0.0
  0
LINE
  5
6012
  8
AM_0
 10
142.03316847969521
 20
532.24076991434015
 30
0.0
 11
209.57314847969531
 21
532.24076991434015
 31
0.0
  0
LINE
  5
6013
  8
AM_0
 10
142.03316847969521
 20
529.31082991434005
 30
0.0
 11
245.6073884796952
 21
529.31082991434005
 31
0.0
  0
LINE
  5
6014
  8
AM_0
 10
141.9031684796951
 20
522.09073991434025
 30
0.0
 11
178.23183847969531
 21
522.09073991434025
 31
0.0
  0
LINE
  5
6015
  8
AM_0
 10
141.9031684796951
 20
519.43082991434005
 30
0.0
 11
178.23183847969531
 21
519.43082991434005
 31
0.0
  0
LINE
  5
6016
  8
AM_0
 10
141.84316847969509
 20
512.02079991434005
 30
0.0
 11
178.2918384796952
 21
512.02079991434005
 31
0.0
  0
LINE
  5
6017
  8
AM_0
 10
141.84316847969509
 20
509.49076991434009
 30
0.0
 11
178.2918384796952
 21
509.49076991434009
 31
0.0
  0
LINE
  5
6018
  8
AM_0
 10
141.84316847969509
 20
502.0207999143401
 30
0.0
 11
178.2918384796952
 21
502.0207999143401
 31
0.0
  0
LINE
  5
6019
  8
AM_0
 10
177.01186847969521
 20
501.75077991434023
 30
0.0
 11
142.93313847969509
 21
501.75077991434023
 31
0.0
  0
LINE
  5
601A
  8
AM_0
 10
177.01186847969521
 20
499.75077991434023
 30
0.0
 11
142.93313847969509
 21
499.75077991434023
 31
0.0
  0
LINE
  5
601B
  8
AM_0
 10
141.84316847969509
 20
499.4807599143403
 30
0.0
 11
178.2918384796952
 21
499.4807599143403
 31
0.0
  0
LINE
  5
601C
  8
AM_0
 10
141.9031684796951
 20
492.0707199143402
 30
0.0
 11
178.23183847969531
 21
492.0707199143402
 31
0.0
  0
LINE
  5
601D
  8
AM_0
 10
177.01186847969521
 20
491.75077991434023
 30
0.0
 11
142.93313847969509
 21
491.75077991434023
 31
0.0
  0
LINE
  5
601E
  8
AM_0
 10
177.01186847969521
 20
489.75077991434023
 30
0.0
 11
142.93313847969509
 21
489.75077991434023
 31
0.0
  0
LINE
  5
601F
  8
AM_0
 10
141.9031684796951
 20
489.41080991434018
 30
0.0
 11
178.2444184796951
 21
489.41080991434018
 31
0.0
  0
LINE
  5
6020
  8
AM_0
 10
241.90597847969531
 20
481.75077991434023
 30
0.0
 11
142.93313847969509
 21
481.75077991434023
 31
0.0
  0
LINE
  5
6021
  8
AM_0
 10
142.03316847969521
 20
482.19071991434021
 30
0.0
 11
245.6073884796952
 21
482.19071991434021
 31
0.0
  0
LINE
  5
6022
  8
AM_0
 10
209.57314847969531
 20
479.75077991434023
 30
0.0
 11
142.93313847969509
 21
479.75077991434023
 31
0.0
  0
LINE
  5
6023
  8
AM_0
 10
142.03316847969521
 20
479.26078991434002
 30
0.0
 11
209.57314847969531
 21
479.26078991434002
 31
0.0
  0
LINE
  5
6024
  8
AM_0
 10
241.9131784796952
 20
471.75077991434
 30
0.0
 11
197.57314847969511
 21
471.75077991434
 31
0.0
  0
LINE
  5
6025
  8
AM_0
 10
241.9131784796952
 20
469.75077991434011
 30
0.0
 11
197.57314847969511
 21
469.75077991434011
 31
0.0
  0
LINE
  5
6026
  8
AM_0
 10
142.25313847969539
 20
469.03080991434001
 30
0.0
 11
197.57314847969511
 21
469.03080991434001
 31
0.0
  0
LINE
  5
6027
  8
AM_0
 10
245.39315847969519
 20
472.38077991434
 30
0.0
 11
227.55318847969519
 21
472.38077991434
 31
0.0
  0
LINE
  5
6028
  8
AM_0
 10
128.77315847969501
 20
470.0608299143401
 30
0.0
 11
130.87313847969509
 21
470.0608299143401
 31
0.0
  0
LINE
  5
6029
  8
AM_0
 10
128.38320847969501
 20
470.14081991434023
 30
0.0
 11
127.18319847969531
 21
470.66083991434022
 31
0.0
  0
LINE
  5
602A
  8
AM_0
 10
128.72317847969521
 20
472.01078991433991
 30
0.0
 11
130.57314847969531
 21
472.01078991433991
 31
0.0
  0
LINE
  5
602B
  8
AM_0
 10
128.43313847969529
 20
472.05075991434001
 30
0.0
 11
127.28316847969531
 21
472.41077991434031
 31
0.0
  0
LINE
  5
602C
  8
AM_0
 10
130.57314847969531
 20
479.75077991434023
 30
0.0
 11
127.57314847969531
 21
479.75077991434023
 31
0.0
  0
LINE
  5
602D
  8
AM_0
 10
130.57314847969531
 20
481.75077991434023
 30
0.0
 11
127.57314847969531
 21
481.75077991434023
 31
0.0
  0
LINE
  5
602E
  8
AM_0
 10
130.57314847969531
 20
489.75077991434023
 30
0.0
 11
127.57314847969531
 21
489.75077991434023
 31
0.0
  0
LINE
  5
602F
  8
AM_0
 10
130.57314847969531
 20
491.75077991434023
 30
0.0
 11
127.57314847969531
 21
491.75077991434023
 31
0.0
  0
LINE
  5
6030
  8
AM_0
 10
130.57314847969531
 20
499.75077991434023
 30
0.0
 11
127.57314847969531
 21
499.75077991434023
 31
0.0
  0
LINE
  5
6031
  8
AM_0
 10
130.57314847969531
 20
501.75077991434023
 30
0.0
 11
127.57314847969531
 21
501.75077991434023
 31
0.0
  0
LINE
  5
6032
  8
AM_0
 10
128.57314847969531
 20
490.1407899143403
 30
0.0
 11
128.57314847969531
 21
491.36075991434018
 31
0.0
  0
LINE
  5
6033
  8
AM_0
 10
128.57314847969531
 20
500.14078991434008
 30
0.0
 11
128.57314847969531
 21
501.30081991434031
 31
0.0
  0
LINE
  5
6034
  8
AM_0
 10
128.57314847969531
 20
480.1207699143402
 30
0.0
 11
128.57314847969531
 21
481.49076991434021
 31
0.0
  0
LINE
  5
6035
  8
AM_0
 10
128.57314847969531
 20
470.36075991434001
 30
0.0
 11
128.57314847969531
 21
471.4208199143402
 31
0.0
  0
LINE
  5
6036
  8
AM_0
 10
125.07314847969531
 20
485.75077991434023
 30
0.0
 11
125.07314847969531
 21
505.75077991434023
 31
0.0
  0
LINE
  5
6037
  8
AM_0
 10
125.07314847969531
 20
485.7507499143403
 30
0.0
 11
126.57314847969531
 21
485.62073991434022
 31
0.0
  0
LINE
  5
6038
  8
AM_0
 10
125.07314847969531
 20
490.6007499143401
 30
0.0
 11
126.57314847969531
 21
490.6007499143401
 31
0.0
  0
LINE
  5
6039
  8
AM_0
 10
125.07314847969531
 20
488.47074991433999
 30
0.0
 11
126.57314847969531
 21
488.47074991433999
 31
0.0
  0
LINE
  5
603A
  8
AM_0
 10
142.25313847969539
 20
472.38077991434
 30
0.0
 11
209.59316847969529
 21
472.38077991434
 31
0.0
  0
LINE
  5
603B
  8
AM_0
 10
197.57314847969511
 20
471.75077991434
 30
0.0
 11
142.93313847969509
 21
471.75077991434
 31
0.0
  0
LINE
  5
603C
  8
AM_0
 10
197.57314847969511
 20
469.75077991434011
 30
0.0
 11
142.93313847969509
 21
469.75077991434011
 31
0.0
  0
LINE
  5
603D
  8
AM_0
 10
197.57314847969511
 20
469.03080991434001
 30
0.0
 11
245.39315847969519
 21
469.03080991434001
 31
0.0
  0
LINE
  5
603E
  8
AM_0
 10
132.57314847969531
 20
558.75077991434023
 30
0.0
 11
132.57314847969531
 21
452.75077991434023
 31
0.0
  0
LINE
  5
603F
  8
AM_0
 10
140.57314847969519
 20
558.75077991434023
 30
0.0
 11
140.57314847969519
 21
452.75077991434023
 31
0.0
  0
LINE
  5
6040
  8
AM_0
 10
127.0631384796953
 20
464.65076991434
 30
0.0
 11
127.0431184796952
 21
464.6607499143401
 31
0.0
  0
LINE
  5
6041
  8
AM_0
 10
131.57314847969531
 20
555.75077991434023
 30
0.0
 11
131.57314847969531
 21
455.75077991434
 31
0.0
  0
LINE
  5
6042
  8
AM_0
 10
131.57314847969531
 20
555.75077991434023
 30
0.0
 11
132.57314847969531
 21
555.75077991434023
 31
0.0
  0
LINE
  5
6043
  8
AM_0
 10
132.57314847969531
 20
558.75077991434023
 30
0.0
 11
140.57314847969519
 21
558.75077991434023
 31
0.0
  0
LINE
  5
6044
  8
AM_0
 10
133.27315847969501
 20
548.94071991434021
 30
0.0
 11
139.50313847969539
 21
548.94071991434021
 31
0.0
  0
LINE
  5
6045
  8
AM_0
 10
248.57314847969511
 20
551.75077991434023
 30
0.0
 11
256.57314847969508
 21
551.75077991434023
 31
0.0
  0
LINE
  5
6046
  8
AM_0
 10
248.57314847969511
 20
537.69071991434021
 30
0.0
 11
256.57314847969508
 21
537.69071991434021
 31
0.0
  0
LINE
  5
6047
  8
AM_0
 10
248.57314847969511
 20
561.75077991434023
 30
0.0
 11
256.57314847969508
 21
561.75077991434023
 31
0.0
  0
LINE
  5
6048
  8
AM_0
 10
143.78316847969521
 20
562.03080991434035
 30
0.0
 11
240.70315847969519
 21
562.03080991434035
 31
0.0
  0
LINE
  5
6049
  8
AM_0
 10
140.57314847969519
 20
553.85083991434021
 30
0.0
 11
141.8131384796952
 21
560.41083991433993
 31
0.0
  0
LINE
  5
604A
  8
AM_0
 10
145.93319847969519
 20
542.40079991434015
 30
0.0
 11
140.5732084796951
 21
553.85077991434025
 31
0.0
  0
LINE
  5
604B
  8
AM_0
 10
145.9331384796952
 20
469.10074991434021
 30
0.0
 11
140.5732084796951
 21
457.66083991434022
 31
0.0
  0
LINE
  5
604C
  8
AM_0
 10
143.82314847969519
 20
564.88077991434
 30
0.0
 11
240.70315847969519
 21
564.88077991434
 31
0.0
  0
LINE
  5
604D
  8
AM_0
 10
143.84316847969509
 20
566.7307599143403
 30
0.0
 11
240.70315847969519
 21
566.7307599143403
 31
0.0
  0
LINE
  5
604E
  8
AM_0
 10
143.86318847969511
 20
567.6407899143403
 30
0.0
 11
240.70321847969521
 21
567.6407899143403
 31
0.0
  0
LINE
  5
604F
  8
AM_0
 10
140.5732084796951
 20
555.19080991434009
 30
0.0
 11
141.8531784796952
 21
563.20075991434032
 31
0.0
  0
LINE
  5
6050
  8
AM_0
 10
140.5732084796951
 20
556.54074991433993
 30
0.0
 11
141.86318847969531
 21
565.03083991434005
 31
0.0
  0
LINE
  5
6051
  8
AM_0
 10
140.57314847969519
 20
556.54077991433996
 30
0.0
 11
141.88314847969511
 21
565.92081991433997
 31
0.0
  0
LINE
  5
6052
  8
AM_0
 10
246.77321847969529
 20
545.09073991434025
 30
0.0
 11
242.6332084796951
 21
560.55075991434023
 31
0.0
  0
LINE
  5
6053
  8
AM_0
 10
243.1131884796952
 20
558.75077991434023
 30
0.0
 11
248.57314847969511
 21
558.75077991434023
 31
0.0
  0
LINE
  5
6054
  8
AM_0
 10
126.57314847969531
 20
457.73075991434013
 30
0.0
 11
126.57314847969531
 21
500.75077991434023
 31
0.0
  0
LINE
  5
6055
  8
AM_0
 10
128.84316847969501
 20
456.00077991434
 30
0.0
 11
131.07314847969519
 21
456.00077991434
 31
0.0
  0
LINE
  5
6056
  8
AM_0
 10
128.34316847969501
 20
456.1407899143399
 30
0.0
 11
127.0732084796951
 21
456.87076991434009
 31
0.0
  0
LINE
  5
6057
  8
AM_0
 10
128.33321847969501
 20
458.25077991434
 30
0.0
 11
127.05318847969529
 21
459.0207999143401
 31
0.0
  0
LINE
  5
6058
  8
AM_0
 10
128.32308847969529
 20
462.7907499143401
 30
0.0
 11
127.02309847969509
 21
463.64075991433998
 31
0.0
  0
LINE
  5
6059
  8
AM_0
 10
128.8531784796952
 20
458.11075991434001
 30
0.0
 11
131.57314847969531
 21
458.11075991434001
 31
0.0
  0
LINE
  5
605A
  8
AM_0
 10
128.87319847969511
 20
462.63077991434
 30
0.0
 11
131.57314847969531
 21
462.63077991434
 31
0.0
  0
LINE
  5
605B
  8
AM_0
 10
128.84316847969501
 20
463.7707999143401
 30
0.0
 11
130.57314847969531
 21
463.7707999143401
 31
0.0
  0
LINE
  5
605C
  8
AM_0
 10
128.82314847969519
 20
459.25077991433977
 30
0.0
 11
130.57314847969531
 21
459.25077991433977
 31
0.0
  0
LINE
  5
605D
  8
AM_0
 10
128.81313847969531
 20
457.1507999143401
 30
0.0
 11
131.07314847969519
 21
457.1507999143401
 31
0.0
  0
LINE
  5
605E
  8
AM_0
 10
128.34316847969501
 20
463.90082991434019
 30
0.0
 11
127.0631984796953
 21
464.6507999143401
 31
0.0
  0
LINE
  5
605F
  8
AM_0
 10
128.36312847969521
 20
457.26075991434021
 30
0.0
 11
127.1231384796954
 21
457.89075991433998
 31
0.0
  0
LINE
  5
6060
  8
AM_0
 10
128.3531784796952
 20
459.3707699143402
 30
0.0
 11
127.1031784796952
 21
460.03076991434023
 31
0.0
  0
LINE
  5
6061
  8
AM_0
 10
128.57314847969531
 20
462.9208199143402
 30
0.0
 11
128.57314847969531
 21
463.3907899143403
 31
0.0
  0
LINE
  5
6062
  8
AM_0
 10
128.57314847969531
 20
458.35074991434021
 30
0.0
 11
128.57314847969531
 21
458.9007999143401
 31
0.0
  0
LINE
  5
6063
  8
AM_0
 10
128.57314847969531
 20
456.25077991434
 30
0.0
 11
128.57314847969531
 21
456.78080991434018
 31
0.0
  0
LINE
  5
6064
  8
AM_0
 10
131.57314847969531
 20
455.75077991434
 30
0.0
 11
132.57314847969531
 21
455.75077991434
 31
0.0
  0
LINE
  5
6065
  8
AM_0
 10
132.57314847969531
 20
452.75077991434023
 30
0.0
 11
140.57314847969519
 21
452.75077991434023
 31
0.0
  0
LINE
  5
6066
  8
AM_0
 10
133.27315847969501
 20
462.5608299143401
 30
0.0
 11
139.50313847969539
 21
462.5608299143401
 31
0.0
  0
LINE
  5
6067
  8
AM_0
 10
248.57314847969511
 20
459.75077991433977
 30
0.0
 11
256.57314847969508
 21
459.75077991433977
 31
0.0
  0
LINE
  5
6068
  8
AM_0
 10
248.57314847969511
 20
449.75077991434
 30
0.0
 11
256.57314847969508
 21
449.75077991434
 31
0.0
  0
LINE
  5
6069
  8
AM_0
 10
143.78316847969521
 20
449.4707499143401
 30
0.0
 11
240.70315847969519
 21
449.4707499143401
 31
0.0
  0
LINE
  5
606A
  8
AM_0
 10
140.57314847969519
 20
457.6607499143401
 30
0.0
 11
141.81319847969519
 21
451.10074991434021
 31
0.0
  0
LINE
  5
606B
  8
AM_0
 10
143.47939847969519
 20
446.6207699143402
 30
0.0
 11
165.97127847969509
 21
446.6207699143402
 31
0.0
  0
LINE
  5
606C
  8
AM_0
 10
140.57314847969519
 20
456.3107399143401
 30
0.0
 11
141.8531784796952
 21
448.31082991434022
 31
0.0
  0
LINE
  5
606D
  8
AM_0
 10
140.57314847969519
 20
454.97083991433988
 30
0.0
 11
141.5824284796951
 21
448.32065991434001
 31
0.0
  0
LINE
  5
606E
  8
AM_0
 10
140.5732084796951
 20
454.97080991434001
 30
0.0
 11
141.49862847969521
 21
448.3442199143401
 31
0.0
  0
LINE
  5
606F
  8
AM_0
 10
246.77886847969529
 20
466.43192991434
 30
0.0
 11
242.63314847969511
 21
450.95078991434008
 31
0.0
  0
LINE
  5
6070
  8
AM_0
 10
243.1151984796951
 20
452.75077991434023
 30
0.0
 11
248.57314847969511
 21
452.75077991434023
 31
0.0
  0
LINE
  5
6071
  8
AM_0
 10
248.57314847969511
 20
473.81082991434022
 30
0.0
 11
256.57314847969508
 21
473.81082991434022
 31
0.0
  0
LINE
  5
6072
  8
AM_0
 10
247.57314847969519
 20
452.75077991434023
 30
0.0
 11
241.8474084796951
 21
443.9338799143402
 31
0.0
  0
LINE
  5
6073
  8
AM_0
 10
229.08675847969519
 20
443.25077991434
 30
0.0
 11
240.5893884796952
 21
443.25077991434
 31
0.0
  0
LINE
  5
6074
  8
AM_0
 10
226.55318847969519
 20
533.25077991434023
 30
0.0
 11
226.55318847969519
 21
538.11075991433995
 31
0.0
  0
LINE
  5
6075
  8
AM_0
 10
210.59316847969521
 20
533.25077991434023
 30
0.0
 11
210.59316847969521
 21
538.11075991433995
 31
0.0
  0
LINE
  5
6076
  8
AM_0
 10
226.07314847969531
 20
533.25077991434023
 30
0.0
 11
226.07314847969531
 21
538.25077991434023
 31
0.0
  0
LINE
  5
6077
  8
AM_0
 10
211.07314847969511
 20
533.25077991434023
 30
0.0
 11
211.07314847969511
 21
538.25077991434023
 31
0.0
  0
LINE
  5
6078
  8
AM_0
 10
182.57314847969519
 20
518.75077991434023
 30
0.0
 11
245.57314847969519
 21
518.75077991434023
 31
0.0
  0
LINE
  5
6079
  8
AM_0
 10
182.57314847969519
 20
485.25077991434023
 30
0.0
 11
245.57314847969519
 21
485.25077991434023
 31
0.0
  0
LINE
  5
607A
  8
AM_0
 10
182.57314847969519
 20
526.25077991434023
 30
0.0
 11
245.57314847969519
 21
526.25077991434023
 31
0.0
  0
LINE
  5
607B
  8
AM_0
 10
245.57314847969519
 20
526.25077991434023
 30
0.0
 11
245.57314847969519
 21
485.25077991434023
 31
0.0
  0
LINE
  5
607C
  8
AM_0
 10
182.57314847969519
 20
526.25077991434023
 30
0.0
 11
182.57314847969519
 21
485.25077991434023
 31
0.0
  0
LINE
  5
607D
  8
AM_0
 10
227.57314847969511
 20
532.24076991434015
 30
0.0
 11
245.61886847969521
 21
532.24076991434015
 31
0.0
  0
LINE
  5
607E
  8
AM_0
 10
227.57314847969511
 20
479.2707999143401
 30
0.0
 11
245.6073884796952
 21
479.2707999143401
 31
0.0
  0
LINE
  5
607F
  8
AM_0
 10
226.55318847969519
 20
478.25077991434011
 30
0.0
 11
226.55318847969519
 21
473.39078991434008
 31
0.0
  0
LINE
  5
6080
  8
AM_0
 10
210.59316847969521
 20
478.25077991434011
 30
0.0
 11
210.59316847969521
 21
473.39078991434008
 31
0.0
  0
LINE
  5
6081
  8
AM_0
 10
226.07314847969531
 20
478.25077991434011
 30
0.0
 11
226.07314847969531
 21
473.25077991434023
 31
0.0
  0
LINE
  5
6082
  8
AM_0
 10
211.07314847969511
 20
478.25077991434011
 30
0.0
 11
211.07314847969511
 21
473.25077991434023
 31
0.0
  0
LINE
  5
6083
  8
AM_0
 10
241.90597847969531
 20
479.75077991434023
 30
0.0
 11
227.57314847969511
 21
479.75077991434023
 31
0.0
  0
LINE
  5
6084
  8
AM_0
 10
241.9203184796954
 20
531.75077991434023
 30
0.0
 11
227.57314847969511
 21
531.75077991434023
 31
0.0
  0
LINE
  5
6085
  8
AM_0
 10
227.55318847969519
 20
539.11075991434018
 30
0.0
 11
245.39315847969519
 21
539.11075991434018
 31
0.0
  0
ARC
  5
6086
  8
AM_0
 10
248.22634847969519
 20
551.08353991434024
 30
0.0
 40
1.502775999999999
 50
194.75642999999971
 51
269.87757999999872
  0
ARC
  5
6087
  8
AM_0
 10
248.22634847969519
 20
550.17350991434
 30
0.0
 40
1.502775999999999
 50
194.75642999999971
 51
269.87757999999872
  0
ARC
  5
6088
  8
AM_0
 10
248.22634847969519
 20
548.32352991434027
 30
0.0
 40
1.502775999999999
 50
194.75642999999971
 51
269.87757999999872
  0
ARC
  5
6089
  8
AM_0
 10
240.69832847969539
 20
565.63602991433993
 30
0.0
 40
2.0047290000000002
 50
15.173495999996319
 51
89.861678000000197
  0
ARC
  5
608A
  8
AM_0
 10
240.69832847969539
 20
564.72599991434004
 30
0.0
 40
2.0047290000000002
 50
15.173495999996319
 51
89.861678000000197
  0
ARC
  5
608B
  8
AM_0
 10
240.69832847969539
 20
562.87601991434008
 30
0.0
 40
2.0047290000000002
 50
15.173495999996319
 51
89.861678000000197
  0
ARC
  5
608C
  8
AM_0
 10
248.22634847969519
 20
466.02799991434
 30
0.0
 40
1.502775999999999
 50
90.122413000001615
 51
165.2435700000002
  0
ARC
  5
608D
  8
AM_0
 10
127.5663784796951
 20
553.76871991434018
 30
0.0
 40
0.99319202
 50
119.7733799999972
 51
179.87958999999799
  0
ARC
  5
608E
  8
AM_0
 10
127.5687584796953
 20
552.73050991434025
 30
0.0
 40
0.995579
 50
116.5870899999978
 51
179.98263999999989
  0
ARC
  5
608F
  8
AM_0
 10
128.835178479695
 20
554.50492991434021
 30
0.0
 40
0.9959030199999999
 50
89.541266999999124
 51
119.6071699999965
  0
ARC
  5
6090
  8
AM_0
 10
128.7979384796952
 20
553.35672991434001
 30
0.0
 40
0.99411702
 50
89.122643999998516
 51
115.93498000000299
  0
ARC
  5
6091
  8
AM_0
 10
128.84200847969501
 20
552.39652991434025
 30
0.0
 40
0.99427301
 50
89.356065999996758
 51
120.78090999999731
  0
ARC
  5
6092
  8
AM_0
 10
128.8082584796951
 20
551.25540991434025
 30
0.0
 40
0.99545902
 50
89.141290999999924
 51
117.2038199999995
  0
ARC
  5
6093
  8
AM_0
 10
128.87978847969521
 20
547.88455991434023
 30
0.0
 40
0.99617702
 50
90.381317999995943
 51
123.9704900000018
  0
ARC
  5
6094
  8
AM_0
 10
128.85256847969501
 20
546.74430991434031
 30
0.0
 40
0.99648702
 50
90.540720999995386
 51
120.7437700000024
  0
ARC
  5
6095
  8
AM_0
 10
127.5672284796951
 20
545.99393991434022
 30
0.0
 40
0.99404597
 50
120.4681999999988
 51
180.18564000000021
  0
ARC
  5
6096
  8
AM_0
 10
127.56795847969509
 20
547.02835991433994
 30
0.0
 40
0.9948369899999999
 50
123.2049600000056
 51
180.43785999999801
  0
ARC
  5
6097
  8
AM_0
 10
127.5663784796951
 20
550.59220991434006
 30
0.0
 40
0.9932109699999999
 50
117.7993199999962
 51
180.08187000000001
  0
ARC
  5
6098
  8
AM_0
 10
127.56759847969499
 20
551.62979991433986
 30
0.0
 40
0.9944329899999999
 50
121.152129999997
 51
179.94050999999911
  0
ARC
  5
6099
  8
AM_0
 10
128.77413847969561
 20
540.44535991434032
 30
0.0
 40
0.9954450099999999
 50
90.056904999996419
 51
113.127449999997
  0
ARC
  5
609A
  8
AM_0
 10
128.71230847969511
 20
538.4980899143402
 30
0.0
 40
0.9927430199999999
 50
89.374554999995524
 51
106.33207000000171
  0
ARC
  5
609B
  8
AM_0
 10
127.5694284796953
 20
538.14652991434025
 30
0.0
 40
0.9962710099999999
 50
106.6979199999999
 51
180.33004999999989
  0
ARC
  5
609C
  8
AM_0
 10
127.5695484796953
 20
539.93228991434023
 30
0.0
 40
0.9963999999999998
 50
112.8173600000008
 51
180.0904199999996
  0
ARC
  5
609D
  8
AM_0
 10
127.56826847969511
 20
530.75565991434019
 30
0.0
 40
0.99507803
 50
89.715886999998034
 51
180.28410999999991
  0
ARC
  5
609E
  8
AM_0
 10
127.5733984796951
 20
530.75101991434008
 30
0.0
 40
1.000203
 50
180.01164999999551
 51
269.9883500000044
  0
ARC
  5
609F
  8
AM_0
 10
127.56826847969511
 20
520.75565991433996
 30
0.0
 40
0.99508202
 50
89.716099000001435
 51
180.2839099999978
  0
ARC
  5
60A0
  8
AM_0
 10
127.5733984796951
 20
520.7510199143403
 30
0.0
 40
1.0001999999999991
 50
180.01143000000161
 51
269.98856999999839
  0
ARC
  5
60A1
  8
AM_0
 10
127.56826847969511
 20
510.75565991434019
 30
0.0
 40
0.9950849999999999
 50
89.716311000000914
 51
180.28368999999961
  0
ARC
  5
60A2
  8
AM_0
 10
127.5733984796951
 20
510.7510199143403
 30
0.0
 40
1.0001959999999981
 50
180.0112199999958
 51
269.98877999999758
  0
ARC
  5
60A3
  8
AM_0
 10
130.57332847969491
 20
508.7508999143401
 30
0.0
 40
0.9998249999999999
 50
359.98994999999883
 51
90.010050000001243
  0
ARC
  5
60A4
  8
AM_0
 10
130.5682084796953
 20
512.75565991433996
 30
0.0
 40
1.0049469
 50
270.28134999999719
 51
359.71866000000068
  0
ARC
  5
60A5
  8
AM_0
 10
130.57332847969491
 20
518.75089991434015
 30
0.0
 40
0.9998210099999999
 50
359.98975000000149
 51
90.010254999998992
  0
ARC
  5
60A6
  8
AM_0
 10
130.5682084796953
 20
522.75565991434019
 30
0.0
 40
1.004939
 50
270.28091000000421
 51
359.71909999999991
  0
ARC
  5
60A7
  8
AM_0
 10
130.57332847969491
 20
528.75089991434015
 30
0.0
 40
0.9998289899999999
 50
359.99019000000038
 51
90.009811000000937
  0
ARC
  5
60A8
  8
AM_0
 10
130.5682084796953
 20
532.75565991434007
 30
0.0
 40
1.004942999999999
 50
270.28111000000013
 51
359.71888999999987
  0
ARC
  5
60A9
  8
AM_0
 10
130.57485847969531
 20
538.49246991433995
 30
0.0
 40
0.9982839799999999
 50
359.90142000000009
 51
90.098576000001358
  0
ARC
  5
60AA
  8
AM_0
 10
130.57082847969511
 20
546.73844991434021
 30
0.0
 40
1.002353
 50
0.1343268199984526
 51
89.865672999999376
  0
ARC
  5
60AB
  8
AM_0
 10
130.86861847969499
 20
542.14530991434015
 30
0.0
 40
0.704566
 50
270.3700999999968
 51
359.62990999999778
  0
ARC
  5
60AC
  8
AM_0
 10
130.57412847969499
 20
551.25174991434017
 30
0.0
 40
0.9990100299999999
 50
359.94319000000121
 51
90.056808999996804
  0
ARC
  5
60AD
  8
AM_0
 10
131.07485847969519
 20
553.85245991434022
 30
0.0
 40
0.4983060100000002
 50
359.80488999999778
 51
90.195107000000036
  0
ARC
  5
60AE
  8
AM_0
 10
131.06856847969539
 20
556.00540991434002
 30
0.0
 40
0.50463498
 50
270.52383000000037
 51
359.47616999999963
  0
ARC
  5
60AF
  8
AM_0
 10
143.1177684796952
 20
470.75077991434
 30
0.0
 40
1.000013899999999
 50
89.691659999999231
 51
270.30834000000078
  0
ARC
  5
60B0
  8
AM_0
 10
245.39315847969519
 20
540.79581991433997
 30
0.0
 40
1.6750020000000001
 50
269.999989999999
 51
90.00000299999769
  0
ARC
  5
60B1
  8
AM_0
 10
241.9131784796952
 20
540.75077991434
 30
0.0
 40
1.0
 50
269.999989999999
 51
90.00000299999769
  0
ARC
  5
60B2
  8
AM_0
 10
241.9131784796952
 20
470.75077991434
 30
0.0
 40
1.0
 50
269.999989999999
 51
90.00000299999769
  0
ARC
  5
60B3
  8
AM_0
 10
245.39315847969519
 20
470.70572991434
 30
0.0
 40
1.6750020000000001
 50
269.999989999999
 51
90.00000299999769
  0
ARC
  5
60B4
  8
AM_0
 10
130.56978847969501
 20
473.0140799143403
 30
0.0
 40
1.003352
 50
270.19110999999691
 51
359.80890000000107
  0
ARC
  5
60B5
  8
AM_0
 10
130.5682084796953
 20
482.7556599143399
 30
0.0
 40
1.0049469
 50
270.28136999999919
 51
359.71863000000081
  0
ARC
  5
60B6
  8
AM_0
 10
130.57332847969491
 20
478.7508999143401
 30
0.0
 40
0.9998239899999999
 50
359.98991999999532
 51
90.01007700000045
  0
ARC
  5
60B7
  8
AM_0
 10
130.8736884796954
 20
469.36136991434
 30
0.0
 40
0.6994530000000001
 50
359.95517000000092
 51
90.044828999997534
  0
ARC
  5
60B8
  8
AM_0
 10
128.77614847969511
 20
471.06595991434028
 30
0.0
 40
1.005233
 50
246.9863899999973
 51
269.82924999999938
  0
ARC
  5
60B9
  8
AM_0
 10
128.71371847969499
 20
473.01346991434019
 30
0.0
 40
1.002699
 50
253.752720000002
 51
270.54064000000108
  0
ARC
  5
60BA
  8
AM_0
 10
127.5695484796953
 20
473.36515991434021
 30
0.0
 40
0.99638802
 50
180.24990999999889
 51
253.29664000000031
  0
ARC
  5
60BB
  8
AM_0
 10
127.5696684796953
 20
471.5792699143401
 30
0.0
 40
0.9965090199999998
 50
179.9137499999965
 51
247.17845000000341
  0
ARC
  5
60BC
  8
AM_0
 10
127.5733984796951
 20
480.75101991434008
 30
0.0
 40
1.0001959999999981
 50
180.01124999999951
 51
269.98875000000061
  0
ARC
  5
60BD
  8
AM_0
 10
127.56826847969511
 20
480.75565991433979
 30
0.0
 40
0.9950849999999999
 50
89.716282999996153
 51
180.28371999999919
  0
ARC
  5
60BE
  8
AM_0
 10
127.5733984796951
 20
490.75101991434002
 30
0.0
 40
1.0001999999999991
 50
180.01145999999861
 51
269.98854000000142
  0
ARC
  5
60BF
  8
AM_0
 10
127.56826847969511
 20
490.75565991434019
 30
0.0
 40
0.9950810099999999
 50
89.716072000003336
 51
180.2839200000044
  0
ARC
  5
60C0
  8
AM_0
 10
127.5733984796951
 20
500.7510199143403
 30
0.0
 40
1.0002040000000001
 50
180.01165999999679
 51
269.98832000000078
  0
ARC
  5
60C1
  8
AM_0
 10
127.56826847969511
 20
500.75565991434001
 30
0.0
 40
0.9950770099999999
 50
89.715859999999481
 51
180.28414000000049
  0
ARC
  5
60C2
  8
AM_0
 10
130.5682084796953
 20
502.75565991434019
 30
0.0
 40
1.004942999999999
 50
270.28113999999943
 51
359.71886999999822
  0
ARC
  5
60C3
  8
AM_0
 10
130.57332847969491
 20
498.7508999143401
 30
0.0
 40
0.9998279799999998
 50
359.99015999999688
 51
90.009838000000187
  0
ARC
  5
60C4
  8
AM_0
 10
130.5682084796953
 20
492.75565991434001
 30
0.0
 40
1.004939
 50
270.280940000003
 51
359.71907000000078
  0
ARC
  5
60C5
  8
AM_0
 10
130.57332847969491
 20
488.7508999143401
 30
0.0
 40
0.9998210099999999
 50
359.98971999999799
 51
90.010282000004793
  0
ARC
  5
60C6
  8
AM_0
 10
142.24575847969541
 20
540.79581991433997
 30
0.0
 40
1.6750160000000001
 50
89.746144999997981
 51
270.25387000000092
  0
ARC
  5
60C7
  8
AM_0
 10
143.1177684796952
 20
540.75077991434
 30
0.0
 40
1.000013899999999
 50
89.691659999999231
 51
270.30834000000078
  0
ARC
  5
60C8
  8
AM_0
 10
143.1177684796952
 20
530.75077991434023
 30
0.0
 40
1.000013899999999
 50
89.691659999999231
 51
270.30834000000078
  0
ARC
  5
60C9
  8
AM_0
 10
143.1177684796952
 20
520.75077991434023
 30
0.0
 40
1.000013899999999
 50
89.691659999999231
 51
270.30834000000078
  0
ARC
  5
60CA
  8
AM_0
 10
143.1177684796952
 20
510.75077991434023
 30
0.0
 40
1.000013899999999
 50
89.691659999999231
 51
270.30834000000078
  0
ARC
  5
60CB
  8
AM_0
 10
143.1177684796952
 20
500.75077991434023
 30
0.0
 40
1.000013899999999
 50
89.691659999999231
 51
270.30834000000078
  0
ARC
  5
60CC
  8
AM_0
 10
143.1177684796952
 20
490.75077991434011
 30
0.0
 40
1.000013899999999
 50
89.691659999999231
 51
270.30834000000078
  0
ARC
  5
60CD
  8
AM_0
 10
143.1177684796952
 20
480.75077991434
 30
0.0
 40
1.000013899999999
 50
89.691659999999231
 51
270.30834000000078
  0
ARC
  5
60CE
  8
AM_0
 10
142.03316847969521
 20
530.77579991434015
 30
0.0
 40
1.465004
 50
90.00000299999769
 51
270.0
  0
ARC
  5
60CF
  8
AM_0
 10
141.9031684796951
 20
520.76078991433997
 30
0.0
 40
1.3300049999999981
 50
90.00000299999769
 51
270.0
  0
ARC
  5
60D0
  8
AM_0
 10
141.83730847969511
 20
510.75577991434
 30
0.0
 40
1.2650129999999991
 50
89.735579000001735
 51
270.2644100000025
  0
ARC
  5
60D1
  8
AM_0
 10
141.83730847969511
 20
500.75077991434023
 30
0.0
 40
1.2700129999999981
 50
89.736617000001587
 51
270.26336999999921
  0
ARC
  5
60D2
  8
AM_0
 10
141.9031684796951
 20
490.74076991434009
 30
0.0
 40
1.3300049999999981
 50
90.00000299999769
 51
270.0
  0
ARC
  5
60D3
  8
AM_0
 10
142.03316847969521
 20
480.72574991434021
 30
0.0
 40
1.465004
 50
90.00000299999769
 51
270.0
  0
ARC
  5
60D4
  8
AM_0
 10
142.2463084796951
 20
470.70572991434
 30
0.0
 40
1.675014
 50
89.766499000003279
 51
270.2335099999994
  0
ARC
  5
60D5
  8
AM_0
 10
130.5699184796953
 20
464.7775099143401
 30
0.0
 40
1.0032760000000001
 50
334.19810000000479
 51
359.6181099999983
  0
ARC
  5
60D6
  8
AM_0
 10
127.57162847969499
 20
465.51004991434019
 30
0.0
 40
0.9984580299999999
 50
179.95957999999851
 51
239.38657000000219
  0
ARC
  5
60D7
  8
AM_0
 10
143.77187847969509
 20
560.03665991434025
 30
0.0
 40
1.994108999999999
 50
89.675547999996226
 51
169.18776999999901
  0
ARC
  5
60D8
  8
AM_0
 10
143.8233984796951
 20
562.88553991434026
 30
0.0
 40
1.995282999999997
 50
90.006203999996856
 51
170.90835000000069
  0
ARC
  5
60D9
  8
AM_0
 10
143.83773847969519
 20
564.73404991434006
 30
0.0
 40
1.9967330000000001
 50
89.843966999998912
 51
171.45388000000381
  0
ARC
  5
60DA
  8
AM_0
 10
143.8596484796951
 20
565.64517991434013
 30
0.0
 40
1.995633
 50
89.899708000002292
 51
172.06112999999939
  0
ARC
  5
60DB
  8
AM_0
 10
240.70327847969509
 20
560.03250991434015
 30
0.0
 40
1.9982919999999991
 50
15.032547999996
 51
90.002632000001341
  0
ARC
  5
60DC
  8
AM_0
 10
248.22634847969519
 20
545.47354991433986
 30
0.0
 40
1.502775999999999
 50
194.75642999999971
 51
269.87757999999872
  0
ARC
  5
60DD
  8
AM_0
 10
240.69832847969539
 20
451.47550991434008
 30
0.0
 40
2.0047290000000002
 50
270.13832000000423
 51
344.82650000000189
  0
ARC
  5
60DE
  8
AM_0
 10
127.5707684796954
 20
457.73538991433998
 30
0.0
 40
0.9976310099999999
 50
180.2678099999986
 51
240.07924000000381
  0
ARC
  5
60DF
  8
AM_0
 10
127.5688784796952
 20
458.78116991434018
 30
0.0
 40
0.9956849800000001
 50
180.02113
 51
243.4091400000006
  0
ARC
  5
60E0
  8
AM_0
 10
128.85384847969499
 20
457.00186991433998
 30
0.0
 40
1.001123999999999
 50
239.32781999999969
 51
269.38768000000198
  0
ARC
  5
60E1
  8
AM_0
 10
128.81899847969501
 20
458.15006991434012
 30
0.0
 40
0.9993420200000001
 50
242.86200000000241
 51
269.6654599999984
  0
ARC
  5
60E2
  8
AM_0
 10
128.84456847969531
 20
459.1144199143402
 30
0.0
 40
1.0037439999999991
 50
239.3711300000019
 51
270.49190000000061
  0
ARC
  5
60E3
  8
AM_0
 10
128.82833847969511
 20
460.25138991434
 30
0.0
 40
1.0006820000000001
 50
241.65062000000049
 51
269.70392999999558
  0
ARC
  5
60E4
  8
AM_0
 10
128.86593847969519
 20
463.63126991434018
 30
0.0
 40
1.000521999999999
 50
237.14618000000229
 51
270.41343999999719
  0
ARC
  5
60E5
  8
AM_0
 10
128.8365184796952
 20
464.77176991434021
 30
0.0
 40
1.0010449999999991
 50
240.47187000000389
 51
270.37970999999948
  0
ARC
  5
60E6
  8
AM_0
 10
127.57162847969499
 20
465.51004991434019
 30
0.0
 40
0.9984580299999999
 50
179.95957999999851
 51
239.38657000000219
  0
ARC
  5
60E7
  8
AM_0
 10
127.572238479695
 20
464.47550991434008
 30
0.0
 40
0.9990889999999998
 50
179.6950899999965
 51
236.66209000000109
  0
ARC
  5
60E8
  8
AM_0
 10
127.570888479695
 20
460.91202991434
 30
0.0
 40
0.9977070099999998
 50
180.074020000004
 51
242.04481000000081
  0
ARC
  5
60E9
  8
AM_0
 10
127.5719284796952
 20
459.8743099143403
 30
0.0
 40
0.9987969999999998
 50
179.62728000000101
 51
238.70794999999561
  0
ARC
  5
60EA
  8
AM_0
 10
130.57070847969501
 20
464.77323991434019
 30
0.0
 40
1.002470999999999
 50
270.14107000000013
 51
359.85892999999987
  0
ARC
  5
60EB
  8
AM_0
 10
130.569058479695
 20
460.25492991434021
 30
0.0
 40
1.004119999999999
 50
270.23460999999998
 51
359.76539000000002
  0
ARC
  5
60EC
  8
AM_0
 10
131.06978847969501
 20
457.65421991434022
 30
0.0
 40
0.5033929900000002
 50
270.38491000000062
 51
359.61509999999811
  0
ARC
  5
60ED
  8
AM_0
 10
131.07363847969521
 20
455.50125991434021
 30
0.0
 40
0.49952301
 50
359.9452300000014
 51
90.054773999999625
  0
ARC
  5
60EE
  8
AM_0
 10
143.77804847969509
 20
451.4700099143401
 30
0.0
 40
1.9992490000000001
 50
190.643100000001
 51
270.14743000000129
  0
ARC
  5
60EF
  8
AM_0
 10
143.82937847969521
 20
448.62113991434001
 30
0.0
 40
2.000420099999999
 50
188.9268200000011
 51
269.82270999999599
  0
ARC
  5
60F0
  8
AM_0
 10
229.08675847969519
 20
441.75077991434
 30
0.0
 40
1.5
 50
90.00000299999769
 51
178.4999999999973
  0
ARC
  5
60F1
  8
AM_0
 10
240.5893884796952
 20
444.75077991434011
 30
0.0
 40
1.5
 50
269.999989999999
 51
326.99999999999892
  0
ARC
  5
60F2
  8
AM_0
 10
143.55977847969521
 20
448.62076991434031
 30
0.0
 40
2.0
 50
188.62961999999749
 51
269.999989999999
  0
ARC
  5
60F3
  8
AM_0
 10
143.47939847969519
 20
448.62076991434031
 30
0.0
 40
2.0
 50
187.9504400000034
 51
269.999989999999
  0
ARC
  5
60F4
  8
AM_0
 10
165.97127847969509
 20
445.12076991434009
 30
0.0
 40
1.5
 50
1.5000027000022329
 51
90.00000299999769
  0
ARC
  5
60F5
  8
AM_0
 10
177.01186847969521
 20
520.75077991434023
 30
0.0
 40
1.0000056999999991
 50
269.999989999999
 51
90.00000299999769
  0
ARC
  5
60F6
  8
AM_0
 10
177.01186847969521
 20
510.75077991434023
 30
0.0
 40
1.0000056999999991
 50
269.999989999999
 51
90.00000299999769
  0
ARC
  5
60F7
  8
AM_0
 10
177.01186847969521
 20
500.75077991434023
 30
0.0
 40
1.0000056999999991
 50
269.999989999999
 51
90.00000299999769
  0
ARC
  5
60F8
  8
AM_0
 10
177.01186847969521
 20
490.75077991434011
 30
0.0
 40
1.0000056999999991
 50
269.999989999999
 51
90.00000299999769
  0
ARC
  5
60F9
  8
AM_0
 10
227.57314847969511
 20
473.25077991434023
 30
0.0
 40
1.5
 50
179.999989999999
 51
270.0
  0
ARC
  5
60FA
  8
AM_0
 10
209.57314847969531
 20
473.25077991434023
 30
0.0
 40
1.5
 50
269.999989999999
 51
0.0000006832495047
  0
ARC
  5
60FB
  8
AM_0
 10
209.59316847969529
 20
473.39078991434008
 30
0.0
 40
1.0
 50
269.999989999999
 51
0.0000006832495047
  0
ARC
  5
60FC
  8
AM_0
 10
227.55318847969519
 20
473.39078991434008
 30
0.0
 40
1.0
 50
179.999989999999
 51
270.0
  0
CIRCLE
  5
60FD
  8
AM_0
 10
216.07314847969511
 20
534.25077991434023
 30
0.0
 40
1.1000000000000001
  0
CIRCLE
  5
60FE
  8
AM_0
 10
216.07314847969511
 20
534.25077991434023
 30
0.0
 40
1.149999999999999
  0
CIRCLE
  5
60FF
  8
AM_0
 10
221.07314847969511
 20
534.25077991434023
 30
0.0
 40
1.0
  0
ARC
  5
6100
  8
AM_0
 10
209.57314847969531
 20
533.25077991434023
 30
0.0
 40
1.02
 50
269.999989999999
 51
0.0000006832429909
  0
ARC
  5
6101
  8
AM_0
 10
227.57314847969511
 20
533.25077991434023
 30
0.0
 40
1.02
 50
179.999989999999
 51
270.0
  0
ARC
  5
6102
  8
AM_0
 10
209.57314847969531
 20
533.25077991434023
 30
0.0
 40
1.5
 50
269.999989999999
 51
0.0000006832495047
  0
ARC
  5
6103
  8
AM_0
 10
227.57314847969511
 20
533.25077991434023
 30
0.0
 40
1.5
 50
179.999989999999
 51
270.0
  0
CIRCLE
  5
6104
  8
AM_0
 10
221.07314847969511
 20
477.25077991434023
 30
0.0
 40
1.0
  0
CIRCLE
  5
6105
  8
AM_0
 10
216.07314847969511
 20
477.25077991434023
 30
0.0
 40
1.149999999999999
  0
CIRCLE
  5
6106
  8
AM_0
 10
216.07314847969511
 20
477.25077991434023
 30
0.0
 40
1.1000000000000001
  0
ARC
  5
6107
  8
AM_0
 10
209.57314847969531
 20
478.25077991434011
 30
0.0
 40
1.02
 50
0.0
 51
90.00000299999769
  0
ARC
  5
6108
  8
AM_0
 10
227.57314847969511
 20
478.25077991434011
 30
0.0
 40
1.02
 50
90.00000299999769
 51
180.00001000000091
  0
ARC
  5
6109
  8
AM_0
 10
209.57314847969531
 20
478.25077991434011
 30
0.0
 40
1.5
 50
0.0
 51
90.00000299999769
  0
ARC
  5
610A
  8
AM_0
 10
227.57314847969511
 20
478.25077991434011
 30
0.0
 40
1.5
 50
90.00000299999769
 51
180.00001000000091
  0
ARC
  5
610B
  8
AM_0
 10
178.23812847969521
 20
490.74076991434009
 30
0.0
 40
1.3300148000000001
 50
269.7294199999987
 51
90.270567000000995
  0
ARC
  5
610C
  8
AM_0
 10
178.30007847969509
 20
500.75077991434023
 30
0.0
 40
1.2700266
 50
269.62932000000001
 51
90.370670000004694
  0
ARC
  5
610D
  8
AM_0
 10
178.30007847969509
 20
510.76078991434019
 30
0.0
 40
1.2700266
 50
269.62932000000001
 51
90.370670000004694
  0
ARC
  5
610E
  8
AM_0
 10
178.23812847969521
 20
520.7657899143403
 30
0.0
 40
1.3350147999999991
 50
269.7304299999999
 51
90.269556000001344
  0
ARC
  5
610F
  8
AM_0
 10
241.91311847969521
 20
530.75077991434023
 30
0.0
 40
1.0000255999999981
 50
269.5894700000033
 51
90.410530999997775
  0
ARC
  5
6110
  8
AM_0
 10
245.61312847969509
 20
530.78080991434024
 30
0.0
 40
1.460011199999999
 50
269.77524999999667
 51
90.224749999996845
  0
ARC
  5
6111
  8
AM_0
 10
241.91311847969521
 20
480.75077991434
 30
0.0
 40
1.0000255999999981
 50
269.5894700000033
 51
90.410530999997775
  0
ARC
  5
6112
  8
AM_0
 10
245.61312847969509
 20
480.7207499143401
 30
0.0
 40
1.460011199999999
 50
269.77524999999667
 51
90.224749999996845
  0
ARC
  5
6113
  8
AM_0
 10
227.55318847969519
 20
538.11075991433995
 30
0.0
 40
1.0
 50
90.00000299999769
 51
180.00001000000091
  0
ARC
  5
6114
  8
AM_0
 10
227.57314847969511
 20
538.25077991434023
 30
0.0
 40
1.5
 50
90.00000299999769
 51
180.00001000000091
  0
ARC
  5
6115
  8
AM_0
 10
209.57314847969531
 20
538.25077991434023
 30
0.0
 40
1.5
 50
0.0
 51
90.00000299999769
  0
ARC
  5
6116
  8
AM_0
 10
209.59316847969529
 20
538.11075991433995
 30
0.0
 40
1.0
 50
0.0
 51
90.00000299999769
  0
POLYLINE
  5
6117
  8
AM_0
 66
     1
 10
0.0
 20
0.0
 30
0.0
  0
VERTEX
  5
6118
  8
AM_0
 10
142.93313847969509
 20
505.75077991434023
 30
0.0
 42
0.00039106593
  0
VERTEX
  5
6119
  8
AM_0
 10
142.93077847969511
 20
505.4396399143402
 30
0.0
 42
0.00040574899
  0
VERTEX
  5
611A
  8
AM_0
 10
142.92890847969511
 20
505.12852991434022
 30
0.0
 42
0.0003534546
  0
VERTEX
  5
611B
  8
AM_0
 10
142.92751847969521
 20
504.8174299143401
 30
0.0
 42
0.00034407327
  0
VERTEX
  5
611C
  8
AM_0
 10
142.92653847969521
 20
504.50628991434019
 30
0.0
 42
0.00045699408
  0
VERTEX
  5
611D
  8
AM_0
 10
142.92607847969521
 20
504.19517991434032
 30
0.0
 42
0.00035571853
  0
VERTEX
  5
611E
  8
AM_0
 10
142.92611847969519
 20
503.88407991434002
 30
0.0
 42
0.00038547362
  0
VERTEX
  5
611F
  8
AM_0
 10
142.92660847969509
 20
503.57293991434
 30
0.0
 42
0.00035501498
  0
VERTEX
  5
6120
  8
AM_0
 10
142.9275684796952
 20
503.2618399143401
 30
0.0
 42
0.00040118614
  0
VERTEX
  5
6121
  8
AM_0
 10
142.92898847969511
 20
502.95059991434022
 30
0.0
 42
0.00038319871
  0
VERTEX
  5
6122
  8
AM_0
 10
142.9308984796952
 20
502.63946991434022
 30
0.0
 42
0.00040742136
  0
VERTEX
  5
6123
  8
AM_0
 10
142.9332984796954
 20
502.32823991433997
 30
0.0
 42
0.0003578071
  0
VERTEX
  5
6124
  8
AM_0
 10
142.93618847969509
 20
502.0171299143401
 30
0.0
  0
SEQEND
  5
6125
  8
AM_0
  0
POLYLINE
  5
6126
  8
AM_0
 66
     1
 10
0.0
 20
0.0
 30
0.0
  0
VERTEX
  5
6127
  8
AM_0
 10
142.9771984796952
 20
499.48038991434021
 30
0.0
 42
0.00076695232
  0
VERTEX
  5
6128
  8
AM_0
 10
142.9919984796951
 20
498.86262991434018
 30
0.0
 42
0.00073263044
  0
VERTEX
  5
6129
  8
AM_0
 10
143.00863847969541
 20
498.24502991434002
 30
0.0
 42
0.0007652599
  0
VERTEX
  5
612A
  8
AM_0
 10
143.02712847969519
 20
497.6273599143401
 30
0.0
 42
0.00075144485
  0
VERTEX
  5
612B
  8
AM_0
 10
143.04749847969541
 20
497.00975991434001
 30
0.0
 42
0.00078594403
  0
VERTEX
  5
612C
  8
AM_0
 10
143.06974847969511
 20
496.39232991434011
 30
0.0
 42
0.00073349202
  0
VERTEX
  5
612D
  8
AM_0
 10
143.0938984796951
 20
495.77494991434003
 30
0.0
 42
0.0007358075
  0
VERTEX
  5
612E
  8
AM_0
 10
143.1198384796952
 20
495.15754991434
 30
0.0
 42
0.00078592699
  0
VERTEX
  5
612F
  8
AM_0
 10
143.1476684796952
 20
494.54015991434011
 30
0.0
 42
0.00074823144
  0
VERTEX
  5
6130
  8
AM_0
 10
143.17739847969511
 20
493.92276991434022
 30
0.0
 42
0.00074896603
  0
VERTEX
  5
6131
  8
AM_0
 10
143.20895847969521
 20
493.30563991434019
 30
0.0
 42
0.00076039765
  0
VERTEX
  5
6132
  8
AM_0
 10
143.24237847969539
 20
492.68860991434002
 30
0.0
 42
0.00075616128
  0
VERTEX
  5
6133
  8
AM_0
 10
143.27767847969511
 20
492.07157991434002
 30
0.0
  0
SEQEND
  5
6134
  8
AM_0
  0
POLYLINE
  5
6135
  8
AM_0
 66
     1
 10
0.0
 20
0.0
 30
0.0
  0
VERTEX
  5
6136
  8
AM_0
 10
143.4513884796952
 20
489.41019991434001
 30
0.0
 42
0.00073721992
  0
VERTEX
  5
6137
  8
AM_0
 10
143.49553847969511
 20
488.80778991434022
 30
0.0
 42
0.00074398496
  0
VERTEX
  5
6138
  8
AM_0
 10
143.54146847969511
 20
488.20551991434002
 30
0.0
 42
0.00073322625
  0
VERTEX
  5
6139
  8
AM_0
 10
143.58919847969511
 20
487.60318991434002
 30
0.0
 42
0.00073594289
  0
VERTEX
  5
613A
  8
AM_0
 10
143.6386784796951
 20
487.0011999143403
 30
0.0
 42
0.00074742568
  0
VERTEX
  5
613B
  8
AM_0
 10
143.6899484796952
 20
486.3993399143402
 30
0.0
 42
0.00073216749
  0
VERTEX
  5
613C
  8
AM_0
 10
143.74300847969531
 20
485.7975299143402
 30
0.0
 42
0.00074184065
  0
VERTEX
  5
613D
  8
AM_0
 10
143.79782847969511
 20
485.19599991434018
 30
0.0
 42
0.00072077528
  0
VERTEX
  5
613E
  8
AM_0
 10
143.85440847969539
 20
484.5947699143403
 30
0.0
 42
0.00074978179
  0
VERTEX
  5
613F
  8
AM_0
 10
143.9127484796951
 20
483.9935699143399
 30
0.0
 42
0.00074288888
  0
VERTEX
  5
6140
  8
AM_0
 10
143.97289847969509
 20
483.39254991434012
 30
0.0
 42
0.00072503679
  0
VERTEX
  5
6141
  8
AM_0
 10
144.0348084796951
 20
482.79180991433998
 30
0.0
 42
0.00074640584
  0
VERTEX
  5
6142
  8
AM_0
 10
144.0984784796951
 20
482.19120991433999
 30
0.0
  0
SEQEND
  5
6143
  8
AM_0
  0
POLYLINE
  5
6144
  8
AM_0
 66
     1
 10
0.0
 20
0.0
 30
0.0
  0
VERTEX
  5
6145
  8
AM_0
 10
144.43404847969521
 20
479.26773991434032
 30
0.0
 42
0.0006890001
  0
VERTEX
  5
6146
  8
AM_0
 10
144.50492847969511
 20
478.6929899143401
 30
0.0
 42
0.00070644651
  0
VERTEX
  5
6147
  8
AM_0
 10
144.57742847969519
 20
478.11830991434022
 30
0.0
 42
0.0006924559
  0
VERTEX
  5
6148
  8
AM_0
 10
144.6515184796952
 20
477.5439899143401
 30
0.0
 42
0.00069587797
  0
VERTEX
  5
6149
  8
AM_0
 10
144.7271984796952
 20
476.9698499143401
 30
0.0
 42
0.00071687041
  0
VERTEX
  5
614A
  8
AM_0
 10
144.8045084796951
 20
476.39584991433998
 30
0.0
 42
0.00069759113
  0
VERTEX
  5
614B
  8
AM_0
 10
144.8834484796952
 20
475.82205991434017
 30
0.0
 42
0.00071003142
  0
VERTEX
  5
614C
  8
AM_0
 10
144.96398847969519
 20
475.2485899143399
 30
0.0
 42
0.00069954544
  0
VERTEX
  5
614D
  8
AM_0
 10
145.0461284796952
 20
474.67548991434018
 30
0.0
 42
0.0007188852
  0
VERTEX
  5
614E
  8
AM_0
 10
145.1299084796951
 20
474.1024599143401
 30
0.0
 42
0.00071266165
  0
VERTEX
  5
614F
  8
AM_0
 10
145.21533847969519
 20
473.52969991433991
 30
0.0
 42
0.00071614577
  0
VERTEX
  5
6150
  8
AM_0
 10
145.3023684796951
 20
472.95734991434
 30
0.0
 42
0.00072290806
  0
VERTEX
  5
6151
  8
AM_0
 10
145.3910784796951
 20
472.38504991434007
 30
0.0
  0
SEQEND
  5
6152
  8
AM_0
  0
POLYLINE
  5
6153
  8
AM_0
 66
     1
 10
0.0
 20
0.0
 30
0.0
  0
VERTEX
  5
6154
  8
AM_0
 10
142.93313847969509
 20
505.75077991434023
 30
0.0
 42
-0.00039106653
  0
VERTEX
  5
6155
  8
AM_0
 10
142.93077847969511
 20
506.06190991434011
 30
0.0
 42
-0.00040574511
  0
VERTEX
  5
6156
  8
AM_0
 10
142.92890847969511
 20
506.37301991434009
 30
0.0
 42
-0.00035346331
  0
VERTEX
  5
6157
  8
AM_0
 10
142.92751847969521
 20
506.68412991434008
 30
0.0
 42
-0.00034406545
  0
VERTEX
  5
6158
  8
AM_0
 10
142.92653847969521
 20
506.99526991434021
 30
0.0
 42
-0.00045699059
  0
VERTEX
  5
6159
  8
AM_0
 10
142.92607847969521
 20
507.30636991434022
 30
0.0
 42
-0.00035573431
  0
VERTEX
  5
615A
  8
AM_0
 10
142.92611847969519
 20
507.61746991434001
 30
0.0
 42
-0.00038545888
  0
VERTEX
  5
615B
  8
AM_0
 10
142.92660847969509
 20
507.92860991433992
 30
0.0
 42
-0.00035501203
  0
VERTEX
  5
615C
  8
AM_0
 10
142.9275684796952
 20
508.23971991434001
 30
0.0
 42
-0.00040120778
  0
VERTEX
  5
615D
  8
AM_0
 10
142.92898847969511
 20
508.55094991434021
 30
0.0
 42
-0.00038317821
  0
VERTEX
  5
615E
  8
AM_0
 10
142.9308984796952
 20
508.86207991434009
 30
0.0
 42
-0.00040741862
  0
VERTEX
  5
615F
  8
AM_0
 10
142.9332984796954
 20
509.17330991434
 30
0.0
 42
-0.00035783324
  0
VERTEX
  5
6160
  8
AM_0
 10
142.93618847969509
 20
509.48441991434021
 30
0.0
  0
SEQEND
  5
6161
  8
AM_0
  0
POLYLINE
  5
6162
  8
AM_0
 66
     1
 10
0.0
 20
0.0
 30
0.0
  0
VERTEX
  5
6163
  8
AM_0
 10
142.9771984796952
 20
512.02115991434005
 30
0.0
 42
-0.00076691987
  0
VERTEX
  5
6164
  8
AM_0
 10
142.9919984796951
 20
512.63891991434025
 30
0.0
 42
-0.00073262795
  0
VERTEX
  5
6165
  8
AM_0
 10
143.00863847969541
 20
513.25651991433995
 30
0.0
 42
-0.0007652954
  0
VERTEX
  5
6166
  8
AM_0
 10
143.02712847969519
 20
513.87418991434015
 30
0.0
 42
-0.00077334627
  0
VERTEX
  5
6167
  8
AM_0
 10
143.04753847969539
 20
514.49178991434007
 30
0.0
 42
-0.00073282897
  0
VERTEX
  5
6168
  8
AM_0
 10
143.06979847969509
 20
515.10920991434023
 30
0.0
 42
-0.0007571179
  0
VERTEX
  5
6169
  8
AM_0
 10
143.0938984796951
 20
515.72672991434024
 30
0.0
 42
-0.00073783152
  0
VERTEX
  5
616A
  8
AM_0
 10
143.1198384796952
 20
516.34411991434001
 30
0.0
 42
-0.0007835518
  0
VERTEX
  5
616B
  8
AM_0
 10
143.1476684796952
 20
516.96138991434032
 30
0.0
 42
-0.00074826133
  0
VERTEX
  5
616C
  8
AM_0
 10
143.17739847969511
 20
517.57877991433998
 30
0.0
 42
-0.00074893555
  0
VERTEX
  5
616D
  8
AM_0
 10
143.20895847969521
 20
518.19590991434006
 30
0.0
 42
-0.00076039841
  0
VERTEX
  5
616E
  8
AM_0
 10
143.24237847969539
 20
518.81293991433995
 30
0.0
 42
-0.00075618789
  0
VERTEX
  5
616F
  8
AM_0
 10
143.27767847969511
 20
519.42996991433995
 30
0.0
  0
SEQEND
  5
6170
  8
AM_0
  0
POLYLINE
  5
6171
  8
AM_0
 66
     1
 10
0.0
 20
0.0
 30
0.0
  0
VERTEX
  5
6172
  8
AM_0
 10
143.4513884796952
 20
522.0913499143403
 30
0.0
 42
-0.0007337051
  0
VERTEX
  5
6173
  8
AM_0
 10
143.49552847969539
 20
522.69375991434015
 30
0.0
 42
-0.00075211323
  0
VERTEX
  5
6174
  8
AM_0
 10
143.54146847969511
 20
523.29615991434025
 30
0.0
 42
-0.0007297491
  0
VERTEX
  5
6175
  8
AM_0
 10
143.58919847969511
 20
523.89835991433995
 30
0.0
 42
-0.00073593041
  0
VERTEX
  5
6176
  8
AM_0
 10
143.6386784796951
 20
524.50034991433995
 30
0.0
 42
-0.00074742739
  0
VERTEX
  5
6177
  8
AM_0
 10
143.6899484796952
 20
525.10220991434005
 30
0.0
 42
-0.00073217363
  0
VERTEX
  5
6178
  8
AM_0
 10
143.74300847969531
 20
525.70401991434028
 30
0.0
 42
-0.00073754168
  0
VERTEX
  5
6179
  8
AM_0
 10
143.79782847969511
 20
526.30555991434017
 30
0.0
 42
-0.00073075073
  0
VERTEX
  5
617A
  8
AM_0
 10
143.85440847969539
 20
526.90690991434008
 30
0.0
 42
-0.00074550816
  0
VERTEX
  5
617B
  8
AM_0
 10
143.9127484796951
 20
527.50797991434024
 30
0.0
 42
-0.00074288416
  0
VERTEX
  5
617C
  8
AM_0
 10
143.97289847969509
 20
528.1089999143403
 30
0.0
 42
-0.00072504001
  0
VERTEX
  5
617D
  8
AM_0
 10
144.0348084796951
 20
528.70973991434016
 30
0.0
 42
-0.00074640667
  0
VERTEX
  5
617E
  8
AM_0
 10
144.0984784796951
 20
529.31034991433989
 30
0.0
  0
SEQEND
  5
617F
  8
AM_0
  0
POLYLINE
  5
6180
  8
AM_0
 66
     1
 10
0.0
 20
0.0
 30
0.0
  0
VERTEX
  5
6181
  8
AM_0
 10
144.43404847969521
 20
532.23380991434033
 30
0.0
 42
-0.00068898283
  0
VERTEX
  5
6182
  8
AM_0
 10
144.50492847969511
 20
532.80855991434032
 30
0.0
 42
-0.00070644357
  0
VERTEX
  5
6183
  8
AM_0
 10
144.57742847969519
 20
533.38324991434024
 30
0.0
 42
-0.00069248074
  0
VERTEX
  5
6184
  8
AM_0
 10
144.6515184796952
 20
533.95755991434021
 30
0.0
 42
-0.0006958566
  0
VERTEX
  5
6185
  8
AM_0
 10
144.7271984796952
 20
534.53169991434027
 30
0.0
 42
-0.00071687219
  0
VERTEX
  5
6186
  8
AM_0
 10
144.8045084796951
 20
535.10569991434022
 30
0.0
 42
-0.00069760022
  0
VERTEX
  5
6187
  8
AM_0
 10
144.8834484796952
 20
535.67948991434025
 30
0.0
 42
-0.00071002302
  0
VERTEX
  5
6188
  8
AM_0
 10
144.96398847969519
 20
536.25295991433995
 30
0.0
 42
-0.00069954889
  0
VERTEX
  5
6189
  8
AM_0
 10
145.0461284796952
 20
536.82605991434025
 30
0.0
 42
-0.00071887947
  0
VERTEX
  5
618A
  8
AM_0
 10
145.1299084796951
 20
537.39908991434015
 30
0.0
 42
-0.00071266929
  0
VERTEX
  5
618B
  8
AM_0
 10
145.21533847969519
 20
537.97185991434003
 30
0.0
 42
-0.00071614429
  0
VERTEX
  5
618C
  8
AM_0
 10
145.3023684796951
 20
538.54419991433997
 30
0.0
 42
-0.00072288978
  0
VERTEX
  5
618D
  8
AM_0
 10
145.3910784796951
 20
539.11649991434024
 30
0.0
  0
SEQEND
  5
618E
  8
AM_0
  0
LINE
  5
619A
  8
AM_0
 10
362.57306847969488
 20
539.25077691433989
 30
0.0
 11
367.57306847969483
 21
534.25077691434035
 31
0.0
  0
LINE
  5
619B
  8
AM_0
 10
358.57314847969508
 20
539.25077691433989
 30
0.0
 11
362.57306847969511
 21
539.25077691433989
 31
0.0
  0
LINE
  5
619D
  8
AM_0
 10
367.57306847969483
 20
534.25077691434035
 30
0.0
 11
367.573068479695
 21
477.25077691434029
 31
0.0
  0
LINE
  5
619E
  8
AM_0
 10
358.57314847969508
 20
472.25077691434001
 30
0.0
 11
362.57306847969488
 21
472.25077691434001
 31
0.0
  0
LINE
  5
619F
  8
AM_0
 10
362.57306847969488
 20
472.25077691434001
 30
0.0
 11
367.57306847969488
 21
477.25077691434029
 31
0.0
  0
LINE
  5
61A2
  8
AM_0
 10
362.57306847969511
 20
539.25077691433989
 30
0.0
 11
362.57306847969488
 21
472.25077691434001
 31
0.0
  0
LINE
  5
61EC
  8
AM_0
 10
294.5731184796951
 20
576.75077991434011
 30
0.0
 11
294.5731184796951
 21
434.75077991434023
 31
0.0
  0
LINE
  5
61ED
  8
AM_0
 10
294.57314847969508
 20
434.75077991434023
 30
0.0
 11
289.52080847969512
 21
434.88306991434001
 31
0.0
  0
LINE
  5
61EE
  8
AM_0
 10
294.5731184796951
 20
576.75077991434011
 30
0.0
 11
289.52080847969512
 21
576.61847991434013
 31
0.0
  0
LINE
  5
61EF
  8
AM_0
 10
287.57314847969508
 20
436.88239991434023
 30
0.0
 11
287.57314847969508
 21
574.61914991434026
 31
0.0
  0
LINE
  5
61F0
  8
AM_0
 10
282.57314847969508
 20
449.06992991434021
 30
0.0
 11
256.573178479695
 21
449.75077991434023
 31
0.0
  0
LINE
  5
61F1
  8
AM_0
 10
256.57314847969508
 20
459.75046991434021
 30
0.0
 11
287.57314847969508
 21
459.75046991434021
 31
0.0
  0
LINE
  5
61F2
  8
AM_0
 10
284.57311847969493
 20
440.53949991434013
 30
0.0
 11
285.57314847969508
 21
440.53949991434013
 31
0.0
  0
LINE
  5
61F3
  8
AM_0
 10
282.57311847969498
 20
442.5394999143403
 30
0.0
 11
282.57311847969498
 21
457.75046991434021
 31
0.0
  0
LINE
  5
61F4
  8
AM_0
 10
282.57311847969498
 20
568.96207991434005
 30
0.0
 11
282.57311847969498
 21
553.75107991434027
 31
0.0
  0
LINE
  5
61F5
  8
AM_0
 10
282.57314847969508
 20
562.43158991434029
 30
0.0
 11
256.573178479695
 21
561.75077991434023
 31
0.0
  0
LINE
  5
61F6
  8
AM_0
 10
256.57314847969508
 20
551.75107991434015
 30
0.0
 11
287.57314847969508
 21
551.75107991434015
 31
0.0
  0
LINE
  5
61F7
  8
AM_0
 10
284.57311847969493
 20
570.96207991434005
 30
0.0
 11
285.57314847969508
 21
570.96207991434005
 31
0.0
  0
LINE
  5
61F8
  8
AM_0
 10
256.57314847969508
 20
473.81083991434031
 30
0.0
 11
287.57314847969508
 21
473.81083991434031
 31
0.0
  0
LINE
  5
61F9
  8
AM_0
 10
256.57314847969508
 20
537.69071991434009
 30
0.0
 11
287.57314847969508
 21
537.69071991434009
 31
0.0
  0
LINE
  5
61FA
  8
AM_0
 10
342.11595847969511
 20
443.58869991434022
 30
0.0
 11
329.03026847969511
 21
451.31775991434017
 31
0.0
  0
LINE
  5
61FB
  8
AM_0
 10
325.59670847969511
 20
577.5631499143401
 30
0.0
 11
294.5731184796951
 21
576.75077991434011
 31
0.0
  0
LINE
  5
61FC
  8
AM_0
 10
327.57311847969532
 20
458.05265991434032
 30
0.0
 11
342.57311847969532
 21
458.05265991434032
 31
0.0
  0
LINE
  5
61FD
  8
AM_0
 10
342.11592847969519
 20
447.07291991434039
 30
0.0
 11
329.03032847969507
 21
454.8019499143403
 31
0.0
  0
LINE
  5
61FE
  8
AM_0
 10
342.11595847969511
 20
567.91285991434006
 30
0.0
 11
329.03029847969492
 21
560.18378991434031
 31
0.0
  0
LINE
  5
61FF
  8
AM_0
 10
342.11595847969511
 20
564.42862991434004
 30
0.0
 11
329.03029847969492
 21
556.69956991434026
 31
0.0
  0
LINE
  5
6200
  8
AM_0
 10
344.57311847969493
 20
463.79911991434022
 30
0.0
 11
344.57311847969493
 21
423.03138991434031
 31
0.0
  0
LINE
  5
6201
  8
AM_0
 10
358.57314847969508
 20
575.75077991434011
 30
0.0
 11
358.57314847969508
 21
435.75077991434023
 31
0.0
  0
LINE
  5
6202
  8
AM_0
 10
348.57311847969532
 20
438.9694299143402
 30
0.0
 11
348.57311847969532
 21
572.53211991434011
 31
0.0
  0
LINE
  5
6203
  8
AM_0
 10
344.57311847969493
 20
547.70243991434018
 30
0.0
 11
344.57311847969493
 21
588.47016991433986
 31
0.0
  0
LINE
  5
6204
  8
AM_0
 10
346.50328847969507
 20
590.46900991434006
 30
0.0
 11
354.5731184796951
 21
590.75080991434015
 31
0.0
  0
LINE
  5
6205
  8
AM_0
 10
325.59673847969492
 20
433.93836991434029
 30
0.0
 11
294.5731184796951
 21
434.75074991434019
 31
0.0
  0
LINE
  5
6206
  8
AM_0
 10
329.49462847969511
 20
432.36283991434033
 30
0.0
 11
341.65166847969488
 21
432.04450991434032
 31
0.0
  0
LINE
  5
6207
  8
AM_0
 10
354.5731184796951
 20
420.75077991434023
 30
0.0
 11
354.5731184796951
 21
590.75080991434015
 31
0.0
  0
LINE
  5
6208
  8
AM_0
 10
354.5731184796951
 20
435.75077991434023
 30
0.0
 11
358.57314847969508
 21
435.75077991434023
 31
0.0
  0
LINE
  5
6209
  8
AM_0
 10
354.5731184796951
 20
575.75077991434011
 30
0.0
 11
358.57314847969508
 21
575.75077991434011
 31
0.0
  0
LINE
  5
620A
  8
AM_0
 10
329.49459847969518
 20
579.1387199143403
 30
0.0
 11
341.65163847969512
 21
579.45707991434006
 31
0.0
  0
LINE
  5
620B
  8
AM_0
 10
326.57311847969532
 20
576.13974991434031
 30
0.0
 11
326.57311847969532
 21
435.36179991434022
 31
0.0
  0
LINE
  5
620C
  8
AM_0
 10
346.50328847969507
 20
421.03257991434032
 30
0.0
 11
354.57308847969512
 21
420.75077991434023
 31
0.0
  0
LINE
  5
620D
  8
AM_0
 10
327.57311847969532
 20
553.44889991434025
 30
0.0
 11
342.57311847969532
 21
553.44889991434025
 31
0.0
  0
ARC
  5
620E
  8
AM_0
 10
289.57314847969519
 20
436.88239991434023
 30
0.0
 40
2.0
 50
180.00001000000091
 51
268.5000000000004
  0
ARC
  5
620F
  8
AM_0
 10
289.57314847969519
 20
574.61914991434026
 30
0.0
 40
2.0
 50
91.500001000001546
 51
180.00001000000091
  0
ARC
  5
6210
  8
AM_0
 10
284.57311847969493
 20
442.5394999143403
 30
0.0
 40
2.0
 50
180.00001000000091
 51
270.0
  0
ARC
  5
6211
  8
AM_0
 10
280.57311847969498
 20
457.75046991434021
 30
0.0
 40
2.0
 50
0.0
 51
90.000003000000945
  0
ARC
  5
6212
  8
AM_0
 10
285.57314847969508
 20
438.53949991434001
 30
0.0
 40
2.0
 50
0.0
 51
90.000003000000945
  0
ARC
  5
6213
  8
AM_0
 10
285.57314847969508
 20
572.96207991434005
 30
0.0
 40
2.0
 50
270.0
 51
0.0
  0
ARC
  5
6214
  8
AM_0
 10
284.57311847969493
 20
568.96207991434005
 30
0.0
 40
2.0
 50
90.000003000000945
 51
180.00001000000091
  0
ARC
  5
6215
  8
AM_0
 10
280.57311847969498
 20
553.75107991434027
 30
0.0
 40
2.0
 50
270.0
 51
0.0
  0
ARC
  5
6216
  8
AM_0
 10
342.57311847969532
 20
555.44889991434025
 30
0.0
 40
2.0
 50
270.0
 51
0.0
  0
ARC
  5
6217
  8
AM_0
 10
342.57311847969532
 20
456.05265991434021
 30
0.0
 40
2.0
 50
0.0
 51
90.000003000000945
  0
ARC
  5
6218
  8
AM_0
 10
331.5731184796951
 20
455.62284991434018
 30
0.0
 40
5.0
 50
179.999989999999
 51
239.431710000001
  0
ARC
  5
6219
  8
AM_0
 10
331.5731184796951
 20
459.1070999143401
 30
0.0
 40
5.0
 50
179.999989999999
 51
239.431710000001
  0
ARC
  5
621A
  8
AM_0
 10
339.57311847969521
 20
442.76780991434032
 30
0.0
 40
5.0
 50
0.0
 51
59.431709000000481
  0
ARC
  5
621B
  8
AM_0
 10
327.57311847969532
 20
459.05265991434021
 30
0.0
 40
1.0
 50
179.999989999999
 51
270.0
  0
ARC
  5
621C
  8
AM_0
 10
331.5731184796951
 20
555.87870991434033
 30
0.0
 40
5.0
 50
120.5682899999989
 51
180.00001000000091
  0
ARC
  5
621D
  8
AM_0
 10
331.5731184796951
 20
552.39444991433993
 30
0.0
 40
5.0
 50
120.5682899999989
 51
180.00001000000091
  0
ARC
  5
621E
  8
AM_0
 10
339.57311847969521
 20
572.21799991434011
 30
0.0
 40
5.0
 50
300.56828999999891
 51
0.0
  0
ARC
  5
621F
  8
AM_0
 10
327.57311847969532
 20
552.44889991434025
 30
0.0
 40
1.0
 50
90.000003000000945
 51
180.00001000000091
  0
ARC
  5
6220
  8
AM_0
 10
339.57311847969521
 20
439.28354991434009
 30
0.0
 40
5.0
 50
0.0
 51
59.431709000000481
  0
ARC
  5
6221
  8
AM_0
 10
345.57311847969493
 20
438.9694299143402
 30
0.0
 40
3.0
 50
270.0
 51
0.0
  0
ARC
  5
6222
  8
AM_0
 10
347.57311847969493
 20
547.70243991434018
 30
0.0
 40
3.0
 50
179.999989999999
 51
270.0
  0
ARC
  5
6223
  8
AM_0
 10
345.57311847969493
 20
572.53211991434011
 30
0.0
 40
3.0
 50
0.0
 51
90.000003000000945
  0
ARC
  5
6224
  8
AM_0
 10
346.57314847969508
 20
588.47016991433986
 30
0.0
 40
2.0
 50
91.999998000000545
 51
180.00001000000091
  0
ARC
  5
6225
  8
AM_0
 10
325.51818847969503
 20
430.93940991434022
 30
0.0
 40
3.0
 50
47.481952000001627
 51
88.499997000000747
  0
ARC
  5
6226
  8
AM_0
 10
341.57311847969493
 20
429.04551991434022
 30
0.0
 40
3.0
 50
0.0
 51
88.499997000000747
  0
ARC
  5
6227
  8
AM_0
 10
341.57311847969493
 20
582.45603991434007
 30
0.0
 40
3.0
 50
271.49999999999949
 51
0.0
  0
ARC
  5
6228
  8
AM_0
 10
329.5731184796951
 20
576.13974991434031
 30
0.0
 40
3.0
 50
91.500001000001546
 51
180.00001000000091
  0
ARC
  5
6229
  8
AM_0
 10
346.57314847969508
 20
423.03138991434031
 30
0.0
 40
2.0
 50
179.999989999999
 51
268.00000999999861
  0
ARC
  5
622A
  8
AM_0
 10
329.5731184796951
 20
435.36179991434022
 30
0.0
 40
3.0
 50
179.999989999999
 51
268.50000999999878
  0
ARC
  5
622B
  8
AM_0
 10
325.51818847969503
 20
580.56211991434031
 30
0.0
 40
3.0
 50
271.49999999999949
 51
312.51811999999887
  0
ARC
  5
622C
  8
AM_0
 10
347.57311847969493
 20
463.79911991434022
 30
0.0
 40
3.0
 50
90.000003000000945
 51
180.00001000000091
  0
ARC
  5
622D
  8
AM_0
 10
339.57311847969521
 20
568.73374991434025
 30
0.0
 40
5.0
 50
300.56828999999891
 51
0.0
  0
TEXT
  5
640C
  8
AM_0
 10
488.11073645191641
 20
508.86438153329669
 30
0.0
 40
10.0
  1
VX02-040MFW~VX02-060MFW
  0
ENDSEC
  0
EOF
