  0
SECTION
  2
HEADER
  9
$ACADVER
  1
AC1009
  9
$INSBASE
 10
0.0
 20
0.0
 30
0.0
  9
$EXTMIN
 10
116.2075903182938
 20
160.62372213718271
 30
-0.0000000349181948
  9
$EXTMAX
 10
738.20405000972551
 20
594.67443028077275
 30
0.0000000814935747
  9
$LIMMIN
 10
0.0
 20
0.0
  9
$LIMMAX
 10
853.5
 20
555.00000000000011
  9
$ORTHOMODE
 70
     0
  9
$REGENMODE
 70
     1
  9
$FILLMODE
 70
     1
  9
$QTEXTMODE
 70
     0
  9
$MIRRTEXT
 70
     1
  9
$DRAGMODE
 70
     2
  9
$LTSCALE
 40
3.0
  9
$OSMODE
 70
   551
  9
$ATTMODE
 70
     1
  9
$TEXTSIZE
 40
2.5
  9
$TRACEWID
 40
1.0
  9
$TEXTSTYLE
  7
STANDARD
  9
$CLAYER
  8
AM_0
  9
$CELTYPE
  6
BYLAYER
  9
$CECOLOR
 62
   256
  9
$DIMSCALE
 40
1.0
  9
$DIMASZ
 40
2.5
  9
$DIMEXO
 40
1.0
  9
$DIMDLI
 40
8.0
  9
$DIMRND
 40
0.0
  9
$DIMDLE
 40
0.0
  9
$DIMEXE
 40
0.6
  9
$DIMTP
 40
0.1
  9
$DIMTM
 40
0.1
  9
$DIMTXT
 40
2.5
  9
$DIMCEN
 40
0.0
  9
$DIMTSZ
 40
0.0
  9
$DIMTOL
 70
     0
  9
$DIMLIM
 70
     0
  9
$DIMTIH
 70
     0
  9
$DIMTOH
 70
     0
  9
$DIMSE1
 70
     0
  9
$DIMSE2
 70
     0
  9
$DIMTAD
 70
     1
  9
$DIMZIN
 70
     8
  9
$DIMBLK
  1

  9
$DIMASO
 70
     1
  9
$DIMSHO
 70
     1
  9
$DIMPOST
  1

  9
$DIMAPOST
  1
"
  9
$DIMALT
 70
     0
  9
$DIMALTD
 70
     2
  9
$DIMALTF
 40
0.0393701
  9
$DIMLFAC
 40
1.0
  9
$DIMTOFL
 70
     1
  9
$DIMTVP
 40
0.0
  9
$DIMTIX
 70
     0
  9
$DIMSOXD
 70
     0
  9
$DIMSAH
 70
     0
  9
$DIMBLK1
  1

  9
$DIMBLK2
  1

  9
$DIMSTYLE
  2
AM_ISO
  9
$DIMCLRD
 70
   256
  9
$DIMCLRE
 70
   256
  9
$DIMCLRT
 70
     4
  9
$DIMTFAC
 40
0.71
  9
$DIMGAP
 40
0.8
  9
$LUNITS
 70
     2
  9
$LUPREC
 70
     2
  9
$SKETCHINC
 40
1.0
  9
$FILLETRAD
 40
15.0
  9
$AUNITS
 70
     0
  9
$AUPREC
 70
     0
  9
$MENU
  1
.
  9
$ELEVATION
 40
0.0
  9
$PELEVATION
 40
0.0
  9
$THICKNESS
 40
0.0
  9
$LIMCHECK
 70
     0
  9
$BLIPMODE
 70
     0
  9
$CHAMFERA
 40
6.0
  9
$CHAMFERB
 40
3.0
  9
$SKPOLY
 70
     0
  9
$TDCREATE
 40
2452065.7887456599
  9
$TDUPDATE
 40
2458541.6037383801
  9
$TDINDWG
 40
0.1466011343
  9
$TDUSRTIMER
 40
0.1466011227
  9
$USRTIMER
 70
     1
  9
$ANGBASE
 50
0.0
  9
$ANGDIR
 70
     0
  9
$PDMODE
 70
     0
  9
$PDSIZE
 40
0.0
  9
$PLINEWID
 40
0.0
  9
$COORDS
 70
     1
  9
$SPLFRAME
 70
     0
  9
$SPLINETYPE
 70
     6
  9
$SPLINESEGS
 70
     8
  9
$ATTDIA
 70
     1
  9
$ATTREQ
 70
     1
  9
$HANDLING
 70
     1
  9
$HANDSEED
  5
56DD
  9
$SURFTAB1
 70
     6
  9
$SURFTAB2
 70
     6
  9
$SURFTYPE
 70
     6
  9
$SURFU
 70
     6
  9
$SURFV
 70
     6
  9
$UCSNAME
  2

  9
$UCSORG
 10
0.0
 20
0.0
 30
0.0
  9
$UCSXDIR
 10
1.0
 20
0.0
 30
0.0
  9
$UCSYDIR
 10
0.0
 20
1.0
 30
0.0
  9
$PUCSNAME
  2

  9
$PUCSORG
 10
0.0
 20
0.0
 30
0.0
  9
$PUCSXDIR
 10
1.0
 20
0.0
 30
0.0
  9
$PUCSYDIR
 10
0.0
 20
1.0
 30
0.0
  9
$USERI1
 70
     0
  9
$USERI2
 70
     0
  9
$USERI3
 70
     0
  9
$USERI4
 70
     0
  9
$USERI5
 70
     0
  9
$USERR1
 40
0.0
  9
$USERR2
 40
0.0
  9
$USERR3
 40
0.0
  9
$USERR4
 40
0.0
  9
$USERR5
 40
0.0
  9
$WORLDVIEW
 70
     1
  9
$SHADEDGE
 70
     3
  9
$SHADEDIF
 70
    70
  9
$TILEMODE
 70
     1
  9
$MAXACTVP
 70
    64
  9
$PLIMCHECK
 70
     0
  9
$PEXTMIN
 10
1.0000000000000000E+020
 20
1.0000000000000000E+020
 30
1.0000000000000000E+020
  9
$PEXTMAX
 10
-1.0000000000000000E+020
 20
-1.0000000000000000E+020
 30
-1.0000000000000000E+020
  9
$PLIMMIN
 10
0.0
 20
0.0
  9
$PLIMMAX
 10
420.0
 20
297.0
  9
$UNITMODE
 70
     0
  9
$VISRETAIN
 70
     1
  9
$PLINEGEN
 70
     0
  9
$PSLTSCALE
 70
     1
  0
ENDSEC
  0
SECTION
  2
TABLES
  0
TABLE
  2
VPORT
 70
     1
  0
VPORT
  2
*ACTIVE
 70
     0
 10
0.0
 20
0.0
 11
1.0
 21
1.0
 12
427.20582016400948
 22
377.64907620897782
 13
0.0
 23
0.0
 14
7.5
 24
7.5
 15
30.0
 25
30.0
 16
0.0
 26
0.0
 36
1.0
 17
0.0
 27
0.0
 37
0.0
 40
437.03046128874053
 41
1.7571592210767459
 42
50.0
 43
0.0
 44
0.0
 50
0.0
 51
0.0
 71
     0
 72
   100
 73
     1
 74
     3
 75
     0
 76
     0
 77
     0
 78
     0
  0
ENDTAB
  0
TABLE
  2
LTYPE
 70
    26
  0
LTYPE
  2
CONTINUOUS
 70
     0
  3
Solid line
 72
    65
 73
     0
 40
0.0
  0
LTYPE
  2
AM_ISO02W050
 70
     0
  3
__ __ __ __ __ __ __ __ __ __ __ __ __ __ __
 72
    65
 73
     2
 40
7.5
 49
6.0
 49
-1.5
  0
LTYPE
  2
AM_ISO08W050
 70
     0
  3
____ . ____ . ____ . ____ . ____ . ____ . ____
 72
    65
 73
     4
 40
18.0
 49
12.0
 49
-1.5
 49
3.0
 49
-1.5
  0
LTYPE
  2
AM_ISO09W050
 70
     0
  3
_____ . . _____ . . _____ . . ____ .. ____
 72
    65
 73
     6
 40
22.5
 49
12.0
 49
-1.5
 49
3.0
 49
-1.5
 49
3.0
 49
-1.5
  0
LTYPE
  2
AMCONSTR
 70
     0
  3
_______________________
 72
    65
 73
     2
 40
9999.0
 49
9999.0
 49
0.0
  0
LTYPE
  2
AM_ISO08W050X2
 70
     0
  3
__ . __ . __ . __ . __ . __
 72
    65
 73
     4
 40
9.0
 49
6.0
 49
-0.75
 49
1.5
 49
-0.75
  0
LTYPE
  2
AM_ISO02W050X2
 70
     0
  3
 _ _ _ _ _ _ _ _ _ _ _ _
 72
    65
 73
     2
 40
3.75
 49
3.0
 49
-0.75
  0
LTYPE
  2
AMZIGZAG
 70
     0
  3
/\/-/\/-/\/-/\/-/\/-/\/
 72
    65
 73
     2
 40
11.0001
 49
0.0001
 49
-11.0
  0
LTYPE
  2
ACISOWELD
 70
     0
  3
_ _ _ _ _
 72
    65
 73
     2
 40
2.0
 49
2.0
 49
-1.0
  0
LTYPE
  2
ACISOTGB
 70
     0
  3
__ . . __ . .
 72
    65
 73
     6
 40
9.0
 49
4.0
 49
-1.0
 49
1.0
 49
-1.0
 49
1.0
 49
-1.0
  0
LTYPE
  2
ACISOTGL
 70
     0
  3
_ _ _ _ _
 72
    65
 73
     2
 40
3.0
 49
2.0
 49
-1.0
  0
LTYPE
  2
CENTER
 70
     0
  3
__ . __
 72
    65
 73
     4
 40
7.0
 49
4.0
 49
-1.0
 49
1.0
 49
-1.0
  0
LTYPE
  2
HIDDEN
 70
     0
  3
Hidden __ __ __ __ __ __ __ __ __ __ __ __ __ _
 72
    65
 73
     2
 40
9.5249999999999986
 49
6.349999999999997
 49
-3.174999999999998
  0
LTYPE
  2
PHANTOM2
 70
     0
  3
Phantom (.5x) ___ _ _ ___ _ _ ___ _ _ ___ _ _
 72
    65
 73
     6
 40
31.75
 49
15.875
 49
-3.174999999999998
 49
3.174999999999998
 49
-3.174999999999998
 49
3.174999999999998
 49
-3.174999999999998
  0
LTYPE
  2
ACANSTGBM
 70
     0
  3
__ . . __ . .
 72
    65
 73
     6
 40
9.0
 49
4.0
 49
-1.0
 49
1.0
 49
-1.0
 49
1.0
 49
-1.0
  0
LTYPE
  2
ACANSTGLM
 70
     0
  3
_ _ _ _ _
 72
    65
 73
     2
 40
3.0
 49
2.0
 49
-1.0
  0
LTYPE
  2
GEN7
 70
     0
  3
____ . ____ . ____ . ____ . ____ . ____ . ____
 72
    65
 73
     4
 40
14.25
 49
9.75
 49
-1.5
 49
1.5
 49
-1.5
  0
LTYPE
  2
GEN7A
 70
     0
  3
__ . __ . __
 72
    65
 73
     4
 40
7.375
 49
4.75
 49
-0.875
 49
0.875
 49
-0.875
  0
LTYPE
  2
ACJISTGB
 70
     0
  3
__ . . __ . .
 72
    65
 73
     6
 40
9.0
 49
4.0
 49
-1.0
 49
1.0
 49
-1.0
 49
1.0
 49
-1.0
  0
LTYPE
  2
ACJISTGL
 70
     0
  3
_ _ _ _ _
 72
    65
 73
     2
 40
3.0
 49
2.0
 49
-1.0
  0
LTYPE
  2
CENTER2
 70
     0
  3
Center (.5x) ___ _ ___ _ ___ _ ___ _ ___ _ ___
 72
    65
 73
     4
 40
1.125
 49
0.75
 49
-0.125
 49
0.125
 49
-0.125
  0
LTYPE
  2
HIDDEN2
 70
     0
  3
Hidden (.5x) _ _ _ _ _ _ _ _ _ _ _ _ _ _ _ _ _
 72
    65
 73
     2
 40
0.1875
 49
0.125
 49
-0.0625
  0
LTYPE
  2
AMZIGZAG2
 70
     0
  3
/\/-/\/-/\/-/\/-/\/-/\/
 72
    65
 73
     2
 40
0.4401
 49
0.0001
 49
-0.4400000000000001
  0
LTYPE
  2
ACANSTGB
 70
     0
  3
__ . . __ . .
 72
    65
 73
     6
 40
0.35433070866
 49
0.15748031496
 49
-0.03937007874
 49
0.03937007874
 49
-0.03937007874
 49
0.03937007874
 49
-0.03937007874
  0
LTYPE
  2
ACANSTGL
 70
     0
  3
_ _ _ _ _
 72
    65
 73
     2
 40
0.11811023622
 49
0.07874015748
 49
-0.03937007874
  0
ENDTAB
  0
TABLE
  2
LAYER
 70
     7
  0
LAYER
  2
0
 70
     0
 62
     7
  6
CONTINUOUS
  0
LAYER
  2
AM_0
 70
     0
 62
     7
  6
CONTINUOUS
  0
LAYER
  2
AM_5
 70
     0
 62
     2
  6
CONTINUOUS
  0
LAYER
  2
DEFPOINTS
 70
     0
 62
     7
  6
CONTINUOUS
  0
LAYER
  2
ﾁｭｳｼﾝｾﾝ
 70
     0
 62
     1
  6
GEN7
  0
LAYER
  2
ﾁｭｳｼﾝｾﾝ1
 70
     0
 62
     1
  6
GEN7A
  0
LAYER
  2
AM_0N
 70
     0
 62
     7
  6
CONTINUOUS
  0
ENDTAB
  0
TABLE
  2
STYLE
 70
    10
  0
STYLE
  2
STANDARD
 70
     0
 40
0.0
 41
0.8299999999999999
 50
0.0
 71
     0
 42
2.5
  3
txt.shx
  4
bigfont.shx
  0
STYLE
  2
ANNOTATIVE
 70
     0
 40
0.0
 41
1.0
 50
0.0
 71
     0
 42
0.2
  3
txt
  4

  0
STYLE
  2

 70
     1
 40
0.0
 41
1.0
 50
0.0
 71
     0
 42
2.5
  3
ltypeshp.shx
  4

  0
STYLE
  2
ACISOTS
 70
     0
 40
1.0
 41
1.0
 50
0.0
 71
     0
 42
2.5
  3
isocp.shx
  4
extfont.shx
  0
STYLE
  2
ACISOGDT
 70
     0
 40
0.0
 41
1.0
 50
0.0
 71
     0
 42
2.5
  3
amgdt.shx
  4

  0
STYLE
  2
ACANSTS
 70
     0
 40
1.0
 41
1.0
 50
0.0
 71
     0
 42
2.5
  3
romans.shx
  4
bigfont.shx
  0
STYLE
  2
ACANSGDT
 70
     0
 40
0.0
 41
1.0
 50
0.0
 71
     0
 42
2.5
  3
amgdt.shx
  4

  0
STYLE
  2
ACJISTS
 70
     0
 40
1.0
 41
1.0
 50
0.0
 71
     0
 42
2.5
  3
isocp.shx
  4
bigfont.shx
  0
STYLE
  2
ACJISGDT
 70
     0
 40
0.0
 41
1.0
 50
0.0
 71
     0
 42
2.5
  3
amgdt.shx
  4

  0
STYLE
  2

 70
     1
 40
0.0
 41
1.0
 50
0.0
 71
     0
 42
2.5
  3
genltshp.shx
  4

  0
ENDTAB
  0
TABLE
  2
VIEW
 70
     6
  0
VIEW
  2
AM_VIEW1
 70
     0
 40
277.50000000000011
 10
249.64779005524869
 20
416.24999999999989
 41
499.2955801104971
 11
0.0
 21
0.0
 31
1.0
 12
0.0
 22
0.0
 32
0.0
 42
50.0
 43
0.0
 44
0.0
 50
0.0
 71
     0
  0
VIEW
  2
AM_VIEW2
 70
     0
 40
277.50000000000011
 10
603.85220994475117
 20
416.24999999999989
 41
499.2955801104971
 11
0.0
 21
0.0
 31
1.0
 12
0.0
 22
0.0
 32
0.0
 42
50.0
 43
0.0
 44
0.0
 50
0.0
 71
     0
  0
VIEW
  2
AM_VIEW3
 70
     0
 40
277.50000000000011
 10
249.64779005524869
 20
138.75
 41
499.2955801104971
 11
0.0
 21
0.0
 31
1.0
 12
0.0
 22
0.0
 32
0.0
 42
50.0
 43
0.0
 44
0.0
 50
0.0
 71
     0
  0
VIEW
  2
AM_VIEW4
 70
     0
 40
277.50000000000011
 10
603.85220994475117
 20
138.75
 41
499.2955801104971
 11
0.0
 21
0.0
 31
1.0
 12
0.0
 22
0.0
 32
0.0
 42
50.0
 43
0.0
 44
0.0
 50
0.0
 71
     0
  0
VIEW
  2
AM_VIEW5
 70
     0
 40
277.50000000000011
 10
426.75
 20
277.50000000000011
 41
499.2955801104971
 11
0.0
 21
0.0
 31
1.0
 12
0.0
 22
0.0
 32
0.0
 42
50.0
 43
0.0
 44
0.0
 50
0.0
 71
     0
  0
VIEW
  2
AM_VIEW6
 70
     0
 40
554.99445000000014
 10
426.75
 20
277.5
 41
998.5811743093924
 11
0.0
 21
0.0
 31
1.0
 12
0.0
 22
0.0
 32
0.0
 42
50.0
 43
0.0
 44
0.0
 50
0.0
 71
     0
  0
ENDTAB
  0
TABLE
  2
UCS
 70
     0
  0
ENDTAB
  0
TABLE
  2
APPID
 70
    98
  0
APPID
  2
ACAD
 70
     0
  0
APPID
  2
ACADANNOTATIVE
 70
     0
  0
APPID
  2
MCAD_NO_VIS
 70
     0
  0
APPID
  2
ACAD_TEMP_GRAPHIC
 70
     0
  0
APPID
  2
ACATTRIBSERVICES
 70
     0
  0
APPID
  2
GENIUS_GENREC_14
 70
     0
  0
APPID
  2
GENIUS_GENOBJ-N-REC_13
 70
     0
  0
APPID
  2
GENIUS_GENODEF_13
 70
     0
  0
APPID
  2
GENIUS_GENOLIS_13
 70
     0
  0
APPID
  2
GENIUS_GENOBJ-N-TIT_13
 70
     0
  0
APPID
  2
GENIUS_GENOENT_13
 70
     0
  0
APPID
  2
GENIUS_GENTITLE_13
 70
     0
  0
APPID
  2
GENIUS_GENOREF_13
 70
     0
  0
APPID
  2
GENIUS_GENSCREG_15
 70
     0
  0
APPID
  2
GENIUS_GENOBJ-N-SDF_13
 70
     0
  0
APPID
  2
GENIUS_GENFIL_13
 70
     0
  0
APPID
  2
GENIUS_GENOBJ-N-CHA_13
 70
     0
  0
APPID
  2
GENIUS_GENDTOL_13
 70
     0
  0
APPID
  2
GENIUS_GENOBJ-N-FIL_13
 70
     0
  0
APPID
  2
AD_DRAW
 70
     0
  0
APPID
  2
DESIGNERASSEMBLIES
 70
     0
  0
APPID
  2
ASURF_PCURVE_APPNAME
 70
     0
  0
APPID
  2
GENIUS_GE3SECT_13
 70
     0
  0
APPID
  2
GENIUS_GENCFG_13
 70
     0
  0
APPID
  2
GENIUS_GE3CFG0_13
 70
     0
  0
APPID
  2
GENIUS_GENCFG0_13
 70
     0
  0
APPID
  2
GENIUS_GENCFG1_13
 70
     0
  0
APPID
  2
GENIUS_GENCFG2_13
 70
     0
  0
APPID
  2
GENIUS_GENCFG3_13
 70
     0
  0
APPID
  2
GENIUS_GENCFG4_13
 70
     0
  0
APPID
  2
GENIUS_GEVCFG0_13
 70
     0
  0
APPID
  2
GENIUS_GENHINW_13
 70
     0
  0
APPID
  2
GENIUS_FIRSTVISTXT_14
 70
     0
  0
APPID
  2
GENIUS_GENOBJ-N-LEADER_13
 70
     0
  0
APPID
  2
GEV_VCCNULL_SWITCH_OFF
 70
     0
  0
APPID
  2
GENIUS_GEFCFG0_13
 70
     0
  0
APPID
  2
GENIUS_GENZVEED_13
 70
     0
  0
APPID
  2
GENIUS_GENSCREG_13
 70
     0
  0
APPID
  2
GENIUS_DUMCFG0_13
 70
     0
  0
APPID
  2
GEVID936201362
 70
     0
  0
APPID
  2
GEVDC
 70
     0
  0
APPID
  2
GEVCON
 70
     0
  0
APPID
  2
VCC
 70
     0
  0
APPID
  2
GEVPT
 70
     0
  0
APPID
  2
GEVIT
 70
     0
  0
APPID
  2
GENBH
 70
     0
  0
APPID
  2
GEVMK
 70
     0
  0
APPID
  2
GENIUS_GENBH_13
 70
     0
  0
APPID
  2
GENIUS_GENOBJ-NBEHI-BHF_13
 70
     0
  0
APPID
  2
GENIUS_GENOBJ-NBEHI-BHB_13
 70
     0
  0
APPID
  2
GENIUS_GENOBJ-F-DESC_13
 70
     0
  0
APPID
  2
GENIUS_GEFDESC_14
 70
     0
  0
APPID
  2
GENIUS_GENOBJ-F-PART_13
 70
     0
  0
APPID
  2
GENIUS_GEFSTDP_13
 70
     0
  0
APPID
  2
GENIUS_GEFPARTINS_13
 70
     0
  0
APPID
  2
GENIUS_GENTRA_14
 70
     0
  0
APPID
  2
GENIUS_GENINF13_13
 70
     0
  0
APPID
  2
GENIUS_GENOBJ-N-INFOPT_13
 70
     0
  0
APPID
  2
GENIUS_GENOBJ-N-RSSYM_13
 70
     0
  0
APPID
  2
GENIUS_GENSYMENT_13
 70
     0
  0
APPID
  2
GENIUS_GENSCSYM_13
 70
     0
  0
APPID
  2
GENIUS_GEFINFNAM_13
 70
     0
  0
APPID
  2
GENIUS_GENOBJ-N-CEN_13
 70
     0
  0
APPID
  2
GENIUS_GENOBJ-N-CRS_13
 70
     0
  0
APPID
  2
GENIUS_GENOBJ-N-CRC_13
 70
     0
  0
APPID
  2
GENIUS_GENCRC_14
 70
     0
  0
APPID
  2
GEVID942827039
 70
     0
  0
APPID
  2
GEVID942827040
 70
     0
  0
APPID
  2
GEVID942827041
 70
     0
  0
APPID
  2
GENIUS_GENOBJ-F-SCPASSM_13
 70
     0
  0
APPID
  2
GENIUS_GENDIMSH_14
 70
     0
  0
APPID
  2
GEVID942827042
 70
     0
  0
APPID
  2
GEVID946020473
 70
     0
  0
APPID
  2
GEVID946020474
 70
     0
  0
APPID
  2
GEVID946020475
 70
     0
  0
APPID
  2
GENIUS_GENOBJ-N-HTC_13
 70
     0
  0
APPID
  2
GENIUS_GENHATCH_13
 70
     0
  0
APPID
  2
GEVID948854295
 70
     0
  0
APPID
  2
GEVID939402019
 70
     0
  0
APPID
  2
GEVID952919491
 70
     0
  0
APPID
  2
GEVID952919492
 70
     0
  0
APPID
  2
GENIUS_GEFWELD_13
 70
     0
  0
APPID
  2
GENIUS_GENOBJ-F-WELS_13
 70
     0
  0
APPID
  2
GEVID952919493
 70
     0
  0
APPID
  2
GENIUS_GENOBJ-N-RSBK_13
 70
     0
  0
APPID
  2
GENIUS_GENOBJ-N-LIB_13
 70
     0
  0
APPID
  2
GENIUS_GENSCALE_13
 70
     0
  0
APPID
  2
GEVID986376691
 70
     0
  0
APPID
  2
DCO15
 70
     0
  0
APPID
  2
ACADM_DIM_EDIT
 70
     0
  0
APPID
  2
AMDT_DM_ADJ
 70
     0
  0
APPID
  2
ACAD_PSEXT
 70
     0
  0
APPID
  2
ACAD_DSTYLE_DIMJAG
 70
     0
  0
APPID
  2
ACAD_DSTYLE_DIMBREAK
 70
     0
  0
APPID
  2
ACAD_NAV_VCDISPLAY
 70
     0
  0
APPID
  2
ACADANNOPO
 70
     0
  0
APPID
  2
ACAD_EXEMPT_FROM_CAD_STANDARDS
 70
     0
  0
APPID
  2
ACAD_MLEADERVER
 70
     0
  0
ENDTAB
  0
TABLE
  2
DIMSTYLE
 70
    22
  0
DIMSTYLE
  2
STANDARD
 70
     0
  3

  4

  5

  6

  7

 40
1.0
 41
0.18
 42
0.0625
 43
0.38
 44
0.18
 45
0.0
 46
0.0
 47
0.0
 48
0.0
140
0.18
141
0.09
142
0.0
143
25.399999999999999
144
1.0
145
0.0
146
1.0
147
0.09
 71
     0
 72
     0
 73
     1
 74
     1
 75
     0
 76
     0
 77
     0
 78
     0
170
     0
171
     2
172
     0
173
     0
174
     0
175
     0
176
     0
177
     0
178
     0
  0
DIMSTYLE
  2
ANNOTATIVE
 70
     0
  3

  4

  5

  6

  7

 40
1.0
 41
0.18
 42
0.0625
 43
0.38
 44
0.18
 45
0.0
 46
0.0
 47
0.0
 48
0.0
140
0.18
141
0.09
142
0.0
143
25.399999999999999
144
1.0
145
0.0
146
1.0
147
0.09
 71
     0
 72
     0
 73
     1
 74
     1
 75
     0
 76
     0
 77
     0
 78
     0
170
     0
171
     2
172
     0
173
     0
174
     0
175
     0
176
     0
177
     0
178
     0
  0
DIMSTYLE
  2
AM_ISO
 70
     0
  3

  4
"
  5

  6

  7

 40
1.0
 41
2.5
 42
1.0
 43
8.0
 44
0.6
 45
0.0
 46
0.0
 47
0.1
 48
0.1
140
2.5
141
0.0
142
0.0
143
0.0393701
144
1.0
145
0.0
146
0.71
147
0.8
 71
     0
 72
     0
 73
     0
 74
     0
 75
     0
 76
     0
 77
     1
 78
     8
170
     0
171
     2
172
     1
173
     0
174
     0
175
     0
176
   256
177
   256
178
     4
  0
DIMSTYLE
  2
AM_ISO$3
 70
     0
  3

  4
"
  5

  6

  7

 40
1.0
 41
2.5
 42
1.0
 43
8.0
 44
0.6
 45
0.0
 46
0.0
 47
0.1
 48
0.1
140
2.5
141
0.0
142
0.0
143
0.0393701
144
1.0
145
0.0
146
0.71
147
0.8
 71
     0
 72
     0
 73
     0
 74
     1
 75
     0
 76
     0
 77
     1
 78
     8
170
     0
171
     2
172
     0
173
     0
174
     0
175
     0
176
   256
177
   256
178
     4
  0
DIMSTYLE
  2
AM_ISO$4
 70
     0
  3

  4
"
  5

  6

  7

 40
1.0
 41
2.5
 42
1.0
 43
8.0
 44
0.6
 45
0.0
 46
0.0
 47
0.1
 48
0.1
140
2.5
141
0.0
142
0.0
143
0.0393701
144
1.0
145
0.0
146
0.71
147
0.8
 71
     0
 72
     0
 73
     0
 74
     1
 75
     0
 76
     0
 77
     1
 78
     8
170
     0
171
     2
172
     0
173
     0
174
     0
175
     0
176
   256
177
   256
178
     4
  0
DIMSTYLE
  2
AM_ISO$6
 70
     0
  3

  4
"
  5

  6

  7

 40
1.0
 41
2.5
 42
1.0
 43
8.0
 44
0.6
 45
0.0
 46
0.0
 47
0.1
 48
0.1
140
2.5
141
0.0
142
0.0
143
0.0393701
144
1.0
145
0.0
146
0.71
147
0.8
 71
     0
 72
     0
 73
     0
 74
     0
 75
     0
 76
     0
 77
     0
 78
     8
170
     0
171
     2
172
     1
173
     0
174
     0
175
     0
176
   256
177
   256
178
     4
  0
DIMSTYLE
  2
AM_ISO$7
 70
     0
  3

  4
"
  5

  6

  7

 40
1.0
 41
2.5
 42
1.0
 43
8.0
 44
0.6
 45
0.0
 46
0.0
 47
0.1
 48
0.1
140
2.5
141
0.0
142
0.0
143
0.0393701
144
1.0
145
0.0
146
0.71
147
0.8
 71
     0
 72
     0
 73
     0
 74
     0
 75
     0
 76
     0
 77
     1
 78
     8
170
     0
171
     2
172
     1
173
     0
174
     0
175
     0
176
   256
177
   256
178
     4
  0
DIMSTYLE
  2
AM_ISO$SF
 70
     0
  3

  4
"
  5

  6

  7

 40
1.0
 41
2.5
 42
1.0
 43
10.0
 44
1.0
 45
0.0
 46
0.0
 47
0.1
 48
0.1
140
3.5
141
0.0
142
0.0
143
0.0393701
144
1.0
145
0.0
146
0.71
147
1.5
 71
     0
 72
     0
 73
     0
 74
     0
 75
     1
 76
     1
 77
     1
 78
     8
170
     0
171
     2
172
     1
173
     0
174
     0
175
     0
176
   256
177
   256
178
     2
  0
DIMSTYLE
  2
AM_ISO$SH
 70
     0
  3

  4
"
  5

  6

  7

 40
1.0
 41
2.5
 42
1.0
 43
10.0
 44
1.0
 45
0.0
 46
0.0
 47
0.1
 48
0.1
140
3.5
141
0.0
142
0.0
143
0.0393701
144
2.0
145
0.0
146
0.71
147
1.5
 71
     0
 72
     0
 73
     0
 74
     0
 75
     1
 76
     1
 77
     1
 78
     8
170
     0
171
     2
172
     1
173
     1
174
     0
175
     0
176
   256
177
   256
178
     2
  0
DIMSTYLE
  2
AM_JIS
 70
     0
  3

  4
"
  5

  6

  7

 40
1.0
 41
2.5
 42
1.0
 43
7.0
 44
1.0
 45
0.0
 46
0.0
 47
0.1
 48
0.1000000001
140
2.5
141
0.0
142
0.0
143
0.0393701
144
1.0
145
0.0
146
0.71
147
1.0
 71
     0
 72
     0
 73
     0
 74
     0
 75
     0
 76
     0
 77
     3
 78
     8
170
     0
171
     2
172
     1
173
     0
174
     0
175
     0
176
   256
177
   256
178
     4
  0
DIMSTYLE
  2
AM_JIS$3
 70
     0
  3

  4
"
  5

  6

  7

 40
1.0
 41
2.5
 42
1.0
 43
7.0
 44
1.0
 45
0.0
 46
0.0
 47
0.1
 48
0.1000000001
140
2.5
141
0.0
142
0.0
143
0.0393701
144
1.0
145
0.0
146
0.71
147
1.0
 71
     0
 72
     0
 73
     0
 74
     1
 75
     0
 76
     0
 77
     3
 78
     8
170
     0
171
     2
172
     0
173
     0
174
     0
175
     0
176
   256
177
   256
178
     4
  0
DIMSTYLE
  2
AM_JIS$4
 70
     0
  3

  4
"
  5

  6

  7

 40
1.0
 41
2.5
 42
1.0
 43
7.0
 44
1.0
 45
0.0
 46
0.0
 47
0.1
 48
0.1000000001
140
2.5
141
0.0
142
0.0
143
0.0393701
144
1.0
145
0.0
146
0.71
147
1.0
 71
     0
 72
     0
 73
     0
 74
     0
 75
     0
 76
     0
 77
     3
 78
     8
170
     0
171
     2
172
     0
173
     0
174
     0
175
     0
176
   256
177
   256
178
     4
  0
DIMSTYLE
  2
AM_JIS$6
 70
     0
  3

  4
"
  5

  6

  7

 40
1.0
 41
2.5
 42
1.0
 43
7.0
 44
1.0
 45
0.0
 46
0.0
 47
0.1
 48
0.1000000001
140
2.5
141
0.0
142
0.0
143
0.0393701
144
1.0
145
0.0
146
0.71
147
1.0
 71
     0
 72
     0
 73
     0
 74
     0
 75
     0
 76
     0
 77
     0
 78
     8
170
     0
171
     2
172
     1
173
     0
174
     0
175
     0
176
   256
177
   256
178
     4
  0
DIMSTYLE
  2
AM_JIS$7
 70
     0
  3

  4
"
  5

  6

  7

 40
1.0
 41
2.5
 42
1.0
 43
7.0
 44
1.0
 45
0.0
 46
0.0
 47
0.1
 48
0.1000000001
140
2.5
141
0.0
142
0.0
143
0.0393701
144
1.0
145
0.0
146
0.71
147
1.0
 71
     0
 72
     0
 73
     0
 74
     0
 75
     0
 76
     0
 77
     3
 78
     8
170
     0
171
     2
172
     1
173
     0
174
     0
175
     0
176
   256
177
   256
178
     4
  0
DIMSTYLE
  2
AM_JIS$SF
 70
     0
  3

  4
"
  5

  6

  7

 40
1.0
 41
2.5
 42
1.0
 43
10.0
 44
1.0
 45
0.0
 46
0.0
 47
0.1
 48
0.1
140
3.5
141
0.0
142
0.0
143
0.0393701
144
1.0
145
0.0
146
0.71
147
1.5
 71
     0
 72
     0
 73
     0
 74
     0
 75
     1
 76
     1
 77
     3
 78
     8
170
     0
171
     2
172
     1
173
     0
174
     0
175
     0
176
   256
177
   256
178
     4
  0
DIMSTYLE
  2
AM_JIS$SH
 70
     0
  3

  4
"
  5

  6

  7

 40
1.0
 41
2.5
 42
1.0
 43
10.0
 44
1.0
 45
0.0
 46
0.0
 47
0.1
 48
0.1
140
3.5
141
0.0
142
0.0
143
0.0393701
144
1.0
145
0.0
146
0.71
147
1.5
 71
     0
 72
     0
 73
     0
 74
     0
 75
     1
 76
     0
 77
     3
 78
     8
170
     0
171
     2
172
     1
173
     1
174
     0
175
     0
176
   256
177
   256
178
     4
  0
DIMSTYLE
  2
AM_ANSI
 70
     0
  3

  4
mm
  5

  6

  7

 40
1.0
 41
0.12
 42
0.05
 43
0.5
 44
0.1
 45
0.0
 46
0.0
 47
0.1
 48
0.1
140
0.12
141
0.0
142
0.0
143
25.399999999999999
144
1.0
145
0.0
146
0.71
147
0.06
 71
     0
 72
     0
 73
     1
 74
     1
 75
     0
 76
     0
 77
     0
 78
     7
170
     0
171
     2
172
     0
173
     0
174
     0
175
     0
176
   256
177
   256
178
     2
  0
DIMSTYLE
  2
AM_ANSI$3
 70
     0
  3

  4
mm
  5

  6

  7

 40
1.0
 41
0.12
 42
0.05
 43
0.5
 44
0.1
 45
0.0
 46
0.0
 47
0.1
 48
0.1
140
0.12
141
0.0
142
0.0
143
25.399999999999999
144
1.0
145
0.0
146
0.71
147
0.06
 71
     0
 72
     0
 73
     1
 74
     1
 75
     0
 76
     0
 77
     0
 78
     7
170
     0
171
     2
172
     0
173
     0
174
     0
175
     0
176
   256
177
   256
178
     2
  0
DIMSTYLE
  2
AM_ANSI$4
 70
     0
  3

  4
mm
  5

  6

  7

 40
1.0
 41
0.12
 42
0.05
 43
0.5
 44
0.1
 45
0.0
 46
0.0
 47
0.1
 48
0.1
140
0.12
141
0.0
142
0.0
143
25.399999999999999
144
1.0
145
0.0
146
0.71
147
0.06
 71
     0
 72
     0
 73
     1
 74
     1
 75
     0
 76
     0
 77
     0
 78
     7
170
     0
171
     2
172
     0
173
     0
174
     0
175
     0
176
   256
177
   256
178
     2
  0
DIMSTYLE
  2
AM_ANSI$7
 70
     0
  3

  4
mm
  5

  6

  7

 40
1.0
 41
0.12
 42
0.05
 43
0.5
 44
0.1
 45
0.0
 46
0.0
 47
0.1
 48
0.1
140
0.12
141
0.0
142
0.0
143
25.399999999999999
144
1.0
145
0.0
146
0.71
147
0.06
 71
     0
 72
     0
 73
     1
 74
     1
 75
     0
 76
     0
 77
     0
 78
     7
170
     0
171
     2
172
     0
173
     0
174
     0
175
     0
176
   256
177
   256
178
     2
  0
DIMSTYLE
  2
AM_ANSI$SF
 70
     0
  3

  4
mm
  5

  6

  7

 40
1.0
 41
0.12
 42
0.05
 43
0.5
 44
0.1
 45
0.0
 46
0.0
 47
0.1
 48
0.1
140
0.12
141
0.0
142
0.0
143
25.399999999999999
144
1.0
145
0.0
146
0.71
147
0.06
 71
     0
 72
     0
 73
     1
 74
     1
 75
     1
 76
     1
 77
     0
 78
     7
170
     0
171
     2
172
     0
173
     0
174
     0
175
     0
176
   256
177
   256
178
     2
  0
DIMSTYLE
  2
AM_ANSI$SH
 70
     0
  3

  4
mm
  5

  6
GENAXEH
  7

 40
1.0
 41
0.12
 42
0.05
 43
0.5
 44
0.1
 45
0.0
 46
0.0
 47
0.1
 48
0.1
140
0.12
141
0.0
142
0.0
143
25.399999999999999
144
1.0
145
0.0
146
0.71
147
0.06
 71
     0
 72
     0
 73
     1
 74
     1
 75
     1
 76
     1
 77
     0
 78
     7
170
     0
171
     2
172
     0
173
     1
174
     0
175
     0
176
   256
177
   256
178
     2
  0
ENDTAB
  0
ENDSEC
  0
SECTION
  2
BLOCKS
  0
BLOCK
  8
0
  2
$MODEL_SPACE
 70
     0
 10
0.0
 20
0.0
 30
0.0
  3
$MODEL_SPACE
  1

  0
ENDBLK
  5
555B
  8
0
  0
BLOCK
 67
     1
  8
0
  2
$PAPER_SPACE
 70
     0
 10
0.0
 20
0.0
 30
0.0
  3
$PAPER_SPACE
  1

  0
ENDBLK
  5
5557
 67
     1
  8
0
  0
BLOCK
  8
0
  2
GENAXEH
 70
     0
 10
0.0
 20
0.0
 30
0.0
  3
GENAXEH
  1

  0
LINE
  5
73
  8
0
 10
-1.0
 20
0.0
 30
0.0
 11
1.0
 21
0.0
 31
0.0
  0
ENDBLK
  5
75
  8
0
  0
BLOCK
  8
0
  2
_OPEN30
 70
     0
 10
0.0
 20
0.0
 30
0.0
  3
_OPEN30
  1

  0
LINE
  5
31A
  8
0
 62
     0
 10
-1.0
 20
0.26794919
 30
0.0
 11
0.0
 21
0.0
 31
0.0
  0
LINE
  5
31B
  8
0
 62
     0
 10
0.0
 20
0.0
 30
0.0
 11
-1.0
 21
-0.26794919
 31
0.0
  0
LINE
  5
31C
  8
0
 62
     0
 10
0.0
 20
0.0
 30
0.0
 11
-1.0
 21
0.0
 31
0.0
  0
ENDBLK
  5
31E
  8
0
  0
BLOCK
  8
0
  2
_NONE
 70
     0
 10
0.0
 20
0.0
 30
0.0
  3
_NONE
  1

  0
ENDBLK
  5
579
  8
0
  0
BLOCK
  8
0
  2
*U5
 70
     1
 10
0.0
 20
0.0
 30
0.0
  3
*U5
  1

  0
TEXT
  5
53AE
  8
AM_0
 10
547.74429832806175
 20
513.23723434503029
 30
0.0
 40
10.0
  1
ＶＸ０４－００５～０１０ＭＦＷ
 41
0.8299999999999999
  0
ENDBLK
  5
53B0
  8
0
  0
BLOCK
  8
0
  2
_ACMFILLEDHALF
 70
     0
 10
0.0
 20
0.0
 30
0.0
  3
_ACMFILLEDHALF
  1

  0
TRACE
  5
5659
  8
AM_0
 62
     0
 10
-0.8
 20
0.0
 30
0.0
 11
-1.0
 21
0.166666666
 31
0.0
 12
0.0
 22
0.0
 32
0.0
 13
0.0
 23
0.0
 33
0.0
  0
LINE
  5
565A
  8
AM_0
 62
     0
 10
-1.0
 20
0.0
 30
0.0
 11
-0.8
 21
0.0
 31
0.0
  0
ENDBLK
  5
5658
  8
0
  0
ENDSEC
  0
SECTION
  2
ENTITIES
  0
LINE
  5
4874
  8
AM_0
 10
173.996532580657
 20
183.9657836251985
 30
0.0
 11
138.9965225806568
 21
185.9957846251987
 31
0.0
  0
LINE
  5
4875
  8
AM_0
 10
173.996532580657
 20
276.66579262519872
 30
0.0
 11
138.9965225806568
 21
274.63578262519877
 31
0.0
  0
LINE
  5
4876
  8
AM_0
 10
126.276552580657
 20
182.67579262519871
 30
0.0
 11
128.996532580657
 21
182.67579262519871
 31
0.0
  0
LINE
  5
4877
  8
AM_0
 10
125.76655258065691
 20
180.70580662519851
 30
0.0
 11
124.496532580657
 21
181.43579962519871
 31
0.0
  0
LINE
  5
4878
  8
AM_0
 10
128.996532580657
 20
172.8857816251986
 30
0.0
 11
131.81653258065691
 21
172.8157736251986
 31
0.0
  0
LINE
  5
4879
  8
AM_0
 10
125.74654258065679
 20
187.3557986251985
 30
0.0
 11
124.446552580657
 21
188.2057736251985
 31
0.0
  0
LINE
  5
487A
  8
AM_0
 10
125.75653258065699
 20
182.81580562519861
 30
0.0
 11
124.4765225806569
 21
183.58580962519861
 31
0.0
  0
LINE
  5
487B
  8
AM_0
 10
126.2665625806569
 20
180.5657756251986
 30
0.0
 11
128.49658258065699
 21
180.5657756251986
 31
0.0
  0
LINE
  5
487C
  8
AM_0
 10
126.236532580657
 20
181.7157836251985
 30
0.0
 11
128.49658258065699
 21
181.7157836251985
 31
0.0
  0
LINE
  5
487D
  8
AM_0
 10
125.78656258065691
 20
181.82578462519871
 30
0.0
 11
124.5465125806568
 21
182.4557906251986
 31
0.0
  0
LINE
  5
487E
  8
AM_0
 10
126.2665625806569
 20
188.3357786251986
 30
0.0
 11
127.99654258065679
 21
188.3357786251986
 31
0.0
  0
LINE
  5
487F
  8
AM_0
 10
126.29659258065691
 20
187.1957636251984
 30
0.0
 11
128.996532580657
 21
187.1957636251984
 31
0.0
  0
LINE
  5
4880
  8
AM_0
 10
126.24658258065701
 20
183.8157746251986
 30
0.0
 11
127.99654258065679
 21
183.8157746251986
 31
0.0
  0
LINE
  5
4881
  8
AM_0
 10
125.7664925806569
 20
188.4657986251986
 30
0.0
 11
124.48651258065679
 21
189.21578362519861
 31
0.0
  0
LINE
  5
4882
  8
AM_0
 10
276.99658258065699
 20
166.81578862519871
 30
0.0
 11
284.99654258065692
 21
166.81578862519871
 31
0.0
  0
LINE
  5
4883
  8
AM_0
 10
276.99658258065699
 20
178.27578262519859
 30
0.0
 11
284.99654258065692
 21
178.27578262519859
 31
0.0
  0
LINE
  5
4884
  8
AM_0
 10
173.996532580657
 20
183.9657836251985
 30
0.0
 11
275.996532580657
 21
183.9657836251985
 31
0.0
  0
LINE
  5
4885
  8
AM_0
 10
275.70655258065699
 20
179.2857776251987
 30
0.0
 11
273.29659258065692
 21
179.2857776251987
 31
0.0
  0
LINE
  5
4886
  8
AM_0
 10
272.79652258065693
 20
171.3957776251986
 30
0.0
 11
274.23652258065692
 21
178.0957736251986
 31
0.0
  0
LINE
  5
4887
  8
AM_0
 10
270.7065425806569
 20
169.8157916251987
 30
0.0
 11
275.996532580657
 21
169.8157916251987
 31
0.0
  0
LINE
  5
4888
  8
AM_0
 10
133.6765325806569
 20
196.9457666251985
 30
0.0
 11
176.996532580657
 21
196.9457666251985
 31
0.0
  0
LINE
  5
4889
  8
AM_0
 10
176.996532580657
 20
194.31577462519871
 30
0.0
 11
134.54659258065681
 21
194.3157746251986
 31
0.0
  0
LINE
  5
488A
  8
AM_0
 10
133.6765325806569
 20
193.59578962519839
 30
0.0
 11
176.996532580657
 21
193.59578962519839
 31
0.0
  0
LINE
  5
488B
  8
AM_0
 10
128.996532580657
 20
196.01577262519871
 30
0.0
 11
132.166572580657
 21
196.01577262519871
 31
0.0
  0
LINE
  5
488C
  8
AM_0
 10
135.166572580657
 20
172.05578062519871
 30
0.0
 11
148.496532580657
 21
172.05578062519871
 31
0.0
  0
LINE
  5
488D
  8
AM_0
 10
151.99654258065681
 20
168.4557746251987
 30
0.0
 11
268.80652258065697
 21
168.4557746251987
 31
0.0
  0
LINE
  5
488E
  8
AM_0
 10
135.1065125806569
 20
167.01578662519859
 30
0.0
 11
148.6065125806569
 21
167.01578662519859
 31
0.0
  0
LINE
  5
488F
  8
AM_0
 10
135.22657258065681
 20
177.3357656251986
 30
0.0
 11
148.496532580657
 21
177.3357656251986
 31
0.0
  0
LINE
  5
4890
  8
AM_0
 10
132.71650258065699
 20
181.96578562519861
 30
0.0
 11
133.25653258065699
 21
178.97577862519859
 31
0.0
  0
LINE
  5
4891
  8
AM_0
 10
125.996532580657
 20
187.48578862519861
 30
0.0
 11
125.996532580657
 21
187.9557746251985
 31
0.0
  0
LINE
  5
4892
  8
AM_0
 10
128.996532580657
 20
181.9657706251985
 30
0.0
 11
138.99658258065699
 21
181.9657706251985
 31
0.0
  0
LINE
  5
4893
  8
AM_0
 10
125.996532580657
 20
182.9157656251985
 30
0.0
 11
125.996532580657
 21
183.4657706251985
 31
0.0
  0
LINE
  5
4894
  8
AM_0
 10
125.776482580657
 20
183.93577162519861
 30
0.0
 11
124.5265625806569
 21
184.5957746251986
 31
0.0
  0
LINE
  5
4895
  8
AM_0
 10
138.99658258065699
 20
181.9657706251985
 30
0.0
 11
138.99658258065699
 21
196.01577262519871
 31
0.0
  0
LINE
  5
4896
  8
AM_0
 10
125.996532580657
 20
180.8157746251986
 30
0.0
 11
125.996532580657
 21
181.34577262519861
 31
0.0
  0
LINE
  5
4897
  8
AM_0
 10
270.73651258065689
 20
169.93578562519869
 30
0.0
 11
274.19653258065688
 21
182.8557836251986
 31
0.0
  0
LINE
  5
4898
  8
AM_0
 10
133.16650258065701
 20
168.52578262519859
 30
0.0
 11
132.27649258065691
 21
172.0657736251986
 31
0.0
  0
LINE
  5
4899
  8
AM_0
 10
133.18654258065681
 20
170.18578462519869
 30
0.0
 11
132.26650258065681
 21
174.06578962519859
 31
0.0
  0
LINE
  5
489A
  8
AM_0
 10
206.996532580657
 20
166.40577262519861
 30
0.0
 11
206.996532580657
 21
168.4557746251987
 31
0.0
  0
LINE
  5
489B
  8
AM_0
 10
149.996532580657
 20
168.4257896251986
 30
0.0
 11
149.996532580657
 21
175.8357626251985
 31
0.0
  0
LINE
  5
489C
  8
AM_0
 10
130.82653258065699
 20
173.19578062519861
 30
0.0
 11
132.4765625806568
 21
173.19578062519861
 31
0.0
  0
LINE
  5
489D
  8
AM_0
 10
173.996532580657
 20
276.66576262519862
 30
0.0
 11
275.996532580657
 21
276.66576262519862
 31
0.0
  0
LINE
  5
489E
  8
AM_0
 10
275.996532580657
 20
292.81578262519861
 30
0.0
 11
275.996532580657
 21
167.8157756251986
 31
0.0
  0
LINE
  5
489F
  8
AM_0
 10
276.99658258065699
 20
293.81577262519858
 30
0.0
 11
284.99654258065692
 21
293.81577262519858
 31
0.0
  0
LINE
  5
48A0
  8
AM_0
 10
275.996532580657
 20
267.46577062519867
 30
0.0
 11
284.99654258065669
 21
267.46577062519867
 31
0.0
  0
LINE
  5
48A1
  8
AM_0
 10
276.99658258065699
 20
282.35574262519867
 30
0.0
 11
284.99654258065692
 21
282.35574262519867
 31
0.0
  0
LINE
  5
48A2
  8
AM_0
 10
275.996532580657
 20
193.1657816251986
 30
0.0
 11
284.99654258065669
 21
193.1657816251986
 31
0.0
  0
LINE
  5
48A3
  8
AM_0
 10
128.9964725806569
 20
287.74581262519882
 30
0.0
 11
131.81647258065701
 21
287.81580262519861
 31
0.0
  0
LINE
  5
48A4
  8
AM_0
 10
128.996532580657
 20
287.74578262519867
 30
0.0
 11
128.996532580657
 21
230.31577762519871
 31
0.0
  0
LINE
  5
48A5
  8
AM_0
 10
123.99658258065701
 20
278.33577262519862
 30
0.0
 11
123.99658258065701
 21
235.3157756251986
 31
0.0
  0
LINE
  5
48A6
  8
AM_0
 10
126.2665625806569
 20
280.06578262519861
 30
0.0
 11
128.49658258065699
 21
280.06578262519861
 31
0.0
  0
LINE
  5
48A7
  8
AM_0
 10
126.1965425806569
 20
266.00578162519878
 30
0.0
 11
128.29651258065681
 21
266.00578162519878
 31
0.0
  0
LINE
  5
48A8
  8
AM_0
 10
125.76655258065691
 20
279.93576262519889
 30
0.0
 11
124.496532580657
 21
279.19578262519872
 31
0.0
  0
LINE
  5
48A9
  8
AM_0
 10
125.7564725806569
 20
277.81578262519861
 30
0.0
 11
124.4765225806569
 21
277.0458026251988
 31
0.0
  0
LINE
  5
48AA
  8
AM_0
 10
125.74654258065679
 20
273.27573262519888
 30
0.0
 11
124.446552580657
 21
272.42577262519882
 31
0.0
  0
LINE
  5
48AB
  8
AM_0
 10
125.8065125806569
 20
265.92579262519871
 30
0.0
 11
124.6065125806569
 21
265.41578362519863
 31
0.0
  0
LINE
  5
48AC
  8
AM_0
 10
126.276552580657
 20
277.95576262519882
 30
0.0
 11
128.996532580657
 21
277.95576262519882
 31
0.0
  0
LINE
  5
48AD
  8
AM_0
 10
126.29659258065691
 20
273.44577262519869
 30
0.0
 11
128.996532580657
 21
273.44577262519869
 31
0.0
  0
LINE
  5
48AE
  8
AM_0
 10
126.14656258065691
 20
264.05576662519871
 30
0.0
 11
127.99654258065679
 21
264.05576662519871
 31
0.0
  0
LINE
  5
48AF
  8
AM_0
 10
126.2665625806569
 20
272.30577262519847
 30
0.0
 11
127.99654258065679
 21
272.30577262519847
 31
0.0
  0
LINE
  5
48B0
  8
AM_0
 10
126.24658258065701
 20
276.81579262519858
 30
0.0
 11
127.99654258065679
 21
276.81579262519858
 31
0.0
  0
LINE
  5
48B1
  8
AM_0
 10
126.236532580657
 20
278.91576262519862
 30
0.0
 11
128.49658258065699
 21
278.91576262519862
 31
0.0
  0
LINE
  5
48B2
  8
AM_0
 10
125.76655258065691
 20
272.16576262519862
 30
0.0
 11
124.48651258065679
 21
271.41575362519848
 31
0.0
  0
LINE
  5
48B3
  8
AM_0
 10
125.856582580657
 20
264.01575862519871
 30
0.0
 11
124.70656258065679
 21
263.6657846251988
 31
0.0
  0
LINE
  5
48B4
  8
AM_0
 10
125.78656258065691
 20
278.81577262519858
 30
0.0
 11
124.5465125806568
 21
278.18577262519869
 31
0.0
  0
LINE
  5
48B5
  8
AM_0
 10
125.776482580657
 20
276.70578262519871
 30
0.0
 11
124.526502580657
 21
276.03579262519861
 31
0.0
  0
LINE
  5
48B6
  8
AM_0
 10
127.99654258065679
 20
256.31577862519862
 30
0.0
 11
124.99654258065679
 21
256.31577862519862
 31
0.0
  0
LINE
  5
48B7
  8
AM_0
 10
127.99654258065679
 20
254.31577762519871
 30
0.0
 11
124.99654258065679
 21
254.31577762519871
 31
0.0
  0
LINE
  5
48B8
  8
AM_0
 10
127.99654258065679
 20
246.31577662519859
 30
0.0
 11
124.99654258065679
 21
246.31577662519859
 31
0.0
  0
LINE
  5
48B9
  8
AM_0
 10
127.99654258065679
 20
244.3157786251985
 30
0.0
 11
124.99654258065679
 21
244.3157786251985
 31
0.0
  0
LINE
  5
48BA
  8
AM_0
 10
127.99654258065679
 20
236.31577762519871
 30
0.0
 11
124.99654258065679
 21
236.31577762519871
 31
0.0
  0
LINE
  5
48BB
  8
AM_0
 10
127.99654258065679
 20
234.31577662519859
 30
0.0
 11
124.99654258065679
 21
234.31577662519859
 31
0.0
  0
LINE
  5
48BC
  8
AM_0
 10
125.996532580657
 20
245.9257616251987
 30
0.0
 11
125.996532580657
 21
244.71577162519861
 31
0.0
  0
LINE
  5
48BD
  8
AM_0
 10
125.996532580657
 20
235.92579262519871
 30
0.0
 11
125.996532580657
 21
234.7657586251986
 31
0.0
  0
LINE
  5
48BE
  8
AM_0
 10
125.996532580657
 20
255.9457826251986
 30
0.0
 11
125.996532580657
 21
254.5757876251987
 31
0.0
  0
LINE
  5
48BF
  8
AM_0
 10
125.996532580657
 20
265.70579362519862
 30
0.0
 11
125.996532580657
 21
264.64579462519868
 31
0.0
  0
LINE
  5
48C0
  8
AM_0
 10
125.996532580657
 20
273.1457726251985
 30
0.0
 11
125.996532580657
 21
272.67579262519871
 31
0.0
  0
LINE
  5
48C1
  8
AM_0
 10
125.996532580657
 20
277.71576262519869
 30
0.0
 11
125.996532580657
 21
277.16577262519888
 31
0.0
  0
LINE
  5
48C2
  8
AM_0
 10
125.996532580657
 20
279.81579262519858
 30
0.0
 11
125.996532580657
 21
279.28578262519858
 31
0.0
  0
LINE
  5
48C3
  8
AM_0
 10
122.49658258065701
 20
250.31577862519859
 30
0.0
 11
122.49658258065701
 21
230.31577762519871
 31
0.0
  0
LINE
  5
48C4
  8
AM_0
 10
122.4965225806569
 20
250.31580862519851
 30
0.0
 11
123.9965225806569
 21
250.4457836251986
 31
0.0
  0
LINE
  5
48C5
  8
AM_0
 10
122.49658258065701
 20
247.5957746251986
 30
0.0
 11
123.99658258065701
 21
247.5957746251986
 31
0.0
  0
LINE
  5
48C6
  8
AM_0
 10
138.99658258065699
 20
278.66577262519888
 30
0.0
 11
138.99658258065699
 21
264.62577562519868
 31
0.0
  0
LINE
  5
48C7
  8
AM_0
 10
128.996532580657
 20
264.62577562519868
 30
0.0
 11
138.99658258065699
 21
264.62577562519868
 31
0.0
  0
LINE
  5
48C8
  8
AM_0
 10
128.996532580657
 20
273.00579262519869
 30
0.0
 11
138.99658258065699
 21
273.00579262519869
 31
0.0
  0
LINE
  5
48C9
  8
AM_0
 10
128.996532580657
 20
278.66577262519888
 30
0.0
 11
138.99658258065699
 21
278.66577262519888
 31
0.0
  0
LINE
  5
48CA
  8
AM_0
 10
175.996532580657
 20
216.3157916251987
 30
0.0
 11
134.54659258065681
 21
216.3157916251987
 31
0.0
  0
LINE
  5
48CB
  8
AM_0
 10
151.99654258065681
 20
292.17579262519882
 30
0.0
 11
268.80652258065697
 21
292.17579262519882
 31
0.0
  0
LINE
  5
48CC
  8
AM_0
 10
135.22657258065681
 20
283.29579262519883
 30
0.0
 11
148.496532580657
 21
283.29579262519883
 31
0.0
  0
LINE
  5
48CD
  8
AM_0
 10
132.7165625806569
 20
278.66580262519869
 30
0.0
 11
133.25653258065699
 21
281.65581262519868
 31
0.0
  0
LINE
  5
48CE
  8
AM_0
 10
135.166572580657
 20
288.58575262519872
 30
0.0
 11
148.496532580657
 21
288.58575262519872
 31
0.0
  0
LINE
  5
48CF
  8
AM_0
 10
135.13654258065691
 20
291.98577262519882
 30
0.0
 11
148.496532580657
 21
291.98577262519882
 31
0.0
  0
LINE
  5
48D0
  8
AM_0
 10
135.1065125806569
 20
293.61576262519861
 30
0.0
 11
148.6065125806569
 21
293.61576262519861
 31
0.0
  0
LINE
  5
48D1
  8
AM_0
 10
151.99654258065681
 20
296.23578262519868
 30
0.0
 11
204.99658258065699
 21
296.23578262519868
 31
0.0
  0
LINE
  5
48D2
  8
AM_0
 10
151.99654258065681
 20
295.55577262519847
 30
0.0
 11
204.99658258065699
 21
295.55577262519847
 31
0.0
  0
LINE
  5
48D3
  8
AM_0
 10
151.99654258065681
 20
294.20580262519883
 30
0.0
 11
204.99658258065699
 21
294.20580262519883
 31
0.0
  0
LINE
  5
48D4
  8
AM_0
 10
130.7865125806569
 20
281.35578262519857
 30
0.0
 11
133.19653258065691
 21
281.35578262519857
 31
0.0
  0
LINE
  5
48D5
  8
AM_0
 10
133.20649258065691
 20
287.00580262519861
 30
0.0
 11
132.2464625806569
 21
282.53580262519853
 31
0.0
  0
LINE
  5
48D6
  8
AM_0
 10
130.8065225806568
 20
285.41577262519883
 30
0.0
 11
132.8665925806568
 21
285.41577262519883
 31
0.0
  0
LINE
  5
48D7
  8
AM_0
 10
176.996532580657
 20
266.31577762519879
 30
0.0
 11
143.54659258065681
 21
266.31577762519879
 31
0.0
  0
LINE
  5
48D8
  8
AM_0
 10
176.996532580657
 20
264.31577662519879
 30
0.0
 11
143.54659258065681
 21
264.31577662519862
 31
0.0
  0
LINE
  5
48D9
  8
AM_0
 10
175.996532580657
 20
256.31577862519862
 30
0.0
 11
143.54659258065681
 21
256.31577862519862
 31
0.0
  0
LINE
  5
48DA
  8
AM_0
 10
133.18654258065681
 20
290.44578262519877
 30
0.0
 11
132.26656258065691
 21
286.56579262519881
 31
0.0
  0
LINE
  5
48DB
  8
AM_0
 10
175.996532580657
 20
254.31577762519871
 30
0.0
 11
143.54659258065681
 21
254.31577762519871
 31
0.0
  0
LINE
  5
48DC
  8
AM_0
 10
130.82653258065699
 20
287.43576262519878
 30
0.0
 11
132.4765625806568
 21
287.43576262519878
 31
0.0
  0
LINE
  5
48DD
  8
AM_0
 10
133.16650258065701
 20
292.10577262519882
 30
0.0
 11
132.27649258065691
 21
288.57579262519857
 31
0.0
  0
LINE
  5
48DE
  8
AM_0
 10
175.996532580657
 20
246.31577662519859
 30
0.0
 11
134.54659258065681
 21
246.31577662519859
 31
0.0
  0
LINE
  5
48DF
  8
AM_0
 10
149.996532580657
 20
292.20576262519882
 30
0.0
 11
149.996532580657
 21
284.79579262519883
 31
0.0
  0
LINE
  5
48E0
  8
AM_0
 10
175.996532580657
 20
244.3157786251985
 30
0.0
 11
134.54659258065681
 21
244.3157786251985
 31
0.0
  0
LINE
  5
48E1
  8
AM_0
 10
147.59786148431101
 20
236.31577762519871
 30
0.0
 11
134.54659258065681
 21
236.31577762519871
 31
0.0
  0
LINE
  5
48E2
  8
AM_0
 10
206.996532580657
 20
294.23577262519882
 30
0.0
 11
206.996532580657
 21
292.17579262519882
 31
0.0
  0
LINE
  5
48E3
  8
AM_0
 10
147.59786148431101
 20
234.31577662519859
 30
0.0
 11
134.54659258065681
 21
234.31577662519859
 31
0.0
  0
LINE
  5
48E4
  8
AM_0
 10
270.73651258065689
 20
290.6957726251988
 30
0.0
 11
274.19653258065688
 21
277.77579262519862
 31
0.0
  0
LINE
  5
48E5
  8
AM_0
 10
270.7065425806569
 20
290.81577262519858
 30
0.0
 11
275.996532580657
 21
290.81577262519858
 31
0.0
  0
LINE
  5
48E6
  8
AM_0
 10
275.70655258065699
 20
281.35578262519857
 30
0.0
 11
273.29659258065692
 21
281.35578262519857
 31
0.0
  0
LINE
  5
48E7
  8
AM_0
 10
272.79658258065689
 20
289.23579262519871
 30
0.0
 11
274.23658258065689
 21
282.53580262519853
 31
0.0
  0
LINE
  5
48E8
  8
AM_0
 10
128.996532580657
 20
172.8857816251986
 30
0.0
 11
128.996532580657
 21
230.31577762519871
 31
0.0
  0
LINE
  5
48E9
  8
AM_0
 10
123.99658258065701
 20
181.72576462519851
 30
0.0
 11
123.99658258065701
 21
225.3157916251987
 31
0.0
  0
LINE
  5
48EA
  8
AM_0
 10
126.1965425806569
 20
194.6257736251986
 30
0.0
 11
128.29651258065681
 21
194.6257736251986
 31
0.0
  0
LINE
  5
48EB
  8
AM_0
 10
125.8065125806569
 20
194.70578962519861
 30
0.0
 11
124.6065725806569
 21
195.22576462519851
 31
0.0
  0
LINE
  5
48EC
  8
AM_0
 10
126.14656258065691
 20
196.57578562519871
 30
0.0
 11
127.99654258065679
 21
196.57578562519871
 31
0.0
  0
LINE
  5
48ED
  8
AM_0
 10
125.8565225806569
 20
196.61579362519851
 30
0.0
 11
124.70656258065679
 21
196.97579362519861
 31
0.0
  0
LINE
  5
48EE
  8
AM_0
 10
127.99654258065679
 20
204.3157916251987
 30
0.0
 11
124.99654258065679
 21
204.3157916251987
 31
0.0
  0
LINE
  5
48EF
  8
AM_0
 10
127.99654258065679
 20
206.3157746251986
 30
0.0
 11
124.99654258065679
 21
206.3157746251986
 31
0.0
  0
LINE
  5
48F0
  8
AM_0
 10
127.99654258065679
 20
214.3157756251986
 30
0.0
 11
124.99654258065679
 21
214.3157756251986
 31
0.0
  0
LINE
  5
48F1
  8
AM_0
 10
127.99654258065679
 20
216.3157916251987
 30
0.0
 11
124.99654258065679
 21
216.3157916251987
 31
0.0
  0
LINE
  5
48F2
  8
AM_0
 10
127.99654258065679
 20
224.31577762519871
 30
0.0
 11
124.99654258065679
 21
224.31577762519871
 31
0.0
  0
LINE
  5
48F3
  8
AM_0
 10
127.99654258065679
 20
226.3157756251986
 30
0.0
 11
124.99654258065679
 21
226.3157756251986
 31
0.0
  0
LINE
  5
48F4
  8
AM_0
 10
125.996532580657
 20
214.70579062519869
 30
0.0
 11
125.996532580657
 21
215.92577662519861
 31
0.0
  0
LINE
  5
48F5
  8
AM_0
 10
125.996532580657
 20
224.7057746251987
 30
0.0
 11
125.996532580657
 21
225.86579362519859
 31
0.0
  0
LINE
  5
48F6
  8
AM_0
 10
125.996532580657
 20
204.6857696251985
 30
0.0
 11
125.996532580657
 21
206.05576762519871
 31
0.0
  0
LINE
  5
48F7
  8
AM_0
 10
125.996532580657
 20
194.92577662519861
 30
0.0
 11
125.996532580657
 21
195.98577262519871
 31
0.0
  0
LINE
  5
48F8
  8
AM_0
 10
122.49658258065701
 20
210.3157916251987
 30
0.0
 11
122.49658258065701
 21
230.31577762519871
 31
0.0
  0
LINE
  5
48F9
  8
AM_0
 10
122.4965225806569
 20
210.31577662519859
 30
0.0
 11
123.9965225806569
 21
210.18577162519861
 31
0.0
  0
LINE
  5
48FA
  8
AM_0
 10
122.49658258065701
 20
213.03577762519879
 30
0.0
 11
123.99658258065701
 21
213.03577762519879
 31
0.0
  0
LINE
  5
48FB
  8
AM_0
 10
151.99654258065681
 20
164.3957756251985
 30
0.0
 11
204.99658258065699
 21
164.3957756251985
 31
0.0
  0
LINE
  5
48FC
  8
AM_0
 10
135.13654258065691
 20
168.64579162519871
 30
0.0
 11
148.496532580657
 21
168.64579162519871
 31
0.0
  0
LINE
  5
48FD
  8
AM_0
 10
128.996532580657
 20
187.62577162519861
 30
0.0
 11
138.99658258065699
 21
187.62577162519861
 31
0.0
  0
LINE
  5
48FE
  8
AM_0
 10
151.99654258065681
 20
165.07578562519871
 30
0.0
 11
204.99658258065699
 21
165.07578562519871
 31
0.0
  0
LINE
  5
48FF
  8
AM_0
 10
130.8065225806568
 20
175.21576762519859
 30
0.0
 11
132.8665925806568
 21
175.21576762519859
 31
0.0
  0
LINE
  5
4900
  8
AM_0
 10
130.7865125806569
 20
179.2857776251987
 30
0.0
 11
133.19653258065691
 21
179.2857776251987
 31
0.0
  0
LINE
  5
4901
  8
AM_0
 10
133.20655258065699
 20
173.6357816251986
 30
0.0
 11
132.2465225806568
 21
178.0957736251986
 31
0.0
  0
LINE
  5
4902
  8
AM_0
 10
151.99654258065681
 20
166.42577662519841
 30
0.0
 11
204.99658258065699
 21
166.42577662519841
 31
0.0
  0
LINE
  5
4903
  8
AM_0
 10
133.4565425806569
 20
203.82577162519871
 30
0.0
 11
175.996532580657
 21
203.82577162519871
 31
0.0
  0
LINE
  5
4904
  8
AM_0
 10
176.996532580657
 20
196.31577562519871
 30
0.0
 11
134.986572580657
 21
196.3157756251986
 31
0.0
  0
LINE
  5
4905
  8
AM_0
 10
142.6765325806569
 20
267.03577762519882
 30
0.0
 11
176.996532580657
 21
267.03577762519882
 31
0.0
  0
LINE
  5
4906
  8
AM_0
 10
142.6765325806569
 20
263.68577362519858
 30
0.0
 11
176.996532580657
 21
263.68577362519858
 31
0.0
  0
LINE
  5
4907
  8
AM_0
 10
142.4565425806569
 20
256.8057686251986
 30
0.0
 11
175.996532580657
 21
256.80576862519882
 31
0.0
  0
LINE
  5
4908
  8
AM_0
 10
142.4565425806569
 20
253.87577362519869
 30
0.0
 11
175.996532580657
 21
253.87577362519869
 31
0.0
  0
LINE
  5
4909
  8
AM_0
 10
133.32655258065699
 20
246.65577262519849
 30
0.0
 11
175.996532580657
 21
246.65577262519849
 31
0.0
  0
LINE
  5
490A
  8
AM_0
 10
133.32655258065699
 20
243.99576862519871
 30
0.0
 11
175.996532580657
 21
243.99576862519871
 31
0.0
  0
LINE
  5
490B
  8
AM_0
 10
133.26655258065691
 20
236.5857656251986
 30
0.0
 11
147.59786148431101
 21
236.5857656251986
 31
0.0
  0
LINE
  5
490C
  8
AM_0
 10
133.26655258065691
 20
234.0557666251988
 30
0.0
 11
147.59786148431101
 21
234.0557666251988
 31
0.0
  0
LINE
  5
490D
  8
AM_0
 10
149.996532580657
 20
267.55576762519888
 30
0.0
 11
149.996532580657
 21
267.48575962519863
 31
0.0
  0
LINE
  5
490E
  8
AM_0
 10
133.26655258065691
 20
226.58578162519871
 30
0.0
 11
147.59786148431101
 21
226.58578162519871
 31
0.0
  0
LINE
  5
490F
  8
AM_0
 10
147.59786148431101
 20
224.31577762519871
 30
0.0
 11
134.54659258065681
 21
224.31577762519871
 31
0.0
  0
LINE
  5
4910
  8
AM_0
 10
147.59786148431101
 20
226.3157756251986
 30
0.0
 11
134.54659258065681
 21
226.3157756251986
 31
0.0
  0
LINE
  5
4911
  8
AM_0
 10
133.32655258065699
 20
216.6357836251986
 30
0.0
 11
175.996532580657
 21
216.6357836251986
 31
0.0
  0
LINE
  5
4912
  8
AM_0
 10
122.49658258065701
 20
245.46577162519861
 30
0.0
 11
126.7765625806569
 21
245.46577162519861
 31
0.0
  0
LINE
  5
4913
  8
AM_0
 10
175.996532580657
 20
214.3157756251986
 30
0.0
 11
134.54659258065681
 21
214.3157756251986
 31
0.0
  0
LINE
  5
4914
  8
AM_0
 10
133.32655258065699
 20
213.97576462519859
 30
0.0
 11
175.996532580657
 21
213.97576462519871
 31
0.0
  0
LINE
  5
4915
  8
AM_0
 10
175.996532580657
 20
206.3157746251986
 30
0.0
 11
134.54659258065681
 21
206.3157746251986
 31
0.0
  0
LINE
  5
4916
  8
AM_0
 10
133.4565425806569
 20
206.7557786251987
 30
0.0
 11
175.996532580657
 21
206.7557786251987
 31
0.0
  0
LINE
  5
4917
  8
AM_0
 10
175.996532580657
 20
204.3157916251987
 30
0.0
 11
134.54659258065681
 21
204.3157916251987
 31
0.0
  0
LINE
  5
4918
  8
AM_0
 10
133.26655258065691
 20
224.04578662519859
 30
0.0
 11
147.59786148431101
 21
224.04578662519859
 31
0.0
  0
LINE
  5
4919
  8
AM_0
 10
122.49658258065701
 20
215.1657656251987
 30
0.0
 11
127.076532580657
 21
215.1657656251987
 31
0.0
  0
ARC
  5
491A
  8
AM_0
 10
124.9897625806569
 20
278.33370262519861
 30
0.0
 40
0.9931920599999999
 50
119.77339999999739
 51
179.8795599999996
  0
ARC
  5
491B
  8
AM_0
 10
124.992132580657
 20
277.2954626251987
 30
0.0
 40
0.9955880999999999
 50
116.5874899999971
 51
179.98225000000019
  0
ARC
  5
491C
  8
AM_0
 10
126.258552580657
 20
279.06990262519872
 30
0.0
 40
0.9959119799999999
 50
89.541443999997355
 51
119.6069899999964
  0
ARC
  5
491D
  8
AM_0
 10
126.221322580657
 20
277.92177262519863
 30
0.0
 40
0.99412809
 50
89.122808000001982
 51
115.93480999999861
  0
ARC
  5
491E
  8
AM_0
 10
126.26539258065699
 20
276.96156262519872
 30
0.0
 40
0.9942600299999999
 50
89.355882000002481
 51
120.78109000000229
  0
ARC
  5
491F
  8
AM_0
 10
126.2316425806569
 20
275.82042262519872
 30
0.0
 40
0.99546798
 50
89.141448000001574
 51
117.20366
  0
ARC
  5
4920
  8
AM_0
 10
126.3031625806569
 20
272.44956262519872
 30
0.0
 40
0.9962120399999999
 50
90.381906000001862
 51
123.96990000000081
  0
ARC
  5
4921
  8
AM_0
 10
126.27595258065691
 20
271.30927762519877
 30
0.0
 40
0.9965200799999999
 50
90.541212999999502
 51
120.7432800000018
  0
ARC
  5
4922
  8
AM_0
 10
124.9906025806569
 20
270.55897162519858
 30
0.0
 40
0.9940760400000001
 50
120.4692000000029
 51
180.18464
  0
ARC
  5
4923
  8
AM_0
 10
124.99135258065699
 20
271.59336562519871
 30
0.0
 40
0.9948280200000002
 50
123.2046899999999
 51
180.43813000000009
  0
ARC
  5
4924
  8
AM_0
 10
124.9897625806569
 20
275.15721262519878
 30
0.0
 40
0.99321207
 50
117.7993399999968
 51
180.08183
  0
ARC
  5
4925
  8
AM_0
 10
124.9909625806568
 20
276.19473262519858
 30
0.0
 40
0.99443607
 50
121.1521699999997
 51
179.94049000000001
  0
ARC
  5
4926
  8
AM_0
 10
126.197532580657
 20
265.0102976251988
 30
0.0
 40
0.9954800999999999
 50
90.057320999998737
 51
113.12703000000251
  0
ARC
  5
4927
  8
AM_0
 10
142.1372225806569
 20
189.09665962519861
 30
0.0
 40
1.00423602
 50
314.93783000000269
 51
5.6649238999999572
  0
ARC
  5
4928
  8
AM_0
 10
126.135702580657
 20
263.06306062519872
 30
0.0
 40
0.992772
 50
89.374808000000044
 51
106.3318199999993
  0
ARC
  5
4929
  8
AM_0
 10
124.9927925806569
 20
262.71152962519858
 30
0.0
 40
0.9962600700000001
 50
106.6974899999997
 51
180.33049000000011
  0
ARC
  5
492A
  8
AM_0
 10
124.9929425806568
 20
264.49735762519867
 30
0.0
 40
0.99640008
 50
112.8173899999988
 51
180.0904000000003
  0
ARC
  5
492B
  8
AM_0
 10
124.9915925806568
 20
255.32069062519869
 30
0.0
 40
0.9950800799999999
 50
89.715921000001259
 51
180.28407000000001
  0
ARC
  5
492C
  8
AM_0
 10
124.99672258065679
 20
255.31598962519871
 30
0.0
 40
1.000203989999999
 50
180.01166999999961
 51
269.98832000000078
  0
ARC
  5
492D
  8
AM_0
 10
124.9915925806568
 20
245.32069162519861
 30
0.0
 40
0.99508401
 50
89.71613299999747
 51
180.28387000000041
  0
ARC
  5
492E
  8
AM_0
 10
124.99672258065679
 20
245.31599062519871
 30
0.0
 40
1.0002000600000001
 50
180.01146999999989
 51
269.98853000000008
  0
ARC
  5
492F
  8
AM_0
 10
124.9915925806568
 20
235.32071962519859
 30
0.0
 40
0.9950879999999999
 50
89.716345000002846
 51
180.28364999999971
  0
ARC
  5
4930
  8
AM_0
 10
124.99672258065679
 20
235.31595862519859
 30
0.0
 40
1.00019601
 50
180.01125000000019
 51
269.98873999999932
  0
ARC
  5
4931
  8
AM_0
 10
127.99672258065679
 20
233.31593062519869
 30
0.0
 40
0.9998480400000001
 50
359.99121999999971
 51
90.008778999998157
  0
ARC
  5
4932
  8
AM_0
 10
127.9916525806569
 20
237.32069062519861
 30
0.0
 40
1.00492398
 50
270.2800100000029
 51
359.71998999999971
  0
ARC
  5
4933
  8
AM_0
 10
127.99672258065679
 20
243.31592962519861
 30
0.0
 40
0.9998440499999999
 50
359.99101000000041
 51
90.008990999998574
  0
ARC
  5
4934
  8
AM_0
 10
127.9916525806569
 20
247.32068962519861
 30
0.0
 40
1.0049280299999981
 50
270.28021999999987
 51
359.7197800000003
  0
ARC
  5
4935
  8
AM_0
 10
127.99672258065679
 20
253.31592862519861
 30
0.0
 40
0.9998520899999999
 50
359.9914500000001
 51
90.008547000002125
  0
ARC
  5
4936
  8
AM_0
 10
127.9916525806569
 20
257.32069162519861
 30
0.0
 40
1.0049319599999991
 50
270.28041999999692
 51
359.71957999999978
  0
ARC
  5
4937
  8
AM_0
 10
127.998252580657
 20
263.05747762519889
 30
0.0
 40
0.99829605
 50
359.90203999999977
 51
90.097960999998946
  0
ARC
  5
4938
  8
AM_0
 10
127.9941425806569
 20
271.30341862519867
 30
0.0
 40
1.0023759899999991
 50
0.1355919899998461
 51
89.86440999999931
  0
ARC
  5
4939
  8
AM_0
 10
128.2920125806568
 20
266.71030762519882
 30
0.0
 40
0.70455201
 50
270.36910999999952
 51
359.63088999999962
  0
ARC
  5
493A
  8
AM_0
 10
127.9975625806569
 20
275.8167926251989
 30
0.0
 40
0.9990081
 50
359.9431499999996
 51
90.056843000002615
  0
ARC
  5
493B
  8
AM_0
 10
128.4981725806569
 20
278.41743262519873
 30
0.0
 40
0.49836402
 50
359.81140999999991
 51
90.188598000000837
  0
ARC
  5
493C
  8
AM_0
 10
128.4919625806568
 20
280.57038262519848
 30
0.0
 40
0.504636
 50
270.52375999999958
 51
359.47623999999968
  0
ARC
  5
493D
  8
AM_0
 10
276.99676258065699
 20
167.81595862519859
 30
0.0
 40
1.0001800499999991
 50
180.01030999999969
 51
269.98967999999991
  0
ARC
  5
493E
  8
AM_0
 10
268.80121258065702
 20
170.4611606251986
 30
0.0
 40
2.0053919100000002
 50
270.15274999999968
 51
344.81207000000018
  0
ARC
  5
493F
  8
AM_0
 10
276.99604258065699
 20
179.2752476251986
 30
0.0
 40
0.99947604
 50
179.9700899999994
 51
270.02992000000029
  0
ARC
  5
4940
  8
AM_0
 10
135.2176025806568
 20
281.3033426251987
 30
0.0
 40
1.9924480200000001
 50
89.742107999997444
 51
169.8117899999998
  0
ARC
  5
4941
  8
AM_0
 10
135.161382580657
 20
286.58649262519862
 30
0.0
 40
1.9992880199999981
 50
89.851815000002887
 51
167.89433000000321
  0
ARC
  5
4942
  8
AM_0
 10
130.78084258065681
 20
282.85599262519872
 30
0.0
 40
1.5002480099999991
 50
270.21661999999759
 51
347.67500000000092
  0
ARC
  5
4943
  8
AM_0
 10
135.1286225806569
 20
289.99125262519868
 30
0.0
 40
1.9945160699999991
 50
89.771334999999539
 51
166.82804000000181
  0
ARC
  5
4944
  8
AM_0
 10
130.8049925806568
 20
286.91958262519847
 30
0.0
 40
1.5037760099999991
 50
270.05983999999802
 51
346.39313000000351
  0
ARC
  5
4945
  8
AM_0
 10
130.8178325806569
 20
288.93897262519857
 30
0.0
 40
1.5032320499999969
 50
270.33131999999961
 51
346.0180299999974
  0
ARC
  5
4946
  8
AM_0
 10
135.10309258065681
 20
291.61896262519872
 30
0.0
 40
1.996816109999999
 50
89.901436000000672
 51
165.88940999999741
  0
ARC
  5
4947
  8
AM_0
 10
151.99195258065691
 20
290.18040262519872
 30
0.0
 40
1.9953641399999991
 50
89.86675900000246
 51
180.13323000000031
  0
ARC
  5
4948
  8
AM_0
 10
151.99273258065691
 20
292.20957262519869
 30
0.0
 40
1.99618809
 50
89.890487000003006
 51
180.10951000000031
  0
ARC
  5
4949
  8
AM_0
 10
151.9901225806569
 20
293.56224262519868
 30
0.0
 40
1.993556189999999
 50
89.814515000000938
 51
180.1854899999997
  0
ARC
  5
494A
  8
AM_0
 10
151.99207258065701
 20
294.23703262519871
 30
0.0
 40
1.998724049999999
 50
89.871136999999536
 51
165.55095999999691
  0
ARC
  5
494B
  8
AM_0
 10
148.48987258065699
 20
284.80248262519882
 30
0.0
 40
1.5066999599999991
 50
270.25416000000098
 51
359.74583999999987
  0
ARC
  5
494C
  8
AM_0
 10
148.4937125806569
 20
290.08860262519869
 30
0.0
 40
1.5028360199999991
 50
270.10793999999891
 51
359.8920600000003
  0
ARC
  5
494D
  8
AM_0
 10
148.49170258065701
 20
293.49063262519883
 30
0.0
 40
1.5048719999999991
 50
270.1851800000012
 51
359.81481999999971
  0
ARC
  5
494E
  8
AM_0
 10
148.60315258065691
 20
295.11879262519869
 30
0.0
 40
1.50301605
 50
270.1294500000032
 51
345.23654000000022
  0
ARC
  5
494F
  8
AM_0
 10
204.99562258065691
 20
292.20483262519861
 30
0.0
 40
2.0009239199999991
 50
0.0264629990003886
 51
89.973535999999072
  0
ARC
  5
4950
  8
AM_0
 10
204.99823258065689
 20
293.55747262519873
 30
0.0
 40
1.9982920200000001
 50
359.95102999999978
 51
90.048975000001789
  0
ARC
  5
4951
  8
AM_0
 10
204.99475258065689
 20
294.2339726251987
 30
0.0
 40
2.0018279999999971
 50
0.0523009999998829
 51
89.947697000000545
  0
ARC
  5
4952
  8
AM_0
 10
275.64679258065689
 20
278.1681626251987
 30
0.0
 40
1.50239199
 50
195.14001000000059
 51
269.99063999999998
  0
ARC
  5
4953
  8
AM_0
 10
268.80610258065701
 20
290.1768026251986
 30
0.0
 40
1.99898796
 50
15.047800999999771
 51
89.98737299999874
  0
ARC
  5
4954
  8
AM_0
 10
276.991602580657
 20
292.82073262519862
 30
0.0
 40
0.9950640599999999
 50
89.714938000000444
 51
180.28505999999959
  0
ARC
  5
4955
  8
AM_0
 10
276.99091258065698
 20
281.36139262519868
 30
0.0
 40
0.99440004
 50
89.676491000000041
 51
180.3235100000002
  0
ARC
  5
4956
  8
AM_0
 10
275.70241258065698
 20
282.85623262519857
 30
0.0
 40
1.500476039999997
 50
192.33223000000021
 51
270.15827999999971
  0
ARC
  5
4957
  8
AM_0
 10
270.84400258065688
 20
288.81930262519847
 30
0.0
 40
1.9964880300000001
 50
12.04087499999966
 51
89.926441000002598
  0
ARC
  5
4958
  8
AM_0
 10
127.9932425806569
 20
197.57912662519871
 30
0.0
 40
1.0033640100000001
 50
270.19170999999869
 51
359.80827999999963
  0
ARC
  5
4959
  8
AM_0
 10
127.9916525806569
 20
207.32069062519869
 30
0.0
 40
1.00492398
 50
270.2800399999993
 51
359.71996999999988
  0
ARC
  5
495A
  8
AM_0
 10
127.99672258065679
 20
203.3159426251986
 30
0.0
 40
0.9998480400000001
 50
359.9911900000003
 51
90.008806999998683
  0
ARC
  5
495B
  8
AM_0
 10
128.2971125806568
 20
193.9263416251986
 30
0.0
 40
0.69944001
 50
359.95415999999977
 51
90.045840000000183
  0
ARC
  5
495C
  8
AM_0
 10
126.1995425806569
 20
195.63100762519861
 30
0.0
 40
1.0052240100000001
 50
246.9862899999986
 51
269.82935999999711
  0
ARC
  5
495D
  8
AM_0
 10
126.13708258065689
 20
197.57846962519861
 30
0.0
 40
1.00272801
 50
253.75297000000219
 51
270.54039999999941
  0
ARC
  5
495E
  8
AM_0
 10
124.9929425806568
 20
197.9301236251986
 30
0.0
 40
0.99638007
 50
180.24949000000009
 51
253.29707000000161
  0
ARC
  5
495F
  8
AM_0
 10
124.9930625806569
 20
196.14425062519859
 30
0.0
 40
0.9964760700000001
 50
179.91257999999991
 51
247.1796599999997
  0
ARC
  5
4960
  8
AM_0
 10
124.99672258065679
 20
205.31597362519869
 30
0.0
 40
1.00019601
 50
180.0112799999998
 51
269.98871999999687
  0
ARC
  5
4961
  8
AM_0
 10
124.9915925806568
 20
205.32071962519871
 30
0.0
 40
0.99508401
 50
89.716324000002615
 51
180.28367999999989
  0
ARC
  5
4962
  8
AM_0
 10
124.99672258065679
 20
215.31599062519851
 30
0.0
 40
1.0002000600000001
 50
180.0115000000003
 51
269.9885099999978
  0
ARC
  5
4963
  8
AM_0
 10
124.9915925806568
 20
215.32070362519869
 30
0.0
 40
0.99508401
 50
89.716105999999499
 51
180.2838900000003
  0
ARC
  5
4964
  8
AM_0
 10
124.99672258065679
 20
225.3159896251986
 30
0.0
 40
1.000203989999999
 50
180.01169999999999
 51
269.98829999999828
  0
ARC
  5
4965
  8
AM_0
 10
124.9915925806568
 20
225.32070562519871
 30
0.0
 40
0.9950800799999999
 50
89.715894000002734
 51
180.28409999999951
  0
ARC
  5
4966
  8
AM_0
 10
127.9915925806568
 20
227.32070662519871
 30
0.0
 40
1.0049319599999991
 50
270.280450000001
 51
359.71954999999969
  0
ARC
  5
4967
  8
AM_0
 10
127.99672258065679
 20
223.31592862519869
 30
0.0
 40
0.9998520899999999
 50
359.99143000000038
 51
90.008574000001204
  0
ARC
  5
4968
  8
AM_0
 10
127.9916525806569
 20
217.32068962519861
 30
0.0
 40
1.0049280299999981
 50
270.28023999999988
 51
359.71976000000001
  0
ARC
  5
4969
  8
AM_0
 10
127.99672258065679
 20
213.31592962519861
 30
0.0
 40
0.9998440499999999
 50
359.99098000000021
 51
90.009017999997724
  0
ARC
  5
496A
  8
AM_0
 10
138.1548425806568
 20
271.90858162519862
 30
0.0
 40
5.0041124999999971
 50
279.68356999999992
 51
354.57834000000031
  0
ARC
  5
496B
  8
AM_0
 10
138.6173225806568
 20
267.98286262519889
 30
0.0
 40
6.0049157999999991
 50
45.227307000002483
 51
86.379093999999739
  0
ARC
  5
496C
  8
AM_0
 10
142.14052258065681
 20
271.5360536251988
 30
0.0
 40
1.001108069999999
 50
354.25025000000022
 51
45.146993999995608
  0
ARC
  5
496D
  8
AM_0
 10
270.83899258065702
 20
171.8183846251986
 30
0.0
 40
2.0026238699999981
 50
270.21533999999821
 51
347.8173399999996
  0
ARC
  5
496E
  8
AM_0
 10
275.70361258065691
 20
177.7864616251986
 30
0.0
 40
1.499328059999999
 50
89.888151000000079
 51
168.0938400000029
  0
ARC
  5
496F
  8
AM_0
 10
138.626532580657
 20
192.6629576251986
 30
0.0
 40
6.0085923000000001
 50
273.53095000000269
 51
314.61477999999693
  0
ARC
  5
4970
  8
AM_0
 10
138.15991258065679
 20
188.7277016251987
 30
0.0
 40
4.9985837999999987
 50
5.373119900000118
 51
80.364975999996858
  0
ARC
  5
4971
  8
AM_0
 10
124.9941425806569
 20
182.3004416251986
 30
0.0
 40
0.9976240799999999
 50
180.2675099999997
 51
240.07953999999859
  0
ARC
  5
4972
  8
AM_0
 10
124.9921925806569
 20
183.3461396251987
 30
0.0
 40
0.9956680199999999
 50
180.02043
 51
243.4098300000008
  0
ARC
  5
4973
  8
AM_0
 10
126.2772425806569
 20
181.56685762519871
 30
0.0
 40
1.0011359699999991
 50
239.32800000000231
 51
269.38750999999928
  0
ARC
  5
4974
  8
AM_0
 10
126.24238258065699
 20
182.7150356251986
 30
0.0
 40
0.999288
 50
242.8612699999984
 51
269.66619000000128
  0
ARC
  5
4975
  8
AM_0
 10
126.267882580657
 20
183.6794366251986
 30
0.0
 40
1.0036880100000001
 50
239.37027000000029
 51
270.4927499999975
  0
ARC
  5
4976
  8
AM_0
 10
126.2517125806569
 20
184.81640062519861
 30
0.0
 40
1.00062801
 50
241.64986000000181
 51
269.70470999999941
  0
ARC
  5
4977
  8
AM_0
 10
126.28930258065679
 20
188.1962846251987
 30
0.0
 40
1.0005359999999981
 50
237.14640000000011
 51
270.41322000000213
  0
ARC
  5
4978
  8
AM_0
 10
126.259902580657
 20
189.3367706251986
 30
0.0
 40
1.0010120099999991
 50
240.47136000000179
 51
270.3801999999971
  0
ARC
  5
4979
  8
AM_0
 10
124.9956125806569
 20
189.04046062519839
 30
0.0
 40
0.99910005
 50
179.69542000000021
 51
236.66176999999641
  0
ARC
  5
497A
  8
AM_0
 10
124.99426258065679
 20
185.47707562519849
 30
0.0
 40
0.9977079899999999
 50
180.07405000000031
 51
242.0447600000013
  0
ARC
  5
497B
  8
AM_0
 10
124.9953125806569
 20
184.43927962519851
 30
0.0
 40
0.9987801
 50
179.6266700000001
 51
238.70854999999889
  0
ARC
  5
497C
  8
AM_0
 10
127.99408258065679
 20
189.3382376251985
 30
0.0
 40
1.00246002
 50
270.14037999999903
 51
359.85962000000018
  0
ARC
  5
497D
  8
AM_0
 10
124.99501258065681
 20
190.0750826251986
 30
0.0
 40
0.9984600300000001
 50
179.95962000000031
 51
239.3865500000025
  0
ARC
  5
497E
  8
AM_0
 10
127.9924925806568
 20
184.8198656251985
 30
0.0
 40
1.004084009999999
 50
270.23262999999707
 51
359.76736999999957
  0
ARC
  5
497F
  8
AM_0
 10
128.49310258065691
 20
182.21917162519861
 30
0.0
 40
0.50340399
 50
270.38612999999822
 51
359.61387000000008
  0
ARC
  5
4980
  8
AM_0
 10
128.49694258065679
 20
180.06621862519859
 30
0.0
 40
0.4995560100000003
 50
359.94910999999979
 51
90.050893999997584
  0
ARC
  5
4981
  8
AM_0
 10
135.2226125806568
 20
179.33420662519859
 30
0.0
 40
1.998444029999999
 50
190.33239999999941
 51
270.11369000000047
  0
ARC
  5
4982
  8
AM_0
 10
135.16144258065691
 20
174.05515462519861
 30
0.0
 40
1.9993920899999991
 50
192.10804000000101
 51
270.14581999999967
  0
ARC
  5
4983
  8
AM_0
 10
130.77967258065701
 20
177.78669262519861
 30
0.0
 40
1.499099999999999
 50
11.89856000000028
 51
89.736657999997206
  0
ARC
  5
4984
  8
AM_0
 10
135.13354258065681
 20
170.64653962519861
 30
0.0
 40
2.0007560699999991
 50
193.3141600000026
 51
270.08645000000308
  0
ARC
  5
4985
  8
AM_0
 10
130.80994258065701
 20
173.71827262519869
 30
0.0
 40
1.497512039999999
 50
13.418232999996709
 51
90.128792999998822
  0
ARC
  5
4986
  8
AM_0
 10
130.8243425806568
 20
171.69765562519859
 30
0.0
 40
1.4981280899999969
 50
14.224575000000151
 51
89.916113999998913
  0
ARC
  5
4987
  8
AM_0
 10
135.10804258065679
 20
169.0189166251987
 30
0.0
 40
2.0031319199999991
 50
194.25158999999951
 51
269.9575499999994
  0
ARC
  5
4988
  8
AM_0
 10
151.99702258065699
 20
170.45621662519861
 30
0.0
 40
2.000452109999999
 50
180.01290000000029
 51
269.98709999999971
  0
ARC
  5
4989
  8
AM_0
 10
151.99786258065691
 20
168.42708862519871
 30
0.0
 40
2.0013120899999981
 50
180.0375599999997
 51
269.9624399999978
  0
ARC
  5
498A
  8
AM_0
 10
151.99519258065681
 20
167.07439462519869
 30
0.0
 40
1.9986199799999991
 50
179.96047000000021
 51
270.03953000000138
  0
ARC
  5
498B
  8
AM_0
 10
151.99048258065699
 20
166.4058326251986
 30
0.0
 40
2.0000761200000001
 50
194.77497999999869
 51
270.17353000000168
  0
ARC
  5
498C
  8
AM_0
 10
148.495002580657
 20
175.83420862519861
 30
0.0
 40
1.5015680099999991
 50
0.0598050030001859
 51
89.940197000002485
  0
ARC
  5
498D
  8
AM_0
 10
148.493832580657
 20
170.5530656251986
 30
0.0
 40
1.50271599
 50
0.103436000000126
 51
89.896566000000192
  0
ARC
  5
498E
  8
AM_0
 10
148.49683258065701
 20
167.14601962519859
 30
0.0
 40
1.49975601
 50
359.99058999999983
 51
90.009408000002935
  0
ARC
  5
498F
  8
AM_0
 10
148.608102580657
 20
165.51912862519859
 30
0.0
 40
1.49664405
 50
14.575739999999531
 51
90.058277999998381
  0
ARC
  5
4990
  8
AM_0
 10
204.99055258065701
 20
168.4318016251986
 30
0.0
 40
2.0060480100000002
 50
270.17249000000203
 51
359.8275100000003
  0
ARC
  5
4991
  8
AM_0
 10
204.99316258065701
 20
167.07914062519859
 30
0.0
 40
2.0033560499999981
 50
270.09594000000141
 51
359.90406000000007
  0
ARC
  5
4992
  8
AM_0
 10
204.99463258065691
 20
166.4076626251987
 30
0.0
 40
2.0019000299999981
 50
270.05437999999742
 51
359.94562000000008
  0
ARC
  5
4993
  8
AM_0
 10
275.641932580657
 20
182.46979762519871
 30
0.0
 40
1.49599605
 50
89.82170699999979
 51
165.0476600000033
  0
ARC
  5
4994
  8
AM_0
 10
150.9917825806568
 20
245.31577762519879
 30
0.0
 40
1.000011959999999
 50
89.726508000002895
 51
270.27347999999972
  0
ARC
  5
4995
  8
AM_0
 10
150.9917825806568
 20
255.31577662519851
 30
0.0
 40
1.000011959999999
 50
89.726508000002895
 51
270.27347999999972
  0
ARC
  5
4996
  8
AM_0
 10
150.9917825806568
 20
265.31577862519862
 30
0.0
 40
1.000011959999999
 50
89.726508000002895
 51
270.27347999999972
  0
ARC
  5
4997
  8
AM_0
 10
133.2607625806568
 20
235.32078262519869
 30
0.0
 40
1.26501207
 50
89.737716000001512
 51
270.26228000000299
  0
ARC
  5
4998
  8
AM_0
 10
133.32655258065699
 20
245.32578562519871
 30
0.0
 40
1.330008059999999
 50
90.00000299999769
 51
270.0
  0
ARC
  5
4999
  8
AM_0
 10
142.4565425806569
 20
255.34077262519861
 30
0.0
 40
1.465004009999999
 50
90.00000299999769
 51
270.0
  0
ARC
  5
499A
  8
AM_0
 10
142.66969258065691
 20
265.36076062519868
 30
0.0
 40
1.675016099999997
 50
89.766539999997363
 51
270.23346000000248
  0
ARC
  5
499B
  8
AM_0
 10
134.54659258065681
 20
235.3157756251986
 30
0.0
 40
1.0000000199999981
 50
90.00000299999769
 51
270.0
  0
ARC
  5
499C
  8
AM_0
 10
134.54659258065681
 20
245.31577762519879
 30
0.0
 40
1.0000000199999981
 50
90.00000299999769
 51
270.0
  0
ARC
  5
499D
  8
AM_0
 10
143.54182258065691
 20
265.31577862519862
 30
0.0
 40
1.000011959999999
 50
89.728448000002629
 51
270.27154000000212
  0
ARC
  5
499E
  8
AM_0
 10
143.54182258065691
 20
255.31577662519851
 30
0.0
 40
1.000011959999999
 50
89.728448000002629
 51
270.27154000000212
  0
ARC
  5
499F
  8
AM_0
 10
272.81653258065688
 20
265.36076062519868
 30
0.0
 40
1.675004159999999
 50
276.16905573844627
 51
83.830944261553654
  0
ARC
  5
49A0
  8
AM_0
 10
272.81653258065688
 20
195.27079162519871
 30
0.0
 40
1.675004159999999
 50
276.16905573845293
 51
83.83094426154706
  0
ARC
  5
49A1
  8
AM_0
 10
134.54659258065681
 20
225.3157916251987
 30
0.0
 40
1.0000000199999981
 50
90.00000299999769
 51
270.0
  0
ARC
  5
49A2
  8
AM_0
 10
150.9917825806568
 20
215.31577762519871
 30
0.0
 40
1.000011959999999
 50
89.726508000002895
 51
270.27347999999972
  0
ARC
  5
49A3
  8
AM_0
 10
150.9917825806568
 20
205.3157756251986
 30
0.0
 40
1.000011959999999
 50
89.726508000002895
 51
270.27347999999972
  0
ARC
  5
49A4
  8
AM_0
 10
133.32655258065699
 20
215.3057816251987
 30
0.0
 40
1.330008059999999
 50
90.00000299999769
 51
270.0
  0
ARC
  5
49A5
  8
AM_0
 10
133.4565425806569
 20
205.29078262519869
 30
0.0
 40
1.465004009999999
 50
90.00000299999769
 51
270.0
  0
ARC
  5
49A6
  8
AM_0
 10
134.54182258065691
 20
195.3157916251987
 30
0.0
 40
1.000011959999999
 50
89.728461999997137
 51
270.27154000000212
  0
ARC
  5
49A7
  8
AM_0
 10
150.9917825806568
 20
195.3157916251987
 30
0.0
 40
1.000011959999999
 50
89.726508000002895
 51
270.27347999999972
  0
ARC
  5
49A8
  8
AM_0
 10
133.2607625806568
 20
225.3157916251987
 30
0.0
 40
1.2700120500000001
 50
89.738748000000555
 51
270.26124000000118
  0
ARC
  5
49A9
  8
AM_0
 10
133.66969258065691
 20
195.27079162519871
 30
0.0
 40
1.675016099999997
 50
89.764982999997315
 51
270.23500999999908
  0
ARC
  5
49AA
  8
AM_0
 10
134.54659258065681
 20
215.31577762519871
 30
0.0
 40
1.0000000199999981
 50
90.00000299999769
 51
270.0
  0
ARC
  5
49AB
  8
AM_0
 10
134.54182258065691
 20
205.3157756251986
 30
0.0
 40
1.000011959999999
 50
89.728461999997137
 51
270.27154000000212
  0
LINE
  5
49AD
  8
ﾁｭｳｼﾝｾﾝ
 10
224.996532580657
 20
281.31577762519879
 30
0.0
 11
224.996532580657
 21
179.31577762519871
 31
0.0
  0
LINE
  5
49AE
  8
AM_0
 10
268.99653258065712
 20
184.31577762519871
 30
0.0
 11
180.996532580657
 21
184.31577762519871
 31
0.0
  0
ARC
  5
49AF
  8
AM_0
 10
199.06760039252239
 20
189.31577762519871
 30
0.0
 40
5.0
 50
225.0
 51
270.0
1001
GENIUS_GENOBJ-N-FIL_13
1002
{
1000
OWNER
1000
GEN
1002
}
1001
GENIUS_GENODEF_13
1002
{
1000
HIER
1070
     0
1002
}
1002
{
1000
MANEDIT
1070
     0
1002
}
1002
{
1000
NOSEL
1070
     0
1002
}
1002
{
1000
BEHIND
1070
     0
1002
}
1002
{
1000
OTHER
1070
     0
1002
}
1002
{
1000
REACTOR
1002
}
  0
LINE
  5
49B0
  8
AM_0
 10
250.2686105192993
 20
189.31577762519871
 30
0.0
 11
199.72445464201471
 21
189.31577762519871
 31
0.0
  0
ARC
  5
49B1
  8
AM_0
 10
250.2686105192993
 20
194.31577762519871
 30
0.0
 40
5.0
 50
270.0
 51
315.0
1001
GENIUS_GENOBJ-N-FIL_13
1002
{
1000
OWNER
1000
GEN
1002
}
1001
GENIUS_GENODEF_13
1002
{
1000
HIER
1070
     0
1002
}
1002
{
1000
MANEDIT
1070
     0
1002
}
1002
{
1000
NOSEL
1070
     0
1002
}
1002
{
1000
BEHIND
1070
     0
1002
}
1002
{
1000
OTHER
1070
     0
1002
}
1002
{
1000
REACTOR
1002
}
  0
ARC
  5
49B2
  8
AM_0
 10
268.99653258065712
 20
188.31577762519871
 30
0.0
 40
4.0
 50
270.0
 51
0.0
1001
GENIUS_GENOBJ-N-FIL_13
1002
{
1000
OWNER
1000
GEN
1002
}
1001
GENIUS_GENODEF_13
1002
{
1000
HIER
1070
     0
1002
}
1002
{
1000
MANEDIT
1070
     0
1002
}
1002
{
1000
NOSEL
1070
     0
1002
}
1002
{
1000
BEHIND
1070
     0
1002
}
1002
{
1000
OTHER
1070
     0
1002
}
1002
{
1000
REACTOR
1002
}
  0
LINE
  5
49B3
  8
AM_0
 10
268.99653258065689
 20
276.31577762519902
 30
0.0
 11
180.996532580657
 21
276.31577762519902
 31
0.0
  0
ARC
  5
49B4
  8
AM_0
 10
250.9254647687915
 20
271.31577762519902
 30
0.0
 40
5.0
 50
45.0
 51
90.0
1001
GENIUS_GENOBJ-N-FIL_13
1002
{
1000
OWNER
1000
GEN
1002
}
1001
GENIUS_GENODEF_13
1002
{
1000
HIER
1070
     0
1002
}
1002
{
1000
MANEDIT
1070
     0
1002
}
1002
{
1000
NOSEL
1070
     0
1002
}
1002
{
1000
BEHIND
1070
     0
1002
}
1002
{
1000
OTHER
1070
     0
1002
}
1002
{
1000
REACTOR
1002
}
  0
ARC
  5
49B5
  8
AM_0
 10
199.06760039252251
 20
271.31577762519902
 30
0.0
 40
5.0
 50
90.0
 51
135.0
1001
GENIUS_GENODEF_13
1002
{
1000
HIER
1070
     0
1002
}
1002
{
1000
MANEDIT
1070
     0
1002
}
1002
{
1000
NOSEL
1070
     0
1002
}
1002
{
1000
BEHIND
1070
     0
1002
}
1002
{
1000
OTHER
1070
     0
1002
}
1002
{
1000
REACTOR
1002
}
1001
GENIUS_GENOBJ-N-FIL_13
1002
{
1000
OWNER
1000
GEN
1002
}
  0
LINE
  5
49B6
  8
AM_0
 10
250.26861051929919
 20
271.31577762519902
 30
0.0
 11
199.72445464201479
 21
271.31577762519902
 31
0.0
  0
ARC
  5
49B7
  8
AM_0
 10
199.72445464201479
 20
266.31577762519902
 30
0.0
 40
5.0
 50
90.0
 51
135.0
1001
GENIUS_GENODEF_13
1002
{
1000
HIER
1070
     0
1002
}
1002
{
1000
MANEDIT
1070
     0
1002
}
1002
{
1000
NOSEL
1070
     0
1002
}
1002
{
1000
BEHIND
1070
     0
1002
}
1002
{
1000
OTHER
1070
     0
1002
}
1002
{
1000
REACTOR
1002
}
1001
GENIUS_GENOBJ-N-FIL_13
1002
{
1000
OWNER
1000
GEN
1002
}
  0
ARC
  5
49B8
  8
AM_0
 10
180.996532580657
 20
272.31577762519902
 30
0.0
 40
4.0
 50
90.0
 51
180.0
1001
GENIUS_GENODEF_13
1002
{
1000
HIER
1070
     0
1002
}
1002
{
1000
MANEDIT
1070
     0
1002
}
1002
{
1000
NOSEL
1070
     0
1002
}
1002
{
1000
BEHIND
1070
     0
1002
}
1002
{
1000
OTHER
1070
     0
1002
}
1002
{
1000
REACTOR
1002
}
1001
GENIUS_GENOBJ-N-FIL_13
1002
{
1000
OWNER
1000
GEN
1002
}
  0
LINE
  5
49B9
  8
AM_0
 10
176.996532580657
 20
272.31577762519902
 30
0.0
 11
176.996532580657
 21
188.31577762519871
 31
0.0
  0
ARC
  5
49BA
  8
AM_0
 10
181.996532580657
 20
206.38684543706401
 30
0.0
 40
5.0
 50
180.0
 51
225.0
1001
GENIUS_GENOBJ-N-FIL_13
1002
{
1000
OWNER
1000
GEN
1002
}
1001
GENIUS_GENODEF_13
1002
{
1000
HIER
1070
     0
1002
}
1002
{
1000
MANEDIT
1070
     0
1002
}
1002
{
1000
NOSEL
1070
     0
1002
}
1002
{
1000
BEHIND
1070
     0
1002
}
1002
{
1000
OTHER
1070
     0
1002
}
1002
{
1000
REACTOR
1002
}
  0
ARC
  5
49BB
  8
AM_0
 10
181.996532580657
 20
254.24470981333371
 30
0.0
 40
5.0
 50
135.0
 51
180.0
1001
GENIUS_GENOBJ-N-FIL_13
1002
{
1000
OWNER
1000
GEN
1002
}
1001
GENIUS_GENODEF_13
1002
{
1000
HIER
1070
     0
1002
}
1002
{
1000
MANEDIT
1070
     0
1002
}
1002
{
1000
NOSEL
1070
     0
1002
}
1002
{
1000
BEHIND
1070
     0
1002
}
1002
{
1000
OTHER
1070
     0
1002
}
1002
{
1000
REACTOR
1002
}
  0
LINE
  5
49BC
  8
AM_0
 10
181.996532580657
 20
253.587855563841
 30
0.0
 11
181.99653258065689
 21
207.04369968655649
 31
0.0
  0
ARC
  5
49BD
  8
AM_0
 10
186.99653258065689
 20
207.04369968655649
 30
0.0
 40
5.0
 50
180.0
 51
225.0
1001
GENIUS_GENOBJ-N-FIL_13
1002
{
1000
OWNER
1000
GEN
1002
}
1001
GENIUS_GENODEF_13
1002
{
1000
HIER
1070
     0
1002
}
1002
{
1000
MANEDIT
1070
     0
1002
}
1002
{
1000
NOSEL
1070
     0
1002
}
1002
{
1000
BEHIND
1070
     0
1002
}
1002
{
1000
OTHER
1070
     0
1002
}
1002
{
1000
REACTOR
1002
}
  0
ARC
  5
49BE
  8
AM_0
 10
180.996532580657
 20
188.31577762519871
 30
0.0
 40
4.0
 50
180.0
 51
270.0
1001
GENIUS_GENODEF_13
1002
{
1000
HIER
1070
     0
1002
}
1002
{
1000
MANEDIT
1070
     0
1002
}
1002
{
1000
NOSEL
1070
     0
1002
}
1002
{
1000
BEHIND
1070
     0
1002
}
1002
{
1000
OTHER
1070
     0
1002
}
1002
{
1000
REACTOR
1002
}
1001
GENIUS_GENOBJ-N-FIL_13
1002
{
1000
OWNER
1000
GEN
1002
}
  0
LINE
  5
49BF
  8
AM_0
 10
272.996532580657
 20
272.31577762519902
 30
0.0
 11
272.99653258065712
 21
188.31577762519871
 31
0.0
  0
ARC
  5
49C0
  8
AM_0
 10
267.99653258065712
 20
254.2447098133334
 30
0.0
 40
5.0
 50
0.0
 51
45.0
1001
GENIUS_GENOBJ-N-FIL_13
1002
{
1000
OWNER
1000
GEN
1002
}
1001
GENIUS_GENODEF_13
1002
{
1000
HIER
1070
     0
1002
}
1002
{
1000
MANEDIT
1070
     0
1002
}
1002
{
1000
NOSEL
1070
     0
1002
}
1002
{
1000
BEHIND
1070
     0
1002
}
1002
{
1000
OTHER
1070
     0
1002
}
1002
{
1000
REACTOR
1002
}
  0
ARC
  5
49C1
  8
AM_0
 10
267.99653258065712
 20
206.3868454370643
 30
0.0
 40
5.0
 50
315.0
 51
0.0
1001
GENIUS_GENOBJ-N-FIL_13
1002
{
1000
OWNER
1000
GEN
1002
}
1001
GENIUS_GENODEF_13
1002
{
1000
HIER
1070
     0
1002
}
1002
{
1000
MANEDIT
1070
     0
1002
}
1002
{
1000
NOSEL
1070
     0
1002
}
1002
{
1000
BEHIND
1070
     0
1002
}
1002
{
1000
OTHER
1070
     0
1002
}
1002
{
1000
REACTOR
1002
}
  0
LINE
  5
49C2
  8
AM_0
 10
254.46099867472421
 20
274.85131153113161
 30
0.0
 11
271.53206648658983
 21
257.7802437192662
 31
0.0
  0
LINE
  5
49C3
  8
AM_0
 10
253.80414442523181
 20
269.85131153113161
 30
0.0
 11
266.5320664865896
 21
257.123389469774
 31
0.0
  0
ARC
  5
49C4
  8
AM_0
 10
250.26861051929919
 20
266.31577762519902
 30
0.0
 40
5.0
 50
45.0
 51
90.0
1001
GENIUS_GENOBJ-N-FIL_13
1002
{
1000
OWNER
1000
GEN
1002
}
1001
GENIUS_GENODEF_13
1002
{
1000
HIER
1070
     0
1002
}
1002
{
1000
MANEDIT
1070
     0
1002
}
1002
{
1000
NOSEL
1070
     0
1002
}
1002
{
1000
BEHIND
1070
     0
1002
}
1002
{
1000
OTHER
1070
     0
1002
}
1002
{
1000
REACTOR
1002
}
  0
LINE
  5
49C5
  8
AM_0
 10
267.99653258065689
 20
253.5878555638412
 30
0.0
 11
267.99653258065712
 21
207.04369968655649
 31
0.0
  0
ARC
  5
49C6
  8
AM_0
 10
262.99653258065689
 20
253.5878555638412
 30
0.0
 40
5.0
 50
0.0
 51
45.0
1001
GENIUS_GENODEF_13
1002
{
1000
HIER
1070
     0
1002
}
1002
{
1000
MANEDIT
1070
     0
1002
}
1002
{
1000
NOSEL
1070
     0
1002
}
1002
{
1000
BEHIND
1070
     0
1002
}
1002
{
1000
OTHER
1070
     0
1002
}
1002
{
1000
REACTOR
1002
}
1001
GENIUS_GENOBJ-N-FIL_13
1002
{
1000
OWNER
1000
GEN
1002
}
  0
ARC
  5
49C7
  8
AM_0
 10
268.99653258065689
 20
272.31577762519902
 30
0.0
 40
4.0
 50
0.0
 51
90.0
1001
GENIUS_GENODEF_13
1002
{
1000
HIER
1070
     0
1002
}
1002
{
1000
MANEDIT
1070
     0
1002
}
1002
{
1000
NOSEL
1070
     0
1002
}
1002
{
1000
BEHIND
1070
     0
1002
}
1002
{
1000
OTHER
1070
     0
1002
}
1002
{
1000
REACTOR
1002
}
1001
GENIUS_GENOBJ-N-FIL_13
1002
{
1000
OWNER
1000
GEN
1002
}
  0
LINE
  5
49C8
  8
ﾁｭｳｼﾝｾﾝ1
 10
267.99653258065848
 20
265.31577762519851
 30
0.0
 11
267.99653258065922
 21
277.31577762519851
 31
0.0
  0
LINE
  5
49C9
  8
ﾁｭｳｼﾝｾﾝ1
 10
273.99653258065882
 20
271.31577762519828
 30
0.0
 11
261.99653258065882
 21
271.31577762519902
 31
0.0
  0
LINE
  5
49CA
  8
AM_0
 10
173.496532580657
 20
243.81577762519899
 30
0.0
 11
175.99653258065689
 21
243.8157776251991
 31
0.0
  0
LINE
  5
49CB
  8
AM_0
 10
175.996532580657
 20
216.81577762519899
 30
0.0
 11
173.496532580657
 21
216.81577762519899
 31
0.0
  0
LINE
  5
49CC
  8
AM_0
 10
162.59786148431101
 20
219.8157776251989
 30
0.0
 11
162.59786148431101
 21
240.8157776251989
 31
0.0
  0
LINE
  5
49CD
  8
AM_0
 10
147.59786148431101
 20
238.3474026792139
 30
0.0
 11
147.59786148431101
 21
222.284152571183
 31
0.0
  0
LINE
  5
49CE
  8
AM_0
 10
160.59786148431101
 20
218.31577762519899
 30
0.0
 11
160.59786148431101
 21
242.31577762519899
 31
0.0
  0
LINE
  5
49CF
  8
AM_0
 10
151.09786148431101
 20
230.3157776251989
 30
0.0
 11
151.59786148431101
 21
229.81577762519899
 31
0.0
  0
LINE
  5
49D0
  8
AM_0
 10
158.09786148431101
 20
242.01577762519889
 30
0.0
 11
158.09786148431101
 21
218.61577762519889
 31
0.0
  0
LINE
  5
49D1
  8
AM_0
 10
167.996532580657
 20
241.81577762519899
 30
0.0
 11
167.996532580657
 21
218.81577762519899
 31
0.0
  0
LINE
  5
49D2
  8
AM_0
 10
162.09786148431101
 20
229.61577762519701
 30
0.0
 11
162.09786148431101
 21
231.01577762519989
 31
0.0
  0
LINE
  5
49D3
  8
AM_0
 10
164.19749721088201
 20
221.2157776251988
 30
0.0
 11
163.44749721088289
 21
239.41577762519901
 31
0.0
  0
LINE
  5
49D4
  8
AM_0
 10
163.246532580657
 20
221.2157776251988
 30
0.0
 11
162.59786148431101
 21
236.95686289651499
 31
0.0
  0
LINE
  5
49D5
  8
AM_0
 10
163.99522517122901
 20
220.50011891283501
 30
0.0
 11
163.247965127821
 21
240.128149386366
 31
0.0
  0
LINE
  5
49D6
  8
AM_0
 10
163.44606466371889
 20
220.5034058640309
 30
0.0
 11
162.69749721088289
 21
240.1657776251989
 31
0.0
  0
LINE
  5
49D7
  8
AM_0
 10
160.59786148431101
 20
242.31577762519899
 30
0.0
 11
158.39786148431091
 21
242.31577762519899
 31
0.0
  0
ARC
  5
49D8
  8
AM_0
 10
172.49653258065709
 20
242.8157776251989
 30
0.0
 40
0.5
 50
269.99999999998693
 51
0.0
  0
ARC
  5
49D9
  8
AM_0
 10
173.49653258065709
 20
243.31577762519899
 30
0.0
 40
0.5
 50
90.0
 51
180.0
  0
LINE
  5
49DA
  8
AM_0
 10
172.996532580657
 20
242.8157776251989
 30
0.0
 11
172.996532580657
 21
243.31577762519899
 31
0.0
  0
LINE
  5
49DB
  8
AM_0
 10
163.996532580657
 20
239.41577762519901
 30
0.0
 11
167.496532580657
 21
239.4157776251989
 31
0.0
  0
LINE
  5
49DC
  8
AM_0
 10
172.996532580657
 20
241.17184894660591
 30
0.0
 11
172.996532580657
 21
231.45970630379091
 31
0.0
  0
LINE
  5
49DD
  8
AM_0
 10
168.496532580657
 20
242.31577762519899
 30
0.0
 11
172.49653258065689
 21
242.31577762519899
 31
0.0
  0
LINE
  5
49DE
  8
AM_0
 10
172.496532580657
 20
241.67184894660591
 30
0.0
 11
167.996532580657
 21
241.67184894660591
 31
0.0
  0
ARC
  5
49DF
  8
AM_0
 10
172.49653258065709
 20
241.17184894660591
 30
0.0
 40
0.5
 50
0.0
 51
90.0
  0
ARC
  5
49E0
  8
AM_0
 10
167.496532580657
 20
239.9157776251989
 30
0.0
 40
0.5
 50
270.0
 51
0.0
  0
ARC
  5
49E1
  8
AM_0
 10
168.496532580657
 20
241.81577762519899
 30
0.0
 40
0.5
 50
90.0
 51
180.0
  0
LINE
  5
49E2
  8
AM_0
 10
172.496532580657
 20
230.95970630379091
 30
0.0
 11
167.996532580657
 21
230.95970630379091
 31
0.0
  0
ARC
  5
49E3
  8
AM_0
 10
172.496532580657
 20
231.45970630379091
 30
0.0
 40
0.5
 50
270.0
 51
0.0
  0
LINE
  5
49E4
  8
AM_0
 10
162.09786148431101
 20
236.46094837749089
 30
0.0
 11
162.09786148431101
 21
235.28870519105789
 31
0.0
  0
LINE
  5
49E5
  8
AM_0
 10
163.52422963930789
 20
239.41577762519901
 30
0.0
 11
163.996532580657
 21
239.41577762519901
 31
0.0
  0
LINE
  5
49E6
  8
AM_0
 10
163.42763714476871
 20
239.48989539193551
 30
0.0
 11
163.44749721088289
 21
239.41577762519901
 31
0.0
  0
ARC
  5
49E7
  8
AM_0
 10
163.524229639308
 20
239.51577762519889
 30
0.0
 40
0.1000000000000346
 50
195.00019500644851
 51
270.0
  0
ARC
  5
49E8
  8
AM_0
 10
161.797861484311
 20
239.6026106057069
 30
0.0
 40
0.3000000000000043
 50
270.0
 51
0.0
  0
LINE
  5
49E9
  8
AM_0
 10
160.59786148431101
 20
241.7157776251988
 30
0.0
 11
161.81781718746811
 21
241.634447244988
 31
0.0
  0
LINE
  5
49EA
  8
AM_0
 10
160.59786148431101
 20
240.5595255893588
 30
0.0
 11
161.797861484311
 21
240.5595255893588
 31
0.0
  0
LINE
  5
49EB
  8
AM_0
 10
162.09786148431101
 20
241.31577762519899
 30
0.0
 11
160.59786148431101
 21
241.31577762519899
 31
0.0
  0
ARC
  5
49EC
  8
AM_0
 10
162.09786148431101
 20
240.8157776251989
 30
0.0
 40
0.5
 50
0.0
 51
90.0
  0
LINE
  5
49ED
  8
AM_0
 10
162.09786148431101
 20
241.33511169763091
 30
0.0
 11
162.09786148431101
 21
241.31577762519899
 31
0.0
  0
LINE
  5
49EE
  8
AM_0
 10
162.09786148431101
 20
241.61577762519889
 30
0.0
 11
162.09786148431101
 21
241.33511169763091
 31
0.0
  0
LINE
  5
49EF
  8
AM_0
 10
161.81781718746811
 20
241.634447244988
 30
0.0
 11
162.09786148431101
 21
241.61577762519889
 31
0.0
  0
ARC
  5
49F0
  8
AM_0
 10
161.797861484311
 20
241.33511169763091
 30
0.0
 40
0.3000000000000007
 50
0.0
 51
86.185925165718459
  0
LINE
  5
49F1
  8
AM_0
 10
163.16980015223189
 20
240.1657776251989
 30
0.0
 11
163.246532580658
 21
240.1657776251989
 31
0.0
  0
LINE
  5
49F2
  8
AM_0
 10
163.246532580658
 20
240.1657776251989
 30
0.0
 11
163.2663926467711
 21
240.09165985846249
 31
0.0
  0
LINE
  5
49F3
  8
AM_0
 10
162.67763714476891
 20
240.09165985846249
 30
0.0
 11
162.69749721088289
 21
240.1657776251989
 31
0.0
  0
LINE
  5
49F4
  8
AM_0
 10
162.69749721088289
 20
240.1657776251989
 30
0.0
 11
162.77422963930789
 21
240.1657776251989
 31
0.0
  0
LINE
  5
49F5
  8
AM_0
 10
163.2663926467711
 20
240.09165985846249
 30
0.0
 11
163.42763714476871
 21
239.48989539193551
 31
0.0
  0
LINE
  5
49F6
  8
AM_0
 10
162.77422963930789
 20
240.1657776251989
 30
0.0
 11
163.16980015223189
 21
240.1657776251989
 31
0.0
  0
LINE
  5
49F7
  8
AM_0
 10
162.59786148431181
 20
239.79393709363799
 30
0.0
 11
162.67763714476891
 21
240.09165985846249
 31
0.0
  0
ARC
  5
49F8
  8
AM_0
 10
163.169800152232
 20
240.06577762519899
 30
0.0
 40
0.0999999999999866
 50
15.000195006575771
 51
90.0
  0
ARC
  5
49F9
  8
AM_0
 10
162.774229639308
 20
240.06577762519899
 30
0.0
 40
0.1000000000000014
 50
90.0
 51
164.99980499342419
  0
LINE
  5
49FA
  8
AM_0
 10
162.09786148431101
 20
240.2595255893589
 30
0.0
 11
162.09786148431101
 21
239.6026106057069
 31
0.0
  0
ARC
  5
49FB
  8
AM_0
 10
161.797861484311
 20
240.2595255893589
 30
0.0
 40
0.3000000000000007
 50
0.0
 51
90.0
  0
LINE
  5
49FC
  8
AM_0
 10
160.59786148431101
 20
236.76094837749099
 30
0.0
 11
161.797861484311
 21
236.76094837749099
 31
0.0
  0
LINE
  5
49FD
  8
AM_0
 10
161.797861484311
 20
239.302610605707
 30
0.0
 11
160.59786148431101
 21
239.302610605707
 31
0.0
  0
LINE
  5
49FE
  8
AM_0
 10
163.44749721088289
 20
239.41577762519901
 30
0.0
 11
163.52422963930789
 21
239.41577762519901
 31
0.0
  0
ARC
  5
49FF
  8
AM_0
 10
161.797861484311
 20
236.46094837749089
 30
0.0
 40
0.3000000000000007
 50
0.0
 51
90.0
  0
LINE
  5
4A00
  8
AM_0
 10
161.797861484311
 20
234.98870519105799
 30
0.0
 11
160.59786148431101
 21
234.98870519105799
 31
0.0
  0
ARC
  5
4A01
  8
AM_0
 10
161.797861484311
 20
235.28870519105789
 30
0.0
 40
0.3000000000000043
 50
270.0
 51
0.0
  0
LINE
  5
4A02
  8
AM_0
 10
161.797861484311
 20
231.31577762520001
 30
0.0
 11
160.59786148431101
 21
231.31577762520001
 31
0.0
  0
ARC
  5
4A03
  8
AM_0
 10
161.797861484311
 20
231.01577762519989
 30
0.0
 40
0.3000000000000007
 50
0.0
 51
90.0
  0
LINE
  5
4A04
  8
AM_0
 10
151.59786148431101
 20
240.44905745384591
 30
0.0
 11
158.09786148431101
 21
240.44905745384591
 31
0.0
  0
LINE
  5
4A05
  8
AM_0
 10
151.59786148431101
 20
240.9490574538458
 30
0.0
 11
158.09786148431101
 21
240.9490574538458
 31
0.0
  0
LINE
  5
4A06
  8
AM_0
 10
158.09786148431101
 20
230.81577762519899
 30
0.0
 11
151.59786148431101
 21
230.81577762519899
 31
0.0
  0
LINE
  5
4A07
  8
AM_0
 10
151.09786148431101
 20
231.31577762519899
 30
0.0
 11
158.09786148431101
 21
231.31577762519899
 31
0.0
  0
LINE
  5
4A08
  8
AM_0
 10
157.797861484311
 20
241.31577762519899
 30
0.0
 11
150.95991141949301
 21
241.31577762519899
 31
0.0
  0
LINE
  5
4A09
  8
AM_0
 10
158.09786148431101
 20
231.6624656937399
 30
0.0
 11
151.59786148431101
 21
231.6624656937399
 31
0.0
  0
LINE
  5
4A0A
  8
AM_0
 10
158.09786148431101
 20
239.96908955665799
 30
0.0
 11
151.59786148431101
 21
239.96908955665799
 31
0.0
  0
ARC
  5
4A0B
  8
AM_0
 10
158.39786148431091
 20
242.01577762519889
 30
0.0
 40
0.2999999999999971
 50
90.0
 51
180.0
  0
ARC
  5
4A0C
  8
AM_0
 10
157.797861484311
 20
241.61577762519889
 30
0.0
 40
0.2999999999999971
 50
270.0
 51
0.0
  0
ARC
  5
4A0D
  8
AM_0
 10
159.72286148431101
 20
235.81577762519899
 30
0.0
 40
9.124999999999984
 50
152.92493329272071
 51
207.07506670727921
  0
LINE
  5
4A0E
  8
AM_0
 10
150.31972701982849
 20
241.0839989047964
 30
0.0
 11
147.95767708464641
 21
239.1156239588114
 31
0.0
  0
LINE
  5
4A0F
  8
AM_0
 10
151.09786148431101
 20
240.7373450416909
 30
0.0
 11
151.59786148431101
 21
241.31577762519899
 31
0.0
  0
ARC
  5
4A10
  8
AM_0
 10
150.95991141949301
 20
240.31577762519899
 30
0.0
 40
1.0
 50
90.0
 51
129.80557109225549
  0
LINE
  5
4A11
  8
AM_0
 10
151.59786148431101
 20
240.9490574538458
 30
0.0
 11
151.09786148431101
 21
240.7373450416909
 31
0.0
  0
LINE
  5
4A12
  8
AM_0
 10
151.09786148431101
 20
240.27506976871999
 30
0.0
 11
151.59786148431101
 21
240.9490574538458
 31
0.0
  0
LINE
  5
4A13
  8
AM_0
 10
151.59786148431101
 20
240.44905745384591
 30
0.0
 11
151.09786148431101
 21
240.27506976871999
 31
0.0
  0
LINE
  5
4A14
  8
AM_0
 10
151.09786148431101
 20
239.7373450416909
 30
0.0
 11
151.59786148431101
 21
240.44905745384591
 31
0.0
  0
LINE
  5
4A15
  8
AM_0
 10
151.59786148431101
 20
239.96908955665799
 30
0.0
 11
151.09786148431101
 21
239.7373450416909
 31
0.0
  0
ARC
  5
4A16
  8
AM_0
 10
148.59786148431101
 20
238.3474026792139
 30
0.0
 40
1.0000000000000291
 50
129.8055710922641
 51
180.0
  0
LINE
  5
4A17
  8
AM_0
 10
151.59786148431101
 20
230.81577762519899
 30
0.0
 11
151.09786148431101
 21
230.3157776251989
 31
0.0
  0
LINE
  5
4A18
  8
AM_0
 10
151.09786148431101
 20
231.31577762519899
 30
0.0
 11
151.59786148431101
 21
230.81577762519899
 31
0.0
  0
LINE
  5
4A19
  8
AM_0
 10
151.59786148431101
 20
231.6624656937399
 30
0.0
 11
151.09786148431101
 21
231.31577762519899
 31
0.0
  0
LINE
  5
4A1A
  8
AM_0
 10
158.39786148431091
 20
218.31577762519899
 30
0.0
 11
160.59786148431101
 21
218.31577762519899
 31
0.0
  0
ARC
  5
4A1B
  8
AM_0
 10
172.496532580657
 20
217.8157776251989
 30
0.0
 40
0.5
 50
0.0
 51
90.000000000006537
  0
LINE
  5
4A1C
  8
AM_0
 10
167.496532580657
 20
221.2157776251988
 30
0.0
 11
164.27422963930789
 21
221.2157776251988
 31
0.0
  0
LINE
  5
4A1D
  8
AM_0
 10
172.996532580657
 20
229.17184894660591
 30
0.0
 11
172.996532580657
 21
219.45970630379091
 31
0.0
  0
LINE
  5
4A1E
  8
AM_0
 10
167.996532580657
 20
229.67184894660591
 30
0.0
 11
172.496532580657
 21
229.67184894660591
 31
0.0
  0
ARC
  5
4A1F
  8
AM_0
 10
172.496532580657
 20
229.17184894660591
 30
0.0
 40
0.5
 50
0.0
 51
90.0
  0
LINE
  5
4A20
  8
AM_0
 10
167.996532580657
 20
218.95970630379091
 30
0.0
 11
172.496532580657
 21
218.95970630379091
 31
0.0
  0
LINE
  5
4A21
  8
AM_0
 10
172.49653258065689
 20
218.31577762519899
 30
0.0
 11
168.496532580657
 21
218.31577762519899
 31
0.0
  0
ARC
  5
4A22
  8
AM_0
 10
172.496532580657
 20
219.45970630379091
 30
0.0
 40
0.5
 50
270.0
 51
0.0
  0
ARC
  5
4A23
  8
AM_0
 10
167.496532580657
 20
220.7157776251988
 30
0.0
 40
0.5
 50
0.0
 51
90.0
  0
ARC
  5
4A24
  8
AM_0
 10
168.496532580657
 20
218.81577762519899
 30
0.0
 40
0.5
 50
180.0
 51
270.0
  0
ARC
  5
4A25
  8
AM_0
 10
161.797861484311
 20
224.17060687290689
 30
0.0
 40
0.3000000000000114
 50
270.0
 51
0.0
  0
LINE
  5
4A26
  8
AM_0
 10
160.59786148431101
 20
229.31577762519689
 30
0.0
 11
161.797861484311
 21
229.31577762519689
 31
0.0
  0
ARC
  5
4A27
  8
AM_0
 10
161.797861484311
 20
229.6157776251969
 30
0.0
 40
0.2999999999999971
 50
270.0
 51
0.0
  0
LINE
  5
4A28
  8
AM_0
 10
160.59786148431101
 20
225.64285005933991
 30
0.0
 11
161.797861484311
 21
225.64285005933991
 31
0.0
  0
ARC
  5
4A29
  8
AM_0
 10
161.797861484311
 20
225.3428500593399
 30
0.0
 40
0.3000000000000007
 50
0.0
 51
90.0
  0
LINE
  5
4A2A
  8
AM_0
 10
162.09786148431101
 20
225.34285005934001
 30
0.0
 11
162.09786148431101
 21
224.170606872907
 31
0.0
  0
LINE
  5
4A2B
  8
AM_0
 10
163.52422963930789
 20
220.4657776251988
 30
0.0
 11
163.91980015223189
 21
220.4657776251988
 31
0.0
  0
LINE
  5
4A2C
  8
AM_0
 10
163.52422963930789
 20
220.4657776251988
 30
0.0
 11
163.91980015223189
 21
220.4657776251988
 31
0.0
  0
LINE
  5
4A2D
  8
AM_0
 10
164.0163926467711
 20
220.53989539193549
 30
0.0
 11
164.17763714476891
 21
221.1416598584625
 31
0.0
  0
LINE
  5
4A2E
  8
AM_0
 10
164.0163926467711
 20
220.53989539193549
 30
0.0
 11
164.17763714476891
 21
221.1416598584625
 31
0.0
  0
ARC
  5
4A2F
  8
AM_0
 10
164.27422963930789
 20
221.1157776251988
 30
0.0
 40
0.0999999999999943
 50
90.0
 51
164.99980499348811
  0
ARC
  5
4A30
  8
AM_0
 10
163.91980015223189
 20
220.56577762519899
 30
0.0
 40
0.0999999999999943
 50
270.0
 51
344.99980499349448
  0
LINE
  5
4A31
  8
AM_0
 10
162.59701489576989
 20
220.84077762519871
 30
0.0
 11
162.67763714476891
 21
221.1416598584625
 31
0.0
  0
LINE
  5
4A32
  8
AM_0
 10
163.24924323286299
 20
221.17651309210081
 30
0.0
 11
163.42763714476891
 21
220.53989539193549
 31
0.0
  0
LINE
  5
4A33
  8
AM_0
 10
163.2663926467711
 20
221.1416598584625
 30
0.0
 11
163.42763714476891
 21
220.53989539193549
 31
0.0
  0
LINE
  5
4A34
  8
AM_0
 10
162.09786148431101
 20
221.02894464469
 30
0.0
 11
162.09786148431101
 21
220.37202966103879
 31
0.0
  0
LINE
  5
4A35
  8
AM_0
 10
162.59786148431101
 20
220.8439370936369
 30
0.0
 11
162.67763714476891
 21
221.1416598584625
 31
0.0
  0
LINE
  5
4A36
  8
AM_0
 10
160.59786148431101
 20
221.3289446446899
 30
0.0
 11
161.797861484311
 21
221.3289446446899
 31
0.0
  0
LINE
  5
4A37
  8
AM_0
 10
161.797861484311
 20
223.8706068729069
 30
0.0
 11
160.59786148431101
 21
223.87060687290591
 31
0.0
  0
LINE
  5
4A38
  8
AM_0
 10
163.20243241774699
 20
221.2157776251988
 30
0.0
 11
163.24924323286299
 21
221.17651309210081
 31
0.0
  0
LINE
  5
4A39
  8
AM_0
 10
162.77422963930789
 20
221.2157776251988
 30
0.0
 11
163.20243241774699
 21
221.2157776251988
 31
0.0
  0
LINE
  5
4A3A
  8
AM_0
 10
162.77422963930789
 20
221.2157776251988
 30
0.0
 11
163.16980015223189
 21
221.2157776251988
 31
0.0
  0
ARC
  5
4A3B
  8
AM_0
 10
162.77422963930789
 20
221.1157776251988
 30
0.0
 40
0.0999999999999943
 50
90.0
 51
164.99980499348811
  0
ARC
  5
4A3C
  8
AM_0
 10
163.16980015223189
 20
221.1157776251988
 30
0.0
 40
0.0999999999999608
 50
15.000195006510941
 51
90.0
  0
ARC
  5
4A3D
  8
AM_0
 10
161.797861484311
 20
221.0289446446898
 30
0.0
 40
0.3000000000000007
 50
0.0
 51
90.0
  0
LINE
  5
4A3E
  8
AM_0
 10
160.59786148431101
 20
219.31577762519899
 30
0.0
 11
162.09786148431101
 21
219.31577762519899
 31
0.0
  0
LINE
  5
4A3F
  8
AM_0
 10
161.797861484311
 20
220.07202966103901
 30
0.0
 11
160.59786148431101
 21
220.07202966103901
 31
0.0
  0
LINE
  5
4A40
  8
AM_0
 10
161.81781718746811
 20
218.9971080054089
 30
0.0
 11
160.59786148431101
 21
218.91577762519901
 31
0.0
  0
ARC
  5
4A41
  8
AM_0
 10
162.09786148431101
 20
219.8157776251989
 30
0.0
 40
0.5
 50
270.0
 51
0.0
  0
ARC
  5
4A42
  8
AM_0
 10
163.52422963930789
 20
220.56577762519899
 30
0.0
 40
0.0999999999999606
 50
195.00019500650541
 51
270.0
  0
ARC
  5
4A43
  8
AM_0
 10
161.797861484311
 20
220.37202966103879
 30
0.0
 40
0.2999999999999971
 50
270.0
 51
0.0
  0
LINE
  5
4A44
  8
AM_0
 10
162.09786148431101
 20
219.31577762519899
 30
0.0
 11
162.09786148431101
 21
219.29644355276599
 31
0.0
  0
ARC
  5
4A45
  8
AM_0
 10
161.797861484311
 20
219.29644355276599
 30
0.0
 40
0.3000000000000043
 50
273.81407483428148
 51
0.0
  0
ARC
  5
4A46
  8
AM_0
 10
173.496532580657
 20
217.31577762519899
 30
0.0
 40
0.5
 50
180.0
 51
270.0
  0
LINE
  5
4A47
  8
AM_0
 10
172.996532580657
 20
217.31577762519899
 30
0.0
 11
172.996532580657
 21
217.8157776251989
 31
0.0
  0
LINE
  5
4A48
  8
AM_0
 10
151.59786148431101
 20
220.6624656937399
 30
0.0
 11
158.09786148431101
 21
220.6624656937399
 31
0.0
  0
LINE
  5
4A49
  8
AM_0
 10
151.59786148431101
 20
228.96908955665799
 30
0.0
 11
158.09786148431101
 21
228.96908955665799
 31
0.0
  0
LINE
  5
4A4A
  8
AM_0
 10
150.95991141949301
 20
219.31577762519899
 30
0.0
 11
157.797861484311
 21
219.31577762519899
 31
0.0
  0
LINE
  5
4A4B
  8
AM_0
 10
158.09786148431101
 20
229.31577762519899
 30
0.0
 11
151.09786148431101
 21
229.31577762519899
 31
0.0
  0
LINE
  5
4A4C
  8
AM_0
 10
151.59786148431101
 20
229.81577762519899
 30
0.0
 11
158.09786148431101
 21
229.81577762519899
 31
0.0
  0
LINE
  5
4A4D
  8
AM_0
 10
158.09786148431101
 20
219.6824977965509
 30
0.0
 11
151.59786148431101
 21
219.6824977965509
 31
0.0
  0
LINE
  5
4A4E
  8
AM_0
 10
158.09786148431101
 20
220.1824977965509
 30
0.0
 11
151.59786148431101
 21
220.1824977965509
 31
0.0
  0
ARC
  5
4A4F
  8
AM_0
 10
157.797861484311
 20
219.01577762519889
 30
0.0
 40
0.3000000000000043
 50
0.0
 51
90.0
  0
ARC
  5
4A50
  8
AM_0
 10
158.39786148431091
 20
218.61577762519889
 30
0.0
 40
0.2999999999999971
 50
180.0
 51
270.0
  0
ARC
  5
4A51
  8
AM_0
 10
159.72286148431101
 20
224.81577762519899
 30
0.0
 40
9.124999999999984
 50
152.92493329272071
 51
207.07506670727921
  0
LINE
  5
4A52
  8
AM_0
 10
151.09786148431101
 20
229.31577762519899
 30
0.0
 11
151.59786148431101
 21
228.96908955665799
 31
0.0
  0
LINE
  5
4A53
  8
AM_0
 10
151.59786148431101
 20
229.81577762519899
 30
0.0
 11
151.09786148431101
 21
229.31577762519899
 31
0.0
  0
LINE
  5
4A54
  8
AM_0
 10
147.95767708464641
 20
221.5159312915855
 30
0.0
 11
150.31972701982849
 21
219.54755634560149
 31
0.0
  0
LINE
  5
4A55
  8
AM_0
 10
151.59786148431101
 20
219.31577762519899
 30
0.0
 11
151.09786148431101
 21
219.894210208706
 31
0.0
  0
ARC
  5
4A56
  8
AM_0
 10
150.95991141949301
 20
220.31577762519899
 30
0.0
 40
1.0000000000000411
 50
230.19442890774451
 51
270.0
  0
LINE
  5
4A57
  8
AM_0
 10
151.09786148431101
 20
220.894210208706
 30
0.0
 11
151.59786148431101
 21
220.6624656937399
 31
0.0
  0
LINE
  5
4A58
  8
AM_0
 10
151.59786148431101
 20
220.1824977965509
 30
0.0
 11
151.09786148431101
 21
220.894210208706
 31
0.0
  0
LINE
  5
4A59
  8
AM_0
 10
151.09786148431101
 20
220.35648548167799
 30
0.0
 11
151.59786148431101
 21
220.1824977965509
 31
0.0
  0
LINE
  5
4A5A
  8
AM_0
 10
151.59786148431101
 20
219.6824977965509
 30
0.0
 11
151.09786148431101
 21
220.35648548167799
 31
0.0
  0
LINE
  5
4A5B
  8
AM_0
 10
151.09786148431101
 20
219.894210208706
 30
0.0
 11
151.59786148431101
 21
219.6824977965509
 31
0.0
  0
ARC
  5
4A5C
  8
AM_0
 10
148.59786148431101
 20
222.28415257118289
 30
0.0
 40
1.0
 50
180.0
 51
230.19442890773581
  0
CIRCLE
  5
4A5D
  8
AM_0
 10
181.9965325806553
 20
271.31577762519851
 30
0.0
 40
4.0
  0
LINE
  5
4A5E
  8
AM_0
 10
181.6850325806551
 20
269.0369692194742
 30
0.0
 11
182.30803258065529
 21
269.0369692194742
 31
0.0
  0
LINE
  5
4A5F
  8
AM_0
 10
181.6850325806551
 20
273.59458603092298
 30
0.0
 11
182.30803258065529
 21
273.59458603092298
 31
0.0
  0
LINE
  5
4A60
  8
AM_0
 10
181.6850325806551
 20
269.0369692194742
 30
0.0
 11
181.6850325806551
 21
271.0042776251986
 31
0.0
  0
LINE
  5
4A61
  8
AM_0
 10
181.6850325806551
 20
271.62727762519847
 30
0.0
 11
181.6850325806551
 21
273.59458603092298
 31
0.0
  0
LINE
  5
4A62
  8
AM_0
 10
181.6850325806551
 20
271.62727762519847
 30
0.0
 11
179.71772417493091
 21
271.62727762519847
 31
0.0
  0
LINE
  5
4A63
  8
AM_0
 10
181.6850325806551
 20
271.0042776251986
 30
0.0
 11
179.71772417493091
 21
271.0042776251986
 31
0.0
  0
LINE
  5
4A64
  8
AM_0
 10
179.71772417493091
 20
271.62727762519847
 30
0.0
 11
179.71772417493091
 21
271.0042776251986
 31
0.0
  0
LINE
  5
4A65
  8
AM_0
 10
182.30803258065529
 20
269.0369692194742
 30
0.0
 11
182.30803258065529
 21
271.0042776251986
 31
0.0
  0
LINE
  5
4A66
  8
AM_0
 10
182.30803258065529
 20
271.62727762519847
 30
0.0
 11
182.30803258065529
 21
273.59458603092298
 31
0.0
  0
LINE
  5
4A67
  8
AM_0
 10
184.2753409863796
 20
271.0042776251986
 30
0.0
 11
182.30803258065529
 21
271.0042776251986
 31
0.0
  0
LINE
  5
4A68
  8
AM_0
 10
184.2753409863796
 20
271.62727762519847
 30
0.0
 11
182.30803258065529
 21
271.62727762519847
 31
0.0
  0
LINE
  5
4A69
  8
AM_0
 10
184.2753409863796
 20
271.62727762519847
 30
0.0
 11
184.2753409863796
 21
271.0042776251986
 31
0.0
  0
CIRCLE
  5
4A6A
  8
AM_0
 10
267.99653258065882
 20
271.31577762519851
 30
0.0
 40
4.0
  0
LINE
  5
4A6B
  8
AM_0
 10
267.68503258065891
 20
269.03696921947409
 30
0.0
 11
268.3080325806589
 21
269.03696921947409
 31
0.0
  0
LINE
  5
4A6C
  8
AM_0
 10
267.68503258065891
 20
273.59458603092293
 30
0.0
 11
268.3080325806589
 21
273.59458603092293
 31
0.0
  0
LINE
  5
4A6D
  8
AM_0
 10
267.68503258065891
 20
269.03696921947409
 30
0.0
 11
267.68503258065891
 21
271.00427762519848
 31
0.0
  0
LINE
  5
4A6E
  8
AM_0
 10
267.68503258065891
 20
271.62727762519847
 30
0.0
 11
267.68503258065891
 21
273.59458603092293
 31
0.0
  0
LINE
  5
4A6F
  8
AM_0
 10
267.68503258065891
 20
271.62727762519847
 30
0.0
 11
265.7177241749344
 21
271.62727762519847
 31
0.0
  0
LINE
  5
4A70
  8
AM_0
 10
267.68503258065891
 20
271.00427762519848
 30
0.0
 11
265.7177241749344
 21
271.00427762519848
 31
0.0
  0
LINE
  5
4A71
  8
AM_0
 10
265.7177241749344
 20
271.62727762519847
 30
0.0
 11
265.7177241749344
 21
271.00427762519848
 31
0.0
  0
LINE
  5
4A72
  8
AM_0
 10
268.3080325806589
 20
269.03696921947409
 30
0.0
 11
268.3080325806589
 21
271.00427762519848
 31
0.0
  0
LINE
  5
4A73
  8
AM_0
 10
268.3080325806589
 20
271.62727762519847
 30
0.0
 11
268.3080325806589
 21
273.59458603092293
 31
0.0
  0
LINE
  5
4A74
  8
AM_0
 10
270.27534098638318
 20
271.00427762519848
 30
0.0
 11
268.3080325806589
 21
271.00427762519848
 31
0.0
  0
LINE
  5
4A75
  8
AM_0
 10
270.27534098638318
 20
271.62727762519847
 30
0.0
 11
268.3080325806589
 21
271.62727762519847
 31
0.0
  0
LINE
  5
4A76
  8
AM_0
 10
270.27534098638318
 20
271.62727762519847
 30
0.0
 11
270.27534098638318
 21
271.00427762519848
 31
0.0
  0
LINE
  5
4A77
  8
AM_0
 10
195.53206648659
 20
274.85131153113173
 30
0.0
 11
178.46099867472421
 21
257.78024371926642
 31
0.0
  0
LINE
  5
4A78
  8
AM_0
 10
196.1889207360822
 20
269.85131153113161
 30
0.0
 11
183.46099867472421
 21
257.12338946977388
 31
0.0
  0
ARC
  5
4A79
  8
AM_0
 10
186.996532580657
 20
253.587855563841
 30
0.0
 40
5.0
 50
135.0
 51
180.0
1001
GENIUS_GENOBJ-N-FIL_13
1002
{
1000
OWNER
1000
GEN
1002
}
1001
GENIUS_GENODEF_13
1002
{
1000
HIER
1070
     0
1002
}
1002
{
1000
MANEDIT
1070
     0
1002
}
1002
{
1000
NOSEL
1070
     0
1002
}
1002
{
1000
BEHIND
1070
     0
1002
}
1002
{
1000
OTHER
1070
     0
1002
}
1002
{
1000
REACTOR
1002
}
  0
LINE
  5
4A7A
  8
AM_0
 10
254.46099867472421
 20
185.78024371926611
 30
0.0
 11
271.53206648658983
 21
202.85131153113139
 31
0.0
  0
ARC
  5
4A7B
  8
AM_0
 10
250.92546476879161
 20
189.31577762519871
 30
0.0
 40
5.0
 50
270.0
 51
315.0
1001
GENIUS_GENODEF_13
1002
{
1000
HIER
1070
     0
1002
}
1002
{
1000
MANEDIT
1070
     0
1002
}
1002
{
1000
NOSEL
1070
     0
1002
}
1002
{
1000
BEHIND
1070
     0
1002
}
1002
{
1000
OTHER
1070
     0
1002
}
1002
{
1000
REACTOR
1002
}
1001
GENIUS_GENOBJ-N-FIL_13
1002
{
1000
OWNER
1000
GEN
1002
}
  0
LINE
  5
4A7C
  8
AM_0
 10
253.80414442523201
 20
190.78024371926611
 30
0.0
 11
266.53206648658983
 21
203.5081657806237
 31
0.0
  0
ARC
  5
4A7D
  8
AM_0
 10
262.99653258065712
 20
207.04369968655649
 30
0.0
 40
5.0
 50
315.0
 51
0.0
1001
GENIUS_GENOBJ-N-FIL_13
1002
{
1000
OWNER
1000
GEN
1002
}
1001
GENIUS_GENODEF_13
1002
{
1000
HIER
1070
     0
1002
}
1002
{
1000
MANEDIT
1070
     0
1002
}
1002
{
1000
NOSEL
1070
     0
1002
}
1002
{
1000
BEHIND
1070
     0
1002
}
1002
{
1000
OTHER
1070
     0
1002
}
1002
{
1000
REACTOR
1002
}
  0
LINE
  5
4A7E
  8
AM_0
 10
195.5320664865898
 20
185.78024371926611
 30
0.0
 11
178.46099867472421
 21
202.8513115311313
 31
0.0
  0
LINE
  5
4A7F
  8
AM_0
 10
196.18892073608191
 20
190.78024371926611
 30
0.0
 11
183.46099867472421
 21
203.5081657806237
 31
0.0
  0
ARC
  5
4A80
  8
AM_0
 10
199.72445464201471
 20
194.31577762519871
 30
0.0
 40
5.0
 50
225.0
 51
270.0
1001
GENIUS_GENOBJ-N-FIL_13
1002
{
1000
OWNER
1000
GEN
1002
}
1001
GENIUS_GENODEF_13
1002
{
1000
HIER
1070
     0
1002
}
1002
{
1000
MANEDIT
1070
     0
1002
}
1002
{
1000
NOSEL
1070
     0
1002
}
1002
{
1000
BEHIND
1070
     0
1002
}
1002
{
1000
OTHER
1070
     0
1002
}
1002
{
1000
REACTOR
1002
}
  0
CIRCLE
  5
4A81
  8
AM_0
 10
181.99653258065521
 20
189.31577762519919
 30
0.0
 40
4.0
  0
LINE
  5
4A82
  8
AM_0
 10
181.6850325806551
 20
191.59458603092349
 30
0.0
 11
182.30803258065521
 21
191.59458603092349
 31
0.0
  0
LINE
  5
4A83
  8
AM_0
 10
181.6850325806551
 20
187.0369692194748
 30
0.0
 11
182.30803258065521
 21
187.0369692194748
 31
0.0
  0
LINE
  5
4A84
  8
AM_0
 10
181.6850325806551
 20
191.59458603092349
 30
0.0
 11
181.6850325806551
 21
189.62727762519921
 31
0.0
  0
LINE
  5
4A85
  8
AM_0
 10
181.6850325806551
 20
189.00427762519911
 30
0.0
 11
181.6850325806551
 21
187.0369692194748
 31
0.0
  0
LINE
  5
4A86
  8
AM_0
 10
181.6850325806551
 20
189.00427762519911
 30
0.0
 11
179.71772417493079
 21
189.00427762519911
 31
0.0
  0
LINE
  5
4A87
  8
AM_0
 10
181.6850325806551
 20
189.62727762519921
 30
0.0
 11
179.71772417493079
 21
189.62727762519921
 31
0.0
  0
LINE
  5
4A88
  8
AM_0
 10
179.71772417493079
 20
189.00427762519911
 30
0.0
 11
179.71772417493079
 21
189.62727762519921
 31
0.0
  0
LINE
  5
4A89
  8
AM_0
 10
182.30803258065521
 20
191.59458603092349
 30
0.0
 11
182.30803258065521
 21
189.62727762519921
 31
0.0
  0
LINE
  5
4A8A
  8
AM_0
 10
182.30803258065521
 20
189.00427762519911
 30
0.0
 11
182.30803258065521
 21
187.0369692194748
 31
0.0
  0
LINE
  5
4A8B
  8
AM_0
 10
184.2753409863794
 20
189.62727762519921
 30
0.0
 11
182.30803258065521
 21
189.62727762519921
 31
0.0
  0
LINE
  5
4A8C
  8
AM_0
 10
184.2753409863794
 20
189.00427762519911
 30
0.0
 11
182.30803258065521
 21
189.00427762519911
 31
0.0
  0
LINE
  5
4A8D
  8
AM_0
 10
184.2753409863794
 20
189.00427762519911
 30
0.0
 11
184.2753409863794
 21
189.62727762519921
 31
0.0
  0
CIRCLE
  5
4A8E
  8
AM_0
 10
267.99653258065871
 20
189.3157776251989
 30
0.0
 40
4.0
  0
LINE
  5
4A8F
  8
AM_0
 10
267.68503258065869
 20
191.59458603092341
 30
0.0
 11
268.30803258065868
 21
191.59458603092341
 31
0.0
  0
LINE
  5
4A90
  8
AM_0
 10
267.68503258065869
 20
187.03696921947471
 30
0.0
 11
268.30803258065868
 21
187.03696921947471
 31
0.0
  0
LINE
  5
4A91
  8
AM_0
 10
267.68503258065869
 20
191.59458603092341
 30
0.0
 11
267.68503258065869
 21
189.62727762519901
 31
0.0
  0
LINE
  5
4A92
  8
AM_0
 10
267.68503258065869
 20
189.0042776251988
 30
0.0
 11
267.68503258065869
 21
187.03696921947471
 31
0.0
  0
LINE
  5
4A93
  8
AM_0
 10
267.68503258065869
 20
189.0042776251988
 30
0.0
 11
265.71772417493429
 21
189.0042776251988
 31
0.0
  0
LINE
  5
4A94
  8
AM_0
 10
267.68503258065869
 20
189.62727762519901
 30
0.0
 11
265.71772417493429
 21
189.62727762519901
 31
0.0
  0
LINE
  5
4A95
  8
AM_0
 10
265.71772417493429
 20
189.0042776251988
 30
0.0
 11
265.71772417493429
 21
189.62727762519901
 31
0.0
  0
LINE
  5
4A96
  8
AM_0
 10
268.30803258065868
 20
191.59458603092341
 30
0.0
 11
268.30803258065868
 21
189.62727762519901
 31
0.0
  0
LINE
  5
4A97
  8
AM_0
 10
268.30803258065868
 20
189.0042776251988
 30
0.0
 11
268.30803258065868
 21
187.03696921947471
 31
0.0
  0
LINE
  5
4A98
  8
AM_0
 10
270.27534098638318
 20
189.62727762519901
 30
0.0
 11
268.30803258065868
 21
189.62727762519901
 31
0.0
  0
LINE
  5
4A99
  8
AM_0
 10
270.27534098638318
 20
189.0042776251988
 30
0.0
 11
268.30803258065868
 21
189.0042776251988
 31
0.0
  0
LINE
  5
4A9A
  8
AM_0
 10
270.27534098638318
 20
189.0042776251988
 30
0.0
 11
270.27534098638318
 21
189.62727762519901
 31
0.0
  0
LINE
  5
4A9B
  8
AM_0
 10
176.996532580657
 20
199.31577762519879
 30
0.0
 11
175.996532580657
 21
199.31577762519879
 31
0.0
  0
LINE
  5
4A9C
  8
AM_0
 10
176.996532580657
 20
261.3157776251989
 30
0.0
 11
175.996532580657
 21
261.3157776251989
 31
0.0
  0
LINE
  5
4A9D
  8
AM_0
 10
175.996532580657
 20
199.31577762519879
 30
0.0
 11
175.996532580657
 21
261.3157776251989
 31
0.0
  0
LINE
  5
4A9E
  8
AM_0
 10
559.48608875432421
 20
196.8139081976112
 30
0.0
 11
559.48608875432421
 21
263.81390819761123
 31
0.0
  0
LINE
  5
4A9F
  8
AM_0
 10
558.48608875432421
 20
263.81390819761123
 30
0.0
 11
560.4861007543243
 21
263.81390819761123
 31
0.0
  0
LINE
  5
4AA0
  8
AM_0
 10
520.48608875432421
 20
184.3139081976112
 30
0.0
 11
556.55588774772912
 21
185.5734933338735
 31
0.0
  0
LINE
  5
4AA1
  8
AM_0
 10
558.48608875432421
 20
187.57227498791181
 30
0.0
 11
558.48608875432421
 21
273.05554140731078
 31
0.0
  0
ARC
  5
4AA2
  8
AM_0
 10
556.4860887543241
 20
187.57227498791181
 30
0.0
 40
2.0
 50
271.9999999999971
 51
0.0
1001
GENIUS_GENODEF_13
1002
{
1000
HIER
1070
     0
1002
}
1002
{
1000
MANEDIT
1070
     0
1002
}
1002
{
1000
NOSEL
1070
     0
1002
}
1002
{
1000
BEHIND
1070
     0
1002
}
1002
{
1000
OTHER
1070
     0
1002
}
1002
{
1000
REACTOR
1002
}
1001
GENIUS_GENOBJ-N-FIL_13
1002
{
1000
OWNER
1000
GEN
1002
}
  0
LINE
  5
4AA3
  8
AM_0
 10
556.55588774772912
 20
275.05432306134901
 30
0.0
 11
520.48608875432421
 21
276.31390819761128
 31
0.0
  0
ARC
  5
4AA4
  8
AM_0
 10
556.48608875432444
 20
273.05554140731078
 30
0.0
 40
2.0
 50
0.0
 51
88.000000000002842
1001
GENIUS_GENOBJ-N-FIL_13
1002
{
1000
OWNER
1000
GEN
1002
}
1001
GENIUS_GENODEF_13
1002
{
1000
HIER
1070
     0
1002
}
1002
{
1000
MANEDIT
1070
     0
1002
}
1002
{
1000
NOSEL
1070
     0
1002
}
1002
{
1000
BEHIND
1070
     0
1002
}
1002
{
1000
OTHER
1070
     0
1002
}
1002
{
1000
REACTOR
1002
}
  0
LINE
  5
4AA5
  8
AM_0
 10
520.48608875432421
 20
276.31390819761128
 30
0.0
 11
520.48608875432421
 21
184.313908197611
 31
0.0
  0
LINE
  5
4AA6
  8
ﾁｭｳｼﾝｾﾝ1
 10
509.48608875432421
 20
189.31390819761191
 30
0.0
 11
525.31361176686084
 21
189.3139081976118
 31
0.0
  0
LINE
  5
4AA7
  8
AM_0
 10
516.48608875432421
 20
276.31390819761128
 30
0.0
 11
516.48608875432421
 21
255.49940329807879
 31
0.0
  0
LINE
  5
4AA8
  8
AM_0
 10
516.48608875432421
 20
205.12841309714361
 30
0.0
 11
516.48608875432421
 21
184.31390819761199
 31
0.0
  0
LINE
  5
4AA9
  8
AM_0
 10
512.48608875432421
 20
270.17812652845072
 30
0.0
 11
512.48608875432421
 21
190.44968986677171
 31
0.0
  0
LINE
  5
4AAA
  8
AM_0
 10
514.42715124219637
 20
193.2212631699183
 30
0.0
 11
515.48608875432421
 21
193.3139081976118
 31
0.0
  0
LINE
  5
4AAB
  8
AM_0
 10
514.42715124219637
 20
185.4065532253054
 30
0.0
 11
515.48608875432421
 21
185.3139081976118
 31
0.0
  0
ARC
  5
4AAC
  8
AM_0
 10
518.88608875432431
 20
189.3139081976118
 30
0.0
 40
6.5
 50
151.82726586813479
 51
208.1727341318651
  0
ARC
  5
4AAD
  8
AM_0
 10
514.56660043059264
 20
187.00046474225209
 30
0.0
 40
1.6000000000000001
 50
208.1727341318651
 51
265.00000000000028
  0
LINE
  5
4AAE
  8
AM_0
 10
512.80661509289575
 20
191.61390819761169
 30
0.0
 11
515.09617477169115
 21
189.3139081976118
 31
0.0
  0
LINE
  5
4AAF
  8
AM_0
 10
514.78608875432417
 20
189.6254081976117
 30
0.0
 11
514.78608875432417
 21
189.00240819761169
 31
0.0
  0
LINE
  5
4AB0
  8
AM_0
 10
512.80661509289575
 20
187.01390819761181
 30
0.0
 11
515.09617477169115
 21
189.3139081976118
 31
0.0
  0
LINE
  5
4AB1
  8
AM_0
 10
512.39355706398953
 20
189.6254081976117
 30
0.0
 11
514.78608875432417
 21
189.6254081976117
 31
0.0
  0
LINE
  5
4AB2
  8
AM_0
 10
512.39355706398953
 20
189.00240819761169
 30
0.0
 11
514.78608875432417
 21
189.00240819761169
 31
0.0
  0
ARC
  5
4AB3
  8
AM_0
 10
514.56660043059264
 20
191.62735165297141
 30
0.0
 40
1.6000000000000001
 50
94.999999999999758
 51
151.82726586813479
  0
LINE
  5
4AB4
  8
AM_0
 10
516.48608875432421
 20
276.31390819761128
 30
0.0
 11
520.48608875432421
 21
276.31390819761128
 31
0.0
  0
LINE
  5
4AB5
  8
AM_0
 10
515.48608875432399
 20
275.31390819761111
 30
0.0
 11
516.48608875432444
 21
276.31390819761128
 31
0.0
  0
LINE
  5
4AB6
  8
AM_0
 10
520.48608875432421
 20
184.313908197611
 30
0.0
 11
516.48608875432421
 21
184.31390819761199
 31
0.0
  0
LINE
  5
4AB7
  8
AM_0N
 10
516.48608875432421
 20
193.11390819761181
 30
0.0
 11
515.48608875432421
 21
193.11390819761181
 31
0.0
  0
LINE
  5
4AB8
  8
AM_0N
 10
515.48608875432421
 20
189.51390819761181
 30
0.0
 11
516.48608875432421
 21
189.877878431878
 31
0.0
  0
LINE
  5
4AB9
  8
AM_0N
 10
515.48608875432421
 20
189.11390819761181
 30
0.0
 11
516.48608875432421
 21
189.477878431878
 31
0.0
  0
LINE
  5
4ABA
  8
AM_0N
 10
515.48608875432421
 20
185.3139081976118
 30
0.0
 11
515.48608875432421
 21
193.3139081976118
 31
0.0
  0
LINE
  5
4ABB
  8
AM_0N
 10
515.48608875432421
 20
185.51390819761181
 30
0.0
 11
516.48608875432421
 21
185.51390819761181
 31
0.0
  0
LINE
  5
4ABC
  8
AM_0
 10
512.48608875432421
 20
205.12841309714341
 30
0.0
 11
516.48608875432421
 21
205.12841309714361
 31
0.0
  0
LINE
  5
4ABD
  8
AM_0
 10
516.48608875432421
 20
203.4715588476511
 30
0.0
 11
512.48608875432421
 21
205.12841309714341
 31
0.0
  0
LINE
  5
4ABE
  8
AM_0
 10
512.48608875432421
 20
255.49940329807879
 30
0.0
 11
516.48608875432421
 21
255.49940329807879
 31
0.0
  0
LINE
  5
4ABF
  8
AM_0
 10
516.48608875432421
 20
257.15625754757139
 30
0.0
 11
512.48608875432421
 21
255.49940329807879
 31
0.0
  0
LINE
  5
4AC0
  8
ﾁｭｳｼﾝｾﾝ1
 10
509.48608875432421
 20
271.31390819761049
 30
0.0
 11
525.31361176686084
 21
271.31390819761071
 31
0.0
  0
LINE
  5
4AC1
  8
AM_0
 10
514.42715124219637
 20
267.40655322530421
 30
0.0
 11
515.48608875432421
 21
267.31390819761071
 31
0.0
  0
LINE
  5
4AC2
  8
AM_0
 10
514.42715124219637
 20
275.22126316991688
 30
0.0
 11
515.48608875432421
 21
275.31390819761071
 31
0.0
  0
ARC
  5
4AC3
  8
AM_0
 10
518.88608875432431
 20
271.31390819761071
 30
0.0
 40
6.5
 50
151.82726586813479
 51
208.1727341318651
  0
ARC
  5
4AC4
  8
AM_0
 10
514.56660043059264
 20
273.62735165297028
 30
0.0
 40
1.6000000000000001
 50
94.999999999999758
 51
151.82726586813479
  0
LINE
  5
4AC5
  8
AM_0
 10
512.80661509289575
 20
269.0139081976107
 30
0.0
 11
515.09617477169115
 21
271.31390819761071
 31
0.0
  0
LINE
  5
4AC6
  8
AM_0
 10
514.78608875432417
 20
271.00240819761069
 30
0.0
 11
514.78608875432417
 21
271.62540819761068
 31
0.0
  0
LINE
  5
4AC7
  8
AM_0
 10
512.80661509289575
 20
273.61390819761061
 30
0.0
 11
515.09617477169115
 21
271.31390819761071
 31
0.0
  0
LINE
  5
4AC8
  8
AM_0
 10
512.39355706398953
 20
271.00240819761069
 30
0.0
 11
514.78608875432417
 21
271.00240819761069
 31
0.0
  0
LINE
  5
4AC9
  8
AM_0
 10
512.39355706398953
 20
271.62540819761068
 30
0.0
 11
514.78608875432417
 21
271.62540819761068
 31
0.0
  0
ARC
  5
4ACA
  8
AM_0
 10
514.56660043059264
 20
269.00046474225098
 30
0.0
 40
1.6000000000000001
 50
208.1727341318651
 51
265.00000000000028
  0
LINE
  5
4ACB
  8
AM_0N
 10
516.48608875432421
 20
267.51390819761048
 30
0.0
 11
515.48608875432421
 21
267.51390819761048
 31
0.0
  0
LINE
  5
4ACC
  8
AM_0N
 10
515.48608875432421
 20
271.11390819761061
 30
0.0
 11
516.48608875432421
 21
270.74993796334451
 31
0.0
  0
LINE
  5
4ACD
  8
AM_0N
 10
515.48608875432421
 20
271.51390819761048
 30
0.0
 11
516.48608875432421
 21
271.14993796334443
 31
0.0
  0
LINE
  5
4ACE
  8
AM_0N
 10
515.48608875432421
 20
275.31390819761071
 30
0.0
 11
515.48608875432421
 21
267.31390819761071
 31
0.0
  0
LINE
  5
4ACF
  8
AM_0N
 10
515.48608875432421
 20
275.11390819761061
 30
0.0
 11
516.48608875432421
 21
275.11390819761061
 31
0.0
  0
LINE
  5
4AD0
  8
AM_0
 10
384.49652258065697
 20
271.81577862519867
 30
0.0
 11
388.49652258065692
 21
267.81577862519902
 31
0.0
  0
LINE
  5
4AD1
  8
AM_0
 10
381.99652258065697
 20
271.81577862519867
 30
0.0
 11
384.49652258065697
 21
271.81577862519867
 31
0.0
  0
LINE
  5
4AD2
  8
AM_0
 10
388.49652258065692
 20
267.81577862519902
 30
0.0
 11
388.49652258065748
 21
226.8157786251987
 31
0.0
  0
LINE
  5
4AD3
  8
AM_0
 10
384.49652258065697
 20
222.8157786251987
 30
0.0
 11
388.49652258065692
 21
226.8157786251987
 31
0.0
  0
LINE
  5
4AD4
  8
AM_0
 10
381.99652258065697
 20
222.8157786251987
 30
0.0
 11
384.49652258065697
 21
222.81577862519899
 31
0.0
  0
LINE
  5
4AD5
  8
AM_0
 10
381.49652258065697
 20
271.31577862519867
 30
0.0
 11
381.99652258065697
 21
271.81577862519867
 31
0.0
1001
GENIUS_GENFIL_13
1070
     0
1040
0.5
1040
0.5
1040
20.0
1040
0.0
1002
{
1002
}
1001
GENIUS_GENOBJ-N-CHA_13
1002
{
1000
OWNER
1000
GEN
1002
}
1001
GENIUS_GENODEF_13
1002
{
1000
HIER
1070
     0
1002
}
1002
{
1000
MANEDIT
1070
     0
1002
}
1002
{
1000
NOSEL
1070
     0
1002
}
1002
{
1000
BEHIND
1070
     0
1002
}
1002
{
1000
OTHER
1070
     0
1002
}
1002
{
1000
REACTOR
1002
}
  0
LINE
  5
4AD6
  8
AM_0
 10
381.49652258065697
 20
223.3157786251987
 30
0.0
 11
381.99652258065697
 21
222.8157786251987
 31
0.0
1001
GENIUS_GENFIL_13
1070
     0
1040
0.5
1040
0.5
1040
20.0
1040
0.0
1002
{
1002
}
1001
GENIUS_GENODEF_13
1002
{
1000
HIER
1070
     0
1002
}
1002
{
1000
MANEDIT
1070
     0
1002
}
1002
{
1000
NOSEL
1070
     0
1002
}
1002
{
1000
BEHIND
1070
     0
1002
}
1002
{
1000
OTHER
1070
     0
1002
}
1002
{
1000
REACTOR
1002
}
1001
GENIUS_GENOBJ-N-CHA_13
1002
{
1000
OWNER
1000
GEN
1002
}
  0
CIRCLE
  5
4AD7
  8
AM_0
 10
635.48608875432114
 20
247.315778625203
 30
0.0
 40
24.49999999999989
  0
CIRCLE
  5
4AD8
  8
AM_0
 10
635.48608875432114
 20
247.315778625203
 30
0.0
 40
20.50000000000011
  0
LINE
  5
4AD9
  8
AM_0
 10
384.49652258065697
 20
271.81577862519867
 30
0.0
 11
384.49652258065697
 21
222.81577862519899
 31
0.0
  0
LINE
  5
4ADA
  8
ﾁｭｳｼﾝｾﾝ1
 10
181.9965325806549
 20
265.31577762519851
 30
0.0
 11
181.9965325806555
 21
277.31577762519851
 31
0.0
  0
LINE
  5
4ADB
  8
ﾁｭｳｼﾝｾﾝ1
 10
187.9965325806553
 20
271.31577762519828
 30
0.0
 11
175.9965325806553
 21
271.31577762519902
 31
0.0
  0
LINE
  5
4ADC
  8
ﾁｭｳｼﾝｾﾝ1
 10
181.99653258065479
 20
183.31577762519919
 30
0.0
 11
181.9965325806555
 21
195.3157776251989
 31
0.0
  0
LINE
  5
4ADD
  8
ﾁｭｳｼﾝｾﾝ1
 10
187.99653258065521
 20
189.3157776251989
 30
0.0
 11
175.99653258065521
 21
189.3157776251995
 31
0.0
  0
LINE
  5
4ADE
  8
ﾁｭｳｼﾝｾﾝ1
 10
267.99653258065842
 20
183.3157776251989
 30
0.0
 11
267.99653258065888
 21
195.3157776251989
 31
0.0
  0
LINE
  5
4ADF
  8
ﾁｭｳｼﾝｾﾝ1
 10
273.99653258065871
 20
189.31577762519871
 30
0.0
 11
261.99653258065871
 21
189.3157776251993
 31
0.0
  0
LINE
  5
4AE3
  8
AM_0
 10
562.8480727472687
 20
200.31839179706691
 30
0.0
 11
561.48607875432424
 21
200.3530933250037
 31
0.0
  0
LINE
  5
4AE4
  8
AM_0
 10
561.48608875432421
 20
196.81390819761131
 30
0.0
 11
561.48608875432421
 21
215.88588668241729
 31
0.0
  0
LINE
  5
4AE5
  8
AM_0
 10
558.48608875432421
 20
196.81390819761131
 30
0.0
 11
561.48608875432421
 21
196.81390819761131
 31
0.0
  0
LINE
  5
4AE6
  8
ﾁｭｳｼﾝｾﾝ
 10
116.25870085543301
 20
230.31577762519871
 30
0.0
 11
319.8229635545768
 21
230.31577762519871
 31
0.0
  0
LINE
  5
4AE7
  8
ﾁｭｳｼﾝｾﾝ
 10
311.1471225806568
 20
247.31577862519879
 30
0.0
 11
418.02143199564358
 21
247.31577862519879
 31
0.0
  0
LINE
  5
4AE8
  8
AM_0
 10
294.44894258065688
 20
272.9226236251987
 30
0.0
 11
322.49654258065692
 21
272.9226236251987
 31
0.0
  0
LINE
  5
4AE9
  8
AM_0
 10
284.99654258065692
 20
293.81578162519872
 30
0.0
 11
289.02266258065691
 21
293.71034362519867
 31
0.0
  0
LINE
  5
4AEA
  8
AM_0
 10
292.9965525806569
 20
180.8157626251986
 30
0.0
 11
292.9965525806569
 21
190.3194716251985
 31
0.0
  0
LINE
  5
4AEB
  8
AM_0
 10
290.97035258065682
 20
169.49020162519869
 30
0.0
 11
322.49654258065692
 21
170.31573262519871
 31
0.0
  0
LINE
  5
4AEC
  8
AM_0
 10
289.99655258065678
 20
167.92085062519871
 30
0.0
 11
289.99655258065678
 21
178.8157616251986
 31
0.0
  0
LINE
  5
4AED
  8
AM_0
 10
284.99654258065692
 20
166.81576162519869
 30
0.0
 11
289.95590258065681
 21
166.94562862519871
 31
0.0
  0
LINE
  5
4AEE
  8
AM_0
 10
290.97035258065682
 20
291.14131162519868
 30
0.0
 11
322.49654258065692
 21
290.31578062519873
 31
0.0
  0
LINE
  5
4AEF
  8
AM_0
 10
322.49654258065692
 20
165.50185762519871
 30
0.0
 11
322.49654258065692
 21
290.31578062519873
 31
0.0
  0
LINE
  5
4AF0
  8
AM_0
 10
292.45112258065677
 20
164.7150836251987
 30
0.0
 11
322.49654258065692
 21
165.50184262519869
 31
0.0
  0
LINE
  5
4AF1
  8
AM_0
 10
284.99654258065692
 20
178.8157616251986
 30
0.0
 11
290.99654258065692
 21
178.8157616251986
 31
0.0
  0
LINE
  5
4AF2
  8
AM_0
 10
284.99654258065692
 20
281.81578162519872
 30
0.0
 11
290.99654258065692
 21
281.81578162519872
 31
0.0
  0
LINE
  5
4AF3
  8
AM_0
 10
284.99654258065692
 20
268.31208862519873
 30
0.0
 11
290.99654258065692
 21
268.31208862519873
 31
0.0
  0
LINE
  5
4AF4
  8
AM_0
 10
284.99654258065692
 20
192.3194546251986
 30
0.0
 11
290.99654258065692
 21
192.3194546251986
 31
0.0
  0
LINE
  5
4AF5
  8
AM_0
 10
292.9965525806569
 20
270.31208662519867
 30
0.0
 11
292.9965525806569
 21
279.81578062519873
 31
0.0
  0
LINE
  5
4AF6
  8
AM_0
 10
289.99655258065678
 20
192.3194546251986
 30
0.0
 11
289.99655258065678
 21
268.31208862519873
 31
0.0
  0
LINE
  5
4AF7
  8
AM_0
 10
289.99655258065678
 20
281.81578162519872
 30
0.0
 11
289.99655258065678
 21
292.71067762519868
 31
0.0
  0
LINE
  5
4AF8
  8
AM_0
 10
284.99654258065692
 20
293.81578162519872
 30
0.0
 11
284.99654258065692
 21
166.8157016251987
 31
0.0
  0
LINE
  5
4AF9
  8
AM_0
 10
616.37701575432425
 20
169.22459062519869
 30
0.0
 11
616.37701575432425
 21
174.99812062519871
 31
0.0
  0
LINE
  5
4AFA
  8
AM_0
 10
690.46736775432407
 20
265.7810066251987
 30
0.0
 11
690.46736775432407
 21
271.55448862519847
 31
0.0
  0
LINE
  5
4AFB
  8
AM_0
 10
611.37704775432405
 20
177.8848526251987
 30
0.0
 11
606.37706175432425
 21
174.9981056251986
 31
0.0
  0
LINE
  5
4AFC
  8
AM_0
 10
654.59517375432415
 20
169.22459062519869
 30
0.0
 11
659.59517175432416
 21
166.33784062519871
 31
0.0
  0
LINE
  5
4AFD
  8
AM_0
 10
611.37704775432405
 20
166.3378556251987
 30
0.0
 11
616.37704875432405
 21
169.22460562519871
 31
0.0
  0
LINE
  5
4AFE
  8
AM_0
 10
659.59515675432408
 20
166.3378556251987
 30
0.0
 11
664.5951577543243
 21
169.22460562519871
 31
0.0
  0
LINE
  5
4AFF
  8
AM_0
 10
680.46736575432431
 20
271.55448862519847
 30
0.0
 11
680.46736575432431
 21
265.7810066251987
 31
0.0
  0
LINE
  5
4B00
  8
AM_0
 10
616.37704875432405
 20
174.99809062519861
 30
0.0
 11
611.37706275432436
 21
177.88483762519871
 31
0.0
  0
LINE
  5
4B01
  8
AM_0
 10
685.46736675432408
 20
262.89422662519871
 30
0.0
 11
690.46736775432407
 21
265.78099162519868
 31
0.0
  0
LINE
  5
4B02
  8
AM_0
 10
632.48608875432387
 20
259.31577862519867
 30
0.0
 11
632.48608875432387
 21
253.3157786251987
 31
0.0
  0
LINE
  5
4B03
  8
AM_0
 10
632.48608875432387
 20
253.3157786251987
 30
0.0
 11
638.4860887543241
 21
253.3157786251987
 31
0.0
  0
LINE
  5
4B04
  8
AM_0
 10
638.4860887543241
 20
253.3157786251987
 30
0.0
 11
638.4860887543241
 21
259.31577862519867
 31
0.0
  0
LINE
  5
4B05
  8
AM_0
 10
638.4860887543241
 20
259.31577862519867
 30
0.0
 11
632.48608875432387
 21
259.31577862519867
 31
0.0
  0
LINE
  5
4B06
  8
AM_0
 10
412.49654258065692
 20
237.8157806251987
 30
0.0
 11
412.49654258065681
 21
259.31578062519873
 31
0.0
  0
LINE
  5
4B07
  8
AM_0
 10
388.49652258065697
 20
256.81579462519869
 30
0.0
 11
412.49654258065692
 21
256.81579462519869
 31
0.0
  0
LINE
  5
4B08
  8
AM_0
 10
388.49652258065743
 20
237.8157806251987
 30
0.0
 11
412.49654258065692
 21
237.8157806251987
 31
0.0
  0
LINE
  5
4B09
  8
AM_0
 10
605.78760075432433
 20
214.78886362519879
 30
0.0
 11
629.6393767543243
 21
190.93708462519871
 31
0.0
  0
LINE
  5
4B0A
  8
AM_0
 10
322.49654258065692
 20
272.9226236251987
 30
0.0
 11
352.6925625806569
 21
272.9226236251987
 31
0.0
  0
LINE
  5
4B0B
  8
AM_0
 10
611.00674575432436
 20
268.96668862519869
 30
0.0
 11
589.6646737543241
 21
290.30876062519877
 31
0.0
  0
LINE
  5
4B0C
  8
ﾁｭｳｼﾝｾﾝ1
 10
582.45308625112011
 20
194.2827611219945
 30
0.0
 11
568.31095062738916
 21
180.1406254982634
 31
0.0
  0
LINE
  5
4B0D
  8
ﾁｭｳｼﾝｾﾝ
 10
553.17876234682569
 20
247.315778625203
 30
0.0
 11
717.79341516181705
 21
247.315778625203
 31
0.0
  0
LINE
  5
4B0E
  8
AM_0
 10
635.4860887543241
 20
322.31577562519868
 30
0.0
 11
655.4861017543243
 21
322.31577562519868
 31
0.0
  0
LINE
  5
4B0F
  8
AM_0
 10
670.80960675432436
 20
181.8157466251987
 30
0.0
 11
635.4860887543241
 21
181.8157466251987
 31
0.0
  0
LINE
  5
4B10
  8
AM_0
 10
600.16257075432429
 20
181.8157466251987
 30
0.0
 11
635.4860887543241
 21
181.8157466251987
 31
0.0
  0
LINE
  5
4B11
  8
AM_0
 10
710.48610375432406
 20
247.31577862519879
 30
0.0
 11
710.48610375432406
 21
267.31574962519869
 31
0.0
  0
LINE
  5
4B12
  8
AM_0
 10
390.49652258065692
 20
259.31578062519873
 30
0.0
 11
412.49654258065692
 21
259.31578062519873
 31
0.0
  0
LINE
  5
4B13
  8
AM_0
 10
680.46736575432431
 20
265.78095862519848
 30
0.0
 11
685.46736675432408
 21
262.89422662519871
 31
0.0
  0
LINE
  5
4B14
  8
AM_0
 10
606.37703175432432
 20
174.99812062519871
 30
0.0
 11
606.37703175432432
 21
169.22459062519869
 31
0.0
  0
LINE
  5
4B15
  8
AM_0
 10
690.46736775432407
 20
271.55448862519847
 30
0.0
 11
685.46736675432408
 21
274.44123862519871
 31
0.0
  0
LINE
  5
4B16
  8
AM_0
 10
585.50483775432394
 20
262.89422662519871
 30
0.0
 11
590.50485375432413
 21
265.78097362519873
 31
0.0
  0
LINE
  5
4B17
  8
AM_0
 10
606.37706175432425
 20
169.22459062519869
 30
0.0
 11
611.37706275432436
 21
166.33784062519871
 31
0.0
  0
LINE
  5
4B18
  8
AM_0
 10
664.59517275432415
 20
174.99809062519861
 30
0.0
 11
659.59517175432416
 21
177.88483762519871
 31
0.0
  0
LINE
  5
4B19
  8
AM_0
 10
659.59515675432408
 20
177.8848706251986
 30
0.0
 11
654.5951587543243
 21
174.9981056251986
 31
0.0
  0
LINE
  5
4B1A
  8
AM_0
 10
590.50483875432406
 20
265.7810066251987
 30
0.0
 11
590.50483875432406
 21
271.55448862519847
 31
0.0
  0
LINE
  5
4B1B
  8
AM_0
 10
590.50485375432413
 20
271.55445862519861
 30
0.0
 11
585.50487075432432
 21
274.44120862519873
 31
0.0
  0
LINE
  5
4B1C
  8
AM_0
 10
585.50487075432432
 20
274.44120862519873
 30
0.0
 11
580.5048697543242
 21
271.55445862519861
 31
0.0
  0
LINE
  5
4B1D
  8
AM_0
 10
580.50483975432417
 20
271.55448862519847
 30
0.0
 11
580.50483975432417
 21
265.7810066251987
 31
0.0
  0
LINE
  5
4B1E
  8
AM_0
 10
580.5048697543242
 20
265.78095862519848
 30
0.0
 11
585.50487075432432
 21
262.89421162519869
 31
0.0
  0
LINE
  5
4B1F
  8
AM_0
 10
685.46736675432408
 20
274.44123862519871
 30
0.0
 11
680.46736575432431
 21
271.55448862519847
 31
0.0
  0
LINE
  5
4B20
  8
AM_0
 10
664.5951577543243
 20
169.22459062519869
 30
0.0
 11
664.5951577543243
 21
174.99812062519871
 31
0.0
  0
LINE
  5
4B21
  8
AM_0
 10
654.5951587543243
 20
174.99812062519871
 30
0.0
 11
654.5951587543243
 21
169.22459062519869
 31
0.0
  0
LINE
  5
4B22
  8
AM_0
 10
354.49655258065678
 20
311.54688562519868
 30
0.0
 11
354.49655258065678
 21
205.5804716251987
 31
0.0
  0
LINE
  5
4B23
  8
AM_0
 10
322.49654258065692
 20
290.31578062519873
 30
0.0
 11
351.57506258065678
 21
291.07722562519882
 31
0.0
  0
LINE
  5
4B24
  8
AM_0
 10
359.49650258065691
 20
200.58047362519869
 30
0.0
 11
367.49654258065692
 21
200.58047362519869
 31
0.0
  0
LINE
  5
4B25
  8
AM_0
 10
322.49654258065692
 20
177.5351366251987
 30
0.0
 11
358.49654258065692
 21
177.5351366251987
 31
0.0
  0
LINE
  5
4B26
  8
AM_0
 10
390.49652258065692
 20
256.81579462519869
 30
0.0
 11
390.49652258065692
 21
259.31578062519873
 31
0.0
  0
LINE
  5
4B27
  8
AM_0
 10
359.4703425806569
 20
181.23899662519861
 30
0.0
 11
367.49657258065679
 21
181.44915562519861
 31
0.0
  0
LINE
  5
4B28
  8
AM_0
 10
358.49654258065692
 20
180.5145536251986
 30
0.0
 11
358.49654258065692
 21
164.31576262519869
 31
0.0
  0
LINE
  5
4B29
  8
AM_0
 10
611.00674575432436
 20
225.66486862519869
 30
0.0
 11
589.66465875432425
 21
204.3227816251987
 31
0.0
  0
LINE
  5
4B2A
  8
AM_0
 10
613.61432175432435
 20
222.61558462519869
 30
0.0
 11
592.49308875432428
 21
201.4943516251987
 31
0.0
  0
LINE
  5
4B2B
  8
AM_0
 10
676.83258375432399
 20
262.36463962519872
 30
0.0
 11
681.04552275432411
 21
250.78968862519881
 31
0.0
  0
LINE
  5
4B2C
  8
AM_0
 10
665.79410175432429
 20
194.45527462519871
 30
0.0
 11
666.79344675432435
 21
192.8377646251987
 31
0.0
  0
LINE
  5
4B2D
  8
AM_0
 10
322.49654258065692
 20
165.50185762519871
 30
0.0
 11
358.4965725806569
 21
164.24471662519869
 31
0.0
  0
LINE
  5
4B2E
  8
AM_0
 10
659.43918375432395
 20
185.81576362519871
 30
0.0
 11
611.5330087543241
 21
185.81576362519871
 31
0.0
  0
LINE
  5
4B2F
  8
AM_0
 10
669.19701075432431
 20
196.5577076251987
 30
0.0
 11
670.19635575432414
 21
194.94019762519861
 31
0.0
  0
LINE
  5
4B30
  8
AM_0
 10
657.13699875432405
 20
271.79511862519871
 30
0.0
 11
678.47907075432431
 21
293.13719062519868
 31
0.0
  0
LINE
  5
4B31
  8
AM_0
 10
613.83517875432437
 20
271.79511862519871
 30
0.0
 11
592.49310375432435
 21
293.13719062519868
 31
0.0
  0
LINE
  5
4B32
  8
AM_0
 10
369.42674258065688
 20
322.03395562519847
 30
0.0
 11
377.49653258065689
 21
322.31574562519859
 31
0.0
  0
LINE
  5
4B33
  8
AM_0
 10
381.49655258065678
 20
317.31579562519869
 30
0.0
 11
381.49655258065678
 21
247.31577862519879
 31
0.0
  0
LINE
  5
4B34
  8
AM_0
 10
596.98718475432429
 20
176.3157626251986
 30
0.0
 11
600.16260075432433
 21
181.8157616251986
 31
0.0
  0
LINE
  5
4B35
  8
AM_0
 10
381.49655258065678
 20
247.31577862519879
 30
0.0
 11
381.49655258065678
 21
181.8157616251986
 31
0.0
  0
LINE
  5
4B36
  8
AM_0
 10
377.49650258065691
 20
322.31577562519868
 30
0.0
 11
377.49650258065691
 21
177.41195362519861
 31
0.0
  0
LINE
  5
4B37
  8
AM_0
 10
369.4267725806568
 20
177.69375262519861
 30
0.0
 11
377.49653258065689
 21
177.41195362519861
 31
0.0
  0
LINE
  5
4B38
  8
AM_0
 10
377.49650258065691
 20
317.31579562519869
 30
0.0
 11
381.49655258065678
 21
317.31579562519869
 31
0.0
  0
LINE
  5
4B39
  8
AM_0
 10
377.49653258065689
 20
181.7110256251986
 30
0.0
 11
381.49655258065678
 21
181.8157616251986
 31
0.0
  0
LINE
  5
4B3A
  8
AM_0
 10
372.4965525806569
 20
306.81578062519873
 30
0.0
 11
372.4965525806569
 21
192.70045162519861
 31
0.0
  0
LINE
  5
4B3B
  8
AM_0
 10
359.32202258065689
 20
316.54383562519882
 30
0.0
 11
364.60127258065683
 21
316.72818562519871
 31
0.0
  0
LINE
  5
4B3C
  8
AM_0
 10
367.49654258065692
 20
320.03520562519873
 30
0.0
 11
367.49654258065692
 21
287.7561506251987
 31
0.0
  0
LINE
  5
4B3D
  8
AM_0
 10
659.96542875432431
 20
268.96668862519869
 30
0.0
 11
681.30751575432407
 21
290.30876062519877
 31
0.0
  0
LINE
  5
4B3E
  8
ﾁｭｳｼﾝｾﾝ
 10
635.4860887543241
 20
160.64400862519869
 30
0.0
 11
635.4860887543241
 21
326.62714742253218
 31
0.0
  0
LINE
  5
4B3F
  8
ﾁｭｳｼﾝｾﾝ
 10
668.95542610693883
 20
230.31577762519871
 30
0.0
 11
602.0167514017096
 21
230.31577762519871
 31
0.0
  0
LINE
  5
4B40
  8
AM_0
 10
684.32126475432415
 20
241.7896856251987
 30
0.0
 11
693.34546275432433
 21
216.99587962519871
 31
0.0
  0
LINE
  5
4B41
  8
AM_0
 10
633.9860887543241
 20
310.15483162519882
 30
0.0
 11
633.9860887543241
 21
294.09986962519872
 31
0.0
  0
LINE
  5
4B42
  8
AM_0
 10
636.98608875432387
 20
310.15483162519882
 30
0.0
 11
636.98608875432387
 21
294.09986962519872
 31
0.0
  0
LINE
  5
4B43
  8
AM_0
 10
572.64699075432429
 20
245.8157786251987
 30
0.0
 11
588.70199775432411
 21
245.8157786251987
 31
0.0
  0
LINE
  5
4B44
  8
AM_0
 10
572.64699075432429
 20
248.8157786251987
 30
0.0
 11
588.70199775432411
 21
248.8157786251987
 31
0.0
  0
LINE
  5
4B45
  8
AM_0
 10
698.32518675432414
 20
248.8157786251987
 30
0.0
 11
683.86458375432414
 21
248.8157786251987
 31
0.0
  0
LINE
  5
4B46
  8
AM_0
 10
698.32518675432414
 20
245.8157786251987
 30
0.0
 11
687.14032575432395
 21
245.8157786251987
 31
0.0
  0
LINE
  5
4B47
  8
AM_0
 10
367.49654258065692
 20
179.69253262519871
 30
0.0
 11
367.49654258065692
 21
206.78077462519869
 31
0.0
  0
LINE
  5
4B48
  8
AM_0
 10
643.09932375432425
 20
198.09119962519861
 30
0.0
 11
614.58091875432433
 21
225.79894762519871
 31
0.0
  0
LINE
  5
4B49
  8
AM_0
 10
676.10074275432407
 20
218.48055862519871
 30
0.0
 11
664.08305775432405
 21
256.38297862519869
 31
0.0
  0
LINE
  5
4B4A
  8
AM_0
 10
673.985049754324
 20
176.31573262519871
 30
0.0
 11
670.80962175432433
 21
181.81573162519871
 31
0.0
  0
LINE
  5
4B4B
  8
AM_0
 10
635.4860887543241
 20
322.31577562519868
 30
0.0
 11
615.48610275432395
 21
322.31577562519868
 31
0.0
  0
LINE
  5
4B4C
  8
AM_0
 10
655.48608675432411
 20
322.31577562519868
 30
0.0
 11
697.70227575432432
 21
318.62235562519868
 31
0.0
  0
LINE
  5
4B4D
  8
AM_0
 10
615.48608775432433
 20
322.31577562519868
 30
0.0
 11
573.26991375432408
 21
318.62232562519881
 31
0.0
  0
LINE
  5
4B4E
  8
AM_0
 10
560.4861007543243
 20
247.31577862519879
 30
0.0
 11
560.4861007543243
 21
267.31574962519869
 31
0.0
  0
LINE
  5
4B4F
  8
AM_0
 10
710.48608875432433
 20
267.31574962519869
 30
0.0
 11
706.79265375432431
 21
309.53193862519868
 31
0.0
  0
LINE
  5
4B50
  8
AM_0
 10
673.98503475432415
 20
176.3157626251986
 30
0.0
 11
696.86085975432434
 21
176.3157626251986
 31
0.0
  0
LINE
  5
4B51
  8
AM_0
 10
560.48607075432426
 20
267.31577962519867
 30
0.0
 11
564.17952075432413
 21
309.53196862519877
 31
0.0
  0
LINE
  5
4B52
  8
AM_0
 10
560.4861007543243
 20
227.31576262519869
 30
0.0
 11
564.14940075432435
 21
185.44419562519869
 31
0.0
  0
LINE
  5
4B53
  8
AM_0
 10
710.48610375432406
 20
227.31577762519871
 30
0.0
 11
706.82282175432431
 21
185.44421062519871
 31
0.0
  0
LINE
  5
4B54
  8
AM_0
 10
560.4861007543243
 20
247.31577862519879
 30
0.0
 11
560.4861007543243
 21
227.31577762519871
 31
0.0
  0
LINE
  5
4B55
  8
AM_0
 10
596.98715475432425
 20
176.3157626251986
 30
0.0
 11
574.11131475432433
 21
176.3157626251986
 31
0.0
  0
LINE
  5
4B56
  8
AM_0
 10
710.48610375432406
 20
247.31577862519879
 30
0.0
 11
710.48610375432406
 21
227.31577762519871
 31
0.0
  0
LINE
  5
4B57
  8
AM_0
 10
611.3770327543242
 20
165.11135662519871
 30
0.0
 11
659.59517175432416
 21
165.11135662519871
 31
0.0
  0
LINE
  5
4B58
  8
AM_0
 10
362.4965025806568
 20
176.42385562519871
 30
0.0
 11
362.4965025806568
 21
167.79884062519869
 31
0.0
  0
LINE
  5
4B59
  8
AM_0
 10
362.0517525806568
 20
177.86135662519871
 30
0.0
 11
358.49654258065692
 21
177.86135662519871
 31
0.0
  0
LINE
  5
4B5A
  8
AM_0
 10
362.0517525806568
 20
166.36135462519869
 30
0.0
 11
358.49654258065692
 21
166.36135462519869
 31
0.0
  0
LINE
  5
4B5B
  8
AM_0
 10
362.0517525806568
 20
174.9863546251986
 30
0.0
 11
358.49654258065692
 21
174.9863546251986
 31
0.0
  0
LINE
  5
4B5C
  8
AM_0
 10
362.0517525806568
 20
169.23635662519871
 30
0.0
 11
358.49654258065692
 21
169.23635662519871
 31
0.0
  0
LINE
  5
4B5D
  8
AM_0
 10
290.84804258065691
 20
166.44599662519869
 30
0.0
 11
291.55892258065683
 21
165.21474862519869
 31
0.0
  0
ARC
  5
4B5E
  8
AM_0
 10
290.99654258065692
 20
292.14100762519882
 30
0.0
 40
1.0000000199999981
 50
179.999989999999
 51
268.50000999999878
  0
ARC
  5
4B5F
  8
AM_0
 10
288.99653258065689
 20
292.71067762519868
 30
0.0
 40
1.0000000199999981
 50
0.0
 51
88.499997000000747
  0
ARC
  5
4B60
  8
AM_0
 10
288.99653258065689
 20
167.92085062519871
 30
0.0
 40
1.0000000199999981
 50
271.50000000000267
 51
0.0
  0
ARC
  5
4B61
  8
AM_0
 10
290.99654258065692
 20
168.49055062519869
 30
0.0
 40
1.0000000199999981
 50
91.500001000001546
 51
180.00001000000091
  0
ARC
  5
4B62
  8
AM_0
 10
290.99654258065692
 20
190.3194716251985
 30
0.0
 40
2.00000007
 50
0.0
 51
90.00000299999769
  0
ARC
  5
4B63
  8
AM_0
 10
290.99654258065692
 20
180.8157626251986
 30
0.0
 40
2.00000007
 50
270.0
 51
0.0
  0
ARC
  5
4B64
  8
AM_0
 10
290.99654258065692
 20
270.31208662519867
 30
0.0
 40
2.00000007
 50
270.0
 51
0.0
  0
ARC
  5
4B65
  8
AM_0
 10
290.99654258065692
 20
279.81578062519873
 30
0.0
 40
2.00000007
 50
0.0
 51
90.00000299999769
  0
ARC
  5
4B66
  8
AM_0
 10
635.4860887543241
 20
247.31577862519879
 30
0.0
 40
44.000000999999983
 50
47.547317000001861
 51
84.50581900000067
  0
CIRCLE
  5
4B67
  8
AM_0
 10
685.46735175432434
 20
268.66773862519869
 30
0.0
 40
4.9999998000000003
  0
CIRCLE
  5
4B68
  8
AM_0
 10
611.3770327543242
 20
172.1113706251987
 30
0.0
 40
4.9999998000000003
  0
ARC
  5
4B69
  8
AM_0
 10
635.4860887543241
 20
247.31577862519879
 30
0.0
 40
9.5000003999999993
 50
108.4084799999997
 51
71.591512000000776
  0
CIRCLE
  5
4B6A
  8
AM_5
 10
635.4860887543241
 20
247.31577862519879
 30
0.0
 40
3.0
  0
CIRCLE
  5
4B6B
  8
AM_0
 10
635.4860887543241
 20
247.31577862519879
 30
0.0
 40
2.4999998400000001
  0
ARC
  5
4B6C
  8
AM_0
 10
615.73564575432431
 20
220.49426062519871
 30
0.0
 40
3.0
 50
45.826030999997961
 51
135.0
  0
ARC
  5
4B6D
  8
AM_0
 10
635.4860887543241
 20
247.31577862519879
 30
0.0
 40
44.000000999999983
 50
19.999999000006291
 51
42.452681999998767
  0
CIRCLE
  5
4B6E
  8
AM_0
 10
695.59018575432435
 20
187.21168162519871
 30
0.0
 40
5.0000001000000003
  0
ARC
  5
4B6F
  8
AM_0
 10
635.4860887543241
 20
247.31577862519879
 30
0.0
 40
44.000000999999983
 50
95.494178999999406
 51
132.45267999999831
  0
ARC
  5
4B70
  8
AM_0
 10
670.99142775432415
 20
175.8697016251987
 30
0.0
 40
5.0000001000000003
 50
123.1091299999986
 51
198.25197999999841
  0
ARC
  5
4B71
  8
AM_0
 10
599.98077675432432
 20
175.8697016251987
 30
0.0
 40
5.0000001000000003
 50
341.74802000000159
 51
56.890858999997633
  0
ARC
  5
4B72
  8
AM_0
 10
587.54335275432425
 20
206.4440906251987
 30
0.0
 40
3.0
 50
220.44792000000331
 51
315.0
  0
ARC
  5
4B73
  8
AM_0
 10
664.24125975432435
 20
191.26095262519871
 30
0.0
 40
3.0
 50
297.15705000000168
 51
31.709121999997731
  0
ARC
  5
4B74
  8
AM_0
 10
672.74852475432431
 20
196.51700962519871
 30
0.0
 40
3.0
 50
211.7091200000003
 51
306.26119999999651
  0
ARC
  5
4B75
  8
AM_0
 10
635.4860887543241
 20
247.31577862519879
 30
0.0
 40
70.000001999999995
 50
290.6561499999973
 51
249.34384000000179
  0
ARC
  5
4B76
  8
AM_0
 10
635.4860887543241
 20
247.31577862519879
 30
0.0
 40
66.000003000000007
 50
291.2799600000028
 51
248.72003000000129
  0
ARC
  5
4B77
  8
AM_0
 10
657.03610575432413
 20
212.4357596251987
 30
0.0
 40
20.000000700000001
 50
225.8260300000002
 51
17.592213999998648
  0
CIRCLE
  5
4B78
  8
AM_0
 10
695.59018575432435
 20
307.41984562519872
 30
0.0
 40
5.0000001000000003
  0
CIRCLE
  5
4B79
  8
AM_0
 10
575.3820367543243
 20
187.21168162519871
 30
0.0
 40
5.0000001000000003
  0
ARC
  5
4B7A
  8
AM_0
 10
611.3770327543242
 20
172.11134062519849
 30
0.0
 40
7.0000007999999987
 50
161.74802000000159
 51
270.0
  0
ARC
  5
4B7B
  8
AM_0
 10
635.4860887543241
 20
230.31577762519871
 30
0.0
 40
60.000002999999992
 50
233.93341000000211
 51
236.89085000000259
  0
ARC
  5
4B7C
  8
AM_0
 10
635.4860887543241
 20
230.31577762519871
 30
0.0
 40
60.000002999999992
 50
303.10914000000122
 51
304.41150999999837
  0
CIRCLE
  5
4B7D
  8
AM_0
 10
575.3820367543243
 20
307.41984562519872
 30
0.0
 40
5.0000001000000003
  0
ARC
  5
4B7E
  8
ﾁｭｳｼﾝｾﾝ1
 10
635.48608875432399
 20
247.31577862519879
 30
0.0
 40
85.00000199999981
 50
217.5299731358256
 51
232.5366254851925
  0
CIRCLE
  5
4B7F
  8
AM_0
 10
659.59517175432416
 20
172.1113706251987
 30
0.0
 40
4.9999998000000003
  0
CIRCLE
  5
4B80
  8
AM_0
 10
585.50483775432394
 20
268.66773862519869
 30
0.0
 40
4.9999998000000003
  0
ARC
  5
4B81
  8
AM_0
 10
369.49655258065678
 20
287.7561506251987
 30
0.0
 40
2.00000007
 50
179.999989999999
 51
271.51463999999908
  0
ARC
  5
4B82
  8
AM_0
 10
364.49654258065692
 20
319.7263856251987
 30
0.0
 40
3.0
 50
271.9999999999971
 51
0.0
  0
ARC
  5
4B83
  8
AM_0
 10
608.88542475432428
 20
266.84536762519872
 30
0.0
 40
3.0
 50
323.71473999999722
 51
45.000001000003223
  0
ARC
  5
4B84
  8
AM_0
 10
635.4860887543241
 20
247.31577862519879
 30
0.0
 40
44.000000999999983
 50
137.54731999999819
 51
174.50581000000039
  0
ARC
  5
4B85
  8
AM_0
 10
594.61441275432435
 20
199.37303062519871
 30
0.0
 40
3.0
 50
135.0
 51
229.5520800000011
  0
ARC
  5
4B86
  8
AM_0
 10
594.61441275432435
 20
295.25849962519868
 30
0.0
 40
3.0
 50
130.4479300000001
 51
225.0
  0
ARC
  5
4B87
  8
AM_0
 10
655.01570475432425
 20
273.91642762519871
 30
0.0
 40
3.0
 50
233.71475000000001
 51
315.0
  0
ARC
  5
4B88
  8
AM_0
 10
630.98608575432434
 20
310.15483162519882
 30
0.0
 40
3.0
 50
0.0
 51
94.096045999998367
  0
ARC
  5
4B89
  8
AM_0
 10
608.88542475432428
 20
227.78617762519869
 30
0.0
 40
3.0
 50
315.0
 51
36.285256999998218
  0
ARC
  5
4B8A
  8
AM_0
 10
683.42883675432415
 20
288.18745462519882
 30
0.0
 40
3.0
 50
40.447928999996982
 51
135.0
  0
ARC
  5
4B8B
  8
AM_0
 10
359.49650258065691
 20
311.54688562519868
 30
0.0
 40
5.0000001000000003
 50
91.999998000000545
 51
180.00001000000091
  0
ARC
  5
4B8C
  8
AM_0
 10
359.49650258065691
 20
205.5804716251987
 30
0.0
 40
5.0000001000000003
 50
179.999989999999
 51
270.0
  0
ARC
  5
4B8D
  8
AM_0
 10
359.49650258065691
 20
180.23933062519851
 30
0.0
 40
1.0000000199999981
 50
91.500001000001546
 51
180.00001000000091
  0
ARC
  5
4B8E
  8
AM_0
 10
369.49655258065678
 20
306.81578062519873
 30
0.0
 40
3.0
 50
0.0
 51
90.00000299999769
  0
ARC
  5
4B8F
  8
AM_0
 10
351.4965525806569
 20
294.07621762519858
 30
0.0
 40
3.0
 50
271.50000000000267
 51
0.0
  0
ARC
  5
4B90
  8
AM_0
 10
587.54335275432425
 20
288.18745462519882
 30
0.0
 40
3.0
 50
45.000001000003223
 51
139.55207999999661
  0
ARC
  5
4B91
  8
AM_0
 10
676.35779175432413
 20
295.25849962519868
 30
0.0
 40
3.0
 50
315.0
 51
49.552073000000021
  0
ARC
  5
4B92
  8
AM_0
 10
369.49655258065678
 20
320.03520562519873
 30
0.0
 40
2.00000007
 50
91.999998000000545
 51
180.00001000000091
  0
ARC
  5
4B93
  8
AM_0
 10
639.9860887543241
 20
310.15483162519882
 30
0.0
 40
3.0
 50
85.903958999999986
 51
180.00001000000091
  0
ARC
  5
4B94
  8
AM_0
 10
572.64699075432429
 20
242.8157786251987
 30
0.0
 40
3.0
 50
90.00000299999769
 51
184.0960400000007
  0
ARC
  5
4B95
  8
AM_0
 10
635.4860887543241
 20
247.31577862519879
 30
0.0
 40
44.000000999999983
 50
185.49418999999949
 51
222.45268000000121
  0
ARC
  5
4B96
  8
AM_0
 10
630.98608575432434
 20
294.09986962519872
 30
0.0
 40
3.0
 50
275.49418000000247
 51
0.0
  0
ARC
  5
4B97
  8
AM_0
 10
639.9860887543241
 20
294.09986962519872
 30
0.0
 40
3.0
 50
179.999989999999
 51
264.50581999999741
  0
ARC
  5
4B98
  8
AM_0
 10
572.64699075432429
 20
251.8157786251987
 30
0.0
 40
3.0
 50
175.90394999999901
 51
270.0
  0
ARC
  5
4B99
  8
AM_0
 10
588.70199775432411
 20
242.8157786251987
 30
0.0
 40
3.0
 50
5.4941789999992992
 51
90.00000299999769
  0
ARC
  5
4B9A
  8
AM_0
 10
588.70199775432411
 20
251.8157786251987
 30
0.0
 40
3.0
 50
270.0
 51
354.50582000000048
  0
ARC
  5
4B9B
  8
AM_0
 10
698.32518675432414
 20
251.8157786251987
 30
0.0
 40
3.0
 50
270.0
 51
4.096044000000556
  0
ARC
  5
4B9C
  8
AM_0
 10
698.32518675432414
 20
242.8157786251987
 30
0.0
 40
3.0
 50
355.9039599999993
 51
90.00000299999769
  0
ARC
  5
4B9D
  8
AM_0
 10
687.14032575432395
 20
242.8157786251987
 30
0.0
 40
3.0
 50
90.00000299999769
 51
200.00000000000219
  0
ARC
  5
4B9E
  8
AM_0
 10
683.86458375432414
 20
251.8157786251987
 30
0.0
 40
3.0
 50
200.00000000000219
 51
270.0
  0
ARC
  5
4B9F
  8
AM_0
 10
369.49655258065678
 20
206.78077462519869
 30
0.0
 40
2.00000007
 50
90.00000299999769
 51
180.00001000000091
  0
ARC
  5
4BA0
  8
AM_0
 10
369.49655258065678
 20
179.69253262519871
 30
0.0
 40
2.00000007
 50
179.999989999999
 51
268.00000999999872
  0
ARC
  5
4BA1
  8
AM_0
 10
370.49654258065692
 20
192.70045162519861
 30
0.0
 40
2.00000007
 50
268.0000000000029
 51
0.0
  0
ARC
  5
4BA2
  8
AM_0
 10
635.4860887543241
 20
247.31577862519879
 30
0.0
 40
30.0
 50
17.592213999998648
 51
225.8260300000002
  0
ARC
  5
4BA3
  8
AM_0
 10
662.08674975432405
 20
266.84536762519872
 30
0.0
 40
3.0
 50
135.0
 51
216.28526000000289
  0
ARC
  5
4BA4
  8
AM_0
 10
615.95649975432411
 20
273.91642762519871
 30
0.0
 40
3.0
 50
225.0
 51
306.28525999999772
  0
ARC
  5
4BA5
  8
AM_0
 10
696.83072475432414
 20
308.66038462519867
 30
0.0
 40
10.000000200000001
 50
4.99999990000107
 51
84.999996999998729
  0
ARC
  5
4BA6
  8
AM_0
 10
635.4860887543241
 20
230.31577762519871
 30
0.0
 40
60.000002999999992
 50
303.10914000000122
 51
306.06658999999792
  0
ARC
  5
4BA7
  8
AM_0
 10
574.14149775432395
 20
308.66038462519867
 30
0.0
 40
10.000000200000001
 50
95.00000199999856
 51
175.0000100000004
  0
ARC
  5
4BA8
  8
AM_0
 10
696.86085975432434
 20
186.3157466251987
 30
0.0
 40
10.000000200000001
 50
270.0
 51
354.99999999999977
  0
ARC
  5
4BA9
  8
AM_0
 10
574.11131475432433
 20
186.3157466251987
 30
0.0
 40
10.000000200000001
 50
184.99998999999951
 51
270.0
  0
ARC
  5
4BAA
  8
AM_0
 10
627.51805575432434
 20
188.81576362519871
 30
0.0
 40
3.0
 50
270.0
 51
45.000001000003223
  0
ARC
  5
4BAB
  8
AM_0
 10
659.59517175432416
 20
172.11134062519849
 30
0.0
 40
7.0000007999999987
 50
270.0
 51
18.251978000001721
  0
ARC
  5
4BAC
  8
AM_0
 10
359.95112258065677
 20
167.79884062519869
 30
0.0
 40
2.5454064299999981
 50
325.61556999999817
 51
34.384439000003397
  0
ARC
  5
4BAD
  8
AM_0
 10
359.95112258065677
 20
176.42385562519871
 30
0.0
 40
2.5454064299999981
 50
325.61556999999817
 51
34.384439000003397
  0
ARC
  5
4BAE
  8
AM_0
 10
352.98203258065689
 20
172.11135562519871
 30
0.0
 40
9.5144921999999994
 50
342.41195999999599
 51
17.588032999999289
  0
ARC
  5
4BAF
  8
AM_0
 10
289.98206258065682
 20
165.94596562519871
 30
0.0
 40
1.0000000199999981
 50
30.000000999998431
 51
91.500001000001546
  0
ARC
  5
4BB0
  8
AM_0
 10
292.4249325806569
 20
165.7147346251987
 30
0.0
 40
1.0000000199999981
 50
210.00000000000119
 51
271.50000000000267
  0
LINE
  5
4BCB
  8
ﾁｭｳｼﾝｾﾝ1
 10
688.51910625752873
 20
194.282776121994
 30
0.0
 11
702.66124188125957
 21
180.14064049826291
 31
0.0
  0
ARC
  5
4BCC
  8
ﾁｭｳｼﾝｾﾝ1
 10
635.48608875432444
 20
247.31577862519779
 30
0.0
 40
85.00000199999981
 50
307.52997313582227
 51
322.53662548519128
  0
LINE
  5
4BCD
  8
ﾁｭｳｼﾝｾﾝ1
 10
688.51909125752911
 20
300.34879612840263
 30
0.0
 11
702.66122688125995
 21
314.49093175213352
 31
0.0
  0
ARC
  5
4BCE
  8
ﾁｭｳｼﾝｾﾝ1
 10
635.48608875432524
 20
247.31577862519839
 30
0.0
 40
85.00000199999981
 50
37.529973135825003
 51
52.536625485192438
  0
LINE
  5
4BCF
  8
ﾁｭｳｼﾝｾﾝ1
 10
582.45307125112072
 20
300.34878112840312
 30
0.0
 11
568.31093562738965
 21
314.49091675213401
 31
0.0
  0
ARC
  5
4BD0
  8
ﾁｭｳｼﾝｾﾝ1
 10
635.48608875432444
 20
247.31577862519919
 30
0.0
 40
85.00000199999981
 50
127.529973135822
 51
142.53662548519131
  0
LINE
  5
5027
  8
ﾁｭｳｼﾝｾﾝ
 10
116.3478325806569
 20
519.66619435380176
 30
0.0
 11
417.86034258065672
 21
519.66619435380176
 31
0.0
  0
LINE
  5
5028
  8
AM_0
 10
390.49651258065671
 20
516.66619435380176
 30
0.0
 11
390.49651258065671
 21
522.66619435380198
 31
0.0
  0
LINE
  5
5029
  8
AM_0
 10
388.49652258065743
 20
510.16619435380198
 30
0.0
 11
412.49654258065692
 21
510.16619435380198
 31
0.0
  0
LINE
  5
502A
  8
AM_0
 10
388.49652258065697
 20
529.16619435380176
 30
0.0
 11
412.49654258065692
 21
529.16619435380176
 31
0.0
  0
LINE
  5
502B
  8
AM_0
 10
412.49654258065692
 20
510.16619435380198
 30
0.0
 11
412.49654258065692
 21
529.16619435380176
 31
0.0
  0
LINE
  5
502C
  8
AM_0
 10
390.49651258065671
 20
516.66619435380176
 30
0.0
 11
412.49654258065692
 21
516.66619435380176
 31
0.0
  0
LINE
  5
502D
  8
AM_0
 10
390.49651258065671
 20
522.66619435380198
 30
0.0
 11
412.49654258065692
 21
522.66619435380198
 31
0.0
  0
LINE
  5
5067
  8
AM_0
 10
284.99657258065668
 20
455.66619435380159
 30
0.0
 11
284.99657258065668
 21
583.66619435380176
 31
0.0
  0
LINE
  5
5078
  8
AM_0
 10
125.9965725806568
 20
470.16619435380159
 30
0.0
 11
125.9965725806568
 21
470.69622435380171
 31
0.0
  0
LINE
  5
5079
  8
AM_0
 10
125.9965725806568
 20
472.26616435380163
 30
0.0
 11
125.9965725806568
 21
472.81621435380191
 31
0.0
  0
LINE
  5
507A
  8
AM_0
 10
125.9965725806568
 20
476.83623435380201
 30
0.0
 11
125.9965725806568
 21
477.30620435380172
 31
0.0
  0
LINE
  5
507B
  8
AM_0
 10
125.7765425806566
 20
473.28618435380162
 30
0.0
 11
124.52654258065679
 21
473.94615435380172
 31
0.0
  0
LINE
  5
507C
  8
AM_0
 10
125.7865525806568
 20
471.17617435380163
 30
0.0
 11
124.5465625806567
 21
471.80617435380162
 31
0.0
  0
LINE
  5
507D
  8
AM_0
 10
125.7665325806567
 20
477.81615435380172
 30
0.0
 11
124.48656258065679
 21
478.56615435380172
 31
0.0
  0
LINE
  5
507E
  8
AM_0
 10
126.23656258065679
 20
471.0662143538018
 30
0.0
 11
128.49657258065699
 21
471.0662143538018
 31
0.0
  0
LINE
  5
507F
  8
AM_0
 10
126.246572580657
 20
473.16619435380159
 30
0.0
 11
127.9965725806568
 21
473.16619435380159
 31
0.0
  0
LINE
  5
5080
  8
AM_0
 10
126.26659258065681
 20
477.68621435380197
 30
0.0
 11
127.9965725806568
 21
477.68621435380197
 31
0.0
  0
LINE
  5
5081
  8
AM_0
 10
126.2965625806568
 20
476.54619435380158
 30
0.0
 11
128.99657258065699
 21
476.54619435380158
 31
0.0
  0
LINE
  5
5082
  8
AM_0
 10
126.276602580657
 20
472.02617435380159
 30
0.0
 11
128.99657258065699
 21
472.02617435380159
 31
0.0
  0
LINE
  5
5083
  8
AM_0
 10
125.7465725806568
 20
476.7061643538018
 30
0.0
 11
124.44658258065679
 21
477.55617435380162
 31
0.0
  0
LINE
  5
5084
  8
AM_0
 10
125.7565825806567
 20
472.16616435380161
 30
0.0
 11
124.4765525806569
 21
472.9361743538019
 31
0.0
  0
LINE
  5
5085
  8
AM_0
 10
125.76659258065681
 20
470.05617435380162
 30
0.0
 11
124.49663258065669
 21
470.78615435380158
 31
0.0
  0
LINE
  5
5086
  8
AM_0
 10
126.26659258065681
 20
469.91619435380159
 30
0.0
 11
128.49657258065699
 21
469.91619435380159
 31
0.0
  0
LINE
  5
5087
  8
AM_0
 10
123.996572580657
 20
471.64617435380171
 30
0.0
 11
123.996572580657
 21
514.66619435380198
 31
0.0
  0
LINE
  5
5088
  8
AM_0
 10
124.48656258065679
 20
478.56618435380159
 30
0.0
 11
124.46654258065691
 21
478.5761643538018
 31
0.0
  0
LINE
  5
5089
  8
AM_0
 10
122.4965725806568
 20
502.3861643538018
 30
0.0
 11
123.996572580657
 21
502.3861643538018
 31
0.0
  0
LINE
  5
508A
  8
AM_0
 10
122.4965725806568
 20
504.51616435380191
 30
0.0
 11
123.996572580657
 21
504.51616435380191
 31
0.0
  0
LINE
  5
508B
  8
AM_0
 10
122.4965725806568
 20
499.66622435380162
 30
0.0
 11
123.996572580657
 21
499.5362143538016
 31
0.0
  0
LINE
  5
508C
  8
AM_0
 10
122.4965725806568
 20
499.66619435380193
 30
0.0
 11
122.4965725806568
 21
519.66619435380176
 31
0.0
  0
LINE
  5
508D
  8
AM_0
 10
125.9965725806568
 20
484.27617435380159
 30
0.0
 11
125.9965725806568
 21
485.3362343538019
 31
0.0
  0
LINE
  5
508E
  8
AM_0
 10
125.9965725806568
 20
494.03618435380201
 30
0.0
 11
125.9965725806568
 21
495.40618435380202
 31
0.0
  0
LINE
  5
508F
  8
AM_0
 10
125.9965725806568
 20
514.05620435380195
 30
0.0
 11
125.9965725806568
 21
515.21623435380195
 31
0.0
  0
LINE
  5
5090
  8
AM_0
 10
125.9965725806568
 20
504.05620435380172
 30
0.0
 11
125.9965725806568
 21
505.27617435380159
 31
0.0
  0
LINE
  5
5091
  8
AM_0
 10
127.9965725806568
 20
515.66619435380176
 30
0.0
 11
124.9965725806569
 21
515.66619435380176
 31
0.0
  0
LINE
  5
5092
  8
AM_0
 10
127.9965725806568
 20
513.66619435380198
 30
0.0
 11
124.9965725806569
 21
513.66619435380198
 31
0.0
  0
LINE
  5
5093
  8
AM_0
 10
127.9965725806568
 20
505.66619435380198
 30
0.0
 11
124.9965725806569
 21
505.66619435380198
 31
0.0
  0
LINE
  5
5094
  8
AM_0
 10
127.9965725806568
 20
503.66619435380193
 30
0.0
 11
124.9965725806569
 21
503.66619435380193
 31
0.0
  0
LINE
  5
5095
  8
AM_0
 10
127.9965725806568
 20
495.66619435380193
 30
0.0
 11
124.9965725806569
 21
495.66619435380193
 31
0.0
  0
LINE
  5
5096
  8
AM_0
 10
127.9965725806568
 20
493.66619435380198
 30
0.0
 11
124.9965725806569
 21
493.66619435380198
 31
0.0
  0
LINE
  5
5097
  8
AM_0
 10
125.8565625806569
 20
485.96620435380203
 30
0.0
 11
124.7065925806567
 21
486.32619435380172
 31
0.0
  0
LINE
  5
5098
  8
AM_0
 10
126.1466025806568
 20
485.92620435380161
 30
0.0
 11
127.9965725806568
 21
485.92620435380161
 31
0.0
  0
LINE
  5
5099
  8
AM_0
 10
125.8065125806568
 20
484.05617435380162
 30
0.0
 11
124.6065625806569
 21
484.57616435380157
 31
0.0
  0
LINE
  5
509A
  8
AM_0
 10
126.19658258065679
 20
483.97624435380192
 30
0.0
 11
128.2965625806568
 21
483.97624435380192
 31
0.0
  0
LINE
  5
509B
  8
AM_0
 10
122.4965725806568
 20
536.94622435380165
 30
0.0
 11
123.996572580657
 21
536.94622435380165
 31
0.0
  0
LINE
  5
509C
  8
AM_0
 10
122.4965725806568
 20
534.8162143538018
 30
0.0
 11
123.996572580657
 21
534.8162143538018
 31
0.0
  0
LINE
  5
509D
  8
AM_0
 10
122.49663258065669
 20
539.66622435380191
 30
0.0
 11
123.996572580657
 21
539.79622435380202
 31
0.0
  0
LINE
  5
509E
  8
AM_0
 10
122.4965725806568
 20
539.66619435380198
 30
0.0
 11
122.4965725806568
 21
519.66619435380176
 31
0.0
  0
LINE
  5
509F
  8
AM_0
 10
125.9965725806568
 20
569.16619435380198
 30
0.0
 11
125.9965725806568
 21
568.63616435380186
 31
0.0
  0
LINE
  5
50A0
  8
AM_0
 10
125.9965725806568
 20
567.06621435380202
 30
0.0
 11
125.9965725806568
 21
566.51616435380186
 31
0.0
  0
LINE
  5
50A1
  8
AM_0
 10
125.9965725806568
 20
562.49614435380158
 30
0.0
 11
125.9965725806568
 21
562.02617435380193
 31
0.0
  0
LINE
  5
50A2
  8
AM_0
 10
125.9965725806568
 20
555.0562043538016
 30
0.0
 11
125.9965725806568
 21
553.99614435380158
 31
0.0
  0
LINE
  5
50A3
  8
AM_0
 10
125.9965725806568
 20
545.29619435380175
 30
0.0
 11
125.9965725806568
 21
543.92620435380195
 31
0.0
  0
LINE
  5
50A4
  8
AM_0
 10
125.9965725806568
 20
525.27617435380193
 30
0.0
 11
125.9965725806568
 21
524.11614435380193
 31
0.0
  0
LINE
  5
50A5
  8
AM_0
 10
125.9965725806568
 20
535.27617435380193
 30
0.0
 11
125.9965725806568
 21
534.06621435380168
 31
0.0
  0
LINE
  5
50A6
  8
AM_0
 10
127.9965725806568
 20
523.66619435380176
 30
0.0
 11
124.9965725806569
 21
523.66619435380176
 31
0.0
  0
LINE
  5
50A7
  8
AM_0
 10
127.9965725806568
 20
525.66619435380176
 30
0.0
 11
124.9965725806569
 21
525.66619435380176
 31
0.0
  0
LINE
  5
50A8
  8
AM_0
 10
127.9965725806568
 20
533.66619435380176
 30
0.0
 11
124.9965725806569
 21
533.66619435380176
 31
0.0
  0
LINE
  5
50A9
  8
AM_0
 10
127.9965725806568
 20
535.66619435380198
 30
0.0
 11
124.9965725806569
 21
535.66619435380198
 31
0.0
  0
LINE
  5
50AA
  8
AM_0
 10
127.9965725806568
 20
543.66619435380198
 30
0.0
 11
124.9965725806569
 21
543.66619435380198
 31
0.0
  0
LINE
  5
50AB
  8
AM_0
 10
127.9965725806568
 20
545.66619435380176
 30
0.0
 11
124.9965725806569
 21
545.66619435380176
 31
0.0
  0
LINE
  5
50AC
  8
AM_0
 10
125.7765425806566
 20
566.05620435380195
 30
0.0
 11
124.526602580657
 21
565.38622435380194
 31
0.0
  0
LINE
  5
50AD
  8
AM_0
 10
125.78661258065669
 20
568.16616435380149
 30
0.0
 11
124.5465625806567
 21
567.53615435380175
 31
0.0
  0
LINE
  5
50AE
  8
AM_0
 10
125.8565625806569
 20
553.36617435380185
 30
0.0
 11
124.706532580657
 21
553.01616435380186
 31
0.0
  0
LINE
  5
50AF
  8
AM_0
 10
125.76659258065681
 20
561.51613435380204
 30
0.0
 11
124.48656258065679
 21
560.76613435380159
 31
0.0
  0
LINE
  5
50B0
  8
AM_0
 10
126.23656258065679
 20
568.26616435380186
 30
0.0
 11
128.49657258065699
 21
568.26616435380186
 31
0.0
  0
LINE
  5
50B1
  8
AM_0
 10
126.246572580657
 20
566.16619435380176
 30
0.0
 11
127.9965725806568
 21
566.16619435380176
 31
0.0
  0
LINE
  5
50B2
  8
AM_0
 10
126.26659258065681
 20
561.65618435380202
 30
0.0
 11
127.9965725806568
 21
561.65618435380202
 31
0.0
  0
LINE
  5
50B3
  8
AM_0
 10
126.1466025806568
 20
553.40618435380202
 30
0.0
 11
127.9965725806568
 21
553.40618435380202
 31
0.0
  0
LINE
  5
50B4
  8
AM_0
 10
126.2965625806568
 20
562.79619435380175
 30
0.0
 11
128.99657258065699
 21
562.79619435380175
 31
0.0
  0
LINE
  5
50B5
  8
AM_0
 10
126.276602580657
 20
567.30620435380206
 30
0.0
 11
128.99657258065699
 21
567.30620435380206
 31
0.0
  0
LINE
  5
50B6
  8
AM_0
 10
125.8066325806568
 20
555.27620435380175
 30
0.0
 11
124.6066225806568
 21
554.76619435380178
 31
0.0
  0
LINE
  5
50B7
  8
AM_0
 10
125.7465725806568
 20
562.62615435380155
 30
0.0
 11
124.44658258065679
 21
561.77617435380193
 31
0.0
  0
LINE
  5
50B8
  8
AM_0
 10
125.75652258065681
 20
567.16616435380161
 30
0.0
 11
124.4765525806569
 21
566.39620435380198
 31
0.0
  0
LINE
  5
50B9
  8
AM_0
 10
125.7665325806567
 20
569.28618435380156
 30
0.0
 11
124.4965125806569
 21
568.54619435380175
 31
0.0
  0
LINE
  5
50BA
  8
AM_0
 10
126.19658258065679
 20
555.35613435380185
 30
0.0
 11
128.2965625806568
 21
555.35613435380185
 31
0.0
  0
LINE
  5
50BB
  8
AM_0
 10
126.26659258065681
 20
569.41619435380176
 30
0.0
 11
128.49657258065699
 21
569.41619435380176
 31
0.0
  0
LINE
  5
50BC
  8
AM_0
 10
123.996572580657
 20
567.68621435380192
 30
0.0
 11
123.996572580657
 21
524.66619435380176
 31
0.0
  0
LINE
  5
50BD
  8
AM_0
 10
275.99657258065668
 20
556.81621435380202
 30
0.0
 11
284.99657258065668
 21
556.81621435380202
 31
0.0
  0
LINE
  5
50BE
  8
AM_0
 10
276.99657258065668
 20
467.62615435380161
 30
0.0
 11
284.99657258065679
 21
467.62615435380201
 31
0.0
  0
LINE
  5
50BF
  8
AM_0
 10
275.99657258065668
 20
482.5161643538018
 30
0.0
 11
284.99657258065668
 21
482.5161643538018
 31
0.0
  0
LINE
  5
50C0
  8
AM_0
 10
276.99657258065668
 20
456.16619435380198
 30
0.0
 11
284.99657258065679
 21
456.16619435380198
 31
0.0
  0
LINE
  5
50C1
  8
AM_0
 10
276.99657258065668
 20
571.70622435380164
 30
0.0
 11
284.99657258065679
 21
571.70622435380164
 31
0.0
  0
LINE
  5
50C2
  8
AM_0
 10
276.99657258065668
 20
583.16619435380176
 30
0.0
 11
284.99657258065679
 21
583.16619435380176
 31
0.0
  0
LINE
  5
50C3
  8
AM_0
 10
128.99657258065699
 20
462.2361343538019
 30
0.0
 11
131.8165225806566
 21
462.17613435380167
 31
0.0
  0
LINE
  5
50C4
  8
AM_0
 10
169.99657258065699
 20
473.3162143538018
 30
0.0
 11
275.99657258065668
 21
473.3162143538018
 31
0.0
  0
LINE
  5
50C5
  8
AM_0
 10
270.70653258065693
 20
459.16619435380159
 30
0.0
 11
275.99657258065668
 21
459.16619435380159
 31
0.0
  0
LINE
  5
50C6
  8
AM_0
 10
142.6665625806568
 20
486.3062043538016
 30
0.0
 11
237.0165325806569
 21
486.3062043538016
 31
0.0
  0
LINE
  5
50C7
  8
AM_0
 10
224.9965725806569
 20
483.66619435380159
 30
0.0
 11
143.53228258065701
 21
483.66619435380159
 31
0.0
  0
LINE
  5
50C8
  8
AM_0
 10
224.9965725806569
 20
482.9462243538016
 30
0.0
 11
272.81658258065693
 21
482.9462243538016
 31
0.0
  0
LINE
  5
50C9
  8
AM_0
 10
142.6665625806568
 20
482.9462243538016
 30
0.0
 11
224.9965725806569
 21
482.9462243538016
 31
0.0
  0
LINE
  5
50CA
  8
AM_0
 10
142.69420258065679
 20
461.4061843538019
 30
0.0
 11
148.49657258065679
 21
461.4061843538019
 31
0.0
  0
LINE
  5
50CB
  8
AM_0
 10
151.99657258065679
 20
457.80620435380172
 30
0.0
 11
268.80657258065668
 21
457.80620435380172
 31
0.0
  0
LINE
  5
50CC
  8
AM_0
 10
142.7564625806568
 20
466.68621435380157
 30
0.0
 11
148.49657258065679
 21
466.68621435380157
 31
0.0
  0
LINE
  5
50CD
  8
AM_0
 10
138.99657258065679
 20
471.3162143538018
 30
0.0
 11
138.99657258065679
 21
485.36614435380159
 31
0.0
  0
LINE
  5
50CE
  8
AM_0
 10
128.99657258065699
 20
471.3162143538018
 30
0.0
 11
138.99657258065679
 21
471.3162143538018
 31
0.0
  0
LINE
  5
50CF
  8
AM_0
 10
270.73656258065682
 20
459.29610435380198
 30
0.0
 11
274.19658258065692
 21
472.2062243538017
 31
0.0
  0
LINE
  5
50D0
  8
AM_0
 10
132.75786258065691
 20
459.50719435380159
 30
0.0
 11
132.27660258065691
 21
461.41619435380159
 31
0.0
  0
LINE
  5
50D1
  8
AM_0
 10
133.1865825806569
 20
459.5361243538016
 30
0.0
 11
132.2665325806567
 21
463.41622435380162
 31
0.0
  0
LINE
  5
50D2
  8
AM_0
 10
149.9965725806569
 20
457.7771543538019
 30
0.0
 11
149.9965725806569
 21
465.18621435380197
 31
0.0
  0
LINE
  5
50D3
  8
AM_0
 10
130.82659258065681
 20
462.54619435380158
 30
0.0
 11
132.476552580657
 21
462.54619435380158
 31
0.0
  0
LINE
  5
50D4
  8
AM_0
 10
169.99657258065699
 20
566.01616435380186
 30
0.0
 11
275.99657258065668
 21
566.01616435380186
 31
0.0
  0
LINE
  5
50D5
  8
AM_0
 10
275.99657258065668
 20
457.16619435380159
 30
0.0
 11
275.99657258065668
 21
582.16619435380187
 31
0.0
  0
LINE
  5
50D6
  8
AM_0
 10
128.99657258065699
 20
577.09618435380196
 30
0.0
 11
131.81658258065701
 21
577.16619435380198
 31
0.0
  0
LINE
  5
50D7
  8
AM_0
 10
128.99657258065699
 20
462.2361343538019
 30
0.0
 11
128.99657258065699
 21
519.66619435380176
 31
0.0
  0
LINE
  5
50D8
  8
AM_0
 10
269.33654258065678
 20
483.66619435380159
 30
0.0
 11
224.9965725806569
 21
483.66619435380159
 31
0.0
  0
LINE
  5
50D9
  8
AM_0
 10
138.99657258065679
 20
568.01616435380174
 30
0.0
 11
138.99657258065679
 21
553.9762443538018
 31
0.0
  0
LINE
  5
50DA
  8
AM_0
 10
128.99657258065699
 20
553.9762443538018
 30
0.0
 11
138.99657258065679
 21
553.9762443538018
 31
0.0
  0
LINE
  5
50DB
  8
AM_0
 10
128.99657258065699
 20
562.35613435380185
 30
0.0
 11
138.99657258065679
 21
562.35613435380185
 31
0.0
  0
LINE
  5
50DC
  8
AM_0
 10
128.99657258065699
 20
568.01616435380174
 30
0.0
 11
138.99657258065679
 21
568.01616435380174
 31
0.0
  0
LINE
  5
50DD
  8
AM_0
 10
204.43865258065679
 20
505.66619435380198
 30
0.0
 11
134.5465625806568
 21
505.66619435380198
 31
0.0
  0
LINE
  5
50DE
  8
AM_0
 10
151.99657258065679
 20
581.52617435380193
 30
0.0
 11
268.80657258065668
 21
581.52617435380193
 31
0.0
  0
LINE
  5
50DF
  8
AM_0
 10
142.9508625806568
 20
572.65618435380202
 30
0.0
 11
148.49657258065679
 21
572.65618435380202
 31
0.0
  0
LINE
  5
50E0
  8
AM_0
 10
140.2058625806568
 20
566.65950435380148
 30
0.0
 11
140.9908425806569
 21
571.00618435380193
 31
0.0
  0
LINE
  5
50E1
  8
AM_0
 10
142.8870125806568
 20
577.93621435380192
 30
0.0
 11
148.49657258065679
 21
577.93621435380192
 31
0.0
  0
LINE
  5
50E2
  8
AM_0
 10
135.1265825806567
 20
581.33623435380196
 30
0.0
 11
148.49657258065679
 21
581.33623435380196
 31
0.0
  0
LINE
  5
50E3
  8
AM_0
 10
135.10656258065691
 20
582.96623435380207
 30
0.0
 11
148.60656258065691
 21
582.96623435380207
 31
0.0
  0
LINE
  5
50E4
  8
AM_0
 10
151.99657258065679
 20
585.5862343538015
 30
0.0
 11
270.08019258065679
 21
585.5862343538015
 31
0.0
  0
LINE
  5
50E5
  8
AM_0
 10
151.99657258065679
 20
584.91619435380176
 30
0.0
 11
270.22423258065692
 21
584.91619435380176
 31
0.0
  0
LINE
  5
50E6
  8
AM_0
 10
151.99657258065679
 20
583.55620435380195
 30
0.0
 11
270.51653258065687
 21
583.55620435380195
 31
0.0
  0
LINE
  5
50E7
  8
AM_0
 10
138.5108525806568
 20
570.70622435380164
 30
0.0
 11
140.93084258065659
 21
570.70622435380164
 31
0.0
  0
LINE
  5
50E8
  8
AM_0
 10
140.94079258065671
 20
576.35622435380185
 30
0.0
 11
139.980762580657
 21
571.88613435380194
 31
0.0
  0
LINE
  5
50E9
  8
AM_0
 10
130.80657258065659
 20
574.76616435380208
 30
0.0
 11
140.59936258065679
 21
574.76616435380208
 31
0.0
  0
LINE
  5
50EA
  8
AM_0
 10
269.33654258065678
 20
555.66619435380198
 30
0.0
 11
143.546562580657
 21
555.66619435380198
 31
0.0
  0
LINE
  5
50EB
  8
AM_0
 10
269.33654258065678
 20
553.66619435380176
 30
0.0
 11
254.9965725806567
 21
553.66619435380176
 31
0.0
  0
LINE
  5
50EC
  8
AM_0
 10
269.343682580657
 20
545.66619435380176
 30
0.0
 11
254.9965725806567
 21
545.66619435380176
 31
0.0
  0
LINE
  5
50ED
  8
AM_0
 10
133.1865825806569
 20
579.79622435380202
 30
0.0
 11
132.2665325806567
 21
575.92617435380203
 31
0.0
  0
LINE
  5
50EE
  8
AM_0
 10
269.3294025806569
 20
543.66619435380198
 30
0.0
 11
143.546562580657
 21
543.66619435380198
 31
0.0
  0
LINE
  5
50EF
  8
AM_0
 10
130.82659258065681
 20
576.78618435380167
 30
0.0
 11
132.476552580657
 21
576.78618435380167
 31
0.0
  0
LINE
  5
50F0
  8
AM_0
 10
133.16656258065669
 20
581.45613435380164
 30
0.0
 11
132.27660258065691
 21
577.92623435380165
 31
0.0
  0
LINE
  5
50F1
  8
AM_0
 10
204.43529258065701
 20
535.66619435380198
 30
0.0
 11
134.5465625806568
 21
535.66619435380198
 31
0.0
  0
LINE
  5
50F2
  8
AM_0
 10
149.9965725806569
 20
581.55620435380206
 30
0.0
 11
149.9965725806569
 21
574.15618435380202
 31
0.0
  0
LINE
  5
50F3
  8
AM_0
 10
204.43529258065701
 20
533.66619435380176
 30
0.0
 11
134.5465625806568
 21
533.66619435380176
 31
0.0
  0
LINE
  5
50F4
  8
AM_0
 10
204.43865258065679
 20
525.66619435380176
 30
0.0
 11
134.5465625806568
 21
525.66619435380176
 31
0.0
  0
LINE
  5
50F5
  8
AM_0
 10
204.43865258065679
 20
523.66619435380176
 30
0.0
 11
134.5465625806568
 21
523.66619435380176
 31
0.0
  0
LINE
  5
50F6
  8
AM_0
 10
270.73656258065682
 20
580.04622435380156
 30
0.0
 11
274.19658258065692
 21
567.12615435380189
 31
0.0
  0
LINE
  5
50F7
  8
AM_0
 10
272.45696258065692
 20
580.16619435380198
 30
0.0
 11
275.99657258065668
 21
580.16619435380198
 31
0.0
  0
LINE
  5
50F8
  8
AM_0
 10
275.70653258065693
 20
570.70622435380164
 30
0.0
 11
273.28655258065692
 21
570.70622435380164
 31
0.0
  0
LINE
  5
50F9
  8
AM_0
 10
271.54677258065681
 20
584.40135435380193
 30
0.0
 11
274.2365925806568
 21
571.88613435380194
 31
0.0
  0
LINE
  5
50FA
  8
AM_0
 10
128.99657258065699
 20
577.09624435380192
 30
0.0
 11
128.99657258065699
 21
519.66619435380176
 31
0.0
  0
LINE
  5
50FB
  8
AM_0
 10
128.99657258065699
 20
485.36614435380159
 30
0.0
 11
138.99657258065679
 21
485.36614435380159
 31
0.0
  0
LINE
  5
50FC
  8
AM_0
 10
134.69720258065681
 20
457.99614435380158
 30
0.0
 11
148.7393125806571
 21
457.99614435380158
 31
0.0
  0
LINE
  5
50FD
  8
AM_0
 10
128.99657258065699
 20
476.97624435380158
 30
0.0
 11
138.99657258065679
 21
476.97624435380158
 31
0.0
  0
LINE
  5
50FE
  8
AM_0
 10
130.80657258065659
 20
464.56621435380163
 30
0.0
 11
140.59936258065679
 21
464.56621435380163
 31
0.0
  0
LINE
  5
50FF
  8
AM_0
 10
151.99657258065679
 20
455.77617435380159
 30
0.0
 11
193.32293258065681
 21
455.77617435380159
 31
0.0
  0
LINE
  5
5100
  8
AM_0
 10
142.45659258065669
 20
493.1862143538018
 30
0.0
 11
236.9965725806567
 21
493.1862143538018
 31
0.0
  0
LINE
  5
5101
  8
AM_0
 10
236.9965725806567
 20
485.66619435380159
 30
0.0
 11
143.53228258065701
 21
485.66619435380159
 31
0.0
  0
LINE
  5
5102
  8
AM_0
 10
142.6665625806568
 20
556.39617435380148
 30
0.0
 11
272.81658258065693
 21
556.39617435380148
 31
0.0
  0
LINE
  5
5103
  8
AM_0
 10
142.6665625806568
 20
553.0361843538019
 30
0.0
 11
237.0165325806569
 21
553.0361843538019
 31
0.0
  0
LINE
  5
5104
  8
AM_0
 10
142.45659258065669
 20
546.15618435380156
 30
0.0
 11
236.9965725806567
 21
546.15618435380156
 31
0.0
  0
LINE
  5
5105
  8
AM_0
 10
142.45659258065669
 20
543.23613435380162
 30
0.0
 11
273.0308125806568
 21
543.23613435380162
 31
0.0
  0
LINE
  5
5106
  8
AM_0
 10
133.32659258065701
 20
536.01616435380186
 30
0.0
 11
205.66784258065681
 21
536.01616435380186
 31
0.0
  0
LINE
  5
5107
  8
AM_0
 10
133.32659258065701
 20
533.34624435380192
 30
0.0
 11
205.6552625806568
 21
533.34624435380192
 31
0.0
  0
LINE
  5
5108
  8
AM_0
 10
133.26659258065661
 20
525.94622435380165
 30
0.0
 11
205.73168258065681
 21
525.94622435380165
 31
0.0
  0
LINE
  5
5109
  8
AM_0
 10
133.26659258065661
 20
523.40618435380202
 30
0.0
 11
205.73168258065681
 21
523.40618435380202
 31
0.0
  0
LINE
  5
510A
  8
AM_0
 10
133.26659258065661
 20
515.93621435380192
 30
0.0
 11
205.73168258065681
 21
515.93621435380192
 31
0.0
  0
LINE
  5
510B
  8
AM_0
 10
204.43865258065679
 20
513.66619435380198
 30
0.0
 11
134.5465625806568
 21
513.66619435380198
 31
0.0
  0
LINE
  5
510C
  8
AM_0
 10
204.43865258065679
 20
515.66619435380176
 30
0.0
 11
134.5465625806568
 21
515.66619435380176
 31
0.0
  0
LINE
  5
510D
  8
AM_0
 10
133.32659258065701
 20
505.9861343538019
 30
0.0
 11
205.66784258065681
 21
505.9861343538019
 31
0.0
  0
LINE
  5
510E
  8
AM_0
 10
204.43865258065679
 20
503.66619435380193
 30
0.0
 11
134.5465625806568
 21
503.66619435380193
 31
0.0
  0
LINE
  5
510F
  8
AM_0
 10
133.32659258065701
 20
503.32622435380159
 30
0.0
 11
205.66784258065681
 21
503.32622435380159
 31
0.0
  0
LINE
  5
5110
  8
AM_0
 10
269.3294025806569
 20
495.66619435380193
 30
0.0
 11
143.53228258065701
 21
495.66619435380193
 31
0.0
  0
LINE
  5
5111
  8
AM_0
 10
142.45659258065669
 20
496.10613435380191
 30
0.0
 11
273.0308125806568
 21
496.10613435380191
 31
0.0
  0
LINE
  5
5112
  8
AM_0
 10
269.3294025806569
 20
493.66619435380198
 30
0.0
 11
254.9965725806567
 21
493.66619435380198
 31
0.0
  0
LINE
  5
5113
  8
AM_0
 10
269.33654258065678
 20
485.66619435380159
 30
0.0
 11
254.9965725806567
 21
485.66619435380159
 31
0.0
  0
LINE
  5
5114
  8
AM_0
 10
133.26659258065661
 20
513.39617435380205
 30
0.0
 11
205.73168258065681
 21
513.39617435380205
 31
0.0
  0
LINE
  5
5115
  8
AM_0
 10
140.20580258065681
 20
472.67281435380198
 30
0.0
 11
140.9908425806569
 21
468.32613435380171
 31
0.0
  0
LINE
  5
5116
  8
AM_0
 10
138.5108525806568
 20
468.62615435380172
 30
0.0
 11
140.93084258065659
 21
468.62615435380172
 31
0.0
  0
LINE
  5
5117
  8
AM_0
 10
140.94085258065681
 20
462.9761843538019
 30
0.0
 11
139.9808325806566
 21
467.44615435380172
 31
0.0
  0
LINE
  5
5118
  8
AM_0
 10
256.51018258065687
 20
449.66619435380193
 30
0.0
 11
268.01275258065681
 21
449.66619435380193
 31
0.0
  0
LINE
  5
5119
  8
AM_0
 10
274.996602580657
 20
459.16616435380161
 30
0.0
 11
269.270802580657
 21
450.34920435380172
 31
0.0
  0
LINE
  5
511A
  8
AM_0
 10
238.4965725806567
 20
492.16619435380159
 30
0.0
 11
238.4965725806567
 21
487.16619435380193
 31
0.0
  0
LINE
  5
511B
  8
AM_0
 10
253.4965725806567
 20
492.16619435380159
 30
0.0
 11
253.4965725806567
 21
487.16619435380193
 31
0.0
  0
LINE
  5
511C
  8
AM_0
 10
236.9965725806567
 20
493.66619435380198
 30
0.0
 11
143.53228258065701
 21
493.66619435380198
 31
0.0
  0
LINE
  5
511D
  8
AM_0
 10
238.0165325806569
 20
492.16619435380159
 30
0.0
 11
238.0165325806569
 21
487.306204353802
 31
0.0
  0
LINE
  5
511E
  8
AM_0
 10
253.97655258065689
 20
492.16619435380159
 30
0.0
 11
253.97655258065689
 21
487.306204353802
 31
0.0
  0
LINE
  5
511F
  8
AM_0
 10
254.9965725806567
 20
493.1862143538018
 30
0.0
 11
273.0308125806568
 21
493.1862143538018
 31
0.0
  0
LINE
  5
5120
  8
AM_0
 10
254.9765525806568
 20
486.3062043538016
 30
0.0
 11
272.81658258065693
 21
486.3062043538016
 31
0.0
  0
LINE
  5
5121
  8
AM_0
 10
253.97655258065689
 20
547.16619435380198
 30
0.0
 11
253.97655258065689
 21
552.02617435380193
 31
0.0
  0
LINE
  5
5122
  8
AM_0
 10
238.0165325806569
 20
547.16619435380198
 30
0.0
 11
238.0165325806569
 21
552.02617435380193
 31
0.0
  0
LINE
  5
5123
  8
AM_0
 10
253.4965725806567
 20
547.16619435380198
 30
0.0
 11
253.4965725806567
 21
552.16619435380198
 31
0.0
  0
LINE
  5
5124
  8
AM_0
 10
238.4965725806567
 20
547.16619435380198
 30
0.0
 11
238.4965725806567
 21
552.16619435380198
 31
0.0
  0
LINE
  5
5125
  8
AM_0
 10
236.9965725806567
 20
553.66619435380176
 30
0.0
 11
143.546562580657
 21
553.66619435380176
 31
0.0
  0
LINE
  5
5126
  8
AM_0
 10
254.9765525806568
 20
553.0361843538019
 30
0.0
 11
272.81658258065693
 21
553.0361843538019
 31
0.0
  0
LINE
  5
5127
  8
AM_0
 10
254.9965725806567
 20
546.15618435380156
 30
0.0
 11
273.04229258065692
 21
546.15618435380156
 31
0.0
  0
LINE
  5
5128
  8
AM_0
 10
236.9965725806567
 20
545.66619435380176
 30
0.0
 11
143.546562580657
 21
545.66619435380176
 31
0.0
  0
LINE
  5
5129
  8
AM_0
 10
209.99657258065679
 20
540.16619435380176
 30
0.0
 11
209.99657258065679
 21
499.16619435380159
 31
0.0
  0
LINE
  5
512A
  8
AM_0
 10
272.99657258065668
 20
540.16619435380176
 30
0.0
 11
272.99657258065668
 21
499.16619435380159
 31
0.0
  0
LINE
  5
512B
  8
AM_0
 10
209.99657258065679
 20
540.16619435380176
 30
0.0
 11
272.99657258065668
 21
540.16619435380176
 31
0.0
  0
LINE
  5
512C
  8
AM_0
 10
209.99657258065679
 20
499.16619435380159
 30
0.0
 11
272.99657258065668
 21
499.16619435380159
 31
0.0
  0
LINE
  5
512D
  8
AM_0
 10
209.99657258065679
 20
532.66619435380176
 30
0.0
 11
272.99657258065668
 21
532.66619435380176
 31
0.0
  0
LINE
  5
512E
  8
AM_0
 10
169.99657258065699
 20
566.01610435380178
 30
0.0
 11
138.99657258065679
 21
563.98610435380192
 31
0.0
  0
LINE
  5
512F
  8
AM_0
 10
169.99657258065699
 20
473.31615435380172
 30
0.0
 11
138.99657258065679
 21
475.34615435380192
 31
0.0
  0
ARC
  5
5130
  8
AM_0
 10
390.49651258065671
 20
519.66619435380176
 30
0.0
 40
3.0
 50
89.986013999999244
 51
131.81005866176329
  0
ARC
  5
5131
  8
AM_0
 10
390.49651258065671
 20
519.66619435380176
 30
0.0
 40
3.0
 50
228.18994133823679
 51
270.01398999999998
  0
ARC
  5
5165
  8
AM_0
 10
128.4970625806568
 20
469.41667435380162
 30
0.0
 40
0.49952301
 50
359.9452300000014
 51
90.054773999999625
  0
ARC
  5
5166
  8
AM_0
 10
128.49322258065681
 20
471.56963435380158
 30
0.0
 40
0.5033929900000002
 50
270.38491000000062
 51
359.61509999999811
  0
ARC
  5
5167
  8
AM_0
 10
127.9924825806567
 20
474.17034435380191
 30
0.0
 40
1.004119999999999
 50
270.23460999999998
 51
359.76539000000008
  0
ARC
  5
5168
  8
AM_0
 10
127.99413258065699
 20
478.68865435380172
 30
0.0
 40
1.002470999999999
 50
270.14107000000013
 51
359.85892999999987
  0
ARC
  5
5169
  8
AM_0
 10
124.9953525806568
 20
473.78972435380172
 30
0.0
 40
0.9987969999999998
 50
179.62728000000101
 51
238.70795000000021
  0
ARC
  5
516A
  8
AM_0
 10
124.9943125806568
 20
474.82744435380192
 30
0.0
 40
0.9977070099999998
 50
180.074020000004
 51
242.04481000000081
  0
ARC
  5
516B
  8
AM_0
 10
124.995662580657
 20
478.39092435380161
 30
0.0
 40
0.9990889999999998
 50
179.6950899999965
 51
236.66209000000279
  0
ARC
  5
516C
  8
AM_0
 10
124.995052580657
 20
479.42546435380171
 30
0.0
 40
0.9984580299999999
 50
179.95957999999851
 51
239.38657000000219
  0
ARC
  5
516D
  8
AM_0
 10
126.259942580657
 20
478.68718435380202
 30
0.0
 40
1.0010449999999991
 50
240.4718699999996
 51
270.37970999999948
  0
ARC
  5
516E
  8
AM_0
 10
126.2893625806567
 20
477.5466843538016
 30
0.0
 40
1.000521999999999
 50
237.1461799999995
 51
270.41344000000038
  0
ARC
  5
516F
  8
AM_0
 10
126.2517625806567
 20
474.16680435380198
 30
0.0
 40
1.0006820000000001
 50
241.65062000000049
 51
269.70392999999888
  0
ARC
  5
5170
  8
AM_0
 10
126.267932580657
 20
473.02983435380168
 30
0.0
 40
1.0037439999999991
 50
239.3711300000019
 51
270.49190000000061
  0
ARC
  5
5171
  8
AM_0
 10
126.24242258065691
 20
472.06548435380159
 30
0.0
 40
0.9993420200000001
 50
242.86200000000241
 51
269.6654599999984
  0
ARC
  5
5172
  8
AM_0
 10
126.2772725806566
 20
470.91728435380162
 30
0.0
 40
1.001123999999999
 50
239.3278200000014
 51
269.38767999999868
  0
ARC
  5
5173
  8
AM_0
 10
124.99224258065701
 20
472.69658435380171
 30
0.0
 40
0.9956849800000001
 50
180.02113
 51
243.4091400000006
  0
ARC
  5
5174
  8
AM_0
 10
124.9941925806568
 20
471.6508043538019
 30
0.0
 40
0.9976310099999999
 50
180.2678099999986
 51
240.0792399999994
  0
ARC
  5
5175
  8
AM_0
 10
124.995052580657
 20
479.42546435380171
 30
0.0
 40
0.9984580299999999
 50
179.95957999999851
 51
239.38657000000219
  0
ARC
  5
5176
  8
AM_0
 10
127.9933425806567
 20
478.69292435380157
 30
0.0
 40
1.0032760000000001
 50
334.19810000000479
 51
359.6181099999983
  0
ARC
  5
5177
  8
AM_0
 10
127.99676258065671
 20
502.66631435380162
 30
0.0
 40
0.9998210099999999
 50
359.98971999999799
 51
90.010282000001538
  0
ARC
  5
5178
  8
AM_0
 10
127.9916325806567
 20
506.67107435380171
 30
0.0
 40
1.004939
 50
270.2809399999997
 51
359.71907000000078
  0
ARC
  5
5179
  8
AM_0
 10
127.99676258065671
 20
512.66631435380191
 30
0.0
 40
0.9998279799999998
 50
359.99015999999688
 51
90.009838000000187
  0
ARC
  5
517A
  8
AM_0
 10
127.9916325806567
 20
516.67107435380194
 30
0.0
 40
1.004942999999999
 50
270.28113999999943
 51
359.71886999999822
  0
ARC
  5
517B
  8
AM_0
 10
124.9916325806567
 20
514.67107435380194
 30
0.0
 40
0.9950770099999999
 50
89.715859999999481
 51
180.28414000000049
  0
ARC
  5
517C
  8
AM_0
 10
124.99676258065671
 20
514.66643435380195
 30
0.0
 40
1.0002040000000001
 50
180.01165999999679
 51
269.98832000000078
  0
ARC
  5
517D
  8
AM_0
 10
124.9916325806567
 20
504.6710743538016
 30
0.0
 40
0.9950810099999999
 50
89.716072000000082
 51
180.2839200000044
  0
ARC
  5
517E
  8
AM_0
 10
124.99676258065671
 20
504.66643435380172
 30
0.0
 40
1.0001999999999991
 50
180.01145999999861
 51
269.98854000000142
  0
ARC
  5
517F
  8
AM_0
 10
124.9916325806567
 20
494.6710743538016
 30
0.0
 40
0.9950849999999999
 50
89.716282999999422
 51
180.28371999999919
  0
ARC
  5
5180
  8
AM_0
 10
124.99676258065671
 20
494.66643435380161
 30
0.0
 40
1.0001959999999981
 50
180.01124999999939
 51
269.98875000000061
  0
ARC
  5
5181
  8
AM_0
 10
124.99309258065691
 20
485.4946843538018
 30
0.0
 40
0.9965090199999998
 50
179.9137499999965
 51
247.17844999999909
  0
ARC
  5
5182
  8
AM_0
 10
124.9929725806568
 20
487.28057435380202
 30
0.0
 40
0.99638802
 50
180.24990999999889
 51
253.29664000000031
  0
ARC
  5
5183
  8
AM_0
 10
126.137142580657
 20
486.92888435380172
 30
0.0
 40
1.002699
 50
253.75271999999791
 51
270.54064000000108
  0
ARC
  5
5184
  8
AM_0
 10
126.1995825806565
 20
484.98137435380193
 30
0.0
 40
1.005233
 50
246.98639000000031
 51
269.82924999999938
  0
ARC
  5
5185
  8
AM_0
 10
128.29711258065669
 20
483.27678435380159
 30
0.0
 40
0.6994530000000001
 50
359.95517000000092
 51
90.044829000000746
  0
ARC
  5
5186
  8
AM_0
 10
127.99676258065671
 20
492.66631435380162
 30
0.0
 40
0.9998239899999999
 50
359.98991999999532
 51
90.01007700000045
  0
ARC
  5
5187
  8
AM_0
 10
127.9916325806567
 20
496.6710743538016
 30
0.0
 40
1.0049469
 50
270.28136999999919
 51
359.71863000000081
  0
ARC
  5
5188
  8
AM_0
 10
127.99322258065661
 20
486.92949435380211
 30
0.0
 40
1.003352
 50
270.19111000000021
 51
359.80890000000107
  0
ARC
  5
5189
  8
AM_0
 10
128.4919925806567
 20
569.92082435380155
 30
0.0
 40
0.50463498
 50
270.52383000000037
 51
359.47616999999963
  0
ARC
  5
518A
  8
AM_0
 10
128.49828258065699
 20
567.76787435380174
 30
0.0
 40
0.4983060100000002
 50
359.80488999999778
 51
90.195107000000036
  0
ARC
  5
518B
  8
AM_0
 10
127.9975525806571
 20
565.16716435380215
 30
0.0
 40
0.9990100299999999
 50
359.94319000000121
 51
90.056809000000058
  0
ARC
  5
518C
  8
AM_0
 10
128.29204258065701
 20
556.06072435380202
 30
0.0
 40
0.704566
 50
270.37010000000009
 51
359.62990999999778
  0
ARC
  5
518D
  8
AM_0
 10
127.99425258065661
 20
560.65386435380185
 30
0.0
 40
1.002353
 50
0.1343268199984526
 51
89.865672999999376
  0
ARC
  5
518E
  8
AM_0
 10
127.998282580657
 20
552.40788435380171
 30
0.0
 40
0.9982839799999999
 50
359.90142000000009
 51
90.098576000001358
  0
ARC
  5
518F
  8
AM_0
 10
127.9916325806567
 20
546.67107435380194
 30
0.0
 40
1.004942999999999
 50
270.28111000000013
 51
359.71888999999987
  0
ARC
  5
5190
  8
AM_0
 10
127.99676258065671
 20
542.66631435380191
 30
0.0
 40
0.9998289899999999
 50
359.99019000000038
 51
90.009811000000937
  0
ARC
  5
5191
  8
AM_0
 10
127.9916325806567
 20
536.67107435380194
 30
0.0
 40
1.004939
 50
270.2809100000008
 51
359.71909999999991
  0
ARC
  5
5192
  8
AM_0
 10
127.99676258065671
 20
532.66631435380191
 30
0.0
 40
0.9998210099999999
 50
359.98975000000149
 51
90.010254999998992
  0
ARC
  5
5193
  8
AM_0
 10
127.9916325806567
 20
526.67107435380194
 30
0.0
 40
1.0049469
 50
270.28135000000037
 51
359.71866000000068
  0
ARC
  5
5194
  8
AM_0
 10
127.99676258065671
 20
522.66631435380191
 30
0.0
 40
0.9998249999999999
 50
359.98994999999883
 51
90.010050000001243
  0
ARC
  5
5195
  8
AM_0
 10
124.99676258065671
 20
524.66643435380206
 30
0.0
 40
1.0001959999999981
 50
180.0112199999958
 51
269.98878000000087
  0
ARC
  5
5196
  8
AM_0
 10
124.9916325806567
 20
524.67107435380194
 30
0.0
 40
0.9950849999999999
 50
89.716311000000914
 51
180.2836899999995
  0
ARC
  5
5197
  8
AM_0
 10
124.99676258065671
 20
534.66643435380195
 30
0.0
 40
1.0001999999999991
 50
180.01143000000161
 51
269.98856999999839
  0
ARC
  5
5198
  8
AM_0
 10
124.9916325806567
 20
534.67107435380194
 30
0.0
 40
0.99508202
 50
89.716099000001435
 51
180.2839099999978
  0
ARC
  5
5199
  8
AM_0
 10
124.99676258065671
 20
544.66643435380149
 30
0.0
 40
1.000203
 50
180.01164999999551
 51
269.98835000000122
  0
ARC
  5
519A
  8
AM_0
 10
124.9916325806567
 20
544.67107435380194
 30
0.0
 40
0.99507803
 50
89.715887000001331
 51
180.28410999999991
  0
ARC
  5
519B
  8
AM_0
 10
124.9929725806568
 20
553.84770435380165
 30
0.0
 40
0.9963999999999998
 50
112.8173600000008
 51
180.0904199999996
  0
ARC
  5
519C
  8
AM_0
 10
124.9928525806569
 20
552.06194435380155
 30
0.0
 40
0.9962710099999999
 50
106.6979199999999
 51
180.33004999999989
  0
ARC
  5
519D
  8
AM_0
 10
126.13573258065659
 20
552.41350435380195
 30
0.0
 40
0.9927430199999999
 50
89.374554999998736
 51
106.33207000000171
  0
ARC
  5
519E
  8
AM_0
 10
126.19756258065679
 20
554.36077435380207
 30
0.0
 40
0.9954450099999999
 50
90.056904999999645
 51
113.1274500000013
  0
ARC
  5
519F
  8
AM_0
 10
124.9910225806566
 20
565.54521435380161
 30
0.0
 40
0.9944329899999999
 50
121.1521299999998
 51
179.94050999999911
  0
ARC
  5
51A0
  8
AM_0
 10
124.9898025806569
 20
564.50762435380193
 30
0.0
 40
0.9932109699999999
 50
117.79932000000061
 51
180.08187000000001
  0
ARC
  5
51A1
  8
AM_0
 10
124.9913825806569
 20
560.94377435380193
 30
0.0
 40
0.9948369899999999
 50
123.20496000000099
 51
180.43785999999801
  0
ARC
  5
51A2
  8
AM_0
 10
124.9905925806567
 20
559.90935435380175
 30
0.0
 40
0.99404597
 50
120.4681999999988
 51
180.18564000000021
  0
ARC
  5
51A3
  8
AM_0
 10
126.27599258065671
 20
560.65972435380195
 30
0.0
 40
0.99648702
 50
90.540720999998641
 51
120.74377000000059
  0
ARC
  5
51A4
  8
AM_0
 10
126.3032125806568
 20
561.79997435380176
 30
0.0
 40
0.99617702
 50
90.381317999999226
 51
123.9704899999999
  0
ARC
  5
51A5
  8
AM_0
 10
126.2316825806567
 20
565.17082435380189
 30
0.0
 40
0.99545902
 50
89.141290999999924
 51
117.2038199999995
  0
ARC
  5
51A6
  8
AM_0
 10
126.26543258065681
 20
566.31194435380155
 30
0.0
 40
0.99427301
 50
89.356066000000013
 51
120.7809100000017
  0
ARC
  5
51A7
  8
AM_0
 10
126.22137258065671
 20
567.27214435380165
 30
0.0
 40
0.99411702
 50
89.122643999998516
 51
115.9349799999988
  0
ARC
  5
51A8
  8
AM_0
 10
126.258602580657
 20
568.42034435380185
 30
0.0
 40
0.9959030199999999
 50
89.541266999999124
 51
119.6071699999994
  0
ARC
  5
51A9
  8
AM_0
 10
124.9921825806566
 20
566.645924353802
 30
0.0
 40
0.995579
 50
116.5870900000007
 51
179.98263999999989
  0
ARC
  5
51AA
  8
AM_0
 10
124.9898025806569
 20
567.68413435380171
 30
0.0
 40
0.99319202
 50
119.77338000000169
 51
179.87958999999799
  0
ARC
  5
51AB
  8
AM_0
 10
142.1373825806568
 20
478.45586435380159
 30
0.0
 40
1.0032491999999991
 50
314.98118999999758
 51
5.1676434000010021
  0
ARC
  5
51AC
  8
AM_0
 10
276.99639258065679
 20
582.16643435380149
 30
0.0
 40
0.99980682
 50
89.98893100000069
 51
180.0110699999974
  0
ARC
  5
51AD
  8
AM_0
 10
268.79784258065678
 20
459.81243435380168
 30
0.0
 40
2.0062942999999991
 50
270.24932999999891
 51
345.08844000000403
  0
ARC
  5
51AE
  8
AM_0
 10
276.99566258065681
 20
570.70708435380175
 30
0.0
 40
0.9990923399999999
 50
89.947921999999295
 51
180.05208000000431
  0
ARC
  5
51AF
  8
AM_0
 10
150.98937258065681
 20
524.66619435380176
 30
0.0
 40
1.0000259
 50
89.587534000000204
 51
270.4124599999987
  0
ARC
  5
51B0
  8
AM_0
 10
142.9560525806568
 20
570.6609443538016
 30
0.0
 40
1.9952742999999991
 50
90.148580000000095
 51
170.03521999999899
  0
ARC
  5
51B1
  8
AM_0
 10
142.8939125806568
 20
575.93913435380171
 30
0.0
 40
1.997119399999999
 50
89.801366999998493
 51
167.94475999999821
  0
ARC
  5
51B2
  8
AM_0
 10
138.51342258065671
 20
572.20854435380193
 30
0.0
 40
1.502416299999999
 50
269.90137999999882
 51
347.60813000000093
  0
ARC
  5
51B3
  8
AM_0
 10
135.12682258065681
 20
579.34392435380175
 30
0.0
 40
1.9922863
 50
90.007721000000544
 51
166.8783899999971
  0
ARC
  5
51B4
  8
AM_0
 10
130.8018125806571
 20
576.2710443538017
 30
0.0
 40
1.5048382
 50
270.18264000000067
 51
346.75308000000138
  0
ARC
  5
51B5
  8
AM_0
 10
130.81615258065699
 20
578.29155435380187
 30
0.0
 40
1.505448699999999
 50
270.39686999999992
 51
345.95247000000012
  0
ARC
  5
51B6
  8
AM_0
 10
135.1014325806569
 20
580.97161435380156
 30
0.0
 40
1.994612099999999
 50
89.851991999999015
 51
165.93885999999711
  0
ARC
  5
51B7
  8
AM_0
 10
151.98986258065679
 20
579.53288435380159
 30
0.0
 40
1.9933081999999991
 50
89.807323000000935
 51
180.19266999999849
  0
ARC
  5
51B8
  8
AM_0
 10
151.9907125806568
 20
581.5620643538017
 30
0.0
 40
1.9941304999999949
 50
89.831105999999224
 51
180.16889000000049
  0
ARC
  5
51B9
  8
AM_0
 10
151.99309258065691
 20
582.91973435380191
 30
0.0
 40
1.996488899999999
 50
89.899147999998377
 51
180.10084999999879
  0
ARC
  5
51BA
  8
AM_0
 10
151.990352580657
 20
583.58965435380185
 30
0.0
 40
1.9964978999999961
 50
89.821482000000245
 51
165.6006099999997
  0
ARC
  5
51BB
  8
AM_0
 10
148.4928525806568
 20
574.15996435380157
 30
0.0
 40
1.5037541000000001
 50
270.14287000000093
 51
359.85713999999848
  0
ARC
  5
51BC
  8
AM_0
 10
148.4916925806568
 20
579.44109435380165
 30
0.0
 40
1.5048912999999959
 50
270.1859300000005
 51
359.81406999999621
  0
ARC
  5
51BD
  8
AM_0
 10
148.48968258065679
 20
582.84307435380185
 30
0.0
 40
1.506942899999999
 50
270.26336999999921
 51
359.73663000000079
  0
ARC
  5
51BE
  8
AM_0
 10
148.60149258065701
 20
584.47136435380185
 30
0.0
 40
1.505230099999999
 50
270.19421
 51
345.17177999999871
  0
ARC
  5
51BF
  8
AM_0
 10
275.64672258065667
 20
567.51848435380202
 30
0.0
 40
1.5022733999999991
 50
195.1365099999966
 51
269.99412000000041
  0
ARC
  5
51C0
  8
AM_0
 10
268.80602258065687
 20
579.52703435380215
 30
0.0
 40
1.9991226
 50
15.05079100000003
 51
89.984388999999666
  0
ARC
  5
51C1
  8
AM_0
 10
276.98955258065678
 20
457.15923435380171
 30
0.0
 40
0.99304521
 50
179.5973099999994
 51
270.40268000000009
  0
ARC
  5
51C2
  8
AM_0
 10
276.98888258065671
 20
468.61858435380191
 30
0.0
 40
0.99237448
 50
179.55801999999801
 51
270.4419699999998
  0
ARC
  5
51C3
  8
AM_0
 10
275.70226258065679
 20
572.20647435380192
 30
0.0
 40
1.500286
 50
192.32631000000171
 51
270.16416999999848
  0
ARC
  5
51C4
  8
AM_0
 10
138.1521525806568
 20
561.26042435380191
 30
0.0
 40
5.0059714
 50
279.71098000000109
 51
354.67888000000482
  0
ARC
  5
51C5
  8
AM_0
 10
138.61754258065659
 20
557.33367435380205
 30
0.0
 40
6.0044340999999992
 50
45.225578000001079
 51
86.380821999999185
  0
ARC
  5
51C6
  8
AM_0
 10
142.1385425806568
 20
560.88689435380149
 30
0.0
 40
1.002184699999999
 50
354.8038600000034
 51
45.047306999998277
  0
ARC
  5
51C7
  8
AM_0
 10
138.61626258065681
 20
482.0115243538018
 30
0.0
 40
6.0073843
 50
273.6297400000006
 51
314.76385000000198
  0
ARC
  5
51C8
  8
AM_0
 10
138.15941258065669
 20
478.07768435380171
 30
0.0
 40
4.9991421999999961
 50
5.3780268999992682
 51
80.360064999998514
  0
ARC
  5
51C9
  8
AM_0
 10
135.13341258065699
 20
459.9967543538018
 30
0.0
 40
2.0005671999999981
 50
193.3095900000024
 51
269.80430999999942
  0
ARC
  5
51CA
  8
AM_0
 10
130.8098125806566
 20
463.06853435380191
 30
0.0
 40
1.497715799999999
 50
13.424378999996071
 51
90.122645000001114
  0
ARC
  5
51CB
  8
AM_0
 10
130.82427258065681
 20
461.04790435380198
 30
0.0
 40
1.4982997
 50
14.229739999998021
 51
89.910950000001179
  0
ARC
  5
51CC
  8
AM_0
 10
151.99663258065669
 20
459.80620435380172
 30
0.0
 40
2.0000371999999991
 50
180.0010599999959
 51
269.99892999999969
  0
ARC
  5
51CD
  8
AM_0
 10
151.9974925806566
 20
457.7771543538019
 30
0.0
 40
2.0009109999999981
 50
180.00001000000091
 51
269.97390999999988
  0
ARC
  5
51CE
  8
AM_0
 10
148.4946225806568
 20
465.1842543538018
 30
0.0
 40
1.501982699999999
 50
0.0755872020005832
 51
89.924413000001564
  0
ARC
  5
51CF
  8
AM_0
 10
148.493462580657
 20
459.9030043538018
 30
0.0
 40
1.503128599999999
 50
0.1191296500022061
 51
89.880869999998822
  0
ARC
  5
51D0
  8
AM_0
 10
275.64019258065679
 20
471.82244435380159
 30
0.0
 40
1.4937901
 50
89.756423999998475
 51
165.1129200000008
  0
ARC
  5
51D1
  8
AM_0
 10
150.98937258065681
 20
534.66619435380198
 30
0.0
 40
1.0000259
 50
89.587534000000204
 51
270.4124599999987
  0
ARC
  5
51D2
  8
AM_0
 10
150.98937258065681
 20
544.66619435380176
 30
0.0
 40
1.0000259
 50
89.587534000000204
 51
270.4124599999987
  0
ARC
  5
51D3
  8
AM_0
 10
150.98937258065681
 20
554.66619435380176
 30
0.0
 40
1.0000259
 50
89.587534000000204
 51
270.4124599999987
  0
ARC
  5
51D4
  8
AM_0
 10
133.2583525806568
 20
524.67620435380195
 30
0.0
 40
1.2700266
 50
89.629327999999504
 51
270.37065999999959
  0
ARC
  5
51D5
  8
AM_0
 10
133.32030258065689
 20
534.68120435380206
 30
0.0
 40
1.3350147999999991
 50
89.730435000000341
 51
270.2695700000001
  0
ARC
  5
51D6
  8
AM_0
 10
142.4508625806568
 20
544.69622435380165
 30
0.0
 40
1.460011199999999
 50
89.775248000001255
 51
270.22474000000028
  0
ARC
  5
51D7
  8
AM_0
 10
142.6665625806568
 20
554.7162343538015
 30
0.0
 40
1.6800002000000001
 50
90.000003000000945
 51
270.0
  0
ARC
  5
51D8
  8
AM_0
 10
134.5465625806568
 20
524.66619435380176
 30
0.0
 40
1.0000056999999991
 50
90.000003000000945
 51
270.0
  0
ARC
  5
51D9
  8
AM_0
 10
134.5465625806568
 20
534.66619435380198
 30
0.0
 40
1.0000056999999991
 50
90.000003000000945
 51
270.0
  0
ARC
  5
51DA
  8
AM_0
 10
143.53942258065641
 20
554.66619435380176
 30
0.0
 40
1.0000255999999981
 50
89.589474000000749
 51
270.41051999999962
  0
ARC
  5
51DB
  8
AM_0
 10
143.53942258065641
 20
544.66619435380176
 30
0.0
 40
1.0000255999999981
 50
89.589474000000749
 51
270.41051999999962
  0
ARC
  5
51DC
  8
AM_0
 10
272.81658258065693
 20
554.7162343538015
 30
0.0
 40
1.6800077
 50
269.999989999999
 51
90.000003000000945
  0
ARC
  5
51DD
  8
AM_0
 10
269.33654258065678
 20
554.66619435380176
 30
0.0
 40
1.0000040999999991
 50
269.999989999999
 51
90.000003000000945
  0
ARC
  5
51DE
  8
AM_0
 10
269.33654258065678
 20
484.66619435380159
 30
0.0
 40
1.0000040999999991
 50
269.999989999999
 51
90.000003000000945
  0
ARC
  5
51DF
  8
AM_0
 10
272.81658258065693
 20
484.62615435380172
 30
0.0
 40
1.6800077
 50
269.999989999999
 51
90.000003000000945
  0
ARC
  5
51E0
  8
AM_0
 10
134.5465625806568
 20
514.66619435380198
 30
0.0
 40
1.0000056999999991
 50
90.000003000000945
 51
270.0
  0
ARC
  5
51E1
  8
AM_0
 10
150.98937258065681
 20
504.66619435380193
 30
0.0
 40
1.0000259
 50
89.587534000000204
 51
270.4124599999987
  0
ARC
  5
51E2
  8
AM_0
 10
150.98937258065681
 20
494.66619435380159
 30
0.0
 40
1.0000259
 50
89.587534000000204
 51
270.4124599999987
  0
ARC
  5
51E3
  8
AM_0
 10
133.32030258065689
 20
504.6561843538019
 30
0.0
 40
1.3300148000000001
 50
89.729417999999541
 51
270.27058999999991
  0
ARC
  5
51E4
  8
AM_0
 10
150.98937258065681
 20
514.66619435380198
 30
0.0
 40
1.0000259
 50
89.587534000000204
 51
270.4124599999987
  0
ARC
  5
51E5
  8
AM_0
 10
150.98937258065681
 20
484.66619435380159
 30
0.0
 40
1.0000259
 50
89.587534000000204
 51
270.4124599999987
  0
ARC
  5
51E6
  8
AM_0
 10
133.2583525806568
 20
514.66619435380198
 30
0.0
 40
1.2700266
 50
89.629320999999507
 51
270.3706899999986
  0
ARC
  5
51E7
  8
AM_0
 10
134.5465625806568
 20
504.66619435380193
 30
0.0
 40
1.0000056999999991
 50
90.000003000000945
 51
270.0
  0
ARC
  5
51E8
  8
AM_0
 10
138.72973258065679
 20
566.92620435380195
 30
0.0
 40
1.5
 50
280.24789000000129
 51
349.76261999999917
  0
ARC
  5
51E9
  8
AM_0
 10
138.72973258065679
 20
472.40618435380168
 30
0.0
 40
1.5
 50
10.237378999998541
 51
79.752109999998723
  0
ARC
  5
51EA
  8
AM_0
 10
142.9560525806568
 20
468.6714343538016
 30
0.0
 40
1.9952742999999991
 50
189.9647800000009
 51
269.85141999999991
  0
ARC
  5
51EB
  8
AM_0
 10
138.51342258065671
 20
467.12383435380201
 30
0.0
 40
1.502416299999999
 50
12.391887000000411
 51
90.098616999999138
  0
ARC
  5
51EC
  8
AM_0
 10
142.8939125806568
 20
463.39324435380161
 30
0.0
 40
1.997119399999999
 50
192.0552400000017
 51
270.1986299999989
  0
ARC
  5
51ED
  8
AM_0
 10
142.6665625806568
 20
484.6161443538017
 30
0.0
 40
1.6800002000000001
 50
90.000003000000945
 51
270.0
  0
ARC
  5
51EE
  8
AM_0
 10
143.53942258065641
 20
484.66619435380159
 30
0.0
 40
1.0000255999999981
 50
89.589474000000749
 51
270.41051999999962
  0
ARC
  5
51EF
  8
AM_0
 10
143.53942258065641
 20
494.66619435380159
 30
0.0
 40
1.0000255999999981
 50
89.589474000000749
 51
270.41051999999962
  0
ARC
  5
51F0
  8
AM_0
 10
142.4508625806568
 20
494.63616435380158
 30
0.0
 40
1.460011199999999
 50
89.775248000001255
 51
270.22474000000028
  0
ARC
  5
51F1
  8
AM_0
 10
193.32293258065681
 20
454.27617435380171
 30
0.0
 40
1.5
 50
1.5000027000022329
 51
90.000003000000945
  0
ARC
  5
51F2
  8
AM_0
 10
268.01275258065681
 20
451.16619435380159
 30
0.0
 40
1.5
 50
269.999989999999
 51
326.99999999999892
  0
ARC
  5
51F3
  8
AM_0
 10
256.51018258065687
 20
448.16619435380159
 30
0.0
 40
1.5
 50
90.000003000000945
 51
178.4999999999973
  0
ARC
  5
51F4
  8
AM_0
 10
270.51653258065687
 20
582.05620435380195
 30
0.0
 40
1.5
 50
12.12979199999535
 51
90.000003000000945
  0
ARC
  5
51F5
  8
AM_0
 10
270.22423258065692
 20
583.41619435380198
 30
0.0
 40
1.5
 50
12.12979199999535
 51
90.000003000000945
  0
ARC
  5
51F6
  8
AM_0
 10
270.08019258065679
 20
584.08623435380196
 30
0.0
 40
1.5
 50
12.12979199999535
 51
90.000003000000945
  0
ARC
  5
51F7
  8
AM_0
 10
273.0365525806568
 20
494.63616435380158
 30
0.0
 40
1.460011199999999
 50
269.77524999999991
 51
90.224750000000114
  0
ARC
  5
51F8
  8
AM_0
 10
269.33654258065678
 20
494.66619435380159
 30
0.0
 40
1.0000255999999981
 50
269.58947000000001
 51
90.410531000001029
  0
ARC
  5
51F9
  8
AM_0
 10
273.0365525806568
 20
544.69622435380165
 30
0.0
 40
1.460011199999999
 50
269.77524999999991
 51
90.224750000000114
  0
ARC
  5
51FA
  8
AM_0
 10
269.33654258065678
 20
544.66619435380176
 30
0.0
 40
1.0000255999999981
 50
269.58947000000001
 51
90.410531000001029
  0
ARC
  5
51FB
  8
AM_0
 10
205.6615525806568
 20
534.68120435380206
 30
0.0
 40
1.3350147999999991
 50
269.7304299999999
 51
90.269556000001316
  0
ARC
  5
51FC
  8
AM_0
 10
204.43529258065701
 20
534.66619435380198
 30
0.0
 40
1.0000056999999991
 50
269.999989999999
 51
90.000003000000945
  0
ARC
  5
51FD
  8
AM_0
 10
204.43529258065701
 20
524.66619435380176
 30
0.0
 40
1.0000056999999991
 50
269.999989999999
 51
90.000003000000945
  0
ARC
  5
51FE
  8
AM_0
 10
205.7235025806568
 20
524.67620435380195
 30
0.0
 40
1.2700266
 50
269.62932000000001
 51
90.370670000001468
  0
ARC
  5
51FF
  8
AM_0
 10
204.43529258065701
 20
514.66619435380198
 30
0.0
 40
1.0000056999999991
 50
269.999989999999
 51
90.000003000000945
  0
ARC
  5
5200
  8
AM_0
 10
205.7235025806568
 20
514.66619435380198
 30
0.0
 40
1.2700266
 50
269.62932000000001
 51
90.370670000001468
  0
ARC
  5
5201
  8
AM_0
 10
204.43529258065701
 20
504.66619435380193
 30
0.0
 40
1.0000056999999991
 50
269.999989999999
 51
90.000003000000945
  0
ARC
  5
5202
  8
AM_0
 10
205.6615525806568
 20
504.6561843538019
 30
0.0
 40
1.3300148000000001
 50
269.7294199999987
 51
90.270567000000995
  0
ARC
  5
5203
  8
AM_0
 10
254.9965725806567
 20
492.16619435380159
 30
0.0
 40
1.5
 50
90.000003000000945
 51
180.00001000000091
  0
ARC
  5
5204
  8
AM_0
 10
254.9965725806567
 20
487.16619435380193
 30
0.0
 40
1.5
 50
179.999989999999
 51
270.0
  0
ARC
  5
5205
  8
AM_0
 10
236.9965725806567
 20
492.16619435380159
 30
0.0
 40
1.5
 50
0.0
 51
90.000003000000945
  0
ARC
  5
5206
  8
AM_0
 10
236.9965725806567
 20
487.16619435380193
 30
0.0
 40
1.5
 50
269.999989999999
 51
0.0000006832495047
  0
ARC
  5
5207
  8
AM_0
 10
254.9965725806567
 20
492.16619435380159
 30
0.0
 40
1.02
 50
90.000003000000945
 51
180.00001000000091
  0
ARC
  5
5208
  8
AM_0
 10
236.9965725806567
 20
492.16619435380159
 30
0.0
 40
1.02
 50
0.0
 51
90.000003000000945
  0
ARC
  5
5209
  8
AM_0
 10
237.0165325806569
 20
487.306204353802
 30
0.0
 40
1.0
 50
269.999989999999
 51
0.0000006832495047
  0
ARC
  5
520A
  8
AM_0
 10
254.9765525806568
 20
487.306204353802
 30
0.0
 40
1.0
 50
179.999989999999
 51
270.0
  0
CIRCLE
  5
520B
  8
AM_0
 10
243.4965725806567
 20
491.16619435380193
 30
0.0
 40
1.1000000000000001
  0
CIRCLE
  5
520C
  8
AM_0
 10
243.4965725806567
 20
491.16619435380193
 30
0.0
 40
1.149999999999999
  0
CIRCLE
  5
520D
  8
AM_0
 10
248.4965725806567
 20
491.16619435380193
 30
0.0
 40
1.0
  0
ARC
  5
520E
  8
AM_0
 10
254.9965725806567
 20
547.16619435380198
 30
0.0
 40
1.5
 50
179.999989999999
 51
270.0
  0
ARC
  5
520F
  8
AM_0
 10
254.9965725806567
 20
552.16619435380198
 30
0.0
 40
1.5
 50
90.000003000000945
 51
180.00001000000091
  0
ARC
  5
5210
  8
AM_0
 10
236.9965725806567
 20
547.16619435380198
 30
0.0
 40
1.5
 50
269.999989999999
 51
0.0000006832495047
  0
ARC
  5
5211
  8
AM_0
 10
236.9965725806567
 20
552.16619435380198
 30
0.0
 40
1.5
 50
0.0
 51
90.000003000000945
  0
ARC
  5
5212
  8
AM_0
 10
254.9965725806567
 20
547.16619435380198
 30
0.0
 40
1.02
 50
179.999989999999
 51
270.0
  0
ARC
  5
5213
  8
AM_0
 10
236.9965725806567
 20
547.16619435380198
 30
0.0
 40
1.02
 50
269.999989999999
 51
0.0000006832429909
  0
ARC
  5
5214
  8
AM_0
 10
237.0165325806569
 20
552.02617435380193
 30
0.0
 40
1.0
 50
0.0
 51
90.000003000000945
  0
ARC
  5
5215
  8
AM_0
 10
254.9765525806568
 20
552.02617435380193
 30
0.0
 40
1.0
 50
90.000003000000945
 51
180.00001000000091
  0
CIRCLE
  5
5216
  8
AM_0
 10
248.4965725806567
 20
548.16619435380198
 30
0.0
 40
1.0
  0
CIRCLE
  5
5217
  8
AM_0
 10
243.4965725806567
 20
548.16619435380198
 30
0.0
 40
1.149999999999999
  0
CIRCLE
  5
5218
  8
AM_0
 10
243.4965725806567
 20
548.16619435380198
 30
0.0
 40
1.1000000000000001
  0
ARC
  5
5219
  8
AM_0
 10
134.69720258065681
 20
459.99614435380198
 30
0.0
 40
2.0
 50
194.15074999999919
 51
269.999989999999
  0
ARC
  5
521A
  8
AM_0
 10
148.7393125806571
 20
456.49614435380192
 30
0.0
 40
1.5
 50
21.46170899999715
 51
90.000003000000945
  0
LINE
  5
5225
  8
AM_0
 10
384.49652258065697
 20
544.16622435380191
 30
0.0
 11
388.49652258065692
 21
540.16622435380191
 31
0.0
  0
LINE
  5
5226
  8
AM_0
 10
381.99652258065697
 20
544.16622435380191
 30
0.0
 11
384.49652258065697
 21
544.16622435380191
 31
0.0
  0
LINE
  5
5228
  8
AM_0
 10
388.49652258065692
 20
540.16622435380191
 30
0.0
 11
388.49652258065748
 21
499.16622435380162
 31
0.0
  0
LINE
  5
5229
  8
AM_0
 10
384.49652258065697
 20
495.16622435380162
 30
0.0
 11
388.49652258065692
 21
499.16622435380162
 31
0.0
  0
LINE
  5
522A
  8
AM_0
 10
381.99652258065697
 20
495.16622435380162
 30
0.0
 11
384.49652258065697
 21
495.16622435380191
 31
0.0
  0
LINE
  5
522B
  8
AM_0
 10
381.49652258065697
 20
543.66622435380191
 30
0.0
 11
381.99652258065697
 21
544.16622435380191
 31
0.0
1001
GENIUS_GENFIL_13
1070
     0
1040
0.5
1040
0.5
1040
20.0
1040
0.0
1002
{
1002
}
1001
GENIUS_GENOBJ-N-CHA_13
1002
{
1000
OWNER
1000
GEN
1002
}
1001
GENIUS_GENODEF_13
1002
{
1000
HIER
1070
     0
1002
}
1002
{
1000
MANEDIT
1070
     0
1002
}
1002
{
1000
NOSEL
1070
     0
1002
}
1002
{
1000
BEHIND
1070
     0
1002
}
1002
{
1000
OTHER
1070
     0
1002
}
1002
{
1000
REACTOR
1002
}
  0
LINE
  5
522C
  8
AM_0
 10
381.49652258065697
 20
495.66622435380162
 30
0.0
 11
381.99652258065697
 21
495.16622435380162
 31
0.0
1001
GENIUS_GENFIL_13
1070
     0
1040
0.5
1040
0.5
1040
20.0
1040
0.0
1002
{
1002
}
1001
GENIUS_GENODEF_13
1002
{
1000
HIER
1070
     0
1002
}
1002
{
1000
MANEDIT
1070
     0
1002
}
1002
{
1000
NOSEL
1070
     0
1002
}
1002
{
1000
BEHIND
1070
     0
1002
}
1002
{
1000
OTHER
1070
     0
1002
}
1002
{
1000
REACTOR
1002
}
1001
GENIUS_GENOBJ-N-CHA_13
1002
{
1000
OWNER
1000
GEN
1002
}
  0
LINE
  5
522D
  8
AM_0
 10
384.49652258065697
 20
544.16622435380191
 30
0.0
 11
384.49652258065697
 21
495.16622435380191
 31
0.0
  0
LINE
  5
522F
  8
AM_0
 10
255.02272242969761
 20
445.66619435380193
 30
0.0
 11
255.34064838339179
 21
457.80620435380172
 31
0.0
  0
LINE
  5
5230
  8
AM_0
 10
194.9702904344569
 20
445.66619435380193
 30
0.0
 11
194.65244845302641
 21
457.80620435380172
 31
0.0
  0
LINE
  5
5231
  8
AM_0
 10
191.496532580657
 20
443.66619435380198
 30
0.0
 11
258.49653258065712
 21
443.66619435380198
 31
0.0
  0
LINE
  5
5232
  8
AM_0
 10
191.496532580657
 20
442.66619435380198
 30
0.0
 11
191.496532580657
 21
443.66619435380198
 31
0.0
  0
LINE
  5
5233
  8
AM_0
 10
258.49653258065712
 20
442.66619435380198
 30
0.0
 11
258.49653258065712
 21
443.66619435380198
 31
0.0
  0
LINE
  5
5234
  8
AM_0
 10
176.996532580657
 20
404.66619435380159
 30
0.0
 11
178.25611771691931
 21
440.73599334720689
 31
0.0
  0
LINE
  5
5235
  8
AM_0
 10
180.25489937095759
 20
442.66619435380198
 30
0.0
 11
269.73816579035667
 21
442.66619435380198
 31
0.0
  0
ARC
  5
5236
  8
AM_0
 10
180.25489937095759
 20
440.66619435380193
 30
0.0
 40
2.0
 50
90.0
 51
178.0000000000029
1001
GENIUS_GENODEF_13
1002
{
1000
HIER
1070
     0
1002
}
1002
{
1000
MANEDIT
1070
     0
1002
}
1002
{
1000
NOSEL
1070
     0
1002
}
1002
{
1000
BEHIND
1070
     0
1002
}
1002
{
1000
OTHER
1070
     0
1002
}
1002
{
1000
REACTOR
1002
}
1001
GENIUS_GENOBJ-N-FIL_13
1002
{
1000
OWNER
1000
GEN
1002
}
  0
LINE
  5
5237
  8
AM_0
 10
271.7369474443949
 20
440.73599334720689
 30
0.0
 11
272.99653258065717
 21
404.66619435380193
 31
0.0
  0
ARC
  5
5238
  8
AM_0
 10
269.73816579035667
 20
440.66619435380193
 30
0.0
 40
2.0
 50
1.9999999999971021
 51
90.0
1001
GENIUS_GENOBJ-N-FIL_13
1002
{
1000
OWNER
1000
GEN
1002
}
1001
GENIUS_GENODEF_13
1002
{
1000
HIER
1070
     0
1002
}
1002
{
1000
MANEDIT
1070
     0
1002
}
1002
{
1000
NOSEL
1070
     0
1002
}
1002
{
1000
BEHIND
1070
     0
1002
}
1002
{
1000
OTHER
1070
     0
1002
}
1002
{
1000
REACTOR
1002
}
  0
LINE
  5
5239
  8
AM_0
 10
272.99653258065717
 20
404.66619435380193
 30
0.0
 11
176.99653258065669
 21
404.66619435380159
 31
0.0
  0
LINE
  5
523A
  8
AM_0
 10
177.1012948891323
 20
407.66619435380159
 30
0.0
 11
175.996532580657
 21
407.66619435380159
 31
0.0
  0
LINE
  5
523B
  8
AM_0
 10
178.21875951286819
 20
439.66619435380159
 30
0.0
 11
175.996532580657
 21
439.66619435380159
 31
0.0
  0
LINE
  5
523C
  8
ﾁｭｳｼﾝｾﾝ1
 10
181.99653258065771
 20
394.40148685380188
 30
0.0
 11
181.9965325806578
 21
407.40148685380171
 31
0.0
  0
LINE
  5
523D
  8
ﾁｭｳｼﾝｾﾝ
 10
224.99653258065709
 20
449.95822502703072
 30
0.0
 11
224.99653258065709
 21
392.21567171299262
 31
0.0
  0
LINE
  5
523E
  8
AM_0
 10
173.496532580657
 20
410.16619435380159
 30
0.0
 11
175.996532580657
 21
410.1661943538013
 31
0.0
  0
LINE
  5
523F
  8
AM_0
 10
175.996532580657
 20
437.16619435380142
 30
0.0
 11
173.496532580657
 21
437.16619435380159
 31
0.0
  0
LINE
  5
5240
  8
AM_0
 10
162.5978614843111
 20
434.16619435380159
 30
0.0
 11
162.5978614843111
 21
413.16619435380159
 31
0.0
  0
LINE
  5
5241
  8
AM_0
 10
147.5978614843111
 20
415.63456929978651
 30
0.0
 11
147.5978614843111
 21
431.69781940781758
 31
0.0
  0
LINE
  5
5242
  8
AM_0
 10
160.5978614843111
 20
435.66619435380159
 30
0.0
 11
160.5978614843111
 21
411.66619435380159
 31
0.0
  0
LINE
  5
5243
  8
AM_0
 10
151.0978614843111
 20
423.66619435380159
 30
0.0
 11
151.5978614843111
 21
424.16619435380159
 31
0.0
  0
LINE
  5
5244
  8
AM_0
 10
158.0978614843111
 20
411.9661943538016
 30
0.0
 11
158.0978614843111
 21
435.36619435380152
 31
0.0
  0
LINE
  5
5245
  8
AM_0
 10
167.996532580657
 20
412.16619435380159
 30
0.0
 11
167.996532580657
 21
435.16619435380159
 31
0.0
  0
LINE
  5
5246
  8
AM_0
 10
162.0978614843111
 20
424.36619435380362
 30
0.0
 11
162.0978614843111
 21
422.96619435380057
 31
0.0
  0
LINE
  5
5247
  8
AM_0
 10
164.19749721088189
 20
432.76619435380161
 30
0.0
 11
163.447497210883
 21
414.56619435380168
 31
0.0
  0
LINE
  5
5248
  8
AM_0
 10
163.246532580657
 20
432.76619435380161
 30
0.0
 11
162.5978614843111
 21
417.02510908248559
 31
0.0
  0
LINE
  5
5249
  8
AM_0
 10
163.99522517122909
 20
433.48185306616568
 30
0.0
 11
163.24796512782109
 21
413.85382259263451
 31
0.0
  0
LINE
  5
524A
  8
AM_0
 10
163.44606466371889
 20
433.47856611496951
 30
0.0
 11
162.697497210883
 21
413.81619435380151
 31
0.0
  0
LINE
  5
524B
  8
AM_0
 10
160.5978614843111
 20
411.66619435380159
 30
0.0
 11
158.39786148431099
 21
411.66619435380159
 31
0.0
  0
ARC
  5
524C
  8
AM_0
 10
172.49653258065709
 20
411.16619435380159
 30
0.0
 40
0.5
 50
0.0
 51
90.000000000013017
  0
ARC
  5
524D
  8
AM_0
 10
173.49653258065709
 20
410.66619435380159
 30
0.0
 40
0.5
 50
180.0
 51
270.0
  0
LINE
  5
524E
  8
AM_0
 10
172.996532580657
 20
411.16619435380159
 30
0.0
 11
172.996532580657
 21
410.66619435380159
 31
0.0
  0
LINE
  5
524F
  8
AM_0
 10
163.996532580657
 20
414.56619435380168
 30
0.0
 11
167.496532580657
 21
414.56619435380168
 31
0.0
  0
LINE
  5
5250
  8
AM_0
 10
172.996532580657
 20
412.81012303239481
 30
0.0
 11
172.996532580657
 21
422.52226567520933
 31
0.0
  0
LINE
  5
5251
  8
AM_0
 10
168.496532580657
 20
411.66619435380159
 30
0.0
 11
172.496532580657
 21
411.66619435380159
 31
0.0
  0
LINE
  5
5252
  8
AM_0
 10
172.496532580657
 20
412.31012303239481
 30
0.0
 11
167.996532580657
 21
412.31012303239481
 31
0.0
  0
ARC
  5
5253
  8
AM_0
 10
172.49653258065709
 20
412.81012303239481
 30
0.0
 40
0.5
 50
270.0
 51
0.0
  0
ARC
  5
5254
  8
AM_0
 10
167.496532580657
 20
414.06619435380168
 30
0.0
 40
0.5
 50
0.0
 51
90.0
  0
ARC
  5
5255
  8
AM_0
 10
168.496532580657
 20
412.16619435380159
 30
0.0
 40
0.5
 50
180.0
 51
270.0
  0
LINE
  5
5256
  8
AM_0
 10
172.496532580657
 20
423.02226567520933
 30
0.0
 11
167.996532580657
 21
423.02226567520933
 31
0.0
  0
ARC
  5
5257
  8
AM_0
 10
172.496532580657
 20
422.52226567520961
 30
0.0
 40
0.5
 50
0.0
 51
90.0
  0
LINE
  5
5258
  8
AM_0
 10
162.0978614843111
 20
417.5210236015094
 30
0.0
 11
162.0978614843111
 21
418.69326678794249
 31
0.0
  0
LINE
  5
5259
  8
AM_0
 10
163.524229639308
 20
414.56619435380168
 30
0.0
 11
163.996532580657
 21
414.56619435380168
 31
0.0
  0
LINE
  5
525A
  8
AM_0
 10
163.42763714476879
 20
414.4920765870649
 30
0.0
 11
163.447497210883
 21
414.56619435380168
 31
0.0
  0
ARC
  5
525B
  8
AM_0
 10
163.524229639308
 20
414.4661943538016
 30
0.0
 40
0.1000000000000346
 50
90.0
 51
164.99980499355539
  0
ARC
  5
525C
  8
AM_0
 10
161.797861484311
 20
414.37936137329359
 30
0.0
 40
0.3000000000000043
 50
0.0
 51
90.0
  0
LINE
  5
525D
  8
AM_0
 10
160.5978614843111
 20
412.26619435380161
 30
0.0
 11
161.81781718746811
 21
412.34752473401272
 31
0.0
  0
LINE
  5
525E
  8
AM_0
 10
160.5978614843111
 20
413.42244638964161
 30
0.0
 11
161.79786148431091
 21
413.42244638964161
 31
0.0
  0
LINE
  5
525F
  8
AM_0
 10
162.0978614843111
 20
412.66619435380159
 30
0.0
 11
160.5978614843111
 21
412.66619435380159
 31
0.0
  0
ARC
  5
5260
  8
AM_0
 10
162.0978614843111
 20
413.16619435380159
 30
0.0
 40
0.5
 50
270.0
 51
0.0
  0
LINE
  5
5261
  8
AM_0
 10
162.0978614843111
 20
412.64686028136958
 30
0.0
 11
162.0978614843111
 21
412.66619435380159
 31
0.0
  0
LINE
  5
5262
  8
AM_0
 10
162.0978614843111
 20
412.36619435380152
 30
0.0
 11
162.0978614843111
 21
412.64686028136958
 31
0.0
  0
LINE
  5
5263
  8
AM_0
 10
161.81781718746811
 20
412.34752473401272
 30
0.0
 11
162.0978614843111
 21
412.36619435380152
 31
0.0
  0
ARC
  5
5264
  8
AM_0
 10
161.797861484311
 20
412.64686028136958
 30
0.0
 40
0.3000000000000007
 50
273.81407483428148
 51
0.0
  0
LINE
  5
5265
  8
AM_0
 10
163.169800152232
 20
413.81619435380151
 30
0.0
 11
163.24653258065791
 21
413.81619435380151
 31
0.0
  0
LINE
  5
5266
  8
AM_0
 10
163.24653258065791
 20
413.81619435380151
 30
0.0
 11
163.26639264677101
 21
413.89031212053783
 31
0.0
  0
LINE
  5
5267
  8
AM_0
 10
162.67763714476879
 20
413.89031212053783
 30
0.0
 11
162.697497210883
 21
413.81619435380151
 31
0.0
  0
LINE
  5
5268
  8
AM_0
 10
162.697497210883
 20
413.81619435380151
 30
0.0
 11
162.774229639308
 21
413.81619435380151
 31
0.0
  0
LINE
  5
5269
  8
AM_0
 10
163.26639264677101
 20
413.89031212053783
 30
0.0
 11
163.42763714476879
 21
414.4920765870649
 31
0.0
  0
LINE
  5
526A
  8
AM_0
 10
162.774229639308
 20
413.81619435380151
 30
0.0
 11
163.169800152232
 21
413.81619435380151
 31
0.0
  0
LINE
  5
526B
  8
AM_0
 10
162.59786148431201
 20
414.18803488536241
 30
0.0
 11
162.67763714476879
 21
413.89031212053783
 31
0.0
  0
ARC
  5
526C
  8
AM_0
 10
163.169800152232
 20
413.91619435380159
 30
0.0
 40
0.0999999999999866
 50
270.0
 51
344.99980499343371
  0
ARC
  5
526D
  8
AM_0
 10
162.774229639308
 20
413.91619435380159
 30
0.0
 40
0.1000000000000014
 50
195.00019500656629
 51
270.0
  0
LINE
  5
526E
  8
AM_0
 10
162.0978614843111
 20
413.72244638964168
 30
0.0
 11
162.0978614843111
 21
414.37936137329359
 31
0.0
  0
ARC
  5
526F
  8
AM_0
 10
161.797861484311
 20
413.72244638964168
 30
0.0
 40
0.3000000000000007
 50
270.0
 51
0.0
  0
LINE
  5
5270
  8
AM_0
 10
160.5978614843111
 20
417.22102360150961
 30
0.0
 11
161.79786148431091
 21
417.22102360150961
 31
0.0
  0
LINE
  5
5271
  8
AM_0
 10
161.79786148431091
 20
414.67936137329372
 30
0.0
 11
160.5978614843111
 21
414.67936137329372
 31
0.0
  0
LINE
  5
5272
  8
AM_0
 10
163.447497210883
 20
414.56619435380168
 30
0.0
 11
163.524229639308
 21
414.56619435380168
 31
0.0
  0
ARC
  5
5273
  8
AM_0
 10
161.797861484311
 20
417.52102360150968
 30
0.0
 40
0.3000000000000007
 50
270.0
 51
0.0
  0
LINE
  5
5274
  8
AM_0
 10
161.79786148431091
 20
418.99326678794267
 30
0.0
 11
160.5978614843111
 21
418.99326678794267
 31
0.0
  0
ARC
  5
5275
  8
AM_0
 10
161.797861484311
 20
418.6932667879426
 30
0.0
 40
0.3000000000000043
 50
0.0
 51
90.0
  0
LINE
  5
5276
  8
AM_0
 10
161.79786148431091
 20
422.66619435380051
 30
0.0
 11
160.5978614843111
 21
422.66619435380051
 31
0.0
  0
ARC
  5
5277
  8
AM_0
 10
161.797861484311
 20
422.96619435380069
 30
0.0
 40
0.3000000000000007
 50
270.0
 51
0.0
  0
LINE
  5
5278
  8
AM_0
 10
151.5978614843111
 20
413.53291452515441
 30
0.0
 11
158.0978614843111
 21
413.53291452515441
 31
0.0
  0
LINE
  5
5279
  8
AM_0
 10
151.5978614843111
 20
413.03291452515441
 30
0.0
 11
158.0978614843111
 21
413.03291452515441
 31
0.0
  0
LINE
  5
527A
  8
AM_0
 10
158.0978614843111
 20
423.16619435380159
 30
0.0
 11
151.5978614843111
 21
423.16619435380159
 31
0.0
  0
LINE
  5
527B
  8
AM_0
 10
151.0978614843111
 20
422.66619435380159
 30
0.0
 11
158.0978614843111
 21
422.66619435380159
 31
0.0
  0
LINE
  5
527C
  8
AM_0
 10
157.79786148431091
 20
412.66619435380159
 30
0.0
 11
150.95991141949301
 21
412.66619435380159
 31
0.0
  0
LINE
  5
527D
  8
AM_0
 10
158.0978614843111
 20
422.31950628526027
 30
0.0
 11
151.5978614843111
 21
422.31950628526027
 31
0.0
  0
LINE
  5
527E
  8
AM_0
 10
158.0978614843111
 20
414.01288242234273
 30
0.0
 11
151.5978614843111
 21
414.01288242234273
 31
0.0
  0
ARC
  5
527F
  8
AM_0
 10
158.39786148431099
 20
411.9661943538016
 30
0.0
 40
0.2999999999999971
 50
180.0
 51
270.0
  0
ARC
  5
5280
  8
AM_0
 10
157.797861484311
 20
412.36619435380152
 30
0.0
 40
0.2999999999999971
 50
0.0
 51
90.0
  0
ARC
  5
5281
  8
AM_0
 10
159.7228614843111
 20
418.16619435380159
 30
0.0
 40
9.124999999999984
 50
152.92493329271929
 51
207.07506670728071
  0
LINE
  5
5282
  8
AM_0
 10
150.3197270198286
 20
412.89797307420417
 30
0.0
 11
147.95767708464641
 21
414.86634802018921
 31
0.0
  0
LINE
  5
5283
  8
AM_0
 10
151.0978614843111
 20
413.2446269373097
 30
0.0
 11
151.5978614843111
 21
412.66619435380159
 31
0.0
  0
ARC
  5
5284
  8
AM_0
 10
150.95991141949301
 20
413.66619435380159
 30
0.0
 40
1.0
 50
230.19442890774391
 51
270.0
  0
LINE
  5
5285
  8
AM_0
 10
151.5978614843111
 20
413.03291452515441
 30
0.0
 11
151.0978614843111
 21
413.2446269373097
 31
0.0
  0
LINE
  5
5286
  8
AM_0
 10
151.0978614843111
 20
413.7069022102807
 30
0.0
 11
151.5978614843111
 21
413.03291452515441
 31
0.0
  0
LINE
  5
5287
  8
AM_0
 10
151.5978614843111
 20
413.53291452515441
 30
0.0
 11
151.0978614843111
 21
413.7069022102807
 31
0.0
  0
LINE
  5
5288
  8
AM_0
 10
151.0978614843111
 20
414.24462693730959
 30
0.0
 11
151.5978614843111
 21
413.53291452515441
 31
0.0
  0
LINE
  5
5289
  8
AM_0
 10
151.5978614843111
 20
414.01288242234273
 30
0.0
 11
151.0978614843111
 21
414.24462693730959
 31
0.0
  0
ARC
  5
528A
  8
AM_0
 10
148.5978614843111
 20
415.63456929978651
 30
0.0
 40
1.0000000000000291
 50
180.0
 51
230.19442890773689
  0
LINE
  5
528B
  8
AM_0
 10
151.5978614843111
 20
423.16619435380159
 30
0.0
 11
151.0978614843111
 21
423.66619435380159
 31
0.0
  0
LINE
  5
528C
  8
AM_0
 10
151.0978614843111
 20
422.66619435380159
 30
0.0
 11
151.5978614843111
 21
423.16619435380159
 31
0.0
  0
LINE
  5
528D
  8
AM_0
 10
151.5978614843111
 20
422.31950628526027
 30
0.0
 11
151.0978614843111
 21
422.66619435380159
 31
0.0
  0
LINE
  5
528E
  8
AM_0
 10
158.39786148431099
 20
435.66619435380159
 30
0.0
 11
160.5978614843111
 21
435.66619435380159
 31
0.0
  0
ARC
  5
528F
  8
AM_0
 10
172.496532580657
 20
436.16619435380159
 30
0.0
 40
0.5
 50
269.99999999998693
 51
0.0
  0
LINE
  5
5290
  8
AM_0
 10
167.496532580657
 20
432.76619435380161
 30
0.0
 11
164.274229639308
 21
432.76619435380161
 31
0.0
  0
LINE
  5
5291
  8
AM_0
 10
172.996532580657
 20
424.81012303239481
 30
0.0
 11
172.996532580657
 21
434.52226567520961
 31
0.0
  0
LINE
  5
5292
  8
AM_0
 10
167.996532580657
 20
424.31012303239481
 30
0.0
 11
172.496532580657
 21
424.31012303239481
 31
0.0
  0
ARC
  5
5293
  8
AM_0
 10
172.496532580657
 20
424.81012303239481
 30
0.0
 40
0.5
 50
270.0
 51
0.0
  0
LINE
  5
5294
  8
AM_0
 10
167.996532580657
 20
435.02226567520961
 30
0.0
 11
172.496532580657
 21
435.02226567520961
 31
0.0
  0
LINE
  5
5295
  8
AM_0
 10
172.496532580657
 20
435.66619435380159
 30
0.0
 11
168.496532580657
 21
435.66619435380159
 31
0.0
  0
ARC
  5
5296
  8
AM_0
 10
172.496532580657
 20
434.52226567520961
 30
0.0
 40
0.5
 50
0.0
 51
90.0
  0
ARC
  5
5297
  8
AM_0
 10
167.496532580657
 20
433.26619435380161
 30
0.0
 40
0.5
 50
270.0
 51
0.0
  0
ARC
  5
5298
  8
AM_0
 10
168.496532580657
 20
435.16619435380159
 30
0.0
 40
0.5
 50
90.0
 51
180.0
  0
ARC
  5
5299
  8
AM_0
 10
161.797861484311
 20
429.8113651060936
 30
0.0
 40
0.3000000000000114
 50
0.0
 51
90.0
  0
LINE
  5
529A
  8
AM_0
 10
160.5978614843111
 20
424.66619435380329
 30
0.0
 11
161.79786148431091
 21
424.66619435380329
 31
0.0
  0
ARC
  5
529B
  8
AM_0
 10
161.797861484311
 20
424.36619435380379
 30
0.0
 40
0.2999999999999971
 50
0.0
 51
90.0
  0
LINE
  5
529C
  8
AM_0
 10
160.5978614843111
 20
428.33912191966027
 30
0.0
 11
161.79786148431091
 21
428.33912191966027
 31
0.0
  0
ARC
  5
529D
  8
AM_0
 10
161.797861484311
 20
428.63912191966068
 30
0.0
 40
0.3000000000000007
 50
270.0
 51
0.0
  0
LINE
  5
529E
  8
AM_0
 10
162.0978614843111
 20
428.63912191966068
 30
0.0
 11
162.0978614843111
 21
429.8113651060936
 31
0.0
  0
LINE
  5
529F
  8
AM_0
 10
163.524229639308
 20
433.51619435380161
 30
0.0
 11
163.919800152232
 21
433.51619435380161
 31
0.0
  0
LINE
  5
52A0
  8
AM_0
 10
163.524229639308
 20
433.51619435380161
 30
0.0
 11
163.919800152232
 21
433.51619435380161
 31
0.0
  0
LINE
  5
52A1
  8
AM_0
 10
164.01639264677101
 20
433.44207658706512
 30
0.0
 11
164.17763714476879
 21
432.8403121205381
 31
0.0
  0
LINE
  5
52A2
  8
AM_0
 10
164.01639264677101
 20
433.44207658706512
 30
0.0
 11
164.17763714476879
 21
432.8403121205381
 31
0.0
  0
ARC
  5
52A3
  8
AM_0
 10
164.274229639308
 20
432.86619435380157
 30
0.0
 40
0.0999999999999943
 50
195.00019500651879
 51
270.0
  0
ARC
  5
52A4
  8
AM_0
 10
163.919800152232
 20
433.41619435380159
 30
0.0
 40
0.0999999999999943
 50
15.000195006505431
 51
90.0
  0
LINE
  5
52A5
  8
AM_0
 10
162.59701489576989
 20
433.14119435380161
 30
0.0
 11
162.67763714476879
 21
432.8403121205381
 31
0.0
  0
LINE
  5
52A6
  8
AM_0
 10
163.24924323286291
 20
432.8054588868996
 30
0.0
 11
163.42763714476879
 21
433.44207658706512
 31
0.0
  0
LINE
  5
52A7
  8
AM_0
 10
163.26639264677101
 20
432.8403121205381
 30
0.0
 11
163.42763714476879
 21
433.44207658706512
 31
0.0
  0
LINE
  5
52A8
  8
AM_0
 10
162.0978614843111
 20
432.95302733431078
 30
0.0
 11
162.0978614843111
 21
433.60994231796161
 31
0.0
  0
LINE
  5
52A9
  8
AM_0
 10
162.5978614843111
 20
433.13803488536348
 30
0.0
 11
162.67763714476879
 21
432.8403121205381
 31
0.0
  0
LINE
  5
52AA
  8
AM_0
 10
160.5978614843111
 20
432.65302733431082
 30
0.0
 11
161.79786148431091
 21
432.65302733431082
 31
0.0
  0
LINE
  5
52AB
  8
AM_0
 10
161.79786148431091
 20
430.11136510609361
 30
0.0
 11
160.5978614843111
 21
430.11136510609452
 31
0.0
  0
LINE
  5
52AC
  8
AM_0
 10
163.2024324177471
 20
432.76619435380161
 30
0.0
 11
163.24924323286291
 21
432.8054588868996
 31
0.0
  0
LINE
  5
52AD
  8
AM_0
 10
162.774229639308
 20
432.76619435380161
 30
0.0
 11
163.2024324177471
 21
432.76619435380161
 31
0.0
  0
LINE
  5
52AE
  8
AM_0
 10
162.774229639308
 20
432.76619435380161
 30
0.0
 11
163.169800152232
 21
432.76619435380161
 31
0.0
  0
ARC
  5
52AF
  8
AM_0
 10
162.774229639308
 20
432.86619435380157
 30
0.0
 40
0.0999999999999943
 50
195.00019500651879
 51
270.0
  0
ARC
  5
52B0
  8
AM_0
 10
163.169800152232
 20
432.86619435380157
 30
0.0
 40
0.0999999999999608
 50
270.0
 51
344.99980499348112
  0
ARC
  5
52B1
  8
AM_0
 10
161.797861484311
 20
432.95302733431078
 30
0.0
 40
0.3000000000000007
 50
270.0
 51
0.0
  0
LINE
  5
52B2
  8
AM_0
 10
160.5978614843111
 20
434.66619435380159
 30
0.0
 11
162.0978614843111
 21
434.66619435380159
 31
0.0
  0
LINE
  5
52B3
  8
AM_0
 10
161.79786148431091
 20
433.90994231796162
 30
0.0
 11
160.5978614843111
 21
433.90994231796162
 31
0.0
  0
LINE
  5
52B4
  8
AM_0
 10
161.81781718746811
 20
434.9848639735917
 30
0.0
 11
160.5978614843111
 21
435.06619435380168
 31
0.0
  0
ARC
  5
52B5
  8
AM_0
 10
162.0978614843111
 20
434.16619435380159
 30
0.0
 40
0.5
 50
0.0
 51
90.0
  0
ARC
  5
52B6
  8
AM_0
 10
163.524229639308
 20
433.41619435380159
 30
0.0
 40
0.0999999999999606
 50
90.0
 51
164.99980499349451
  0
ARC
  5
52B7
  8
AM_0
 10
161.797861484311
 20
433.60994231796161
 30
0.0
 40
0.2999999999999971
 50
0.0
 51
90.0
  0
LINE
  5
52B8
  8
AM_0
 10
162.0978614843111
 20
434.66619435380159
 30
0.0
 11
162.0978614843111
 21
434.68552842623438
 31
0.0
  0
ARC
  5
52B9
  8
AM_0
 10
161.797861484311
 20
434.68552842623438
 30
0.0
 40
0.3000000000000043
 50
0.0
 51
86.18592516571853
  0
ARC
  5
52BA
  8
AM_0
 10
173.496532580657
 20
436.66619435380159
 30
0.0
 40
0.5
 50
90.0
 51
180.0
  0
LINE
  5
52BB
  8
AM_0
 10
172.996532580657
 20
436.66619435380159
 30
0.0
 11
172.996532580657
 21
436.16619435380159
 31
0.0
  0
LINE
  5
52BC
  8
AM_0
 10
151.5978614843111
 20
433.31950628526027
 30
0.0
 11
158.0978614843111
 21
433.31950628526027
 31
0.0
  0
LINE
  5
52BD
  8
AM_0
 10
151.5978614843111
 20
425.01288242234278
 30
0.0
 11
158.0978614843111
 21
425.01288242234278
 31
0.0
  0
LINE
  5
52BE
  8
AM_0
 10
150.95991141949301
 20
434.66619435380159
 30
0.0
 11
157.79786148431091
 21
434.66619435380159
 31
0.0
  0
LINE
  5
52BF
  8
AM_0
 10
158.0978614843111
 20
424.66619435380159
 30
0.0
 11
151.0978614843111
 21
424.66619435380159
 31
0.0
  0
LINE
  5
52C0
  8
AM_0
 10
151.5978614843111
 20
424.16619435380159
 30
0.0
 11
158.0978614843111
 21
424.16619435380159
 31
0.0
  0
LINE
  5
52C1
  8
AM_0
 10
158.0978614843111
 20
434.29947418244961
 30
0.0
 11
151.5978614843111
 21
434.29947418244961
 31
0.0
  0
LINE
  5
52C2
  8
AM_0
 10
158.0978614843111
 20
433.7994741824495
 30
0.0
 11
151.5978614843111
 21
433.7994741824495
 31
0.0
  0
ARC
  5
52C3
  8
AM_0
 10
157.797861484311
 20
434.9661943538016
 30
0.0
 40
0.3000000000000043
 50
270.0
 51
0.0
  0
ARC
  5
52C4
  8
AM_0
 10
158.39786148431099
 20
435.3661943538018
 30
0.0
 40
0.2999999999999971
 50
90.0
 51
180.0
  0
ARC
  5
52C5
  8
AM_0
 10
159.7228614843111
 20
429.16619435380159
 30
0.0
 40
9.124999999999984
 50
152.92493329271929
 51
207.07506670728071
  0
LINE
  5
52C6
  8
AM_0
 10
151.0978614843111
 20
424.66619435380159
 30
0.0
 11
151.5978614843111
 21
425.01288242234278
 31
0.0
  0
LINE
  5
52C7
  8
AM_0
 10
151.5978614843111
 20
424.16619435380159
 30
0.0
 11
151.0978614843111
 21
424.66619435380159
 31
0.0
  0
LINE
  5
52C8
  8
AM_0
 10
147.95767708464641
 20
432.46604068741487
 30
0.0
 11
150.3197270198286
 21
434.43441563339911
 31
0.0
  0
LINE
  5
52C9
  8
AM_0
 10
151.5978614843111
 20
434.66619435380159
 30
0.0
 11
151.0978614843111
 21
434.08776177029472
 31
0.0
  0
ARC
  5
52CA
  8
AM_0
 10
150.95991141949301
 20
433.66619435380159
 30
0.0
 40
1.0000000000000411
 50
90.0
 51
129.805571092256
  0
LINE
  5
52CB
  8
AM_0
 10
151.0978614843111
 20
433.08776177029472
 30
0.0
 11
151.5978614843111
 21
433.31950628526027
 31
0.0
  0
LINE
  5
52CC
  8
AM_0
 10
151.5978614843111
 20
433.7994741824495
 30
0.0
 11
151.0978614843111
 21
433.08776177029472
 31
0.0
  0
LINE
  5
52CD
  8
AM_0
 10
151.0978614843111
 20
433.62548649732253
 30
0.0
 11
151.5978614843111
 21
433.7994741824495
 31
0.0
  0
LINE
  5
52CE
  8
AM_0
 10
151.5978614843111
 20
434.29947418244961
 30
0.0
 11
151.0978614843111
 21
433.62548649732253
 31
0.0
  0
LINE
  5
52CF
  8
AM_0
 10
151.0978614843111
 20
434.08776177029472
 30
0.0
 11
151.5978614843111
 21
434.29947418244961
 31
0.0
  0
ARC
  5
52D0
  8
AM_0
 10
148.5978614843111
 20
431.69781940781758
 30
0.0
 40
1.0
 50
129.80557109226311
 51
180.0
  0
LINE
  5
52D1
  8
AM_0
 10
272.99653258065712
 20
400.66619435380193
 30
0.0
 11
252.18202768112471
 21
400.66619435380193
 31
0.0
  0
LINE
  5
52D2
  8
AM_0
 10
197.8110374801895
 20
400.66619435380193
 30
0.0
 11
176.99653258065771
 21
400.66619435380193
 31
0.0
  0
LINE
  5
52D3
  8
AM_0
 10
266.8607509114961
 20
396.66619435380198
 30
0.0
 11
183.13231424981791
 21
396.66619435380198
 31
0.0
  0
LINE
  5
52D4
  8
AM_0
 10
185.90388755296399
 20
398.6072568416742
 30
0.0
 11
185.99653258065771
 21
399.66619435380198
 31
0.0
  0
LINE
  5
52D5
  8
AM_0
 10
178.08917760835101
 20
398.6072568416742
 30
0.0
 11
177.99653258065771
 21
399.66619435380198
 31
0.0
  0
ARC
  5
52D6
  8
AM_0
 10
181.99653258065771
 20
403.0661943538019
 30
0.0
 40
6.5
 50
241.82726586813479
 51
298.17273413186518
  0
ARC
  5
52D7
  8
AM_0
 10
179.68308912529801
 20
398.7467060300703
 30
0.0
 40
1.6000000000000001
 50
184.99999999999969
 51
241.82726586813479
  0
LINE
  5
52D8
  8
AM_0
 10
184.29653258065761
 20
396.98672069237369
 30
0.0
 11
181.99653258065771
 21
399.27628037116921
 31
0.0
  0
LINE
  5
52D9
  8
AM_0
 10
182.30803258065771
 20
398.966194353802
 30
0.0
 11
181.68503258065761
 21
398.966194353802
 31
0.0
  0
LINE
  5
52DA
  8
AM_0
 10
179.6965325806577
 20
396.98672069237369
 30
0.0
 11
181.99653258065771
 21
399.27628037116921
 31
0.0
  0
LINE
  5
52DB
  8
AM_0
 10
182.30803258065771
 20
396.5736626634673
 30
0.0
 11
182.30803258065771
 21
398.966194353802
 31
0.0
  0
LINE
  5
52DC
  8
AM_0
 10
181.68503258065761
 20
396.5736626634673
 30
0.0
 11
181.68503258065761
 21
398.966194353802
 31
0.0
  0
ARC
  5
52DD
  8
AM_0
 10
184.3099760360173
 20
398.7467060300703
 30
0.0
 40
1.6000000000000001
 50
298.17273413186518
 51
355.00000000000023
  0
LINE
  5
52DE
  8
AM_0
 10
272.99653258065717
 20
400.66619435380193
 30
0.0
 11
272.99653258065717
 21
404.66619435380193
 31
0.0
  0
LINE
  5
52DF
  8
AM_0
 10
176.99653258065669
 20
404.66619435380159
 30
0.0
 11
176.99653258065791
 21
400.66619435380193
 31
0.0
  0
LINE
  5
52E0
  8
AM_0N
 10
185.79653258065761
 20
400.66619435380193
 30
0.0
 11
185.79653258065761
 21
399.66619435380198
 31
0.0
  0
LINE
  5
52E1
  8
AM_0N
 10
182.1965325806577
 20
399.66619435380198
 30
0.0
 11
182.56050281492381
 21
400.66619435380193
 31
0.0
  0
LINE
  5
52E2
  8
AM_0N
 10
181.7965325806575
 20
399.66619435380198
 30
0.0
 11
182.1605028149238
 21
400.66619435380193
 31
0.0
  0
LINE
  5
52E3
  8
AM_0N
 10
177.99653258065771
 20
399.66619435380198
 30
0.0
 11
185.99653258065771
 21
399.66619435380198
 31
0.0
  0
LINE
  5
52E4
  8
AM_0N
 10
178.1965325806577
 20
399.66619435380198
 30
0.0
 11
178.1965325806577
 21
400.66619435380193
 31
0.0
  0
LINE
  5
52E5
  8
AM_0
 10
197.8110374801891
 20
396.66619435380198
 30
0.0
 11
197.8110374801891
 21
400.66619435380193
 31
0.0
  0
LINE
  5
52E6
  8
AM_0
 10
196.15418323069679
 20
400.66619435380193
 30
0.0
 11
197.8110374801891
 21
396.66619435380198
 31
0.0
  0
LINE
  5
52E7
  8
AM_0
 10
252.18202768112471
 20
396.66619435380198
 30
0.0
 11
252.18202768112471
 21
400.66619435380193
 31
0.0
  0
LINE
  5
52E8
  8
AM_0
 10
253.83888193061719
 20
400.66619435380193
 30
0.0
 11
252.18202768112471
 21
396.66619435380198
 31
0.0
  0
LINE
  5
52E9
  8
AM_0
 10
191.496532580657
 20
445.66619435380193
 30
0.0
 11
258.49653258065712
 21
445.66619435380193
 31
0.0
  0
LINE
  5
52EA
  8
AM_0
 10
191.496532580657
 20
445.66619435380193
 30
0.0
 11
191.496532580657
 21
443.66619435380198
 31
0.0
  0
LINE
  5
52EB
  8
AM_0
 10
258.49653258065712
 20
445.66619435380193
 30
0.0
 11
258.49653258065712
 21
443.66619435380198
 31
0.0
  0
LINE
  5
52EC
  8
ﾁｭｳｼﾝｾﾝ1
 10
267.99653258065638
 20
394.40148685380188
 30
0.0
 11
267.99653258065638
 21
407.40148685380171
 31
0.0
  0
LINE
  5
52ED
  8
AM_0
 10
264.08917760834998
 20
398.6072568416742
 30
0.0
 11
263.99653258065649
 21
399.66619435380198
 31
0.0
  0
LINE
  5
52EE
  8
AM_0
 10
271.903887552963
 20
398.6072568416742
 30
0.0
 11
271.99653258065649
 21
399.66619435380198
 31
0.0
  0
ARC
  5
52EF
  8
AM_0
 10
267.99653258065672
 20
403.06619435380162
 30
0.0
 40
6.5
 50
241.82726586813479
 51
298.17273413186518
  0
ARC
  5
52F0
  8
AM_0
 10
270.30997603601639
 20
398.7467060300703
 30
0.0
 40
1.6000000000000001
 50
298.17273413186518
 51
355.00000000000023
  0
LINE
  5
52F1
  8
AM_0
 10
265.69653258065648
 20
396.98672069237369
 30
0.0
 11
267.99653258065649
 21
399.27628037116921
 31
0.0
  0
LINE
  5
52F2
  8
AM_0
 10
267.68503258065653
 20
398.966194353802
 30
0.0
 11
268.30803258065657
 21
398.966194353802
 31
0.0
  0
LINE
  5
52F3
  8
AM_0
 10
270.2965325806565
 20
396.98672069237369
 30
0.0
 11
267.99653258065649
 21
399.27628037116921
 31
0.0
  0
LINE
  5
52F4
  8
AM_0
 10
267.68503258065653
 20
396.5736626634673
 30
0.0
 11
267.68503258065653
 21
398.966194353802
 31
0.0
  0
LINE
  5
52F5
  8
AM_0
 10
268.30803258065657
 20
396.5736626634673
 30
0.0
 11
268.30803258065657
 21
398.966194353802
 31
0.0
  0
ARC
  5
52F6
  8
AM_0
 10
265.68308912529699
 20
398.7467060300703
 30
0.0
 40
1.6000000000000001
 50
184.99999999999969
 51
241.82726586813479
  0
LINE
  5
52F7
  8
AM_0N
 10
264.19653258065648
 20
400.66619435380193
 30
0.0
 11
264.19653258065648
 21
399.66619435380198
 31
0.0
  0
LINE
  5
52F8
  8
AM_0N
 10
267.7965325806565
 20
399.66619435380198
 30
0.0
 11
267.4325623463904
 21
400.66619435380193
 31
0.0
  0
LINE
  5
52F9
  8
AM_0N
 10
268.19653258065648
 20
399.66619435380198
 30
0.0
 11
267.83256234639032
 21
400.66619435380193
 31
0.0
  0
LINE
  5
52FA
  8
AM_0N
 10
271.99653258065649
 20
399.66619435380198
 30
0.0
 11
263.99653258065649
 21
399.66619435380198
 31
0.0
  0
LINE
  5
52FB
  8
AM_0N
 10
271.7965325806565
 20
399.66619435380198
 30
0.0
 11
271.7965325806565
 21
400.66619435380193
 31
0.0
  0
LINE
  5
52FC
  8
AM_0
 10
175.996532580657
 20
407.66619435380159
 30
0.0
 11
175.996532580657
 21
439.66619435380159
 31
0.0
  0
LINE
  5
5338
  8
AM_0
 10
322.49657258065668
 20
459.66619435380159
 30
0.0
 11
322.49657258065668
 21
579.66619435380176
 31
0.0
  0
LINE
  5
5339
  8
AM_0
 10
289.99657258065668
 20
458.8151443538016
 30
0.0
 11
322.49657258065668
 21
459.66619435380159
 31
0.0
  0
LINE
  5
533A
  8
AM_0
 10
289.99657258065668
 20
580.51720435380162
 30
0.0
 11
322.49657258065668
 21
579.66616435380161
 31
0.0
  0
LINE
  5
533B
  8
AM_0
 10
289.99657258065668
 20
575.1925243538019
 30
0.0
 11
322.49657258065668
 21
575.1925243538019
 31
0.0
  0
LINE
  5
533C
  8
AM_0
 10
289.99657258065668
 20
464.1398243538016
 30
0.0
 11
322.49657258065668
 21
464.1398243538016
 31
0.0
  0
LINE
  5
533D
  8
AM_0
 10
289.99657258065668
 20
456.7712643538016
 30
0.0
 11
289.99657258065668
 21
468.16588435380152
 31
0.0
  0
LINE
  5
533E
  8
AM_0
 10
289.02273258065679
 20
583.56075435380149
 30
0.0
 11
284.99657258065668
 21
583.66616435380161
 31
0.0
  0
LINE
  5
533F
  8
AM_0
 10
289.02273258065679
 20
455.7715943538019
 30
0.0
 11
284.99657258065668
 21
455.66616435380161
 31
0.0
  0
LINE
  5
5340
  8
AM_0
 10
284.99657258065668
 20
468.16588435380152
 30
0.0
 11
297.12169258065683
 21
468.16588435380152
 31
0.0
  0
LINE
  5
5341
  8
AM_0
 10
284.99657258065668
 20
481.61132435380159
 30
0.0
 11
289.99657258065668
 21
481.61132435380159
 31
0.0
  0
LINE
  5
5342
  8
AM_0
 10
297.99657258065668
 20
470.37786435380161
 30
0.0
 11
297.99657258065668
 21
480.2910943538019
 31
0.0
  0
LINE
  5
5343
  8
AM_0
 10
307.99657258065668
 20
471.3463943538016
 30
0.0
 11
307.99657258065668
 21
481.3165843538016
 31
0.0
  0
LINE
  5
5344
  8
AM_0
 10
289.99657258065668
 20
481.61132435380159
 30
0.0
 11
289.99657258065668
 21
557.72106435380158
 31
0.0
  0
LINE
  5
5345
  8
AM_0
 10
289.99657258065668
 20
571.16619435380176
 30
0.0
 11
289.99657258065668
 21
582.5610843538019
 31
0.0
  0
LINE
  5
5346
  8
AM_0
 10
307.99654258065692
 20
469.92913435380171
 30
0.0
 11
298.858182580657
 21
468.31780435380159
 31
0.0
  0
LINE
  5
5347
  8
AM_0
 10
289.99657258065668
 20
482.48619435380158
 30
0.0
 11
307.99657258065668
 21
482.48619435380158
 31
0.0
  0
LINE
  5
5348
  8
AM_0
 10
297.99657258065668
 20
568.95449435380169
 30
0.0
 11
297.99657258065668
 21
559.04125435380161
 31
0.0
  0
LINE
  5
5349
  8
AM_0
 10
307.99654258065692
 20
569.40322435380187
 30
0.0
 11
298.85814258065682
 21
571.01454435380185
 31
0.0
  0
LINE
  5
534A
  8
AM_0
 10
284.99657258065668
 20
557.72106435380158
 30
0.0
 11
289.99657258065668
 21
557.72106435380158
 31
0.0
  0
LINE
  5
534B
  8
AM_0
 10
289.99657258065668
 20
556.84615435380169
 30
0.0
 11
307.99657258065668
 21
556.84615435380169
 31
0.0
  0
LINE
  5
534C
  8
AM_0
 10
284.99657258065668
 20
571.16646435380187
 30
0.0
 11
297.12169258065683
 21
571.16646435380187
 31
0.0
  0
LINE
  5
534D
  8
AM_0
 10
307.99657258065668
 20
567.9859543538015
 30
0.0
 11
307.99657258065668
 21
558.01573435380192
 31
0.0
  0
LINE
  5
534E
  8
AM_0
 10
322.49657258065668
 20
464.1398243538016
 30
0.0
 11
354.49657258065679
 21
464.1398243538016
 31
0.0
  0
LINE
  5
534F
  8
AM_0
 10
322.49657258065668
 20
575.19249435380186
 30
0.0
 11
354.49657258065679
 21
575.19249435380186
 31
0.0
  0
LINE
  5
5350
  8
AM_0
 10
377.49651258065683
 20
449.66612435380159
 30
0.0
 11
381.49657258065679
 21
449.66612435380159
 31
0.0
  0
LINE
  5
5351
  8
AM_0
 10
369.42672258065687
 20
444.94795435380161
 30
0.0
 11
377.49654258065692
 21
444.66616435380172
 31
0.0
  0
LINE
  5
5352
  8
AM_0
 10
367.49651258065683
 20
446.9467643538016
 30
0.0
 11
367.49651258065683
 21
479.22576435380159
 31
0.0
  0
LINE
  5
5353
  8
AM_0
 10
359.32204258065678
 20
450.4380743538016
 30
0.0
 11
364.60125258065682
 21
450.2537143538018
 31
0.0
  0
LINE
  5
5354
  8
AM_0
 10
322.49657258065668
 20
579.66619435380176
 30
0.0
 11
354.49657258065679
 21
580.50414435380185
 31
0.0
  0
LINE
  5
5355
  8
AM_0
 10
354.49654258065692
 20
458.8282043538016
 30
0.0
 11
322.49657258065668
 21
459.66616435380161
 31
0.0
  0
LINE
  5
5356
  8
AM_0
 10
367.49651258065683
 20
592.38555435380158
 30
0.0
 11
367.49651258065683
 21
560.1065543538017
 31
0.0
  0
LINE
  5
5357
  8
AM_0
 10
359.3221025806568
 20
588.89421435380177
 30
0.0
 11
364.6012825806568
 21
589.07857435380174
 31
0.0
  0
LINE
  5
5358
  8
AM_0
 10
372.49657258065679
 20
579.16619435380176
 30
0.0
 11
372.49657258065679
 21
460.16612435380171
 31
0.0
  0
LINE
  5
5359
  8
AM_0
 10
377.49651258065683
 20
589.66619435380187
 30
0.0
 11
381.49657258065679
 21
589.66619435380187
 31
0.0
  0
LINE
  5
535A
  8
AM_0
 10
377.49651258065683
 20
594.66612435380171
 30
0.0
 11
377.49651258065683
 21
444.66612435380159
 31
0.0
  0
LINE
  5
535B
  8
AM_0
 10
381.49657258065679
 20
589.66619435380187
 30
0.0
 11
381.49657258065679
 21
449.66612435380159
 31
0.0
  0
LINE
  5
535C
  8
AM_0
 10
369.4267525806568
 20
594.38436435380174
 30
0.0
 11
377.49657258065679
 21
594.66616435380161
 31
0.0
  0
LINE
  5
535D
  8
AM_0
 10
354.49657258065679
 20
583.89726435380157
 30
0.0
 11
354.49657258065679
 21
455.45256435380128
 31
0.0
  0
ARC
  5
535E
  8
AM_0
 10
288.99657258065668
 20
582.5610843538019
 30
0.0
 40
1.0
 50
0.0
 51
88.499997000000647
  0
ARC
  5
535F
  8
AM_0
 10
288.99657258065668
 20
456.7712643538016
 30
0.0
 40
1.0
 50
271.49999999999937
 51
0.0
  0
ARC
  5
5360
  8
AM_0
 10
297.12169258065683
 20
478.1658843538018
 30
0.0
 40
10.0
 50
270.0
 51
280.00001000000128
  0
ARC
  5
5361
  8
AM_0
 10
297.12169258065683
 20
561.16646435380164
 30
0.0
 40
10.0
 50
79.999998000001099
 51
90.000003000000945
  0
ARC
  5
5362
  8
AM_0
 10
369.49657258065679
 20
446.9467643538016
 30
0.0
 40
2.0
 50
179.999989999999
 51
268.00000999999861
  0
ARC
  5
5363
  8
AM_0
 10
369.49657258065679
 20
479.22576435380159
 30
0.0
 40
2.0
 50
88.485353000001084
 51
180.00001000000091
  0
ARC
  5
5364
  8
AM_0
 10
369.49657258065679
 20
460.16612435380171
 30
0.0
 40
3.0
 50
270.0
 51
0.0
  0
ARC
  5
5365
  8
AM_0
 10
364.49651258065683
 20
447.25554435380161
 30
0.0
 40
3.0
 50
0.0
 51
87.999999999999503
  0
ARC
  5
5366
  8
AM_0
 10
359.49651258065683
 20
455.43505435380172
 30
0.0
 40
5.0
 50
179.999989999999
 51
268.00000999999861
  0
ARC
  5
5367
  8
AM_0
 10
369.49657258065679
 20
592.38555435380158
 30
0.0
 40
2.0
 50
91.999998000000545
 51
180.00001000000091
  0
ARC
  5
5368
  8
AM_0
 10
369.49657258065679
 20
579.16619435380176
 30
0.0
 40
3.0
 50
0.0
 51
90.000003000000945
  0
ARC
  5
5369
  8
AM_0
 10
359.49651258065683
 20
583.89726435380157
 30
0.0
 40
5.0
 50
91.999998000000545
 51
180.00001000000091
  0
ARC
  5
536A
  8
AM_0
 10
364.49651258065683
 20
592.07677435380208
 30
0.0
 40
3.0
 50
272.00000000000051
 51
0.0
  0
ARC
  5
536B
  8
AM_0
 10
369.49657258065679
 20
560.1065543538017
 30
0.0
 40
2.0
 50
179.999989999999
 51
271.51463999999908
  0
TEXT
  5
567E
  8
AM_0
 10
511.49629010763158
 20
535.14615061862082
 30
0.0
 40
10.0
  1
VX04-005MFW~VX04-010MFW
  0
ENDSEC
  0
EOF
