  0
SECTION
  2
HEADER
  9
$ACADVER
  1
AC1009
  9
$INSBASE
 10
0.0
 20
0.0
 30
0.0
  9
$EXTMIN
 10
98.235330775886951
 20
154.67354276861369
 30
-0.0015258207003583
  9
$EXTMAX
 10
736.31566042012491
 20
613.41450273816804
 30
0.0000000349246037
  9
$LIMMIN
 10
0.0
 20
0.0
  9
$LIMMAX
 10
853.5
 20
555.00000000000011
  9
$ORTHOMODE
 70
     0
  9
$REGENMODE
 70
     1
  9
$FILLMODE
 70
     1
  9
$QTEXTMODE
 70
     0
  9
$MIRRTEXT
 70
     1
  9
$DRAGMODE
 70
     2
  9
$LTSCALE
 40
3.0
  9
$OSMODE
 70
   551
  9
$ATTMODE
 70
     1
  9
$TEXTSIZE
 40
2.5
  9
$TRACEWID
 40
1.0
  9
$TEXTSTYLE
  7
STANDARD
  9
$CLAYER
  8
AM_0
  9
$CELTYPE
  6
BYLAYER
  9
$CECOLOR
 62
   256
  9
$DIMSCALE
 40
1.0
  9
$DIMASZ
 40
2.5
  9
$DIMEXO
 40
1.0
  9
$DIMDLI
 40
8.0
  9
$DIMRND
 40
0.0
  9
$DIMDLE
 40
0.0
  9
$DIMEXE
 40
0.6
  9
$DIMTP
 40
0.1
  9
$DIMTM
 40
0.1
  9
$DIMTXT
 40
2.5
  9
$DIMCEN
 40
0.0
  9
$DIMTSZ
 40
0.0
  9
$DIMTOL
 70
     0
  9
$DIMLIM
 70
     0
  9
$DIMTIH
 70
     0
  9
$DIMTOH
 70
     0
  9
$DIMSE1
 70
     0
  9
$DIMSE2
 70
     0
  9
$DIMTAD
 70
     1
  9
$DIMZIN
 70
     8
  9
$DIMBLK
  1

  9
$DIMASO
 70
     1
  9
$DIMSHO
 70
     1
  9
$DIMPOST
  1

  9
$DIMAPOST
  1
"
  9
$DIMALT
 70
     0
  9
$DIMALTD
 70
     2
  9
$DIMALTF
 40
0.0393701
  9
$DIMLFAC
 40
1.0
  9
$DIMTOFL
 70
     1
  9
$DIMTVP
 40
0.0
  9
$DIMTIX
 70
     0
  9
$DIMSOXD
 70
     0
  9
$DIMSAH
 70
     0
  9
$DIMBLK1
  1

  9
$DIMBLK2
  1

  9
$DIMSTYLE
  2
AM_ISO
  9
$DIMCLRD
 70
   256
  9
$DIMCLRE
 70
   256
  9
$DIMCLRT
 70
     4
  9
$DIMTFAC
 40
0.71
  9
$DIMGAP
 40
0.8
  9
$LUNITS
 70
     2
  9
$LUPREC
 70
     2
  9
$SKETCHINC
 40
1.0
  9
$FILLETRAD
 40
15.0
  9
$AUNITS
 70
     0
  9
$AUPREC
 70
     0
  9
$MENU
  1
.
  9
$ELEVATION
 40
0.0
  9
$PELEVATION
 40
0.0
  9
$THICKNESS
 40
0.0
  9
$LIMCHECK
 70
     0
  9
$BLIPMODE
 70
     0
  9
$CHAMFERA
 40
6.0
  9
$CHAMFERB
 40
3.0
  9
$SKPOLY
 70
     0
  9
$TDCREATE
 40
2452065.7887456599
  9
$TDUPDATE
 40
2458541.6040656129
  9
$TDINDWG
 40
0.0975943634
  9
$TDUSRTIMER
 40
0.0975943403
  9
$USRTIMER
 70
     1
  9
$ANGBASE
 50
0.0
  9
$ANGDIR
 70
     0
  9
$PDMODE
 70
     0
  9
$PDSIZE
 40
0.0
  9
$PLINEWID
 40
0.0
  9
$COORDS
 70
     1
  9
$SPLFRAME
 70
     0
  9
$SPLINETYPE
 70
     6
  9
$SPLINESEGS
 70
     8
  9
$ATTDIA
 70
     1
  9
$ATTREQ
 70
     1
  9
$HANDLING
 70
     1
  9
$HANDSEED
  5
606A
  9
$SURFTAB1
 70
     6
  9
$SURFTAB2
 70
     6
  9
$SURFTYPE
 70
     6
  9
$SURFU
 70
     6
  9
$SURFV
 70
     6
  9
$UCSNAME
  2

  9
$UCSORG
 10
0.0
 20
0.0
 30
0.0
  9
$UCSXDIR
 10
1.0
 20
0.0
 30
0.0
  9
$UCSYDIR
 10
0.0
 20
1.0
 30
0.0
  9
$PUCSNAME
  2

  9
$PUCSORG
 10
0.0
 20
0.0
 30
0.0
  9
$PUCSXDIR
 10
1.0
 20
0.0
 30
0.0
  9
$PUCSYDIR
 10
0.0
 20
1.0
 30
0.0
  9
$USERI1
 70
     0
  9
$USERI2
 70
     0
  9
$USERI3
 70
     0
  9
$USERI4
 70
     0
  9
$USERI5
 70
     0
  9
$USERR1
 40
0.0
  9
$USERR2
 40
0.0
  9
$USERR3
 40
0.0
  9
$USERR4
 40
0.0
  9
$USERR5
 40
0.0
  9
$WORLDVIEW
 70
     1
  9
$SHADEDGE
 70
     3
  9
$SHADEDIF
 70
    70
  9
$TILEMODE
 70
     1
  9
$MAXACTVP
 70
    64
  9
$PLIMCHECK
 70
     0
  9
$PEXTMIN
 10
1.0000000000000000E+020
 20
1.0000000000000000E+020
 30
1.0000000000000000E+020
  9
$PEXTMAX
 10
-1.0000000000000000E+020
 20
-1.0000000000000000E+020
 30
-1.0000000000000000E+020
  9
$PLIMMIN
 10
0.0
 20
0.0
  9
$PLIMMAX
 10
420.0
 20
297.0
  9
$UNITMODE
 70
     0
  9
$VISRETAIN
 70
     1
  9
$PLINEGEN
 70
     0
  9
$PSLTSCALE
 70
     1
  0
ENDSEC
  0
SECTION
  2
TABLES
  0
TABLE
  2
VPORT
 70
     1
  0
VPORT
  2
*ACTIVE
 70
     0
 10
0.0
 20
0.0
 11
1.0
 21
1.0
 12
417.27549559800582
 22
384.04402275339089
 13
0.0
 23
0.0
 14
7.5
 24
7.5
 15
30.0
 25
30.0
 16
0.0
 26
0.0
 36
1.0
 17
0.0
 27
0.0
 37
0.0
 40
461.89021141099278
 41
1.7571592210767459
 42
50.0
 43
0.0
 44
0.0
 50
0.0
 51
0.0
 71
     0
 72
   100
 73
     1
 74
     3
 75
     0
 76
     0
 77
     0
 78
     0
  0
ENDTAB
  0
TABLE
  2
LTYPE
 70
    26
  0
LTYPE
  2
CONTINUOUS
 70
     0
  3
Solid line
 72
    65
 73
     0
 40
0.0
  0
LTYPE
  2
AM_ISO02W050
 70
     0
  3
__ __ __ __ __ __ __ __ __ __ __ __ __ __ __
 72
    65
 73
     2
 40
7.5
 49
6.0
 49
-1.5
  0
LTYPE
  2
AM_ISO08W050
 70
     0
  3
____ . ____ . ____ . ____ . ____ . ____ . ____
 72
    65
 73
     4
 40
18.0
 49
12.0
 49
-1.5
 49
3.0
 49
-1.5
  0
LTYPE
  2
AM_ISO09W050
 70
     0
  3
_____ . . _____ . . _____ . . ____ .. ____
 72
    65
 73
     6
 40
22.5
 49
12.0
 49
-1.5
 49
3.0
 49
-1.5
 49
3.0
 49
-1.5
  0
LTYPE
  2
AMCONSTR
 70
     0
  3
_______________________
 72
    65
 73
     2
 40
9999.0
 49
9999.0
 49
0.0
  0
LTYPE
  2
AM_ISO08W050X2
 70
     0
  3
__ . __ . __ . __ . __ . __
 72
    65
 73
     4
 40
9.0
 49
6.0
 49
-0.75
 49
1.5
 49
-0.75
  0
LTYPE
  2
AM_ISO02W050X2
 70
     0
  3
 _ _ _ _ _ _ _ _ _ _ _ _
 72
    65
 73
     2
 40
3.75
 49
3.0
 49
-0.75
  0
LTYPE
  2
AMZIGZAG
 70
     0
  3
/\/-/\/-/\/-/\/-/\/-/\/
 72
    65
 73
     2
 40
11.0001
 49
0.0001
 49
-11.0
  0
LTYPE
  2
ACISOWELD
 70
     0
  3
_ _ _ _ _
 72
    65
 73
     2
 40
2.0
 49
2.0
 49
-1.0
  0
LTYPE
  2
ACISOTGB
 70
     0
  3
__ . . __ . .
 72
    65
 73
     6
 40
9.0
 49
4.0
 49
-1.0
 49
1.0
 49
-1.0
 49
1.0
 49
-1.0
  0
LTYPE
  2
ACISOTGL
 70
     0
  3
_ _ _ _ _
 72
    65
 73
     2
 40
3.0
 49
2.0
 49
-1.0
  0
LTYPE
  2
CENTER
 70
     0
  3
__ . __
 72
    65
 73
     4
 40
7.0
 49
4.0
 49
-1.0
 49
1.0
 49
-1.0
  0
LTYPE
  2
HIDDEN
 70
     0
  3
Hidden __ __ __ __ __ __ __ __ __ __ __ __ __ _
 72
    65
 73
     2
 40
9.5249999999999986
 49
6.3499999999999979
 49
-3.174999999999998
  0
LTYPE
  2
PHANTOM2
 70
     0
  3
Phantom (.5x) ___ _ _ ___ _ _ ___ _ _ ___ _ _
 72
    65
 73
     6
 40
31.75
 49
15.875
 49
-3.174999999999998
 49
3.174999999999998
 49
-3.174999999999998
 49
3.174999999999998
 49
-3.174999999999998
  0
LTYPE
  2
ACANSTGBM
 70
     0
  3
__ . . __ . .
 72
    65
 73
     6
 40
9.0
 49
4.0
 49
-1.0
 49
1.0
 49
-1.0
 49
1.0
 49
-1.0
  0
LTYPE
  2
ACANSTGLM
 70
     0
  3
_ _ _ _ _
 72
    65
 73
     2
 40
3.0
 49
2.0
 49
-1.0
  0
LTYPE
  2
GEN7
 70
     0
  3
____ . ____ . ____ . ____ . ____ . ____ . ____
 72
    65
 73
     4
 40
14.25
 49
9.75
 49
-1.5
 49
1.5
 49
-1.5
  0
LTYPE
  2
GEN7A
 70
     0
  3
__ . __ . __
 72
    65
 73
     4
 40
7.375
 49
4.75
 49
-0.875
 49
0.875
 49
-0.875
  0
LTYPE
  2
ACJISTGB
 70
     0
  3
__ . . __ . .
 72
    65
 73
     6
 40
9.0
 49
4.0
 49
-1.0
 49
1.0
 49
-1.0
 49
1.0
 49
-1.0
  0
LTYPE
  2
ACJISTGL
 70
     0
  3
_ _ _ _ _
 72
    65
 73
     2
 40
3.0
 49
2.0
 49
-1.0
  0
LTYPE
  2
CENTER2
 70
     0
  3
Center (.5x) ___ _ ___ _ ___ _ ___ _ ___ _ ___
 72
    65
 73
     4
 40
1.125
 49
0.75
 49
-0.125
 49
0.125
 49
-0.125
  0
LTYPE
  2
HIDDEN2
 70
     0
  3
Hidden (.5x) _ _ _ _ _ _ _ _ _ _ _ _ _ _ _ _ _
 72
    65
 73
     2
 40
0.1875
 49
0.125
 49
-0.0625
  0
LTYPE
  2
AMZIGZAG2
 70
     0
  3
/\/-/\/-/\/-/\/-/\/-/\/
 72
    65
 73
     2
 40
0.4401
 49
0.0001
 49
-0.4400000000000001
  0
LTYPE
  2
ACANSTGB
 70
     0
  3
__ . . __ . .
 72
    65
 73
     6
 40
0.35433070866
 49
0.15748031496
 49
-0.03937007874
 49
0.03937007874
 49
-0.03937007874
 49
0.03937007874
 49
-0.03937007874
  0
LTYPE
  2
ACANSTGL
 70
     0
  3
_ _ _ _ _
 72
    65
 73
     2
 40
0.11811023622
 49
0.07874015748
 49
-0.03937007874
  0
ENDTAB
  0
TABLE
  2
LAYER
 70
     7
  0
LAYER
  2
0
 70
     0
 62
     7
  6
CONTINUOUS
  0
LAYER
  2
AM_0
 70
     0
 62
     7
  6
CONTINUOUS
  0
LAYER
  2
AM_5
 70
     0
 62
     2
  6
CONTINUOUS
  0
LAYER
  2
DEFPOINTS
 70
     0
 62
     7
  6
CONTINUOUS
  0
LAYER
  2
ﾁｭｳｼﾝｾﾝ
 70
     0
 62
     1
  6
GEN7
  0
LAYER
  2
ﾁｭｳｼﾝｾﾝ1
 70
     0
 62
     1
  6
GEN7A
  0
LAYER
  2
AM_0N
 70
     0
 62
     7
  6
CONTINUOUS
  0
ENDTAB
  0
TABLE
  2
STYLE
 70
    10
  0
STYLE
  2
STANDARD
 70
     0
 40
0.0
 41
0.8299999999999999
 50
0.0
 71
     0
 42
2.5
  3
txt.shx
  4
bigfont.shx
  0
STYLE
  2
ANNOTATIVE
 70
     0
 40
0.0
 41
1.0
 50
0.0
 71
     0
 42
0.2
  3
txt
  4

  0
STYLE
  2

 70
     1
 40
0.0
 41
1.0
 50
0.0
 71
     0
 42
2.5
  3
ltypeshp.shx
  4

  0
STYLE
  2
ACISOTS
 70
     0
 40
1.0
 41
1.0
 50
0.0
 71
     0
 42
2.5
  3
isocp.shx
  4
extfont.shx
  0
STYLE
  2
ACISOGDT
 70
     0
 40
0.0
 41
1.0
 50
0.0
 71
     0
 42
2.5
  3
amgdt.shx
  4

  0
STYLE
  2
ACANSTS
 70
     0
 40
1.0
 41
1.0
 50
0.0
 71
     0
 42
2.5
  3
romans.shx
  4
bigfont.shx
  0
STYLE
  2
ACANSGDT
 70
     0
 40
0.0
 41
1.0
 50
0.0
 71
     0
 42
2.5
  3
amgdt.shx
  4

  0
STYLE
  2
ACJISTS
 70
     0
 40
1.0
 41
1.0
 50
0.0
 71
     0
 42
2.5
  3
isocp.shx
  4
bigfont.shx
  0
STYLE
  2
ACJISGDT
 70
     0
 40
0.0
 41
1.0
 50
0.0
 71
     0
 42
2.5
  3
amgdt.shx
  4

  0
STYLE
  2

 70
     1
 40
0.0
 41
1.0
 50
0.0
 71
     0
 42
2.5
  3
genltshp.shx
  4

  0
ENDTAB
  0
TABLE
  2
VIEW
 70
     6
  0
VIEW
  2
AM_VIEW1
 70
     0
 40
277.50000000000011
 10
249.64779005524869
 20
416.25
 41
499.29558011049721
 11
0.0
 21
0.0
 31
1.0
 12
0.0
 22
0.0
 32
0.0
 42
50.0
 43
0.0
 44
0.0
 50
0.0
 71
     0
  0
VIEW
  2
AM_VIEW2
 70
     0
 40
277.50000000000011
 10
603.85220994475117
 20
416.25
 41
499.29558011049721
 11
0.0
 21
0.0
 31
1.0
 12
0.0
 22
0.0
 32
0.0
 42
50.0
 43
0.0
 44
0.0
 50
0.0
 71
     0
  0
VIEW
  2
AM_VIEW3
 70
     0
 40
277.50000000000011
 10
249.64779005524869
 20
138.75
 41
499.29558011049721
 11
0.0
 21
0.0
 31
1.0
 12
0.0
 22
0.0
 32
0.0
 42
50.0
 43
0.0
 44
0.0
 50
0.0
 71
     0
  0
VIEW
  2
AM_VIEW4
 70
     0
 40
277.50000000000011
 10
603.85220994475117
 20
138.75
 41
499.29558011049721
 11
0.0
 21
0.0
 31
1.0
 12
0.0
 22
0.0
 32
0.0
 42
50.0
 43
0.0
 44
0.0
 50
0.0
 71
     0
  0
VIEW
  2
AM_VIEW5
 70
     0
 40
277.50000000000011
 10
426.75
 20
277.50000000000011
 41
499.2955801104971
 11
0.0
 21
0.0
 31
1.0
 12
0.0
 22
0.0
 32
0.0
 42
50.0
 43
0.0
 44
0.0
 50
0.0
 71
     0
  0
VIEW
  2
AM_VIEW6
 70
     0
 40
554.99445000000014
 10
426.75
 20
277.5
 41
998.5811743093924
 11
0.0
 21
0.0
 31
1.0
 12
0.0
 22
0.0
 32
0.0
 42
50.0
 43
0.0
 44
0.0
 50
0.0
 71
     0
  0
ENDTAB
  0
TABLE
  2
UCS
 70
     0
  0
ENDTAB
  0
TABLE
  2
APPID
 70
    98
  0
APPID
  2
ACAD
 70
     0
  0
APPID
  2
ACADANNOTATIVE
 70
     0
  0
APPID
  2
MCAD_NO_VIS
 70
     0
  0
APPID
  2
ACAD_TEMP_GRAPHIC
 70
     0
  0
APPID
  2
ACATTRIBSERVICES
 70
     0
  0
APPID
  2
GENIUS_GENREC_14
 70
     0
  0
APPID
  2
GENIUS_GENOBJ-N-REC_13
 70
     0
  0
APPID
  2
GENIUS_GENODEF_13
 70
     0
  0
APPID
  2
GENIUS_GENOLIS_13
 70
     0
  0
APPID
  2
GENIUS_GENOBJ-N-TIT_13
 70
     0
  0
APPID
  2
GENIUS_GENOENT_13
 70
     0
  0
APPID
  2
GENIUS_GENTITLE_13
 70
     0
  0
APPID
  2
GENIUS_GENOREF_13
 70
     0
  0
APPID
  2
GENIUS_GENSCREG_15
 70
     0
  0
APPID
  2
GENIUS_GENOBJ-N-SDF_13
 70
     0
  0
APPID
  2
GENIUS_GENFIL_13
 70
     0
  0
APPID
  2
GENIUS_GENOBJ-N-CHA_13
 70
     0
  0
APPID
  2
GENIUS_GENDTOL_13
 70
     0
  0
APPID
  2
GENIUS_GENOBJ-N-FIL_13
 70
     0
  0
APPID
  2
AD_DRAW
 70
     0
  0
APPID
  2
DESIGNERASSEMBLIES
 70
     0
  0
APPID
  2
ASURF_PCURVE_APPNAME
 70
     0
  0
APPID
  2
GENIUS_GE3SECT_13
 70
     0
  0
APPID
  2
GENIUS_GENCFG_13
 70
     0
  0
APPID
  2
GENIUS_GE3CFG0_13
 70
     0
  0
APPID
  2
GENIUS_GENCFG0_13
 70
     0
  0
APPID
  2
GENIUS_GENCFG1_13
 70
     0
  0
APPID
  2
GENIUS_GENCFG2_13
 70
     0
  0
APPID
  2
GENIUS_GENCFG3_13
 70
     0
  0
APPID
  2
GENIUS_GENCFG4_13
 70
     0
  0
APPID
  2
GENIUS_GEVCFG0_13
 70
     0
  0
APPID
  2
GENIUS_GENHINW_13
 70
     0
  0
APPID
  2
GENIUS_FIRSTVISTXT_14
 70
     0
  0
APPID
  2
GENIUS_GENOBJ-N-LEADER_13
 70
     0
  0
APPID
  2
GEV_VCCNULL_SWITCH_OFF
 70
     0
  0
APPID
  2
GENIUS_GEFCFG0_13
 70
     0
  0
APPID
  2
GENIUS_GENZVEED_13
 70
     0
  0
APPID
  2
GENIUS_GENSCREG_13
 70
     0
  0
APPID
  2
GENIUS_DUMCFG0_13
 70
     0
  0
APPID
  2
GEVID936201362
 70
     0
  0
APPID
  2
GEVDC
 70
     0
  0
APPID
  2
GEVCON
 70
     0
  0
APPID
  2
VCC
 70
     0
  0
APPID
  2
GEVPT
 70
     0
  0
APPID
  2
GEVIT
 70
     0
  0
APPID
  2
GENBH
 70
     0
  0
APPID
  2
GEVMK
 70
     0
  0
APPID
  2
GENIUS_GENBH_13
 70
     0
  0
APPID
  2
GENIUS_GENOBJ-NBEHI-BHF_13
 70
     0
  0
APPID
  2
GENIUS_GENOBJ-NBEHI-BHB_13
 70
     0
  0
APPID
  2
GENIUS_GENOBJ-F-DESC_13
 70
     0
  0
APPID
  2
GENIUS_GEFDESC_14
 70
     0
  0
APPID
  2
GENIUS_GENOBJ-F-PART_13
 70
     0
  0
APPID
  2
GENIUS_GEFSTDP_13
 70
     0
  0
APPID
  2
GENIUS_GEFPARTINS_13
 70
     0
  0
APPID
  2
GENIUS_GENTRA_14
 70
     0
  0
APPID
  2
GENIUS_GENINF13_13
 70
     0
  0
APPID
  2
GENIUS_GENOBJ-N-INFOPT_13
 70
     0
  0
APPID
  2
GENIUS_GENOBJ-N-RSSYM_13
 70
     0
  0
APPID
  2
GENIUS_GENSYMENT_13
 70
     0
  0
APPID
  2
GENIUS_GENSCSYM_13
 70
     0
  0
APPID
  2
GENIUS_GEFINFNAM_13
 70
     0
  0
APPID
  2
GENIUS_GENOBJ-N-CEN_13
 70
     0
  0
APPID
  2
GENIUS_GENOBJ-N-CRS_13
 70
     0
  0
APPID
  2
GENIUS_GENOBJ-N-CRC_13
 70
     0
  0
APPID
  2
GENIUS_GENCRC_14
 70
     0
  0
APPID
  2
GEVID942827039
 70
     0
  0
APPID
  2
GEVID942827040
 70
     0
  0
APPID
  2
GEVID942827041
 70
     0
  0
APPID
  2
GENIUS_GENOBJ-F-SCPASSM_13
 70
     0
  0
APPID
  2
GENIUS_GENDIMSH_14
 70
     0
  0
APPID
  2
GEVID942827042
 70
     0
  0
APPID
  2
GEVID946020473
 70
     0
  0
APPID
  2
GEVID946020474
 70
     0
  0
APPID
  2
GEVID946020475
 70
     0
  0
APPID
  2
GENIUS_GENOBJ-N-HTC_13
 70
     0
  0
APPID
  2
GENIUS_GENHATCH_13
 70
     0
  0
APPID
  2
GEVID948854295
 70
     0
  0
APPID
  2
GEVID939402019
 70
     0
  0
APPID
  2
GEVID952919491
 70
     0
  0
APPID
  2
GEVID952919492
 70
     0
  0
APPID
  2
GENIUS_GEFWELD_13
 70
     0
  0
APPID
  2
GENIUS_GENOBJ-F-WELS_13
 70
     0
  0
APPID
  2
GEVID952919493
 70
     0
  0
APPID
  2
GENIUS_GENOBJ-N-RSBK_13
 70
     0
  0
APPID
  2
GENIUS_GENOBJ-N-LIB_13
 70
     0
  0
APPID
  2
GENIUS_GENSCALE_13
 70
     0
  0
APPID
  2
GEVID986376691
 70
     0
  0
APPID
  2
DCO15
 70
     0
  0
APPID
  2
ACADM_DIM_EDIT
 70
     0
  0
APPID
  2
AMDT_DM_ADJ
 70
     0
  0
APPID
  2
ACAD_PSEXT
 70
     0
  0
APPID
  2
ACAD_DSTYLE_DIMJAG
 70
     0
  0
APPID
  2
ACAD_DSTYLE_DIMBREAK
 70
     0
  0
APPID
  2
ACAD_NAV_VCDISPLAY
 70
     0
  0
APPID
  2
ACADANNOPO
 70
     0
  0
APPID
  2
ACAD_EXEMPT_FROM_CAD_STANDARDS
 70
     0
  0
APPID
  2
ACAD_MLEADERVER
 70
     0
  0
ENDTAB
  0
TABLE
  2
DIMSTYLE
 70
    22
  0
DIMSTYLE
  2
STANDARD
 70
     0
  3

  4

  5

  6

  7

 40
1.0
 41
0.18
 42
0.0625
 43
0.38
 44
0.18
 45
0.0
 46
0.0
 47
0.0
 48
0.0
140
0.18
141
0.09
142
0.0
143
25.399999999999999
144
1.0
145
0.0
146
1.0
147
0.09
 71
     0
 72
     0
 73
     1
 74
     1
 75
     0
 76
     0
 77
     0
 78
     0
170
     0
171
     2
172
     0
173
     0
174
     0
175
     0
176
     0
177
     0
178
     0
  0
DIMSTYLE
  2
ANNOTATIVE
 70
     0
  3

  4

  5

  6

  7

 40
1.0
 41
0.18
 42
0.0625
 43
0.38
 44
0.18
 45
0.0
 46
0.0
 47
0.0
 48
0.0
140
0.18
141
0.09
142
0.0
143
25.399999999999999
144
1.0
145
0.0
146
1.0
147
0.09
 71
     0
 72
     0
 73
     1
 74
     1
 75
     0
 76
     0
 77
     0
 78
     0
170
     0
171
     2
172
     0
173
     0
174
     0
175
     0
176
     0
177
     0
178
     0
  0
DIMSTYLE
  2
AM_ISO
 70
     0
  3

  4
"
  5

  6

  7

 40
1.0
 41
2.5
 42
1.0
 43
8.0
 44
0.6
 45
0.0
 46
0.0
 47
0.1
 48
0.1
140
2.5
141
0.0
142
0.0
143
0.0393701
144
1.0
145
0.0
146
0.71
147
0.8
 71
     0
 72
     0
 73
     0
 74
     0
 75
     0
 76
     0
 77
     1
 78
     8
170
     0
171
     2
172
     1
173
     0
174
     0
175
     0
176
   256
177
   256
178
     4
  0
DIMSTYLE
  2
AM_ISO$3
 70
     0
  3

  4
"
  5

  6

  7

 40
1.0
 41
2.5
 42
1.0
 43
8.0
 44
0.6
 45
0.0
 46
0.0
 47
0.1
 48
0.1
140
2.5
141
0.0
142
0.0
143
0.0393701
144
1.0
145
0.0
146
0.71
147
0.8
 71
     0
 72
     0
 73
     0
 74
     1
 75
     0
 76
     0
 77
     1
 78
     8
170
     0
171
     2
172
     0
173
     0
174
     0
175
     0
176
   256
177
   256
178
     4
  0
DIMSTYLE
  2
AM_ISO$4
 70
     0
  3

  4
"
  5

  6

  7

 40
1.0
 41
2.5
 42
1.0
 43
8.0
 44
0.6
 45
0.0
 46
0.0
 47
0.1
 48
0.1
140
2.5
141
0.0
142
0.0
143
0.0393701
144
1.0
145
0.0
146
0.71
147
0.8
 71
     0
 72
     0
 73
     0
 74
     1
 75
     0
 76
     0
 77
     1
 78
     8
170
     0
171
     2
172
     0
173
     0
174
     0
175
     0
176
   256
177
   256
178
     4
  0
DIMSTYLE
  2
AM_ISO$6
 70
     0
  3

  4
"
  5

  6

  7

 40
1.0
 41
2.5
 42
1.0
 43
8.0
 44
0.6
 45
0.0
 46
0.0
 47
0.1
 48
0.1
140
2.5
141
0.0
142
0.0
143
0.0393701
144
1.0
145
0.0
146
0.71
147
0.8
 71
     0
 72
     0
 73
     0
 74
     0
 75
     0
 76
     0
 77
     0
 78
     8
170
     0
171
     2
172
     1
173
     0
174
     0
175
     0
176
   256
177
   256
178
     4
  0
DIMSTYLE
  2
AM_ISO$7
 70
     0
  3

  4
"
  5

  6

  7

 40
1.0
 41
2.5
 42
1.0
 43
8.0
 44
0.6
 45
0.0
 46
0.0
 47
0.1
 48
0.1
140
2.5
141
0.0
142
0.0
143
0.0393701
144
1.0
145
0.0
146
0.71
147
0.8
 71
     0
 72
     0
 73
     0
 74
     0
 75
     0
 76
     0
 77
     1
 78
     8
170
     0
171
     2
172
     1
173
     0
174
     0
175
     0
176
   256
177
   256
178
     4
  0
DIMSTYLE
  2
AM_ISO$SF
 70
     0
  3

  4
"
  5

  6

  7

 40
1.0
 41
2.5
 42
1.0
 43
10.0
 44
1.0
 45
0.0
 46
0.0
 47
0.1
 48
0.1
140
3.5
141
0.0
142
0.0
143
0.0393701
144
1.0
145
0.0
146
0.71
147
1.5
 71
     0
 72
     0
 73
     0
 74
     0
 75
     1
 76
     1
 77
     1
 78
     8
170
     0
171
     2
172
     1
173
     0
174
     0
175
     0
176
   256
177
   256
178
     2
  0
DIMSTYLE
  2
AM_ISO$SH
 70
     0
  3

  4
"
  5

  6

  7

 40
1.0
 41
2.5
 42
1.0
 43
10.0
 44
1.0
 45
0.0
 46
0.0
 47
0.1
 48
0.1
140
3.5
141
0.0
142
0.0
143
0.0393701
144
2.0
145
0.0
146
0.71
147
1.5
 71
     0
 72
     0
 73
     0
 74
     0
 75
     1
 76
     1
 77
     1
 78
     8
170
     0
171
     2
172
     1
173
     1
174
     0
175
     0
176
   256
177
   256
178
     2
  0
DIMSTYLE
  2
AM_JIS
 70
     0
  3

  4
"
  5

  6

  7

 40
1.0
 41
2.5
 42
1.0
 43
7.0
 44
1.0
 45
0.0
 46
0.0
 47
0.1
 48
0.1000000001
140
2.5
141
0.0
142
0.0
143
0.0393701
144
1.0
145
0.0
146
0.71
147
1.0
 71
     0
 72
     0
 73
     0
 74
     0
 75
     0
 76
     0
 77
     3
 78
     8
170
     0
171
     2
172
     1
173
     0
174
     0
175
     0
176
   256
177
   256
178
     4
  0
DIMSTYLE
  2
AM_JIS$3
 70
     0
  3

  4
"
  5

  6

  7

 40
1.0
 41
2.5
 42
1.0
 43
7.0
 44
1.0
 45
0.0
 46
0.0
 47
0.1
 48
0.1000000001
140
2.5
141
0.0
142
0.0
143
0.0393701
144
1.0
145
0.0
146
0.71
147
1.0
 71
     0
 72
     0
 73
     0
 74
     1
 75
     0
 76
     0
 77
     3
 78
     8
170
     0
171
     2
172
     0
173
     0
174
     0
175
     0
176
   256
177
   256
178
     4
  0
DIMSTYLE
  2
AM_JIS$4
 70
     0
  3

  4
"
  5

  6

  7

 40
1.0
 41
2.5
 42
1.0
 43
7.0
 44
1.0
 45
0.0
 46
0.0
 47
0.1
 48
0.1000000001
140
2.5
141
0.0
142
0.0
143
0.0393701
144
1.0
145
0.0
146
0.71
147
1.0
 71
     0
 72
     0
 73
     0
 74
     0
 75
     0
 76
     0
 77
     3
 78
     8
170
     0
171
     2
172
     0
173
     0
174
     0
175
     0
176
   256
177
   256
178
     4
  0
DIMSTYLE
  2
AM_JIS$6
 70
     0
  3

  4
"
  5

  6

  7

 40
1.0
 41
2.5
 42
1.0
 43
7.0
 44
1.0
 45
0.0
 46
0.0
 47
0.1
 48
0.1000000001
140
2.5
141
0.0
142
0.0
143
0.0393701
144
1.0
145
0.0
146
0.71
147
1.0
 71
     0
 72
     0
 73
     0
 74
     0
 75
     0
 76
     0
 77
     0
 78
     8
170
     0
171
     2
172
     1
173
     0
174
     0
175
     0
176
   256
177
   256
178
     4
  0
DIMSTYLE
  2
AM_JIS$7
 70
     0
  3

  4
"
  5

  6

  7

 40
1.0
 41
2.5
 42
1.0
 43
7.0
 44
1.0
 45
0.0
 46
0.0
 47
0.1
 48
0.1000000001
140
2.5
141
0.0
142
0.0
143
0.0393701
144
1.0
145
0.0
146
0.71
147
1.0
 71
     0
 72
     0
 73
     0
 74
     0
 75
     0
 76
     0
 77
     3
 78
     8
170
     0
171
     2
172
     1
173
     0
174
     0
175
     0
176
   256
177
   256
178
     4
  0
DIMSTYLE
  2
AM_JIS$SF
 70
     0
  3

  4
"
  5

  6

  7

 40
1.0
 41
2.5
 42
1.0
 43
10.0
 44
1.0
 45
0.0
 46
0.0
 47
0.1
 48
0.1
140
3.5
141
0.0
142
0.0
143
0.0393701
144
1.0
145
0.0
146
0.71
147
1.5
 71
     0
 72
     0
 73
     0
 74
     0
 75
     1
 76
     1
 77
     3
 78
     8
170
     0
171
     2
172
     1
173
     0
174
     0
175
     0
176
   256
177
   256
178
     4
  0
DIMSTYLE
  2
AM_JIS$SH
 70
     0
  3

  4
"
  5

  6

  7

 40
1.0
 41
2.5
 42
1.0
 43
10.0
 44
1.0
 45
0.0
 46
0.0
 47
0.1
 48
0.1
140
3.5
141
0.0
142
0.0
143
0.0393701
144
1.0
145
0.0
146
0.71
147
1.5
 71
     0
 72
     0
 73
     0
 74
     0
 75
     1
 76
     0
 77
     3
 78
     8
170
     0
171
     2
172
     1
173
     1
174
     0
175
     0
176
   256
177
   256
178
     4
  0
DIMSTYLE
  2
AM_ANSI
 70
     0
  3

  4
mm
  5

  6

  7

 40
1.0
 41
0.12
 42
0.05
 43
0.5
 44
0.1
 45
0.0
 46
0.0
 47
0.1
 48
0.1
140
0.12
141
0.0
142
0.0
143
25.399999999999999
144
1.0
145
0.0
146
0.71
147
0.06
 71
     0
 72
     0
 73
     1
 74
     1
 75
     0
 76
     0
 77
     0
 78
     7
170
     0
171
     2
172
     0
173
     0
174
     0
175
     0
176
   256
177
   256
178
     2
  0
DIMSTYLE
  2
AM_ANSI$3
 70
     0
  3

  4
mm
  5

  6

  7

 40
1.0
 41
0.12
 42
0.05
 43
0.5
 44
0.1
 45
0.0
 46
0.0
 47
0.1
 48
0.1
140
0.12
141
0.0
142
0.0
143
25.399999999999999
144
1.0
145
0.0
146
0.71
147
0.06
 71
     0
 72
     0
 73
     1
 74
     1
 75
     0
 76
     0
 77
     0
 78
     7
170
     0
171
     2
172
     0
173
     0
174
     0
175
     0
176
   256
177
   256
178
     2
  0
DIMSTYLE
  2
AM_ANSI$4
 70
     0
  3

  4
mm
  5

  6

  7

 40
1.0
 41
0.12
 42
0.05
 43
0.5
 44
0.1
 45
0.0
 46
0.0
 47
0.1
 48
0.1
140
0.12
141
0.0
142
0.0
143
25.399999999999999
144
1.0
145
0.0
146
0.71
147
0.06
 71
     0
 72
     0
 73
     1
 74
     1
 75
     0
 76
     0
 77
     0
 78
     7
170
     0
171
     2
172
     0
173
     0
174
     0
175
     0
176
   256
177
   256
178
     2
  0
DIMSTYLE
  2
AM_ANSI$7
 70
     0
  3

  4
mm
  5

  6

  7

 40
1.0
 41
0.12
 42
0.05
 43
0.5
 44
0.1
 45
0.0
 46
0.0
 47
0.1
 48
0.1
140
0.12
141
0.0
142
0.0
143
25.399999999999999
144
1.0
145
0.0
146
0.71
147
0.06
 71
     0
 72
     0
 73
     1
 74
     1
 75
     0
 76
     0
 77
     0
 78
     7
170
     0
171
     2
172
     0
173
     0
174
     0
175
     0
176
   256
177
   256
178
     2
  0
DIMSTYLE
  2
AM_ANSI$SF
 70
     0
  3

  4
mm
  5

  6

  7

 40
1.0
 41
0.12
 42
0.05
 43
0.5
 44
0.1
 45
0.0
 46
0.0
 47
0.1
 48
0.1
140
0.12
141
0.0
142
0.0
143
25.399999999999999
144
1.0
145
0.0
146
0.71
147
0.06
 71
     0
 72
     0
 73
     1
 74
     1
 75
     1
 76
     1
 77
     0
 78
     7
170
     0
171
     2
172
     0
173
     0
174
     0
175
     0
176
   256
177
   256
178
     2
  0
DIMSTYLE
  2
AM_ANSI$SH
 70
     0
  3

  4
mm
  5

  6
GENAXEH
  7

 40
1.0
 41
0.12
 42
0.05
 43
0.5
 44
0.1
 45
0.0
 46
0.0
 47
0.1
 48
0.1
140
0.12
141
0.0
142
0.0
143
25.399999999999999
144
1.0
145
0.0
146
0.71
147
0.06
 71
     0
 72
     0
 73
     1
 74
     1
 75
     1
 76
     1
 77
     0
 78
     7
170
     0
171
     2
172
     0
173
     1
174
     0
175
     0
176
   256
177
   256
178
     2
  0
ENDTAB
  0
ENDSEC
  0
SECTION
  2
BLOCKS
  0
BLOCK
  8
0
  2
$MODEL_SPACE
 70
     0
 10
0.0
 20
0.0
 30
0.0
  3
$MODEL_SPACE
  1

  0
ENDBLK
  5
5EE8
  8
0
  0
BLOCK
 67
     1
  8
0
  2
$PAPER_SPACE
 70
     0
 10
0.0
 20
0.0
 30
0.0
  3
$PAPER_SPACE
  1

  0
ENDBLK
  5
5EE4
 67
     1
  8
0
  0
BLOCK
  8
0
  2
GENAXEH
 70
     0
 10
0.0
 20
0.0
 30
0.0
  3
GENAXEH
  1

  0
LINE
  5
73
  8
0
 10
-1.0
 20
0.0
 30
0.0
 11
1.0
 21
0.0
 31
0.0
  0
ENDBLK
  5
75
  8
0
  0
BLOCK
  8
0
  2
_OPEN30
 70
     0
 10
0.0
 20
0.0
 30
0.0
  3
_OPEN30
  1

  0
LINE
  5
31A
  8
0
 62
     0
 10
-1.0
 20
0.26794919
 30
0.0
 11
0.0
 21
0.0
 31
0.0
  0
LINE
  5
31B
  8
0
 62
     0
 10
0.0
 20
0.0
 30
0.0
 11
-1.0
 21
-0.26794919
 31
0.0
  0
LINE
  5
31C
  8
0
 62
     0
 10
0.0
 20
0.0
 30
0.0
 11
-1.0
 21
0.0
 31
0.0
  0
ENDBLK
  5
31E
  8
0
  0
BLOCK
  8
0
  2
_NONE
 70
     0
 10
0.0
 20
0.0
 30
0.0
  3
_NONE
  1

  0
ENDBLK
  5
579
  8
0
  0
BLOCK
  8
0
  2
*U5
 70
     1
 10
0.0
 20
0.0
 30
0.0
  3
*U5
  1

  0
TEXT
  5
5E75
  8
AM_0
 10
547.49321636723357
 20
521.95233249941452
 30
0.0
 40
10.0
  1
ＶＸ０４－０１５～０３０ＭＦＷ
 41
0.8299999999999999
  0
ENDBLK
  5
5E77
  8
0
  0
BLOCK
  8
0
  2
_ACMFILLEDHALF
 70
     0
 10
0.0
 20
0.0
 30
0.0
  3
_ACMFILLEDHALF
  1

  0
TRACE
  5
5FE6
  8
AM_0
 62
     0
 10
-0.8
 20
0.0
 30
0.0
 11
-1.0
 21
0.166666666
 31
0.0
 12
0.0
 22
0.0
 32
0.0
 13
0.0
 23
0.0
 33
0.0
  0
LINE
  5
5FE7
  8
AM_0
 62
     0
 10
-1.0
 20
0.0
 30
0.0
 11
-0.8
 21
0.0
 31
0.0
  0
ENDBLK
  5
5FE5
  8
0
  0
ENDSEC
  0
SECTION
  2
ENTITIES
  0
LINE
  5
19B2
  8
AM_0
 10
156.088303244343
 20
186.13909421174509
 30
0.0
 11
121.08829324434291
 21
188.16909521174509
 31
0.0
  0
LINE
  5
19B3
  8
AM_0
 10
156.088303244343
 20
278.83910321174528
 30
0.0
 11
121.08829324434291
 21
276.80909321174522
 31
0.0
  0
LINE
  5
19B4
  8
AM_0
 10
108.368323244343
 20
184.8491032117451
 30
0.0
 11
111.088303244343
 21
184.8491032117451
 31
0.0
  0
LINE
  5
19B5
  8
AM_0
 10
107.8583232443429
 20
182.8791172117451
 30
0.0
 11
106.588303244343
 21
183.6091102117451
 31
0.0
  0
LINE
  5
19B6
  8
AM_0
 10
111.088303244343
 20
175.05909221174511
 30
0.0
 11
113.9083032443429
 21
174.98908421174511
 31
0.0
  0
LINE
  5
19B7
  8
AM_0
 10
107.8383132443429
 20
189.52910921174509
 30
0.0
 11
106.538323244343
 21
190.37908421174509
 31
0.0
  0
LINE
  5
19B8
  8
AM_0
 10
107.848303244343
 20
184.98911621174511
 30
0.0
 11
106.5682932443429
 21
185.75912021174511
 31
0.0
  0
LINE
  5
19B9
  8
AM_0
 10
108.3583332443429
 20
182.7390862117449
 30
0.0
 11
110.588353244343
 21
182.7390862117449
 31
0.0
  0
LINE
  5
19BA
  8
AM_0
 10
108.328303244343
 20
183.88909421174509
 30
0.0
 11
110.588353244343
 21
183.88909421174509
 31
0.0
  0
LINE
  5
19BB
  8
AM_0
 10
107.8783332443429
 20
183.9990952117451
 30
0.0
 11
106.6382832443429
 21
184.62910121174511
 31
0.0
  0
LINE
  5
19BC
  8
AM_0
 10
108.3583332443429
 20
190.50908921174491
 30
0.0
 11
110.0883132443429
 21
190.50908921174491
 31
0.0
  0
LINE
  5
19BD
  8
AM_0
 10
108.3883632443429
 20
189.3690742117451
 30
0.0
 11
111.088303244343
 21
189.3690742117451
 31
0.0
  0
LINE
  5
19BE
  8
AM_0
 10
108.338353244343
 20
185.98908521174511
 30
0.0
 11
110.0883132443429
 21
185.98908521174511
 31
0.0
  0
LINE
  5
19BF
  8
AM_0
 10
107.85826324434299
 20
190.63910921174511
 30
0.0
 11
106.5782832443428
 21
191.38909421174509
 31
0.0
  0
LINE
  5
19C0
  8
AM_0
 10
259.08835324434301
 20
168.9890992117451
 30
0.0
 11
267.08831324434283
 21
168.9890992117451
 31
0.0
  0
LINE
  5
19C1
  8
AM_0
 10
259.08835324434301
 20
180.9890752117451
 30
0.0
 11
267.08831324434283
 21
180.9890752117451
 31
0.0
  0
LINE
  5
19C2
  8
AM_0
 10
156.088303244343
 20
186.13909421174509
 30
0.0
 11
258.08830324434302
 21
186.13909421174509
 31
0.0
  0
LINE
  5
19C3
  8
AM_0
 10
257.79832324434301
 20
181.45908821174521
 30
0.0
 11
255.38836324434291
 21
181.45908821174521
 31
0.0
  0
LINE
  5
19C4
  8
AM_0
 10
254.88829324434289
 20
173.56908821174511
 30
0.0
 11
256.328293244343
 21
180.26908421174511
 31
0.0
  0
LINE
  5
19C5
  8
AM_0
 10
252.79831324434289
 20
171.98910221174509
 30
0.0
 11
258.08830324434302
 21
171.98910221174509
 31
0.0
  0
LINE
  5
19C7
  8
AM_0
 10
115.7683032443429
 20
199.11907721174521
 30
0.0
 11
159.088303244343
 21
199.11907721174521
 31
0.0
  0
LINE
  5
19C8
  8
AM_0
 10
159.088303244343
 20
196.48908521174519
 30
0.0
 11
116.6383632443429
 21
196.48908521174511
 31
0.0
  0
LINE
  5
19CA
  8
AM_0
 10
115.7683032443429
 20
195.7691002117451
 30
0.0
 11
159.088303244343
 21
195.7691002117451
 31
0.0
  0
LINE
  5
19CB
  8
AM_0
 10
111.088303244343
 20
198.1890832117451
 30
0.0
 11
114.258343244343
 21
198.1890832117451
 31
0.0
  0
LINE
  5
19CC
  8
AM_0
 10
117.258343244343
 20
174.22909121174521
 30
0.0
 11
130.588303244343
 21
174.22909121174521
 31
0.0
  0
LINE
  5
19CD
  8
AM_0
 10
134.08831324434291
 20
170.62908521174521
 30
0.0
 11
250.89829324434299
 21
170.62908521174521
 31
0.0
  0
LINE
  5
19CE
  8
AM_0
 10
117.198283244343
 20
169.18909721174509
 30
0.0
 11
130.698283244343
 21
169.18909721174509
 31
0.0
  0
LINE
  5
19CF
  8
AM_0
 10
117.3183432443429
 20
179.509076211745
 30
0.0
 11
130.588303244343
 21
179.509076211745
 31
0.0
  0
LINE
  5
19D0
  8
AM_0
 10
114.808273244343
 20
184.13909621174511
 30
0.0
 11
115.348303244343
 21
181.14908921174509
 31
0.0
  0
LINE
  5
19D1
  8
AM_0
 10
108.088303244343
 20
189.65909921174509
 30
0.0
 11
108.088303244343
 21
190.12908521174509
 31
0.0
  0
LINE
  5
19D2
  8
AM_0
 10
111.088303244343
 20
184.13908121174521
 30
0.0
 11
121.088353244343
 21
184.13908121174521
 31
0.0
  0
LINE
  5
19D3
  8
AM_0
 10
108.088303244343
 20
185.08907621174509
 30
0.0
 11
108.088303244343
 21
185.63908121174509
 31
0.0
  0
LINE
  5
19D4
  8
AM_0
 10
107.86825324434299
 20
186.10908221174509
 30
0.0
 11
106.61833324434291
 21
186.76908521174511
 31
0.0
  0
LINE
  5
19D5
  8
AM_0
 10
121.088353244343
 20
184.13908121174521
 30
0.0
 11
121.088353244343
 21
198.1890832117451
 31
0.0
  0
LINE
  5
19D6
  8
AM_0
 10
108.088303244343
 20
182.98908521174511
 30
0.0
 11
108.088303244343
 21
183.51908321174511
 31
0.0
  0
LINE
  5
19D7
  8
AM_0
 10
252.828283244343
 20
172.10909621174511
 30
0.0
 11
256.2883032443429
 21
185.0290942117451
 31
0.0
  0
LINE
  5
19D8
  8
AM_0
 10
115.258273244343
 20
170.69909321174509
 30
0.0
 11
114.368263244343
 21
174.23908421174499
 31
0.0
  0
LINE
  5
19D9
  8
AM_0
 10
115.2783132443429
 20
172.35909521174511
 30
0.0
 11
114.358273244343
 21
176.2391002117451
 31
0.0
  0
LINE
  5
19DA
  8
AM_0
 10
189.088303244343
 20
168.57908321174509
 30
0.0
 11
189.088303244343
 21
170.62908521174521
 31
0.0
  0
LINE
  5
19DB
  8
AM_0
 10
132.088303244343
 20
170.599100211745
 30
0.0
 11
132.088303244343
 21
178.00907321174509
 31
0.0
  0
LINE
  5
19DC
  8
AM_0
 10
112.91830324434299
 20
175.36909121174509
 30
0.0
 11
114.5683332443428
 21
175.36909121174509
 31
0.0
  0
LINE
  5
19DF
  8
AM_0
 10
156.088303244343
 20
278.83907321174502
 30
0.0
 11
258.08830324434302
 21
278.83907321174502
 31
0.0
  0
LINE
  5
19E0
  8
AM_0
 10
258.08830324434302
 20
294.98909321174511
 30
0.0
 11
258.08830324434302
 21
169.9890862117451
 31
0.0
  0
LINE
  5
19E2
  8
AM_0
 10
259.08835324434301
 20
295.98908321174508
 30
0.0
 11
267.08831324434283
 21
295.98908321174508
 31
0.0
  0
LINE
  5
19E4
  8
AM_0
 10
258.08830324434302
 20
269.63908121174518
 30
0.0
 11
267.08831324434288
 21
269.63908121174518
 31
0.0
  0
LINE
  5
19E5
  8
AM_0
 10
259.08835324434301
 20
283.9890772117451
 30
0.0
 11
267.08831324434283
 21
283.9890772117451
 31
0.0
  0
LINE
  5
19E6
  8
AM_0
 10
258.08830324434302
 20
195.33909221174511
 30
0.0
 11
267.08831324434288
 21
195.33909221174511
 31
0.0
  0
LINE
  5
19E8
  8
AM_0
 10
111.08824324434291
 20
289.9191232117451
 30
0.0
 11
113.908243244343
 21
289.98911321174501
 31
0.0
  0
LINE
  5
19E9
  8
AM_0
 10
111.088303244343
 20
289.91909321174512
 30
0.0
 11
111.088303244343
 21
232.48908821174521
 31
0.0
  0
LINE
  5
19EA
  8
AM_0
 10
106.088353244343
 20
280.50908321174512
 30
0.0
 11
106.088353244343
 21
237.4890862117451
 31
0.0
  0
LINE
  5
19EB
  8
AM_0
 10
108.3583332443429
 20
282.23909321174511
 30
0.0
 11
110.588353244343
 21
282.23909321174511
 31
0.0
  0
LINE
  5
19ED
  8
AM_0
 10
108.2883132443429
 20
268.17909221174529
 30
0.0
 11
110.3882832443429
 21
268.17909221174529
 31
0.0
  0
LINE
  5
19EE
  8
AM_0
 10
107.8583232443429
 20
282.10907321174528
 30
0.0
 11
106.588303244343
 21
281.36909321174522
 31
0.0
  0
LINE
  5
19EF
  8
AM_0
 10
107.8482432443429
 20
279.98909321174511
 30
0.0
 11
106.5682932443429
 21
279.2191132117452
 31
0.0
  0
LINE
  5
19F0
  8
AM_0
 10
107.8383132443429
 20
275.44904321174522
 30
0.0
 11
106.538323244343
 21
274.59908321174521
 31
0.0
  0
LINE
  5
19F1
  8
AM_0
 10
107.89828324434291
 20
268.0991032117451
 30
0.0
 11
106.698283244343
 21
267.58909421174508
 31
0.0
  0
LINE
  5
19F2
  8
AM_0
 10
108.368323244343
 20
280.12907321174521
 30
0.0
 11
111.088303244343
 21
280.12907321174521
 31
0.0
  0
LINE
  5
19F3
  8
AM_0
 10
108.3883632443429
 20
275.61908321174519
 30
0.0
 11
111.088303244343
 21
275.61908321174519
 31
0.0
  0
LINE
  5
19F4
  8
AM_0
 10
108.2383332443429
 20
266.22907721174511
 30
0.0
 11
110.0883132443429
 21
266.22907721174511
 31
0.0
  0
LINE
  5
19F5
  8
AM_0
 10
108.3583332443429
 20
274.47908321174509
 30
0.0
 11
110.0883132443429
 21
274.47908321174509
 31
0.0
  0
LINE
  5
19F6
  8
AM_0
 10
108.338353244343
 20
278.98910321174498
 30
0.0
 11
110.0883132443429
 21
278.98910321174498
 31
0.0
  0
LINE
  5
19F7
  8
AM_0
 10
108.328303244343
 20
281.08907321174502
 30
0.0
 11
110.588353244343
 21
281.08907321174502
 31
0.0
  0
LINE
  5
19F8
  8
AM_0
 10
107.8583232443429
 20
274.33907321174502
 30
0.0
 11
106.5782832443428
 21
273.58906421174521
 31
0.0
  0
LINE
  5
19F9
  8
AM_0
 10
107.948353244343
 20
266.18906921174522
 30
0.0
 11
106.7983332443428
 21
265.83909521174519
 31
0.0
  0
LINE
  5
19FA
  8
AM_0
 10
107.8783332443429
 20
280.98908321174508
 30
0.0
 11
106.6382832443429
 21
280.3590832117452
 31
0.0
  0
LINE
  5
19FB
  8
AM_0
 10
107.86825324434299
 20
278.87909321174521
 30
0.0
 11
106.618273244343
 21
278.20910321174512
 31
0.0
  0
LINE
  5
19FC
  8
AM_0
 10
110.0883132443429
 20
258.48908921174512
 30
0.0
 11
107.0883132443429
 21
258.48908921174512
 31
0.0
  0
LINE
  5
19FD
  8
AM_0
 10
110.0883132443429
 20
256.48908821174518
 30
0.0
 11
107.0883132443429
 21
256.48908821174518
 31
0.0
  0
LINE
  5
19FE
  8
AM_0
 10
110.0883132443429
 20
248.4890872117451
 30
0.0
 11
107.0883132443429
 21
248.4890872117451
 31
0.0
  0
LINE
  5
19FF
  8
AM_0
 10
110.0883132443429
 20
246.4890892117451
 30
0.0
 11
107.0883132443429
 21
246.4890892117451
 31
0.0
  0
LINE
  5
1A00
  8
AM_0
 10
110.0883132443429
 20
238.48908821174521
 30
0.0
 11
107.0883132443429
 21
238.48908821174521
 31
0.0
  0
LINE
  5
1A01
  8
AM_0
 10
110.0883132443429
 20
236.4890872117451
 30
0.0
 11
107.0883132443429
 21
236.4890872117451
 31
0.0
  0
LINE
  5
1A02
  8
AM_0
 10
108.088303244343
 20
248.0990722117451
 30
0.0
 11
108.088303244343
 21
246.88908221174509
 31
0.0
  0
LINE
  5
1A03
  8
AM_0
 10
108.088303244343
 20
238.09910321174519
 30
0.0
 11
108.088303244343
 21
236.93906921174511
 31
0.0
  0
LINE
  5
1A04
  8
AM_0
 10
108.088303244343
 20
258.11909321174511
 30
0.0
 11
108.088303244343
 21
256.74909821174521
 31
0.0
  0
LINE
  5
1A05
  8
AM_0
 10
108.088303244343
 20
267.87910421174502
 30
0.0
 11
108.088303244343
 21
266.81910521174518
 31
0.0
  0
LINE
  5
1A06
  8
AM_0
 10
108.088303244343
 20
275.31908321174501
 30
0.0
 11
108.088303244343
 21
274.84910321174522
 31
0.0
  0
LINE
  5
1A07
  8
AM_0
 10
108.088303244343
 20
279.8890732117452
 30
0.0
 11
108.088303244343
 21
279.33908321174522
 31
0.0
  0
LINE
  5
1A08
  8
AM_0
 10
108.088303244343
 20
281.98910321174492
 30
0.0
 11
108.088303244343
 21
281.45909321174508
 31
0.0
  0
LINE
  5
1A09
  8
AM_0
 10
104.588353244343
 20
252.4890892117451
 30
0.0
 11
104.588353244343
 21
232.48908821174521
 31
0.0
  0
LINE
  5
1A0A
  8
AM_0
 10
104.58829324434291
 20
252.48911921174499
 30
0.0
 11
106.08829324434291
 21
252.61909421174491
 31
0.0
  0
LINE
  5
1A0B
  8
AM_0
 10
104.588353244343
 20
249.76908521174499
 30
0.0
 11
106.088353244343
 21
249.76908521174499
 31
0.0
  0
LINE
  5
1A12
  8
AM_0
 10
121.088353244343
 20
280.83908321174511
 30
0.0
 11
121.088353244343
 21
266.79908621174508
 31
0.0
  0
LINE
  5
1A13
  8
AM_0
 10
111.088303244343
 20
266.79908621174508
 30
0.0
 11
121.088353244343
 21
266.79908621174508
 31
0.0
  0
LINE
  5
1A14
  8
AM_0
 10
111.088303244343
 20
275.17910321174509
 30
0.0
 11
121.088353244343
 21
275.17910321174509
 31
0.0
  0
LINE
  5
1A15
  8
AM_0
 10
111.088303244343
 20
280.83908321174511
 30
0.0
 11
121.088353244343
 21
280.83908321174511
 31
0.0
  0
LINE
  5
1A22
  8
AM_0
 10
158.088303244343
 20
218.48910221174509
 30
0.0
 11
116.6383632443429
 21
218.48910221174509
 31
0.0
  0
LINE
  5
1A28
  8
AM_0
 10
134.08831324434291
 20
294.34910321174522
 30
0.0
 11
250.89829324434299
 21
294.34910321174522
 31
0.0
  0
LINE
  5
1A29
  8
AM_0
 10
117.3183432443429
 20
285.46910321174488
 30
0.0
 11
130.588303244343
 21
285.46910321174488
 31
0.0
  0
LINE
  5
1A2A
  8
AM_0
 10
114.808333244343
 20
280.83911321174509
 30
0.0
 11
115.348303244343
 21
283.82912321174518
 31
0.0
  0
LINE
  5
1A2B
  8
AM_0
 10
117.258343244343
 20
290.75906321174512
 30
0.0
 11
130.588303244343
 21
290.75906321174512
 31
0.0
  0
LINE
  5
1A2D
  8
AM_0
 10
117.228313244343
 20
294.1590832117451
 30
0.0
 11
130.588303244343
 21
294.1590832117451
 31
0.0
  0
LINE
  5
1A2E
  8
AM_0
 10
117.198283244343
 20
295.78907321174512
 30
0.0
 11
130.698283244343
 21
295.78907321174512
 31
0.0
  0
LINE
  5
1A2F
  8
AM_0
 10
134.08831324434291
 20
298.40909321174507
 30
0.0
 11
187.08835324434301
 21
298.40909321174507
 31
0.0
  0
LINE
  5
1A30
  8
AM_0
 10
134.08831324434291
 20
297.72908321174509
 30
0.0
 11
187.08835324434301
 21
297.72908321174509
 31
0.0
  0
LINE
  5
1A31
  8
AM_0
 10
134.08831324434291
 20
296.37911321174511
 30
0.0
 11
187.08835324434301
 21
296.37911321174511
 31
0.0
  0
LINE
  5
1A32
  8
AM_0
 10
112.8782832443429
 20
283.52909321174508
 30
0.0
 11
115.2883032443429
 21
283.52909321174508
 31
0.0
  0
LINE
  5
1A33
  8
AM_0
 10
115.29826324434291
 20
289.17911321174512
 30
0.0
 11
114.338233244343
 21
284.70911321174509
 31
0.0
  0
LINE
  5
1A34
  8
AM_0
 10
112.89829324434299
 20
287.58908321174522
 30
0.0
 11
114.95836324434281
 21
287.58908321174522
 31
0.0
  0
LINE
  5
1A35
  8
AM_0
 10
159.088303244343
 20
268.48908821174518
 30
0.0
 11
125.6383632443429
 21
268.48908821174518
 31
0.0
  0
LINE
  5
1A36
  8
AM_0
 10
159.088303244343
 20
266.48908721174519
 30
0.0
 11
125.6383632443429
 21
266.48908721174507
 31
0.0
  0
LINE
  5
1A37
  8
AM_0
 10
158.088303244343
 20
258.48908921174512
 30
0.0
 11
125.6383632443429
 21
258.48908921174512
 31
0.0
  0
LINE
  5
1A38
  8
AM_0
 10
115.2783132443429
 20
292.61909321174522
 30
0.0
 11
114.3583332443429
 21
288.73910321174532
 31
0.0
  0
LINE
  5
1A39
  8
AM_0
 10
158.088303244343
 20
256.48908821174518
 30
0.0
 11
125.6383632443429
 21
256.48908821174518
 31
0.0
  0
LINE
  5
1A3A
  8
AM_0
 10
112.91830324434299
 20
289.60907321174528
 30
0.0
 11
114.5683332443428
 21
289.60907321174528
 31
0.0
  0
LINE
  5
1A3B
  8
AM_0
 10
115.258273244343
 20
294.27908321174488
 30
0.0
 11
114.368263244343
 21
290.74910321174508
 31
0.0
  0
LINE
  5
1A3C
  8
AM_0
 10
158.088303244343
 20
248.4890872117451
 30
0.0
 11
116.6383632443429
 21
248.4890872117451
 31
0.0
  0
LINE
  5
1A3D
  8
AM_0
 10
132.088303244343
 20
294.37907321174521
 30
0.0
 11
132.088303244343
 21
286.96910321174511
 31
0.0
  0
LINE
  5
1A3E
  8
AM_0
 10
158.088303244343
 20
246.4890892117451
 30
0.0
 11
116.6383632443429
 21
246.4890892117451
 31
0.0
  0
LINE
  5
1A3F
  8
AM_0
 10
129.689632147997
 20
238.48908821174521
 30
0.0
 11
116.6383632443429
 21
238.48908821174521
 31
0.0
  0
LINE
  5
1A40
  8
AM_0
 10
189.088303244343
 20
296.4090832117451
 30
0.0
 11
189.088303244343
 21
294.34910321174522
 31
0.0
  0
LINE
  5
1A41
  8
AM_0
 10
129.689632147997
 20
236.4890872117451
 30
0.0
 11
116.6383632443429
 21
236.4890872117451
 31
0.0
  0
LINE
  5
1A42
  8
AM_0
 10
252.828283244343
 20
292.86908321174519
 30
0.0
 11
256.2883032443429
 21
279.94910321174513
 31
0.0
  0
LINE
  5
1A43
  8
AM_0
 10
252.79831324434289
 20
292.98908321174508
 30
0.0
 11
258.08830324434302
 21
292.98908321174508
 31
0.0
  0
LINE
  5
1A44
  8
AM_0
 10
257.79832324434301
 20
283.52909321174508
 30
0.0
 11
255.38836324434291
 21
283.52909321174508
 31
0.0
  0
LINE
  5
1A45
  8
AM_0
 10
254.88835324434299
 20
291.4091032117451
 30
0.0
 11
256.32835324434291
 21
284.70911321174509
 31
0.0
  0
LINE
  5
1A46
  8
AM_0
 10
111.088303244343
 20
175.05909221174511
 30
0.0
 11
111.088303244343
 21
232.48908821174521
 31
0.0
  0
LINE
  5
1A47
  8
AM_0
 10
106.088353244343
 20
183.8990752117449
 30
0.0
 11
106.088353244343
 21
227.48910221174521
 31
0.0
  0
LINE
  5
1A48
  8
AM_0
 10
108.2883132443429
 20
196.79908421174511
 30
0.0
 11
110.3882832443429
 21
196.79908421174511
 31
0.0
  0
LINE
  5
1A49
  8
AM_0
 10
107.89828324434291
 20
196.87910021174511
 30
0.0
 11
106.69834324434289
 21
197.3990752117449
 31
0.0
  0
LINE
  5
1A4A
  8
AM_0
 10
108.2383332443429
 20
198.7490962117451
 30
0.0
 11
110.0883132443429
 21
198.7490962117451
 31
0.0
  0
LINE
  5
1A4B
  8
AM_0
 10
107.94829324434291
 20
198.7891042117451
 30
0.0
 11
106.7983332443428
 21
199.14910421174511
 31
0.0
  0
LINE
  5
1A4C
  8
AM_0
 10
110.0883132443429
 20
206.48910221174521
 30
0.0
 11
107.0883132443429
 21
206.48910221174521
 31
0.0
  0
LINE
  5
1A4D
  8
AM_0
 10
110.0883132443429
 20
208.48908521174511
 30
0.0
 11
107.0883132443429
 21
208.48908521174511
 31
0.0
  0
LINE
  5
1A4E
  8
AM_0
 10
110.0883132443429
 20
216.4890862117451
 30
0.0
 11
107.0883132443429
 21
216.4890862117451
 31
0.0
  0
LINE
  5
1A4F
  8
AM_0
 10
110.0883132443429
 20
218.48910221174509
 30
0.0
 11
107.0883132443429
 21
218.48910221174509
 31
0.0
  0
LINE
  5
1A50
  8
AM_0
 10
110.0883132443429
 20
226.48908821174521
 30
0.0
 11
107.0883132443429
 21
226.48908821174521
 31
0.0
  0
LINE
  5
1A51
  8
AM_0
 10
110.0883132443429
 20
228.4890862117451
 30
0.0
 11
107.0883132443429
 21
228.4890862117451
 31
0.0
  0
LINE
  5
1A52
  8
AM_0
 10
108.088303244343
 20
216.87910121174519
 30
0.0
 11
108.088303244343
 21
218.09908721174509
 31
0.0
  0
LINE
  5
1A53
  8
AM_0
 10
108.088303244343
 20
226.87908521174521
 30
0.0
 11
108.088303244343
 21
228.0391042117451
 31
0.0
  0
LINE
  5
1A54
  8
AM_0
 10
108.088303244343
 20
206.85908021174509
 30
0.0
 11
108.088303244343
 21
208.2290782117451
 31
0.0
  0
LINE
  5
1A55
  8
AM_0
 10
108.088303244343
 20
197.09908721174509
 30
0.0
 11
108.088303244343
 21
198.1590832117451
 31
0.0
  0
LINE
  5
1A56
  8
AM_0
 10
104.588353244343
 20
212.48910221174521
 30
0.0
 11
104.588353244343
 21
232.48908821174521
 31
0.0
  0
LINE
  5
1A57
  8
AM_0
 10
104.58829324434291
 20
212.4890872117451
 30
0.0
 11
106.08829324434291
 21
212.35908221174509
 31
0.0
  0
LINE
  5
1A58
  8
AM_0
 10
104.588353244343
 20
215.20908821174521
 30
0.0
 11
106.088353244343
 21
215.20908821174521
 31
0.0
  0
LINE
  5
1A59
  8
AM_0
 10
134.08831324434291
 20
166.56908621174509
 30
0.0
 11
187.08835324434301
 21
166.56908621174509
 31
0.0
  0
LINE
  5
1A5A
  8
AM_0
 10
117.228313244343
 20
170.81910221174519
 30
0.0
 11
130.588303244343
 21
170.81910221174519
 31
0.0
  0
LINE
  5
1A5B
  8
AM_0
 10
111.088303244343
 20
189.79908221174509
 30
0.0
 11
121.088353244343
 21
189.79908221174509
 31
0.0
  0
LINE
  5
1A5C
  8
AM_0
 10
134.08831324434291
 20
167.2490962117451
 30
0.0
 11
187.08835324434301
 21
167.2490962117451
 31
0.0
  0
LINE
  5
1A5D
  8
AM_0
 10
112.89829324434299
 20
177.38907821174499
 30
0.0
 11
114.95836324434281
 21
177.38907821174499
 31
0.0
  0
LINE
  5
1A5E
  8
AM_0
 10
112.8782832443429
 20
181.45908821174521
 30
0.0
 11
115.2883032443429
 21
181.45908821174521
 31
0.0
  0
LINE
  5
1A5F
  8
AM_0
 10
115.298323244343
 20
175.80909221174511
 30
0.0
 11
114.33829324434291
 21
180.26908421174511
 31
0.0
  0
LINE
  5
1A60
  8
AM_0
 10
134.08831324434291
 20
168.59908721174509
 30
0.0
 11
187.08835324434301
 21
168.59908721174509
 31
0.0
  0
LINE
  5
1A61
  8
AM_0
 10
115.54831324434291
 20
205.99908221174519
 30
0.0
 11
158.088303244343
 21
205.99908221174519
 31
0.0
  0
LINE
  5
1A62
  8
AM_0
 10
159.088303244343
 20
198.48908621174519
 30
0.0
 11
117.078343244343
 21
198.4890862117451
 31
0.0
  0
LINE
  5
1A63
  8
AM_0
 10
124.768303244343
 20
269.20908821174521
 30
0.0
 11
159.088303244343
 21
269.20908821174521
 31
0.0
  0
LINE
  5
1A64
  8
AM_0
 10
124.768303244343
 20
265.85908421174508
 30
0.0
 11
159.088303244343
 21
265.85908421174508
 31
0.0
  0
LINE
  5
1A65
  8
AM_0
 10
124.54831324434291
 20
258.9790792117451
 30
0.0
 11
158.088303244343
 21
258.9790792117451
 31
0.0
  0
LINE
  5
1A66
  8
AM_0
 10
124.54831324434291
 20
256.04908421174508
 30
0.0
 11
158.088303244343
 21
256.04908421174508
 31
0.0
  0
LINE
  5
1A67
  8
AM_0
 10
115.418323244343
 20
248.829083211745
 30
0.0
 11
158.088303244343
 21
248.829083211745
 31
0.0
  0
LINE
  5
1A68
  8
AM_0
 10
115.418323244343
 20
246.16907921174521
 30
0.0
 11
158.088303244343
 21
246.16907921174521
 31
0.0
  0
LINE
  5
1A69
  8
AM_0
 10
115.3583232443429
 20
238.75907621174511
 30
0.0
 11
129.689632147997
 21
238.75907621174511
 31
0.0
  0
LINE
  5
1A6A
  8
AM_0
 10
115.3583232443429
 20
236.22907721174519
 30
0.0
 11
129.689632147997
 21
236.22907721174519
 31
0.0
  0
LINE
  5
1A6B
  8
AM_0
 10
132.088303244343
 20
269.72907821174522
 30
0.0
 11
132.088303244343
 21
269.65907021174507
 31
0.0
  0
LINE
  5
1A6F
  8
AM_0
 10
115.3583232443429
 20
228.7590922117451
 30
0.0
 11
129.689632147997
 21
228.7590922117451
 31
0.0
  0
LINE
  5
1A70
  8
AM_0
 10
129.689632147997
 20
226.48908821174521
 30
0.0
 11
116.6383632443429
 21
226.48908821174521
 31
0.0
  0
LINE
  5
1A71
  8
AM_0
 10
129.689632147997
 20
228.4890862117451
 30
0.0
 11
116.6383632443429
 21
228.4890862117451
 31
0.0
  0
LINE
  5
1A74
  8
AM_0
 10
115.418323244343
 20
218.8090942117451
 30
0.0
 11
158.088303244343
 21
218.8090942117451
 31
0.0
  0
LINE
  5
1A75
  8
AM_0
 10
104.588353244343
 20
247.63908221174509
 30
0.0
 11
108.86833324434291
 21
247.63908221174509
 31
0.0
  0
LINE
  5
1A78
  8
AM_0
 10
158.088303244343
 20
216.4890862117451
 30
0.0
 11
116.6383632443429
 21
216.4890862117451
 31
0.0
  0
LINE
  5
1A79
  8
AM_0
 10
115.418323244343
 20
216.1490752117451
 30
0.0
 11
158.088303244343
 21
216.14907521174521
 31
0.0
  0
LINE
  5
1A7A
  8
AM_0
 10
158.088303244343
 20
208.48908521174511
 30
0.0
 11
116.6383632443429
 21
208.48908521174511
 31
0.0
  0
LINE
  5
1A7B
  8
AM_0
 10
115.54831324434291
 20
208.92908921174509
 30
0.0
 11
158.088303244343
 21
208.92908921174509
 31
0.0
  0
LINE
  5
1A7C
  8
AM_0
 10
158.088303244343
 20
206.48910221174521
 30
0.0
 11
116.6383632443429
 21
206.48910221174521
 31
0.0
  0
LINE
  5
1A7E
  8
AM_0
 10
115.3583232443429
 20
226.21909721174509
 30
0.0
 11
129.689632147997
 21
226.21909721174509
 31
0.0
  0
LINE
  5
1A7F
  8
AM_0
 10
104.588353244343
 20
217.33907621174509
 30
0.0
 11
109.16830324434299
 21
217.33907621174509
 31
0.0
  0
ARC
  5
1AF8
  8
AM_0
 10
107.08153324434291
 20
280.507013211745
 30
0.0
 40
0.9931920599999999
 50
119.7734
 51
179.87956
  0
ARC
  5
1AF9
  8
AM_0
 10
107.08390324434301
 20
279.4687732117452
 30
0.0
 40
0.9955880999999999
 50
116.58749
 51
179.98224999999999
  0
ARC
  5
1AFA
  8
AM_0
 10
108.350323244343
 20
281.24321321174511
 30
0.0
 40
0.9959119799999999
 50
89.541443999999998
 51
119.60699
  0
ARC
  5
1AFB
  8
AM_0
 10
108.31309324434299
 20
280.09508321174508
 30
0.0
 40
0.99412809
 50
89.122808000000006
 51
115.93481
  0
ARC
  5
1AFC
  8
AM_0
 10
108.357163244343
 20
279.13487321174512
 30
0.0
 40
0.9942600299999999
 50
89.355881999999966
 51
120.78109000000001
  0
ARC
  5
1AFD
  8
AM_0
 10
108.323413244343
 20
277.99373321174522
 30
0.0
 40
0.99546798
 50
89.141447999999983
 51
117.20366
  0
ARC
  5
1AFE
  8
AM_0
 10
108.39493324434289
 20
274.62287321174517
 30
0.0
 40
0.9962120399999999
 50
90.381906000000001
 51
123.9699
  0
ARC
  5
1AFF
  8
AM_0
 10
108.367723244343
 20
273.48258821174522
 30
0.0
 40
0.9965200799999999
 50
90.541213000000027
 51
120.74328
  0
ARC
  5
1B00
  8
AM_0
 10
107.082373244343
 20
272.73228221174509
 30
0.0
 40
0.9940760400000001
 50
120.4692
 51
180.18464
  0
ARC
  5
1B01
  8
AM_0
 10
107.083123244343
 20
273.76667621174511
 30
0.0
 40
0.9948280200000002
 50
123.20469
 51
180.43813
  0
ARC
  5
1B02
  8
AM_0
 10
107.08153324434291
 20
277.33052321174517
 30
0.0
 40
0.99321207
 50
117.79934
 51
180.08183
  0
ARC
  5
1B04
  8
AM_0
 10
107.0827332443428
 20
278.36804321174509
 30
0.0
 40
0.99443607
 50
121.15217
 51
179.94049000000001
  0
ARC
  5
1B05
  8
AM_0
 10
108.289303244343
 20
267.1836082117452
 30
0.0
 40
0.9954800999999999
 50
90.057320999999988
 51
113.12703
  0
ARC
  5
1B06
  8
AM_0
 10
124.228993244343
 20
191.26997021174509
 30
0.0
 40
1.00423602
 50
314.93782999999991
 51
5.6649238999999989
  0
ARC
  5
1B0A
  8
AM_0
 10
108.227473244343
 20
265.23637121174511
 30
0.0
 40
0.992772
 50
89.374808000000016
 51
106.33181999999999
  0
ARC
  5
1B0B
  8
AM_0
 10
107.0845632443429
 20
264.88484021174509
 30
0.0
 40
0.9962600700000001
 50
106.69749
 51
180.33049
  0
ARC
  5
1B0C
  8
AM_0
 10
107.08471324434279
 20
266.67066821174512
 30
0.0
 40
0.99640008
 50
112.81739
 51
180.09039999999999
  0
ARC
  5
1B0D
  8
AM_0
 10
107.08336324434291
 20
257.49400121174529
 30
0.0
 40
0.9950800799999999
 50
89.71592099999998
 51
180.2840699999999
  0
ARC
  5
1B0E
  8
AM_0
 10
107.088493244343
 20
257.4893002117451
 30
0.0
 40
1.000203989999999
 50
180.01167000000001
 51
269.9883200000001
  0
ARC
  5
1B0F
  8
AM_0
 10
107.08336324434291
 20
247.49400221174511
 30
0.0
 40
0.99508401
 50
89.716132999999985
 51
180.28387000000001
  0
ARC
  5
1B10
  8
AM_0
 10
107.088493244343
 20
247.48930121174519
 30
0.0
 40
1.0002000600000001
 50
180.01146999999989
 51
269.98853000000003
  0
ARC
  5
1B11
  8
AM_0
 10
107.08336324434291
 20
237.4940302117451
 30
0.0
 40
0.9950879999999999
 50
89.716344999999961
 51
180.28364999999999
  0
ARC
  5
1B12
  8
AM_0
 10
107.088493244343
 20
237.4892692117451
 30
0.0
 40
1.00019601
 50
180.01124999999999
 51
269.98874000000001
  0
ARC
  5
1B13
  8
AM_0
 10
110.088493244343
 20
235.48924121174511
 30
0.0
 40
0.9998480400000001
 50
359.99122
 51
90.008778999999976
  0
ARC
  5
1B14
  8
AM_0
 10
110.0834232443429
 20
239.49400121174509
 30
0.0
 40
1.00492398
 50
270.28001
 51
359.71999000000011
  0
ARC
  5
1B15
  8
AM_0
 10
110.088493244343
 20
245.489240211745
 30
0.0
 40
0.9998440499999999
 50
359.99101000000002
 51
90.008991000000023
  0
ARC
  5
1B16
  8
AM_0
 10
110.0834232443429
 20
249.49400021174509
 30
0.0
 40
1.0049280299999981
 50
270.28021999999999
 51
359.71978000000001
  0
ARC
  5
1B17
  8
AM_0
 10
110.088493244343
 20
255.4892392117452
 30
0.0
 40
0.9998520899999999
 50
359.99144999999999
 51
90.008546999999993
  0
ARC
  5
1B18
  8
AM_0
 10
110.0834232443429
 20
259.49400221174511
 30
0.0
 40
1.0049319599999991
 50
270.28041999999999
 51
359.71958000000001
  0
ARC
  5
1B19
  8
AM_0
 10
110.090023244343
 20
265.23078821174511
 30
0.0
 40
0.99829605
 50
359.90204000000011
 51
90.097960999999998
  0
ARC
  5
1B1A
  8
AM_0
 10
110.0859132443429
 20
273.47672921174512
 30
0.0
 40
1.0023759899999991
 50
0.13559199
 51
89.864409999999964
  0
ARC
  5
1B1B
  8
AM_0
 10
110.38378324434289
 20
268.88361821174522
 30
0.0
 40
0.70455201
 50
270.36910999999998
 51
359.63089000000002
  0
ARC
  5
1B1C
  8
AM_0
 10
110.0893332443429
 20
277.99010321174518
 30
0.0
 40
0.9990081
 50
359.94315
 51
90.056843000000015
  0
ARC
  5
1B1D
  8
AM_0
 10
110.5899432443429
 20
280.59074321174512
 30
0.0
 40
0.49836402
 50
359.81141000000002
 51
90.188598000000013
  0
ARC
  5
1B1E
  8
AM_0
 10
110.5837332443428
 20
282.74369321174498
 30
0.0
 40
0.504636
 50
270.52375999999998
 51
359.47624000000002
  0
ARC
  5
1B1F
  8
AM_0
 10
259.08853324434301
 20
169.9892692117449
 30
0.0
 40
1.0001800499999991
 50
180.01031
 51
269.98968000000002
  0
ARC
  5
1B20
  8
AM_0
 10
250.8929832443429
 20
172.63447121174511
 30
0.0
 40
2.0053919100000002
 50
270.15275000000003
 51
344.81207000000001
  0
ARC
  5
1B21
  8
AM_0
 10
259.08781324434301
 20
181.98854021174509
 30
0.0
 40
0.99947604
 50
179.97009
 51
270.02992
  0
ARC
  5
1B23
  8
AM_0
 10
117.30937324434279
 20
283.47665321174509
 30
0.0
 40
1.9924480200000001
 50
89.742107999999988
 51
169.81179
  0
ARC
  5
1B24
  8
AM_0
 10
117.253153244343
 20
288.75980321174501
 30
0.0
 40
1.9992880199999981
 50
89.851815000000016
 51
167.89433
  0
ARC
  5
1B25
  8
AM_0
 10
112.8726132443429
 20
285.02930321174517
 30
0.0
 40
1.5002480099999991
 50
270.21661999999998
 51
347.67500000000001
  0
ARC
  5
1B26
  8
AM_0
 10
117.2203932443429
 20
292.16456321174519
 30
0.0
 40
1.9945160699999991
 50
89.771334999999979
 51
166.82803999999999
  0
ARC
  5
1B27
  8
AM_0
 10
112.89676324434291
 20
289.09289321174509
 30
0.0
 40
1.5037760099999991
 50
270.05984000000001
 51
346.39312999999999
  0
ARC
  5
1B28
  8
AM_0
 10
112.909603244343
 20
291.11228321174508
 30
0.0
 40
1.503232049999998
 50
270.33132000000001
 51
346.01803000000001
  0
ARC
  5
1B29
  8
AM_0
 10
117.1948632443429
 20
293.79227321174528
 30
0.0
 40
1.996816109999999
 50
89.901436000000004
 51
165.88941
  0
ARC
  5
1B2A
  8
AM_0
 10
134.08372324434299
 20
292.35371321174512
 30
0.0
 40
1.9953641399999991
 50
89.866758999999988
 51
180.13323
  0
ARC
  5
1B2B
  8
AM_0
 10
134.0845032443429
 20
294.38288321174508
 30
0.0
 40
1.99618809
 50
89.890486999999965
 51
180.10951
  0
ARC
  5
1B2C
  8
AM_0
 10
134.08189324434289
 20
295.73555321174518
 30
0.0
 40
1.993556189999999
 50
89.814515
 51
180.18548999999999
  0
ARC
  5
1B2D
  8
AM_0
 10
134.083843244343
 20
296.41034321174521
 30
0.0
 40
1.998724049999999
 50
89.871137000000004
 51
165.55096
  0
ARC
  5
1B2E
  8
AM_0
 10
130.58164324434301
 20
286.97579321174521
 30
0.0
 40
1.5066999599999991
 50
270.25416000000001
 51
359.74583999999999
  0
ARC
  5
1B2F
  8
AM_0
 10
130.58548324434301
 20
292.2619132117452
 30
0.0
 40
1.5028360199999991
 50
270.10793999999999
 51
359.89206000000001
  0
ARC
  5
1B30
  8
AM_0
 10
130.583473244343
 20
295.66394321174522
 30
0.0
 40
1.5048719999999991
 50
270.18518
 51
359.81482
  0
ARC
  5
1B31
  8
AM_0
 10
130.6949232443429
 20
297.29210321174509
 30
0.0
 40
1.50301605
 50
270.12945000000002
 51
345.23653999999999
  0
ARC
  5
1B32
  8
AM_0
 10
187.08739324434279
 20
294.37814321174511
 30
0.0
 40
2.0009239199999991
 50
0.026462999
 51
89.973535999999982
  0
ARC
  5
1B33
  8
AM_0
 10
187.09000324434291
 20
295.73078321174512
 30
0.0
 40
1.9982920200000001
 50
359.95103
 51
90.048975000000013
  0
ARC
  5
1B34
  8
AM_0
 10
187.086523244343
 20
296.40728321174521
 30
0.0
 40
2.0018279999999979
 50
0.052301
 51
89.947696999999977
  0
ARC
  5
1B35
  8
AM_0
 10
257.73856324434291
 20
280.3414732117451
 30
0.0
 40
1.50239199
 50
195.1400099999999
 51
269.99063999999998
  0
ARC
  5
1B36
  8
AM_0
 10
250.897873244343
 20
292.35011321174511
 30
0.0
 40
1.99898796
 50
15.047801
 51
89.987373000000005
  0
ARC
  5
1B37
  8
AM_0
 10
259.08337324434319
 20
294.99404321174501
 30
0.0
 40
0.9950640599999999
 50
89.714938000000004
 51
180.28505999999999
  0
ARC
  5
1B38
  8
AM_0
 10
259.082683244343
 20
282.9947272117451
 30
0.0
 40
0.99440004
 50
89.676490999999999
 51
180.32351
  0
ARC
  5
1B39
  8
AM_0
 10
257.794183244343
 20
285.02954321174508
 30
0.0
 40
1.5004760399999979
 50
192.33223000000001
 51
270.15827999999999
  0
ARC
  5
1B3A
  8
AM_0
 10
252.9357732443429
 20
290.99261321174492
 30
0.0
 40
1.9964880300000001
 50
12.040875
 51
89.926440999999969
  0
ARC
  5
1B3B
  8
AM_0
 10
110.0850132443429
 20
199.7524372117451
 30
0.0
 40
1.0033640100000001
 50
270.19171
 51
359.80828000000002
  0
ARC
  5
1B3C
  8
AM_0
 10
110.0834232443429
 20
209.4940012117452
 30
0.0
 40
1.00492398
 50
270.28003999999999
 51
359.71996999999999
  0
ARC
  5
1B3D
  8
AM_0
 10
110.088493244343
 20
205.48925321174511
 30
0.0
 40
0.9998480400000001
 50
359.99119000000002
 51
90.008807000000004
  0
ARC
  5
1B3E
  8
AM_0
 10
110.38888324434301
 20
196.09965221174511
 30
0.0
 40
0.69944001
 50
359.95416
 51
90.045839999999984
  0
ARC
  5
1B3F
  8
AM_0
 10
108.291313244343
 20
197.80431821174511
 30
0.0
 40
1.0052240100000001
 50
246.98629
 51
269.82936000000001
  0
ARC
  5
1B40
  8
AM_0
 10
108.228853244343
 20
199.75178021174511
 30
0.0
 40
1.00272801
 50
253.75297
 51
270.54039999999998
  0
ARC
  5
1B41
  8
AM_0
 10
107.08471324434279
 20
200.10343421174511
 30
0.0
 40
0.99638007
 50
180.24949000000001
 51
253.29706999999999
  0
ARC
  5
1B42
  8
AM_0
 10
107.0848332443429
 20
198.3175612117451
 30
0.0
 40
0.9964760700000001
 50
179.91257999999999
 51
247.17966000000001
  0
ARC
  5
1B43
  8
AM_0
 10
107.088493244343
 20
207.48928421174509
 30
0.0
 40
1.00019601
 50
180.01127999999991
 51
269.98872
  0
ARC
  5
1B44
  8
AM_0
 10
107.08336324434291
 20
207.4940302117451
 30
0.0
 40
0.99508401
 50
89.716324
 51
180.28368
  0
ARC
  5
1B45
  8
AM_0
 10
107.088493244343
 20
217.4893012117451
 30
0.0
 40
1.0002000600000001
 50
180.01150000000001
 51
269.98851000000002
  0
ARC
  5
1B46
  8
AM_0
 10
107.08336324434291
 20
217.49401421174511
 30
0.0
 40
0.99508401
 50
89.716106000000025
 51
180.28389000000001
  0
ARC
  5
1B47
  8
AM_0
 10
107.088493244343
 20
227.4893002117451
 30
0.0
 40
1.000203989999999
 50
180.01169999999999
 51
269.98829999999998
  0
ARC
  5
1B48
  8
AM_0
 10
107.08336324434291
 20
227.49401621174511
 30
0.0
 40
0.9950800799999999
 50
89.715893999999963
 51
180.2841
  0
ARC
  5
1B49
  8
AM_0
 10
110.08336324434281
 20
229.4940172117451
 30
0.0
 40
1.0049319599999991
 50
270.28044999999997
 51
359.71955000000008
  0
ARC
  5
1B4A
  8
AM_0
 10
110.088493244343
 20
225.48923921174509
 30
0.0
 40
0.9998520899999999
 50
359.99142999999998
 51
90.008574000000024
  0
ARC
  5
1B4B
  8
AM_0
 10
110.0834232443429
 20
219.494000211745
 30
0.0
 40
1.0049280299999981
 50
270.28023999999999
 51
359.71976000000001
  0
ARC
  5
1B4C
  8
AM_0
 10
110.088493244343
 20
215.4892402117452
 30
0.0
 40
0.9998440499999999
 50
359.99097999999998
 51
90.00901800000004
  0
ARC
  5
1B4D
  8
AM_0
 10
120.2466132443429
 20
274.08189221174513
 30
0.0
 40
5.004112499999998
 50
279.68356999999997
 51
354.57834000000008
  0
ARC
  5
1B4E
  8
AM_0
 10
120.70909324434299
 20
270.15617321174528
 30
0.0
 40
6.0049157999999991
 50
45.22730700000001
 51
86.379093999999981
  0
ARC
  5
1B4F
  8
AM_0
 10
124.2322932443429
 20
273.7093642117452
 30
0.0
 40
1.001108069999999
 50
354.25024999999999
 51
45.146993999999992
  0
ARC
  5
1B50
  8
AM_0
 10
252.93076324434301
 20
173.99169521174511
 30
0.0
 40
2.0026238699999981
 50
270.21534000000003
 51
347.81734
  0
ARC
  5
1B51
  8
AM_0
 10
257.79538324434287
 20
179.9597722117451
 30
0.0
 40
1.499328059999999
 50
89.888150999999993
 51
168.09384
  0
ARC
  5
1B52
  8
AM_0
 10
120.71830324434301
 20
194.83626821174511
 30
0.0
 40
6.0085923000000001
 50
273.53095000000002
 51
314.61478
  0
ARC
  5
1B53
  8
AM_0
 10
120.2516832443428
 20
190.90101221174521
 30
0.0
 40
4.9985837999999987
 50
5.3731198999999981
 51
80.364975999999999
  0
ARC
  5
1B54
  8
AM_0
 10
107.0859132443429
 20
184.47375221174511
 30
0.0
 40
0.9976240799999999
 50
180.26750999999999
 51
240.07954000000001
  0
ARC
  5
1B55
  8
AM_0
 10
107.0839632443429
 20
185.5194502117451
 30
0.0
 40
0.9956680199999999
 50
180.02043
 51
243.40983
  0
ARC
  5
1B56
  8
AM_0
 10
108.3690132443429
 20
183.74016821174521
 30
0.0
 40
1.0011359699999991
 50
239.328
 51
269.38751000000002
  0
ARC
  5
1B57
  8
AM_0
 10
108.334153244343
 20
184.8883462117451
 30
0.0
 40
0.999288
 50
242.86126999999999
 51
269.66618999999997
  0
ARC
  5
1B58
  8
AM_0
 10
108.35965324434299
 20
185.852747211745
 30
0.0
 40
1.0036880100000001
 50
239.37027
 51
270.49275
  0
ARC
  5
1B59
  8
AM_0
 10
108.34348324434291
 20
186.98971121174509
 30
0.0
 40
1.00062801
 50
241.6498600000001
 51
269.70470999999998
  0
ARC
  5
1B5A
  8
AM_0
 10
108.3810732443429
 20
190.36959521174509
 30
0.0
 40
1.0005359999999981
 50
237.1464
 51
270.41322000000002
  0
ARC
  5
1B5B
  8
AM_0
 10
108.351673244343
 20
191.5100812117449
 30
0.0
 40
1.0010120099999991
 50
240.47136
 51
270.3802
  0
ARC
  5
1B5C
  8
AM_0
 10
107.0873832443429
 20
191.2137712117451
 30
0.0
 40
0.99910005
 50
179.69542000000001
 51
236.66176999999999
  0
ARC
  5
1B5D
  8
AM_0
 10
107.0860332443429
 20
187.65038621174509
 30
0.0
 40
0.9977079899999999
 50
180.07405
 51
242.04476
  0
ARC
  5
1B5E
  8
AM_0
 10
107.08708324434291
 20
186.6125902117451
 30
0.0
 40
0.9987801
 50
179.62666999999999
 51
238.70855
  0
ARC
  5
1B5F
  8
AM_0
 10
110.0858532443429
 20
191.51154821174509
 30
0.0
 40
1.00246002
 50
270.14037999999999
 51
359.85962000000001
  0
ARC
  5
1B60
  8
AM_0
 10
107.0867832443429
 20
192.24839321174511
 30
0.0
 40
0.9984600300000001
 50
179.95962
 51
239.38655
  0
ARC
  5
1B61
  8
AM_0
 10
110.08426324434291
 20
186.99317621174509
 30
0.0
 40
1.004084009999999
 50
270.23262999999997
 51
359.76737000000008
  0
ARC
  5
1B62
  8
AM_0
 10
110.5848732443429
 20
184.39248221174509
 30
0.0
 40
0.50340399
 50
270.38612999999998
 51
359.61387000000002
  0
ARC
  5
1B63
  8
AM_0
 10
110.5887132443429
 20
182.23952921174509
 30
0.0
 40
0.4995560100000002
 50
359.94911000000002
 51
90.050894000000014
  0
ARC
  5
1B64
  8
AM_0
 10
117.31438324434281
 20
181.5075172117451
 30
0.0
 40
1.998444029999999
 50
190.33240000000001
 51
270.11369000000002
  0
ARC
  5
1B65
  8
AM_0
 10
117.253213244343
 20
176.22846521174509
 30
0.0
 40
1.9993920899999991
 50
192.1080399999999
 51
270.14582000000001
  0
ARC
  5
1B66
  8
AM_0
 10
112.871443244343
 20
179.960003211745
 30
0.0
 40
1.499099999999999
 50
11.89856
 51
89.736657999999963
  0
ARC
  5
1B67
  8
AM_0
 10
117.2253132443429
 20
172.81985021174509
 30
0.0
 40
2.0007560699999991
 50
193.3141599999999
 51
270.08645000000001
  0
ARC
  5
1B68
  8
AM_0
 10
112.901713244343
 20
175.89158321174509
 30
0.0
 40
1.497512039999999
 50
13.418233000000001
 51
90.128792999999988
  0
ARC
  5
1B69
  8
AM_0
 10
112.9161132443429
 20
173.8709662117451
 30
0.0
 40
1.498128089999998
 50
14.224575
 51
89.916113999999993
  0
ARC
  5
1B6A
  8
AM_0
 10
117.19981324434281
 20
171.19222721174509
 30
0.0
 40
2.0031319199999991
 50
194.25158999999999
 51
269.95755000000003
  0
ARC
  5
1B6B
  8
AM_0
 10
134.08879324434301
 20
172.62952721174511
 30
0.0
 40
2.000452109999999
 50
180.0129
 51
269.9871
  0
ARC
  5
1B6C
  8
AM_0
 10
134.08963324434291
 20
170.60039921174521
 30
0.0
 40
2.0013120899999981
 50
180.03756000000001
 51
269.96244000000002
  0
ARC
  5
1B6D
  8
AM_0
 10
134.08696324434291
 20
169.24770521174511
 30
0.0
 40
1.9986199799999991
 50
179.96046999999999
 51
270.03953000000001
  0
ARC
  5
1B6E
  8
AM_0
 10
134.08225324434301
 20
168.57914321174511
 30
0.0
 40
2.0000761200000001
 50
194.77498
 51
270.17353000000003
  0
ARC
  5
1B6F
  8
AM_0
 10
130.58677324434299
 20
178.00751921174509
 30
0.0
 40
1.5015680099999991
 50
0.059805003
 51
89.940196999999998
  0
ARC
  5
1B70
  8
AM_0
 10
130.58560324434299
 20
172.72637621174511
 30
0.0
 40
1.50271599
 50
0.103436
 51
89.896566000000007
  0
ARC
  5
1B71
  8
AM_0
 10
130.58860324434301
 20
169.3193302117451
 30
0.0
 40
1.49975601
 50
359.99059
 51
90.009407999999965
  0
ARC
  5
1B72
  8
AM_0
 10
130.699873244343
 20
167.6924392117451
 30
0.0
 40
1.49664405
 50
14.57574
 51
90.058278000000001
  0
ARC
  5
1B73
  8
AM_0
 10
187.082323244343
 20
170.60511221174511
 30
0.0
 40
2.0060480100000002
 50
270.17248999999998
 51
359.82751000000002
  0
ARC
  5
1B74
  8
AM_0
 10
187.08493324434301
 20
169.2524512117451
 30
0.0
 40
2.0033560499999989
 50
270.09593999999998
 51
359.90406000000002
  0
ARC
  5
1B75
  8
AM_0
 10
187.0864032443429
 20
168.58097321174509
 30
0.0
 40
2.0019000299999989
 50
270.05437999999998
 51
359.94562000000002
  0
ARC
  5
1B76
  8
AM_0
 10
257.73370324434302
 20
184.6431082117451
 30
0.0
 40
1.49599605
 50
89.821707000000004
 51
165.04766000000001
  0
ARC
  5
1B77
  8
AM_0
 10
133.08355324434299
 20
247.48908821174521
 30
0.0
 40
1.000011959999999
 50
89.726507999999981
 51
270.27348000000001
  0
ARC
  5
1B78
  8
AM_0
 10
133.08355324434299
 20
257.48908721174507
 30
0.0
 40
1.000011959999999
 50
89.726507999999981
 51
270.27348000000001
  0
ARC
  5
1B79
  8
AM_0
 10
133.08355324434299
 20
267.48908921174512
 30
0.0
 40
1.000011959999999
 50
89.726507999999981
 51
270.27348000000001
  0
ARC
  5
1B7A
  8
AM_0
 10
115.35253324434289
 20
237.4940932117452
 30
0.0
 40
1.26501207
 50
89.737716000000006
 51
270.26227999999998
  0
ARC
  5
1B7B
  8
AM_0
 10
115.418323244343
 20
247.4990962117451
 30
0.0
 40
1.330008059999999
 50
90.000003000000007
 51
270.0
  0
ARC
  5
1B7C
  8
AM_0
 10
124.54831324434291
 20
257.51408321174517
 30
0.0
 40
1.465004009999999
 50
90.000003000000007
 51
270.0
  0
ARC
  5
1B7D
  8
AM_0
 10
124.76146324434291
 20
267.53407121174519
 30
0.0
 40
1.6750160999999979
 50
89.766540000000006
 51
270.23345999999998
  0
ARC
  5
1B7E
  8
AM_0
 10
116.6383632443429
 20
237.4890862117451
 30
0.0
 40
1.0000000199999981
 50
90.000003000000007
 51
270.0
  0
ARC
  5
1B7F
  8
AM_0
 10
116.6383632443429
 20
247.48908821174521
 30
0.0
 40
1.0000000199999981
 50
90.000003000000007
 51
270.0
  0
ARC
  5
1B80
  8
AM_0
 10
125.6335932443429
 20
267.48908921174512
 30
0.0
 40
1.000011959999999
 50
89.728448
 51
270.27154000000002
  0
ARC
  5
1B81
  8
AM_0
 10
125.6335932443429
 20
257.48908721174507
 30
0.0
 40
1.000011959999999
 50
89.728448
 51
270.27154000000002
  0
ARC
  5
1B86
  8
AM_0
 10
254.90830324434299
 20
267.53407121174519
 30
0.0
 40
1.675004159999999
 50
276.16905573844588
 51
83.830944261554208
  0
ARC
  5
1B89
  8
AM_0
 10
254.90830324434299
 20
197.44410221174519
 30
0.0
 40
1.675004159999999
 50
276.16905573844969
 51
83.830944261550343
  0
ARC
  5
1B8A
  8
AM_0
 10
116.6383632443429
 20
227.48910221174521
 30
0.0
 40
1.0000000199999981
 50
90.000003000000007
 51
270.0
  0
ARC
  5
1B8B
  8
AM_0
 10
133.08355324434299
 20
217.48908821174521
 30
0.0
 40
1.000011959999999
 50
89.726507999999981
 51
270.27348000000001
  0
ARC
  5
1B8C
  8
AM_0
 10
133.08355324434299
 20
207.4890862117451
 30
0.0
 40
1.000011959999999
 50
89.726507999999981
 51
270.27348000000001
  0
ARC
  5
1B8D
  8
AM_0
 10
115.418323244343
 20
217.47909221174521
 30
0.0
 40
1.330008059999999
 50
90.000003000000007
 51
270.0
  0
ARC
  5
1B8E
  8
AM_0
 10
115.54831324434291
 20
207.46409321174519
 30
0.0
 40
1.465004009999999
 50
90.000003000000007
 51
270.0
  0
ARC
  5
1B8F
  8
AM_0
 10
116.6335932443429
 20
197.48910221174509
 30
0.0
 40
1.000011959999999
 50
89.728461999999965
 51
270.27154000000002
  0
ARC
  5
1B91
  8
AM_0
 10
133.08355324434299
 20
197.48910221174509
 30
0.0
 40
1.000011959999999
 50
89.726507999999981
 51
270.27348000000001
  0
ARC
  5
1B92
  8
AM_0
 10
115.35253324434289
 20
227.48910221174521
 30
0.0
 40
1.2700120500000001
 50
89.738748000000001
 51
270.26123999999999
  0
ARC
  5
1B93
  8
AM_0
 10
115.76146324434291
 20
197.44410221174519
 30
0.0
 40
1.6750160999999979
 50
89.764983000000015
 51
270.23500999999999
  0
ARC
  5
1B94
  8
AM_0
 10
116.6383632443429
 20
217.48908821174521
 30
0.0
 40
1.0000000199999981
 50
90.000003000000007
 51
270.0
  0
ARC
  5
1B95
  8
AM_0
 10
116.6335932443429
 20
207.4890862117451
 30
0.0
 40
1.000011959999999
 50
89.728461999999965
 51
270.27154000000002
  0
LINE
  5
25BA
  8
ﾁｭｳｼﾝｾﾝ
 10
207.088303244343
 20
283.4890882117453
 30
0.0
 11
207.088303244343
 21
181.48908821174521
 31
0.0
  0
LINE
  5
26B6
  8
AM_0
 10
251.08830324434311
 20
186.48908821174521
 30
0.0
 11
163.088303244343
 21
186.48908821174521
 31
0.0
  0
ARC
  5
26B7
  8
AM_0
 10
181.15937105620841
 20
191.48908821174521
 30
0.0
 40
5.0
 50
225.0
 51
270.0
1001
GENIUS_GENOBJ-N-FIL_13
1002
{
1000
OWNER
1000
GEN
1002
}
1001
GENIUS_GENODEF_13
1002
{
1000
HIER
1070
     0
1002
}
1002
{
1000
MANEDIT
1070
     0
1002
}
1002
{
1000
NOSEL
1070
     0
1002
}
1002
{
1000
BEHIND
1070
     0
1002
}
1002
{
1000
OTHER
1070
     0
1002
}
1002
{
1000
REACTOR
1002
}
  0
LINE
  5
26B8
  8
AM_0
 10
232.36038118298521
 20
191.48908821174521
 30
0.0
 11
181.8162253057007
 21
191.48908821174521
 31
0.0
  0
ARC
  5
26B9
  8
AM_0
 10
232.36038118298521
 20
196.4890882117451
 30
0.0
 40
5.0
 50
270.0
 51
315.0
1001
GENIUS_GENOBJ-N-FIL_13
1002
{
1000
OWNER
1000
GEN
1002
}
1001
GENIUS_GENODEF_13
1002
{
1000
HIER
1070
     0
1002
}
1002
{
1000
MANEDIT
1070
     0
1002
}
1002
{
1000
NOSEL
1070
     0
1002
}
1002
{
1000
BEHIND
1070
     0
1002
}
1002
{
1000
OTHER
1070
     0
1002
}
1002
{
1000
REACTOR
1002
}
  0
ARC
  5
26BA
  8
AM_0
 10
251.08830324434311
 20
190.48908821174521
 30
0.0
 40
4.0
 50
270.0
 51
0.0
1001
GENIUS_GENOBJ-N-FIL_13
1002
{
1000
OWNER
1000
GEN
1002
}
1001
GENIUS_GENODEF_13
1002
{
1000
HIER
1070
     0
1002
}
1002
{
1000
MANEDIT
1070
     0
1002
}
1002
{
1000
NOSEL
1070
     0
1002
}
1002
{
1000
BEHIND
1070
     0
1002
}
1002
{
1000
OTHER
1070
     0
1002
}
1002
{
1000
REACTOR
1002
}
  0
LINE
  5
26BB
  8
AM_0
 10
251.08830324434291
 20
278.48908821174541
 30
0.0
 11
163.088303244343
 21
278.48908821174541
 31
0.0
  0
ARC
  5
26BC
  8
AM_0
 10
233.01723543247741
 20
273.48908821174541
 30
0.0
 40
5.0
 50
45.0
 51
90.0
1001
GENIUS_GENOBJ-N-FIL_13
1002
{
1000
OWNER
1000
GEN
1002
}
1001
GENIUS_GENODEF_13
1002
{
1000
HIER
1070
     0
1002
}
1002
{
1000
MANEDIT
1070
     0
1002
}
1002
{
1000
NOSEL
1070
     0
1002
}
1002
{
1000
BEHIND
1070
     0
1002
}
1002
{
1000
OTHER
1070
     0
1002
}
1002
{
1000
REACTOR
1002
}
  0
ARC
  5
26BD
  8
AM_0
 10
181.15937105620861
 20
273.48908821174541
 30
0.0
 40
5.0
 50
90.0
 51
135.0
1001
GENIUS_GENODEF_13
1002
{
1000
HIER
1070
     0
1002
}
1002
{
1000
MANEDIT
1070
     0
1002
}
1002
{
1000
NOSEL
1070
     0
1002
}
1002
{
1000
BEHIND
1070
     0
1002
}
1002
{
1000
OTHER
1070
     0
1002
}
1002
{
1000
REACTOR
1002
}
1001
GENIUS_GENOBJ-N-FIL_13
1002
{
1000
OWNER
1000
GEN
1002
}
  0
LINE
  5
26BE
  8
AM_0
 10
232.36038118298521
 20
273.48908821174541
 30
0.0
 11
181.8162253057009
 21
273.48908821174541
 31
0.0
  0
ARC
  5
26BF
  8
AM_0
 10
181.8162253057009
 20
268.48908821174541
 30
0.0
 40
5.0
 50
90.0
 51
135.0
1001
GENIUS_GENODEF_13
1002
{
1000
HIER
1070
     0
1002
}
1002
{
1000
MANEDIT
1070
     0
1002
}
1002
{
1000
NOSEL
1070
     0
1002
}
1002
{
1000
BEHIND
1070
     0
1002
}
1002
{
1000
OTHER
1070
     0
1002
}
1002
{
1000
REACTOR
1002
}
1001
GENIUS_GENOBJ-N-FIL_13
1002
{
1000
OWNER
1000
GEN
1002
}
  0
ARC
  5
26C0
  8
AM_0
 10
163.088303244343
 20
274.48908821174541
 30
0.0
 40
4.0
 50
90.0
 51
180.0
1001
GENIUS_GENODEF_13
1002
{
1000
HIER
1070
     0
1002
}
1002
{
1000
MANEDIT
1070
     0
1002
}
1002
{
1000
NOSEL
1070
     0
1002
}
1002
{
1000
BEHIND
1070
     0
1002
}
1002
{
1000
OTHER
1070
     0
1002
}
1002
{
1000
REACTOR
1002
}
1001
GENIUS_GENOBJ-N-FIL_13
1002
{
1000
OWNER
1000
GEN
1002
}
  0
LINE
  5
26C1
  8
AM_0
 10
159.088303244343
 20
274.48908821174541
 30
0.0
 11
159.088303244343
 21
190.48908821174521
 31
0.0
  0
ARC
  5
26C2
  8
AM_0
 10
164.088303244343
 20
208.56015602361049
 30
0.0
 40
5.0
 50
180.0
 51
225.0
1001
GENIUS_GENOBJ-N-FIL_13
1002
{
1000
OWNER
1000
GEN
1002
}
1001
GENIUS_GENODEF_13
1002
{
1000
HIER
1070
     0
1002
}
1002
{
1000
MANEDIT
1070
     0
1002
}
1002
{
1000
NOSEL
1070
     0
1002
}
1002
{
1000
BEHIND
1070
     0
1002
}
1002
{
1000
OTHER
1070
     0
1002
}
1002
{
1000
REACTOR
1002
}
  0
ARC
  5
26C3
  8
AM_0
 10
164.088303244343
 20
256.41802039988011
 30
0.0
 40
5.0
 50
135.0
 51
180.0
1001
GENIUS_GENOBJ-N-FIL_13
1002
{
1000
OWNER
1000
GEN
1002
}
1001
GENIUS_GENODEF_13
1002
{
1000
HIER
1070
     0
1002
}
1002
{
1000
MANEDIT
1070
     0
1002
}
1002
{
1000
NOSEL
1070
     0
1002
}
1002
{
1000
BEHIND
1070
     0
1002
}
1002
{
1000
OTHER
1070
     0
1002
}
1002
{
1000
REACTOR
1002
}
  0
LINE
  5
26C4
  8
AM_0
 10
164.088303244343
 20
255.7611661503874
 30
0.0
 11
164.08830324434291
 21
209.21701027310289
 31
0.0
  0
ARC
  5
26C5
  8
AM_0
 10
169.08830324434291
 20
209.21701027310289
 30
0.0
 40
5.0
 50
180.0
 51
225.0
1001
GENIUS_GENOBJ-N-FIL_13
1002
{
1000
OWNER
1000
GEN
1002
}
1001
GENIUS_GENODEF_13
1002
{
1000
HIER
1070
     0
1002
}
1002
{
1000
MANEDIT
1070
     0
1002
}
1002
{
1000
NOSEL
1070
     0
1002
}
1002
{
1000
BEHIND
1070
     0
1002
}
1002
{
1000
OTHER
1070
     0
1002
}
1002
{
1000
REACTOR
1002
}
  0
ARC
  5
26C6
  8
AM_0
 10
163.088303244343
 20
190.48908821174521
 30
0.0
 40
4.0
 50
180.0
 51
270.0
1001
GENIUS_GENODEF_13
1002
{
1000
HIER
1070
     0
1002
}
1002
{
1000
MANEDIT
1070
     0
1002
}
1002
{
1000
NOSEL
1070
     0
1002
}
1002
{
1000
BEHIND
1070
     0
1002
}
1002
{
1000
OTHER
1070
     0
1002
}
1002
{
1000
REACTOR
1002
}
1001
GENIUS_GENOBJ-N-FIL_13
1002
{
1000
OWNER
1000
GEN
1002
}
  0
LINE
  5
26C7
  8
AM_0
 10
255.088303244343
 20
274.48908821174541
 30
0.0
 11
255.08830324434311
 21
190.48908821174521
 31
0.0
  0
ARC
  5
26C8
  8
AM_0
 10
250.08830324434311
 20
256.41802039987988
 30
0.0
 40
5.0
 50
0.0
 51
45.0
1001
GENIUS_GENOBJ-N-FIL_13
1002
{
1000
OWNER
1000
GEN
1002
}
1001
GENIUS_GENODEF_13
1002
{
1000
HIER
1070
     0
1002
}
1002
{
1000
MANEDIT
1070
     0
1002
}
1002
{
1000
NOSEL
1070
     0
1002
}
1002
{
1000
BEHIND
1070
     0
1002
}
1002
{
1000
OTHER
1070
     0
1002
}
1002
{
1000
REACTOR
1002
}
  0
ARC
  5
26C9
  8
AM_0
 10
250.08830324434311
 20
208.56015602361069
 30
0.0
 40
5.0
 50
315.0
 51
0.0
1001
GENIUS_GENOBJ-N-FIL_13
1002
{
1000
OWNER
1000
GEN
1002
}
1001
GENIUS_GENODEF_13
1002
{
1000
HIER
1070
     0
1002
}
1002
{
1000
MANEDIT
1070
     0
1002
}
1002
{
1000
NOSEL
1070
     0
1002
}
1002
{
1000
BEHIND
1070
     0
1002
}
1002
{
1000
OTHER
1070
     0
1002
}
1002
{
1000
REACTOR
1002
}
  0
LINE
  5
26CA
  8
AM_0
 10
236.55276933841029
 20
277.02462211767812
 30
0.0
 11
253.62383715027579
 21
259.95355430581259
 31
0.0
  0
LINE
  5
26CB
  8
AM_0
 10
235.8959150889178
 20
272.02462211767812
 30
0.0
 11
248.62383715027559
 21
259.29670005632039
 31
0.0
  0
ARC
  5
26CC
  8
AM_0
 10
232.36038118298521
 20
268.48908821174541
 30
0.0
 40
5.0
 50
45.0
 51
90.0
1001
GENIUS_GENOBJ-N-FIL_13
1002
{
1000
OWNER
1000
GEN
1002
}
1001
GENIUS_GENODEF_13
1002
{
1000
HIER
1070
     0
1002
}
1002
{
1000
MANEDIT
1070
     0
1002
}
1002
{
1000
NOSEL
1070
     0
1002
}
1002
{
1000
BEHIND
1070
     0
1002
}
1002
{
1000
OTHER
1070
     0
1002
}
1002
{
1000
REACTOR
1002
}
  0
LINE
  5
26CD
  8
AM_0
 10
250.08830324434291
 20
255.76116615038771
 30
0.0
 11
250.08830324434311
 21
209.21701027310289
 31
0.0
  0
ARC
  5
26CE
  8
AM_0
 10
245.08830324434291
 20
255.76116615038771
 30
0.0
 40
5.0
 50
0.0
 51
45.0
1001
GENIUS_GENODEF_13
1002
{
1000
HIER
1070
     0
1002
}
1002
{
1000
MANEDIT
1070
     0
1002
}
1002
{
1000
NOSEL
1070
     0
1002
}
1002
{
1000
BEHIND
1070
     0
1002
}
1002
{
1000
OTHER
1070
     0
1002
}
1002
{
1000
REACTOR
1002
}
1001
GENIUS_GENOBJ-N-FIL_13
1002
{
1000
OWNER
1000
GEN
1002
}
  0
ARC
  5
26CF
  8
AM_0
 10
251.08830324434291
 20
274.48908821174541
 30
0.0
 40
4.0
 50
0.0
 51
90.0
1001
GENIUS_GENODEF_13
1002
{
1000
HIER
1070
     0
1002
}
1002
{
1000
MANEDIT
1070
     0
1002
}
1002
{
1000
NOSEL
1070
     0
1002
}
1002
{
1000
BEHIND
1070
     0
1002
}
1002
{
1000
OTHER
1070
     0
1002
}
1002
{
1000
REACTOR
1002
}
1001
GENIUS_GENOBJ-N-FIL_13
1002
{
1000
OWNER
1000
GEN
1002
}
  0
LINE
  5
26D0
  8
ﾁｭｳｼﾝｾﾝ1
 10
250.0883032443445
 20
267.48908821174501
 30
0.0
 11
250.0883032443451
 21
279.4890882117449
 31
0.0
  0
LINE
  5
26D1
  8
ﾁｭｳｼﾝｾﾝ1
 10
256.08830324434479
 20
273.48908821174467
 30
0.0
 11
244.08830324434479
 21
273.48908821174541
 31
0.0
  0
LINE
  5
26D2
  8
AM_0
 10
155.588303244343
 20
245.98908821174541
 30
0.0
 11
158.08830324434291
 21
245.9890882117455
 31
0.0
  0
LINE
  5
26D3
  8
AM_0
 10
158.088303244343
 20
218.98908821174541
 30
0.0
 11
155.588303244343
 21
218.98908821174541
 31
0.0
  0
LINE
  5
26D4
  8
AM_0
 10
144.689632147997
 20
221.98908821174541
 30
0.0
 11
144.689632147997
 21
242.98908821174541
 31
0.0
  0
LINE
  5
26D5
  8
AM_0
 10
129.689632147997
 20
240.52071326576041
 30
0.0
 11
129.689632147997
 21
224.45746315772939
 31
0.0
  0
LINE
  5
26D6
  8
AM_0
 10
142.689632147997
 20
220.48908821174541
 30
0.0
 11
142.689632147997
 21
244.48908821174541
 31
0.0
  0
LINE
  5
26D7
  8
AM_0
 10
133.189632147997
 20
232.48908821174541
 30
0.0
 11
133.689632147997
 21
231.98908821174541
 31
0.0
  0
LINE
  5
26D8
  8
AM_0
 10
140.189632147997
 20
244.1890882117454
 30
0.0
 11
140.189632147997
 21
220.78908821174539
 31
0.0
  0
LINE
  5
26D9
  8
AM_0
 10
150.088303244343
 20
243.98908821174541
 30
0.0
 11
150.088303244343
 21
220.98908821174541
 31
0.0
  0
LINE
  5
26DA
  8
AM_0
 10
144.189632147997
 20
231.7890882117434
 30
0.0
 11
144.189632147997
 21
233.18908821174631
 31
0.0
  0
LINE
  5
26DB
  8
AM_0
 10
146.289267874568
 20
223.38908821174539
 30
0.0
 11
145.53926787456891
 21
241.58908821174541
 31
0.0
  0
LINE
  5
26DC
  8
AM_0
 10
145.338303244343
 20
223.38908821174539
 30
0.0
 11
144.689632147997
 21
239.13017348306141
 31
0.0
  0
LINE
  5
26DD
  8
AM_0
 10
146.086995834915
 20
222.6734294993814
 30
0.0
 11
145.339735791507
 21
242.3014599729124
 31
0.0
  0
LINE
  5
26DE
  8
AM_0
 10
145.53783532740499
 20
222.6767164505774
 30
0.0
 11
144.78926787456891
 21
242.33908821174529
 31
0.0
  0
LINE
  5
26DF
  8
AM_0
 10
142.689632147997
 20
244.48908821174541
 30
0.0
 11
140.48963214799701
 21
244.48908821174541
 31
0.0
  0
ARC
  5
26E0
  8
AM_0
 10
154.58830324434311
 20
244.98908821174541
 30
0.0
 40
0.5
 50
269.99999999998693
 51
0.0
  0
ARC
  5
26E1
  8
AM_0
 10
155.58830324434311
 20
245.48908821174541
 30
0.0
 40
0.5
 50
90.0
 51
180.0
  0
LINE
  5
26E2
  8
AM_0
 10
155.088303244343
 20
244.98908821174541
 30
0.0
 11
155.088303244343
 21
245.48908821174541
 31
0.0
  0
LINE
  5
26E3
  8
AM_0
 10
146.088303244343
 20
241.58908821174541
 30
0.0
 11
149.588303244343
 21
241.58908821174529
 31
0.0
  0
LINE
  5
26E4
  8
AM_0
 10
155.088303244343
 20
243.3451595331523
 30
0.0
 11
155.088303244343
 21
233.6330168903373
 31
0.0
  0
LINE
  5
26E5
  8
AM_0
 10
150.588303244343
 20
244.48908821174541
 30
0.0
 11
154.58830324434291
 21
244.48908821174541
 31
0.0
  0
LINE
  5
26E6
  8
AM_0
 10
154.588303244343
 20
243.84515953315241
 30
0.0
 11
150.088303244343
 21
243.84515953315241
 31
0.0
  0
ARC
  5
26E7
  8
AM_0
 10
154.58830324434311
 20
243.3451595331523
 30
0.0
 40
0.5
 50
0.0
 51
90.0
  0
ARC
  5
26E8
  8
AM_0
 10
149.588303244343
 20
242.08908821174529
 30
0.0
 40
0.5
 50
270.0
 51
0.0
  0
ARC
  5
26E9
  8
AM_0
 10
150.588303244343
 20
243.98908821174541
 30
0.0
 40
0.5
 50
90.0
 51
180.0
  0
LINE
  5
26EA
  8
AM_0
 10
154.588303244343
 20
233.1330168903373
 30
0.0
 11
150.088303244343
 21
233.1330168903373
 31
0.0
  0
ARC
  5
26EB
  8
AM_0
 10
154.588303244343
 20
233.6330168903373
 30
0.0
 40
0.5
 50
270.0
 51
0.0
  0
LINE
  5
26EC
  8
AM_0
 10
144.189632147997
 20
238.6342589640374
 30
0.0
 11
144.189632147997
 21
237.46201577760439
 31
0.0
  0
LINE
  5
26ED
  8
AM_0
 10
145.61600030299391
 20
241.58908821174541
 30
0.0
 11
146.088303244343
 21
241.58908821174541
 31
0.0
  0
LINE
  5
26EE
  8
AM_0
 10
145.51940780845459
 20
241.66320597848201
 30
0.0
 11
145.53926787456891
 21
241.58908821174541
 31
0.0
  0
ARC
  5
26EF
  8
AM_0
 10
145.616000302994
 20
241.68908821174529
 30
0.0
 40
0.1000000000000346
 50
195.00019500644541
 51
270.0
  0
ARC
  5
26F0
  8
AM_0
 10
143.8896321479971
 20
241.77592119225329
 30
0.0
 40
0.3000000000000043
 50
270.0
 51
0.0
  0
LINE
  5
26F1
  8
AM_0
 10
142.689632147997
 20
243.88908821174539
 30
0.0
 11
143.9095878511541
 21
243.80775783153439
 31
0.0
  0
LINE
  5
26F2
  8
AM_0
 10
142.689632147997
 20
242.73283617590539
 30
0.0
 11
143.8896321479971
 21
242.73283617590539
 31
0.0
  0
LINE
  5
26F3
  8
AM_0
 10
144.189632147997
 20
243.48908821174541
 30
0.0
 11
142.689632147997
 21
243.48908821174541
 31
0.0
  0
ARC
  5
26F4
  8
AM_0
 10
144.189632147997
 20
242.98908821174541
 30
0.0
 40
0.5
 50
0.0
 51
90.0
  0
LINE
  5
26F5
  8
AM_0
 10
144.189632147997
 20
243.50842228417741
 30
0.0
 11
144.189632147997
 21
243.48908821174541
 31
0.0
  0
LINE
  5
26F6
  8
AM_0
 10
144.189632147997
 20
243.78908821174539
 30
0.0
 11
144.189632147997
 21
243.50842228417741
 31
0.0
  0
LINE
  5
26F7
  8
AM_0
 10
143.9095878511541
 20
243.80775783153439
 30
0.0
 11
144.189632147997
 21
243.78908821174539
 31
0.0
  0
ARC
  5
26F8
  8
AM_0
 10
143.8896321479971
 20
243.50842228417741
 30
0.0
 40
0.3000000000000007
 50
0.0
 51
86.185925165718274
  0
LINE
  5
26F9
  8
AM_0
 10
145.26157081591791
 20
242.33908821174529
 30
0.0
 11
145.33830324434399
 21
242.33908821174529
 31
0.0
  0
LINE
  5
26FA
  8
AM_0
 10
145.33830324434399
 20
242.33908821174529
 30
0.0
 11
145.35816331045709
 21
242.26497044500891
 31
0.0
  0
LINE
  5
26FB
  8
AM_0
 10
144.7694078084549
 20
242.26497044500891
 30
0.0
 11
144.78926787456891
 21
242.33908821174529
 31
0.0
  0
LINE
  5
26FC
  8
AM_0
 10
144.78926787456891
 20
242.33908821174529
 30
0.0
 11
144.86600030299391
 21
242.33908821174529
 31
0.0
  0
LINE
  5
26FD
  8
AM_0
 10
145.35816331045709
 20
242.26497044500891
 30
0.0
 11
145.51940780845459
 21
241.66320597848201
 31
0.0
  0
LINE
  5
26FE
  8
AM_0
 10
144.86600030299391
 20
242.33908821174529
 30
0.0
 11
145.26157081591791
 21
242.33908821174529
 31
0.0
  0
LINE
  5
26FF
  8
AM_0
 10
144.68963214799791
 20
241.96724768018441
 30
0.0
 11
144.7694078084549
 21
242.26497044500891
 31
0.0
  0
ARC
  5
2700
  8
AM_0
 10
145.26157081591799
 20
242.23908821174541
 30
0.0
 40
0.0999999999999866
 50
15.00019500657341
 51
90.0
  0
ARC
  5
2701
  8
AM_0
 10
144.866000302994
 20
242.23908821174541
 30
0.0
 40
0.1000000000000014
 50
90.0
 51
164.99980499342661
  0
LINE
  5
2702
  8
AM_0
 10
144.189632147997
 20
242.43283617590521
 30
0.0
 11
144.189632147997
 21
241.77592119225329
 31
0.0
  0
ARC
  5
2703
  8
AM_0
 10
143.8896321479971
 20
242.43283617590521
 30
0.0
 40
0.3000000000000007
 50
0.0
 51
90.0
  0
LINE
  5
2704
  8
AM_0
 10
142.689632147997
 20
238.93425896403741
 30
0.0
 11
143.8896321479971
 21
238.93425896403741
 31
0.0
  0
LINE
  5
2705
  8
AM_0
 10
143.8896321479971
 20
241.4759211922534
 30
0.0
 11
142.689632147997
 21
241.4759211922534
 31
0.0
  0
LINE
  5
2706
  8
AM_0
 10
145.53926787456891
 20
241.58908821174541
 30
0.0
 11
145.61600030299391
 21
241.58908821174541
 31
0.0
  0
ARC
  5
2707
  8
AM_0
 10
143.8896321479971
 20
238.6342589640374
 30
0.0
 40
0.3000000000000007
 50
0.0
 51
90.0
  0
LINE
  5
2708
  8
AM_0
 10
143.8896321479971
 20
237.16201577760441
 30
0.0
 11
142.689632147997
 21
237.16201577760441
 31
0.0
  0
ARC
  5
2709
  8
AM_0
 10
143.8896321479971
 20
237.46201577760439
 30
0.0
 40
0.3000000000000043
 50
270.0
 51
0.0
  0
LINE
  5
270A
  8
AM_0
 10
143.8896321479971
 20
233.48908821174641
 30
0.0
 11
142.689632147997
 21
233.48908821174641
 31
0.0
  0
ARC
  5
270B
  8
AM_0
 10
143.8896321479971
 20
233.18908821174631
 30
0.0
 40
0.3000000000000007
 50
0.0
 51
90.0
  0
LINE
  5
270C
  8
AM_0
 10
133.689632147997
 20
242.6223680403923
 30
0.0
 11
140.189632147997
 21
242.6223680403923
 31
0.0
  0
LINE
  5
270D
  8
AM_0
 10
133.689632147997
 20
243.1223680403923
 30
0.0
 11
140.189632147997
 21
243.1223680403923
 31
0.0
  0
LINE
  5
270E
  8
AM_0
 10
140.189632147997
 20
232.98908821174541
 30
0.0
 11
133.689632147997
 21
232.98908821174541
 31
0.0
  0
LINE
  5
270F
  8
AM_0
 10
133.189632147997
 20
233.48908821174541
 30
0.0
 11
140.189632147997
 21
233.48908821174541
 31
0.0
  0
LINE
  5
2710
  8
AM_0
 10
139.8896321479971
 20
243.48908821174541
 30
0.0
 11
133.051682083179
 21
243.48908821174541
 31
0.0
  0
LINE
  5
2711
  8
AM_0
 10
140.189632147997
 20
233.83577628028641
 30
0.0
 11
133.689632147997
 21
233.83577628028641
 31
0.0
  0
LINE
  5
2712
  8
AM_0
 10
140.189632147997
 20
242.14240014320441
 30
0.0
 11
133.689632147997
 21
242.14240014320441
 31
0.0
  0
ARC
  5
2713
  8
AM_0
 10
140.48963214799701
 20
244.1890882117454
 30
0.0
 40
0.2999999999999971
 50
90.0
 51
180.0
  0
ARC
  5
2714
  8
AM_0
 10
139.8896321479971
 20
243.78908821174539
 30
0.0
 40
0.2999999999999971
 50
270.0
 51
0.0
  0
ARC
  5
2715
  8
AM_0
 10
141.814632147997
 20
237.98908821174541
 30
0.0
 40
9.124999999999984
 50
152.92493329271929
 51
207.07506670728071
  0
LINE
  5
2716
  8
AM_0
 10
132.41149768351451
 20
243.25730949134291
 30
0.0
 11
130.0494477483324
 21
241.28893454535779
 31
0.0
  0
LINE
  5
2717
  8
AM_0
 10
133.189632147997
 20
242.91065562823729
 30
0.0
 11
133.689632147997
 21
243.48908821174541
 31
0.0
  0
ARC
  5
2718
  8
AM_0
 10
133.051682083179
 20
242.48908821174541
 30
0.0
 40
1.0
 50
90.0
 51
129.805571092256
  0
LINE
  5
2719
  8
AM_0
 10
133.689632147997
 20
243.1223680403923
 30
0.0
 11
133.189632147997
 21
242.91065562823729
 31
0.0
  0
LINE
  5
271A
  8
AM_0
 10
133.189632147997
 20
242.44838035526641
 30
0.0
 11
133.689632147997
 21
243.1223680403923
 31
0.0
  0
LINE
  5
271B
  8
AM_0
 10
133.689632147997
 20
242.6223680403923
 30
0.0
 11
133.189632147997
 21
242.44838035526641
 31
0.0
  0
LINE
  5
271C
  8
AM_0
 10
133.189632147997
 20
241.91065562823741
 30
0.0
 11
133.689632147997
 21
242.6223680403923
 31
0.0
  0
LINE
  5
271D
  8
AM_0
 10
133.689632147997
 20
242.14240014320441
 30
0.0
 11
133.189632147997
 21
241.91065562823741
 31
0.0
  0
ARC
  5
271E
  8
AM_0
 10
130.689632147997
 20
240.52071326576041
 30
0.0
 40
1.0000000000000291
 50
129.80557109226521
 51
180.0
  0
LINE
  5
271F
  8
AM_0
 10
133.689632147997
 20
232.98908821174541
 30
0.0
 11
133.189632147997
 21
232.48908821174541
 31
0.0
  0
LINE
  5
2720
  8
AM_0
 10
133.189632147997
 20
233.48908821174541
 30
0.0
 11
133.689632147997
 21
232.98908821174541
 31
0.0
  0
LINE
  5
2721
  8
AM_0
 10
133.689632147997
 20
233.83577628028641
 30
0.0
 11
133.189632147997
 21
233.48908821174541
 31
0.0
  0
LINE
  5
2722
  8
AM_0
 10
140.48963214799701
 20
220.48908821174541
 30
0.0
 11
142.689632147997
 21
220.48908821174541
 31
0.0
  0
ARC
  5
2723
  8
AM_0
 10
154.588303244343
 20
219.98908821174541
 30
0.0
 40
0.5
 50
0.0
 51
90.000000000006537
  0
LINE
  5
2724
  8
AM_0
 10
149.588303244343
 20
223.38908821174539
 30
0.0
 11
146.36600030299391
 21
223.38908821174539
 31
0.0
  0
LINE
  5
2725
  8
AM_0
 10
155.088303244343
 20
231.34515953315241
 30
0.0
 11
155.088303244343
 21
221.6330168903373
 31
0.0
  0
LINE
  5
2726
  8
AM_0
 10
150.088303244343
 20
231.84515953315241
 30
0.0
 11
154.588303244343
 21
231.84515953315241
 31
0.0
  0
ARC
  5
2727
  8
AM_0
 10
154.588303244343
 20
231.34515953315241
 30
0.0
 40
0.5
 50
0.0
 51
90.0
  0
LINE
  5
2728
  8
AM_0
 10
150.088303244343
 20
221.1330168903373
 30
0.0
 11
154.588303244343
 21
221.1330168903373
 31
0.0
  0
LINE
  5
2729
  8
AM_0
 10
154.58830324434291
 20
220.48908821174541
 30
0.0
 11
150.588303244343
 21
220.48908821174541
 31
0.0
  0
ARC
  5
272A
  8
AM_0
 10
154.588303244343
 20
221.6330168903373
 30
0.0
 40
0.5
 50
270.0
 51
0.0
  0
ARC
  5
272B
  8
AM_0
 10
149.588303244343
 20
222.88908821174539
 30
0.0
 40
0.5
 50
0.0
 51
90.0
  0
ARC
  5
272C
  8
AM_0
 10
150.588303244343
 20
220.98908821174541
 30
0.0
 40
0.5
 50
180.0
 51
270.0
  0
ARC
  5
272D
  8
AM_0
 10
143.8896321479971
 20
226.34391745945331
 30
0.0
 40
0.3000000000000114
 50
270.0
 51
0.0
  0
LINE
  5
272E
  8
AM_0
 10
142.689632147997
 20
231.48908821174339
 30
0.0
 11
143.8896321479971
 21
231.48908821174339
 31
0.0
  0
ARC
  5
272F
  8
AM_0
 10
143.8896321479971
 20
231.78908821174329
 30
0.0
 40
0.2999999999999971
 50
270.0
 51
0.0
  0
LINE
  5
2730
  8
AM_0
 10
142.689632147997
 20
227.81616064588641
 30
0.0
 11
143.8896321479971
 21
227.81616064588641
 31
0.0
  0
ARC
  5
2731
  8
AM_0
 10
143.8896321479971
 20
227.5161606458862
 30
0.0
 40
0.3000000000000007
 50
0.0
 51
90.0
  0
LINE
  5
2732
  8
AM_0
 10
144.189632147997
 20
227.5161606458864
 30
0.0
 11
144.189632147997
 21
226.34391745945339
 31
0.0
  0
LINE
  5
2733
  8
AM_0
 10
145.61600030299391
 20
222.63908821174539
 30
0.0
 11
146.01157081591791
 21
222.63908821174539
 31
0.0
  0
LINE
  5
2734
  8
AM_0
 10
145.61600030299391
 20
222.63908821174539
 30
0.0
 11
146.01157081591791
 21
222.63908821174539
 31
0.0
  0
LINE
  5
2735
  8
AM_0
 10
146.10816331045709
 20
222.71320597848191
 30
0.0
 11
146.2694078084549
 21
223.3149704450089
 31
0.0
  0
LINE
  5
2736
  8
AM_0
 10
146.10816331045709
 20
222.71320597848191
 30
0.0
 11
146.2694078084549
 21
223.3149704450089
 31
0.0
  0
ARC
  5
2737
  8
AM_0
 10
146.36600030299391
 20
223.28908821174539
 30
0.0
 40
0.0999999999999943
 50
90.0
 51
164.99980499348811
  0
ARC
  5
2738
  8
AM_0
 10
146.01157081591791
 20
222.73908821174541
 30
0.0
 40
0.0999999999999943
 50
270.0
 51
344.99980499349448
  0
LINE
  5
2739
  8
AM_0
 10
144.68878555945591
 20
223.0140882117451
 30
0.0
 11
144.7694078084549
 21
223.3149704450089
 31
0.0
  0
LINE
  5
273A
  8
AM_0
 10
145.34101389654899
 20
223.34982367864731
 30
0.0
 11
145.5194078084549
 21
222.71320597848191
 31
0.0
  0
LINE
  5
273B
  8
AM_0
 10
145.35816331045709
 20
223.3149704450089
 30
0.0
 11
145.5194078084549
 21
222.71320597848191
 31
0.0
  0
LINE
  5
273C
  8
AM_0
 10
144.189632147997
 20
223.20225523123639
 30
0.0
 11
144.189632147997
 21
222.54534024758539
 31
0.0
  0
LINE
  5
273D
  8
AM_0
 10
144.689632147997
 20
223.0172476801834
 30
0.0
 11
144.7694078084549
 21
223.3149704450089
 31
0.0
  0
LINE
  5
273E
  8
AM_0
 10
142.689632147997
 20
223.50225523123649
 30
0.0
 11
143.8896321479971
 21
223.50225523123649
 31
0.0
  0
LINE
  5
273F
  8
AM_0
 10
143.8896321479971
 20
226.04391745945341
 30
0.0
 11
142.689632147997
 21
226.04391745945239
 31
0.0
  0
LINE
  5
2740
  8
AM_0
 10
145.29420308143301
 20
223.38908821174539
 30
0.0
 11
145.34101389654899
 21
223.34982367864731
 31
0.0
  0
LINE
  5
2741
  8
AM_0
 10
144.86600030299391
 20
223.38908821174539
 30
0.0
 11
145.29420308143301
 21
223.38908821174539
 31
0.0
  0
LINE
  5
2742
  8
AM_0
 10
144.86600030299391
 20
223.38908821174539
 30
0.0
 11
145.26157081591791
 21
223.38908821174539
 31
0.0
  0
ARC
  5
2743
  8
AM_0
 10
144.86600030299391
 20
223.28908821174539
 30
0.0
 40
0.0999999999999943
 50
90.0
 51
164.99980499348811
  0
ARC
  5
2744
  8
AM_0
 10
145.26157081591791
 20
223.28908821174539
 30
0.0
 40
0.0999999999999608
 50
15.00019500651173
 51
90.0
  0
ARC
  5
2745
  8
AM_0
 10
143.8896321479971
 20
223.20225523123639
 30
0.0
 40
0.3000000000000007
 50
0.0
 51
90.0
  0
LINE
  5
2746
  8
AM_0
 10
142.689632147997
 20
221.48908821174541
 30
0.0
 11
144.189632147997
 21
221.48908821174541
 31
0.0
  0
LINE
  5
2747
  8
AM_0
 10
143.8896321479971
 20
222.2453402475854
 30
0.0
 11
142.689632147997
 21
222.2453402475854
 31
0.0
  0
LINE
  5
2748
  8
AM_0
 10
143.9095878511541
 20
221.17041859195541
 30
0.0
 11
142.689632147997
 21
221.08908821174541
 31
0.0
  0
ARC
  5
2749
  8
AM_0
 10
144.189632147997
 20
221.98908821174541
 30
0.0
 40
0.5
 50
270.0
 51
0.0
  0
ARC
  5
274A
  8
AM_0
 10
145.61600030299391
 20
222.73908821174541
 30
0.0
 40
0.0999999999999606
 50
195.00019500650541
 51
270.0
  0
ARC
  5
274B
  8
AM_0
 10
143.8896321479971
 20
222.54534024758539
 30
0.0
 40
0.2999999999999971
 50
270.0
 51
0.0
  0
LINE
  5
274C
  8
AM_0
 10
144.189632147997
 20
221.48908821174541
 30
0.0
 11
144.189632147997
 21
221.46975413931241
 31
0.0
  0
ARC
  5
274D
  8
AM_0
 10
143.8896321479971
 20
221.46975413931241
 30
0.0
 40
0.3000000000000043
 50
273.81407483428171
 51
0.0
  0
ARC
  5
274E
  8
AM_0
 10
155.588303244343
 20
219.48908821174541
 30
0.0
 40
0.5
 50
180.0
 51
270.0
  0
LINE
  5
274F
  8
AM_0
 10
155.088303244343
 20
219.48908821174541
 30
0.0
 11
155.088303244343
 21
219.98908821174541
 31
0.0
  0
LINE
  5
2750
  8
AM_0
 10
133.689632147997
 20
222.83577628028641
 30
0.0
 11
140.189632147997
 21
222.83577628028641
 31
0.0
  0
LINE
  5
2751
  8
AM_0
 10
133.689632147997
 20
231.14240014320441
 30
0.0
 11
140.189632147997
 21
231.14240014320441
 31
0.0
  0
LINE
  5
2752
  8
AM_0
 10
133.051682083179
 20
221.48908821174541
 30
0.0
 11
139.8896321479971
 21
221.48908821174541
 31
0.0
  0
LINE
  5
2753
  8
AM_0
 10
140.189632147997
 20
231.48908821174541
 30
0.0
 11
133.189632147997
 21
231.48908821174541
 31
0.0
  0
LINE
  5
2754
  8
AM_0
 10
133.689632147997
 20
231.98908821174541
 30
0.0
 11
140.189632147997
 21
231.98908821174541
 31
0.0
  0
LINE
  5
2755
  8
AM_0
 10
140.189632147997
 20
221.85580838309741
 30
0.0
 11
133.689632147997
 21
221.85580838309741
 31
0.0
  0
LINE
  5
2756
  8
AM_0
 10
140.189632147997
 20
222.35580838309741
 30
0.0
 11
133.689632147997
 21
222.35580838309741
 31
0.0
  0
ARC
  5
2757
  8
AM_0
 10
139.8896321479971
 20
221.1890882117454
 30
0.0
 40
0.3000000000000043
 50
0.0
 51
90.0
  0
ARC
  5
2758
  8
AM_0
 10
140.48963214799701
 20
220.78908821174539
 30
0.0
 40
0.2999999999999971
 50
180.0
 51
270.0
  0
ARC
  5
2759
  8
AM_0
 10
141.814632147997
 20
226.98908821174541
 30
0.0
 40
9.124999999999984
 50
152.92493329271929
 51
207.07506670728071
  0
LINE
  5
275A
  8
AM_0
 10
133.189632147997
 20
231.48908821174541
 30
0.0
 11
133.689632147997
 21
231.14240014320441
 31
0.0
  0
LINE
  5
275B
  8
AM_0
 10
133.689632147997
 20
231.98908821174541
 30
0.0
 11
133.189632147997
 21
231.48908821174541
 31
0.0
  0
LINE
  5
275C
  8
AM_0
 10
130.0494477483324
 20
223.6892418781319
 30
0.0
 11
132.41149768351451
 21
221.72086693214791
 31
0.0
  0
LINE
  5
275D
  8
AM_0
 10
133.689632147997
 20
221.48908821174541
 30
0.0
 11
133.189632147997
 21
222.06752079525239
 31
0.0
  0
ARC
  5
275E
  8
AM_0
 10
133.051682083179
 20
222.48908821174541
 30
0.0
 40
1.0000000000000411
 50
230.19442890774391
 51
270.0
  0
LINE
  5
275F
  8
AM_0
 10
133.189632147997
 20
223.06752079525251
 30
0.0
 11
133.689632147997
 21
222.83577628028641
 31
0.0
  0
LINE
  5
2760
  8
AM_0
 10
133.689632147997
 20
222.35580838309741
 30
0.0
 11
133.189632147997
 21
223.06752079525251
 31
0.0
  0
LINE
  5
2761
  8
AM_0
 10
133.189632147997
 20
222.52979606822441
 30
0.0
 11
133.689632147997
 21
222.35580838309741
 31
0.0
  0
LINE
  5
2762
  8
AM_0
 10
133.689632147997
 20
221.85580838309741
 30
0.0
 11
133.189632147997
 21
222.52979606822441
 31
0.0
  0
LINE
  5
2763
  8
AM_0
 10
133.189632147997
 20
222.06752079525239
 30
0.0
 11
133.689632147997
 21
221.85580838309741
 31
0.0
  0
ARC
  5
2764
  8
AM_0
 10
130.689632147997
 20
224.45746315772931
 30
0.0
 40
1.0
 50
180.0
 51
230.19442890773479
  0
CIRCLE
  5
2765
  8
AM_0
 10
164.08830324434129
 20
273.48908821174501
 30
0.0
 40
4.0
  0
LINE
  5
2766
  8
AM_0
 10
163.77680324434121
 20
271.21027980602071
 30
0.0
 11
164.39980324434131
 21
271.21027980602071
 31
0.0
  0
LINE
  5
2767
  8
AM_0
 10
163.77680324434121
 20
275.76789661746938
 30
0.0
 11
164.39980324434131
 21
275.76789661746938
 31
0.0
  0
LINE
  5
2768
  8
AM_0
 10
163.77680324434121
 20
271.21027980602071
 30
0.0
 11
163.77680324434121
 21
273.17758821174499
 31
0.0
  0
LINE
  5
2769
  8
AM_0
 10
163.77680324434121
 20
273.80058821174498
 30
0.0
 11
163.77680324434121
 21
275.76789661746938
 31
0.0
  0
LINE
  5
276A
  8
AM_0
 10
163.77680324434121
 20
273.80058821174498
 30
0.0
 11
161.8094948386169
 21
273.80058821174498
 31
0.0
  0
LINE
  5
276B
  8
AM_0
 10
163.77680324434121
 20
273.17758821174499
 30
0.0
 11
161.8094948386169
 21
273.17758821174499
 31
0.0
  0
LINE
  5
276C
  8
AM_0
 10
161.8094948386169
 20
273.80058821174498
 30
0.0
 11
161.8094948386169
 21
273.17758821174499
 31
0.0
  0
LINE
  5
276D
  8
AM_0
 10
164.39980324434131
 20
271.21027980602071
 30
0.0
 11
164.39980324434131
 21
273.17758821174499
 31
0.0
  0
LINE
  5
276E
  8
AM_0
 10
164.39980324434131
 20
273.80058821174498
 30
0.0
 11
164.39980324434131
 21
275.76789661746938
 31
0.0
  0
LINE
  5
276F
  8
AM_0
 10
166.36711165006571
 20
273.17758821174499
 30
0.0
 11
164.39980324434131
 21
273.17758821174499
 31
0.0
  0
LINE
  5
2770
  8
AM_0
 10
166.36711165006571
 20
273.80058821174498
 30
0.0
 11
164.39980324434131
 21
273.80058821174498
 31
0.0
  0
LINE
  5
2771
  8
AM_0
 10
166.36711165006571
 20
273.80058821174498
 30
0.0
 11
166.36711165006571
 21
273.17758821174499
 31
0.0
  0
CIRCLE
  5
2772
  8
AM_0
 10
250.08830324434479
 20
273.48908821174501
 30
0.0
 40
4.0
  0
LINE
  5
2773
  8
AM_0
 10
249.7768032443449
 20
271.21027980602048
 30
0.0
 11
250.39980324434481
 21
271.21027980602048
 31
0.0
  0
LINE
  5
2774
  8
AM_0
 10
249.7768032443449
 20
275.76789661746932
 30
0.0
 11
250.39980324434481
 21
275.76789661746932
 31
0.0
  0
LINE
  5
2775
  8
AM_0
 10
249.7768032443449
 20
271.21027980602048
 30
0.0
 11
249.7768032443449
 21
273.17758821174499
 31
0.0
  0
LINE
  5
2776
  8
AM_0
 10
249.7768032443449
 20
273.80058821174498
 30
0.0
 11
249.7768032443449
 21
275.76789661746932
 31
0.0
  0
LINE
  5
2777
  8
AM_0
 10
249.7768032443449
 20
273.80058821174498
 30
0.0
 11
247.80949483862051
 21
273.80058821174498
 31
0.0
  0
LINE
  5
2778
  8
AM_0
 10
249.7768032443449
 20
273.17758821174499
 30
0.0
 11
247.80949483862051
 21
273.17758821174499
 31
0.0
  0
LINE
  5
2779
  8
AM_0
 10
247.80949483862051
 20
273.80058821174498
 30
0.0
 11
247.80949483862051
 21
273.17758821174499
 31
0.0
  0
LINE
  5
277A
  8
AM_0
 10
250.39980324434481
 20
271.21027980602048
 30
0.0
 11
250.39980324434481
 21
273.17758821174499
 31
0.0
  0
LINE
  5
277B
  8
AM_0
 10
250.39980324434481
 20
273.80058821174498
 30
0.0
 11
250.39980324434481
 21
275.76789661746932
 31
0.0
  0
LINE
  5
277C
  8
AM_0
 10
252.36711165006921
 20
273.17758821174499
 30
0.0
 11
250.39980324434481
 21
273.17758821174499
 31
0.0
  0
LINE
  5
277D
  8
AM_0
 10
252.36711165006921
 20
273.80058821174498
 30
0.0
 11
250.39980324434481
 21
273.80058821174498
 31
0.0
  0
LINE
  5
277E
  8
AM_0
 10
252.36711165006921
 20
273.80058821174498
 30
0.0
 11
252.36711165006921
 21
273.17758821174499
 31
0.0
  0
LINE
  5
277F
  8
AM_0
 10
177.62383715027599
 20
277.02462211767812
 30
0.0
 11
160.5527693384102
 21
259.95355430581287
 31
0.0
  0
LINE
  5
2780
  8
AM_0
 10
178.28069139976819
 20
272.02462211767812
 30
0.0
 11
165.5527693384102
 21
259.29670005632028
 31
0.0
  0
ARC
  5
2781
  8
AM_0
 10
169.088303244343
 20
255.7611661503874
 30
0.0
 40
5.0
 50
135.0
 51
180.0
1001
GENIUS_GENOBJ-N-FIL_13
1002
{
1000
OWNER
1000
GEN
1002
}
1001
GENIUS_GENODEF_13
1002
{
1000
HIER
1070
     0
1002
}
1002
{
1000
MANEDIT
1070
     0
1002
}
1002
{
1000
NOSEL
1070
     0
1002
}
1002
{
1000
BEHIND
1070
     0
1002
}
1002
{
1000
OTHER
1070
     0
1002
}
1002
{
1000
REACTOR
1002
}
  0
LINE
  5
2782
  8
AM_0
 10
236.55276933841029
 20
187.9535543058125
 30
0.0
 11
253.62383715027579
 21
205.02462211767781
 31
0.0
  0
ARC
  5
2783
  8
AM_0
 10
233.01723543247761
 20
191.48908821174521
 30
0.0
 40
5.0
 50
270.0
 51
315.0
1001
GENIUS_GENODEF_13
1002
{
1000
HIER
1070
     0
1002
}
1002
{
1000
MANEDIT
1070
     0
1002
}
1002
{
1000
NOSEL
1070
     0
1002
}
1002
{
1000
BEHIND
1070
     0
1002
}
1002
{
1000
OTHER
1070
     0
1002
}
1002
{
1000
REACTOR
1002
}
1001
GENIUS_GENOBJ-N-FIL_13
1002
{
1000
OWNER
1000
GEN
1002
}
  0
LINE
  5
2784
  8
AM_0
 10
235.89591508891809
 20
192.9535543058125
 30
0.0
 11
248.62383715027579
 21
205.68147636717021
 31
0.0
  0
ARC
  5
2785
  8
AM_0
 10
245.08830324434319
 20
209.21701027310289
 30
0.0
 40
5.0
 50
315.0
 51
0.0
1001
GENIUS_GENOBJ-N-FIL_13
1002
{
1000
OWNER
1000
GEN
1002
}
1001
GENIUS_GENODEF_13
1002
{
1000
HIER
1070
     0
1002
}
1002
{
1000
MANEDIT
1070
     0
1002
}
1002
{
1000
NOSEL
1070
     0
1002
}
1002
{
1000
BEHIND
1070
     0
1002
}
1002
{
1000
OTHER
1070
     0
1002
}
1002
{
1000
REACTOR
1002
}
  0
LINE
  5
2786
  8
AM_0
 10
177.62383715027579
 20
187.9535543058125
 30
0.0
 11
160.5527693384102
 21
205.02462211767769
 31
0.0
  0
LINE
  5
2787
  8
AM_0
 10
178.28069139976799
 20
192.9535543058125
 30
0.0
 11
165.5527693384102
 21
205.68147636717021
 31
0.0
  0
ARC
  5
2788
  8
AM_0
 10
181.8162253057007
 20
196.4890882117451
 30
0.0
 40
5.0
 50
225.0
 51
270.0
1001
GENIUS_GENOBJ-N-FIL_13
1002
{
1000
OWNER
1000
GEN
1002
}
1001
GENIUS_GENODEF_13
1002
{
1000
HIER
1070
     0
1002
}
1002
{
1000
MANEDIT
1070
     0
1002
}
1002
{
1000
NOSEL
1070
     0
1002
}
1002
{
1000
BEHIND
1070
     0
1002
}
1002
{
1000
OTHER
1070
     0
1002
}
1002
{
1000
REACTOR
1002
}
  0
CIRCLE
  5
2789
  8
AM_0
 10
164.0883032443412
 20
191.48908821174561
 30
0.0
 40
4.0
  0
LINE
  5
278A
  8
AM_0
 10
163.77680324434121
 20
193.76789661747
 30
0.0
 11
164.3998032443412
 21
193.76789661747
 31
0.0
  0
LINE
  5
278B
  8
AM_0
 10
163.77680324434121
 20
189.21027980602119
 30
0.0
 11
164.3998032443412
 21
189.21027980602119
 31
0.0
  0
LINE
  5
278C
  8
AM_0
 10
163.77680324434121
 20
193.76789661747
 30
0.0
 11
163.77680324434121
 21
191.80058821174561
 31
0.0
  0
LINE
  5
278D
  8
AM_0
 10
163.77680324434121
 20
191.17758821174559
 30
0.0
 11
163.77680324434121
 21
189.21027980602119
 31
0.0
  0
LINE
  5
278E
  8
AM_0
 10
163.77680324434121
 20
191.17758821174559
 30
0.0
 11
161.80949483861681
 21
191.17758821174559
 31
0.0
  0
LINE
  5
278F
  8
AM_0
 10
163.77680324434121
 20
191.80058821174561
 30
0.0
 11
161.80949483861681
 21
191.80058821174561
 31
0.0
  0
LINE
  5
2790
  8
AM_0
 10
161.80949483861681
 20
191.17758821174559
 30
0.0
 11
161.80949483861681
 21
191.80058821174561
 31
0.0
  0
LINE
  5
2791
  8
AM_0
 10
164.3998032443412
 20
193.76789661747
 30
0.0
 11
164.3998032443412
 21
191.80058821174561
 31
0.0
  0
LINE
  5
2792
  8
AM_0
 10
164.3998032443412
 20
191.17758821174559
 30
0.0
 11
164.3998032443412
 21
189.21027980602119
 31
0.0
  0
LINE
  5
2793
  8
AM_0
 10
166.36711165006551
 20
191.80058821174561
 30
0.0
 11
164.3998032443412
 21
191.80058821174561
 31
0.0
  0
LINE
  5
2794
  8
AM_0
 10
166.36711165006551
 20
191.17758821174559
 30
0.0
 11
164.3998032443412
 21
191.17758821174559
 31
0.0
  0
LINE
  5
2795
  8
AM_0
 10
166.36711165006551
 20
191.17758821174559
 30
0.0
 11
166.36711165006551
 21
191.80058821174561
 31
0.0
  0
CIRCLE
  5
2796
  8
AM_0
 10
250.0883032443447
 20
191.48908821174541
 30
0.0
 40
4.0
  0
LINE
  5
2797
  8
AM_0
 10
249.77680324434471
 20
193.76789661746989
 30
0.0
 11
250.39980324434481
 21
193.76789661746989
 31
0.0
  0
LINE
  5
2798
  8
AM_0
 10
249.77680324434471
 20
189.21027980602111
 30
0.0
 11
250.39980324434481
 21
189.21027980602111
 31
0.0
  0
LINE
  5
2799
  8
AM_0
 10
249.77680324434471
 20
193.76789661746989
 30
0.0
 11
249.77680324434471
 21
191.80058821174541
 31
0.0
  0
LINE
  5
279A
  8
AM_0
 10
249.77680324434471
 20
191.17758821174539
 30
0.0
 11
249.77680324434471
 21
189.21027980602111
 31
0.0
  0
LINE
  5
279B
  8
AM_0
 10
249.77680324434471
 20
191.17758821174539
 30
0.0
 11
247.8094948386204
 21
191.17758821174539
 31
0.0
  0
LINE
  5
279C
  8
AM_0
 10
249.77680324434471
 20
191.80058821174541
 30
0.0
 11
247.8094948386204
 21
191.80058821174541
 31
0.0
  0
LINE
  5
279D
  8
AM_0
 10
247.8094948386204
 20
191.17758821174539
 30
0.0
 11
247.8094948386204
 21
191.80058821174541
 31
0.0
  0
LINE
  5
279E
  8
AM_0
 10
250.39980324434481
 20
193.76789661746989
 30
0.0
 11
250.39980324434481
 21
191.80058821174541
 31
0.0
  0
LINE
  5
279F
  8
AM_0
 10
250.39980324434481
 20
191.17758821174539
 30
0.0
 11
250.39980324434481
 21
189.21027980602111
 31
0.0
  0
LINE
  5
27A0
  8
AM_0
 10
252.36711165006909
 20
191.80058821174541
 30
0.0
 11
250.39980324434481
 21
191.80058821174541
 31
0.0
  0
LINE
  5
27A1
  8
AM_0
 10
252.36711165006909
 20
191.17758821174539
 30
0.0
 11
250.39980324434481
 21
191.17758821174539
 31
0.0
  0
LINE
  5
27A2
  8
AM_0
 10
252.36711165006909
 20
191.17758821174539
 30
0.0
 11
252.36711165006909
 21
191.80058821174541
 31
0.0
  0
LINE
  5
27A3
  8
AM_0
 10
159.088303244343
 20
201.4890882117453
 30
0.0
 11
158.088303244343
 21
201.4890882117453
 31
0.0
  0
LINE
  5
27A4
  8
AM_0
 10
159.088303244343
 20
263.48908821174541
 30
0.0
 11
158.088303244343
 21
263.4890882117453
 31
0.0
  0
LINE
  5
27A5
  8
AM_0
 10
158.088303244343
 20
201.4890882117453
 30
0.0
 11
158.088303244343
 21
263.4890882117453
 31
0.0
  0
LINE
  5
27EA
  8
ﾁｭｳｼﾝｾﾝ1
 10
164.08830324434101
 20
267.48908821174501
 30
0.0
 11
164.0883032443414
 21
279.4890882117449
 31
0.0
  0
LINE
  5
27EB
  8
ﾁｭｳｼﾝｾﾝ1
 10
170.08830324434129
 20
273.48908821174467
 30
0.0
 11
158.08830324434129
 21
273.48908821174541
 31
0.0
  0
LINE
  5
27EC
  8
ﾁｭｳｼﾝｾﾝ1
 10
164.08830324434081
 20
185.48908821174561
 30
0.0
 11
164.0883032443414
 21
197.48908821174561
 31
0.0
  0
LINE
  5
27ED
  8
ﾁｭｳｼﾝｾﾝ1
 10
170.0883032443412
 20
191.48908821174541
 30
0.0
 11
158.08830324434109
 21
191.48908821174581
 31
0.0
  0
LINE
  5
27EE
  8
ﾁｭｳｼﾝｾﾝ1
 10
250.08830324434439
 20
185.48908821174541
 30
0.0
 11
250.08830324434501
 21
197.48908821174541
 31
0.0
  0
LINE
  5
27EF
  8
ﾁｭｳｼﾝｾﾝ1
 10
256.08830324434467
 20
191.48908821174521
 30
0.0
 11
244.0883032443447
 21
191.48908821174581
 31
0.0
  0
LINE
  5
404B
  8
AM_0
 10
372.08826324434278
 20
285.98909821174522
 30
0.0
 11
377.08826324434278
 21
280.98909821174527
 31
0.0
  0
LINE
  5
404C
  8
AM_0
 10
367.58826324434278
 20
285.98909821174522
 30
0.0
 11
372.08826324434278
 21
285.98909821174522
 31
0.0
  0
LINE
  5
404D
  8
AM_0
 10
367.08826324434278
 20
285.4890982117451
 30
0.0
 11
367.08826324434273
 21
264.29206421174513
 31
0.0
  0
LINE
  5
404E
  8
AM_0
 10
377.08826324434278
 20
280.98909821174527
 30
0.0
 11
377.08826324434278
 21
223.9890982117453
 31
0.0
  0
LINE
  5
404F
  8
AM_0
 10
368.0883532443429
 20
218.9890982117451
 30
0.0
 11
372.08826324434278
 21
218.9890982117451
 31
0.0
  0
LINE
  5
4050
  8
AM_0
 10
372.08826324434278
 20
218.9890982117451
 30
0.0
 11
377.08826324434278
 21
223.9890982117453
 31
0.0
  0
LINE
  5
4051
  8
AM_0
 10
367.58826324434278
 20
285.98909821174522
 30
0.0
 11
367.08826324434278
 21
285.4890982117451
 31
0.0
1001
GENIUS_GENFIL_13
1070
     0
1040
0.5
1040
0.5
1040
20.0
1040
0.0
1002
{
1002
}
1001
GENIUS_GENOBJ-N-CHA_13
1002
{
1000
OWNER
1000
GEN
1002
}
1001
GENIUS_GENODEF_13
1002
{
1000
HIER
1070
     0
1002
}
1002
{
1000
MANEDIT
1070
     0
1002
}
1002
{
1000
NOSEL
1070
     0
1002
}
1002
{
1000
BEHIND
1070
     0
1002
}
1002
{
1000
OTHER
1070
     0
1002
}
1002
{
1000
REACTOR
1002
}
  0
LINE
  5
4053
  8
AM_0
 10
372.08826324434278
 20
285.98909821174522
 30
0.0
 11
372.08826324434278
 21
218.9890982117451
 31
0.0
  0
CIRCLE
  5
4054
  8
AM_0
 10
628.95672894416498
 20
252.48910121174521
 30
0.0
 40
33.499999999999893
  0
CIRCLE
  5
4055
  8
AM_0
 10
628.95672894416498
 20
252.48910121174521
 30
0.0
 40
28.49999999999994
  0
LINE
  5
4500
  8
AM_0
 10
513.95672894416521
 20
186.48724578415761
 30
0.0
 11
545.78525339469218
 21
187.5987223497568
 31
0.0
  0
LINE
  5
4503
  8
AM_0
 10
543.95674794416504
 20
277.4396220359107
 30
0.0
 11
513.95672894416521
 21
278.48724578415772
 31
0.0
  0
LINE
  5
4505
  8
AM_0
 10
513.95672894416521
 20
278.48724578415772
 30
0.0
 11
513.95672894416521
 21
186.48724578415741
 31
0.0
  0
LINE
  5
4506
  8
ﾁｭｳｼﾝｾﾝ1
 10
502.95672894416521
 20
191.48724578415829
 30
0.0
 11
518.78425195670172
 21
191.4872457841582
 31
0.0
  0
LINE
  5
4507
  8
AM_0
 10
509.95672894416521
 20
278.48724578415772
 30
0.0
 11
509.95672894416521
 21
257.67274088462523
 31
0.0
  0
LINE
  5
4508
  8
AM_0
 10
509.95672894416521
 20
207.30175068368999
 30
0.0
 11
509.95672894416521
 21
186.4872457841584
 31
0.0
  0
LINE
  5
4509
  8
AM_0
 10
505.95672894416521
 20
272.3514641149971
 30
0.0
 11
505.95672894416521
 21
192.6230274533182
 31
0.0
  0
LINE
  5
450A
  8
AM_0
 10
507.89779143203742
 20
195.39460075646471
 30
0.0
 11
508.95672894416521
 21
195.48724578415809
 31
0.0
  0
LINE
  5
450B
  8
AM_0
 10
507.89779143203742
 20
187.5798908118517
 30
0.0
 11
508.95672894416521
 21
187.4872457841582
 31
0.0
  0
ARC
  5
450C
  8
AM_0
 10
512.3567289441653
 20
191.4872457841582
 30
0.0
 40
6.5
 50
151.82726586813479
 51
208.1727341318651
  0
ARC
  5
450D
  8
AM_0
 10
508.03724062043358
 20
189.1738023287985
 30
0.0
 40
1.6000000000000001
 50
208.1727341318651
 51
265.00000000000028
  0
LINE
  5
450E
  8
AM_0
 10
506.27725528273669
 20
193.7872457841581
 30
0.0
 11
508.5668149615322
 21
191.4872457841582
 31
0.0
  0
LINE
  5
450F
  8
AM_0
 10
508.25672894416522
 20
191.79874578415809
 30
0.0
 11
508.25672894416522
 21
191.1757457841581
 31
0.0
  0
LINE
  5
4510
  8
AM_0
 10
506.27725528273669
 20
189.18724578415811
 30
0.0
 11
508.5668149615322
 21
191.4872457841582
 31
0.0
  0
LINE
  5
4511
  8
AM_0
 10
505.86419725383041
 20
191.79874578415809
 30
0.0
 11
508.25672894416522
 21
191.79874578415809
 31
0.0
  0
LINE
  5
4512
  8
AM_0
 10
505.86419725383041
 20
191.1757457841581
 30
0.0
 11
508.25672894416522
 21
191.1757457841581
 31
0.0
  0
ARC
  5
4513
  8
AM_0
 10
508.03724062043358
 20
193.80068923951771
 30
0.0
 40
1.6000000000000001
 50
94.99999999999973
 51
151.82726586813479
  0
LINE
  5
4514
  8
AM_0
 10
509.95672894416521
 20
278.48724578415772
 30
0.0
 11
513.95672894416521
 21
278.48724578415772
 31
0.0
  0
LINE
  5
4515
  8
AM_0
 10
508.95672894416492
 20
277.48724578415749
 30
0.0
 11
509.95672894416532
 21
278.48724578415772
 31
0.0
  0
LINE
  5
4516
  8
AM_0
 10
513.95672894416521
 20
186.48724578415741
 30
0.0
 11
509.95672894416521
 21
186.4872457841584
 31
0.0
  0
LINE
  5
4517
  8
AM_0N
 10
509.95672894416521
 20
195.2872457841581
 30
0.0
 11
508.95672894416521
 21
195.2872457841581
 31
0.0
  0
LINE
  5
4518
  8
AM_0N
 10
508.95672894416521
 20
191.68724578415811
 30
0.0
 11
509.95672894416521
 21
192.05121601842441
 31
0.0
  0
LINE
  5
4519
  8
AM_0N
 10
508.95672894416521
 20
191.2872457841581
 30
0.0
 11
509.95672894416521
 21
191.65121601842441
 31
0.0
  0
LINE
  5
451A
  8
AM_0N
 10
508.95672894416521
 20
187.4872457841582
 30
0.0
 11
508.95672894416521
 21
195.48724578415809
 31
0.0
  0
LINE
  5
451B
  8
AM_0N
 10
508.95672894416521
 20
187.68724578415811
 30
0.0
 11
509.95672894416521
 21
187.68724578415811
 31
0.0
  0
LINE
  5
451C
  8
AM_0
 10
505.95672894416521
 20
207.3017506836899
 30
0.0
 11
509.95672894416521
 21
207.30175068368999
 31
0.0
  0
LINE
  5
451D
  8
AM_0
 10
509.95672894416521
 20
205.64489643419739
 30
0.0
 11
505.95672894416521
 21
207.3017506836899
 31
0.0
  0
LINE
  5
451E
  8
AM_0
 10
505.95672894416521
 20
257.67274088462523
 30
0.0
 11
509.95672894416521
 21
257.67274088462523
 31
0.0
  0
LINE
  5
451F
  8
AM_0
 10
509.95672894416521
 20
259.32959513411782
 30
0.0
 11
505.95672894416521
 21
257.67274088462523
 31
0.0
  0
LINE
  5
4520
  8
ﾁｭｳｼﾝｾﾝ1
 10
502.95672894416521
 20
273.48724578415693
 30
0.0
 11
518.78425195670172
 21
273.4872457841571
 31
0.0
  0
LINE
  5
4521
  8
AM_0
 10
507.89779143203742
 20
269.57989081185048
 30
0.0
 11
508.95672894416521
 21
269.4872457841571
 31
0.0
  0
LINE
  5
4522
  8
AM_0
 10
507.89779143203742
 20
277.39460075646338
 30
0.0
 11
508.95672894416521
 21
277.4872457841571
 31
0.0
  0
ARC
  5
4523
  8
AM_0
 10
512.3567289441653
 20
273.4872457841571
 30
0.0
 40
6.5
 50
151.82726586813479
 51
208.1727341318651
  0
ARC
  5
4524
  8
AM_0
 10
508.03724062043358
 20
275.80068923951671
 30
0.0
 40
1.6000000000000001
 50
94.99999999999973
 51
151.82726586813479
  0
LINE
  5
4525
  8
AM_0
 10
506.27725528273669
 20
271.18724578415708
 30
0.0
 11
508.5668149615322
 21
273.4872457841571
 31
0.0
  0
LINE
  5
4526
  8
AM_0
 10
508.25672894416522
 20
273.17574578415702
 30
0.0
 11
508.25672894416522
 21
273.79874578415712
 31
0.0
  0
LINE
  5
4527
  8
AM_0
 10
506.27725528273669
 20
275.78724578415688
 30
0.0
 11
508.5668149615322
 21
273.4872457841571
 31
0.0
  0
LINE
  5
4528
  8
AM_0
 10
505.86419725383041
 20
273.17574578415702
 30
0.0
 11
508.25672894416522
 21
273.17574578415702
 31
0.0
  0
LINE
  5
4529
  8
AM_0
 10
505.86419725383041
 20
273.79874578415712
 30
0.0
 11
508.25672894416522
 21
273.79874578415712
 31
0.0
  0
ARC
  5
452A
  8
AM_0
 10
508.03724062043358
 20
271.17380232879748
 30
0.0
 40
1.6000000000000001
 50
208.1727341318651
 51
265.00000000000028
  0
LINE
  5
452B
  8
AM_0N
 10
509.95672894416521
 20
269.68724578415703
 30
0.0
 11
508.95672894416521
 21
269.68724578415703
 31
0.0
  0
LINE
  5
452C
  8
AM_0N
 10
508.95672894416521
 20
273.28724578415688
 30
0.0
 11
509.95672894416521
 21
272.92327554989077
 31
0.0
  0
LINE
  5
452D
  8
AM_0N
 10
508.95672894416521
 20
273.68724578415703
 30
0.0
 11
509.95672894416521
 21
273.32327554989081
 31
0.0
  0
LINE
  5
452E
  8
AM_0N
 10
508.95672894416521
 20
277.4872457841571
 30
0.0
 11
508.95672894416521
 21
269.4872457841571
 31
0.0
  0
LINE
  5
452F
  8
AM_0N
 10
508.95672894416521
 20
277.28724578415688
 30
0.0
 11
509.95672894416521
 21
277.28724578415688
 31
0.0
  0
LINE
  5
5087
  8
AM_0
 10
299.08838324434282
 20
303.48908621174508
 30
0.0
 11
304.0883032443428
 21
303.48908621174508
 31
0.0
  0
LINE
  5
5088
  8
AM_0
 10
304.0883032443428
 20
303.48908621174508
 30
0.0
 11
304.0883032443428
 21
158.98908221174511
 31
0.0
  0
LINE
  5
5089
  8
AM_0
 10
267.08837324434302
 20
168.98909921174501
 30
0.0
 11
292.08830324434291
 21
168.33445121174509
 31
0.0
  0
LINE
  5
508A
  8
AM_0
 10
292.08830324434291
 20
281.98911521174512
 30
0.0
 11
292.08830324434291
 21
267.35642621174509
 31
0.0
  0
LINE
  5
508B
  8
AM_0
 10
267.08831324434288
 20
295.98908621174508
 30
0.0
 11
295.14068324434288
 21
296.72364521174512
 31
0.0
  0
LINE
  5
508C
  8
AM_0
 10
297.08831324434288
 20
301.48911821174511
 30
0.0
 11
297.08831324434288
 21
285.98908721174507
 31
0.0
  0
LINE
  5
508D
  8
ﾁｭｳｼﾝｾﾝ
 10
98.838132092519089
 20
232.48911521174509
 30
0.0
 11
294.36695788947429
 21
232.48911521174509
 31
0.0
  0
LINE
  5
508E
  8
AM_0
 10
292.08830324434291
 20
176.85909221174509
 30
0.0
 11
296.56829324434278
 21
176.85909221174509
 31
0.0
  0
LINE
  5
508F
  8
AM_0
 10
292.08830324434291
 20
265.35642521174509
 30
0.0
 11
296.52899324434298
 21
265.35642521174509
 31
0.0
  0
LINE
  5
5090
  8
AM_0
 10
294.08831324434288
 20
274.87711721174509
 30
0.0
 11
297.08831324434288
 21
274.87711721174509
 31
0.0
  0
LINE
  5
5091
  8
AM_0
 10
294.08831324434288
 20
283.98908621174508
 30
0.0
 11
295.0883032443428
 21
283.98908621174508
 31
0.0
  0
LINE
  5
5092
  8
AM_0
 10
292.08830324434291
 20
174.859094211745
 30
0.0
 11
292.08830324434291
 21
160.989083211745
 31
0.0
  0
LINE
  5
5093
  8
AM_0
 10
297.08831324434288
 20
274.87711721174509
 30
0.0
 11
297.08831324434288
 21
163.48908221174511
 31
0.0
  0
LINE
  5
5094
  8
AM_0
 10
267.08831324434288
 20
283.98908621174508
 30
0.0
 11
293.08838324434282
 21
283.98908621174508
 31
0.0
  0
LINE
  5
5095
  8
AM_0
 10
267.08831324434288
 20
269.63703521174511
 30
0.0
 11
292.08830324434291
 21
269.63703521174511
 31
0.0
  0
LINE
  5
5096
  8
AM_0
 10
267.08831324434288
 20
195.3411352117451
 30
0.0
 11
297.08831324434288
 21
195.3411352117451
 31
0.0
  0
LINE
  5
5097
  8
AM_0
 10
267.08831324434288
 20
180.98908421174511
 30
0.0
 11
297.08831324434288
 21
180.98908421174511
 31
0.0
  0
LINE
  5
5098
  8
AM_0
 10
267.08831324434288
 20
295.98908621174508
 30
0.0
 11
267.08831324434288
 21
168.9890212117451
 31
0.0
  0
LINE
  5
5099
  8
AM_0
 10
379.0883032443428
 20
267.48908621174508
 30
0.0
 11
379.0883032443428
 21
264.48908621174508
 31
0.0
  0
LINE
  5
509A
  8
ﾁｭｳｼﾝｾﾝ
 10
417.23496133054221
 20
252.48910121174521
 30
0.0
 11
287.04163997162459
 21
252.48910121174521
 31
0.0
  0
LINE
  5
509B
  8
AM_0
 10
377.08826324434278
 20
240.48910121174509
 30
0.0
 11
411.08831324434283
 21
240.48910121174509
 31
0.0
  0
LINE
  5
509C
  8
AM_0
 10
377.08826324434278
 20
264.48908621174502
 30
0.0
 11
411.08831324434283
 21
264.48908621174508
 31
0.0
  0
LINE
  5
509E
  8
AM_0
 10
411.08831324434283
 20
267.48908621174508
 30
0.0
 11
411.08831324434283
 21
240.48910121174509
 31
0.0
  0
LINE
  5
50A1
  8
AM_0
 10
379.0883032443428
 20
267.48908621174508
 30
0.0
 11
411.08831324434283
 21
267.48908621174508
 31
0.0
  0
LINE
  5
50A2
  8
AM_0
 10
624.95672994416498
 20
267.48908621174508
 30
0.0
 11
632.95671294416525
 21
267.48908621174508
 31
0.0
  0
LINE
  5
50A3
  8
AM_0
 10
624.95672994416498
 20
260.4890992117451
 30
0.0
 11
632.95671294416525
 21
260.4890992117451
 31
0.0
  0
LINE
  5
50A4
  8
AM_0
 10
624.95672994416498
 20
267.48908621174508
 30
0.0
 11
624.95672994416498
 21
260.4890992117451
 31
0.0
  0
LINE
  5
50A5
  8
AM_0
 10
632.95671294416525
 20
267.48908621174508
 30
0.0
 11
632.95671294416525
 21
260.4890992117451
 31
0.0
  0
LINE
  5
50A6
  8
AM_0
 10
364.80056324434292
 20
284.71970621174512
 30
0.0
 11
367.08826324434278
 21
281.99334720460058
 31
0.0
  0
LINE
  5
50A8
  8
AM_0
 10
364.0883032443428
 20
169.98908321174511
 30
0.0
 11
364.0883032443428
 21
337.48908221174509
 31
0.0
  0
LINE
  5
50A9
  8
AM_0
 10
354.08831324434288
 20
172.2696622117451
 30
0.0
 11
354.08831324434288
 21
205.33475621174509
 31
0.0
  0
LINE
  5
50AA
  8
AM_0
 10
336.08831324434288
 20
316.56309221174507
 30
0.0
 11
336.08831324434288
 21
271.3339342117452
 31
0.0
  0
LINE
  5
50AB
  8
AM_0
 10
364.0883032443428
 20
322.48908221174509
 30
0.0
 11
368.0883532443429
 21
322.48908221174509
 31
0.0
  0
LINE
  5
50AC
  8
AM_0
 10
356.01851324434301
 20
337.2072622117451
 30
0.0
 11
364.0883032443428
 21
337.48905221174488
 31
0.0
  0
LINE
  5
50AD
  8
AM_0
 10
341.41385324434282
 20
321.5600422117451
 30
0.0
 11
351.19301324434292
 21
321.90153221174512
 31
0.0
  0
LINE
  5
50AE
  8
ﾁｭｳｼﾝｾﾝ
 10
538.98090894416509
 20
252.48910121174521
 30
0.0
 11
718.93254894416498
 21
252.48910121174521
 31
0.0
  0
LINE
  5
50AF
  8
ﾁｭｳｼﾝｾﾝ
 10
666.25749290160741
 20
232.48911521174509
 30
0.0
 11
591.65596498672301
 21
232.48911521174509
 31
0.0
  0
LINE
  5
50B0
  8
ﾁｭｳｼﾝｾﾝ
 10
628.95672894416498
 20
341.49122243389769
 30
0.0
 11
628.95672894416498
 21
154.70308564344941
 31
0.0
  0
LINE
  5
50B1
  8
AM_0
 10
680.95674594416528
 20
247.48911521174509
 30
0.0
 11
680.95674594416528
 21
230.4890992117451
 31
0.0
  0
LINE
  5
50B2
  8
AM_0
 10
562.01879994416515
 20
264.29206421174513
 30
0.0
 11
562.01879994416515
 21
264.29206421174513
 31
0.0
  0
LINE
  5
50B3
  8
AM_0
 10
364.0883032443428
 20
182.4890992117451
 30
0.0
 11
368.0883532443429
 21
182.4890992117451
 31
0.0
  0
LINE
  5
50B4
  8
AM_0
 10
684.63498294416524
 20
291.47541521174509
 30
0.0
 11
684.63498294416524
 21
291.47541521174509
 31
0.0
  0
LINE
  5
50B6
  8
AM_0
 10
695.89468794416518
 20
264.29206421174513
 30
0.0
 11
695.89468794416518
 21
264.29206421174513
 31
0.0
  0
LINE
  5
50B7
  8
AM_0
 10
368.0883532443429
 20
264.29206421174513
 30
0.0
 11
368.0883532443429
 21
182.4890992117451
 31
0.0
  0
LINE
  5
50B8
  8
AM_0
 10
573.27847494416528
 20
291.47544521174518
 30
0.0
 11
573.27847494416528
 21
291.47544521174518
 31
0.0
  0
LINE
  5
50B9
  8
AM_0
 10
354.08831324434288
 20
294.44074721174508
 30
0.0
 11
354.08831324434288
 21
335.20851221174507
 31
0.0
  0
LINE
  5
50BB
  8
ﾁｭｳｼﾝｾﾝ1
 10
549.76078156992639
 20
173.29312383750661
 30
0.0
 11
566.73134431840367
 21
190.26368658598361
 31
0.0
  0
LINE
  5
50BC
  8
AM_0
 10
543.95674794416504
 20
282.48908621174508
 30
0.0
 11
546.22439694416528
 21
325.7584822117451
 31
0.0
  0
LINE
  5
50BD
  8
AM_0
 10
598.95672894416521
 20
337.48911221174512
 30
0.0
 11
628.95672894416498
 21
337.48911221174512
 31
0.0
  0
LINE
  5
50BE
  8
AM_0
 10
590.95674294416517
 20
227.4890992117451
 30
0.0
 11
569.92285194416525
 21
227.4890992117451
 31
0.0
  0
LINE
  5
50BF
  8
AM_0
 10
543.95674794416504
 20
282.48908621174508
 30
0.0
 11
543.95674794416504
 21
252.48910121174521
 31
0.0
  0
LINE
  5
50C0
  8
AM_0
 10
598.95674394416517
 20
337.48908221174509
 30
0.0
 11
555.68731794416522
 21
335.22141221174508
 31
0.0
  0
LINE
  5
50C1
  8
AM_0
 10
341.0883532443429
 20
266.33396621174512
 30
0.0
 11
355.31906324434289
 21
266.33396621174512
 31
0.0
  0
LINE
  5
50C2
  8
AM_0
 10
358.0883032443428
 20
188.20774121174509
 30
0.0
 11
358.0883032443428
 21
319.27044221174521
 31
0.0
  0
LINE
  5
50C3
  8
AM_0
 10
356.01851324434301
 20
170.27089721174511
 30
0.0
 11
364.08833324434289
 21
169.98908321174511
 31
0.0
  0
LINE
  5
50C4
  8
AM_0
 10
304.0883032443428
 20
303.48908621174508
 30
0.0
 11
333.1668532443428
 21
304.25053121174511
 31
0.0
  0
LINE
  5
50C5
  8
AM_0
 10
543.95671794416523
 20
222.48908321174511
 30
0.0
 11
546.21148794416524
 21
179.46572321174509
 31
0.0
  0
LINE
  5
50C6
  8
AM_0
 10
543.95674794416504
 20
222.4890982117451
 30
0.0
 11
543.95674794416504
 21
252.48910121174521
 31
0.0
  0
LINE
  5
50C7
  8
AM_0
 10
556.19778594416505
 20
169.98908321174511
 30
0.0
 11
585.40747194416531
 21
169.98908321174511
 31
0.0
  0
LINE
  5
50C8
  8
AM_0
 10
672.50601594416526
 20
169.98908321174511
 30
0.0
 11
701.7156869441651
 21
169.98908321174511
 31
0.0
  0
LINE
  5
50C9
  8
AM_0
 10
713.9567309441652
 20
222.4890982117451
 30
0.0
 11
713.9567309441652
 21
252.48910121174521
 31
0.0
  0
LINE
  5
50CB
  8
AM_0
 10
658.95672894416532
 20
337.48911221174512
 30
0.0
 11
628.95672894416498
 21
337.48911221174512
 31
0.0
  0
LINE
  5
50CC
  8
AM_0
 10
304.0883032443428
 20
281.28614321174501
 30
0.0
 11
334.40657324434289
 21
281.28614321174501
 31
0.0
  0
LINE
  5
50CD
  8
AM_0
 10
304.08836324434287
 20
158.98908221174511
 30
0.0
 11
340.08836324434287
 21
157.48908221174511
 31
0.0
  0
LINE
  5
50CE
  8
AM_0
 10
340.08830324434291
 20
172.8995602117451
 30
0.0
 11
340.08830324434291
 21
157.48908221174511
 31
0.0
  0
LINE
  5
50CF
  8
AM_0
 10
341.06213324434299
 20
173.89920821174499
 30
0.0
 11
354.08831324434288
 21
174.24030221174499
 31
0.0
  0
LINE
  5
50D0
  8
AM_0
 10
368.01851324434301
 20
186.4915402117451
 30
0.0
 11
368.0883532443429
 21
186.4890982117451
 31
0.0
  0
LINE
  5
50D1
  8
AM_0
 10
337.53650324434278
 20
292.21775321174511
 30
0.0
 11
354.5738032443428
 21
292.21775321174511
 31
0.0
  0
LINE
  5
50D2
  8
AM_0
 10
576.95672694416521
 20
247.48911521174509
 30
0.0
 11
576.95672694416521
 21
230.4890992117451
 31
0.0
  0
LINE
  5
50D3
  8
AM_0
 10
566.15548794416486
 20
254.48909921174501
 30
0.0
 11
574.18448094416499
 21
254.48909921174501
 31
0.0
  0
LINE
  5
50D4
  8
AM_0
 10
661.95672894416498
 20
246.72281991441031
 30
0.0
 11
661.95672894416498
 21
232.48911521174509
 31
0.0
  0
LINE
  5
50D5
  8
AM_0
 10
566.15548794416486
 20
250.48911521174509
 30
0.0
 11
573.95672694416521
 21
250.48911521174509
 31
0.0
  0
LINE
  5
50D6
  8
AM_0
 10
671.56660794416518
 20
298.63450421174508
 30
0.0
 11
652.34597994416526
 21
279.41389121174512
 31
0.0
  0
LINE
  5
50D7
  8
AM_0
 10
675.10216194416523
 20
295.09898021174507
 30
0.0
 11
655.88151894416524
 21
275.87833721174508
 31
0.0
  0
LINE
  5
50D8
  8
AM_0
 10
586.34686494416485
 20
298.63450421174508
 30
0.0
 11
605.5675079441653
 21
279.4138612117452
 31
0.0
  0
LINE
  5
50D9
  8
AM_0
 10
600.82946994416523
 20
157.58396021174511
 30
0.0
 11
657.08401794416523
 21
157.58396021174511
 31
0.0
  0
LINE
  5
50DA
  8
AM_0
 10
666.95674494416517
 20
227.4890992117451
 30
0.0
 11
687.99062094416524
 21
227.4890992117451
 31
0.0
  0
LINE
  5
50DC
  8
AM_0
 10
630.95674494416494
 20
315.29037221174508
 30
0.0
 11
630.95674494416494
 21
307.26135221174508
 31
0.0
  0
LINE
  5
50DD
  8
AM_0
 10
626.95674294416494
 20
315.29037221174508
 30
0.0
 11
626.95674294416494
 21
307.26135221174508
 31
0.0
  0
LINE
  5
50DE
  8
AM_0
 10
582.81134094416529
 20
295.09895021174509
 30
0.0
 11
602.0319689441651
 21
275.87833721174508
 31
0.0
  0
LINE
  5
50DF
  8
AM_0
 10
691.75801494416521
 20
254.48909921174501
 30
0.0
 11
683.72899194416516
 21
254.48909921174501
 31
0.0
  0
LINE
  5
50E0
  8
AM_0
 10
691.75801494416521
 20
250.48911521174509
 30
0.0
 11
683.95674594416528
 21
250.48911521174509
 31
0.0
  0
LINE
  5
50E1
  8
AM_0
 10
585.40747194416531
 20
169.98908321174511
 30
0.0
 11
588.00555594416517
 21
174.4890982117451
 31
0.0
  0
LINE
  5
50E2
  8
AM_0
 10
672.50601594416526
 20
169.98908321174511
 30
0.0
 11
669.90793194416517
 21
174.4890982117451
 31
0.0
  0
LINE
  5
50E3
  8
AM_0
 10
304.0883032443428
 20
169.61901221174509
 30
0.0
 11
340.08830324434291
 21
169.61901221174509
 31
0.0
  0
LINE
  5
50E4
  8
AM_0
 10
336.08834324434281
 20
298.72275821174492
 30
0.0
 11
352.41746324434291
 21
306.7925542117452
 31
0.0
  0
LINE
  5
50E5
  8
AM_0
 10
338.0883532443429
 20
295.1462512117451
 30
0.0
 11
351.54440324434279
 21
295.1462512117451
 31
0.0
  0
LINE
  5
50E7
  8
AM_0
 10
713.9567309441652
 20
282.48908621174508
 30
0.0
 11
713.9567309441652
 21
252.48910121174521
 31
0.0
  0
LINE
  5
50E8
  8
AM_0
 10
713.95674594416505
 20
282.48908621174508
 30
0.0
 11
711.68909094416506
 21
325.7584822117451
 31
0.0
  0
LINE
  5
50E9
  8
AM_0
 10
713.95674594416505
 20
222.48908321174511
 30
0.0
 11
711.70198494416525
 21
179.46573821174499
 31
0.0
  0
LINE
  5
50EA
  8
AM_0
 10
658.95674394416517
 20
337.48908221174509
 30
0.0
 11
702.22615494416505
 21
335.22144221174511
 31
0.0
  0
LINE
  5
50EB
  8
AM_0
 10
588.00555594416517
 20
174.48908321174511
 30
0.0
 11
669.90794694416525
 21
174.48908321174511
 31
0.0
  0
LINE
  5
50EC
  8
AM_0
 10
595.95672894416498
 20
246.72281991441031
 30
0.0
 11
595.95672894416498
 21
232.48911521174509
 31
0.0
  0
LINE
  5
50ED
  8
AM_0
 10
364.0883032443428
 20
291.11372021174509
 30
0.0
 11
368.0883532443429
 21
291.11372021174509
 31
0.0
  0
LINE
  5
50EE
  8
AM_0
 10
364.0883032443428
 20
264.29206421174513
 30
0.0
 11
368.0883532443429
 21
264.29206421174513
 31
0.0
  0
LINE
  5
50EF
  8
AM_0
 10
368.0883532443429
 20
291.11372021174509
 30
0.0
 11
368.0883532443429
 21
322.48908221174509
 31
0.0
  0
LINE
  5
50F0
  8
AM_0
 10
576.39529494416524
 20
277.23310421174517
 30
0.0
 11
573.52029594416524
 21
272.25345821174511
 31
0.0
  0
LINE
  5
50F1
  8
AM_0
 10
606.57945594416515
 20
164.58397721174501
 30
0.0
 11
603.70445394416515
 21
159.60433121174509
 31
0.0
  0
LINE
  5
50F2
  8
AM_0
 10
603.70445394416515
 20
159.60431621174499
 30
0.0
 11
597.95445294416515
 21
159.60431621174499
 31
0.0
  0
LINE
  5
50F3
  8
AM_0
 10
597.95447094416522
 20
159.60431621174499
 30
0.0
 11
595.07945394416515
 21
164.58397721174501
 31
0.0
  0
LINE
  5
50F4
  8
AM_0
 10
595.07945394416515
 20
164.58397721174501
 30
0.0
 11
597.95445294416515
 21
169.5636232117451
 31
0.0
  0
LINE
  5
50F5
  8
AM_0
 10
603.70445394416515
 20
169.5636232117451
 30
0.0
 11
597.95445294416515
 21
169.5636232117451
 31
0.0
  0
LINE
  5
50F6
  8
AM_0
 10
606.57947094416522
 20
164.58397721174501
 30
0.0
 11
603.70446894416523
 21
169.5636232117451
 31
0.0
  0
LINE
  5
50F7
  8
AM_0
 10
662.83401894416522
 20
164.58397721174501
 30
0.0
 11
659.95901994416522
 21
169.5636232117451
 31
0.0
  0
LINE
  5
50F8
  8
AM_0
 10
659.95901994416522
 20
169.5636232117451
 30
0.0
 11
654.20903394416484
 21
169.5636232117451
 31
0.0
  0
LINE
  5
50F9
  8
AM_0
 10
651.33401694416523
 20
164.58396221174499
 30
0.0
 11
654.20903394416484
 21
169.5636232117451
 31
0.0
  0
LINE
  5
50FA
  8
AM_0
 10
654.20901894416522
 20
159.60433121174509
 30
0.0
 11
651.33401694416523
 21
164.58397721174501
 31
0.0
  0
LINE
  5
50FB
  8
AM_0
 10
659.95901994416522
 20
159.60431621174499
 30
0.0
 11
654.20903394416484
 21
159.60431621174499
 31
0.0
  0
LINE
  5
50FC
  8
AM_0
 10
662.83401894416522
 20
164.58397721174501
 30
0.0
 11
659.95901994416522
 21
159.60431621174499
 31
0.0
  0
LINE
  5
50FD
  8
AM_0
 10
573.52029594416524
 20
272.25345821174511
 30
0.0
 11
567.77029494416524
 21
272.25345821174511
 31
0.0
  0
LINE
  5
50FE
  8
AM_0
 10
567.77029494416524
 20
272.25342821174507
 30
0.0
 11
564.89529594416524
 21
277.23307421174502
 31
0.0
  0
LINE
  5
50FF
  8
AM_0
 10
564.89526594416498
 20
277.23310421174517
 30
0.0
 11
567.77026494416532
 21
282.21275021174512
 31
0.0
  0
LINE
  5
5100
  8
AM_0
 10
573.52029594416524
 20
282.21275021174512
 30
0.0
 11
567.77029494416524
 21
282.21275021174512
 31
0.0
  0
LINE
  5
5101
  8
AM_0
 10
576.39529494416524
 20
277.23307421174502
 30
0.0
 11
573.52029594416524
 21
282.21275021174512
 31
0.0
  0
LINE
  5
5102
  8
AM_0
 10
693.0182399441652
 20
277.233014211745
 30
0.0
 11
690.14323794416521
 21
272.253368211745
 31
0.0
  0
LINE
  5
5103
  8
AM_0
 10
690.14323794416521
 20
272.25339821174509
 30
0.0
 11
684.39323994416497
 21
272.25339821174509
 31
0.0
  0
LINE
  5
5104
  8
AM_0
 10
684.39323994416497
 20
272.253368211745
 30
0.0
 11
681.51822294416525
 21
277.2330442117451
 31
0.0
  0
LINE
  5
5105
  8
AM_0
 10
681.51822294416525
 20
277.2330442117451
 30
0.0
 11
684.39322194416525
 21
282.21268721174511
 31
0.0
  0
LINE
  5
5106
  8
AM_0
 10
690.14323794416521
 20
282.21268721174511
 30
0.0
 11
684.39323994416497
 21
282.21268721174511
 31
0.0
  0
LINE
  5
5107
  8
AM_0
 10
693.0182399441652
 20
277.233014211745
 30
0.0
 11
690.14323794416521
 21
282.21268721174511
 31
0.0
  0
LINE
  5
5108
  8
AM_0
 10
299.08838324434282
 20
161.48908121174509
 30
0.0
 11
304.0883032443428
 21
161.48908121174509
 31
0.0
  0
LINE
  5
5109
  8
AM_0
 10
294.08831324434288
 20
158.98908221174511
 30
0.0
 11
304.0883032443428
 21
158.98908221174511
 31
0.0
  0
ARC
  5
51E9
  8
AM_0
 10
299.08838324434282
 20
301.48911821174511
 30
0.0
 40
2.00000007
 50
90.00000299999769
 51
180.0000100000002
  0
ARC
  5
51EA
  8
AM_0
 10
295.0883032443428
 20
285.98908721174507
 30
0.0
 40
2.00000007
 50
270.0
 51
0.0
  0
ARC
  5
51EB
  8
AM_0
 10
294.08831324434288
 20
281.98911521174512
 30
0.0
 40
2.00000007
 50
90.00000299999769
 51
180.0000100000002
  0
ARC
  5
51EC
  8
AM_0
 10
294.08831324434288
 20
276.87711821174508
 30
0.0
 40
2.00000007
 50
179.9999899999998
 51
270.0
  0
ARC
  5
51ED
  8
AM_0
 10
290.08838324434282
 20
267.35642621174509
 30
0.0
 40
2.00000007
 50
270.0
 51
0.0
  0
ARC
  5
51EE
  8
AM_0
 10
290.08838324434282
 20
174.859094211745
 30
0.0
 40
2.00000007
 50
0.0
 51
90.00000299999769
  0
ARC
  5
51EF
  8
AM_0
 10
295.0883032443428
 20
298.72300421174509
 30
0.0
 40
2.00000007
 50
271.50000000000267
 51
0.0
  0
ARC
  5
51F0
  8
AM_0
 10
628.95672894416498
 20
252.48910121174521
 30
0.0
 40
12.0000003
 50
109.4712200000001
 51
70.528788999999307
  0
CIRCLE
  5
51F1
  8
AM_0
 10
628.95672894416498
 20
252.48910121174521
 30
0.0
 40
3.0
  0
CIRCLE
  5
51F2
  8
AM_5
 10
628.95672894416498
 20
252.48910121174521
 30
0.0
 40
4.0000001999999979
  0
ARC
  5
51F4
  8
AM_0
 10
341.0883532443429
 20
172.8995602117451
 30
0.0
 40
1.0000000199999981
 50
91.500001000001546
 51
180.0000100000002
  0
ARC
  5
51F5
  8
AM_0
 10
561.67151094416522
 20
262.32245921174513
 30
0.0
 40
2.00000007
 50
351.68540999999948
 51
79.999998000000929
  0
ARC
  5
51F6
  8
AM_0
 10
628.95672894416498
 20
252.48910121174521
 30
0.0
 40
66.000003000000007
 50
34.109953999998233
 51
145.89004000000139
  0
ARC
  5
51F7
  8
AM_0
 10
696.24199494416519
 20
262.32245921174513
 30
0.0
 40
2.00000007
 50
99.999999999998593
 51
188.31458999999981
  0
ARC
  5
51F8
  8
AM_0
 10
571.82730294416524
 20
291.18311621174507
 30
0.0
 40
3.0
 50
265.15681999999839
 51
325.89005000000031
  0
ARC
  5
51F9
  8
AM_0
 10
696.24199494416519
 20
262.32245921174513
 30
0.0
 40
2.00000007
 50
8.3145873999999225
 51
99.999999999998593
  0
ARC
  5
51FA
  8
AM_0
 10
687.26817894416524
 20
277.23310421174517
 30
0.0
 40
11.000000399999999
 50
311.14394000000323
 51
94.843180000001595
  0
ARC
  5
51FB
  8
AM_0
 10
333.08831324434288
 20
307.24953221174508
 30
0.0
 40
3.0
 50
271.50000000000267
 51
0.0
  0
ARC
  5
51FC
  8
AM_0
 10
574.42565994416532
 20
293.11372121174509
 30
0.0
 40
2.00000007
 50
235.00000000000259
 51
323.31459000000137
  0
ARC
  5
51FD
  8
AM_0
 10
341.0883532443429
 20
316.56309221174507
 30
0.0
 40
5.0000001000000003
 50
91.999998000000545
 51
180.0000100000002
  0
ARC
  5
51FE
  8
AM_0
 10
561.43396194416505
 20
266.69028821174498
 30
0.0
 40
3.0
 50
348.1228399999988
 51
48.856062999999523
  0
ARC
  5
51FF
  8
AM_0
 10
696.47952594416506
 20
266.69028821174498
 30
0.0
 40
3.0
 50
131.14394000000331
 51
191.87716000000111
  0
ARC
  5
5200
  8
AM_0
 10
355.08830324434291
 20
188.20774121174509
 30
0.0
 40
3.0
 50
270.0
 51
0.0
  0
ARC
  5
5201
  8
AM_0
 10
570.64529394416525
 20
277.23310421174517
 30
0.0
 40
11.000000399999999
 50
85.1568180000002
 51
228.8560599999966
  0
ARC
  5
5202
  8
AM_0
 10
628.95672894416498
 20
252.48910121174521
 30
0.0
 40
70.000001999999995
 50
30.534626999999471
 51
149.46536999999981
  0
ARC
  5
5203
  8
AM_0
 10
628.95672894416498
 20
252.48910121174521
 30
0.0
 40
66.000003000000007
 50
0.0
 51
11.87716199999964
  0
ARC
  5
5204
  8
AM_0
 10
628.95672894416498
 20
232.48911521174509
 30
0.0
 40
71.000000999999983
 50
301.50671999999952
 51
305.22420999999957
  0
ARC
  5
5205
  8
AM_0
 10
683.48782794416525
 20
293.11372121174509
 30
0.0
 40
2.00000007
 50
304.99999999999739
 51
36.685413999998168
  0
ARC
  5
5206
  8
AM_0
 10
628.95672894416498
 20
252.48910121174521
 30
0.0
 40
52.000007999999987
 50
137.75567000000299
 51
174.78408999999999
  0
ARC
  5
5207
  8
AM_0
 10
669.44528694416522
 20
300.75584021174512
 30
0.0
 40
3.0
 50
315.0
 51
50.008388000003357
  0
ARC
  5
5208
  8
AM_0
 10
628.95672894416498
 20
252.48910121174521
 30
0.0
 40
52.000007999999987
 50
5.2159077000001099
 51
42.244334000002823
  0
ARC
  5
5209
  8
AM_0
 10
356.0883532443429
 20
335.20851221174507
 30
0.0
 40
2.00000007
 50
91.999998000000545
 51
180.0000100000002
  0
ARC
  5
520A
  8
AM_0
 10
561.67151094416522
 20
262.32245921174513
 30
0.0
 40
2.00000007
 50
79.999998000000929
 51
171.68541000000019
  0
ARC
  5
520B
  8
AM_0
 10
628.95672894416498
 20
252.48910121174521
 30
0.0
 40
66.000003000000007
 50
168.12283999999869
 51
0.0000100179130762
  0
ARC
  5
520C
  8
AM_0
 10
574.42565994416532
 20
293.11372121174509
 30
0.0
 40
2.00000007
 50
143.31457999999751
 51
235.00000999999759
  0
ARC
  5
520D
  8
AM_0
 10
683.95674594416528
 20
230.4890992117451
 30
0.0
 40
3.0
 50
179.9999899999998
 51
270.0
  0
ARC
  5
520E
  8
AM_0
 10
677.22346794416524
 20
292.97764121174509
 30
0.0
 40
3.0
 50
39.991611000002862
 51
135.0
  0
ARC
  5
520F
  8
AM_0
 10
628.95672894416498
 20
252.48910121174521
 30
0.0
 40
70.000001999999995
 50
0.0
 51
15.45248699999985
  0
ARC
  5
5210
  8
AM_0
 10
686.08618494416521
 20
291.18311621174507
 30
0.0
 40
3.0
 50
214.10995999999861
 51
274.84318000000161
  0
ARC
  5
5211
  8
AM_0
 10
341.0883532443429
 20
271.3339342117452
 30
0.0
 40
5.0000001000000003
 50
179.9999899999998
 51
270.0
  0
ARC
  5
5212
  8
AM_0
 10
628.95672894416498
 20
252.48910121174521
 30
0.0
 40
70.000001999999995
 50
164.54750999999871
 51
0.0000100179130762
  0
ARC
  5
5213
  8
AM_0
 10
356.0883532443429
 20
172.2696622117451
 30
0.0
 40
2.00000007
 50
179.9999899999998
 51
268.00000999999872
  0
ARC
  5
5214
  8
AM_0
 10
355.08830324434291
 20
319.27044221174521
 30
0.0
 40
3.0
 50
0.0
 51
90.00000299999769
  0
ARC
  5
5215
  8
ﾁｭｳｼﾝｾﾝ1
 10
628.95672894416498
 20
252.48910121174521
 30
0.0
 40
100.000011
 50
216.97203860268101
 51
233.02798570585691
  0
CIRCLE
  5
5217
  8
AM_0
 10
558.24606294416515
 20
323.19978221174517
 30
0.0
 40
6.0000002999999991
  0
ARC
  5
5218
  8
AM_0
 10
556.2106949441652
 20
325.23516221174509
 30
0.0
 40
10.000000200000001
 50
92.999999000001623
 51
176.9999900000002
  0
CIRCLE
  5
5219
  8
AM_0
 10
558.24606294416515
 20
181.77840521174511
 30
0.0
 40
6.0000002999999991
  0
CIRCLE
  5
521B
  8
AM_0
 10
699.66740994416523
 20
181.77840521174511
 30
0.0
 40
6.0000002999999991
  0
CIRCLE
  5
521D
  8
AM_0
 10
699.66740994416523
 20
323.19978221174517
 30
0.0
 40
6.0000002999999991
  0
ARC
  5
521E
  8
AM_0
 10
701.70279294416514
 20
325.23516221174509
 30
0.0
 40
10.000000200000001
 50
3.0000000999996601
 51
86.999998999996933
  0
ARC
  5
5220
  8
AM_0
 10
573.95672694416521
 20
230.4890992117451
 30
0.0
 40
3.0
 50
270.0
 51
0.0
  0
ARC
  5
5221
  8
AM_0
 10
607.68882894416527
 20
281.53519721174519
 30
0.0
 40
3.0
 50
225.0
 51
273.99789711117842
  0
ARC
  5
5222
  8
AM_0
 10
566.15548794416486
 20
257.48909921174487
 30
0.0
 40
3.0
 50
175.4479300000003
 51
270.0
  0
ARC
  5
5223
  8
AM_0
 10
566.15548794416486
 20
247.48911521174509
 30
0.0
 40
3.0
 50
90.00000299999769
 51
184.5520699999995
  0
ARC
  5
5224
  8
AM_0
 10
628.95672894416498
 20
252.48910121174521
 30
0.0
 40
52.000007999999987
 50
47.755664999999361
 51
84.78409399999758
  0
ARC
  5
5225
  8
AM_0
 10
650.2246589441653
 20
281.53519721174519
 30
0.0
 40
3.0
 50
266.0014741655441
 51
315.0
  0
ARC
  5
5226
  8
AM_0
 10
580.69003494416529
 20
292.97764121174509
 30
0.0
 40
3.0
 50
45.000001000002641
 51
140.00838999999721
  0
ARC
  5
5227
  8
AM_0
 10
658.00284294416531
 20
273.75703121174507
 30
0.0
 40
3.0
 50
135.0
 51
183.99899254674969
  0
ARC
  5
5228
  8
AM_0
 10
588.46817094416485
 20
300.75584021174512
 30
0.0
 40
3.0
 50
129.99160999999941
 51
225.0
  0
ARC
  5
5229
  8
AM_0
 10
357.08831324434288
 20
294.44074721174508
 30
0.0
 40
3.0
 50
179.9999899999998
 51
270.0
  0
ARC
  5
522A
  8
AM_0
 10
357.08831324434288
 20
205.33475621174509
 30
0.0
 40
3.0
 50
90.00000299999769
 51
180.0000100000002
  0
ARC
  5
522B
  8
AM_0
 10
589.23922794416524
 20
167.69309321174509
 30
0.0
 40
5.0000001000000003
 50
344.98364000000009
 51
56.872543000003112
  0
ARC
  5
522C
  8
AM_0
 10
600.82946994416523
 20
164.58396221174499
 30
0.0
 40
7.0000007999999987
 50
164.9194399999995
 51
270.0
  0
ARC
  5
522D
  8
AM_0
 10
668.67422994416529
 20
167.69309321174509
 30
0.0
 40
5.0000001000000003
 50
121.5067300000014
 51
195.01635000000149
  0
ARC
  5
522E
  8
AM_0
 10
569.92285194416525
 20
230.4890992117451
 30
0.0
 40
3.0
 50
200.4387800000014
 51
270.0
  0
ARC
  5
522F
  8
AM_0
 10
687.99062094416524
 20
230.4890992117451
 30
0.0
 40
3.0
 50
270.0
 51
339.56121999999863
  0
ARC
  5
5230
  8
AM_0
 10
590.95674294416517
 20
232.48911521174509
 30
0.0
 40
5.0000001000000003
 50
270.0
 51
0.0
  0
ARC
  5
5231
  8
AM_0
 10
666.95674494416517
 20
232.48911521174509
 30
0.0
 40
5.0000001000000003
 50
179.9999899999998
 51
270.0
  0
ARC
  5
5232
  8
AM_0
 10
351.08831324434288
 20
324.89970221174508
 30
0.0
 40
3.0
 50
271.9999999999971
 51
0.0
  0
ARC
  5
5233
  8
AM_0
 10
633.95674494416494
 20
307.26135221174508
 30
0.0
 40
3.0
 50
179.9999899999998
 51
264.78408999999982
  0
ARC
  5
5234
  8
AM_0
 10
574.18448094416499
 20
257.48909921174487
 30
0.0
 40
3.0
 50
270.0
 51
354.78408999999999
  0
ARC
  5
5235
  8
AM_0
 10
573.95672694416521
 20
247.48911521174509
 30
0.0
 40
3.0
 50
0.0
 51
90.00000299999769
  0
ARC
  5
5236
  8
AM_0
 10
683.95674594416528
 20
247.48911521174509
 30
0.0
 40
3.0
 50
90.00000299999769
 51
180.0000100000002
  0
ARC
  5
5237
  8
AM_0
 10
623.95674294416517
 20
307.26135221174508
 30
0.0
 40
3.0
 50
275.21591000000018
 51
0.0
  0
ARC
  5
5238
  8
AM_0
 10
633.95674494416494
 20
315.29037221174508
 30
0.0
 40
3.0
 50
85.447926999998117
 51
180.0000100000002
  0
ARC
  5
5239
  8
AM_0
 10
683.72899194416516
 20
257.48909921174487
 30
0.0
 40
3.0
 50
185.21590999999989
 51
270.0
  0
ARC
  5
523A
  8
AM_0
 10
599.91064494416526
 20
273.75703121174507
 30
0.0
 40
3.0
 50
356.0017853035049
 51
45.000001000002641
  0
ARC
  5
523B
  8
AM_0
 10
623.95674294416517
 20
315.29037221174508
 30
0.0
 40
3.0
 50
0.0
 51
94.552071000002115
  0
ARC
  5
523C
  8
AM_0
 10
691.75801494416521
 20
247.48911521174509
 30
0.0
 40
3.0
 50
355.44793000000038
 51
90.00000299999769
  0
ARC
  5
523D
  8
AM_0
 10
691.75801494416521
 20
257.48909921174487
 30
0.0
 40
3.0
 50
270.0
 51
4.5520713999997291
  0
ARC
  5
523E
  8
AM_0
 10
683.48782794416525
 20
293.11372121174509
 30
0.0
 40
2.00000007
 50
216.68542000000249
 51
304.99999999999739
  0
ARC
  5
5240
  8
AM_0
 10
351.54440324434279
 20
292.14625121174521
 30
0.0
 40
3.0
 50
22.483536000001891
 51
90.00000299999769
  0
ARC
  5
5241
  8
AM_0
 10
351.08831324434288
 20
309.48207221174511
 30
0.0
 40
3.0
 50
296.29843000000261
 51
0.0
  0
ARC
  5
5242
  8
AM_0
 10
338.0883532443429
 20
297.14625221174492
 30
0.0
 40
2.00000007
 50
179.9999899999998
 51
270.0
  0
ARC
  5
5245
  8
AM_0
 10
362.50244324434289
 20
282.79136321174508
 30
0.0
 40
3.0
 50
39.999999000001772
 51
58.08679699999697
  0
ARC
  5
5246
  8
AM_0
 10
556.19778594416505
 20
179.98909721174499
 30
0.0
 40
10.000000200000001
 50
183.00000999999969
 51
270.0
  0
ARC
  5
5247
  8
AM_0
 10
701.7156869441651
 20
179.98909721174499
 30
0.0
 40
10.000000200000001
 50
270.0
 51
357.00000000000023
  0
ARC
  5
5248
  8
AM_0
 10
628.95672894416498
 20
232.48911521174509
 30
0.0
 40
71.000000999999983
 50
234.77579000000031
 51
238.4932699999986
  0
ARC
  5
5249
  8
AM_0
 10
657.08401794416523
 20
164.58396221174499
 30
0.0
 40
7.0000007999999987
 50
270.000020000002
 51
15.08055899999848
  0
CIRCLE
  5
524A
  8
AM_0
 10
600.82946994416523
 20
164.58396221174499
 30
0.0
 40
4.979646299999998
  0
CIRCLE
  5
524B
  8
AM_0
 10
657.08401794416523
 20
164.58396221174499
 30
0.0
 40
4.979646299999998
  0
CIRCLE
  5
524C
  8
AM_0
 10
570.64529394416525
 20
277.23310421174517
 30
0.0
 40
4.979646299999998
  0
CIRCLE
  5
524D
  8
AM_0
 10
687.26822394416524
 20
277.2330442117451
 30
0.0
 40
4.979646299999998
  0
ARC
  5
524E
  8
AM_0
 10
299.08838324434282
 20
163.48908221174511
 30
0.0
 40
2.00000007
 50
179.9999899999998
 51
270.0
  0
ARC
  5
524F
  8
AM_0
 10
294.08831324434288
 20
160.989083211745
 30
0.0
 40
2.00000007
 50
179.9999899999998
 51
270.0
  0
ARC
  5
5308
  8
AM_0
 10
628.95671384390005
 20
252.48910121174521
 30
0.0
 40
52.000007999999987
 50
95.215910999999593
 51
132.24432999999581
  0
LINE
  5
54C9
  8
ﾁｭｳｼﾝｾﾝ1
 10
708.1527063184036
 20
173.29315383750651
 30
0.0
 11
691.18214356992644
 21
190.2637165859839
 31
0.0
  0
ARC
  5
54CA
  8
ﾁｭｳｼﾝｾﾝ1
 10
628.95672894416498
 20
252.48910121174529
 30
0.0
 40
100.000011
 50
306.97203860268093
 51
323.02798570585702
  0
LINE
  5
54CB
  8
ﾁｭｳｼﾝｾﾝ1
 10
708.15267631840368
 20
331.68507858598372
 30
0.0
 11
691.18211356992629
 21
314.71451583750672
 31
0.0
  0
ARC
  5
54CC
  8
ﾁｭｳｼﾝｾﾝ1
 10
628.95672894416498
 20
252.48910121174521
 30
0.0
 40
100.000011
 50
36.972038602680982
 51
53.027985705856928
  0
LINE
  5
54CD
  8
ﾁｭｳｼﾝｾﾝ1
 10
549.76075156992647
 20
331.68504858598362
 30
0.0
 11
566.73131431840363
 21
314.71448583750617
 31
0.0
  0
ARC
  5
54CE
  8
ﾁｭｳｼﾝｾﾝ1
 10
628.95672894416498
 20
252.48910121174501
 30
0.0
 40
100.000011
 50
126.972038602681
 51
143.02798570585691
  0
LINE
  5
5845
  8
AM_0
 10
304.088313244343
 20
599.38129250818599
 30
0.0
 11
304.088313244343
 21
457.38129250818582
 31
0.0
  0
LINE
  5
5846
  8
AM_0
 10
304.08834324434292
 20
457.38132250818597
 30
0.0
 11
299.03600324434291
 21
457.51361250818582
 31
0.0
  0
LINE
  5
5847
  8
AM_0
 10
304.088313244343
 20
599.38129250818599
 30
0.0
 11
299.03600324434291
 21
599.24899250818589
 31
0.0
  0
LINE
  5
5848
  8
AM_0
 10
297.08834324434298
 20
459.51291250818582
 30
0.0
 11
297.08834324434298
 21
597.24966250818557
 31
0.0
  0
LINE
  5
584A
  8
AM_0
 10
292.3281432443431
 20
464.22037250818579
 30
0.0
 11
267.0883732443429
 21
464.88129250818599
 31
0.0
  0
LINE
  5
584B
  8
AM_0
 10
294.08831324434288
 20
463.17001250818572
 30
0.0
 11
295.08834324434298
 21
463.17001250818572
 31
0.0
  0
LINE
  5
584C
  8
AM_0
 10
292.08831324434288
 20
465.17001250818561
 30
0.0
 11
292.08831324434288
 21
474.3412525081859
 31
0.0
  0
LINE
  5
584D
  8
AM_0
 10
292.08831324434288
 20
591.59259250818593
 30
0.0
 11
292.08831324434288
 21
582.42133250818586
 31
0.0
  0
LINE
  5
584E
  8
AM_0
 10
292.3281432443431
 20
592.54224250818595
 30
0.0
 11
267.0883732443429
 21
591.88132250818603
 31
0.0
  0
LINE
  5
584F
  8
AM_0
 10
294.08831324434288
 20
593.59259250818593
 30
0.0
 11
295.08834324434298
 21
593.59259250818593
 31
0.0
  0
LINE
  5
5850
  8
AM_0
 10
267.08834324434281
 20
476.34125250818602
 30
0.0
 11
297.08834324434298
 21
476.34125250818602
 31
0.0
  0
LINE
  5
5851
  8
AM_0
 10
267.08834324434281
 20
491.23126250818598
 30
0.0
 11
297.08834324434298
 21
491.23126250818598
 31
0.0
  0
LINE
  5
5852
  8
AM_0
 10
267.08834324434281
 20
565.53131250818592
 30
0.0
 11
297.08834324434298
 21
565.53131250818592
 31
0.0
  0
LINE
  5
5853
  8
AM_0
 10
267.08834324434281
 20
580.42133250818597
 30
0.0
 11
297.08834324434298
 21
580.42133250818597
 31
0.0
  0
LINE
  5
5854
  8
AM_0
 10
337.08831324434328
 20
576.07941250818601
 30
0.0
 11
352.08831324434328
 21
576.07941250818601
 31
0.0
  0
LINE
  5
5855
  8
AM_0
 10
356.01851324434301
 20
443.66309250818603
 30
0.0
 11
364.088313244343
 21
443.38129250818582
 31
0.0
  0
LINE
  5
5856
  8
AM_0
 10
336.08831324434328
 20
598.77026250818585
 30
0.0
 11
336.08831324434328
 21
457.99231250818582
 31
0.0
  0
LINE
  5
5857
  8
AM_0
 10
339.00979324434292
 20
601.76926250818565
 30
0.0
 11
351.16683324434302
 21
602.08759250818594
 31
0.0
  0
LINE
  5
5858
  8
AM_0
 10
364.088313244343
 20
598.38129250818565
 30
0.0
 11
368.08834324434292
 21
598.38129250818565
 31
0.0
  0
LINE
  5
5859
  8
AM_0
 10
337.08831324434328
 20
480.68317250818598
 30
0.0
 11
352.08831324434328
 21
480.68317250818598
 31
0.0
  0
LINE
  5
585A
  8
AM_0
 10
364.088313244343
 20
458.38129250818582
 30
0.0
 11
368.08834324434292
 21
458.38129250818582
 31
0.0
  0
LINE
  5
585B
  8
AM_0
 10
339.0098232443429
 20
454.99335250818598
 30
0.0
 11
351.16686324434289
 21
454.67502250818598
 31
0.0
  0
LINE
  5
585C
  8
AM_0
 10
335.1119032443429
 20
456.56888250818582
 30
0.0
 11
304.088313244343
 21
457.38129250818582
 31
0.0
  0
LINE
  5
585D
  8
AM_0
 10
356.01848324434297
 20
613.09952250818583
 30
0.0
 11
364.088313244343
 21
613.38132250818603
 31
0.0
  0
LINE
  5
585E
  8
AM_0
 10
354.088313244343
 20
570.33295250818583
 30
0.0
 11
354.088313244343
 21
611.10068250818586
 31
0.0
  0
LINE
  5
585F
  8
AM_0
 10
364.088313244343
 20
443.38129250818582
 30
0.0
 11
364.088313244343
 21
613.38132250818603
 31
0.0
  0
LINE
  5
5860
  8
AM_0
 10
358.08831324434328
 20
461.5999425081859
 30
0.0
 11
358.08831324434328
 21
595.16263250818599
 31
0.0
  0
LINE
  5
5861
  8
AM_0
 10
351.63112324434297
 20
466.21921250818571
 30
0.0
 11
338.54549324434282
 21
473.94827250818582
 31
0.0
  0
LINE
  5
5862
  8
AM_0
 10
368.08834324434292
 20
598.38129250818565
 30
0.0
 11
368.08834324434292
 21
458.38129250818582
 31
0.0
  0
LINE
  5
5863
  8
AM_0
 10
351.6311532443429
 20
587.05914250818557
 30
0.0
 11
338.54549324434282
 21
579.33008250818602
 31
0.0
  0
LINE
  5
5864
  8
AM_0
 10
354.088313244343
 20
486.42963250818582
 30
0.0
 11
354.088313244343
 21
445.6619025081859
 31
0.0
  0
LINE
  5
5865
  8
AM_0
 10
351.63112324434297
 20
469.7034325081861
 30
0.0
 11
338.54552324434297
 21
477.43246250818572
 31
0.0
  0
LINE
  5
5866
  8
AM_0
 10
351.6311532443429
 20
590.54337250818605
 30
0.0
 11
338.54549324434282
 21
582.81430250818585
 31
0.0
  0
LINE
  5
5867
  8
AM_0
 10
335.11193324434288
 20
600.19366250818587
 30
0.0
 11
304.088313244343
 21
599.38129250818599
 31
0.0
  0
ARC
  5
5868
  8
AM_0
 10
299.08834324434309
 20
459.51291250818582
 30
0.0
 40
2.0
 50
180.00001000000091
 51
268.49999999999733
  0
ARC
  5
5869
  8
AM_0
 10
299.08834324434309
 20
597.24966250818557
 30
0.0
 40
2.0
 50
91.500001000001546
 51
180.00001000000091
  0
ARC
  5
586A
  8
AM_0
 10
294.08831324434288
 20
465.17001250818561
 30
0.0
 40
2.0
 50
180.00001000000091
 51
270.0
  0
ARC
  5
586B
  8
AM_0
 10
295.08834324434298
 20
461.17001250818561
 30
0.0
 40
2.0
 50
0.0
 51
90.00000299999769
  0
ARC
  5
586C
  8
AM_0
 10
295.08834324434298
 20
595.59259250818593
 30
0.0
 40
2.0
 50
270.0
 51
0.0
  0
ARC
  5
586D
  8
AM_0
 10
294.08831324434288
 20
591.59259250818593
 30
0.0
 40
2.0
 50
90.00000299999769
 51
180.00001000000091
  0
ARC
  5
586E
  8
AM_0
 10
290.08831324434288
 20
474.3412525081859
 30
0.0
 40
2.0
 50
0.0
 51
90.00000299999769
  0
ARC
  5
586F
  8
AM_0
 10
290.08831324434288
 20
582.42133250818586
 30
0.0
 40
2.0
 50
270.0
 51
0.0
  0
ARC
  5
5870
  8
AM_0
 10
349.08831324434288
 20
591.36426250818602
 30
0.0
 40
5.0
 50
300.56828999999891
 51
0.0
  0
ARC
  5
5871
  8
AM_0
 10
357.08831324434288
 20
486.42963250818582
 30
0.0
 40
3.0
 50
90.00000299999769
 51
180.00001000000091
  0
ARC
  5
5872
  8
AM_0
 10
335.03338324434287
 20
603.19263250818585
 30
0.0
 40
3.0
 50
271.50000000000267
 51
312.51811999999683
  0
ARC
  5
5873
  8
AM_0
 10
339.088313244343
 20
457.99231250818582
 30
0.0
 40
3.0
 50
179.999989999999
 51
268.50000999999878
  0
ARC
  5
5874
  8
AM_0
 10
356.08834324434292
 20
445.6619025081859
 30
0.0
 40
2.0
 50
179.999989999999
 51
268.00000999999861
  0
ARC
  5
5875
  8
AM_0
 10
339.088313244343
 20
598.77026250818585
 30
0.0
 40
3.0
 50
91.500001000001546
 51
180.00001000000091
  0
ARC
  5
5876
  8
AM_0
 10
351.08831324434288
 20
605.08655250818595
 30
0.0
 40
3.0
 50
271.50000000000267
 51
0.0
  0
ARC
  5
5877
  8
AM_0
 10
351.08831324434288
 20
451.67603250818598
 30
0.0
 40
3.0
 50
0.0
 51
88.499997000000647
  0
ARC
  5
5878
  8
AM_0
 10
335.03338324434287
 20
453.56992250818593
 30
0.0
 40
3.0
 50
47.481951999999431
 51
88.499997000000647
  0
ARC
  5
5879
  8
AM_0
 10
356.08834324434292
 20
611.10068250818586
 30
0.0
 40
2.0
 50
91.999998000000545
 51
180.00001000000091
  0
ARC
  5
587A
  8
AM_0
 10
352.08831324434328
 20
478.68317250818592
 30
0.0
 40
2.0
 50
0.0
 51
90.00000299999769
  0
ARC
  5
587B
  8
AM_0
 10
352.08831324434328
 20
578.07941250818601
 30
0.0
 40
2.0
 50
270.0
 51
0.0
  0
ARC
  5
587C
  8
AM_0
 10
355.08831324434288
 20
595.16263250818599
 30
0.0
 40
3.0
 50
0.0
 51
90.00000299999769
  0
ARC
  5
587D
  8
AM_0
 10
357.08831324434288
 20
570.33295250818583
 30
0.0
 40
3.0
 50
179.999989999999
 51
270.0
  0
ARC
  5
587E
  8
AM_0
 10
349.08831324434288
 20
461.91406250818602
 30
0.0
 40
5.0
 50
0.0
 51
59.431709000002151
  0
ARC
  5
587F
  8
AM_0
 10
355.08831324434288
 20
461.5999425081859
 30
0.0
 40
3.0
 50
270.0
 51
0.0
  0
ARC
  5
5880
  8
AM_0
 10
341.088313244343
 20
478.25336250818577
 30
0.0
 40
5.0
 50
179.999989999999
 51
239.431710000001
  0
ARC
  5
5881
  8
AM_0
 10
349.08831324434288
 20
594.84851250818599
 30
0.0
 40
5.0
 50
300.56828999999891
 51
0.0
  0
ARC
  5
5882
  8
AM_0
 10
341.088313244343
 20
575.02496250818558
 30
0.0
 40
5.0
 50
120.5682899999989
 51
180.00001000000091
  0
ARC
  5
5883
  8
AM_0
 10
341.088313244343
 20
578.5092225081861
 30
0.0
 40
5.0
 50
120.5682899999989
 51
180.00001000000091
  0
ARC
  5
5884
  8
AM_0
 10
337.08831324434328
 20
481.68317250818592
 30
0.0
 40
1.0
 50
179.999989999999
 51
270.0
  0
ARC
  5
5885
  8
AM_0
 10
337.08831324434328
 20
575.07941250818601
 30
0.0
 40
1.0
 50
90.00000299999769
 51
180.00001000000091
  0
ARC
  5
5886
  8
AM_0
 10
341.088313244343
 20
481.7376125081858
 30
0.0
 40
5.0
 50
179.999989999999
 51
239.431710000001
  0
ARC
  5
5887
  8
AM_0
 10
349.08831324434288
 20
465.39832250818603
 30
0.0
 40
5.0
 50
0.0
 51
59.431709000002151
  0
LINE
  5
5B61
  8
ﾁｭｳｼﾝｾﾝ
 10
98.297309951985085
 20
528.38129250818599
 30
0.0
 11
417.30800324434279
 21
528.38129250818599
 31
0.0
  0
LINE
  5
5B9F
  8
AM_0
 10
267.08834324434281
 20
464.88129250818599
 30
0.0
 11
267.08834324434281
 21
591.88129250818588
 31
0.0
  0
LINE
  5
5BAA
  8
AM_0
 10
379.08831324434288
 20
532.38126250818607
 30
0.0
 11
411.08831324434283
 21
532.38126250818607
 31
0.0
  0
LINE
  5
5BAB
  8
AM_0
 10
379.08831324434288
 20
532.38126250818607
 30
0.0
 11
379.08831324434288
 21
524.38129250818599
 31
0.0
  0
LINE
  5
5BAC
  8
AM_0
 10
377.08826324434273
 20
516.38129250818565
 30
0.0
 11
411.08831324434283
 21
516.38129250818599
 31
0.0
  0
LINE
  5
5BAD
  8
AM_0
 10
377.08826324434273
 20
540.38129250818565
 30
0.0
 11
411.08831324434283
 21
540.38129250818599
 31
0.0
  0
LINE
  5
5BAE
  8
AM_0
 10
411.08831324434283
 20
540.38129250818599
 30
0.0
 11
411.08831324434283
 21
516.38129250818599
 31
0.0
  0
LINE
  5
5BAF
  8
AM_0
 10
379.08831324434288
 20
524.38129250818599
 30
0.0
 11
411.08831324434283
 21
524.38129250818599
 31
0.0
  0
ARC
  5
5BE1
  8
AM_0
 10
379.08831324434288
 20
528.38126250818607
 30
0.0
 40
3.9999962
 50
90.000003000000945
 51
120.00085842361911
  0
ARC
  5
5BE2
  8
AM_0
 10
379.08831324434288
 20
528.38126250818607
 30
0.0
 40
3.9999962
 50
239.99914157638091
 51
270.0
  0
LINE
  5
5BE3
  8
AM_0
 10
108.08834324434289
 20
478.88129250818599
 30
0.0
 11
108.08834324434289
 21
479.411322508186
 31
0.0
  0
LINE
  5
5BE4
  8
AM_0
 10
108.08834324434289
 20
480.98126250818598
 30
0.0
 11
108.08834324434289
 21
481.53131250818598
 31
0.0
  0
LINE
  5
5BE5
  8
AM_0
 10
108.08834324434289
 20
485.55133250818619
 30
0.0
 11
108.08834324434289
 21
486.02130250818601
 31
0.0
  0
LINE
  5
5BE6
  8
AM_0
 10
107.8683132443427
 20
482.00128250818591
 30
0.0
 11
106.6183132443429
 21
482.66125250818601
 31
0.0
  0
LINE
  5
5BE7
  8
AM_0
 10
107.87832324434279
 20
479.89127250818598
 30
0.0
 11
106.6383332443429
 21
480.52127250818597
 31
0.0
  0
LINE
  5
5BE8
  8
AM_0
 10
107.85830324434291
 20
486.53125250818601
 30
0.0
 11
106.578333244343
 21
487.28125250818618
 31
0.0
  0
LINE
  5
5BE9
  8
AM_0
 10
108.328333244343
 20
479.78131250818598
 30
0.0
 11
110.58834324434299
 21
479.78131250818598
 31
0.0
  0
LINE
  5
5BEA
  8
AM_0
 10
108.33834324434299
 20
481.88129250818599
 30
0.0
 11
110.08834324434289
 21
481.88129250818599
 31
0.0
  0
LINE
  5
5BEB
  8
AM_0
 10
108.358363244343
 20
486.40131250818598
 30
0.0
 11
110.08834324434289
 21
486.40131250818598
 31
0.0
  0
LINE
  5
5BEC
  8
AM_0
 10
108.3883332443429
 20
485.2612925081861
 30
0.0
 11
111.08834324434299
 21
485.2612925081861
 31
0.0
  0
LINE
  5
5BED
  8
AM_0
 10
108.3683732443431
 20
480.74127250818577
 30
0.0
 11
111.08834324434299
 21
480.74127250818577
 31
0.0
  0
LINE
  5
5BEE
  8
AM_0
 10
107.83834324434289
 20
485.42126250818598
 30
0.0
 11
106.5383532443429
 21
486.27127250818597
 31
0.0
  0
LINE
  5
5BEF
  8
AM_0
 10
107.8483532443429
 20
480.88126250818601
 30
0.0
 11
106.56832324434311
 21
481.65127250818603
 31
0.0
  0
LINE
  5
5BF0
  8
AM_0
 10
107.8583632443429
 20
478.77127250818597
 30
0.0
 11
106.5884032443429
 21
479.50125250818593
 31
0.0
  0
LINE
  5
5BF1
  8
AM_0
 10
108.358363244343
 20
478.63129250818571
 30
0.0
 11
110.58834324434299
 21
478.63129250818571
 31
0.0
  0
LINE
  5
5BF2
  8
AM_0
 10
106.08834324434299
 20
480.361272508186
 30
0.0
 11
106.08834324434299
 21
523.38129250818599
 31
0.0
  0
LINE
  5
5BF3
  8
AM_0
 10
106.578333244343
 20
487.28128250818571
 30
0.0
 11
106.558313244343
 21
487.29126250818598
 31
0.0
  0
LINE
  5
5BF4
  8
AM_0
 10
104.58834324434279
 20
511.10126250818593
 30
0.0
 11
106.08834324434299
 21
511.10126250818593
 31
0.0
  0
LINE
  5
5BF5
  8
AM_0
 10
104.58834324434279
 20
513.23126250818598
 30
0.0
 11
106.08834324434299
 21
513.23126250818598
 31
0.0
  0
LINE
  5
5BF6
  8
AM_0
 10
104.58834324434279
 20
508.38132250818597
 30
0.0
 11
106.08834324434299
 21
508.251312508186
 31
0.0
  0
LINE
  5
5BF7
  8
AM_0
 10
104.58834324434279
 20
508.38129250818599
 30
0.0
 11
104.58834324434279
 21
528.38129250818599
 31
0.0
  0
LINE
  5
5BF8
  8
AM_0
 10
108.08834324434289
 20
492.99127250818577
 30
0.0
 11
108.08834324434289
 21
494.05133250818602
 31
0.0
  0
LINE
  5
5BF9
  8
AM_0
 10
108.08834324434289
 20
502.75128250818602
 30
0.0
 11
108.08834324434289
 21
504.12128250818603
 31
0.0
  0
LINE
  5
5BFA
  8
AM_0
 10
108.08834324434289
 20
522.77130250818595
 30
0.0
 11
108.08834324434289
 21
523.93133250818607
 31
0.0
  0
LINE
  5
5BFB
  8
AM_0
 10
108.08834324434289
 20
512.77130250818595
 30
0.0
 11
108.08834324434289
 21
513.99127250818606
 31
0.0
  0
LINE
  5
5BFC
  8
AM_0
 10
110.08834324434289
 20
524.38129250818599
 30
0.0
 11
107.08834324434299
 21
524.38129250818599
 31
0.0
  0
LINE
  5
5BFD
  8
AM_0
 10
110.08834324434289
 20
522.38129250818588
 30
0.0
 11
107.08834324434299
 21
522.38129250818588
 31
0.0
  0
LINE
  5
5BFE
  8
AM_0
 10
110.08834324434289
 20
514.38129250818588
 30
0.0
 11
107.08834324434299
 21
514.38129250818588
 31
0.0
  0
LINE
  5
5BFF
  8
AM_0
 10
110.08834324434289
 20
512.38129250818599
 30
0.0
 11
107.08834324434299
 21
512.38129250818599
 31
0.0
  0
LINE
  5
5C00
  8
AM_0
 10
110.08834324434289
 20
504.38129250818599
 30
0.0
 11
107.08834324434299
 21
504.38129250818599
 31
0.0
  0
LINE
  5
5C01
  8
AM_0
 10
110.08834324434289
 20
502.38129250818599
 30
0.0
 11
107.08834324434299
 21
502.38129250818599
 31
0.0
  0
LINE
  5
5C02
  8
AM_0
 10
107.948333244343
 20
494.68130250818621
 30
0.0
 11
106.79836324434289
 21
495.04129250818602
 31
0.0
  0
LINE
  5
5C03
  8
AM_0
 10
108.2383732443429
 20
494.64130250818567
 30
0.0
 11
110.08834324434289
 21
494.64130250818567
 31
0.0
  0
LINE
  5
5C04
  8
AM_0
 10
107.89828324434291
 20
492.77127250818592
 30
0.0
 11
106.6983332443431
 21
493.29126250818598
 31
0.0
  0
LINE
  5
5C05
  8
AM_0
 10
108.2883532443429
 20
492.69134250818598
 30
0.0
 11
110.3883332443429
 21
492.69134250818598
 31
0.0
  0
LINE
  5
5C06
  8
AM_0
 10
104.58834324434279
 20
545.66132250818566
 30
0.0
 11
106.08834324434299
 21
545.66132250818566
 31
0.0
  0
LINE
  5
5C07
  8
AM_0
 10
104.58834324434279
 20
543.53131250818603
 30
0.0
 11
106.08834324434299
 21
543.53131250818603
 31
0.0
  0
LINE
  5
5C08
  8
AM_0
 10
104.5884032443429
 20
548.38132250818603
 30
0.0
 11
106.08834324434299
 21
548.51132250818591
 31
0.0
  0
LINE
  5
5C09
  8
AM_0
 10
104.58834324434279
 20
548.38129250818599
 30
0.0
 11
104.58834324434279
 21
528.38129250818599
 31
0.0
  0
LINE
  5
5C0A
  8
AM_0
 10
108.08834324434289
 20
577.88129250818611
 30
0.0
 11
108.08834324434289
 21
577.35126250818598
 31
0.0
  0
LINE
  5
5C0B
  8
AM_0
 10
108.08834324434289
 20
575.78131250818615
 30
0.0
 11
108.08834324434289
 21
575.23126250818598
 31
0.0
  0
LINE
  5
5C0C
  8
AM_0
 10
108.08834324434289
 20
571.21124250818605
 30
0.0
 11
108.08834324434289
 21
570.74127250818583
 31
0.0
  0
LINE
  5
5C0D
  8
AM_0
 10
108.08834324434289
 20
563.77130250818595
 30
0.0
 11
108.08834324434289
 21
562.71124250818605
 31
0.0
  0
LINE
  5
5C0E
  8
AM_0
 10
108.08834324434289
 20
554.01129250818565
 30
0.0
 11
108.08834324434289
 21
552.64130250818596
 31
0.0
  0
LINE
  5
5C0F
  8
AM_0
 10
108.08834324434289
 20
533.99127250818594
 30
0.0
 11
108.08834324434289
 21
532.83124250818605
 31
0.0
  0
LINE
  5
5C10
  8
AM_0
 10
108.08834324434289
 20
543.99127250818594
 30
0.0
 11
108.08834324434289
 21
542.78131250818603
 31
0.0
  0
LINE
  5
5C11
  8
AM_0
 10
110.08834324434289
 20
532.38129250818599
 30
0.0
 11
107.08834324434299
 21
532.38129250818599
 31
0.0
  0
LINE
  5
5C12
  8
AM_0
 10
110.08834324434289
 20
534.38129250818588
 30
0.0
 11
107.08834324434299
 21
534.38129250818588
 31
0.0
  0
LINE
  5
5C13
  8
AM_0
 10
110.08834324434289
 20
542.38129250818588
 30
0.0
 11
107.08834324434299
 21
542.38129250818588
 31
0.0
  0
LINE
  5
5C14
  8
AM_0
 10
110.08834324434289
 20
544.38129250818599
 30
0.0
 11
107.08834324434299
 21
544.38129250818599
 31
0.0
  0
LINE
  5
5C15
  8
AM_0
 10
110.08834324434289
 20
552.38129250818599
 30
0.0
 11
107.08834324434299
 21
552.38129250818599
 31
0.0
  0
LINE
  5
5C16
  8
AM_0
 10
110.08834324434289
 20
554.38129250818588
 30
0.0
 11
107.08834324434299
 21
554.38129250818588
 31
0.0
  0
LINE
  5
5C17
  8
AM_0
 10
107.8683132443427
 20
574.77130250818607
 30
0.0
 11
106.6183732443431
 21
574.10132250818583
 31
0.0
  0
LINE
  5
5C18
  8
AM_0
 10
107.8783832443429
 20
576.88126250818596
 30
0.0
 11
106.6383332443429
 21
576.25125250818587
 31
0.0
  0
LINE
  5
5C19
  8
AM_0
 10
107.948333244343
 20
562.08127250818609
 30
0.0
 11
106.7983032443432
 21
561.73126250818609
 31
0.0
  0
LINE
  5
5C1A
  8
AM_0
 10
107.8583632443429
 20
570.23123250818605
 30
0.0
 11
106.578333244343
 21
569.48123250818605
 31
0.0
  0
LINE
  5
5C1B
  8
AM_0
 10
108.328333244343
 20
576.98126250818598
 30
0.0
 11
110.58834324434299
 21
576.98126250818598
 31
0.0
  0
LINE
  5
5C1C
  8
AM_0
 10
108.33834324434299
 20
574.88129250818599
 30
0.0
 11
110.08834324434289
 21
574.88129250818599
 31
0.0
  0
LINE
  5
5C1D
  8
AM_0
 10
108.358363244343
 20
570.37128250818614
 30
0.0
 11
110.08834324434289
 21
570.37128250818614
 31
0.0
  0
LINE
  5
5C1E
  8
AM_0
 10
108.2383732443429
 20
562.12128250818603
 30
0.0
 11
110.08834324434289
 21
562.12128250818603
 31
0.0
  0
LINE
  5
5C1F
  8
AM_0
 10
108.3883332443429
 20
571.51129250818599
 30
0.0
 11
111.08834324434299
 21
571.51129250818599
 31
0.0
  0
LINE
  5
5C20
  8
AM_0
 10
108.3683732443431
 20
576.02130250818595
 30
0.0
 11
111.08834324434299
 21
576.02130250818595
 31
0.0
  0
LINE
  5
5C21
  8
AM_0
 10
107.8984032443429
 20
563.99130250818598
 30
0.0
 11
106.6983932443429
 21
563.48129250818613
 31
0.0
  0
LINE
  5
5C22
  8
AM_0
 10
107.83834324434289
 20
571.34125250818568
 30
0.0
 11
106.5383532443429
 21
570.49127250818583
 31
0.0
  0
LINE
  5
5C23
  8
AM_0
 10
107.8482932443429
 20
575.88126250818596
 30
0.0
 11
106.56832324434311
 21
575.1113025081861
 31
0.0
  0
LINE
  5
5C24
  8
AM_0
 10
107.85830324434291
 20
578.00128250818568
 30
0.0
 11
106.5882832443431
 21
577.26129250818576
 31
0.0
  0
LINE
  5
5C25
  8
AM_0
 10
108.2883532443429
 20
564.07123250818597
 30
0.0
 11
110.3883332443429
 21
564.07123250818597
 31
0.0
  0
LINE
  5
5C26
  8
AM_0
 10
108.358363244343
 20
578.13129250818611
 30
0.0
 11
110.58834324434299
 21
578.13129250818611
 31
0.0
  0
LINE
  5
5C27
  8
AM_0
 10
106.08834324434299
 20
576.40131250818615
 30
0.0
 11
106.08834324434299
 21
533.38129250818599
 31
0.0
  0
LINE
  5
5C28
  8
AM_0
 10
258.08834324434292
 20
565.53131250818615
 30
0.0
 11
267.08834324434281
 21
565.53131250818615
 31
0.0
  0
LINE
  5
5C29
  8
AM_0
 10
259.08834324434292
 20
476.34125250818602
 30
0.0
 11
267.08834324434281
 21
476.34125250818602
 31
0.0
  0
LINE
  5
5C2A
  8
AM_0
 10
258.08834324434292
 20
491.23126250818598
 30
0.0
 11
267.08834324434281
 21
491.23126250818598
 31
0.0
  0
LINE
  5
5C2B
  8
AM_0
 10
259.08834324434292
 20
464.88129250818599
 30
0.0
 11
267.08834324434281
 21
464.88129250818628
 31
0.0
  0
LINE
  5
5C2C
  8
AM_0
 10
259.08834324434292
 20
580.42132250818577
 30
0.0
 11
267.08834324434281
 21
580.42132250818577
 31
0.0
  0
LINE
  5
5C2D
  8
AM_0
 10
259.08834324434292
 20
591.88129250818588
 30
0.0
 11
267.08834324434281
 21
591.88129250818588
 31
0.0
  0
LINE
  5
5C2E
  8
AM_0
 10
111.08834324434299
 20
470.95123250818602
 30
0.0
 11
113.9082932443427
 21
470.89123250818602
 31
0.0
  0
LINE
  5
5C2F
  8
AM_0
 10
152.08834324434309
 20
482.03131250818598
 30
0.0
 11
258.08834324434292
 21
482.03131250818598
 31
0.0
  0
LINE
  5
5C30
  8
AM_0
 10
252.798303244343
 20
467.88129250818571
 30
0.0
 11
258.08834324434292
 21
467.88129250818571
 31
0.0
  0
LINE
  5
5C31
  8
AM_0
 10
124.75833324434301
 20
495.0213025081859
 30
0.0
 11
219.10830324434301
 21
495.0213025081859
 31
0.0
  0
LINE
  5
5C32
  8
AM_0
 10
207.08834324434301
 20
492.38129250818582
 30
0.0
 11
125.6240532443431
 21
492.38129250818582
 31
0.0
  0
LINE
  5
5C33
  8
AM_0
 10
207.08834324434301
 20
491.66132250818578
 30
0.0
 11
254.908353244343
 21
491.66132250818578
 31
0.0
  0
LINE
  5
5C34
  8
AM_0
 10
124.75833324434301
 20
491.66132250818578
 30
0.0
 11
207.08834324434301
 21
491.66132250818578
 31
0.0
  0
LINE
  5
5C35
  8
AM_0
 10
124.7859732443429
 20
470.12128250818603
 30
0.0
 11
130.58834324434289
 21
470.12128250818603
 31
0.0
  0
LINE
  5
5C36
  8
AM_0
 10
134.08834324434289
 20
466.52130250818601
 30
0.0
 11
250.8983432443429
 21
466.52130250818601
 31
0.0
  0
LINE
  5
5C37
  8
AM_0
 10
124.84823324434311
 20
475.40131250818598
 30
0.0
 11
130.58834324434289
 21
475.40131250818598
 31
0.0
  0
LINE
  5
5C38
  8
AM_0
 10
121.08834324434279
 20
480.03131250818598
 30
0.0
 11
121.08834324434279
 21
494.08124250818599
 31
0.0
  0
LINE
  5
5C39
  8
AM_0
 10
111.08834324434299
 20
480.03131250818598
 30
0.0
 11
121.08834324434279
 21
480.03131250818598
 31
0.0
  0
LINE
  5
5C3A
  8
AM_0
 10
252.8283332443429
 20
468.0112025081861
 30
0.0
 11
256.288353244343
 21
480.92132250818599
 31
0.0
  0
LINE
  5
5C3B
  8
AM_0
 10
114.849633244343
 20
468.22229250818572
 30
0.0
 11
114.368373244343
 21
470.13129250818571
 31
0.0
  0
LINE
  5
5C3C
  8
AM_0
 10
115.27835324434309
 20
468.251222508186
 30
0.0
 11
114.35830324434291
 21
472.13132250818597
 31
0.0
  0
LINE
  5
5C3D
  8
AM_0
 10
132.08834324434301
 20
466.4922525081862
 30
0.0
 11
132.08834324434301
 21
473.90131250818598
 31
0.0
  0
LINE
  5
5C3E
  8
AM_0
 10
112.9183632443429
 20
471.26129250818599
 30
0.0
 11
114.56832324434311
 21
471.26129250818599
 31
0.0
  0
LINE
  5
5C3F
  8
AM_0
 10
152.08834324434309
 20
574.73126250818598
 30
0.0
 11
258.08834324434292
 21
574.73126250818598
 31
0.0
  0
LINE
  5
5C40
  8
AM_0
 10
258.08834324434292
 20
465.88129250818599
 30
0.0
 11
258.08834324434292
 21
590.88129250818611
 31
0.0
  0
LINE
  5
5C41
  8
AM_0
 10
111.08834324434299
 20
585.81128250818597
 30
0.0
 11
113.9083532443432
 21
585.88129250818611
 31
0.0
  0
LINE
  5
5C42
  8
AM_0
 10
111.08834324434299
 20
470.95123250818602
 30
0.0
 11
111.08834324434299
 21
528.38129250818599
 31
0.0
  0
LINE
  5
5C43
  8
AM_0
 10
251.42831324434289
 20
492.38129250818582
 30
0.0
 11
207.08834324434301
 21
492.38129250818582
 31
0.0
  0
LINE
  5
5C44
  8
AM_0
 10
121.08834324434279
 20
576.73126250818575
 30
0.0
 11
121.08834324434279
 21
562.69134250818604
 31
0.0
  0
LINE
  5
5C45
  8
AM_0
 10
111.08834324434299
 20
562.69134250818604
 30
0.0
 11
121.08834324434279
 21
562.69134250818604
 31
0.0
  0
LINE
  5
5C46
  8
AM_0
 10
111.08834324434299
 20
571.07123250818597
 30
0.0
 11
121.08834324434279
 21
571.07123250818597
 31
0.0
  0
LINE
  5
5C47
  8
AM_0
 10
111.08834324434299
 20
576.73126250818575
 30
0.0
 11
121.08834324434279
 21
576.73126250818575
 31
0.0
  0
LINE
  5
5C48
  8
AM_0
 10
186.5304232443429
 20
514.38129250818588
 30
0.0
 11
116.6383332443429
 21
514.38129250818588
 31
0.0
  0
LINE
  5
5C49
  8
AM_0
 10
134.08834324434289
 20
590.24127250818583
 30
0.0
 11
250.8983432443429
 21
590.24127250818583
 31
0.0
  0
LINE
  5
5C4A
  8
AM_0
 10
125.04263324434289
 20
581.37128250818614
 30
0.0
 11
130.58834324434289
 21
581.37128250818614
 31
0.0
  0
LINE
  5
5C4B
  8
AM_0
 10
122.2976332443429
 20
575.37460250818583
 30
0.0
 11
123.08261324434299
 21
579.72128250818605
 31
0.0
  0
LINE
  5
5C4C
  8
AM_0
 10
124.97878324434291
 20
586.65131250818615
 30
0.0
 11
130.58834324434289
 21
586.65131250818615
 31
0.0
  0
LINE
  5
5C4D
  8
AM_0
 10
117.21835324434289
 20
590.05133250818608
 30
0.0
 11
130.58834324434289
 21
590.05133250818608
 31
0.0
  0
LINE
  5
5C4E
  8
AM_0
 10
117.1983332443431
 20
591.68133250818596
 30
0.0
 11
130.6983332443431
 21
591.68133250818596
 31
0.0
  0
LINE
  5
5C4F
  8
AM_0
 10
134.08834324434289
 20
594.30133250818585
 30
0.0
 11
252.17196324434289
 21
594.30133250818585
 31
0.0
  0
LINE
  5
5C50
  8
AM_0
 10
134.08834324434289
 20
593.63129250818599
 30
0.0
 11
252.31600324434299
 21
593.63129250818599
 31
0.0
  0
LINE
  5
5C51
  8
AM_0
 10
134.08834324434289
 20
592.27130250818595
 30
0.0
 11
252.60830324434301
 21
592.27130250818595
 31
0.0
  0
LINE
  5
5C52
  8
AM_0
 10
120.60262324434279
 20
579.42132250818577
 30
0.0
 11
123.02261324434291
 21
579.42132250818577
 31
0.0
  0
LINE
  5
5C53
  8
AM_0
 10
123.0325632443429
 20
585.07132250818597
 30
0.0
 11
122.07253324434311
 21
580.60123250818583
 31
0.0
  0
LINE
  5
5C54
  8
AM_0
 10
112.8983432443427
 20
583.48126250818609
 30
0.0
 11
122.69113324434289
 21
583.48126250818609
 31
0.0
  0
LINE
  5
5C55
  8
AM_0
 10
251.42831324434289
 20
564.38129250818611
 30
0.0
 11
125.6383332443431
 21
564.38129250818611
 31
0.0
  0
LINE
  5
5C56
  8
AM_0
 10
251.42831324434289
 20
562.38129250818599
 30
0.0
 11
237.08834324434289
 21
562.38129250818599
 31
0.0
  0
LINE
  5
5C57
  8
AM_0
 10
251.43545324434311
 20
554.38129250818588
 30
0.0
 11
237.08834324434289
 21
554.38129250818588
 31
0.0
  0
LINE
  5
5C58
  8
AM_0
 10
115.27835324434309
 20
588.51132250818614
 30
0.0
 11
114.35830324434291
 21
584.64127250818615
 31
0.0
  0
LINE
  5
5C59
  8
AM_0
 10
251.42117324434301
 20
552.38129250818599
 30
0.0
 11
125.6383332443431
 21
552.38129250818599
 31
0.0
  0
LINE
  5
5C5A
  8
AM_0
 10
112.9183632443429
 20
585.50128250818614
 30
0.0
 11
114.56832324434311
 21
585.50128250818614
 31
0.0
  0
LINE
  5
5C5B
  8
AM_0
 10
115.25833324434289
 20
590.17123250818588
 30
0.0
 11
114.368373244343
 21
586.64133250818577
 31
0.0
  0
LINE
  5
5C5C
  8
AM_0
 10
186.52706324434311
 20
544.38129250818599
 30
0.0
 11
116.6383332443429
 21
544.38129250818599
 31
0.0
  0
LINE
  5
5C5D
  8
AM_0
 10
132.08834324434301
 20
590.27130250818595
 30
0.0
 11
132.08834324434301
 21
582.87128250818614
 31
0.0
  0
LINE
  5
5C5E
  8
AM_0
 10
186.52706324434311
 20
542.38129250818588
 30
0.0
 11
116.6383332443429
 21
542.38129250818588
 31
0.0
  0
LINE
  5
5C5F
  8
AM_0
 10
186.5304232443429
 20
534.38129250818588
 30
0.0
 11
116.6383332443429
 21
534.38129250818588
 31
0.0
  0
LINE
  5
5C60
  8
AM_0
 10
186.5304232443429
 20
532.38129250818599
 30
0.0
 11
116.6383332443429
 21
532.38129250818599
 31
0.0
  0
LINE
  5
5C61
  8
AM_0
 10
252.8283332443429
 20
588.76132250818603
 30
0.0
 11
256.288353244343
 21
575.84125250818613
 31
0.0
  0
LINE
  5
5C62
  8
AM_0
 10
254.548733244343
 20
588.88129250818611
 30
0.0
 11
258.08834324434292
 21
588.88129250818611
 31
0.0
  0
LINE
  5
5C63
  8
AM_0
 10
257.79830324434312
 20
579.42132250818577
 30
0.0
 11
255.37832324434291
 21
579.42132250818577
 31
0.0
  0
LINE
  5
5C64
  8
AM_0
 10
253.638543244343
 20
593.11645250818583
 30
0.0
 11
256.32836324434288
 21
580.60123250818583
 31
0.0
  0
LINE
  5
5C65
  8
AM_0
 10
111.08834324434299
 20
585.81134250818604
 30
0.0
 11
111.08834324434299
 21
528.38129250818599
 31
0.0
  0
LINE
  5
5C66
  8
AM_0
 10
111.08834324434299
 20
494.08124250818599
 30
0.0
 11
121.08834324434279
 21
494.08124250818599
 31
0.0
  0
LINE
  5
5C67
  8
AM_0
 10
116.7889732443429
 20
466.71124250818599
 30
0.0
 11
130.83108324434329
 21
466.71124250818599
 31
0.0
  0
LINE
  5
5C68
  8
AM_0
 10
111.08834324434299
 20
485.69134250818598
 30
0.0
 11
121.08834324434279
 21
485.69134250818598
 31
0.0
  0
LINE
  5
5C69
  8
AM_0
 10
112.8983432443427
 20
473.28131250818598
 30
0.0
 11
122.69113324434289
 21
473.28131250818598
 31
0.0
  0
LINE
  5
5C6A
  8
AM_0
 10
134.08834324434289
 20
464.491272508186
 30
0.0
 11
175.41470324434289
 21
464.491272508186
 31
0.0
  0
LINE
  5
5C6B
  8
AM_0
 10
124.54836324434289
 20
501.90131250818598
 30
0.0
 11
219.08834324434281
 21
501.90131250818598
 31
0.0
  0
LINE
  5
5C6C
  8
AM_0
 10
219.08834324434281
 20
494.38129250818599
 30
0.0
 11
125.6240532443431
 21
494.38129250818599
 31
0.0
  0
LINE
  5
5C6D
  8
AM_0
 10
124.75833324434301
 20
565.11127250818595
 30
0.0
 11
254.908353244343
 21
565.11127250818595
 31
0.0
  0
LINE
  5
5C6E
  8
AM_0
 10
124.75833324434301
 20
561.75128250818602
 30
0.0
 11
219.10830324434301
 21
561.75128250818602
 31
0.0
  0
LINE
  5
5C6F
  8
AM_0
 10
124.54836324434289
 20
554.87128250818603
 30
0.0
 11
219.08834324434281
 21
554.87128250818603
 31
0.0
  0
LINE
  5
5C70
  8
AM_0
 10
124.54836324434289
 20
551.95123250818585
 30
0.0
 11
255.12258324434291
 21
551.95123250818585
 31
0.0
  0
LINE
  5
5C71
  8
AM_0
 10
115.4183632443431
 20
544.73126250818609
 30
0.0
 11
187.759613244343
 21
544.73126250818609
 31
0.0
  0
LINE
  5
5C72
  8
AM_0
 10
115.4183632443431
 20
542.06134250818604
 30
0.0
 11
187.7470332443429
 21
542.06134250818604
 31
0.0
  0
LINE
  5
5C73
  8
AM_0
 10
115.3583632443427
 20
534.661322508186
 30
0.0
 11
187.82345324434289
 21
534.661322508186
 31
0.0
  0
LINE
  5
5C74
  8
AM_0
 10
115.3583632443427
 20
532.12128250818603
 30
0.0
 11
187.82345324434289
 21
532.12128250818603
 31
0.0
  0
LINE
  5
5C75
  8
AM_0
 10
115.3583632443427
 20
524.65131250818604
 30
0.0
 11
187.82345324434289
 21
524.65131250818604
 31
0.0
  0
LINE
  5
5C76
  8
AM_0
 10
186.5304232443429
 20
522.38129250818588
 30
0.0
 11
116.6383332443429
 21
522.38129250818588
 31
0.0
  0
LINE
  5
5C77
  8
AM_0
 10
186.5304232443429
 20
524.38129250818599
 30
0.0
 11
116.6383332443429
 21
524.38129250818599
 31
0.0
  0
LINE
  5
5C78
  8
AM_0
 10
115.4183632443431
 20
514.70123250818619
 30
0.0
 11
187.759613244343
 21
514.70123250818619
 31
0.0
  0
LINE
  5
5C79
  8
AM_0
 10
186.5304232443429
 20
512.38129250818599
 30
0.0
 11
116.6383332443429
 21
512.38129250818599
 31
0.0
  0
LINE
  5
5C7A
  8
AM_0
 10
115.4183632443431
 20
512.04132250818589
 30
0.0
 11
187.759613244343
 21
512.04132250818589
 31
0.0
  0
LINE
  5
5C7B
  8
AM_0
 10
251.42117324434301
 20
504.38129250818599
 30
0.0
 11
125.6240532443431
 21
504.38129250818599
 31
0.0
  0
LINE
  5
5C7C
  8
AM_0
 10
124.54836324434289
 20
504.82123250818597
 30
0.0
 11
255.12258324434291
 21
504.82123250818597
 31
0.0
  0
LINE
  5
5C7D
  8
AM_0
 10
251.42117324434301
 20
502.38129250818599
 30
0.0
 11
237.08834324434289
 21
502.38129250818599
 31
0.0
  0
LINE
  5
5C7E
  8
AM_0
 10
251.42831324434289
 20
494.38129250818599
 30
0.0
 11
237.08834324434289
 21
494.38129250818599
 31
0.0
  0
LINE
  5
5C7F
  8
AM_0
 10
115.3583632443427
 20
522.11127250818595
 30
0.0
 11
187.82345324434289
 21
522.11127250818595
 31
0.0
  0
LINE
  5
5C80
  8
AM_0
 10
122.297573244343
 20
481.3879125081861
 30
0.0
 11
123.08261324434299
 21
477.041232508186
 31
0.0
  0
LINE
  5
5C81
  8
AM_0
 10
120.60262324434279
 20
477.34125250818602
 30
0.0
 11
123.02261324434291
 21
477.34125250818602
 31
0.0
  0
LINE
  5
5C82
  8
AM_0
 10
123.0326232443429
 20
471.69128250818619
 30
0.0
 11
122.0726032443427
 21
476.16125250818601
 31
0.0
  0
LINE
  5
5C83
  8
AM_0
 10
238.60195324434309
 20
458.38129250818599
 30
0.0
 11
250.10452324434289
 21
458.38129250818599
 31
0.0
  0
LINE
  5
5C84
  8
AM_0
 10
257.08837324434307
 20
467.8812625081859
 30
0.0
 11
251.36257324434311
 21
459.06430250818602
 31
0.0
  0
LINE
  5
5C85
  8
AM_0
 10
220.58834324434289
 20
500.88129250818582
 30
0.0
 11
220.58834324434289
 21
495.88129250818599
 31
0.0
  0
LINE
  5
5C86
  8
AM_0
 10
235.58834324434289
 20
500.88129250818582
 30
0.0
 11
235.58834324434289
 21
495.88129250818599
 31
0.0
  0
LINE
  5
5C87
  8
AM_0
 10
219.08834324434281
 20
502.38129250818599
 30
0.0
 11
125.6240532443431
 21
502.38129250818599
 31
0.0
  0
LINE
  5
5C88
  8
AM_0
 10
220.10830324434309
 20
500.88129250818582
 30
0.0
 11
220.10830324434309
 21
496.02130250818618
 31
0.0
  0
LINE
  5
5C89
  8
AM_0
 10
236.06832324434299
 20
500.88129250818582
 30
0.0
 11
236.06832324434299
 21
496.02130250818618
 31
0.0
  0
LINE
  5
5C8A
  8
AM_0
 10
237.08834324434289
 20
501.90131250818598
 30
0.0
 11
255.12258324434291
 21
501.90131250818598
 31
0.0
  0
LINE
  5
5C8B
  8
AM_0
 10
237.06832324434291
 20
495.0213025081859
 30
0.0
 11
254.908353244343
 21
495.0213025081859
 31
0.0
  0
LINE
  5
5C8C
  8
AM_0
 10
236.06832324434299
 20
555.88129250818588
 30
0.0
 11
236.06832324434299
 21
560.74127250818594
 31
0.0
  0
LINE
  5
5C8D
  8
AM_0
 10
220.10830324434309
 20
555.88129250818588
 30
0.0
 11
220.10830324434309
 21
560.74127250818594
 31
0.0
  0
LINE
  5
5C8E
  8
AM_0
 10
235.58834324434289
 20
555.88129250818588
 30
0.0
 11
235.58834324434289
 21
560.88129250818599
 31
0.0
  0
LINE
  5
5C8F
  8
AM_0
 10
220.58834324434289
 20
555.88129250818588
 30
0.0
 11
220.58834324434289
 21
560.88129250818599
 31
0.0
  0
LINE
  5
5C90
  8
AM_0
 10
219.08834324434281
 20
562.38129250818599
 30
0.0
 11
125.6383332443431
 21
562.38129250818599
 31
0.0
  0
LINE
  5
5C91
  8
AM_0
 10
237.06832324434291
 20
561.75128250818602
 30
0.0
 11
254.908353244343
 21
561.75128250818602
 31
0.0
  0
LINE
  5
5C92
  8
AM_0
 10
237.08834324434289
 20
554.87128250818603
 30
0.0
 11
255.134063244343
 21
554.87128250818603
 31
0.0
  0
LINE
  5
5C93
  8
AM_0
 10
219.08834324434281
 20
554.38129250818588
 30
0.0
 11
125.6383332443431
 21
554.38129250818588
 31
0.0
  0
LINE
  5
5C94
  8
AM_0
 10
192.08834324434289
 20
548.88129250818599
 30
0.0
 11
192.08834324434289
 21
507.88129250818599
 31
0.0
  0
LINE
  5
5C95
  8
AM_0
 10
255.08834324434289
 20
548.88129250818599
 30
0.0
 11
255.08834324434289
 21
507.88129250818599
 31
0.0
  0
LINE
  5
5C96
  8
AM_0
 10
192.08834324434289
 20
548.88129250818599
 30
0.0
 11
255.08834324434289
 21
548.88129250818599
 31
0.0
  0
LINE
  5
5C97
  8
AM_0
 10
192.08834324434289
 20
507.88129250818599
 30
0.0
 11
255.08834324434289
 21
507.88129250818599
 31
0.0
  0
LINE
  5
5C98
  8
AM_0
 10
192.08834324434289
 20
541.38129250818599
 30
0.0
 11
255.08834324434289
 21
541.38129250818599
 31
0.0
  0
LINE
  5
5C99
  8
AM_0
 10
152.08834324434309
 20
574.73120250818613
 30
0.0
 11
121.08834324434279
 21
572.70120250818616
 31
0.0
  0
LINE
  5
5C9A
  8
AM_0
 10
152.08834324434309
 20
482.03125250818601
 30
0.0
 11
121.08834324434279
 21
484.06125250818599
 31
0.0
  0
ARC
  5
5C9B
  8
AM_0
 10
110.58883324434279
 20
478.13177250818597
 30
0.0
 40
0.49952301
 50
359.9452300000014
 51
90.054773999999625
  0
ARC
  5
5C9C
  8
AM_0
 10
110.5849932443429
 20
480.28473250818598
 30
0.0
 40
0.5033929900000002
 50
270.38491000000062
 51
359.61509999999811
  0
ARC
  5
5C9D
  8
AM_0
 10
110.0842532443429
 20
482.88544250818597
 30
0.0
 40
1.004119999999999
 50
270.23460999999998
 51
359.76539000000002
  0
ARC
  5
5C9E
  8
AM_0
 10
110.0859032443431
 20
487.40375250818602
 30
0.0
 40
1.002470999999999
 50
270.14107000000013
 51
359.85892999999987
  0
ARC
  5
5C9F
  8
AM_0
 10
107.08712324434291
 20
482.50482250818601
 30
0.0
 40
0.9987969999999998
 50
179.62728000000101
 51
238.70795000000021
  0
ARC
  5
5CA0
  8
AM_0
 10
107.0860832443429
 20
483.5425425081861
 30
0.0
 40
0.9977070099999998
 50
180.074020000004
 51
242.04481000000081
  0
ARC
  5
5CA1
  8
AM_0
 10
107.0874332443431
 20
487.10602250818602
 30
0.0
 40
0.9990889999999998
 50
179.6950899999965
 51
236.66209000000279
  0
ARC
  5
5CA2
  8
AM_0
 10
107.08682324434299
 20
488.14056250818601
 30
0.0
 40
0.9984580299999999
 50
179.95957999999851
 51
239.38657000000219
  0
ARC
  5
5CA3
  8
AM_0
 10
108.3517132443431
 20
487.4022825081862
 30
0.0
 40
1.0010449999999991
 50
240.4718699999996
 51
270.37970999999948
  0
ARC
  5
5CA4
  8
AM_0
 10
108.38113324434291
 20
486.261782508186
 30
0.0
 40
1.000521999999999
 50
237.1461799999995
 51
270.41344000000038
  0
ARC
  5
5CA5
  8
AM_0
 10
108.34353324434279
 20
482.88190250818599
 30
0.0
 40
1.0006820000000001
 50
241.65062000000049
 51
269.70392999999888
  0
ARC
  5
5CA6
  8
AM_0
 10
108.359703244343
 20
481.74493250818591
 30
0.0
 40
1.0037439999999991
 50
239.3711300000019
 51
270.49190000000061
  0
ARC
  5
5CA7
  8
AM_0
 10
108.334193244343
 20
480.780582508186
 30
0.0
 40
0.9993420200000001
 50
242.86200000000241
 51
269.6654599999984
  0
ARC
  5
5CA8
  8
AM_0
 10
108.36904324434271
 20
479.63238250818591
 30
0.0
 40
1.001123999999999
 50
239.3278200000014
 51
269.38767999999868
  0
ARC
  5
5CA9
  8
AM_0
 10
107.0840132443432
 20
481.411682508186
 30
0.0
 40
0.9956849800000001
 50
180.02113
 51
243.4091400000006
  0
ARC
  5
5CAA
  8
AM_0
 10
107.08596324434291
 20
480.3659025081862
 30
0.0
 40
0.9976310099999999
 50
180.2678099999986
 51
240.0792399999994
  0
ARC
  5
5CAB
  8
AM_0
 10
107.08682324434299
 20
488.14056250818601
 30
0.0
 40
0.9984580299999999
 50
179.95957999999851
 51
239.38657000000219
  0
ARC
  5
5CAC
  8
AM_0
 10
110.08511324434291
 20
487.40802250818598
 30
0.0
 40
1.0032760000000001
 50
334.19810000000479
 51
359.6181099999983
  0
ARC
  5
5CAD
  8
AM_0
 10
110.0885332443429
 20
511.38141250818597
 30
0.0
 40
0.9998210099999999
 50
359.98971999999799
 51
90.010282000001538
  0
ARC
  5
5CAE
  8
AM_0
 10
110.0834032443429
 20
515.38617250818595
 30
0.0
 40
1.004939
 50
270.2809399999997
 51
359.71907000000078
  0
ARC
  5
5CAF
  8
AM_0
 10
110.0885332443429
 20
521.38141250818603
 30
0.0
 40
0.9998279799999998
 50
359.99015999999688
 51
90.009838000000187
  0
ARC
  5
5CB0
  8
AM_0
 10
110.0834032443429
 20
525.38617250818595
 30
0.0
 40
1.004942999999999
 50
270.28113999999943
 51
359.71886999999822
  0
ARC
  5
5CB1
  8
AM_0
 10
107.0834032443429
 20
523.38617250818595
 30
0.0
 40
0.9950770099999999
 50
89.715859999999481
 51
180.28414000000049
  0
ARC
  5
5CB2
  8
AM_0
 10
107.0885332443429
 20
523.38153250818596
 30
0.0
 40
1.0002040000000001
 50
180.01165999999679
 51
269.98832000000078
  0
ARC
  5
5CB3
  8
AM_0
 10
107.0834032443429
 20
513.38617250818595
 30
0.0
 40
0.9950810099999999
 50
89.716072000000082
 51
180.2839200000044
  0
ARC
  5
5CB4
  8
AM_0
 10
107.0885332443429
 20
513.38153250818607
 30
0.0
 40
1.0001999999999991
 50
180.01145999999861
 51
269.98854000000142
  0
ARC
  5
5CB5
  8
AM_0
 10
107.0834032443429
 20
503.38617250818572
 30
0.0
 40
0.9950849999999999
 50
89.716282999999422
 51
180.28371999999919
  0
ARC
  5
5CB6
  8
AM_0
 10
107.0885332443429
 20
503.38153250818578
 30
0.0
 40
1.0001959999999981
 50
180.01124999999951
 51
269.98875000000061
  0
ARC
  5
5CB7
  8
AM_0
 10
107.084863244343
 20
494.20978250818598
 30
0.0
 40
0.9965090199999998
 50
179.9137499999965
 51
247.17844999999909
  0
ARC
  5
5CB8
  8
AM_0
 10
107.0847432443429
 20
495.99567250818598
 30
0.0
 40
0.99638802
 50
180.24990999999889
 51
253.29664000000031
  0
ARC
  5
5CB9
  8
AM_0
 10
108.2289132443432
 20
495.64398250818601
 30
0.0
 40
1.002699
 50
253.75271999999791
 51
270.54064000000108
  0
ARC
  5
5CBA
  8
AM_0
 10
108.2913532443427
 20
493.69647250818599
 30
0.0
 40
1.005233
 50
246.98639000000031
 51
269.82924999999938
  0
ARC
  5
5CBB
  8
AM_0
 10
110.38888324434291
 20
491.99188250818571
 30
0.0
 40
0.6994530000000001
 50
359.95517000000092
 51
90.044829000000746
  0
ARC
  5
5CBC
  8
AM_0
 10
110.0885332443429
 20
501.38141250818597
 30
0.0
 40
0.9998239899999999
 50
359.98991999999532
 51
90.01007700000045
  0
ARC
  5
5CBD
  8
AM_0
 10
110.0834032443429
 20
505.38617250818572
 30
0.0
 40
1.0049469
 50
270.28136999999919
 51
359.71863000000081
  0
ARC
  5
5CBE
  8
AM_0
 10
110.0849932443427
 20
495.64459250818618
 30
0.0
 40
1.003352
 50
270.19111000000021
 51
359.80890000000107
  0
ARC
  5
5CBF
  8
AM_0
 10
110.5837632443429
 20
578.63592250818579
 30
0.0
 40
0.50463498
 50
270.52383000000037
 51
359.47616999999963
  0
ARC
  5
5CC0
  8
AM_0
 10
110.5900532443431
 20
576.48297250818598
 30
0.0
 40
0.4983060100000002
 50
359.80488999999778
 51
90.195107000000036
  0
ARC
  5
5CC1
  8
AM_0
 10
110.0893232443433
 20
573.88226250818605
 30
0.0
 40
0.9990100299999999
 50
359.94319000000121
 51
90.056809000000058
  0
ARC
  5
5CC2
  8
AM_0
 10
110.3838132443431
 20
564.77582250818614
 30
0.0
 40
0.704566
 50
270.37010000000009
 51
359.62990999999778
  0
ARC
  5
5CC3
  8
AM_0
 10
110.0860232443427
 20
569.36896250818597
 30
0.0
 40
1.002353
 50
0.1343268199984526
 51
89.865672999999376
  0
ARC
  5
5CC4
  8
AM_0
 10
110.0900532443431
 20
561.12298250818606
 30
0.0
 40
0.9982839799999999
 50
359.90142000000009
 51
90.098576000001358
  0
ARC
  5
5CC5
  8
AM_0
 10
110.0834032443429
 20
555.38617250818595
 30
0.0
 40
1.004942999999999
 50
270.28111000000013
 51
359.71888999999987
  0
ARC
  5
5CC6
  8
AM_0
 10
110.0885332443429
 20
551.38141250818603
 30
0.0
 40
0.9998289899999999
 50
359.99019000000038
 51
90.009811000000937
  0
ARC
  5
5CC7
  8
AM_0
 10
110.0834032443429
 20
545.38617250818606
 30
0.0
 40
1.004939
 50
270.2809100000008
 51
359.71909999999991
  0
ARC
  5
5CC8
  8
AM_0
 10
110.0885332443429
 20
541.38141250818603
 30
0.0
 40
0.9998210099999999
 50
359.98975000000149
 51
90.010254999998992
  0
ARC
  5
5CC9
  8
AM_0
 10
110.0834032443429
 20
535.38617250818595
 30
0.0
 40
1.0049469
 50
270.28135000000037
 51
359.71866000000068
  0
ARC
  5
5CCA
  8
AM_0
 10
110.0885332443429
 20
531.38141250818603
 30
0.0
 40
0.9998249999999999
 50
359.98994999999883
 51
90.010050000001243
  0
ARC
  5
5CCB
  8
AM_0
 10
107.0885332443429
 20
533.38153250818618
 30
0.0
 40
1.0001959999999981
 50
180.0112199999958
 51
269.98878000000087
  0
ARC
  5
5CCC
  8
AM_0
 10
107.0834032443429
 20
533.38617250818595
 30
0.0
 40
0.9950849999999999
 50
89.716311000000914
 51
180.28368999999961
  0
ARC
  5
5CCD
  8
AM_0
 10
107.0885332443429
 20
543.38153250818607
 30
0.0
 40
1.0001999999999991
 50
180.01143000000161
 51
269.98856999999839
  0
ARC
  5
5CCE
  8
AM_0
 10
107.0834032443429
 20
543.38617250818595
 30
0.0
 40
0.99508202
 50
89.716099000001435
 51
180.2839099999978
  0
ARC
  5
5CCF
  8
AM_0
 10
107.0885332443429
 20
553.38153250818596
 30
0.0
 40
1.000203
 50
180.01164999999551
 51
269.98835000000122
  0
ARC
  5
5CD0
  8
AM_0
 10
107.0834032443429
 20
553.38617250818606
 30
0.0
 40
0.99507803
 50
89.715887000001331
 51
180.28410999999991
  0
ARC
  5
5CD1
  8
AM_0
 10
107.0847432443429
 20
562.56280250818588
 30
0.0
 40
0.9963999999999998
 50
112.8173600000008
 51
180.0904199999996
  0
ARC
  5
5CD2
  8
AM_0
 10
107.08462324434311
 20
560.77704250818579
 30
0.0
 40
0.9962710099999999
 50
106.6979199999999
 51
180.33004999999989
  0
ARC
  5
5CD3
  8
AM_0
 10
108.2275032443427
 20
561.12860250818596
 30
0.0
 40
0.9927430199999999
 50
89.374554999998736
 51
106.33207000000171
  0
ARC
  5
5CD4
  8
AM_0
 10
108.289333244343
 20
563.07587250818597
 30
0.0
 40
0.9954450099999999
 50
90.056904999999645
 51
113.1274500000013
  0
ARC
  5
5CD5
  8
AM_0
 10
107.0827932443427
 20
574.26031250818585
 30
0.0
 40
0.9944329899999999
 50
121.1521299999998
 51
179.94050999999911
  0
ARC
  5
5CD6
  8
AM_0
 10
107.0815732443431
 20
573.22272250818605
 30
0.0
 40
0.9932109699999999
 50
117.79932000000061
 51
180.08187000000001
  0
ARC
  5
5CD7
  8
AM_0
 10
107.08315324434299
 20
569.65887250818605
 30
0.0
 40
0.9948369899999999
 50
123.20496000000099
 51
180.43785999999801
  0
ARC
  5
5CD8
  8
AM_0
 10
107.0823632443429
 20
568.62445250818598
 30
0.0
 40
0.99404597
 50
120.4681999999988
 51
180.18564000000021
  0
ARC
  5
5CD9
  8
AM_0
 10
108.3677632443428
 20
569.37482250818596
 30
0.0
 40
0.99648702
 50
90.540720999998641
 51
120.74377000000059
  0
ARC
  5
5CDA
  8
AM_0
 10
108.3949832443429
 20
570.51507250818599
 30
0.0
 40
0.99617702
 50
90.381317999999226
 51
123.9704899999999
  0
ARC
  5
5CDB
  8
AM_0
 10
108.3234532443429
 20
573.88592250818613
 30
0.0
 40
0.99545902
 50
89.141290999999924
 51
117.2038199999995
  0
ARC
  5
5CDC
  8
AM_0
 10
108.3572032443429
 20
575.02704250818613
 30
0.0
 40
0.99427301
 50
89.356066000000013
 51
120.7809100000017
  0
ARC
  5
5CDD
  8
AM_0
 10
108.3131432443429
 20
575.987242508186
 30
0.0
 40
0.99411702
 50
89.122643999998516
 51
115.9349799999988
  0
ARC
  5
5CDE
  8
AM_0
 10
108.3503732443431
 20
577.13544250818597
 30
0.0
 40
0.9959030199999999
 50
89.541266999999124
 51
119.6071699999994
  0
ARC
  5
5CDF
  8
AM_0
 10
107.08395324434269
 20
575.36102250818612
 30
0.0
 40
0.995579
 50
116.5870900000007
 51
179.98263999999989
  0
ARC
  5
5CE0
  8
AM_0
 10
107.0815732443431
 20
576.39923250818595
 30
0.0
 40
0.99319202
 50
119.77338000000169
 51
179.87958999999799
  0
ARC
  5
5CE1
  8
AM_0
 10
124.2291532443429
 20
487.17096250818582
 30
0.0
 40
1.0032491999999991
 50
314.98118999999758
 51
5.167643400001003
  0
ARC
  5
5CE2
  8
AM_0
 10
259.08816324434292
 20
590.88153250818596
 30
0.0
 40
0.99980682
 50
89.98893100000069
 51
180.0110699999974
  0
ARC
  5
5CE3
  8
AM_0
 10
250.88961324434291
 20
468.52753250818591
 30
0.0
 40
2.0062942999999991
 50
270.24932999999891
 51
345.08844000000403
  0
ARC
  5
5CE4
  8
AM_0
 10
259.087433244343
 20
579.42218250818598
 30
0.0
 40
0.9990923399999999
 50
89.947921999999295
 51
180.05208000000431
  0
ARC
  5
5CE5
  8
AM_0
 10
133.08114324434291
 20
533.38129250818599
 30
0.0
 40
1.0000259
 50
89.587534000000232
 51
270.4124599999987
  0
ARC
  5
5CE6
  8
AM_0
 10
125.04782324434289
 20
579.37604250818606
 30
0.0
 40
1.9952742999999991
 50
90.148580000000095
 51
170.03521999999899
  0
ARC
  5
5CE7
  8
AM_0
 10
124.98568324434289
 20
584.65423250818606
 30
0.0
 40
1.997119399999999
 50
89.801366999998493
 51
167.94475999999821
  0
ARC
  5
5CE8
  8
AM_0
 10
120.6051932443429
 20
580.92364250818605
 30
0.0
 40
1.502416299999999
 50
269.90137999999882
 51
347.60813000000093
  0
ARC
  5
5CE9
  8
AM_0
 10
117.2185932443429
 20
588.05902250818576
 30
0.0
 40
1.9922863
 50
90.007721000000544
 51
166.8783899999971
  0
ARC
  5
5CEA
  8
AM_0
 10
112.8935832443433
 20
584.98614250818605
 30
0.0
 40
1.5048382
 50
270.18264000000067
 51
346.75308000000138
  0
ARC
  5
5CEB
  8
AM_0
 10
112.9079232443431
 20
587.00665250818611
 30
0.0
 40
1.505448699999999
 50
270.39686999999992
 51
345.95247000000012
  0
ARC
  5
5CEC
  8
AM_0
 10
117.1932032443431
 20
589.68671250818568
 30
0.0
 40
1.994612099999999
 50
89.851991999999015
 51
165.93885999999711
  0
ARC
  5
5CED
  8
AM_0
 10
134.0816332443429
 20
588.24798250818606
 30
0.0
 40
1.9933081999999991
 50
89.807323000000935
 51
180.19266999999849
  0
ARC
  5
5CEE
  8
AM_0
 10
134.08248324434291
 20
590.27716250818605
 30
0.0
 40
1.994130499999996
 50
89.831105999999224
 51
180.16889000000049
  0
ARC
  5
5CEF
  8
AM_0
 10
134.08486324434301
 20
591.63483250818615
 30
0.0
 40
1.996488899999999
 50
89.899147999998391
 51
180.10084999999879
  0
ARC
  5
5CF0
  8
AM_0
 10
134.08212324434311
 20
592.30475250818608
 30
0.0
 40
1.9964978999999961
 50
89.821482000000245
 51
165.6006099999997
  0
ARC
  5
5CF1
  8
AM_0
 10
130.58462324434311
 20
582.87506250818603
 30
0.0
 40
1.5037541000000001
 50
270.14287000000093
 51
359.85713999999848
  0
ARC
  5
5CF2
  8
AM_0
 10
130.58346324434299
 20
588.156192508186
 30
0.0
 40
1.504891299999997
 50
270.1859300000005
 51
359.81406999999621
  0
ARC
  5
5CF3
  8
AM_0
 10
130.5814532443429
 20
591.55817250818598
 30
0.0
 40
1.506942899999999
 50
270.26336999999921
 51
359.73663000000079
  0
ARC
  5
5CF4
  8
AM_0
 10
130.693263244343
 20
593.18646250818597
 30
0.0
 40
1.505230099999999
 50
270.19421
 51
345.17177999999871
  0
ARC
  5
5CF5
  8
AM_0
 10
257.73849324434292
 20
576.23358250818615
 30
0.0
 40
1.5022733999999991
 50
195.1365099999966
 51
269.99412000000041
  0
ARC
  5
5CF6
  8
AM_0
 10
250.89779324434301
 20
588.24213250818605
 30
0.0
 40
1.9991226
 50
15.05079100000003
 51
89.984388999999666
  0
ARC
  5
5CF7
  8
AM_0
 10
259.08132324434291
 20
465.874332508186
 30
0.0
 40
0.99304521
 50
179.5973099999994
 51
270.40268000000009
  0
ARC
  5
5CF8
  8
AM_0
 10
259.0806532443429
 20
477.33368250818597
 30
0.0
 40
0.99237448
 50
179.55801999999801
 51
270.4419699999998
  0
ARC
  5
5CF9
  8
AM_0
 10
257.79403324434298
 20
580.92157250818616
 30
0.0
 40
1.500286
 50
192.32631000000171
 51
270.16416999999848
  0
ARC
  5
5CFA
  8
AM_0
 10
120.2439232443428
 20
569.97552250818615
 30
0.0
 40
5.0059714
 50
279.71098000000109
 51
354.67888000000482
  0
ARC
  5
5CFB
  8
AM_0
 10
120.7093132443427
 20
566.04877250818606
 30
0.0
 40
6.0044340999999992
 50
45.225578000001079
 51
86.380821999999185
  0
ARC
  5
5CFC
  8
AM_0
 10
124.2303132443429
 20
569.60199250818596
 30
0.0
 40
1.002184699999999
 50
354.8038600000034
 51
45.047306999998277
  0
ARC
  5
5CFD
  8
AM_0
 10
120.7080332443429
 20
490.72662250818593
 30
0.0
 40
6.0073843
 50
273.6297400000006
 51
314.76385000000192
  0
ARC
  5
5CFE
  8
AM_0
 10
120.2511832443429
 20
486.79278250818618
 30
0.0
 40
4.9991421999999961
 50
5.3780268999992682
 51
80.360064999998514
  0
ARC
  5
5CFF
  8
AM_0
 10
117.2251832443431
 20
468.7118525081861
 30
0.0
 40
2.0005671999999981
 50
193.30959000000229
 51
269.80430999999942
  0
ARC
  5
5D00
  8
AM_0
 10
112.9015832443427
 20
471.78363250818597
 30
0.0
 40
1.497715799999999
 50
13.424378999996071
 51
90.122645000001114
  0
ARC
  5
5D01
  8
AM_0
 10
112.9160432443429
 20
469.7630025081861
 30
0.0
 40
1.4982997
 50
14.229739999998021
 51
89.910950000001179
  0
ARC
  5
5D02
  8
AM_0
 10
134.08840324434291
 20
468.52130250818601
 30
0.0
 40
2.0000371999999991
 50
180.0010599999959
 51
269.99892999999969
  0
ARC
  5
5D03
  8
AM_0
 10
134.0892632443427
 20
466.4922525081862
 30
0.0
 40
2.0009109999999981
 50
180.00001000000091
 51
269.97390999999988
  0
ARC
  5
5D04
  8
AM_0
 10
130.5863932443429
 20
473.8993525081861
 30
0.0
 40
1.501982699999999
 50
0.0755872020005832
 51
89.924413000001564
  0
ARC
  5
5D05
  8
AM_0
 10
130.5852332443431
 20
468.6181025081861
 30
0.0
 40
1.503128599999999
 50
0.1191296500022061
 51
89.880869999998822
  0
ARC
  5
5D06
  8
AM_0
 10
257.73196324434292
 20
480.53754250818599
 30
0.0
 40
1.4937901
 50
89.756423999998475
 51
165.1129200000008
  0
ARC
  5
5D07
  8
AM_0
 10
133.08114324434291
 20
543.38129250818588
 30
0.0
 40
1.0000259
 50
89.587534000000232
 51
270.4124599999987
  0
ARC
  5
5D08
  8
AM_0
 10
133.08114324434291
 20
553.38129250818599
 30
0.0
 40
1.0000259
 50
89.587534000000232
 51
270.4124599999987
  0
ARC
  5
5D09
  8
AM_0
 10
133.08114324434291
 20
563.38129250818611
 30
0.0
 40
1.0000259
 50
89.587534000000232
 51
270.4124599999987
  0
ARC
  5
5D0A
  8
AM_0
 10
115.3501232443429
 20
533.39130250818596
 30
0.0
 40
1.2700266
 50
89.629327999999504
 51
270.37065999999959
  0
ARC
  5
5D0B
  8
AM_0
 10
115.41207324434311
 20
543.39630250818618
 30
0.0
 40
1.3350147999999991
 50
89.730435000000341
 51
270.2695700000001
  0
ARC
  5
5D0C
  8
AM_0
 10
124.54263324434289
 20
553.411322508186
 30
0.0
 40
1.460011199999999
 50
89.775248000001255
 51
270.22474000000028
  0
ARC
  5
5D0D
  8
AM_0
 10
124.75833324434301
 20
563.43133250818585
 30
0.0
 40
1.6800002000000001
 50
90.000003000000945
 51
270.0
  0
ARC
  5
5D0E
  8
AM_0
 10
116.6383332443429
 20
533.38129250818599
 30
0.0
 40
1.0000056999999991
 50
90.000003000000945
 51
270.0
  0
ARC
  5
5D0F
  8
AM_0
 10
116.6383332443429
 20
543.38129250818588
 30
0.0
 40
1.0000056999999991
 50
90.000003000000945
 51
270.0
  0
ARC
  5
5D10
  8
AM_0
 10
125.6311932443427
 20
563.38129250818611
 30
0.0
 40
1.0000255999999981
 50
89.589474000000749
 51
270.41051999999962
  0
ARC
  5
5D11
  8
AM_0
 10
125.6311932443427
 20
553.38129250818599
 30
0.0
 40
1.0000255999999981
 50
89.589474000000749
 51
270.41051999999962
  0
ARC
  5
5D12
  8
AM_0
 10
254.908353244343
 20
563.43133250818585
 30
0.0
 40
1.6800077
 50
269.999989999999
 51
90.000003000000945
  0
ARC
  5
5D13
  8
AM_0
 10
251.42831324434289
 20
563.38129250818611
 30
0.0
 40
1.0000040999999991
 50
269.999989999999
 51
90.000003000000945
  0
ARC
  5
5D14
  8
AM_0
 10
251.42831324434289
 20
493.38129250818582
 30
0.0
 40
1.0000040999999991
 50
269.999989999999
 51
90.000003000000945
  0
ARC
  5
5D15
  8
AM_0
 10
254.908353244343
 20
493.34125250818602
 30
0.0
 40
1.6800077
 50
269.999989999999
 51
90.000003000000945
  0
ARC
  5
5D16
  8
AM_0
 10
116.6383332443429
 20
523.38129250818599
 30
0.0
 40
1.0000056999999991
 50
90.000003000000945
 51
270.0
  0
ARC
  5
5D17
  8
AM_0
 10
133.08114324434291
 20
513.38129250818588
 30
0.0
 40
1.0000259
 50
89.587534000000232
 51
270.4124599999987
  0
ARC
  5
5D18
  8
AM_0
 10
133.08114324434291
 20
503.38129250818599
 30
0.0
 40
1.0000259
 50
89.587534000000232
 51
270.4124599999987
  0
ARC
  5
5D19
  8
AM_0
 10
115.41207324434311
 20
513.37128250818603
 30
0.0
 40
1.3300148000000001
 50
89.729417999999541
 51
270.27058999999991
  0
ARC
  5
5D1A
  8
AM_0
 10
133.08114324434291
 20
523.38129250818599
 30
0.0
 40
1.0000259
 50
89.587534000000232
 51
270.4124599999987
  0
ARC
  5
5D1B
  8
AM_0
 10
133.08114324434291
 20
493.38129250818582
 30
0.0
 40
1.0000259
 50
89.587534000000232
 51
270.4124599999987
  0
ARC
  5
5D1C
  8
AM_0
 10
115.3501232443429
 20
523.38129250818599
 30
0.0
 40
1.2700266
 50
89.629320999999507
 51
270.3706899999986
  0
ARC
  5
5D1D
  8
AM_0
 10
116.6383332443429
 20
513.38129250818588
 30
0.0
 40
1.0000056999999991
 50
90.000003000000945
 51
270.0
  0
ARC
  5
5D1E
  8
AM_0
 10
120.82150324434291
 20
575.64130250818607
 30
0.0
 40
1.5
 50
280.24789000000129
 51
349.76261999999917
  0
ARC
  5
5D1F
  8
AM_0
 10
120.82150324434291
 20
481.12128250818591
 30
0.0
 40
1.5
 50
10.237378999998541
 51
79.752109999998723
  0
ARC
  5
5D20
  8
AM_0
 10
125.04782324434289
 20
477.38653250818589
 30
0.0
 40
1.9952742999999991
 50
189.9647800000009
 51
269.85141999999991
  0
ARC
  5
5D21
  8
AM_0
 10
120.6051932443429
 20
475.83893250818602
 30
0.0
 40
1.502416299999999
 50
12.391887000000411
 51
90.098616999999123
  0
ARC
  5
5D22
  8
AM_0
 10
124.98568324434289
 20
472.10834250818618
 30
0.0
 40
1.997119399999999
 50
192.0552400000017
 51
270.1986299999989
  0
ARC
  5
5D23
  8
AM_0
 10
124.75833324434301
 20
493.33124250818599
 30
0.0
 40
1.6800002000000001
 50
90.000003000000945
 51
270.0
  0
ARC
  5
5D24
  8
AM_0
 10
125.6311932443427
 20
493.38129250818582
 30
0.0
 40
1.0000255999999981
 50
89.589474000000749
 51
270.41051999999962
  0
ARC
  5
5D25
  8
AM_0
 10
125.6311932443427
 20
503.38129250818599
 30
0.0
 40
1.0000255999999981
 50
89.589474000000749
 51
270.41051999999962
  0
ARC
  5
5D26
  8
AM_0
 10
124.54263324434289
 20
503.35126250818598
 30
0.0
 40
1.460011199999999
 50
89.775248000001255
 51
270.22474000000028
  0
ARC
  5
5D27
  8
AM_0
 10
175.41470324434289
 20
462.99127250818628
 30
0.0
 40
1.5
 50
1.5000027000022329
 51
90.000003000000945
  0
ARC
  5
5D28
  8
AM_0
 10
250.10452324434289
 20
459.88129250818571
 30
0.0
 40
1.5
 50
269.999989999999
 51
326.99999999999892
  0
ARC
  5
5D29
  8
AM_0
 10
238.60195324434309
 20
456.88129250818582
 30
0.0
 40
1.5
 50
90.000003000000945
 51
178.4999999999973
  0
ARC
  5
5D2A
  8
AM_0
 10
252.60830324434301
 20
590.77130250818595
 30
0.0
 40
1.5
 50
12.12979199999535
 51
90.000003000000945
  0
ARC
  5
5D2B
  8
AM_0
 10
252.31600324434299
 20
592.13129250818611
 30
0.0
 40
1.5
 50
12.12979199999535
 51
90.000003000000945
  0
ARC
  5
5D2C
  8
AM_0
 10
252.17196324434289
 20
592.80133250818596
 30
0.0
 40
1.5
 50
12.12979199999535
 51
90.000003000000945
  0
ARC
  5
5D2D
  8
AM_0
 10
255.12832324434299
 20
503.35126250818598
 30
0.0
 40
1.460011199999999
 50
269.77524999999991
 51
90.224750000000114
  0
ARC
  5
5D2E
  8
AM_0
 10
251.42831324434289
 20
503.38129250818599
 30
0.0
 40
1.0000255999999981
 50
269.58947000000001
 51
90.410531000001029
  0
ARC
  5
5D2F
  8
AM_0
 10
255.12832324434299
 20
553.411322508186
 30
0.0
 40
1.460011199999999
 50
269.77524999999991
 51
90.224750000000114
  0
ARC
  5
5D30
  8
AM_0
 10
251.42831324434289
 20
553.38129250818599
 30
0.0
 40
1.0000255999999981
 50
269.58947000000001
 51
90.410531000001029
  0
ARC
  5
5D31
  8
AM_0
 10
187.75332324434291
 20
543.39630250818618
 30
0.0
 40
1.3350147999999991
 50
269.7304299999999
 51
90.269556000001344
  0
ARC
  5
5D32
  8
AM_0
 10
186.52706324434311
 20
543.38129250818588
 30
0.0
 40
1.0000056999999991
 50
269.999989999999
 51
90.000003000000945
  0
ARC
  5
5D33
  8
AM_0
 10
186.52706324434311
 20
533.38129250818599
 30
0.0
 40
1.0000056999999991
 50
269.999989999999
 51
90.000003000000945
  0
ARC
  5
5D34
  8
AM_0
 10
187.81527324434299
 20
533.39130250818596
 30
0.0
 40
1.2700266
 50
269.62932000000001
 51
90.370670000001468
  0
ARC
  5
5D35
  8
AM_0
 10
186.52706324434311
 20
523.38129250818599
 30
0.0
 40
1.0000056999999991
 50
269.999989999999
 51
90.000003000000945
  0
ARC
  5
5D36
  8
AM_0
 10
187.81527324434299
 20
523.38129250818599
 30
0.0
 40
1.2700266
 50
269.62932000000001
 51
90.370670000001468
  0
ARC
  5
5D37
  8
AM_0
 10
186.52706324434311
 20
513.38129250818588
 30
0.0
 40
1.0000056999999991
 50
269.999989999999
 51
90.000003000000945
  0
ARC
  5
5D38
  8
AM_0
 10
187.75332324434291
 20
513.37128250818603
 30
0.0
 40
1.3300148000000001
 50
269.7294199999987
 51
90.270567000000995
  0
ARC
  5
5D39
  8
AM_0
 10
237.08834324434289
 20
500.88129250818582
 30
0.0
 40
1.5
 50
90.000003000000945
 51
180.00001000000091
  0
ARC
  5
5D3A
  8
AM_0
 10
237.08834324434289
 20
495.88129250818599
 30
0.0
 40
1.5
 50
179.999989999999
 51
270.0
  0
ARC
  5
5D3B
  8
AM_0
 10
219.08834324434281
 20
500.88129250818582
 30
0.0
 40
1.5
 50
0.0
 51
90.000003000000945
  0
ARC
  5
5D3C
  8
AM_0
 10
219.08834324434281
 20
495.88129250818599
 30
0.0
 40
1.5
 50
269.999989999999
 51
0.0000006832495047
  0
ARC
  5
5D3D
  8
AM_0
 10
237.08834324434289
 20
500.88129250818582
 30
0.0
 40
1.02
 50
90.000003000000945
 51
180.00001000000091
  0
ARC
  5
5D3E
  8
AM_0
 10
219.08834324434281
 20
500.88129250818582
 30
0.0
 40
1.02
 50
0.0
 51
90.000003000000945
  0
ARC
  5
5D3F
  8
AM_0
 10
219.10830324434301
 20
496.02130250818618
 30
0.0
 40
1.0
 50
269.999989999999
 51
0.0000006832495047
  0
ARC
  5
5D40
  8
AM_0
 10
237.06832324434291
 20
496.02130250818618
 30
0.0
 40
1.0
 50
179.999989999999
 51
270.0
  0
CIRCLE
  5
5D41
  8
AM_0
 10
225.58834324434289
 20
499.88129250818599
 30
0.0
 40
1.1000000000000001
  0
CIRCLE
  5
5D42
  8
AM_0
 10
225.58834324434289
 20
499.88129250818599
 30
0.0
 40
1.149999999999999
  0
CIRCLE
  5
5D43
  8
AM_0
 10
230.58834324434289
 20
499.88129250818599
 30
0.0
 40
1.0
  0
ARC
  5
5D44
  8
AM_0
 10
237.08834324434289
 20
555.88129250818588
 30
0.0
 40
1.5
 50
179.999989999999
 51
270.0
  0
ARC
  5
5D45
  8
AM_0
 10
237.08834324434289
 20
560.88129250818599
 30
0.0
 40
1.5
 50
90.000003000000945
 51
180.00001000000091
  0
ARC
  5
5D46
  8
AM_0
 10
219.08834324434281
 20
555.88129250818588
 30
0.0
 40
1.5
 50
269.999989999999
 51
0.0000006832495047
  0
ARC
  5
5D47
  8
AM_0
 10
219.08834324434281
 20
560.88129250818599
 30
0.0
 40
1.5
 50
0.0
 51
90.000003000000945
  0
ARC
  5
5D48
  8
AM_0
 10
237.08834324434289
 20
555.88129250818588
 30
0.0
 40
1.02
 50
179.999989999999
 51
270.0
  0
ARC
  5
5D49
  8
AM_0
 10
219.08834324434281
 20
555.88129250818588
 30
0.0
 40
1.02
 50
269.999989999999
 51
0.0000006832429909
  0
ARC
  5
5D4A
  8
AM_0
 10
219.10830324434301
 20
560.74127250818594
 30
0.0
 40
1.0
 50
0.0
 51
90.000003000000945
  0
ARC
  5
5D4B
  8
AM_0
 10
237.06832324434291
 20
560.74127250818594
 30
0.0
 40
1.0
 50
90.000003000000945
 51
180.00001000000091
  0
CIRCLE
  5
5D4C
  8
AM_0
 10
230.58834324434289
 20
556.88129250818599
 30
0.0
 40
1.0
  0
CIRCLE
  5
5D4D
  8
AM_0
 10
225.58834324434289
 20
556.88129250818599
 30
0.0
 40
1.149999999999999
  0
CIRCLE
  5
5D4E
  8
AM_0
 10
225.58834324434289
 20
556.88129250818599
 30
0.0
 40
1.1000000000000001
  0
ARC
  5
5D4F
  8
AM_0
 10
116.7889732443429
 20
468.71124250818599
 30
0.0
 40
2.0
 50
194.15074999999919
 51
269.999989999999
  0
ARC
  5
5D50
  8
AM_0
 10
130.83108324434329
 20
465.21124250818599
 30
0.0
 40
1.5
 50
21.46170899999715
 51
90.000003000000945
  0
LINE
  5
5D54
  8
AM_0
 10
237.11449309338369
 20
454.38129250818599
 30
0.0
 11
237.43241904707801
 21
466.52130250818601
 31
0.0
  0
LINE
  5
5D55
  8
AM_0
 10
177.06206109814309
 20
454.38129250818599
 30
0.0
 11
176.7442191167126
 21
466.52130250818601
 31
0.0
  0
LINE
  5
5D56
  8
AM_0
 10
173.58830324434311
 20
452.38129250818628
 30
0.0
 11
240.58830324434331
 21
452.38129250818628
 31
0.0
  0
LINE
  5
5D57
  8
AM_0
 10
173.58830324434311
 20
451.38129250818599
 30
0.0
 11
173.58830324434311
 21
452.38129250818628
 31
0.0
  0
LINE
  5
5D58
  8
AM_0
 10
240.58830324434331
 20
451.38129250818599
 30
0.0
 11
240.58830324434331
 21
452.38129250818628
 31
0.0
  0
LINE
  5
5D59
  8
AM_0
 10
159.08830324434311
 20
413.38129250818599
 30
0.0
 11
160.34788838060541
 21
449.45109150159112
 31
0.0
  0
LINE
  5
5D5A
  8
AM_0
 10
162.34667003464381
 20
451.38129250818599
 30
0.0
 11
251.82993645404281
 21
451.38129250818599
 31
0.0
  0
ARC
  5
5D5B
  8
AM_0
 10
162.34667003464381
 20
449.38129250818611
 30
0.0
 40
2.0
 50
90.0
 51
178.0000000000029
1001
GENIUS_GENODEF_13
1002
{
1000
HIER
1070
     0
1002
}
1002
{
1000
MANEDIT
1070
     0
1002
}
1002
{
1000
NOSEL
1070
     0
1002
}
1002
{
1000
BEHIND
1070
     0
1002
}
1002
{
1000
OTHER
1070
     0
1002
}
1002
{
1000
REACTOR
1002
}
1001
GENIUS_GENOBJ-N-FIL_13
1002
{
1000
OWNER
1000
GEN
1002
}
  0
LINE
  5
5D5C
  8
AM_0
 10
253.82871810808101
 20
449.45109150159112
 30
0.0
 11
255.08830324434331
 21
413.38129250818599
 31
0.0
  0
ARC
  5
5D5D
  8
AM_0
 10
251.82993645404281
 20
449.38129250818611
 30
0.0
 40
2.0
 50
1.9999999999971021
 51
90.0
1001
GENIUS_GENOBJ-N-FIL_13
1002
{
1000
OWNER
1000
GEN
1002
}
1001
GENIUS_GENODEF_13
1002
{
1000
HIER
1070
     0
1002
}
1002
{
1000
MANEDIT
1070
     0
1002
}
1002
{
1000
NOSEL
1070
     0
1002
}
1002
{
1000
BEHIND
1070
     0
1002
}
1002
{
1000
OTHER
1070
     0
1002
}
1002
{
1000
REACTOR
1002
}
  0
LINE
  5
5D5E
  8
AM_0
 10
255.08830324434331
 20
413.38129250818599
 30
0.0
 11
159.08830324434291
 21
413.38129250818599
 31
0.0
  0
LINE
  5
5D5F
  8
AM_0
 10
159.19306555281841
 20
416.38129250818582
 30
0.0
 11
158.08830324434311
 21
416.38129250818582
 31
0.0
  0
LINE
  5
5D60
  8
AM_0
 10
160.31053017655441
 20
448.38129250818582
 30
0.0
 11
158.08830324434311
 21
448.38129250818582
 31
0.0
  0
LINE
  5
5D61
  8
ﾁｭｳｼﾝｾﾝ1
 10
164.08830324434379
 20
403.11658500818601
 30
0.0
 11
164.0883032443439
 21
416.11658500818601
 31
0.0
  0
LINE
  5
5D62
  8
ﾁｭｳｼﾝｾﾝ
 10
207.08830324434319
 20
458.67332318141513
 30
0.0
 11
207.08830324434319
 21
400.9307698673768
 31
0.0
  0
LINE
  5
5D63
  8
AM_0
 10
155.58830324434311
 20
418.88129250818582
 30
0.0
 11
158.08830324434311
 21
418.8812925081856
 31
0.0
  0
LINE
  5
5D64
  8
AM_0
 10
158.08830324434311
 20
445.8812925081856
 30
0.0
 11
155.58830324434311
 21
445.88129250818582
 31
0.0
  0
LINE
  5
5D65
  8
AM_0
 10
144.6896321479972
 20
442.88129250818571
 30
0.0
 11
144.6896321479972
 21
421.88129250818582
 31
0.0
  0
LINE
  5
5D66
  8
AM_0
 10
129.6896321479972
 20
424.34966745417063
 30
0.0
 11
129.6896321479972
 21
440.4129175622017
 31
0.0
  0
LINE
  5
5D67
  8
AM_0
 10
142.6896321479972
 20
444.38129250818582
 30
0.0
 11
142.6896321479972
 21
420.38129250818582
 31
0.0
  0
LINE
  5
5D68
  8
AM_0
 10
133.1896321479972
 20
432.38129250818582
 30
0.0
 11
133.6896321479972
 21
432.88129250818582
 31
0.0
  0
LINE
  5
5D69
  8
AM_0
 10
140.1896321479972
 20
420.68129250818578
 30
0.0
 11
140.1896321479972
 21
444.08129250818558
 31
0.0
  0
LINE
  5
5D6A
  8
AM_0
 10
150.08830324434311
 20
420.88129250818582
 30
0.0
 11
150.08830324434311
 21
443.88129250818582
 31
0.0
  0
LINE
  5
5D6B
  8
AM_0
 10
144.1896321479972
 20
433.0812925081878
 30
0.0
 11
144.1896321479972
 21
431.68129250818458
 31
0.0
  0
LINE
  5
5D6C
  8
AM_0
 10
146.289267874568
 20
441.48129250818567
 30
0.0
 11
145.53926787456919
 21
423.2812925081858
 31
0.0
  0
LINE
  5
5D6D
  8
AM_0
 10
145.33830324434311
 20
441.48129250818567
 30
0.0
 11
144.6896321479972
 21
425.74020723686959
 31
0.0
  0
LINE
  5
5D6E
  8
AM_0
 10
146.08699583491509
 20
442.19695122054992
 30
0.0
 11
145.3397357915072
 21
422.56892074701881
 31
0.0
  0
LINE
  5
5D6F
  8
AM_0
 10
145.53783532740511
 20
442.1936642693538
 30
0.0
 11
144.78926787456919
 21
422.53129250818557
 31
0.0
  0
LINE
  5
5D70
  8
AM_0
 10
142.6896321479972
 20
420.38129250818582
 30
0.0
 11
140.48963214799721
 21
420.38129250818582
 31
0.0
  0
ARC
  5
5D71
  8
AM_0
 10
154.58830324434319
 20
419.88129250818582
 30
0.0
 40
0.5
 50
0.0
 51
90.000000000013017
  0
ARC
  5
5D72
  8
AM_0
 10
155.58830324434319
 20
419.38129250818582
 30
0.0
 40
0.5
 50
180.0
 51
270.0
  0
LINE
  5
5D73
  8
AM_0
 10
155.08830324434311
 20
419.88129250818582
 30
0.0
 11
155.08830324434311
 21
419.38129250818582
 31
0.0
  0
LINE
  5
5D74
  8
AM_0
 10
146.08830324434311
 20
423.2812925081858
 30
0.0
 11
149.58830324434311
 21
423.2812925081858
 31
0.0
  0
LINE
  5
5D75
  8
AM_0
 10
155.08830324434311
 20
421.52522118677888
 30
0.0
 11
155.08830324434311
 21
431.23736382959368
 31
0.0
  0
LINE
  5
5D76
  8
AM_0
 10
150.58830324434311
 20
420.38129250818582
 30
0.0
 11
154.58830324434311
 21
420.38129250818582
 31
0.0
  0
LINE
  5
5D77
  8
AM_0
 10
154.58830324434311
 20
421.02522118677882
 30
0.0
 11
150.08830324434311
 21
421.02522118677882
 31
0.0
  0
ARC
  5
5D78
  8
AM_0
 10
154.58830324434319
 20
421.52522118677888
 30
0.0
 40
0.5
 50
270.0
 51
0.0
  0
ARC
  5
5D79
  8
AM_0
 10
149.58830324434311
 20
422.78129250818603
 30
0.0
 40
0.5
 50
0.0
 51
90.0
  0
ARC
  5
5D7A
  8
AM_0
 10
150.58830324434311
 20
420.88129250818582
 30
0.0
 40
0.5
 50
180.0
 51
270.0
  0
LINE
  5
5D7B
  8
AM_0
 10
154.58830324434311
 20
431.73736382959362
 30
0.0
 11
150.08830324434311
 21
431.73736382959362
 31
0.0
  0
ARC
  5
5D7C
  8
AM_0
 10
154.58830324434311
 20
431.2373638295939
 30
0.0
 40
0.5
 50
0.0
 51
90.0
  0
LINE
  5
5D7D
  8
AM_0
 10
144.1896321479972
 20
426.23612175589369
 30
0.0
 11
144.1896321479972
 21
427.40836494232673
 31
0.0
  0
LINE
  5
5D7E
  8
AM_0
 10
145.61600030299419
 20
423.2812925081858
 30
0.0
 11
146.08830324434311
 21
423.2812925081858
 31
0.0
  0
LINE
  5
5D7F
  8
AM_0
 10
145.5194078084549
 20
423.20717474144902
 30
0.0
 11
145.53926787456919
 21
423.2812925081858
 31
0.0
  0
ARC
  5
5D80
  8
AM_0
 10
145.61600030299419
 20
423.18129250818572
 30
0.0
 40
0.1000000000000346
 50
90.0
 51
164.99980499355539
  0
ARC
  5
5D81
  8
AM_0
 10
143.88963214799719
 20
423.09445952767783
 30
0.0
 40
0.3000000000000043
 50
0.0
 51
90.0
  0
LINE
  5
5D82
  8
AM_0
 10
142.6896321479972
 20
420.98129250818567
 30
0.0
 11
143.90958785115421
 21
421.0626228883969
 31
0.0
  0
LINE
  5
5D83
  8
AM_0
 10
142.6896321479972
 20
422.13754454402567
 30
0.0
 11
143.8896321479971
 21
422.13754454402567
 31
0.0
  0
LINE
  5
5D84
  8
AM_0
 10
144.1896321479972
 20
421.38129250818582
 30
0.0
 11
142.6896321479972
 21
421.38129250818582
 31
0.0
  0
ARC
  5
5D85
  8
AM_0
 10
144.1896321479972
 20
421.88129250818582
 30
0.0
 40
0.5
 50
270.0
 51
0.0
  0
LINE
  5
5D86
  8
AM_0
 10
144.1896321479972
 20
421.36195843575371
 30
0.0
 11
144.1896321479972
 21
421.38129250818582
 31
0.0
  0
LINE
  5
5D87
  8
AM_0
 10
144.1896321479972
 20
421.08129250818592
 30
0.0
 11
144.1896321479972
 21
421.36195843575371
 31
0.0
  0
LINE
  5
5D88
  8
AM_0
 10
143.90958785115421
 20
421.0626228883969
 30
0.0
 11
144.1896321479972
 21
421.08129250818592
 31
0.0
  0
ARC
  5
5D89
  8
AM_0
 10
143.88963214799719
 20
421.36195843575371
 30
0.0
 40
0.3000000000000007
 50
273.81407483428148
 51
0.0
  0
LINE
  5
5D8A
  8
AM_0
 10
145.26157081591811
 20
422.53129250818557
 30
0.0
 11
145.33830324434399
 21
422.53129250818557
 31
0.0
  0
LINE
  5
5D8B
  8
AM_0
 10
145.33830324434399
 20
422.53129250818557
 30
0.0
 11
145.35816331045709
 21
422.60541027492201
 31
0.0
  0
LINE
  5
5D8C
  8
AM_0
 10
144.7694078084549
 20
422.60541027492201
 30
0.0
 11
144.78926787456919
 21
422.53129250818557
 31
0.0
  0
LINE
  5
5D8D
  8
AM_0
 10
144.78926787456919
 20
422.53129250818557
 30
0.0
 11
144.86600030299411
 21
422.53129250818557
 31
0.0
  0
LINE
  5
5D8E
  8
AM_0
 10
145.35816331045709
 20
422.60541027492201
 30
0.0
 11
145.5194078084549
 21
423.20717474144902
 31
0.0
  0
LINE
  5
5D8F
  8
AM_0
 10
144.86600030299411
 20
422.53129250818557
 30
0.0
 11
145.26157081591811
 21
422.53129250818557
 31
0.0
  0
LINE
  5
5D90
  8
AM_0
 10
144.68963214799811
 20
422.90313303974671
 30
0.0
 11
144.7694078084549
 21
422.60541027492201
 31
0.0
  0
ARC
  5
5D91
  8
AM_0
 10
145.26157081591811
 20
422.63129250818582
 30
0.0
 40
0.0999999999999866
 50
270.0
 51
344.99980499343371
  0
ARC
  5
5D92
  8
AM_0
 10
144.86600030299411
 20
422.63129250818582
 30
0.0
 40
0.1000000000000014
 50
195.00019500656629
 51
270.0
  0
LINE
  5
5D93
  8
AM_0
 10
144.1896321479972
 20
422.4375445440258
 30
0.0
 11
144.1896321479972
 21
423.09445952767783
 31
0.0
  0
ARC
  5
5D94
  8
AM_0
 10
143.88963214799719
 20
422.43754454402603
 30
0.0
 40
0.3000000000000007
 50
270.0
 51
0.0
  0
LINE
  5
5D95
  8
AM_0
 10
142.6896321479972
 20
425.93612175589379
 30
0.0
 11
143.8896321479971
 21
425.93612175589379
 31
0.0
  0
LINE
  5
5D96
  8
AM_0
 10
143.8896321479971
 20
423.39445952767778
 30
0.0
 11
142.6896321479972
 21
423.39445952767778
 31
0.0
  0
LINE
  5
5D97
  8
AM_0
 10
145.53926787456919
 20
423.2812925081858
 30
0.0
 11
145.61600030299419
 21
423.2812925081858
 31
0.0
  0
ARC
  5
5D98
  8
AM_0
 10
143.88963214799719
 20
426.23612175589398
 30
0.0
 40
0.3000000000000007
 50
270.0
 51
0.0
  0
LINE
  5
5D99
  8
AM_0
 10
143.8896321479971
 20
427.70836494232691
 30
0.0
 11
142.6896321479972
 21
427.70836494232691
 31
0.0
  0
ARC
  5
5D9A
  8
AM_0
 10
143.88963214799719
 20
427.4083649423269
 30
0.0
 40
0.3000000000000043
 50
0.0
 51
90.0
  0
LINE
  5
5D9B
  8
AM_0
 10
143.8896321479971
 20
431.38129250818469
 30
0.0
 11
142.6896321479972
 21
431.38129250818469
 31
0.0
  0
ARC
  5
5D9C
  8
AM_0
 10
143.88963214799719
 20
431.68129250818481
 30
0.0
 40
0.3000000000000007
 50
270.0
 51
0.0
  0
LINE
  5
5D9D
  8
AM_0
 10
133.6896321479972
 20
422.24801267953882
 30
0.0
 11
140.1896321479972
 21
422.24801267953882
 31
0.0
  0
LINE
  5
5D9E
  8
AM_0
 10
133.6896321479972
 20
421.74801267953882
 30
0.0
 11
140.1896321479972
 21
421.74801267953882
 31
0.0
  0
LINE
  5
5D9F
  8
AM_0
 10
140.1896321479972
 20
431.88129250818582
 30
0.0
 11
133.6896321479972
 21
431.88129250818582
 31
0.0
  0
LINE
  5
5DA0
  8
AM_0
 10
133.1896321479972
 20
431.38129250818582
 30
0.0
 11
140.1896321479972
 21
431.38129250818582
 31
0.0
  0
LINE
  5
5DA1
  8
AM_0
 10
139.8896321479971
 20
421.38129250818582
 30
0.0
 11
133.051682083179
 21
421.38129250818582
 31
0.0
  0
LINE
  5
5DA2
  8
AM_0
 10
140.1896321479972
 20
431.0346044396448
 30
0.0
 11
133.6896321479972
 21
431.0346044396448
 31
0.0
  0
LINE
  5
5DA3
  8
AM_0
 10
140.1896321479972
 20
422.72798057672679
 30
0.0
 11
133.6896321479972
 21
422.72798057672679
 31
0.0
  0
ARC
  5
5DA4
  8
AM_0
 10
140.48963214799721
 20
420.68129250818578
 30
0.0
 40
0.2999999999999971
 50
180.0
 51
270.0
  0
ARC
  5
5DA5
  8
AM_0
 10
139.88963214799719
 20
421.08129250818592
 30
0.0
 40
0.2999999999999971
 50
0.0
 51
90.0
  0
ARC
  5
5DA6
  8
AM_0
 10
141.8146321479972
 20
426.88129250818582
 30
0.0
 40
9.124999999999984
 50
152.92493329271929
 51
207.07506670728071
  0
LINE
  5
5DA7
  8
AM_0
 10
132.41149768351471
 20
421.6130712285883
 30
0.0
 11
130.04944774833271
 21
423.58144617457322
 31
0.0
  0
LINE
  5
5DA8
  8
AM_0
 10
133.1896321479972
 20
421.95972509169383
 30
0.0
 11
133.6896321479972
 21
421.38129250818582
 31
0.0
  0
ARC
  5
5DA9
  8
AM_0
 10
133.051682083179
 20
422.38129250818571
 30
0.0
 40
1.0
 50
230.19442890774391
 51
270.0
  0
LINE
  5
5DAA
  8
AM_0
 10
133.6896321479972
 20
421.74801267953882
 30
0.0
 11
133.1896321479972
 21
421.95972509169383
 31
0.0
  0
LINE
  5
5DAB
  8
AM_0
 10
133.1896321479972
 20
422.42200036466483
 30
0.0
 11
133.6896321479972
 21
421.74801267953882
 31
0.0
  0
LINE
  5
5DAC
  8
AM_0
 10
133.6896321479972
 20
422.24801267953882
 30
0.0
 11
133.1896321479972
 21
422.42200036466483
 31
0.0
  0
LINE
  5
5DAD
  8
AM_0
 10
133.1896321479972
 20
422.95972509169371
 30
0.0
 11
133.6896321479972
 21
422.24801267953882
 31
0.0
  0
LINE
  5
5DAE
  8
AM_0
 10
133.6896321479972
 20
422.72798057672679
 30
0.0
 11
133.1896321479972
 21
422.95972509169371
 31
0.0
  0
ARC
  5
5DAF
  8
AM_0
 10
130.6896321479972
 20
424.3496674541708
 30
0.0
 40
1.0000000000000291
 50
180.0
 51
230.19442890773479
  0
LINE
  5
5DB0
  8
AM_0
 10
133.6896321479972
 20
431.88129250818582
 30
0.0
 11
133.1896321479972
 21
432.38129250818582
 31
0.0
  0
LINE
  5
5DB1
  8
AM_0
 10
133.1896321479972
 20
431.38129250818582
 30
0.0
 11
133.6896321479972
 21
431.88129250818582
 31
0.0
  0
LINE
  5
5DB2
  8
AM_0
 10
133.6896321479972
 20
431.0346044396448
 30
0.0
 11
133.1896321479972
 21
431.38129250818582
 31
0.0
  0
LINE
  5
5DB3
  8
AM_0
 10
140.48963214799721
 20
444.38129250818582
 30
0.0
 11
142.6896321479972
 21
444.38129250818582
 31
0.0
  0
ARC
  5
5DB4
  8
AM_0
 10
154.58830324434311
 20
444.88129250818582
 30
0.0
 40
0.5
 50
269.99999999998693
 51
0.0
  0
LINE
  5
5DB5
  8
AM_0
 10
149.58830324434311
 20
441.48129250818567
 30
0.0
 11
146.36600030299411
 21
441.48129250818567
 31
0.0
  0
LINE
  5
5DB6
  8
AM_0
 10
155.08830324434311
 20
433.52522118677882
 30
0.0
 11
155.08830324434311
 21
443.2373638295939
 31
0.0
  0
LINE
  5
5DB7
  8
AM_0
 10
150.08830324434311
 20
433.02522118677882
 30
0.0
 11
154.58830324434311
 21
433.02522118677882
 31
0.0
  0
ARC
  5
5DB8
  8
AM_0
 10
154.58830324434311
 20
433.52522118677882
 30
0.0
 40
0.5
 50
270.0
 51
0.0
  0
LINE
  5
5DB9
  8
AM_0
 10
150.08830324434311
 20
443.7373638295939
 30
0.0
 11
154.58830324434311
 21
443.7373638295939
 31
0.0
  0
LINE
  5
5DBA
  8
AM_0
 10
154.58830324434311
 20
444.38129250818582
 30
0.0
 11
150.58830324434311
 21
444.38129250818582
 31
0.0
  0
ARC
  5
5DBB
  8
AM_0
 10
154.58830324434311
 20
443.2373638295939
 30
0.0
 40
0.5
 50
0.0
 51
90.0
  0
ARC
  5
5DBC
  8
AM_0
 10
149.58830324434311
 20
441.98129250818567
 30
0.0
 40
0.5
 50
270.0
 51
0.0
  0
ARC
  5
5DBD
  8
AM_0
 10
150.58830324434311
 20
443.88129250818582
 30
0.0
 40
0.5
 50
90.0
 51
180.0
  0
ARC
  5
5DBE
  8
AM_0
 10
143.88963214799719
 20
438.5264632604779
 30
0.0
 40
0.3000000000000114
 50
0.0
 51
90.0
  0
LINE
  5
5DBF
  8
AM_0
 10
142.6896321479972
 20
433.38129250818758
 30
0.0
 11
143.8896321479971
 21
433.38129250818758
 31
0.0
  0
ARC
  5
5DC0
  8
AM_0
 10
143.88963214799719
 20
433.08129250818803
 30
0.0
 40
0.2999999999999971
 50
0.0
 51
90.0
  0
LINE
  5
5DC1
  8
AM_0
 10
142.6896321479972
 20
437.05422007404468
 30
0.0
 11
143.8896321479971
 21
437.05422007404468
 31
0.0
  0
ARC
  5
5DC2
  8
AM_0
 10
143.88963214799719
 20
437.3542200740448
 30
0.0
 40
0.3000000000000007
 50
270.0
 51
0.0
  0
LINE
  5
5DC3
  8
AM_0
 10
144.1896321479972
 20
437.3542200740448
 30
0.0
 11
144.1896321479972
 21
438.5264632604779
 31
0.0
  0
LINE
  5
5DC4
  8
AM_0
 10
145.61600030299419
 20
442.23129250818567
 30
0.0
 11
146.01157081591811
 21
442.23129250818567
 31
0.0
  0
LINE
  5
5DC5
  8
AM_0
 10
145.61600030299419
 20
442.23129250818567
 30
0.0
 11
146.01157081591811
 21
442.23129250818567
 31
0.0
  0
LINE
  5
5DC6
  8
AM_0
 10
146.10816331045709
 20
442.1571747414493
 30
0.0
 11
146.2694078084549
 21
441.55541027492222
 31
0.0
  0
LINE
  5
5DC7
  8
AM_0
 10
146.10816331045709
 20
442.1571747414493
 30
0.0
 11
146.2694078084549
 21
441.55541027492222
 31
0.0
  0
ARC
  5
5DC8
  8
AM_0
 10
146.36600030299411
 20
441.58129250818592
 30
0.0
 40
0.0999999999999943
 50
195.00019500651879
 51
270.0
  0
ARC
  5
5DC9
  8
AM_0
 10
146.01157081591811
 20
442.13129250818582
 30
0.0
 40
0.0999999999999943
 50
15.000195006505431
 51
90.0
  0
LINE
  5
5DCA
  8
AM_0
 10
144.68878555945599
 20
441.85629250818602
 30
0.0
 11
144.7694078084549
 21
441.55541027492222
 31
0.0
  0
LINE
  5
5DCB
  8
AM_0
 10
145.34101389654899
 20
441.52055704128389
 30
0.0
 11
145.5194078084549
 21
442.1571747414493
 31
0.0
  0
LINE
  5
5DCC
  8
AM_0
 10
145.35816331045709
 20
441.55541027492222
 30
0.0
 11
145.5194078084549
 21
442.1571747414493
 31
0.0
  0
LINE
  5
5DCD
  8
AM_0
 10
144.1896321479972
 20
441.66812548869478
 30
0.0
 11
144.1896321479972
 21
442.32504047234568
 31
0.0
  0
LINE
  5
5DCE
  8
AM_0
 10
144.6896321479972
 20
441.85313303974777
 30
0.0
 11
144.7694078084549
 21
441.55541027492222
 31
0.0
  0
LINE
  5
5DCF
  8
AM_0
 10
142.6896321479972
 20
441.36812548869477
 30
0.0
 11
143.8896321479971
 21
441.36812548869477
 31
0.0
  0
LINE
  5
5DD0
  8
AM_0
 10
143.8896321479971
 20
438.82646326047768
 30
0.0
 11
142.6896321479972
 21
438.82646326047859
 31
0.0
  0
LINE
  5
5DD1
  8
AM_0
 10
145.29420308143321
 20
441.48129250818567
 30
0.0
 11
145.34101389654899
 21
441.52055704128389
 31
0.0
  0
LINE
  5
5DD2
  8
AM_0
 10
144.86600030299411
 20
441.48129250818567
 30
0.0
 11
145.29420308143321
 21
441.48129250818567
 31
0.0
  0
LINE
  5
5DD3
  8
AM_0
 10
144.86600030299411
 20
441.48129250818567
 30
0.0
 11
145.26157081591811
 21
441.48129250818567
 31
0.0
  0
ARC
  5
5DD4
  8
AM_0
 10
144.86600030299411
 20
441.58129250818592
 30
0.0
 40
0.0999999999999943
 50
195.00019500651879
 51
270.0
  0
ARC
  5
5DD5
  8
AM_0
 10
145.26157081591811
 20
441.58129250818592
 30
0.0
 40
0.0999999999999608
 50
270.0
 51
344.99980499348112
  0
ARC
  5
5DD6
  8
AM_0
 10
143.88963214799719
 20
441.66812548869478
 30
0.0
 40
0.3000000000000007
 50
270.0
 51
0.0
  0
LINE
  5
5DD7
  8
AM_0
 10
142.6896321479972
 20
443.38129250818582
 30
0.0
 11
144.1896321479972
 21
443.38129250818582
 31
0.0
  0
LINE
  5
5DD8
  8
AM_0
 10
143.8896321479971
 20
442.62504047234557
 30
0.0
 11
142.6896321479972
 21
442.62504047234557
 31
0.0
  0
LINE
  5
5DD9
  8
AM_0
 10
143.90958785115421
 20
443.69996212797588
 30
0.0
 11
142.6896321479972
 21
443.7812925081858
 31
0.0
  0
ARC
  5
5DDA
  8
AM_0
 10
144.1896321479972
 20
442.88129250818571
 30
0.0
 40
0.5
 50
0.0
 51
90.0
  0
ARC
  5
5DDB
  8
AM_0
 10
145.61600030299419
 20
442.13129250818582
 30
0.0
 40
0.0999999999999606
 50
90.0
 51
164.99980499349451
  0
ARC
  5
5DDC
  8
AM_0
 10
143.88963214799719
 20
442.32504047234568
 30
0.0
 40
0.2999999999999971
 50
0.0
 51
90.0
  0
LINE
  5
5DDD
  8
AM_0
 10
144.1896321479972
 20
443.38129250818582
 30
0.0
 11
144.1896321479972
 21
443.40062658061879
 31
0.0
  0
ARC
  5
5DDE
  8
AM_0
 10
143.88963214799719
 20
443.40062658061879
 30
0.0
 40
0.3000000000000043
 50
0.0
 51
86.18592516571853
  0
ARC
  5
5DDF
  8
AM_0
 10
155.58830324434311
 20
445.38129250818582
 30
0.0
 40
0.5
 50
90.0
 51
180.0
  0
LINE
  5
5DE0
  8
AM_0
 10
155.08830324434311
 20
445.38129250818582
 30
0.0
 11
155.08830324434311
 21
444.88129250818582
 31
0.0
  0
LINE
  5
5DE1
  8
AM_0
 10
133.6896321479972
 20
442.03460443964468
 30
0.0
 11
140.1896321479972
 21
442.03460443964468
 31
0.0
  0
LINE
  5
5DE2
  8
AM_0
 10
133.6896321479972
 20
433.72798057672679
 30
0.0
 11
140.1896321479972
 21
433.72798057672679
 31
0.0
  0
LINE
  5
5DE3
  8
AM_0
 10
133.051682083179
 20
443.38129250818582
 30
0.0
 11
139.8896321479971
 21
443.38129250818582
 31
0.0
  0
LINE
  5
5DE4
  8
AM_0
 10
140.1896321479972
 20
433.38129250818582
 30
0.0
 11
133.1896321479972
 21
433.38129250818582
 31
0.0
  0
LINE
  5
5DE5
  8
AM_0
 10
133.6896321479972
 20
432.88129250818582
 30
0.0
 11
140.1896321479972
 21
432.88129250818582
 31
0.0
  0
LINE
  5
5DE6
  8
AM_0
 10
140.1896321479972
 20
443.01457233683368
 30
0.0
 11
133.6896321479972
 21
443.01457233683368
 31
0.0
  0
LINE
  5
5DE7
  8
AM_0
 10
140.1896321479972
 20
442.51457233683368
 30
0.0
 11
133.6896321479972
 21
442.51457233683368
 31
0.0
  0
ARC
  5
5DE8
  8
AM_0
 10
139.88963214799719
 20
443.68129250818572
 30
0.0
 40
0.3000000000000043
 50
270.0
 51
0.0
  0
ARC
  5
5DE9
  8
AM_0
 10
140.48963214799721
 20
444.08129250818598
 30
0.0
 40
0.2999999999999971
 50
90.0
 51
180.0
  0
ARC
  5
5DEA
  8
AM_0
 10
141.8146321479972
 20
437.88129250818582
 30
0.0
 40
9.124999999999984
 50
152.92493329271929
 51
207.07506670728071
  0
LINE
  5
5DEB
  8
AM_0
 10
133.1896321479972
 20
433.38129250818582
 30
0.0
 11
133.6896321479972
 21
433.72798057672679
 31
0.0
  0
LINE
  5
5DEC
  8
AM_0
 10
133.6896321479972
 20
432.88129250818582
 30
0.0
 11
133.1896321479972
 21
433.38129250818582
 31
0.0
  0
LINE
  5
5DED
  8
AM_0
 10
130.04944774833271
 20
441.18113884179922
 30
0.0
 11
132.41149768351471
 21
443.14951378778312
 31
0.0
  0
LINE
  5
5DEE
  8
AM_0
 10
133.6896321479972
 20
443.38129250818582
 30
0.0
 11
133.1896321479972
 21
442.8028599246789
 31
0.0
  0
ARC
  5
5DEF
  8
AM_0
 10
133.051682083179
 20
442.38129250818582
 30
0.0
 40
1.0000000000000411
 50
90.0
 51
129.805571092256
  0
LINE
  5
5DF0
  8
AM_0
 10
133.1896321479972
 20
441.80285992467873
 30
0.0
 11
133.6896321479972
 21
442.03460443964468
 31
0.0
  0
LINE
  5
5DF1
  8
AM_0
 10
133.6896321479972
 20
442.51457233683368
 30
0.0
 11
133.1896321479972
 21
441.80285992467873
 31
0.0
  0
LINE
  5
5DF2
  8
AM_0
 10
133.1896321479972
 20
442.34058465170682
 30
0.0
 11
133.6896321479972
 21
442.51457233683368
 31
0.0
  0
LINE
  5
5DF3
  8
AM_0
 10
133.6896321479972
 20
443.01457233683368
 30
0.0
 11
133.1896321479972
 21
442.34058465170682
 31
0.0
  0
LINE
  5
5DF4
  8
AM_0
 10
133.1896321479972
 20
442.8028599246789
 30
0.0
 11
133.6896321479972
 21
443.01457233683368
 31
0.0
  0
ARC
  5
5DF5
  8
AM_0
 10
130.6896321479972
 20
440.4129175622017
 30
0.0
 40
1.0
 50
129.80557109226521
 51
180.0
  0
LINE
  5
5DF6
  8
AM_0
 10
255.08830324434331
 20
409.38129250818599
 30
0.0
 11
234.27379834481081
 21
409.38129250818599
 31
0.0
  0
LINE
  5
5DF7
  8
AM_0
 10
179.9028081438756
 20
409.38129250818599
 30
0.0
 11
159.08830324434379
 21
409.38129250818599
 31
0.0
  0
LINE
  5
5DF8
  8
AM_0
 10
248.9525215751822
 20
405.38129250818599
 30
0.0
 11
165.22408491350399
 21
405.38129250818599
 31
0.0
  0
LINE
  5
5DF9
  8
AM_0
 10
167.99565821665021
 20
407.32235499605832
 30
0.0
 11
168.08830324434379
 21
408.38129250818599
 31
0.0
  0
LINE
  5
5DFA
  8
AM_0
 10
160.18094827203711
 20
407.32235499605832
 30
0.0
 11
160.08830324434379
 21
408.38129250818599
 31
0.0
  0
ARC
  5
5DFB
  8
AM_0
 10
164.08830324434379
 20
411.78129250818603
 30
0.0
 40
6.5
 50
241.82726586813479
 51
298.17273413186518
  0
ARC
  5
5DFC
  8
AM_0
 10
161.77485978898409
 20
407.46180418445442
 30
0.0
 40
1.6000000000000001
 50
184.99999999999969
 51
241.82726586813479
  0
LINE
  5
5DFD
  8
AM_0
 10
166.38830324434369
 20
405.7018188467577
 30
0.0
 11
164.08830324434379
 21
407.99137852555322
 31
0.0
  0
LINE
  5
5DFE
  8
AM_0
 10
164.39980324434379
 20
407.681292508186
 30
0.0
 11
163.7768032443438
 21
407.681292508186
 31
0.0
  0
LINE
  5
5DFF
  8
AM_0
 10
161.78830324434389
 20
405.7018188467577
 30
0.0
 11
164.08830324434379
 21
407.99137852555322
 31
0.0
  0
LINE
  5
5E00
  8
AM_0
 10
164.39980324434379
 20
405.28876081785131
 30
0.0
 11
164.39980324434379
 21
407.681292508186
 31
0.0
  0
LINE
  5
5E01
  8
AM_0
 10
163.7768032443438
 20
405.28876081785131
 30
0.0
 11
163.7768032443438
 21
407.681292508186
 31
0.0
  0
ARC
  5
5E02
  8
AM_0
 10
166.40174669970341
 20
407.46180418445442
 30
0.0
 40
1.6000000000000001
 50
298.17273413186518
 51
355.00000000000023
  0
LINE
  5
5E03
  8
AM_0
 10
255.08830324434331
 20
409.38129250818599
 30
0.0
 11
255.08830324434331
 21
413.38129250818599
 31
0.0
  0
LINE
  5
5E04
  8
AM_0
 10
159.08830324434291
 20
413.38129250818599
 30
0.0
 11
159.08830324434399
 21
409.38129250818599
 31
0.0
  0
LINE
  5
5E05
  8
AM_0N
 10
167.8883032443438
 20
409.38129250818599
 30
0.0
 11
167.8883032443438
 21
408.38129250818599
 31
0.0
  0
LINE
  5
5E06
  8
AM_0N
 10
164.28830324434381
 20
408.38129250818599
 30
0.0
 11
164.65227347861
 21
409.38129250818599
 31
0.0
  0
LINE
  5
5E07
  8
AM_0N
 10
163.8883032443438
 20
408.38129250818599
 30
0.0
 11
164.25227347860991
 21
409.38129250818599
 31
0.0
  0
LINE
  5
5E08
  8
AM_0N
 10
160.08830324434379
 20
408.38129250818599
 30
0.0
 11
168.08830324434379
 21
408.38129250818599
 31
0.0
  0
LINE
  5
5E09
  8
AM_0N
 10
160.28830324434381
 20
408.38129250818599
 30
0.0
 11
160.28830324434381
 21
409.38129250818599
 31
0.0
  0
LINE
  5
5E0A
  8
AM_0
 10
179.9028081438754
 20
405.38129250818599
 30
0.0
 11
179.9028081438754
 21
409.38129250818599
 31
0.0
  0
LINE
  5
5E0B
  8
AM_0
 10
178.24595389438301
 20
409.38129250818599
 30
0.0
 11
179.9028081438754
 21
405.38129250818599
 31
0.0
  0
LINE
  5
5E0C
  8
AM_0
 10
234.27379834481081
 20
405.38129250818599
 30
0.0
 11
234.27379834481081
 21
409.38129250818599
 31
0.0
  0
LINE
  5
5E0D
  8
AM_0
 10
235.93065259430341
 20
409.38129250818599
 30
0.0
 11
234.27379834481081
 21
405.38129250818599
 31
0.0
  0
LINE
  5
5E0E
  8
AM_0
 10
173.58830324434311
 20
454.38129250818599
 30
0.0
 11
240.58830324434331
 21
454.38129250818599
 31
0.0
  0
LINE
  5
5E0F
  8
AM_0
 10
173.58830324434311
 20
454.38129250818599
 30
0.0
 11
173.58830324434311
 21
452.38129250818628
 31
0.0
  0
LINE
  5
5E10
  8
AM_0
 10
240.58830324434331
 20
454.38129250818599
 30
0.0
 11
240.58830324434331
 21
452.38129250818628
 31
0.0
  0
LINE
  5
5E11
  8
ﾁｭｳｼﾝｾﾝ1
 10
250.0883032443426
 20
403.11658500818601
 30
0.0
 11
250.0883032443426
 21
416.11658500818601
 31
0.0
  0
LINE
  5
5E12
  8
AM_0
 10
246.1809482720362
 20
407.32235499605832
 30
0.0
 11
246.08830324434271
 21
408.38129250818599
 31
0.0
  0
LINE
  5
5E13
  8
AM_0
 10
253.99565821664919
 20
407.32235499605832
 30
0.0
 11
254.0883032443426
 21
408.38129250818599
 31
0.0
  0
ARC
  5
5E14
  8
AM_0
 10
250.0883032443428
 20
411.78129250818603
 30
0.0
 40
6.5
 50
241.82726586813479
 51
298.17273413186518
  0
ARC
  5
5E15
  8
AM_0
 10
252.4017466997025
 20
407.46180418445431
 30
0.0
 40
1.6000000000000001
 50
298.17273413186518
 51
355.00000000000023
  0
LINE
  5
5E16
  8
AM_0
 10
247.7883032443427
 20
405.7018188467577
 30
0.0
 11
250.08830324434271
 21
407.99137852555322
 31
0.0
  0
LINE
  5
5E17
  8
AM_0
 10
249.77680324434269
 20
407.681292508186
 30
0.0
 11
250.39980324434271
 21
407.681292508186
 31
0.0
  0
LINE
  5
5E18
  8
AM_0
 10
252.38830324434261
 20
405.7018188467577
 30
0.0
 11
250.08830324434271
 21
407.99137852555322
 31
0.0
  0
LINE
  5
5E19
  8
AM_0
 10
249.77680324434269
 20
405.28876081785131
 30
0.0
 11
249.77680324434269
 21
407.681292508186
 31
0.0
  0
LINE
  5
5E1A
  8
AM_0
 10
250.39980324434271
 20
405.28876081785131
 30
0.0
 11
250.39980324434271
 21
407.681292508186
 31
0.0
  0
ARC
  5
5E1B
  8
AM_0
 10
247.77485978898309
 20
407.46180418445431
 30
0.0
 40
1.6000000000000001
 50
184.99999999999969
 51
241.82726586813479
  0
LINE
  5
5E1C
  8
AM_0N
 10
246.28830324434259
 20
409.38129250818599
 30
0.0
 11
246.28830324434259
 21
408.38129250818599
 31
0.0
  0
LINE
  5
5E1D
  8
AM_0N
 10
249.88830324434261
 20
408.38129250818599
 30
0.0
 11
249.5243330100765
 21
409.38129250818599
 31
0.0
  0
LINE
  5
5E1E
  8
AM_0N
 10
250.28830324434259
 20
408.38129250818599
 30
0.0
 11
249.9243330100764
 21
409.38129250818599
 31
0.0
  0
LINE
  5
5E1F
  8
AM_0N
 10
254.08830324434271
 20
408.38129250818599
 30
0.0
 11
246.08830324434271
 21
408.38129250818599
 31
0.0
  0
LINE
  5
5E20
  8
AM_0N
 10
253.88830324434261
 20
408.38129250818599
 30
0.0
 11
253.88830324434261
 21
409.38129250818599
 31
0.0
  0
LINE
  5
5E21
  8
AM_0
 10
158.08830324434311
 20
416.38129250818582
 30
0.0
 11
158.08830324434311
 21
448.38129250818582
 31
0.0
  0
LINE
  5
5E2A
  8
AM_0
 10
372.08826324434278
 20
561.88128950818566
 30
0.0
 11
377.08826324434278
 21
556.881289508186
 31
0.0
  0
LINE
  5
5E2B
  8
AM_0
 10
368.08834324434292
 20
561.88128950818566
 30
0.0
 11
372.08826324434278
 21
561.88128950818566
 31
0.0
  0
LINE
  5
5E2D
  8
AM_0
 10
377.08826324434278
 20
556.881289508186
 30
0.0
 11
377.08826324434278
 21
499.88128950818611
 31
0.0
  0
LINE
  5
5E2E
  8
AM_0
 10
368.08834324434292
 20
494.8812895081856
 30
0.0
 11
372.08826324434278
 21
494.8812895081856
 31
0.0
  0
LINE
  5
5E2F
  8
AM_0
 10
372.08826324434278
 20
494.8812895081856
 30
0.0
 11
377.08826324434278
 21
499.88128950818611
 31
0.0
  0
LINE
  5
5E32
  8
AM_0
 10
372.08826324434278
 20
561.88128950818566
 30
0.0
 11
372.08826324434278
 21
494.8812895081856
 31
0.0
  0
TEXT
  5
600B
  8
AM_0
 10
507.93326597141498
 20
531.43372940145377
 30
0.0
 40
10.0
  1
VX04-015MFW~VX04-030MFW
  0
ENDSEC
  0
EOF
