  0
SECTION
  2
HEADER
  9
$ACADVER
  1
AC1009
  9
$INSBASE
 10
0.0
 20
0.0
 30
0.0
  9
$EXTMIN
 10
98.235330775886951
 20
154.67354276861369
 30
-0.0015258207003583
  9
$EXTMAX
 10
730.25979035692262
 20
613.41450273816804
 30
0.0000000349246037
  9
$LIMMIN
 10
0.0
 20
0.0
  9
$LIMMAX
 10
853.5
 20
555.00000000000011
  9
$ORTHOMODE
 70
     0
  9
$REGENMODE
 70
     1
  9
$FILLMODE
 70
     1
  9
$QTEXTMODE
 70
     0
  9
$MIRRTEXT
 70
     1
  9
$DRAGMODE
 70
     2
  9
$LTSCALE
 40
3.0
  9
$OSMODE
 70
   551
  9
$ATTMODE
 70
     1
  9
$TEXTSIZE
 40
2.5
  9
$TRACEWID
 40
1.0
  9
$TEXTSTYLE
  7
STANDARD
  9
$CLAYER
  8
AM_0
  9
$CELTYPE
  6
BYLAYER
  9
$CECOLOR
 62
   256
  9
$DIMSCALE
 40
1.0
  9
$DIMASZ
 40
2.5
  9
$DIMEXO
 40
1.0
  9
$DIMDLI
 40
8.0
  9
$DIMRND
 40
0.0
  9
$DIMDLE
 40
0.0
  9
$DIMEXE
 40
0.6
  9
$DIMTP
 40
0.1
  9
$DIMTM
 40
0.1
  9
$DIMTXT
 40
2.5
  9
$DIMCEN
 40
0.0
  9
$DIMTSZ
 40
0.0
  9
$DIMTOL
 70
     0
  9
$DIMLIM
 70
     0
  9
$DIMTIH
 70
     0
  9
$DIMTOH
 70
     0
  9
$DIMSE1
 70
     0
  9
$DIMSE2
 70
     0
  9
$DIMTAD
 70
     1
  9
$DIMZIN
 70
     8
  9
$DIMBLK
  1

  9
$DIMASO
 70
     1
  9
$DIMSHO
 70
     1
  9
$DIMPOST
  1

  9
$DIMAPOST
  1
"
  9
$DIMALT
 70
     0
  9
$DIMALTD
 70
     2
  9
$DIMALTF
 40
0.0393701
  9
$DIMLFAC
 40
1.0
  9
$DIMTOFL
 70
     1
  9
$DIMTVP
 40
0.0
  9
$DIMTIX
 70
     0
  9
$DIMSOXD
 70
     0
  9
$DIMSAH
 70
     0
  9
$DIMBLK1
  1

  9
$DIMBLK2
  1

  9
$DIMSTYLE
  2
AM_ISO
  9
$DIMCLRD
 70
   256
  9
$DIMCLRE
 70
   256
  9
$DIMCLRT
 70
     4
  9
$DIMTFAC
 40
0.71
  9
$DIMGAP
 40
0.8
  9
$LUNITS
 70
     2
  9
$LUPREC
 70
     2
  9
$SKETCHINC
 40
1.0
  9
$FILLETRAD
 40
15.0
  9
$AUNITS
 70
     0
  9
$AUPREC
 70
     0
  9
$MENU
  1
.
  9
$ELEVATION
 40
0.0
  9
$PELEVATION
 40
0.0
  9
$THICKNESS
 40
0.0
  9
$LIMCHECK
 70
     0
  9
$BLIPMODE
 70
     0
  9
$CHAMFERA
 40
6.0
  9
$CHAMFERB
 40
3.0
  9
$SKPOLY
 70
     0
  9
$TDCREATE
 40
2452065.7887456599
  9
$TDUPDATE
 40
2458541.6043824879
  9
$TDINDWG
 40
0.0904425694
  9
$TDUSRTIMER
 40
0.0904425579
  9
$USRTIMER
 70
     1
  9
$ANGBASE
 50
0.0
  9
$ANGDIR
 70
     0
  9
$PDMODE
 70
     0
  9
$PDSIZE
 40
0.0
  9
$PLINEWID
 40
0.0
  9
$COORDS
 70
     1
  9
$SPLFRAME
 70
     0
  9
$SPLINETYPE
 70
     6
  9
$SPLINESEGS
 70
     8
  9
$ATTDIA
 70
     1
  9
$ATTREQ
 70
     1
  9
$HANDLING
 70
     1
  9
$HANDSEED
  5
70E3
  9
$SURFTAB1
 70
     6
  9
$SURFTAB2
 70
     6
  9
$SURFTYPE
 70
     6
  9
$SURFU
 70
     6
  9
$SURFV
 70
     6
  9
$UCSNAME
  2

  9
$UCSORG
 10
0.0
 20
0.0
 30
0.0
  9
$UCSXDIR
 10
1.0
 20
0.0
 30
0.0
  9
$UCSYDIR
 10
0.0
 20
1.0
 30
0.0
  9
$PUCSNAME
  2

  9
$PUCSORG
 10
0.0
 20
0.0
 30
0.0
  9
$PUCSXDIR
 10
1.0
 20
0.0
 30
0.0
  9
$PUCSYDIR
 10
0.0
 20
1.0
 30
0.0
  9
$USERI1
 70
     0
  9
$USERI2
 70
     0
  9
$USERI3
 70
     0
  9
$USERI4
 70
     0
  9
$USERI5
 70
     0
  9
$USERR1
 40
0.0
  9
$USERR2
 40
0.0
  9
$USERR3
 40
0.0
  9
$USERR4
 40
0.0
  9
$USERR5
 40
0.0
  9
$WORLDVIEW
 70
     1
  9
$SHADEDGE
 70
     3
  9
$SHADEDIF
 70
    70
  9
$TILEMODE
 70
     1
  9
$MAXACTVP
 70
    64
  9
$PLIMCHECK
 70
     0
  9
$PEXTMIN
 10
1.0000000000000000E+020
 20
1.0000000000000000E+020
 30
1.0000000000000000E+020
  9
$PEXTMAX
 10
-1.0000000000000000E+020
 20
-1.0000000000000000E+020
 30
-1.0000000000000000E+020
  9
$PLIMMIN
 10
0.0
 20
0.0
  9
$PLIMMAX
 10
420.0
 20
297.0
  9
$UNITMODE
 70
     0
  9
$VISRETAIN
 70
     1
  9
$PLINEGEN
 70
     0
  9
$PSLTSCALE
 70
     1
  0
ENDSEC
  0
SECTION
  2
TABLES
  0
TABLE
  2
VPORT
 70
     1
  0
VPORT
  2
*ACTIVE
 70
     0
 10
0.0
 20
0.0
 11
1.0
 21
1.0
 12
414.24756056640467
 22
384.04402275339089
 13
0.0
 23
0.0
 14
7.5
 24
7.5
 15
30.0
 25
30.0
 16
0.0
 26
0.0
 36
1.0
 17
0.0
 27
0.0
 37
0.0
 40
461.89021141099278
 41
1.7571592210767459
 42
50.0
 43
0.0
 44
0.0
 50
0.0
 51
0.0
 71
     0
 72
   100
 73
     1
 74
     3
 75
     0
 76
     0
 77
     0
 78
     0
  0
ENDTAB
  0
TABLE
  2
LTYPE
 70
    26
  0
LTYPE
  2
CONTINUOUS
 70
     0
  3
Solid line
 72
    65
 73
     0
 40
0.0
  0
LTYPE
  2
AM_ISO02W050
 70
     0
  3
__ __ __ __ __ __ __ __ __ __ __ __ __ __ __
 72
    65
 73
     2
 40
7.5
 49
6.0
 49
-1.5
  0
LTYPE
  2
AM_ISO08W050
 70
     0
  3
____ . ____ . ____ . ____ . ____ . ____ . ____
 72
    65
 73
     4
 40
18.0
 49
12.0
 49
-1.5
 49
3.0
 49
-1.5
  0
LTYPE
  2
AM_ISO09W050
 70
     0
  3
_____ . . _____ . . _____ . . ____ .. ____
 72
    65
 73
     6
 40
22.5
 49
12.0
 49
-1.5
 49
3.0
 49
-1.5
 49
3.0
 49
-1.5
  0
LTYPE
  2
AMCONSTR
 70
     0
  3
_______________________
 72
    65
 73
     2
 40
9999.0
 49
9999.0
 49
0.0
  0
LTYPE
  2
AM_ISO08W050X2
 70
     0
  3
__ . __ . __ . __ . __ . __
 72
    65
 73
     4
 40
9.0
 49
6.0
 49
-0.75
 49
1.5
 49
-0.75
  0
LTYPE
  2
AM_ISO02W050X2
 70
     0
  3
 _ _ _ _ _ _ _ _ _ _ _ _
 72
    65
 73
     2
 40
3.75
 49
3.0
 49
-0.75
  0
LTYPE
  2
AMZIGZAG
 70
     0
  3
/\/-/\/-/\/-/\/-/\/-/\/
 72
    65
 73
     2
 40
11.0001
 49
0.0001
 49
-11.0
  0
LTYPE
  2
ACISOWELD
 70
     0
  3
_ _ _ _ _
 72
    65
 73
     2
 40
2.0
 49
2.0
 49
-1.0
  0
LTYPE
  2
ACISOTGB
 70
     0
  3
__ . . __ . .
 72
    65
 73
     6
 40
9.0
 49
4.0
 49
-1.0
 49
1.0
 49
-1.0
 49
1.0
 49
-1.0
  0
LTYPE
  2
ACISOTGL
 70
     0
  3
_ _ _ _ _
 72
    65
 73
     2
 40
3.0
 49
2.0
 49
-1.0
  0
LTYPE
  2
CENTER
 70
     0
  3
__ . __
 72
    65
 73
     4
 40
7.0
 49
4.0
 49
-1.0
 49
1.0
 49
-1.0
  0
LTYPE
  2
HIDDEN
 70
     0
  3
Hidden __ __ __ __ __ __ __ __ __ __ __ __ __ _
 72
    65
 73
     2
 40
9.5249999999999986
 49
6.3499999999999979
 49
-3.174999999999998
  0
LTYPE
  2
PHANTOM2
 70
     0
  3
Phantom (.5x) ___ _ _ ___ _ _ ___ _ _ ___ _ _
 72
    65
 73
     6
 40
31.75
 49
15.875
 49
-3.174999999999998
 49
3.174999999999998
 49
-3.174999999999998
 49
3.174999999999998
 49
-3.174999999999998
  0
LTYPE
  2
ACANSTGBM
 70
     0
  3
__ . . __ . .
 72
    65
 73
     6
 40
9.0
 49
4.0
 49
-1.0
 49
1.0
 49
-1.0
 49
1.0
 49
-1.0
  0
LTYPE
  2
ACANSTGLM
 70
     0
  3
_ _ _ _ _
 72
    65
 73
     2
 40
3.0
 49
2.0
 49
-1.0
  0
LTYPE
  2
GEN7
 70
     0
  3
____ . ____ . ____ . ____ . ____ . ____ . ____
 72
    65
 73
     4
 40
14.25
 49
9.75
 49
-1.5
 49
1.5
 49
-1.5
  0
LTYPE
  2
GEN7A
 70
     0
  3
__ . __ . __
 72
    65
 73
     4
 40
7.375
 49
4.75
 49
-0.875
 49
0.875
 49
-0.875
  0
LTYPE
  2
ACJISTGB
 70
     0
  3
__ . . __ . .
 72
    65
 73
     6
 40
9.0
 49
4.0
 49
-1.0
 49
1.0
 49
-1.0
 49
1.0
 49
-1.0
  0
LTYPE
  2
ACJISTGL
 70
     0
  3
_ _ _ _ _
 72
    65
 73
     2
 40
3.0
 49
2.0
 49
-1.0
  0
LTYPE
  2
CENTER2
 70
     0
  3
Center (.5x) ___ _ ___ _ ___ _ ___ _ ___ _ ___
 72
    65
 73
     4
 40
1.125
 49
0.75
 49
-0.125
 49
0.125
 49
-0.125
  0
LTYPE
  2
HIDDEN2
 70
     0
  3
Hidden (.5x) _ _ _ _ _ _ _ _ _ _ _ _ _ _ _ _ _
 72
    65
 73
     2
 40
0.1875
 49
0.125
 49
-0.0625
  0
LTYPE
  2
AMZIGZAG2
 70
     0
  3
/\/-/\/-/\/-/\/-/\/-/\/
 72
    65
 73
     2
 40
0.4401
 49
0.0001
 49
-0.4400000000000001
  0
LTYPE
  2
ACANSTGB
 70
     0
  3
__ . . __ . .
 72
    65
 73
     6
 40
0.35433070866
 49
0.15748031496
 49
-0.03937007874
 49
0.03937007874
 49
-0.03937007874
 49
0.03937007874
 49
-0.03937007874
  0
LTYPE
  2
ACANSTGL
 70
     0
  3
_ _ _ _ _
 72
    65
 73
     2
 40
0.11811023622
 49
0.07874015748
 49
-0.03937007874
  0
ENDTAB
  0
TABLE
  2
LAYER
 70
     7
  0
LAYER
  2
0
 70
     0
 62
     7
  6
CONTINUOUS
  0
LAYER
  2
AM_0
 70
     0
 62
     7
  6
CONTINUOUS
  0
LAYER
  2
AM_5
 70
     0
 62
     2
  6
CONTINUOUS
  0
LAYER
  2
DEFPOINTS
 70
     0
 62
     7
  6
CONTINUOUS
  0
LAYER
  2
ﾁｭｳｼﾝｾﾝ
 70
     0
 62
     1
  6
GEN7
  0
LAYER
  2
ﾁｭｳｼﾝｾﾝ1
 70
     0
 62
     1
  6
GEN7A
  0
LAYER
  2
AM_0N
 70
     0
 62
     7
  6
CONTINUOUS
  0
ENDTAB
  0
TABLE
  2
STYLE
 70
    10
  0
STYLE
  2
STANDARD
 70
     0
 40
0.0
 41
0.8299999999999999
 50
0.0
 71
     0
 42
2.5
  3
txt.shx
  4
bigfont.shx
  0
STYLE
  2
ANNOTATIVE
 70
     0
 40
0.0
 41
1.0
 50
0.0
 71
     0
 42
0.2
  3
txt
  4

  0
STYLE
  2

 70
     1
 40
0.0
 41
1.0
 50
0.0
 71
     0
 42
2.5
  3
ltypeshp.shx
  4

  0
STYLE
  2
ACISOTS
 70
     0
 40
1.0
 41
1.0
 50
0.0
 71
     0
 42
2.5
  3
isocp.shx
  4
extfont.shx
  0
STYLE
  2
ACISOGDT
 70
     0
 40
0.0
 41
1.0
 50
0.0
 71
     0
 42
2.5
  3
amgdt.shx
  4

  0
STYLE
  2
ACANSTS
 70
     0
 40
1.0
 41
1.0
 50
0.0
 71
     0
 42
2.5
  3
romans.shx
  4
bigfont.shx
  0
STYLE
  2
ACANSGDT
 70
     0
 40
0.0
 41
1.0
 50
0.0
 71
     0
 42
2.5
  3
amgdt.shx
  4

  0
STYLE
  2
ACJISTS
 70
     0
 40
1.0
 41
1.0
 50
0.0
 71
     0
 42
2.5
  3
isocp.shx
  4
bigfont.shx
  0
STYLE
  2
ACJISGDT
 70
     0
 40
0.0
 41
1.0
 50
0.0
 71
     0
 42
2.5
  3
amgdt.shx
  4

  0
STYLE
  2

 70
     1
 40
0.0
 41
1.0
 50
0.0
 71
     0
 42
2.5
  3
genltshp.shx
  4

  0
ENDTAB
  0
TABLE
  2
VIEW
 70
     6
  0
VIEW
  2
AM_VIEW1
 70
     0
 40
277.50000000000011
 10
249.64779005524869
 20
416.25
 41
499.29558011049721
 11
0.0
 21
0.0
 31
1.0
 12
0.0
 22
0.0
 32
0.0
 42
50.0
 43
0.0
 44
0.0
 50
0.0
 71
     0
  0
VIEW
  2
AM_VIEW2
 70
     0
 40
277.50000000000011
 10
603.85220994475117
 20
416.25
 41
499.29558011049721
 11
0.0
 21
0.0
 31
1.0
 12
0.0
 22
0.0
 32
0.0
 42
50.0
 43
0.0
 44
0.0
 50
0.0
 71
     0
  0
VIEW
  2
AM_VIEW3
 70
     0
 40
277.50000000000011
 10
249.64779005524869
 20
138.75
 41
499.29558011049721
 11
0.0
 21
0.0
 31
1.0
 12
0.0
 22
0.0
 32
0.0
 42
50.0
 43
0.0
 44
0.0
 50
0.0
 71
     0
  0
VIEW
  2
AM_VIEW4
 70
     0
 40
277.50000000000011
 10
603.85220994475117
 20
138.75
 41
499.29558011049721
 11
0.0
 21
0.0
 31
1.0
 12
0.0
 22
0.0
 32
0.0
 42
50.0
 43
0.0
 44
0.0
 50
0.0
 71
     0
  0
VIEW
  2
AM_VIEW5
 70
     0
 40
277.50000000000011
 10
426.75
 20
277.50000000000011
 41
499.2955801104971
 11
0.0
 21
0.0
 31
1.0
 12
0.0
 22
0.0
 32
0.0
 42
50.0
 43
0.0
 44
0.0
 50
0.0
 71
     0
  0
VIEW
  2
AM_VIEW6
 70
     0
 40
554.99445000000014
 10
426.75
 20
277.5
 41
998.5811743093924
 11
0.0
 21
0.0
 31
1.0
 12
0.0
 22
0.0
 32
0.0
 42
50.0
 43
0.0
 44
0.0
 50
0.0
 71
     0
  0
ENDTAB
  0
TABLE
  2
UCS
 70
     0
  0
ENDTAB
  0
TABLE
  2
APPID
 70
    98
  0
APPID
  2
ACAD
 70
     0
  0
APPID
  2
ACADANNOTATIVE
 70
     0
  0
APPID
  2
MCAD_NO_VIS
 70
     0
  0
APPID
  2
ACAD_TEMP_GRAPHIC
 70
     0
  0
APPID
  2
ACATTRIBSERVICES
 70
     0
  0
APPID
  2
GENIUS_GENREC_14
 70
     0
  0
APPID
  2
GENIUS_GENOBJ-N-REC_13
 70
     0
  0
APPID
  2
GENIUS_GENODEF_13
 70
     0
  0
APPID
  2
GENIUS_GENOLIS_13
 70
     0
  0
APPID
  2
GENIUS_GENOBJ-N-TIT_13
 70
     0
  0
APPID
  2
GENIUS_GENOENT_13
 70
     0
  0
APPID
  2
GENIUS_GENTITLE_13
 70
     0
  0
APPID
  2
GENIUS_GENOREF_13
 70
     0
  0
APPID
  2
GENIUS_GENSCREG_15
 70
     0
  0
APPID
  2
GENIUS_GENOBJ-N-SDF_13
 70
     0
  0
APPID
  2
GENIUS_GENFIL_13
 70
     0
  0
APPID
  2
GENIUS_GENOBJ-N-CHA_13
 70
     0
  0
APPID
  2
GENIUS_GENDTOL_13
 70
     0
  0
APPID
  2
GENIUS_GENOBJ-N-FIL_13
 70
     0
  0
APPID
  2
AD_DRAW
 70
     0
  0
APPID
  2
DESIGNERASSEMBLIES
 70
     0
  0
APPID
  2
ASURF_PCURVE_APPNAME
 70
     0
  0
APPID
  2
GENIUS_GE3SECT_13
 70
     0
  0
APPID
  2
GENIUS_GENCFG_13
 70
     0
  0
APPID
  2
GENIUS_GE3CFG0_13
 70
     0
  0
APPID
  2
GENIUS_GENCFG0_13
 70
     0
  0
APPID
  2
GENIUS_GENCFG1_13
 70
     0
  0
APPID
  2
GENIUS_GENCFG2_13
 70
     0
  0
APPID
  2
GENIUS_GENCFG3_13
 70
     0
  0
APPID
  2
GENIUS_GENCFG4_13
 70
     0
  0
APPID
  2
GENIUS_GEVCFG0_13
 70
     0
  0
APPID
  2
GENIUS_GENHINW_13
 70
     0
  0
APPID
  2
GENIUS_FIRSTVISTXT_14
 70
     0
  0
APPID
  2
GENIUS_GENOBJ-N-LEADER_13
 70
     0
  0
APPID
  2
GEV_VCCNULL_SWITCH_OFF
 70
     0
  0
APPID
  2
GENIUS_GEFCFG0_13
 70
     0
  0
APPID
  2
GENIUS_GENZVEED_13
 70
     0
  0
APPID
  2
GENIUS_GENSCREG_13
 70
     0
  0
APPID
  2
GENIUS_DUMCFG0_13
 70
     0
  0
APPID
  2
GEVID936201362
 70
     0
  0
APPID
  2
GEVDC
 70
     0
  0
APPID
  2
GEVCON
 70
     0
  0
APPID
  2
VCC
 70
     0
  0
APPID
  2
GEVPT
 70
     0
  0
APPID
  2
GEVIT
 70
     0
  0
APPID
  2
GENBH
 70
     0
  0
APPID
  2
GEVMK
 70
     0
  0
APPID
  2
GENIUS_GENBH_13
 70
     0
  0
APPID
  2
GENIUS_GENOBJ-NBEHI-BHF_13
 70
     0
  0
APPID
  2
GENIUS_GENOBJ-NBEHI-BHB_13
 70
     0
  0
APPID
  2
GENIUS_GENOBJ-F-DESC_13
 70
     0
  0
APPID
  2
GENIUS_GEFDESC_14
 70
     0
  0
APPID
  2
GENIUS_GENOBJ-F-PART_13
 70
     0
  0
APPID
  2
GENIUS_GEFSTDP_13
 70
     0
  0
APPID
  2
GENIUS_GEFPARTINS_13
 70
     0
  0
APPID
  2
GENIUS_GENTRA_14
 70
     0
  0
APPID
  2
GENIUS_GENINF13_13
 70
     0
  0
APPID
  2
GENIUS_GENOBJ-N-INFOPT_13
 70
     0
  0
APPID
  2
GENIUS_GENOBJ-N-RSSYM_13
 70
     0
  0
APPID
  2
GENIUS_GENSYMENT_13
 70
     0
  0
APPID
  2
GENIUS_GENSCSYM_13
 70
     0
  0
APPID
  2
GENIUS_GEFINFNAM_13
 70
     0
  0
APPID
  2
GENIUS_GENOBJ-N-CEN_13
 70
     0
  0
APPID
  2
GENIUS_GENOBJ-N-CRS_13
 70
     0
  0
APPID
  2
GENIUS_GENOBJ-N-CRC_13
 70
     0
  0
APPID
  2
GENIUS_GENCRC_14
 70
     0
  0
APPID
  2
GEVID942827039
 70
     0
  0
APPID
  2
GEVID942827040
 70
     0
  0
APPID
  2
GEVID942827041
 70
     0
  0
APPID
  2
GENIUS_GENOBJ-F-SCPASSM_13
 70
     0
  0
APPID
  2
GENIUS_GENDIMSH_14
 70
     0
  0
APPID
  2
GEVID942827042
 70
     0
  0
APPID
  2
GEVID946020473
 70
     0
  0
APPID
  2
GEVID946020474
 70
     0
  0
APPID
  2
GEVID946020475
 70
     0
  0
APPID
  2
GENIUS_GENOBJ-N-HTC_13
 70
     0
  0
APPID
  2
GENIUS_GENHATCH_13
 70
     0
  0
APPID
  2
GEVID948854295
 70
     0
  0
APPID
  2
GEVID939402019
 70
     0
  0
APPID
  2
GEVID952919491
 70
     0
  0
APPID
  2
GEVID952919492
 70
     0
  0
APPID
  2
GENIUS_GEFWELD_13
 70
     0
  0
APPID
  2
GENIUS_GENOBJ-F-WELS_13
 70
     0
  0
APPID
  2
GEVID952919493
 70
     0
  0
APPID
  2
GENIUS_GENOBJ-N-RSBK_13
 70
     0
  0
APPID
  2
GENIUS_GENOBJ-N-LIB_13
 70
     0
  0
APPID
  2
GENIUS_GENSCALE_13
 70
     0
  0
APPID
  2
GEVID986376691
 70
     0
  0
APPID
  2
DCO15
 70
     0
  0
APPID
  2
ACADM_DIM_EDIT
 70
     0
  0
APPID
  2
AMDT_DM_ADJ
 70
     0
  0
APPID
  2
ACAD_PSEXT
 70
     0
  0
APPID
  2
ACAD_DSTYLE_DIMJAG
 70
     0
  0
APPID
  2
ACAD_DSTYLE_DIMBREAK
 70
     0
  0
APPID
  2
ACAD_NAV_VCDISPLAY
 70
     0
  0
APPID
  2
ACADANNOPO
 70
     0
  0
APPID
  2
ACAD_EXEMPT_FROM_CAD_STANDARDS
 70
     0
  0
APPID
  2
ACAD_MLEADERVER
 70
     0
  0
ENDTAB
  0
TABLE
  2
DIMSTYLE
 70
    22
  0
DIMSTYLE
  2
STANDARD
 70
     0
  3

  4

  5

  6

  7

 40
1.0
 41
0.18
 42
0.0625
 43
0.38
 44
0.18
 45
0.0
 46
0.0
 47
0.0
 48
0.0
140
0.18
141
0.09
142
0.0
143
25.399999999999999
144
1.0
145
0.0
146
1.0
147
0.09
 71
     0
 72
     0
 73
     1
 74
     1
 75
     0
 76
     0
 77
     0
 78
     0
170
     0
171
     2
172
     0
173
     0
174
     0
175
     0
176
     0
177
     0
178
     0
  0
DIMSTYLE
  2
ANNOTATIVE
 70
     0
  3

  4

  5

  6

  7

 40
1.0
 41
0.18
 42
0.0625
 43
0.38
 44
0.18
 45
0.0
 46
0.0
 47
0.0
 48
0.0
140
0.18
141
0.09
142
0.0
143
25.399999999999999
144
1.0
145
0.0
146
1.0
147
0.09
 71
     0
 72
     0
 73
     1
 74
     1
 75
     0
 76
     0
 77
     0
 78
     0
170
     0
171
     2
172
     0
173
     0
174
     0
175
     0
176
     0
177
     0
178
     0
  0
DIMSTYLE
  2
AM_ISO
 70
     0
  3

  4
"
  5

  6

  7

 40
1.0
 41
2.5
 42
1.0
 43
8.0
 44
0.6
 45
0.0
 46
0.0
 47
0.1
 48
0.1
140
2.5
141
0.0
142
0.0
143
0.0393701
144
1.0
145
0.0
146
0.71
147
0.8
 71
     0
 72
     0
 73
     0
 74
     0
 75
     0
 76
     0
 77
     1
 78
     8
170
     0
171
     2
172
     1
173
     0
174
     0
175
     0
176
   256
177
   256
178
     4
  0
DIMSTYLE
  2
AM_ISO$3
 70
     0
  3

  4
"
  5

  6

  7

 40
1.0
 41
2.5
 42
1.0
 43
8.0
 44
0.6
 45
0.0
 46
0.0
 47
0.1
 48
0.1
140
2.5
141
0.0
142
0.0
143
0.0393701
144
1.0
145
0.0
146
0.71
147
0.8
 71
     0
 72
     0
 73
     0
 74
     1
 75
     0
 76
     0
 77
     1
 78
     8
170
     0
171
     2
172
     0
173
     0
174
     0
175
     0
176
   256
177
   256
178
     4
  0
DIMSTYLE
  2
AM_ISO$4
 70
     0
  3

  4
"
  5

  6

  7

 40
1.0
 41
2.5
 42
1.0
 43
8.0
 44
0.6
 45
0.0
 46
0.0
 47
0.1
 48
0.1
140
2.5
141
0.0
142
0.0
143
0.0393701
144
1.0
145
0.0
146
0.71
147
0.8
 71
     0
 72
     0
 73
     0
 74
     1
 75
     0
 76
     0
 77
     1
 78
     8
170
     0
171
     2
172
     0
173
     0
174
     0
175
     0
176
   256
177
   256
178
     4
  0
DIMSTYLE
  2
AM_ISO$6
 70
     0
  3

  4
"
  5

  6

  7

 40
1.0
 41
2.5
 42
1.0
 43
8.0
 44
0.6
 45
0.0
 46
0.0
 47
0.1
 48
0.1
140
2.5
141
0.0
142
0.0
143
0.0393701
144
1.0
145
0.0
146
0.71
147
0.8
 71
     0
 72
     0
 73
     0
 74
     0
 75
     0
 76
     0
 77
     0
 78
     8
170
     0
171
     2
172
     1
173
     0
174
     0
175
     0
176
   256
177
   256
178
     4
  0
DIMSTYLE
  2
AM_ISO$7
 70
     0
  3

  4
"
  5

  6

  7

 40
1.0
 41
2.5
 42
1.0
 43
8.0
 44
0.6
 45
0.0
 46
0.0
 47
0.1
 48
0.1
140
2.5
141
0.0
142
0.0
143
0.0393701
144
1.0
145
0.0
146
0.71
147
0.8
 71
     0
 72
     0
 73
     0
 74
     0
 75
     0
 76
     0
 77
     1
 78
     8
170
     0
171
     2
172
     1
173
     0
174
     0
175
     0
176
   256
177
   256
178
     4
  0
DIMSTYLE
  2
AM_ISO$SF
 70
     0
  3

  4
"
  5

  6

  7

 40
1.0
 41
2.5
 42
1.0
 43
10.0
 44
1.0
 45
0.0
 46
0.0
 47
0.1
 48
0.1
140
3.5
141
0.0
142
0.0
143
0.0393701
144
1.0
145
0.0
146
0.71
147
1.5
 71
     0
 72
     0
 73
     0
 74
     0
 75
     1
 76
     1
 77
     1
 78
     8
170
     0
171
     2
172
     1
173
     0
174
     0
175
     0
176
   256
177
   256
178
     2
  0
DIMSTYLE
  2
AM_ISO$SH
 70
     0
  3

  4
"
  5

  6

  7

 40
1.0
 41
2.5
 42
1.0
 43
10.0
 44
1.0
 45
0.0
 46
0.0
 47
0.1
 48
0.1
140
3.5
141
0.0
142
0.0
143
0.0393701
144
2.0
145
0.0
146
0.71
147
1.5
 71
     0
 72
     0
 73
     0
 74
     0
 75
     1
 76
     1
 77
     1
 78
     8
170
     0
171
     2
172
     1
173
     1
174
     0
175
     0
176
   256
177
   256
178
     2
  0
DIMSTYLE
  2
AM_JIS
 70
     0
  3

  4
"
  5

  6

  7

 40
1.0
 41
2.5
 42
1.0
 43
7.0
 44
1.0
 45
0.0
 46
0.0
 47
0.1
 48
0.1000000001
140
2.5
141
0.0
142
0.0
143
0.0393701
144
1.0
145
0.0
146
0.71
147
1.0
 71
     0
 72
     0
 73
     0
 74
     0
 75
     0
 76
     0
 77
     3
 78
     8
170
     0
171
     2
172
     1
173
     0
174
     0
175
     0
176
   256
177
   256
178
     4
  0
DIMSTYLE
  2
AM_JIS$3
 70
     0
  3

  4
"
  5

  6

  7

 40
1.0
 41
2.5
 42
1.0
 43
7.0
 44
1.0
 45
0.0
 46
0.0
 47
0.1
 48
0.1000000001
140
2.5
141
0.0
142
0.0
143
0.0393701
144
1.0
145
0.0
146
0.71
147
1.0
 71
     0
 72
     0
 73
     0
 74
     1
 75
     0
 76
     0
 77
     3
 78
     8
170
     0
171
     2
172
     0
173
     0
174
     0
175
     0
176
   256
177
   256
178
     4
  0
DIMSTYLE
  2
AM_JIS$4
 70
     0
  3

  4
"
  5

  6

  7

 40
1.0
 41
2.5
 42
1.0
 43
7.0
 44
1.0
 45
0.0
 46
0.0
 47
0.1
 48
0.1000000001
140
2.5
141
0.0
142
0.0
143
0.0393701
144
1.0
145
0.0
146
0.71
147
1.0
 71
     0
 72
     0
 73
     0
 74
     0
 75
     0
 76
     0
 77
     3
 78
     8
170
     0
171
     2
172
     0
173
     0
174
     0
175
     0
176
   256
177
   256
178
     4
  0
DIMSTYLE
  2
AM_JIS$6
 70
     0
  3

  4
"
  5

  6

  7

 40
1.0
 41
2.5
 42
1.0
 43
7.0
 44
1.0
 45
0.0
 46
0.0
 47
0.1
 48
0.1000000001
140
2.5
141
0.0
142
0.0
143
0.0393701
144
1.0
145
0.0
146
0.71
147
1.0
 71
     0
 72
     0
 73
     0
 74
     0
 75
     0
 76
     0
 77
     0
 78
     8
170
     0
171
     2
172
     1
173
     0
174
     0
175
     0
176
   256
177
   256
178
     4
  0
DIMSTYLE
  2
AM_JIS$7
 70
     0
  3

  4
"
  5

  6

  7

 40
1.0
 41
2.5
 42
1.0
 43
7.0
 44
1.0
 45
0.0
 46
0.0
 47
0.1
 48
0.1000000001
140
2.5
141
0.0
142
0.0
143
0.0393701
144
1.0
145
0.0
146
0.71
147
1.0
 71
     0
 72
     0
 73
     0
 74
     0
 75
     0
 76
     0
 77
     3
 78
     8
170
     0
171
     2
172
     1
173
     0
174
     0
175
     0
176
   256
177
   256
178
     4
  0
DIMSTYLE
  2
AM_JIS$SF
 70
     0
  3

  4
"
  5

  6

  7

 40
1.0
 41
2.5
 42
1.0
 43
10.0
 44
1.0
 45
0.0
 46
0.0
 47
0.1
 48
0.1
140
3.5
141
0.0
142
0.0
143
0.0393701
144
1.0
145
0.0
146
0.71
147
1.5
 71
     0
 72
     0
 73
     0
 74
     0
 75
     1
 76
     1
 77
     3
 78
     8
170
     0
171
     2
172
     1
173
     0
174
     0
175
     0
176
   256
177
   256
178
     4
  0
DIMSTYLE
  2
AM_JIS$SH
 70
     0
  3

  4
"
  5

  6

  7

 40
1.0
 41
2.5
 42
1.0
 43
10.0
 44
1.0
 45
0.0
 46
0.0
 47
0.1
 48
0.1
140
3.5
141
0.0
142
0.0
143
0.0393701
144
1.0
145
0.0
146
0.71
147
1.5
 71
     0
 72
     0
 73
     0
 74
     0
 75
     1
 76
     0
 77
     3
 78
     8
170
     0
171
     2
172
     1
173
     1
174
     0
175
     0
176
   256
177
   256
178
     4
  0
DIMSTYLE
  2
AM_ANSI
 70
     0
  3

  4
mm
  5

  6

  7

 40
1.0
 41
0.12
 42
0.05
 43
0.5
 44
0.1
 45
0.0
 46
0.0
 47
0.1
 48
0.1
140
0.12
141
0.0
142
0.0
143
25.399999999999999
144
1.0
145
0.0
146
0.71
147
0.06
 71
     0
 72
     0
 73
     1
 74
     1
 75
     0
 76
     0
 77
     0
 78
     7
170
     0
171
     2
172
     0
173
     0
174
     0
175
     0
176
   256
177
   256
178
     2
  0
DIMSTYLE
  2
AM_ANSI$3
 70
     0
  3

  4
mm
  5

  6

  7

 40
1.0
 41
0.12
 42
0.05
 43
0.5
 44
0.1
 45
0.0
 46
0.0
 47
0.1
 48
0.1
140
0.12
141
0.0
142
0.0
143
25.399999999999999
144
1.0
145
0.0
146
0.71
147
0.06
 71
     0
 72
     0
 73
     1
 74
     1
 75
     0
 76
     0
 77
     0
 78
     7
170
     0
171
     2
172
     0
173
     0
174
     0
175
     0
176
   256
177
   256
178
     2
  0
DIMSTYLE
  2
AM_ANSI$4
 70
     0
  3

  4
mm
  5

  6

  7

 40
1.0
 41
0.12
 42
0.05
 43
0.5
 44
0.1
 45
0.0
 46
0.0
 47
0.1
 48
0.1
140
0.12
141
0.0
142
0.0
143
25.399999999999999
144
1.0
145
0.0
146
0.71
147
0.06
 71
     0
 72
     0
 73
     1
 74
     1
 75
     0
 76
     0
 77
     0
 78
     7
170
     0
171
     2
172
     0
173
     0
174
     0
175
     0
176
   256
177
   256
178
     2
  0
DIMSTYLE
  2
AM_ANSI$7
 70
     0
  3

  4
mm
  5

  6

  7

 40
1.0
 41
0.12
 42
0.05
 43
0.5
 44
0.1
 45
0.0
 46
0.0
 47
0.1
 48
0.1
140
0.12
141
0.0
142
0.0
143
25.399999999999999
144
1.0
145
0.0
146
0.71
147
0.06
 71
     0
 72
     0
 73
     1
 74
     1
 75
     0
 76
     0
 77
     0
 78
     7
170
     0
171
     2
172
     0
173
     0
174
     0
175
     0
176
   256
177
   256
178
     2
  0
DIMSTYLE
  2
AM_ANSI$SF
 70
     0
  3

  4
mm
  5

  6

  7

 40
1.0
 41
0.12
 42
0.05
 43
0.5
 44
0.1
 45
0.0
 46
0.0
 47
0.1
 48
0.1
140
0.12
141
0.0
142
0.0
143
25.399999999999999
144
1.0
145
0.0
146
0.71
147
0.06
 71
     0
 72
     0
 73
     1
 74
     1
 75
     1
 76
     1
 77
     0
 78
     7
170
     0
171
     2
172
     0
173
     0
174
     0
175
     0
176
   256
177
   256
178
     2
  0
DIMSTYLE
  2
AM_ANSI$SH
 70
     0
  3

  4
mm
  5

  6
GENAXEH
  7

 40
1.0
 41
0.12
 42
0.05
 43
0.5
 44
0.1
 45
0.0
 46
0.0
 47
0.1
 48
0.1
140
0.12
141
0.0
142
0.0
143
25.399999999999999
144
1.0
145
0.0
146
0.71
147
0.06
 71
     0
 72
     0
 73
     1
 74
     1
 75
     1
 76
     1
 77
     0
 78
     7
170
     0
171
     2
172
     0
173
     1
174
     0
175
     0
176
   256
177
   256
178
     2
  0
ENDTAB
  0
ENDSEC
  0
SECTION
  2
BLOCKS
  0
BLOCK
  8
0
  2
$MODEL_SPACE
 70
     0
 10
0.0
 20
0.0
 30
0.0
  3
$MODEL_SPACE
  1

  0
ENDBLK
  5
6F61
  8
0
  0
BLOCK
 67
     1
  8
0
  2
$PAPER_SPACE
 70
     0
 10
0.0
 20
0.0
 30
0.0
  3
$PAPER_SPACE
  1

  0
ENDBLK
  5
6F5D
 67
     1
  8
0
  0
BLOCK
  8
0
  2
GENAXEH
 70
     0
 10
0.0
 20
0.0
 30
0.0
  3
GENAXEH
  1

  0
LINE
  5
73
  8
0
 10
-1.0
 20
0.0
 30
0.0
 11
1.0
 21
0.0
 31
0.0
  0
ENDBLK
  5
75
  8
0
  0
BLOCK
  8
0
  2
_OPEN30
 70
     0
 10
0.0
 20
0.0
 30
0.0
  3
_OPEN30
  1

  0
LINE
  5
31A
  8
0
 62
     0
 10
-1.0
 20
0.26794919
 30
0.0
 11
0.0
 21
0.0
 31
0.0
  0
LINE
  5
31B
  8
0
 62
     0
 10
0.0
 20
0.0
 30
0.0
 11
-1.0
 21
-0.26794919
 31
0.0
  0
LINE
  5
31C
  8
0
 62
     0
 10
0.0
 20
0.0
 30
0.0
 11
-1.0
 21
0.0
 31
0.0
  0
ENDBLK
  5
31E
  8
0
  0
BLOCK
  8
0
  2
_NONE
 70
     0
 10
0.0
 20
0.0
 30
0.0
  3
_NONE
  1

  0
ENDBLK
  5
579
  8
0
  0
BLOCK
  8
0
  2
*U5
 70
     1
 10
0.0
 20
0.0
 30
0.0
  3
*U5
  1

  0
TEXT
  5
6EEE
  8
AM_0
 10
543.32491545136565
 20
521.95233249941452
 30
0.0
 40
10.0
  1
ＶＸ０４－０４０～０５０ＭＦＷ
 41
0.8299999999999999
  0
ENDBLK
  5
6EF0
  8
0
  0
BLOCK
  8
0
  2
_ACMFILLEDHALF
 70
     0
 10
0.0
 20
0.0
 30
0.0
  3
_ACMFILLEDHALF
  1

  0
TRACE
  5
705F
  8
AM_0
 62
     0
 10
-0.8
 20
0.0
 30
0.0
 11
-1.0
 21
0.166666666
 31
0.0
 12
0.0
 22
0.0
 32
0.0
 13
0.0
 23
0.0
 33
0.0
  0
LINE
  5
7060
  8
AM_0
 62
     0
 10
-1.0
 20
0.0
 30
0.0
 11
-0.8
 21
0.0
 31
0.0
  0
ENDBLK
  5
705E
  8
0
  0
ENDSEC
  0
SECTION
  2
ENTITIES
  0
LINE
  5
4BB5
  8
AM_0
 10
379.08827324434287
 20
269.48914721174509
 30
0.0
 11
379.08827324434287
 21
266.48914721174498
 31
0.0
  0
LINE
  5
4BB6
  8
AM_0
 10
379.08827324434287
 20
269.48914721174509
 30
0.0
 11
411.08831324434283
 21
269.48914721174509
 31
0.0
  0
LINE
  5
4BB7
  8
AM_0
 10
377.08826324434278
 20
238.48913021174499
 30
0.0
 11
411.08831324434283
 21
238.48913021174499
 31
0.0
  0
LINE
  5
4BB8
  8
AM_0
 10
377.08826324434273
 20
266.48914721174498
 30
0.0
 11
411.08831324434283
 21
266.48914721174498
 31
0.0
  0
LINE
  5
4BB9
  8
AM_0
 10
411.08831324434283
 20
269.48914721174509
 30
0.0
 11
411.08831324434283
 21
238.48913021174499
 31
0.0
  0
LINE
  5
4BBA
  8
AM_0
 10
625.24394320768045
 20
269.48914721174509
 30
0.0
 11
633.24392920768048
 21
269.48914721174509
 31
0.0
  0
LINE
  5
4BBB
  8
AM_0
 10
625.24394320768045
 20
262.48912721174509
 30
0.0
 11
633.24392920768048
 21
262.48912721174509
 31
0.0
  0
LINE
  5
4BBC
  8
AM_0
 10
633.24392920768048
 20
262.48912721174509
 30
0.0
 11
633.24392920768048
 21
269.48914721174509
 31
0.0
  0
LINE
  5
4BBD
  8
AM_0
 10
625.24394320768045
 20
262.48912721174509
 30
0.0
 11
625.24394320768045
 21
269.48914721174509
 31
0.0
  0
CIRCLE
  5
4BBE
  8
AM_5
 10
629.24394520768055
 20
252.48910121174521
 30
0.0
 40
4.0000001999999979
  0
ARC
  5
4BBF
  8
AM_0
 10
629.24394520768055
 20
252.48910121174521
 30
0.0
 40
14.000001299999999
 50
106.60154000000141
 51
73.398451999997818
  0
CIRCLE
  5
4BC0
  8
AM_0
 10
629.24394520768055
 20
252.48910121174521
 30
0.0
 40
3.0
  0
LINE
  5
6363
  8
AM_0
 10
156.088303244343
 20
186.13909421174509
 30
0.0
 11
121.08829324434291
 21
188.16909521174509
 31
0.0
  0
LINE
  5
6364
  8
AM_0
 10
156.088303244343
 20
278.83910321174528
 30
0.0
 11
121.08829324434291
 21
276.80909321174522
 31
0.0
  0
LINE
  5
6365
  8
AM_0
 10
108.368323244343
 20
184.8491032117451
 30
0.0
 11
111.088303244343
 21
184.8491032117451
 31
0.0
  0
LINE
  5
6366
  8
AM_0
 10
107.8583232443429
 20
182.8791172117451
 30
0.0
 11
106.588303244343
 21
183.6091102117451
 31
0.0
  0
LINE
  5
6367
  8
AM_0
 10
111.088303244343
 20
175.05909221174511
 30
0.0
 11
113.9083032443429
 21
174.98908421174511
 31
0.0
  0
LINE
  5
6368
  8
AM_0
 10
107.8383132443429
 20
189.52910921174509
 30
0.0
 11
106.538323244343
 21
190.37908421174509
 31
0.0
  0
LINE
  5
6369
  8
AM_0
 10
107.848303244343
 20
184.98911621174511
 30
0.0
 11
106.5682932443429
 21
185.75912021174511
 31
0.0
  0
LINE
  5
636A
  8
AM_0
 10
108.3583332443429
 20
182.7390862117449
 30
0.0
 11
110.588353244343
 21
182.7390862117449
 31
0.0
  0
LINE
  5
636B
  8
AM_0
 10
108.328303244343
 20
183.88909421174509
 30
0.0
 11
110.588353244343
 21
183.88909421174509
 31
0.0
  0
LINE
  5
636C
  8
AM_0
 10
107.8783332443429
 20
183.9990952117451
 30
0.0
 11
106.6382832443429
 21
184.62910121174511
 31
0.0
  0
LINE
  5
636D
  8
AM_0
 10
108.3583332443429
 20
190.50908921174491
 30
0.0
 11
110.0883132443429
 21
190.50908921174491
 31
0.0
  0
LINE
  5
636E
  8
AM_0
 10
108.3883632443429
 20
189.3690742117451
 30
0.0
 11
111.088303244343
 21
189.3690742117451
 31
0.0
  0
LINE
  5
636F
  8
AM_0
 10
108.338353244343
 20
185.98908521174511
 30
0.0
 11
110.0883132443429
 21
185.98908521174511
 31
0.0
  0
LINE
  5
6370
  8
AM_0
 10
107.85826324434299
 20
190.63910921174511
 30
0.0
 11
106.5782832443428
 21
191.38909421174509
 31
0.0
  0
LINE
  5
6371
  8
AM_0
 10
259.08835324434301
 20
168.9890992117451
 30
0.0
 11
267.08831324434283
 21
168.9890992117451
 31
0.0
  0
LINE
  5
6372
  8
AM_0
 10
259.08835324434301
 20
180.9890752117451
 30
0.0
 11
267.08831324434283
 21
180.9890752117451
 31
0.0
  0
LINE
  5
6373
  8
AM_0
 10
156.088303244343
 20
186.13909421174509
 30
0.0
 11
258.08830324434302
 21
186.13909421174509
 31
0.0
  0
LINE
  5
6374
  8
AM_0
 10
257.79832324434301
 20
181.45908821174521
 30
0.0
 11
255.38836324434291
 21
181.45908821174521
 31
0.0
  0
LINE
  5
6375
  8
AM_0
 10
254.88829324434289
 20
173.56908821174511
 30
0.0
 11
256.328293244343
 21
180.26908421174511
 31
0.0
  0
LINE
  5
6376
  8
AM_0
 10
252.79831324434289
 20
171.98910221174509
 30
0.0
 11
258.08830324434302
 21
171.98910221174509
 31
0.0
  0
LINE
  5
6377
  8
AM_0
 10
115.7683032443429
 20
199.11907721174521
 30
0.0
 11
159.088303244343
 21
199.11907721174521
 31
0.0
  0
LINE
  5
6378
  8
AM_0
 10
159.088303244343
 20
196.48908521174519
 30
0.0
 11
116.6383632443429
 21
196.48908521174511
 31
0.0
  0
LINE
  5
6379
  8
AM_0
 10
115.7683032443429
 20
195.7691002117451
 30
0.0
 11
159.088303244343
 21
195.7691002117451
 31
0.0
  0
LINE
  5
637A
  8
AM_0
 10
111.088303244343
 20
198.1890832117451
 30
0.0
 11
114.258343244343
 21
198.1890832117451
 31
0.0
  0
LINE
  5
637B
  8
AM_0
 10
117.258343244343
 20
174.22909121174521
 30
0.0
 11
130.588303244343
 21
174.22909121174521
 31
0.0
  0
LINE
  5
637C
  8
AM_0
 10
134.08831324434291
 20
170.62908521174521
 30
0.0
 11
250.89829324434299
 21
170.62908521174521
 31
0.0
  0
LINE
  5
637D
  8
AM_0
 10
117.198283244343
 20
169.18909721174509
 30
0.0
 11
130.698283244343
 21
169.18909721174509
 31
0.0
  0
LINE
  5
637E
  8
AM_0
 10
117.3183432443429
 20
179.509076211745
 30
0.0
 11
130.588303244343
 21
179.509076211745
 31
0.0
  0
LINE
  5
637F
  8
AM_0
 10
114.808273244343
 20
184.13909621174511
 30
0.0
 11
115.348303244343
 21
181.14908921174509
 31
0.0
  0
LINE
  5
6380
  8
AM_0
 10
108.088303244343
 20
189.65909921174509
 30
0.0
 11
108.088303244343
 21
190.12908521174509
 31
0.0
  0
LINE
  5
6381
  8
AM_0
 10
111.088303244343
 20
184.13908121174521
 30
0.0
 11
121.088353244343
 21
184.13908121174521
 31
0.0
  0
LINE
  5
6382
  8
AM_0
 10
108.088303244343
 20
185.08907621174509
 30
0.0
 11
108.088303244343
 21
185.63908121174509
 31
0.0
  0
LINE
  5
6383
  8
AM_0
 10
107.86825324434299
 20
186.10908221174509
 30
0.0
 11
106.61833324434291
 21
186.76908521174511
 31
0.0
  0
LINE
  5
6384
  8
AM_0
 10
121.088353244343
 20
184.13908121174521
 30
0.0
 11
121.088353244343
 21
198.1890832117451
 31
0.0
  0
LINE
  5
6385
  8
AM_0
 10
108.088303244343
 20
182.98908521174511
 30
0.0
 11
108.088303244343
 21
183.51908321174511
 31
0.0
  0
LINE
  5
6386
  8
AM_0
 10
252.828283244343
 20
172.10909621174511
 30
0.0
 11
256.2883032443429
 21
185.0290942117451
 31
0.0
  0
LINE
  5
6387
  8
AM_0
 10
115.258273244343
 20
170.69909321174509
 30
0.0
 11
114.368263244343
 21
174.23908421174499
 31
0.0
  0
LINE
  5
6388
  8
AM_0
 10
115.2783132443429
 20
172.35909521174511
 30
0.0
 11
114.358273244343
 21
176.2391002117451
 31
0.0
  0
LINE
  5
6389
  8
AM_0
 10
189.088303244343
 20
168.57908321174509
 30
0.0
 11
189.088303244343
 21
170.62908521174521
 31
0.0
  0
LINE
  5
638A
  8
AM_0
 10
132.088303244343
 20
170.599100211745
 30
0.0
 11
132.088303244343
 21
178.00907321174509
 31
0.0
  0
LINE
  5
638B
  8
AM_0
 10
112.91830324434299
 20
175.36909121174509
 30
0.0
 11
114.5683332443428
 21
175.36909121174509
 31
0.0
  0
LINE
  5
638C
  8
AM_0
 10
156.088303244343
 20
278.83907321174502
 30
0.0
 11
258.08830324434302
 21
278.83907321174502
 31
0.0
  0
LINE
  5
638D
  8
AM_0
 10
258.08830324434302
 20
294.98909321174511
 30
0.0
 11
258.08830324434302
 21
169.9890862117451
 31
0.0
  0
LINE
  5
638E
  8
AM_0
 10
259.08835324434301
 20
295.98908321174508
 30
0.0
 11
267.08831324434283
 21
295.98908321174508
 31
0.0
  0
LINE
  5
638F
  8
AM_0
 10
258.08830324434302
 20
269.63908121174518
 30
0.0
 11
267.08831324434288
 21
269.63908121174518
 31
0.0
  0
LINE
  5
6390
  8
AM_0
 10
259.08835324434301
 20
283.9890772117451
 30
0.0
 11
267.08831324434283
 21
283.9890772117451
 31
0.0
  0
LINE
  5
6391
  8
AM_0
 10
258.08830324434302
 20
195.33909221174511
 30
0.0
 11
267.08831324434288
 21
195.33909221174511
 31
0.0
  0
LINE
  5
6392
  8
AM_0
 10
111.08824324434291
 20
289.9191232117451
 30
0.0
 11
113.908243244343
 21
289.98911321174501
 31
0.0
  0
LINE
  5
6393
  8
AM_0
 10
111.088303244343
 20
289.91909321174512
 30
0.0
 11
111.088303244343
 21
232.48908821174521
 31
0.0
  0
LINE
  5
6394
  8
AM_0
 10
106.088353244343
 20
280.50908321174512
 30
0.0
 11
106.088353244343
 21
237.4890862117451
 31
0.0
  0
LINE
  5
6395
  8
AM_0
 10
108.3583332443429
 20
282.23909321174511
 30
0.0
 11
110.588353244343
 21
282.23909321174511
 31
0.0
  0
LINE
  5
6396
  8
AM_0
 10
108.2883132443429
 20
268.17909221174529
 30
0.0
 11
110.3882832443429
 21
268.17909221174529
 31
0.0
  0
LINE
  5
6397
  8
AM_0
 10
107.8583232443429
 20
282.10907321174528
 30
0.0
 11
106.588303244343
 21
281.36909321174522
 31
0.0
  0
LINE
  5
6398
  8
AM_0
 10
107.8482432443429
 20
279.98909321174511
 30
0.0
 11
106.5682932443429
 21
279.2191132117452
 31
0.0
  0
LINE
  5
6399
  8
AM_0
 10
107.8383132443429
 20
275.44904321174522
 30
0.0
 11
106.538323244343
 21
274.59908321174521
 31
0.0
  0
LINE
  5
639A
  8
AM_0
 10
107.89828324434291
 20
268.0991032117451
 30
0.0
 11
106.698283244343
 21
267.58909421174508
 31
0.0
  0
LINE
  5
639B
  8
AM_0
 10
108.368323244343
 20
280.12907321174521
 30
0.0
 11
111.088303244343
 21
280.12907321174521
 31
0.0
  0
LINE
  5
639C
  8
AM_0
 10
108.3883632443429
 20
275.61908321174519
 30
0.0
 11
111.088303244343
 21
275.61908321174519
 31
0.0
  0
LINE
  5
639D
  8
AM_0
 10
108.2383332443429
 20
266.22907721174511
 30
0.0
 11
110.0883132443429
 21
266.22907721174511
 31
0.0
  0
LINE
  5
639E
  8
AM_0
 10
108.3583332443429
 20
274.47908321174509
 30
0.0
 11
110.0883132443429
 21
274.47908321174509
 31
0.0
  0
LINE
  5
639F
  8
AM_0
 10
108.338353244343
 20
278.98910321174498
 30
0.0
 11
110.0883132443429
 21
278.98910321174498
 31
0.0
  0
LINE
  5
63A0
  8
AM_0
 10
108.328303244343
 20
281.08907321174502
 30
0.0
 11
110.588353244343
 21
281.08907321174502
 31
0.0
  0
LINE
  5
63A1
  8
AM_0
 10
107.8583232443429
 20
274.33907321174502
 30
0.0
 11
106.5782832443428
 21
273.58906421174521
 31
0.0
  0
LINE
  5
63A2
  8
AM_0
 10
107.948353244343
 20
266.18906921174522
 30
0.0
 11
106.7983332443428
 21
265.83909521174519
 31
0.0
  0
LINE
  5
63A3
  8
AM_0
 10
107.8783332443429
 20
280.98908321174508
 30
0.0
 11
106.6382832443429
 21
280.3590832117452
 31
0.0
  0
LINE
  5
63A4
  8
AM_0
 10
107.86825324434299
 20
278.87909321174521
 30
0.0
 11
106.618273244343
 21
278.20910321174512
 31
0.0
  0
LINE
  5
63A5
  8
AM_0
 10
110.0883132443429
 20
258.48908921174512
 30
0.0
 11
107.0883132443429
 21
258.48908921174512
 31
0.0
  0
LINE
  5
63A6
  8
AM_0
 10
110.0883132443429
 20
256.48908821174518
 30
0.0
 11
107.0883132443429
 21
256.48908821174518
 31
0.0
  0
LINE
  5
63A7
  8
AM_0
 10
110.0883132443429
 20
248.4890872117451
 30
0.0
 11
107.0883132443429
 21
248.4890872117451
 31
0.0
  0
LINE
  5
63A8
  8
AM_0
 10
110.0883132443429
 20
246.4890892117451
 30
0.0
 11
107.0883132443429
 21
246.4890892117451
 31
0.0
  0
LINE
  5
63A9
  8
AM_0
 10
110.0883132443429
 20
238.48908821174521
 30
0.0
 11
107.0883132443429
 21
238.48908821174521
 31
0.0
  0
LINE
  5
63AA
  8
AM_0
 10
110.0883132443429
 20
236.4890872117451
 30
0.0
 11
107.0883132443429
 21
236.4890872117451
 31
0.0
  0
LINE
  5
63AB
  8
AM_0
 10
108.088303244343
 20
248.0990722117451
 30
0.0
 11
108.088303244343
 21
246.88908221174509
 31
0.0
  0
LINE
  5
63AC
  8
AM_0
 10
108.088303244343
 20
238.09910321174519
 30
0.0
 11
108.088303244343
 21
236.93906921174511
 31
0.0
  0
LINE
  5
63AD
  8
AM_0
 10
108.088303244343
 20
258.11909321174511
 30
0.0
 11
108.088303244343
 21
256.74909821174521
 31
0.0
  0
LINE
  5
63AE
  8
AM_0
 10
108.088303244343
 20
267.87910421174502
 30
0.0
 11
108.088303244343
 21
266.81910521174518
 31
0.0
  0
LINE
  5
63AF
  8
AM_0
 10
108.088303244343
 20
275.31908321174501
 30
0.0
 11
108.088303244343
 21
274.84910321174522
 31
0.0
  0
LINE
  5
63B0
  8
AM_0
 10
108.088303244343
 20
279.8890732117452
 30
0.0
 11
108.088303244343
 21
279.33908321174522
 31
0.0
  0
LINE
  5
63B1
  8
AM_0
 10
108.088303244343
 20
281.98910321174492
 30
0.0
 11
108.088303244343
 21
281.45909321174508
 31
0.0
  0
LINE
  5
63B2
  8
AM_0
 10
104.588353244343
 20
252.4890892117451
 30
0.0
 11
104.588353244343
 21
232.48908821174521
 31
0.0
  0
LINE
  5
63B3
  8
AM_0
 10
104.58829324434291
 20
252.48911921174499
 30
0.0
 11
106.08829324434291
 21
252.61909421174491
 31
0.0
  0
LINE
  5
63B4
  8
AM_0
 10
104.588353244343
 20
249.76908521174499
 30
0.0
 11
106.088353244343
 21
249.76908521174499
 31
0.0
  0
LINE
  5
63B5
  8
AM_0
 10
121.088353244343
 20
280.83908321174511
 30
0.0
 11
121.088353244343
 21
266.79908621174508
 31
0.0
  0
LINE
  5
63B6
  8
AM_0
 10
111.088303244343
 20
266.79908621174508
 30
0.0
 11
121.088353244343
 21
266.79908621174508
 31
0.0
  0
LINE
  5
63B7
  8
AM_0
 10
111.088303244343
 20
275.17910321174509
 30
0.0
 11
121.088353244343
 21
275.17910321174509
 31
0.0
  0
LINE
  5
63B8
  8
AM_0
 10
111.088303244343
 20
280.83908321174511
 30
0.0
 11
121.088353244343
 21
280.83908321174511
 31
0.0
  0
LINE
  5
63B9
  8
AM_0
 10
158.088303244343
 20
218.48910221174509
 30
0.0
 11
116.6383632443429
 21
218.48910221174509
 31
0.0
  0
LINE
  5
63BA
  8
AM_0
 10
134.08831324434291
 20
294.34910321174522
 30
0.0
 11
250.89829324434299
 21
294.34910321174522
 31
0.0
  0
LINE
  5
63BB
  8
AM_0
 10
117.3183432443429
 20
285.46910321174488
 30
0.0
 11
130.588303244343
 21
285.46910321174488
 31
0.0
  0
LINE
  5
63BC
  8
AM_0
 10
114.808333244343
 20
280.83911321174509
 30
0.0
 11
115.348303244343
 21
283.82912321174518
 31
0.0
  0
LINE
  5
63BD
  8
AM_0
 10
117.258343244343
 20
290.75906321174512
 30
0.0
 11
130.588303244343
 21
290.75906321174512
 31
0.0
  0
LINE
  5
63BE
  8
AM_0
 10
117.228313244343
 20
294.1590832117451
 30
0.0
 11
130.588303244343
 21
294.1590832117451
 31
0.0
  0
LINE
  5
63BF
  8
AM_0
 10
117.198283244343
 20
295.78907321174512
 30
0.0
 11
130.698283244343
 21
295.78907321174512
 31
0.0
  0
LINE
  5
63C0
  8
AM_0
 10
134.08831324434291
 20
298.40909321174507
 30
0.0
 11
187.08835324434301
 21
298.40909321174507
 31
0.0
  0
LINE
  5
63C1
  8
AM_0
 10
134.08831324434291
 20
297.72908321174509
 30
0.0
 11
187.08835324434301
 21
297.72908321174509
 31
0.0
  0
LINE
  5
63C2
  8
AM_0
 10
134.08831324434291
 20
296.37911321174511
 30
0.0
 11
187.08835324434301
 21
296.37911321174511
 31
0.0
  0
LINE
  5
63C3
  8
AM_0
 10
112.8782832443429
 20
283.52909321174508
 30
0.0
 11
115.2883032443429
 21
283.52909321174508
 31
0.0
  0
LINE
  5
63C4
  8
AM_0
 10
115.29826324434291
 20
289.17911321174512
 30
0.0
 11
114.338233244343
 21
284.70911321174509
 31
0.0
  0
LINE
  5
63C5
  8
AM_0
 10
112.89829324434299
 20
287.58908321174522
 30
0.0
 11
114.95836324434281
 21
287.58908321174522
 31
0.0
  0
LINE
  5
63C6
  8
AM_0
 10
159.088303244343
 20
268.48908821174518
 30
0.0
 11
125.6383632443429
 21
268.48908821174518
 31
0.0
  0
LINE
  5
63C7
  8
AM_0
 10
159.088303244343
 20
266.48908721174519
 30
0.0
 11
125.6383632443429
 21
266.48908721174507
 31
0.0
  0
LINE
  5
63C8
  8
AM_0
 10
158.088303244343
 20
258.48908921174512
 30
0.0
 11
125.6383632443429
 21
258.48908921174512
 31
0.0
  0
LINE
  5
63C9
  8
AM_0
 10
115.2783132443429
 20
292.61909321174522
 30
0.0
 11
114.3583332443429
 21
288.73910321174532
 31
0.0
  0
LINE
  5
63CA
  8
AM_0
 10
158.088303244343
 20
256.48908821174518
 30
0.0
 11
125.6383632443429
 21
256.48908821174518
 31
0.0
  0
LINE
  5
63CB
  8
AM_0
 10
112.91830324434299
 20
289.60907321174528
 30
0.0
 11
114.5683332443428
 21
289.60907321174528
 31
0.0
  0
LINE
  5
63CC
  8
AM_0
 10
115.258273244343
 20
294.27908321174488
 30
0.0
 11
114.368263244343
 21
290.74910321174508
 31
0.0
  0
LINE
  5
63CD
  8
AM_0
 10
158.088303244343
 20
248.4890872117451
 30
0.0
 11
116.6383632443429
 21
248.4890872117451
 31
0.0
  0
LINE
  5
63CE
  8
AM_0
 10
132.088303244343
 20
294.37907321174521
 30
0.0
 11
132.088303244343
 21
286.96910321174511
 31
0.0
  0
LINE
  5
63CF
  8
AM_0
 10
158.088303244343
 20
246.4890892117451
 30
0.0
 11
116.6383632443429
 21
246.4890892117451
 31
0.0
  0
LINE
  5
63D0
  8
AM_0
 10
129.689632147997
 20
238.48908821174521
 30
0.0
 11
116.6383632443429
 21
238.48908821174521
 31
0.0
  0
LINE
  5
63D1
  8
AM_0
 10
189.088303244343
 20
296.4090832117451
 30
0.0
 11
189.088303244343
 21
294.34910321174522
 31
0.0
  0
LINE
  5
63D2
  8
AM_0
 10
129.689632147997
 20
236.4890872117451
 30
0.0
 11
116.6383632443429
 21
236.4890872117451
 31
0.0
  0
LINE
  5
63D3
  8
AM_0
 10
252.828283244343
 20
292.86908321174519
 30
0.0
 11
256.2883032443429
 21
279.94910321174513
 31
0.0
  0
LINE
  5
63D4
  8
AM_0
 10
252.79831324434289
 20
292.98908321174508
 30
0.0
 11
258.08830324434302
 21
292.98908321174508
 31
0.0
  0
LINE
  5
63D5
  8
AM_0
 10
257.79832324434301
 20
283.52909321174508
 30
0.0
 11
255.38836324434291
 21
283.52909321174508
 31
0.0
  0
LINE
  5
63D6
  8
AM_0
 10
254.88835324434299
 20
291.4091032117451
 30
0.0
 11
256.32835324434291
 21
284.70911321174509
 31
0.0
  0
LINE
  5
63D7
  8
AM_0
 10
111.088303244343
 20
175.05909221174511
 30
0.0
 11
111.088303244343
 21
232.48908821174521
 31
0.0
  0
LINE
  5
63D8
  8
AM_0
 10
106.088353244343
 20
183.8990752117449
 30
0.0
 11
106.088353244343
 21
227.48910221174521
 31
0.0
  0
LINE
  5
63D9
  8
AM_0
 10
108.2883132443429
 20
196.79908421174511
 30
0.0
 11
110.3882832443429
 21
196.79908421174511
 31
0.0
  0
LINE
  5
63DA
  8
AM_0
 10
107.89828324434291
 20
196.87910021174511
 30
0.0
 11
106.69834324434289
 21
197.3990752117449
 31
0.0
  0
LINE
  5
63DB
  8
AM_0
 10
108.2383332443429
 20
198.7490962117451
 30
0.0
 11
110.0883132443429
 21
198.7490962117451
 31
0.0
  0
LINE
  5
63DC
  8
AM_0
 10
107.94829324434291
 20
198.7891042117451
 30
0.0
 11
106.7983332443428
 21
199.14910421174511
 31
0.0
  0
LINE
  5
63DD
  8
AM_0
 10
110.0883132443429
 20
206.48910221174521
 30
0.0
 11
107.0883132443429
 21
206.48910221174521
 31
0.0
  0
LINE
  5
63DE
  8
AM_0
 10
110.0883132443429
 20
208.48908521174511
 30
0.0
 11
107.0883132443429
 21
208.48908521174511
 31
0.0
  0
LINE
  5
63DF
  8
AM_0
 10
110.0883132443429
 20
216.4890862117451
 30
0.0
 11
107.0883132443429
 21
216.4890862117451
 31
0.0
  0
LINE
  5
63E0
  8
AM_0
 10
110.0883132443429
 20
218.48910221174509
 30
0.0
 11
107.0883132443429
 21
218.48910221174509
 31
0.0
  0
LINE
  5
63E1
  8
AM_0
 10
110.0883132443429
 20
226.48908821174521
 30
0.0
 11
107.0883132443429
 21
226.48908821174521
 31
0.0
  0
LINE
  5
63E2
  8
AM_0
 10
110.0883132443429
 20
228.4890862117451
 30
0.0
 11
107.0883132443429
 21
228.4890862117451
 31
0.0
  0
LINE
  5
63E3
  8
AM_0
 10
108.088303244343
 20
216.87910121174519
 30
0.0
 11
108.088303244343
 21
218.09908721174509
 31
0.0
  0
LINE
  5
63E4
  8
AM_0
 10
108.088303244343
 20
226.87908521174521
 30
0.0
 11
108.088303244343
 21
228.0391042117451
 31
0.0
  0
LINE
  5
63E5
  8
AM_0
 10
108.088303244343
 20
206.85908021174509
 30
0.0
 11
108.088303244343
 21
208.2290782117451
 31
0.0
  0
LINE
  5
63E6
  8
AM_0
 10
108.088303244343
 20
197.09908721174509
 30
0.0
 11
108.088303244343
 21
198.1590832117451
 31
0.0
  0
LINE
  5
63E7
  8
AM_0
 10
104.588353244343
 20
212.48910221174521
 30
0.0
 11
104.588353244343
 21
232.48908821174521
 31
0.0
  0
LINE
  5
63E8
  8
AM_0
 10
104.58829324434291
 20
212.4890872117451
 30
0.0
 11
106.08829324434291
 21
212.35908221174509
 31
0.0
  0
LINE
  5
63E9
  8
AM_0
 10
104.588353244343
 20
215.20908821174521
 30
0.0
 11
106.088353244343
 21
215.20908821174521
 31
0.0
  0
LINE
  5
63EA
  8
AM_0
 10
134.08831324434291
 20
166.56908621174509
 30
0.0
 11
187.08835324434301
 21
166.56908621174509
 31
0.0
  0
LINE
  5
63EB
  8
AM_0
 10
117.228313244343
 20
170.81910221174519
 30
0.0
 11
130.588303244343
 21
170.81910221174519
 31
0.0
  0
LINE
  5
63EC
  8
AM_0
 10
111.088303244343
 20
189.79908221174509
 30
0.0
 11
121.088353244343
 21
189.79908221174509
 31
0.0
  0
LINE
  5
63ED
  8
AM_0
 10
134.08831324434291
 20
167.2490962117451
 30
0.0
 11
187.08835324434301
 21
167.2490962117451
 31
0.0
  0
LINE
  5
63EE
  8
AM_0
 10
112.89829324434299
 20
177.38907821174499
 30
0.0
 11
114.95836324434281
 21
177.38907821174499
 31
0.0
  0
LINE
  5
63EF
  8
AM_0
 10
112.8782832443429
 20
181.45908821174521
 30
0.0
 11
115.2883032443429
 21
181.45908821174521
 31
0.0
  0
LINE
  5
63F0
  8
AM_0
 10
115.298323244343
 20
175.80909221174511
 30
0.0
 11
114.33829324434291
 21
180.26908421174511
 31
0.0
  0
LINE
  5
63F1
  8
AM_0
 10
134.08831324434291
 20
168.59908721174509
 30
0.0
 11
187.08835324434301
 21
168.59908721174509
 31
0.0
  0
LINE
  5
63F2
  8
AM_0
 10
115.54831324434291
 20
205.99908221174519
 30
0.0
 11
158.088303244343
 21
205.99908221174519
 31
0.0
  0
LINE
  5
63F3
  8
AM_0
 10
159.088303244343
 20
198.48908621174519
 30
0.0
 11
117.078343244343
 21
198.4890862117451
 31
0.0
  0
LINE
  5
63F4
  8
AM_0
 10
124.768303244343
 20
269.20908821174521
 30
0.0
 11
159.088303244343
 21
269.20908821174521
 31
0.0
  0
LINE
  5
63F5
  8
AM_0
 10
124.768303244343
 20
265.85908421174508
 30
0.0
 11
159.088303244343
 21
265.85908421174508
 31
0.0
  0
LINE
  5
63F6
  8
AM_0
 10
124.54831324434291
 20
258.9790792117451
 30
0.0
 11
158.088303244343
 21
258.9790792117451
 31
0.0
  0
LINE
  5
63F7
  8
AM_0
 10
124.54831324434291
 20
256.04908421174508
 30
0.0
 11
158.088303244343
 21
256.04908421174508
 31
0.0
  0
LINE
  5
63F8
  8
AM_0
 10
115.418323244343
 20
248.829083211745
 30
0.0
 11
158.088303244343
 21
248.829083211745
 31
0.0
  0
LINE
  5
63F9
  8
AM_0
 10
115.418323244343
 20
246.16907921174521
 30
0.0
 11
158.088303244343
 21
246.16907921174521
 31
0.0
  0
LINE
  5
63FA
  8
AM_0
 10
115.3583232443429
 20
238.75907621174511
 30
0.0
 11
129.689632147997
 21
238.75907621174511
 31
0.0
  0
LINE
  5
63FB
  8
AM_0
 10
115.3583232443429
 20
236.22907721174519
 30
0.0
 11
129.689632147997
 21
236.22907721174519
 31
0.0
  0
LINE
  5
63FC
  8
AM_0
 10
132.088303244343
 20
269.72907821174522
 30
0.0
 11
132.088303244343
 21
269.65907021174507
 31
0.0
  0
LINE
  5
63FD
  8
AM_0
 10
115.3583232443429
 20
228.7590922117451
 30
0.0
 11
129.689632147997
 21
228.7590922117451
 31
0.0
  0
LINE
  5
63FE
  8
AM_0
 10
129.689632147997
 20
226.48908821174521
 30
0.0
 11
116.6383632443429
 21
226.48908821174521
 31
0.0
  0
LINE
  5
63FF
  8
AM_0
 10
129.689632147997
 20
228.4890862117451
 30
0.0
 11
116.6383632443429
 21
228.4890862117451
 31
0.0
  0
LINE
  5
6400
  8
AM_0
 10
115.418323244343
 20
218.8090942117451
 30
0.0
 11
158.088303244343
 21
218.8090942117451
 31
0.0
  0
LINE
  5
6401
  8
AM_0
 10
104.588353244343
 20
247.63908221174509
 30
0.0
 11
108.86833324434291
 21
247.63908221174509
 31
0.0
  0
LINE
  5
6402
  8
AM_0
 10
158.088303244343
 20
216.4890862117451
 30
0.0
 11
116.6383632443429
 21
216.4890862117451
 31
0.0
  0
LINE
  5
6403
  8
AM_0
 10
115.418323244343
 20
216.1490752117451
 30
0.0
 11
158.088303244343
 21
216.14907521174521
 31
0.0
  0
LINE
  5
6404
  8
AM_0
 10
158.088303244343
 20
208.48908521174511
 30
0.0
 11
116.6383632443429
 21
208.48908521174511
 31
0.0
  0
LINE
  5
6405
  8
AM_0
 10
115.54831324434291
 20
208.92908921174509
 30
0.0
 11
158.088303244343
 21
208.92908921174509
 31
0.0
  0
LINE
  5
6406
  8
AM_0
 10
158.088303244343
 20
206.48910221174521
 30
0.0
 11
116.6383632443429
 21
206.48910221174521
 31
0.0
  0
LINE
  5
6407
  8
AM_0
 10
115.3583232443429
 20
226.21909721174509
 30
0.0
 11
129.689632147997
 21
226.21909721174509
 31
0.0
  0
LINE
  5
6408
  8
AM_0
 10
104.588353244343
 20
217.33907621174509
 30
0.0
 11
109.16830324434299
 21
217.33907621174509
 31
0.0
  0
ARC
  5
6409
  8
AM_0
 10
107.08153324434291
 20
280.507013211745
 30
0.0
 40
0.9931920599999999
 50
119.77339999999739
 51
179.8795599999996
  0
ARC
  5
640A
  8
AM_0
 10
107.08390324434301
 20
279.4687732117452
 30
0.0
 40
0.9955880999999999
 50
116.5874899999971
 51
179.98225000000019
  0
ARC
  5
640B
  8
AM_0
 10
108.350323244343
 20
281.24321321174511
 30
0.0
 40
0.9959119799999999
 50
89.541443999997355
 51
119.6069899999969
  0
ARC
  5
640C
  8
AM_0
 10
108.31309324434299
 20
280.09508321174508
 30
0.0
 40
0.99412809
 50
89.122808000001982
 51
115.93480999999861
  0
ARC
  5
640D
  8
AM_0
 10
108.357163244343
 20
279.13487321174512
 30
0.0
 40
0.9942600299999999
 50
89.355882000002481
 51
120.78109000000229
  0
ARC
  5
640E
  8
AM_0
 10
108.323413244343
 20
277.99373321174522
 30
0.0
 40
0.99546798
 50
89.141448000001574
 51
117.20366
  0
ARC
  5
640F
  8
AM_0
 10
108.39493324434289
 20
274.62287321174517
 30
0.0
 40
0.9962120399999999
 50
90.381906000001862
 51
123.96990000000081
  0
ARC
  5
6410
  8
AM_0
 10
108.367723244343
 20
273.48258821174522
 30
0.0
 40
0.9965200799999999
 50
90.541212999999502
 51
120.7432800000018
  0
ARC
  5
6411
  8
AM_0
 10
107.082373244343
 20
272.73228221174509
 30
0.0
 40
0.9940760400000001
 50
120.4692000000029
 51
180.18464
  0
ARC
  5
6412
  8
AM_0
 10
107.083123244343
 20
273.76667621174511
 30
0.0
 40
0.9948280200000002
 50
123.2046899999999
 51
180.43813000000009
  0
ARC
  5
6413
  8
AM_0
 10
107.08153324434291
 20
277.33052321174517
 30
0.0
 40
0.99321207
 50
117.7993399999968
 51
180.08183
  0
ARC
  5
6414
  8
AM_0
 10
107.0827332443428
 20
278.36804321174509
 30
0.0
 40
0.99443607
 50
121.1521699999997
 51
179.94049000000001
  0
ARC
  5
6415
  8
AM_0
 10
108.289303244343
 20
267.1836082117452
 30
0.0
 40
0.9954800999999999
 50
90.057320999998737
 51
113.12703000000251
  0
ARC
  5
6416
  8
AM_0
 10
124.228993244343
 20
191.26997021174509
 30
0.0
 40
1.00423602
 50
314.93783000000229
 51
5.6649238999999572
  0
ARC
  5
6417
  8
AM_0
 10
108.227473244343
 20
265.23637121174511
 30
0.0
 40
0.992772
 50
89.374808000000044
 51
106.3318199999993
  0
ARC
  5
6418
  8
AM_0
 10
107.0845632443429
 20
264.88484021174509
 30
0.0
 40
0.9962600700000001
 50
106.6974899999997
 51
180.33049000000011
  0
ARC
  5
6419
  8
AM_0
 10
107.08471324434279
 20
266.67066821174512
 30
0.0
 40
0.99640008
 50
112.8173899999988
 51
180.0904000000003
  0
ARC
  5
641A
  8
AM_0
 10
107.08336324434291
 20
257.49400121174529
 30
0.0
 40
0.9950800799999999
 50
89.715921000001259
 51
180.28407000000001
  0
ARC
  5
641B
  8
AM_0
 10
107.088493244343
 20
257.4893002117451
 30
0.0
 40
1.000203989999999
 50
180.01166999999961
 51
269.98832000000078
  0
ARC
  5
641C
  8
AM_0
 10
107.08336324434291
 20
247.49400221174511
 30
0.0
 40
0.99508401
 50
89.71613299999747
 51
180.28387000000041
  0
ARC
  5
641D
  8
AM_0
 10
107.088493244343
 20
247.48930121174519
 30
0.0
 40
1.0002000600000001
 50
180.01146999999989
 51
269.98853000000008
  0
ARC
  5
641E
  8
AM_0
 10
107.08336324434291
 20
237.4940302117451
 30
0.0
 40
0.9950879999999999
 50
89.716345000002846
 51
180.28364999999971
  0
ARC
  5
641F
  8
AM_0
 10
107.088493244343
 20
237.4892692117451
 30
0.0
 40
1.00019601
 50
180.01125000000019
 51
269.98873999999932
  0
ARC
  5
6420
  8
AM_0
 10
110.088493244343
 20
235.48924121174511
 30
0.0
 40
0.9998480400000001
 50
359.99121999999971
 51
90.008778999998157
  0
ARC
  5
6421
  8
AM_0
 10
110.0834232443429
 20
239.49400121174509
 30
0.0
 40
1.00492398
 50
270.2800100000029
 51
359.71998999999971
  0
ARC
  5
6422
  8
AM_0
 10
110.088493244343
 20
245.489240211745
 30
0.0
 40
0.9998440499999999
 50
359.99101000000041
 51
90.008990999998574
  0
ARC
  5
6423
  8
AM_0
 10
110.0834232443429
 20
249.49400021174509
 30
0.0
 40
1.0049280299999981
 50
270.28021999999987
 51
359.7197800000003
  0
ARC
  5
6424
  8
AM_0
 10
110.088493244343
 20
255.4892392117452
 30
0.0
 40
0.9998520899999999
 50
359.9914500000001
 51
90.008547000002125
  0
ARC
  5
6425
  8
AM_0
 10
110.0834232443429
 20
259.49400221174511
 30
0.0
 40
1.0049319599999991
 50
270.28041999999692
 51
359.71957999999978
  0
ARC
  5
6426
  8
AM_0
 10
110.090023244343
 20
265.23078821174511
 30
0.0
 40
0.99829605
 50
359.90203999999977
 51
90.097960999998946
  0
ARC
  5
6427
  8
AM_0
 10
110.0859132443429
 20
273.47672921174512
 30
0.0
 40
1.0023759899999991
 50
0.1355919899998461
 51
89.86440999999931
  0
ARC
  5
6428
  8
AM_0
 10
110.38378324434289
 20
268.88361821174522
 30
0.0
 40
0.70455201
 50
270.36910999999952
 51
359.63088999999962
  0
ARC
  5
6429
  8
AM_0
 10
110.0893332443429
 20
277.99010321174518
 30
0.0
 40
0.9990081
 50
359.9431499999996
 51
90.056843000002615
  0
ARC
  5
642A
  8
AM_0
 10
110.5899432443429
 20
280.59074321174512
 30
0.0
 40
0.49836402
 50
359.81140999999991
 51
90.188598000000837
  0
ARC
  5
642B
  8
AM_0
 10
110.5837332443428
 20
282.74369321174498
 30
0.0
 40
0.504636
 50
270.52375999999958
 51
359.47623999999968
  0
ARC
  5
642C
  8
AM_0
 10
259.08853324434301
 20
169.9892692117449
 30
0.0
 40
1.0001800499999991
 50
180.01030999999969
 51
269.98967999999991
  0
ARC
  5
642D
  8
AM_0
 10
250.8929832443429
 20
172.63447121174511
 30
0.0
 40
2.0053919100000002
 50
270.15274999999968
 51
344.81207000000018
  0
ARC
  5
642E
  8
AM_0
 10
259.08781324434301
 20
181.98854021174509
 30
0.0
 40
0.99947604
 50
179.97008999999949
 51
270.02992000000029
  0
ARC
  5
642F
  8
AM_0
 10
117.30937324434279
 20
283.47665321174509
 30
0.0
 40
1.9924480200000001
 50
89.742107999997444
 51
169.8117899999998
  0
ARC
  5
6430
  8
AM_0
 10
117.253153244343
 20
288.75980321174501
 30
0.0
 40
1.9992880199999981
 50
89.851815000002887
 51
167.89433000000159
  0
ARC
  5
6431
  8
AM_0
 10
112.8726132443429
 20
285.02930321174517
 30
0.0
 40
1.5002480099999991
 50
270.21661999999759
 51
347.67500000000092
  0
ARC
  5
6432
  8
AM_0
 10
117.2203932443429
 20
292.16456321174519
 30
0.0
 40
1.9945160699999991
 50
89.771334999999539
 51
166.82804000000101
  0
ARC
  5
6433
  8
AM_0
 10
112.89676324434291
 20
289.09289321174509
 30
0.0
 40
1.5037760099999991
 50
270.05983999999802
 51
346.39313000000192
  0
ARC
  5
6434
  8
AM_0
 10
112.909603244343
 20
291.11228321174508
 30
0.0
 40
1.503232049999998
 50
270.33131999999961
 51
346.01802999999819
  0
ARC
  5
6435
  8
AM_0
 10
117.1948632443429
 20
293.79227321174528
 30
0.0
 40
1.996816109999999
 50
89.901436000000672
 51
165.889409999999
  0
ARC
  5
6436
  8
AM_0
 10
134.08372324434299
 20
292.35371321174512
 30
0.0
 40
1.9953641399999991
 50
89.86675900000246
 51
180.13323000000031
  0
ARC
  5
6437
  8
AM_0
 10
134.0845032443429
 20
294.38288321174508
 30
0.0
 40
1.99618809
 50
89.890487000003006
 51
180.10951000000031
  0
ARC
  5
6438
  8
AM_0
 10
134.08189324434289
 20
295.73555321174518
 30
0.0
 40
1.993556189999999
 50
89.814515000000938
 51
180.1854899999997
  0
ARC
  5
6439
  8
AM_0
 10
134.083843244343
 20
296.41034321174521
 30
0.0
 40
1.998724049999999
 50
89.871136999999536
 51
165.5509599999985
  0
ARC
  5
643A
  8
AM_0
 10
130.58164324434301
 20
286.97579321174521
 30
0.0
 40
1.5066999599999991
 50
270.25416000000098
 51
359.74583999999987
  0
ARC
  5
643B
  8
AM_0
 10
130.58548324434301
 20
292.2619132117452
 30
0.0
 40
1.5028360199999991
 50
270.10793999999891
 51
359.8920600000003
  0
ARC
  5
643C
  8
AM_0
 10
130.583473244343
 20
295.66394321174522
 30
0.0
 40
1.5048719999999991
 50
270.1851800000012
 51
359.8148199999996
  0
ARC
  5
643D
  8
AM_0
 10
130.6949232443429
 20
297.29210321174509
 30
0.0
 40
1.50301605
 50
270.1294500000032
 51
345.23654000000022
  0
ARC
  5
643E
  8
AM_0
 10
187.08739324434279
 20
294.37814321174511
 30
0.0
 40
2.0009239199999991
 50
0.0264629990003886
 51
89.973535999999072
  0
ARC
  5
643F
  8
AM_0
 10
187.09000324434291
 20
295.73078321174512
 30
0.0
 40
1.9982920200000001
 50
359.95102999999972
 51
90.048975000001789
  0
ARC
  5
6440
  8
AM_0
 10
187.086523244343
 20
296.40728321174521
 30
0.0
 40
2.0018279999999979
 50
0.0523009999998829
 51
89.947697000000545
  0
ARC
  5
6441
  8
AM_0
 10
257.73856324434291
 20
280.3414732117451
 30
0.0
 40
1.50239199
 50
195.14001000000059
 51
269.99063999999998
  0
ARC
  5
6442
  8
AM_0
 10
250.897873244343
 20
292.35011321174511
 30
0.0
 40
1.99898796
 50
15.047800999999771
 51
89.987372999998755
  0
ARC
  5
6443
  8
AM_0
 10
259.08337324434319
 20
294.99404321174501
 30
0.0
 40
0.9950640599999999
 50
89.714938000000444
 51
180.28505999999959
  0
ARC
  5
6444
  8
AM_0
 10
259.082683244343
 20
282.9947272117451
 30
0.0
 40
0.99440004
 50
89.676491000000041
 51
180.3235100000002
  0
ARC
  5
6445
  8
AM_0
 10
257.794183244343
 20
285.02954321174508
 30
0.0
 40
1.5004760399999979
 50
192.33223000000021
 51
270.15827999999971
  0
ARC
  5
6446
  8
AM_0
 10
252.9357732443429
 20
290.99261321174492
 30
0.0
 40
1.9964880300000001
 50
12.04087499999966
 51
89.926441000002598
  0
ARC
  5
6447
  8
AM_0
 10
110.0850132443429
 20
199.7524372117451
 30
0.0
 40
1.0033640100000001
 50
270.19170999999869
 51
359.80827999999963
  0
ARC
  5
6448
  8
AM_0
 10
110.0834232443429
 20
209.4940012117452
 30
0.0
 40
1.00492398
 50
270.2800399999993
 51
359.71996999999988
  0
ARC
  5
6449
  8
AM_0
 10
110.088493244343
 20
205.48925321174511
 30
0.0
 40
0.9998480400000001
 50
359.9911900000003
 51
90.008806999998683
  0
ARC
  5
644A
  8
AM_0
 10
110.38888324434301
 20
196.09965221174511
 30
0.0
 40
0.69944001
 50
359.95415999999977
 51
90.045840000000183
  0
ARC
  5
644B
  8
AM_0
 10
108.291313244343
 20
197.80431821174511
 30
0.0
 40
1.0052240100000001
 50
246.9862899999986
 51
269.82935999999711
  0
ARC
  5
644C
  8
AM_0
 10
108.228853244343
 20
199.75178021174511
 30
0.0
 40
1.00272801
 50
253.75297000000219
 51
270.54039999999941
  0
ARC
  5
644D
  8
AM_0
 10
107.08471324434279
 20
200.10343421174511
 30
0.0
 40
0.99638007
 50
180.24949000000009
 51
253.29707000000161
  0
ARC
  5
644E
  8
AM_0
 10
107.0848332443429
 20
198.3175612117451
 30
0.0
 40
0.9964760700000001
 50
179.91257999999991
 51
247.1796599999997
  0
ARC
  5
644F
  8
AM_0
 10
107.088493244343
 20
207.48928421174509
 30
0.0
 40
1.00019601
 50
180.0112799999998
 51
269.98871999999687
  0
ARC
  5
6450
  8
AM_0
 10
107.08336324434291
 20
207.4940302117451
 30
0.0
 40
0.99508401
 50
89.716324000002615
 51
180.28367999999989
  0
ARC
  5
6451
  8
AM_0
 10
107.088493244343
 20
217.4893012117451
 30
0.0
 40
1.0002000600000001
 50
180.0115000000003
 51
269.9885099999978
  0
ARC
  5
6452
  8
AM_0
 10
107.08336324434291
 20
217.49401421174511
 30
0.0
 40
0.99508401
 50
89.716105999999485
 51
180.2838900000003
  0
ARC
  5
6453
  8
AM_0
 10
107.088493244343
 20
227.4893002117451
 30
0.0
 40
1.000203989999999
 50
180.01169999999999
 51
269.98829999999828
  0
ARC
  5
6454
  8
AM_0
 10
107.08336324434291
 20
227.49401621174511
 30
0.0
 40
0.9950800799999999
 50
89.715894000002763
 51
180.2840999999996
  0
ARC
  5
6455
  8
AM_0
 10
110.08336324434281
 20
229.4940172117451
 30
0.0
 40
1.0049319599999991
 50
270.280450000001
 51
359.71954999999969
  0
ARC
  5
6456
  8
AM_0
 10
110.088493244343
 20
225.48923921174509
 30
0.0
 40
0.9998520899999999
 50
359.99143000000038
 51
90.008574000001204
  0
ARC
  5
6457
  8
AM_0
 10
110.0834232443429
 20
219.494000211745
 30
0.0
 40
1.0049280299999981
 50
270.28023999999988
 51
359.71976000000001
  0
ARC
  5
6458
  8
AM_0
 10
110.088493244343
 20
215.4892402117452
 30
0.0
 40
0.9998440499999999
 50
359.99098000000021
 51
90.009017999997724
  0
ARC
  5
6459
  8
AM_0
 10
120.2466132443429
 20
274.08189221174513
 30
0.0
 40
5.004112499999998
 50
279.68356999999992
 51
354.57834000000031
  0
ARC
  5
645A
  8
AM_0
 10
120.70909324434299
 20
270.15617321174528
 30
0.0
 40
6.0049157999999991
 50
45.227307000001929
 51
86.379093999999739
  0
ARC
  5
645B
  8
AM_0
 10
124.2322932443429
 20
273.7093642117452
 30
0.0
 40
1.001108069999999
 50
354.25025000000022
 51
45.146993999996781
  0
ARC
  5
645C
  8
AM_0
 10
252.93076324434301
 20
173.99169521174511
 30
0.0
 40
2.0026238699999981
 50
270.21533999999821
 51
347.8173399999996
  0
ARC
  5
645D
  8
AM_0
 10
257.79538324434287
 20
179.9597722117451
 30
0.0
 40
1.499328059999999
 50
89.888151000000079
 51
168.09384000000131
  0
ARC
  5
645E
  8
AM_0
 10
120.71830324434301
 20
194.83626821174511
 30
0.0
 40
6.0085923000000001
 50
273.53095000000269
 51
314.61477999999761
  0
ARC
  5
645F
  8
AM_0
 10
120.2516832443428
 20
190.90101221174521
 30
0.0
 40
4.9985837999999987
 50
5.3731199000001189
 51
80.364975999996858
  0
ARC
  5
6460
  8
AM_0
 10
107.0859132443429
 20
184.47375221174511
 30
0.0
 40
0.9976240799999999
 50
180.2675099999997
 51
240.07953999999859
  0
ARC
  5
6461
  8
AM_0
 10
107.0839632443429
 20
185.5194502117451
 30
0.0
 40
0.9956680199999999
 50
180.02043
 51
243.4098300000008
  0
ARC
  5
6462
  8
AM_0
 10
108.3690132443429
 20
183.74016821174521
 30
0.0
 40
1.0011359699999991
 50
239.32800000000191
 51
269.38750999999928
  0
ARC
  5
6463
  8
AM_0
 10
108.334153244343
 20
184.8883462117451
 30
0.0
 40
0.999288
 50
242.8612699999984
 51
269.66619000000128
  0
ARC
  5
6464
  8
AM_0
 10
108.35965324434299
 20
185.852747211745
 30
0.0
 40
1.0036880100000001
 50
239.37027000000029
 51
270.4927499999975
  0
ARC
  5
6465
  8
AM_0
 10
108.34348324434291
 20
186.98971121174509
 30
0.0
 40
1.00062801
 50
241.64986000000181
 51
269.70470999999941
  0
ARC
  5
6466
  8
AM_0
 10
108.3810732443429
 20
190.36959521174509
 30
0.0
 40
1.0005359999999981
 50
237.14640000000011
 51
270.41322000000213
  0
ARC
  5
6467
  8
AM_0
 10
108.351673244343
 20
191.5100812117449
 30
0.0
 40
1.0010120099999991
 50
240.47136000000179
 51
270.3801999999971
  0
ARC
  5
6468
  8
AM_0
 10
107.0873832443429
 20
191.2137712117451
 30
0.0
 40
0.99910005
 50
179.69542000000021
 51
236.66176999999641
  0
ARC
  5
6469
  8
AM_0
 10
107.0860332443429
 20
187.65038621174509
 30
0.0
 40
0.9977079899999999
 50
180.07405000000031
 51
242.0447600000013
  0
ARC
  5
646A
  8
AM_0
 10
107.08708324434291
 20
186.6125902117451
 30
0.0
 40
0.9987801
 50
179.6266700000001
 51
238.70854999999889
  0
ARC
  5
646B
  8
AM_0
 10
110.0858532443429
 20
191.51154821174509
 30
0.0
 40
1.00246002
 50
270.14037999999903
 51
359.85962000000018
  0
ARC
  5
646C
  8
AM_0
 10
107.0867832443429
 20
192.24839321174511
 30
0.0
 40
0.9984600300000001
 50
179.95962000000031
 51
239.3865500000025
  0
ARC
  5
646D
  8
AM_0
 10
110.08426324434291
 20
186.99317621174509
 30
0.0
 40
1.004084009999999
 50
270.23262999999707
 51
359.76736999999957
  0
ARC
  5
646E
  8
AM_0
 10
110.5848732443429
 20
184.39248221174509
 30
0.0
 40
0.50340399
 50
270.38612999999822
 51
359.61387000000008
  0
ARC
  5
646F
  8
AM_0
 10
110.5887132443429
 20
182.23952921174509
 30
0.0
 40
0.4995560100000002
 50
359.94910999999979
 51
90.050893999997584
  0
ARC
  5
6470
  8
AM_0
 10
117.31438324434281
 20
181.5075172117451
 30
0.0
 40
1.998444029999999
 50
190.33239999999941
 51
270.11369000000047
  0
ARC
  5
6471
  8
AM_0
 10
117.253213244343
 20
176.22846521174509
 30
0.0
 40
1.9993920899999991
 50
192.10804000000101
 51
270.14581999999967
  0
ARC
  5
6472
  8
AM_0
 10
112.871443244343
 20
179.960003211745
 30
0.0
 40
1.499099999999999
 50
11.89856000000028
 51
89.736657999997206
  0
ARC
  5
6473
  8
AM_0
 10
117.2253132443429
 20
172.81985021174509
 30
0.0
 40
2.0007560699999991
 50
193.31416000000121
 51
270.08645000000308
  0
ARC
  5
6474
  8
AM_0
 10
112.901713244343
 20
175.89158321174509
 30
0.0
 40
1.497512039999999
 50
13.41823299999829
 51
90.128792999998822
  0
ARC
  5
6475
  8
AM_0
 10
112.9161132443429
 20
173.8709662117451
 30
0.0
 40
1.498128089999998
 50
14.224575000000151
 51
89.916113999998927
  0
ARC
  5
6476
  8
AM_0
 10
117.19981324434281
 20
171.19222721174509
 30
0.0
 40
2.0031319199999991
 50
194.25158999999951
 51
269.9575499999994
  0
ARC
  5
6477
  8
AM_0
 10
134.08879324434301
 20
172.62952721174511
 30
0.0
 40
2.000452109999999
 50
180.01290000000029
 51
269.98709999999971
  0
ARC
  5
6478
  8
AM_0
 10
134.08963324434291
 20
170.60039921174521
 30
0.0
 40
2.0013120899999981
 50
180.0375599999997
 51
269.9624399999978
  0
ARC
  5
6479
  8
AM_0
 10
134.08696324434291
 20
169.24770521174511
 30
0.0
 40
1.9986199799999991
 50
179.96047000000021
 51
270.03953000000138
  0
ARC
  5
647A
  8
AM_0
 10
134.08225324434301
 20
168.57914321174511
 30
0.0
 40
2.0000761200000001
 50
194.77497999999869
 51
270.17353000000168
  0
ARC
  5
647B
  8
AM_0
 10
130.58677324434299
 20
178.00751921174509
 30
0.0
 40
1.5015680099999991
 50
0.0598050030001859
 51
89.940197000002485
  0
ARC
  5
647C
  8
AM_0
 10
130.58560324434299
 20
172.72637621174511
 30
0.0
 40
1.50271599
 50
0.103436000000126
 51
89.896566000000206
  0
ARC
  5
647D
  8
AM_0
 10
130.58860324434301
 20
169.3193302117451
 30
0.0
 40
1.49975601
 50
359.99058999999983
 51
90.009408000002935
  0
ARC
  5
647E
  8
AM_0
 10
130.699873244343
 20
167.6924392117451
 30
0.0
 40
1.49664405
 50
14.575739999999531
 51
90.058277999998381
  0
ARC
  5
647F
  8
AM_0
 10
187.082323244343
 20
170.60511221174511
 30
0.0
 40
2.0060480100000002
 50
270.17249000000203
 51
359.8275100000003
  0
ARC
  5
6480
  8
AM_0
 10
187.08493324434301
 20
169.2524512117451
 30
0.0
 40
2.0033560499999989
 50
270.09594000000141
 51
359.90406000000007
  0
ARC
  5
6481
  8
AM_0
 10
187.0864032443429
 20
168.58097321174509
 30
0.0
 40
2.0019000299999989
 50
270.05437999999742
 51
359.94562000000008
  0
ARC
  5
6482
  8
AM_0
 10
257.73370324434302
 20
184.6431082117451
 30
0.0
 40
1.49599605
 50
89.821706999999776
 51
165.04766000000171
  0
ARC
  5
6483
  8
AM_0
 10
133.08355324434299
 20
247.48908821174521
 30
0.0
 40
1.000011959999999
 50
89.726508000002923
 51
270.27347999999972
  0
ARC
  5
6484
  8
AM_0
 10
133.08355324434299
 20
257.48908721174507
 30
0.0
 40
1.000011959999999
 50
89.726508000002923
 51
270.27347999999972
  0
ARC
  5
6485
  8
AM_0
 10
133.08355324434299
 20
267.48908921174512
 30
0.0
 40
1.000011959999999
 50
89.726508000002923
 51
270.27347999999972
  0
ARC
  5
6486
  8
AM_0
 10
115.35253324434289
 20
237.4940932117452
 30
0.0
 40
1.26501207
 50
89.737716000001527
 51
270.26228000000299
  0
ARC
  5
6487
  8
AM_0
 10
115.418323244343
 20
247.4990962117451
 30
0.0
 40
1.330008059999999
 50
90.00000299999769
 51
270.0
  0
ARC
  5
6488
  8
AM_0
 10
124.54831324434291
 20
257.51408321174517
 30
0.0
 40
1.465004009999999
 50
90.00000299999769
 51
270.0
  0
ARC
  5
6489
  8
AM_0
 10
124.76146324434291
 20
267.53407121174519
 30
0.0
 40
1.6750160999999979
 50
89.766539999997363
 51
270.23346000000248
  0
ARC
  5
648A
  8
AM_0
 10
116.6383632443429
 20
237.4890862117451
 30
0.0
 40
1.0000000199999981
 50
90.00000299999769
 51
270.0
  0
ARC
  5
648B
  8
AM_0
 10
116.6383632443429
 20
247.48908821174521
 30
0.0
 40
1.0000000199999981
 50
90.00000299999769
 51
270.0
  0
ARC
  5
648C
  8
AM_0
 10
125.6335932443429
 20
267.48908921174512
 30
0.0
 40
1.000011959999999
 50
89.728448000002629
 51
270.27154000000212
  0
ARC
  5
648D
  8
AM_0
 10
125.6335932443429
 20
257.48908721174507
 30
0.0
 40
1.000011959999999
 50
89.728448000002629
 51
270.27154000000212
  0
ARC
  5
648E
  8
AM_0
 10
254.90830324434299
 20
267.53407121174519
 30
0.0
 40
1.675004159999999
 50
276.16905573844627
 51
83.830944261553654
  0
ARC
  5
648F
  8
AM_0
 10
254.90830324434299
 20
197.44410221174519
 30
0.0
 40
1.675004159999999
 50
276.16905573845293
 51
83.83094426154706
  0
ARC
  5
6490
  8
AM_0
 10
116.6383632443429
 20
227.48910221174521
 30
0.0
 40
1.0000000199999981
 50
90.00000299999769
 51
270.0
  0
ARC
  5
6491
  8
AM_0
 10
133.08355324434299
 20
217.48908821174521
 30
0.0
 40
1.000011959999999
 50
89.726508000002923
 51
270.27347999999972
  0
ARC
  5
6492
  8
AM_0
 10
133.08355324434299
 20
207.4890862117451
 30
0.0
 40
1.000011959999999
 50
89.726508000002923
 51
270.27347999999972
  0
ARC
  5
6493
  8
AM_0
 10
115.418323244343
 20
217.47909221174521
 30
0.0
 40
1.330008059999999
 50
90.00000299999769
 51
270.0
  0
ARC
  5
6494
  8
AM_0
 10
115.54831324434291
 20
207.46409321174519
 30
0.0
 40
1.465004009999999
 50
90.00000299999769
 51
270.0
  0
ARC
  5
6495
  8
AM_0
 10
116.6335932443429
 20
197.48910221174509
 30
0.0
 40
1.000011959999999
 50
89.728461999997137
 51
270.27154000000212
  0
ARC
  5
6496
  8
AM_0
 10
133.08355324434299
 20
197.48910221174509
 30
0.0
 40
1.000011959999999
 50
89.726508000002923
 51
270.27347999999972
  0
ARC
  5
6497
  8
AM_0
 10
115.35253324434289
 20
227.48910221174521
 30
0.0
 40
1.2700120500000001
 50
89.738748000000555
 51
270.26124000000118
  0
ARC
  5
6498
  8
AM_0
 10
115.76146324434291
 20
197.44410221174519
 30
0.0
 40
1.6750160999999979
 50
89.764982999997315
 51
270.23500999999908
  0
ARC
  5
6499
  8
AM_0
 10
116.6383632443429
 20
217.48908821174521
 30
0.0
 40
1.0000000199999981
 50
90.00000299999769
 51
270.0
  0
ARC
  5
649A
  8
AM_0
 10
116.6335932443429
 20
207.4890862117451
 30
0.0
 40
1.000011959999999
 50
89.728461999997137
 51
270.27154000000212
  0
LINE
  5
649C
  8
ﾁｭｳｼﾝｾﾝ
 10
207.088303244343
 20
283.4890882117453
 30
0.0
 11
207.088303244343
 21
181.48908821174521
 31
0.0
  0
LINE
  5
649D
  8
AM_0
 10
251.08830324434311
 20
186.48908821174521
 30
0.0
 11
163.088303244343
 21
186.48908821174521
 31
0.0
  0
ARC
  5
649E
  8
AM_0
 10
181.15937105620841
 20
191.48908821174521
 30
0.0
 40
5.0
 50
225.0
 51
270.0
1001
GENIUS_GENOBJ-N-FIL_13
1002
{
1000
OWNER
1000
GEN
1002
}
1001
GENIUS_GENODEF_13
1002
{
1000
HIER
1070
     0
1002
}
1002
{
1000
MANEDIT
1070
     0
1002
}
1002
{
1000
NOSEL
1070
     0
1002
}
1002
{
1000
BEHIND
1070
     0
1002
}
1002
{
1000
OTHER
1070
     0
1002
}
1002
{
1000
REACTOR
1002
}
  0
LINE
  5
649F
  8
AM_0
 10
232.36038118298521
 20
191.48908821174521
 30
0.0
 11
181.8162253057007
 21
191.48908821174521
 31
0.0
  0
ARC
  5
64A0
  8
AM_0
 10
232.36038118298521
 20
196.4890882117451
 30
0.0
 40
5.0
 50
270.0
 51
315.0
1001
GENIUS_GENOBJ-N-FIL_13
1002
{
1000
OWNER
1000
GEN
1002
}
1001
GENIUS_GENODEF_13
1002
{
1000
HIER
1070
     0
1002
}
1002
{
1000
MANEDIT
1070
     0
1002
}
1002
{
1000
NOSEL
1070
     0
1002
}
1002
{
1000
BEHIND
1070
     0
1002
}
1002
{
1000
OTHER
1070
     0
1002
}
1002
{
1000
REACTOR
1002
}
  0
ARC
  5
64A1
  8
AM_0
 10
251.08830324434311
 20
190.48908821174521
 30
0.0
 40
4.0
 50
270.0
 51
0.0
1001
GENIUS_GENOBJ-N-FIL_13
1002
{
1000
OWNER
1000
GEN
1002
}
1001
GENIUS_GENODEF_13
1002
{
1000
HIER
1070
     0
1002
}
1002
{
1000
MANEDIT
1070
     0
1002
}
1002
{
1000
NOSEL
1070
     0
1002
}
1002
{
1000
BEHIND
1070
     0
1002
}
1002
{
1000
OTHER
1070
     0
1002
}
1002
{
1000
REACTOR
1002
}
  0
LINE
  5
64A2
  8
AM_0
 10
251.08830324434291
 20
278.48908821174541
 30
0.0
 11
163.088303244343
 21
278.48908821174541
 31
0.0
  0
ARC
  5
64A3
  8
AM_0
 10
233.01723543247741
 20
273.48908821174541
 30
0.0
 40
5.0
 50
45.0
 51
90.0
1001
GENIUS_GENOBJ-N-FIL_13
1002
{
1000
OWNER
1000
GEN
1002
}
1001
GENIUS_GENODEF_13
1002
{
1000
HIER
1070
     0
1002
}
1002
{
1000
MANEDIT
1070
     0
1002
}
1002
{
1000
NOSEL
1070
     0
1002
}
1002
{
1000
BEHIND
1070
     0
1002
}
1002
{
1000
OTHER
1070
     0
1002
}
1002
{
1000
REACTOR
1002
}
  0
ARC
  5
64A4
  8
AM_0
 10
181.15937105620861
 20
273.48908821174541
 30
0.0
 40
5.0
 50
90.0
 51
135.0
1001
GENIUS_GENODEF_13
1002
{
1000
HIER
1070
     0
1002
}
1002
{
1000
MANEDIT
1070
     0
1002
}
1002
{
1000
NOSEL
1070
     0
1002
}
1002
{
1000
BEHIND
1070
     0
1002
}
1002
{
1000
OTHER
1070
     0
1002
}
1002
{
1000
REACTOR
1002
}
1001
GENIUS_GENOBJ-N-FIL_13
1002
{
1000
OWNER
1000
GEN
1002
}
  0
LINE
  5
64A5
  8
AM_0
 10
232.36038118298521
 20
273.48908821174541
 30
0.0
 11
181.8162253057009
 21
273.48908821174541
 31
0.0
  0
ARC
  5
64A6
  8
AM_0
 10
181.8162253057009
 20
268.48908821174541
 30
0.0
 40
5.0
 50
90.0
 51
135.0
1001
GENIUS_GENODEF_13
1002
{
1000
HIER
1070
     0
1002
}
1002
{
1000
MANEDIT
1070
     0
1002
}
1002
{
1000
NOSEL
1070
     0
1002
}
1002
{
1000
BEHIND
1070
     0
1002
}
1002
{
1000
OTHER
1070
     0
1002
}
1002
{
1000
REACTOR
1002
}
1001
GENIUS_GENOBJ-N-FIL_13
1002
{
1000
OWNER
1000
GEN
1002
}
  0
ARC
  5
64A7
  8
AM_0
 10
163.088303244343
 20
274.48908821174541
 30
0.0
 40
4.0
 50
90.0
 51
180.0
1001
GENIUS_GENODEF_13
1002
{
1000
HIER
1070
     0
1002
}
1002
{
1000
MANEDIT
1070
     0
1002
}
1002
{
1000
NOSEL
1070
     0
1002
}
1002
{
1000
BEHIND
1070
     0
1002
}
1002
{
1000
OTHER
1070
     0
1002
}
1002
{
1000
REACTOR
1002
}
1001
GENIUS_GENOBJ-N-FIL_13
1002
{
1000
OWNER
1000
GEN
1002
}
  0
LINE
  5
64A8
  8
AM_0
 10
159.088303244343
 20
274.48908821174541
 30
0.0
 11
159.088303244343
 21
190.48908821174521
 31
0.0
  0
ARC
  5
64A9
  8
AM_0
 10
164.088303244343
 20
208.56015602361049
 30
0.0
 40
5.0
 50
180.0
 51
225.0
1001
GENIUS_GENOBJ-N-FIL_13
1002
{
1000
OWNER
1000
GEN
1002
}
1001
GENIUS_GENODEF_13
1002
{
1000
HIER
1070
     0
1002
}
1002
{
1000
MANEDIT
1070
     0
1002
}
1002
{
1000
NOSEL
1070
     0
1002
}
1002
{
1000
BEHIND
1070
     0
1002
}
1002
{
1000
OTHER
1070
     0
1002
}
1002
{
1000
REACTOR
1002
}
  0
ARC
  5
64AA
  8
AM_0
 10
164.088303244343
 20
256.41802039988011
 30
0.0
 40
5.0
 50
135.0
 51
180.0
1001
GENIUS_GENOBJ-N-FIL_13
1002
{
1000
OWNER
1000
GEN
1002
}
1001
GENIUS_GENODEF_13
1002
{
1000
HIER
1070
     0
1002
}
1002
{
1000
MANEDIT
1070
     0
1002
}
1002
{
1000
NOSEL
1070
     0
1002
}
1002
{
1000
BEHIND
1070
     0
1002
}
1002
{
1000
OTHER
1070
     0
1002
}
1002
{
1000
REACTOR
1002
}
  0
LINE
  5
64AB
  8
AM_0
 10
164.088303244343
 20
255.7611661503874
 30
0.0
 11
164.08830324434291
 21
209.21701027310289
 31
0.0
  0
ARC
  5
64AC
  8
AM_0
 10
169.08830324434291
 20
209.21701027310289
 30
0.0
 40
5.0
 50
180.0
 51
225.0
1001
GENIUS_GENOBJ-N-FIL_13
1002
{
1000
OWNER
1000
GEN
1002
}
1001
GENIUS_GENODEF_13
1002
{
1000
HIER
1070
     0
1002
}
1002
{
1000
MANEDIT
1070
     0
1002
}
1002
{
1000
NOSEL
1070
     0
1002
}
1002
{
1000
BEHIND
1070
     0
1002
}
1002
{
1000
OTHER
1070
     0
1002
}
1002
{
1000
REACTOR
1002
}
  0
ARC
  5
64AD
  8
AM_0
 10
163.088303244343
 20
190.48908821174521
 30
0.0
 40
4.0
 50
180.0
 51
270.0
1001
GENIUS_GENODEF_13
1002
{
1000
HIER
1070
     0
1002
}
1002
{
1000
MANEDIT
1070
     0
1002
}
1002
{
1000
NOSEL
1070
     0
1002
}
1002
{
1000
BEHIND
1070
     0
1002
}
1002
{
1000
OTHER
1070
     0
1002
}
1002
{
1000
REACTOR
1002
}
1001
GENIUS_GENOBJ-N-FIL_13
1002
{
1000
OWNER
1000
GEN
1002
}
  0
LINE
  5
64AE
  8
AM_0
 10
255.088303244343
 20
274.48908821174541
 30
0.0
 11
255.08830324434311
 21
190.48908821174521
 31
0.0
  0
ARC
  5
64AF
  8
AM_0
 10
250.08830324434311
 20
256.41802039987988
 30
0.0
 40
5.0
 50
0.0
 51
45.0
1001
GENIUS_GENOBJ-N-FIL_13
1002
{
1000
OWNER
1000
GEN
1002
}
1001
GENIUS_GENODEF_13
1002
{
1000
HIER
1070
     0
1002
}
1002
{
1000
MANEDIT
1070
     0
1002
}
1002
{
1000
NOSEL
1070
     0
1002
}
1002
{
1000
BEHIND
1070
     0
1002
}
1002
{
1000
OTHER
1070
     0
1002
}
1002
{
1000
REACTOR
1002
}
  0
ARC
  5
64B0
  8
AM_0
 10
250.08830324434311
 20
208.56015602361069
 30
0.0
 40
5.0
 50
315.0
 51
0.0
1001
GENIUS_GENOBJ-N-FIL_13
1002
{
1000
OWNER
1000
GEN
1002
}
1001
GENIUS_GENODEF_13
1002
{
1000
HIER
1070
     0
1002
}
1002
{
1000
MANEDIT
1070
     0
1002
}
1002
{
1000
NOSEL
1070
     0
1002
}
1002
{
1000
BEHIND
1070
     0
1002
}
1002
{
1000
OTHER
1070
     0
1002
}
1002
{
1000
REACTOR
1002
}
  0
LINE
  5
64B1
  8
AM_0
 10
236.55276933841029
 20
277.02462211767812
 30
0.0
 11
253.62383715027579
 21
259.95355430581259
 31
0.0
  0
LINE
  5
64B2
  8
AM_0
 10
235.8959150889178
 20
272.02462211767812
 30
0.0
 11
248.62383715027559
 21
259.29670005632039
 31
0.0
  0
ARC
  5
64B3
  8
AM_0
 10
232.36038118298521
 20
268.48908821174541
 30
0.0
 40
5.0
 50
45.0
 51
90.0
1001
GENIUS_GENOBJ-N-FIL_13
1002
{
1000
OWNER
1000
GEN
1002
}
1001
GENIUS_GENODEF_13
1002
{
1000
HIER
1070
     0
1002
}
1002
{
1000
MANEDIT
1070
     0
1002
}
1002
{
1000
NOSEL
1070
     0
1002
}
1002
{
1000
BEHIND
1070
     0
1002
}
1002
{
1000
OTHER
1070
     0
1002
}
1002
{
1000
REACTOR
1002
}
  0
LINE
  5
64B4
  8
AM_0
 10
250.08830324434291
 20
255.76116615038771
 30
0.0
 11
250.08830324434311
 21
209.21701027310289
 31
0.0
  0
ARC
  5
64B5
  8
AM_0
 10
245.08830324434291
 20
255.76116615038771
 30
0.0
 40
5.0
 50
0.0
 51
45.0
1001
GENIUS_GENODEF_13
1002
{
1000
HIER
1070
     0
1002
}
1002
{
1000
MANEDIT
1070
     0
1002
}
1002
{
1000
NOSEL
1070
     0
1002
}
1002
{
1000
BEHIND
1070
     0
1002
}
1002
{
1000
OTHER
1070
     0
1002
}
1002
{
1000
REACTOR
1002
}
1001
GENIUS_GENOBJ-N-FIL_13
1002
{
1000
OWNER
1000
GEN
1002
}
  0
ARC
  5
64B6
  8
AM_0
 10
251.08830324434291
 20
274.48908821174541
 30
0.0
 40
4.0
 50
0.0
 51
90.0
1001
GENIUS_GENODEF_13
1002
{
1000
HIER
1070
     0
1002
}
1002
{
1000
MANEDIT
1070
     0
1002
}
1002
{
1000
NOSEL
1070
     0
1002
}
1002
{
1000
BEHIND
1070
     0
1002
}
1002
{
1000
OTHER
1070
     0
1002
}
1002
{
1000
REACTOR
1002
}
1001
GENIUS_GENOBJ-N-FIL_13
1002
{
1000
OWNER
1000
GEN
1002
}
  0
LINE
  5
64B7
  8
ﾁｭｳｼﾝｾﾝ1
 10
250.0883032443445
 20
267.48908821174501
 30
0.0
 11
250.0883032443451
 21
279.4890882117449
 31
0.0
  0
LINE
  5
64B8
  8
ﾁｭｳｼﾝｾﾝ1
 10
256.08830324434479
 20
273.48908821174467
 30
0.0
 11
244.08830324434479
 21
273.48908821174541
 31
0.0
  0
LINE
  5
64B9
  8
AM_0
 10
155.588303244343
 20
245.98908821174541
 30
0.0
 11
158.08830324434291
 21
245.9890882117455
 31
0.0
  0
LINE
  5
64BA
  8
AM_0
 10
158.088303244343
 20
218.98908821174541
 30
0.0
 11
155.588303244343
 21
218.98908821174541
 31
0.0
  0
LINE
  5
64BB
  8
AM_0
 10
144.689632147997
 20
221.98908821174541
 30
0.0
 11
144.689632147997
 21
242.98908821174541
 31
0.0
  0
LINE
  5
64BC
  8
AM_0
 10
129.689632147997
 20
240.52071326576041
 30
0.0
 11
129.689632147997
 21
224.45746315772939
 31
0.0
  0
LINE
  5
64BD
  8
AM_0
 10
142.689632147997
 20
220.48908821174541
 30
0.0
 11
142.689632147997
 21
244.48908821174541
 31
0.0
  0
LINE
  5
64BE
  8
AM_0
 10
133.189632147997
 20
232.48908821174541
 30
0.0
 11
133.689632147997
 21
231.98908821174541
 31
0.0
  0
LINE
  5
64BF
  8
AM_0
 10
140.189632147997
 20
244.1890882117454
 30
0.0
 11
140.189632147997
 21
220.78908821174539
 31
0.0
  0
LINE
  5
64C0
  8
AM_0
 10
150.088303244343
 20
243.98908821174541
 30
0.0
 11
150.088303244343
 21
220.98908821174541
 31
0.0
  0
LINE
  5
64C1
  8
AM_0
 10
144.189632147997
 20
231.7890882117434
 30
0.0
 11
144.189632147997
 21
233.18908821174631
 31
0.0
  0
LINE
  5
64C2
  8
AM_0
 10
146.289267874568
 20
223.38908821174539
 30
0.0
 11
145.53926787456891
 21
241.58908821174541
 31
0.0
  0
LINE
  5
64C3
  8
AM_0
 10
145.338303244343
 20
223.38908821174539
 30
0.0
 11
144.689632147997
 21
239.13017348306141
 31
0.0
  0
LINE
  5
64C4
  8
AM_0
 10
146.086995834915
 20
222.6734294993814
 30
0.0
 11
145.339735791507
 21
242.3014599729124
 31
0.0
  0
LINE
  5
64C5
  8
AM_0
 10
145.53783532740499
 20
222.6767164505774
 30
0.0
 11
144.78926787456891
 21
242.33908821174529
 31
0.0
  0
LINE
  5
64C6
  8
AM_0
 10
142.689632147997
 20
244.48908821174541
 30
0.0
 11
140.48963214799701
 21
244.48908821174541
 31
0.0
  0
ARC
  5
64C7
  8
AM_0
 10
154.58830324434311
 20
244.98908821174541
 30
0.0
 40
0.5
 50
269.99999999998693
 51
0.0
  0
ARC
  5
64C8
  8
AM_0
 10
155.58830324434311
 20
245.48908821174541
 30
0.0
 40
0.5
 50
90.0
 51
180.0
  0
LINE
  5
64C9
  8
AM_0
 10
155.088303244343
 20
244.98908821174541
 30
0.0
 11
155.088303244343
 21
245.48908821174541
 31
0.0
  0
LINE
  5
64CA
  8
AM_0
 10
146.088303244343
 20
241.58908821174541
 30
0.0
 11
149.588303244343
 21
241.58908821174529
 31
0.0
  0
LINE
  5
64CB
  8
AM_0
 10
155.088303244343
 20
243.3451595331523
 30
0.0
 11
155.088303244343
 21
233.6330168903373
 31
0.0
  0
LINE
  5
64CC
  8
AM_0
 10
150.588303244343
 20
244.48908821174541
 30
0.0
 11
154.58830324434291
 21
244.48908821174541
 31
0.0
  0
LINE
  5
64CD
  8
AM_0
 10
154.588303244343
 20
243.84515953315241
 30
0.0
 11
150.088303244343
 21
243.84515953315241
 31
0.0
  0
ARC
  5
64CE
  8
AM_0
 10
154.58830324434311
 20
243.3451595331523
 30
0.0
 40
0.5
 50
0.0
 51
90.0
  0
ARC
  5
64CF
  8
AM_0
 10
149.588303244343
 20
242.08908821174529
 30
0.0
 40
0.5
 50
270.0
 51
0.0
  0
ARC
  5
64D0
  8
AM_0
 10
150.588303244343
 20
243.98908821174541
 30
0.0
 40
0.5
 50
90.0
 51
180.0
  0
LINE
  5
64D1
  8
AM_0
 10
154.588303244343
 20
233.1330168903373
 30
0.0
 11
150.088303244343
 21
233.1330168903373
 31
0.0
  0
ARC
  5
64D2
  8
AM_0
 10
154.588303244343
 20
233.6330168903373
 30
0.0
 40
0.5
 50
270.0
 51
0.0
  0
LINE
  5
64D3
  8
AM_0
 10
144.189632147997
 20
238.6342589640374
 30
0.0
 11
144.189632147997
 21
237.46201577760439
 31
0.0
  0
LINE
  5
64D4
  8
AM_0
 10
145.61600030299391
 20
241.58908821174541
 30
0.0
 11
146.088303244343
 21
241.58908821174541
 31
0.0
  0
LINE
  5
64D5
  8
AM_0
 10
145.51940780845459
 20
241.66320597848201
 30
0.0
 11
145.53926787456891
 21
241.58908821174541
 31
0.0
  0
ARC
  5
64D6
  8
AM_0
 10
145.616000302994
 20
241.68908821174529
 30
0.0
 40
0.1000000000000346
 50
195.000195006447
 51
270.0
  0
ARC
  5
64D7
  8
AM_0
 10
143.8896321479971
 20
241.77592119225329
 30
0.0
 40
0.3000000000000043
 50
270.0
 51
0.0
  0
LINE
  5
64D8
  8
AM_0
 10
142.689632147997
 20
243.88908821174539
 30
0.0
 11
143.9095878511541
 21
243.80775783153439
 31
0.0
  0
LINE
  5
64D9
  8
AM_0
 10
142.689632147997
 20
242.73283617590539
 30
0.0
 11
143.8896321479971
 21
242.73283617590539
 31
0.0
  0
LINE
  5
64DA
  8
AM_0
 10
144.189632147997
 20
243.48908821174541
 30
0.0
 11
142.689632147997
 21
243.48908821174541
 31
0.0
  0
ARC
  5
64DB
  8
AM_0
 10
144.189632147997
 20
242.98908821174541
 30
0.0
 40
0.5
 50
0.0
 51
90.0
  0
LINE
  5
64DC
  8
AM_0
 10
144.189632147997
 20
243.50842228417741
 30
0.0
 11
144.189632147997
 21
243.48908821174541
 31
0.0
  0
LINE
  5
64DD
  8
AM_0
 10
144.189632147997
 20
243.78908821174539
 30
0.0
 11
144.189632147997
 21
243.50842228417741
 31
0.0
  0
LINE
  5
64DE
  8
AM_0
 10
143.9095878511541
 20
243.80775783153439
 30
0.0
 11
144.189632147997
 21
243.78908821174539
 31
0.0
  0
ARC
  5
64DF
  8
AM_0
 10
143.8896321479971
 20
243.50842228417741
 30
0.0
 40
0.3000000000000007
 50
0.0
 51
86.185925165718459
  0
LINE
  5
64E0
  8
AM_0
 10
145.26157081591791
 20
242.33908821174529
 30
0.0
 11
145.33830324434399
 21
242.33908821174529
 31
0.0
  0
LINE
  5
64E1
  8
AM_0
 10
145.33830324434399
 20
242.33908821174529
 30
0.0
 11
145.35816331045709
 21
242.26497044500891
 31
0.0
  0
LINE
  5
64E2
  8
AM_0
 10
144.7694078084549
 20
242.26497044500891
 30
0.0
 11
144.78926787456891
 21
242.33908821174529
 31
0.0
  0
LINE
  5
64E3
  8
AM_0
 10
144.78926787456891
 20
242.33908821174529
 30
0.0
 11
144.86600030299391
 21
242.33908821174529
 31
0.0
  0
LINE
  5
64E4
  8
AM_0
 10
145.35816331045709
 20
242.26497044500891
 30
0.0
 11
145.51940780845459
 21
241.66320597848201
 31
0.0
  0
LINE
  5
64E5
  8
AM_0
 10
144.86600030299391
 20
242.33908821174529
 30
0.0
 11
145.26157081591791
 21
242.33908821174529
 31
0.0
  0
LINE
  5
64E6
  8
AM_0
 10
144.68963214799791
 20
241.96724768018441
 30
0.0
 11
144.7694078084549
 21
242.26497044500891
 31
0.0
  0
ARC
  5
64E7
  8
AM_0
 10
145.26157081591799
 20
242.23908821174541
 30
0.0
 40
0.0999999999999866
 50
15.00019500657498
 51
90.0
  0
ARC
  5
64E8
  8
AM_0
 10
144.866000302994
 20
242.23908821174541
 30
0.0
 40
0.1000000000000014
 50
90.0
 51
164.99980499342499
  0
LINE
  5
64E9
  8
AM_0
 10
144.189632147997
 20
242.43283617590521
 30
0.0
 11
144.189632147997
 21
241.77592119225329
 31
0.0
  0
ARC
  5
64EA
  8
AM_0
 10
143.8896321479971
 20
242.43283617590521
 30
0.0
 40
0.3000000000000007
 50
0.0
 51
90.0
  0
LINE
  5
64EB
  8
AM_0
 10
142.689632147997
 20
238.93425896403741
 30
0.0
 11
143.8896321479971
 21
238.93425896403741
 31
0.0
  0
LINE
  5
64EC
  8
AM_0
 10
143.8896321479971
 20
241.4759211922534
 30
0.0
 11
142.689632147997
 21
241.4759211922534
 31
0.0
  0
LINE
  5
64ED
  8
AM_0
 10
145.53926787456891
 20
241.58908821174541
 30
0.0
 11
145.61600030299391
 21
241.58908821174541
 31
0.0
  0
ARC
  5
64EE
  8
AM_0
 10
143.8896321479971
 20
238.6342589640374
 30
0.0
 40
0.3000000000000007
 50
0.0
 51
90.0
  0
LINE
  5
64EF
  8
AM_0
 10
143.8896321479971
 20
237.16201577760441
 30
0.0
 11
142.689632147997
 21
237.16201577760441
 31
0.0
  0
ARC
  5
64F0
  8
AM_0
 10
143.8896321479971
 20
237.46201577760439
 30
0.0
 40
0.3000000000000043
 50
270.0
 51
0.0
  0
LINE
  5
64F1
  8
AM_0
 10
143.8896321479971
 20
233.48908821174641
 30
0.0
 11
142.689632147997
 21
233.48908821174641
 31
0.0
  0
ARC
  5
64F2
  8
AM_0
 10
143.8896321479971
 20
233.18908821174631
 30
0.0
 40
0.3000000000000007
 50
0.0
 51
90.0
  0
LINE
  5
64F3
  8
AM_0
 10
133.689632147997
 20
242.6223680403923
 30
0.0
 11
140.189632147997
 21
242.6223680403923
 31
0.0
  0
LINE
  5
64F4
  8
AM_0
 10
133.689632147997
 20
243.1223680403923
 30
0.0
 11
140.189632147997
 21
243.1223680403923
 31
0.0
  0
LINE
  5
64F5
  8
AM_0
 10
140.189632147997
 20
232.98908821174541
 30
0.0
 11
133.689632147997
 21
232.98908821174541
 31
0.0
  0
LINE
  5
64F6
  8
AM_0
 10
133.189632147997
 20
233.48908821174541
 30
0.0
 11
140.189632147997
 21
233.48908821174541
 31
0.0
  0
LINE
  5
64F7
  8
AM_0
 10
139.8896321479971
 20
243.48908821174541
 30
0.0
 11
133.051682083179
 21
243.48908821174541
 31
0.0
  0
LINE
  5
64F8
  8
AM_0
 10
140.189632147997
 20
233.83577628028641
 30
0.0
 11
133.689632147997
 21
233.83577628028641
 31
0.0
  0
LINE
  5
64F9
  8
AM_0
 10
140.189632147997
 20
242.14240014320441
 30
0.0
 11
133.689632147997
 21
242.14240014320441
 31
0.0
  0
ARC
  5
64FA
  8
AM_0
 10
140.48963214799701
 20
244.1890882117454
 30
0.0
 40
0.2999999999999971
 50
90.0
 51
180.0
  0
ARC
  5
64FB
  8
AM_0
 10
139.8896321479971
 20
243.78908821174539
 30
0.0
 40
0.2999999999999971
 50
270.0
 51
0.0
  0
ARC
  5
64FC
  8
AM_0
 10
141.814632147997
 20
237.98908821174541
 30
0.0
 40
9.124999999999984
 50
152.92493329272071
 51
207.07506670727921
  0
LINE
  5
64FD
  8
AM_0
 10
132.41149768351451
 20
243.25730949134291
 30
0.0
 11
130.0494477483324
 21
241.28893454535779
 31
0.0
  0
LINE
  5
64FE
  8
AM_0
 10
133.189632147997
 20
242.91065562823729
 30
0.0
 11
133.689632147997
 21
243.48908821174541
 31
0.0
  0
ARC
  5
64FF
  8
AM_0
 10
133.051682083179
 20
242.48908821174541
 30
0.0
 40
1.0
 50
90.0
 51
129.80557109225549
  0
LINE
  5
6500
  8
AM_0
 10
133.689632147997
 20
243.1223680403923
 30
0.0
 11
133.189632147997
 21
242.91065562823729
 31
0.0
  0
LINE
  5
6501
  8
AM_0
 10
133.189632147997
 20
242.44838035526641
 30
0.0
 11
133.689632147997
 21
243.1223680403923
 31
0.0
  0
LINE
  5
6502
  8
AM_0
 10
133.689632147997
 20
242.6223680403923
 30
0.0
 11
133.189632147997
 21
242.44838035526641
 31
0.0
  0
LINE
  5
6503
  8
AM_0
 10
133.189632147997
 20
241.91065562823741
 30
0.0
 11
133.689632147997
 21
242.6223680403923
 31
0.0
  0
LINE
  5
6504
  8
AM_0
 10
133.689632147997
 20
242.14240014320441
 30
0.0
 11
133.189632147997
 21
241.91065562823741
 31
0.0
  0
ARC
  5
6505
  8
AM_0
 10
130.689632147997
 20
240.52071326576041
 30
0.0
 40
1.0000000000000291
 50
129.8055710922641
 51
180.0
  0
LINE
  5
6506
  8
AM_0
 10
133.689632147997
 20
232.98908821174541
 30
0.0
 11
133.189632147997
 21
232.48908821174541
 31
0.0
  0
LINE
  5
6507
  8
AM_0
 10
133.189632147997
 20
233.48908821174541
 30
0.0
 11
133.689632147997
 21
232.98908821174541
 31
0.0
  0
LINE
  5
6508
  8
AM_0
 10
133.689632147997
 20
233.83577628028641
 30
0.0
 11
133.189632147997
 21
233.48908821174541
 31
0.0
  0
LINE
  5
6509
  8
AM_0
 10
140.48963214799701
 20
220.48908821174541
 30
0.0
 11
142.689632147997
 21
220.48908821174541
 31
0.0
  0
ARC
  5
650A
  8
AM_0
 10
154.588303244343
 20
219.98908821174541
 30
0.0
 40
0.5
 50
0.0
 51
90.000000000006537
  0
LINE
  5
650B
  8
AM_0
 10
149.588303244343
 20
223.38908821174539
 30
0.0
 11
146.36600030299391
 21
223.38908821174539
 31
0.0
  0
LINE
  5
650C
  8
AM_0
 10
155.088303244343
 20
231.34515953315241
 30
0.0
 11
155.088303244343
 21
221.6330168903373
 31
0.0
  0
LINE
  5
650D
  8
AM_0
 10
150.088303244343
 20
231.84515953315241
 30
0.0
 11
154.588303244343
 21
231.84515953315241
 31
0.0
  0
ARC
  5
650E
  8
AM_0
 10
154.588303244343
 20
231.34515953315241
 30
0.0
 40
0.5
 50
0.0
 51
90.0
  0
LINE
  5
650F
  8
AM_0
 10
150.088303244343
 20
221.1330168903373
 30
0.0
 11
154.588303244343
 21
221.1330168903373
 31
0.0
  0
LINE
  5
6510
  8
AM_0
 10
154.58830324434291
 20
220.48908821174541
 30
0.0
 11
150.588303244343
 21
220.48908821174541
 31
0.0
  0
ARC
  5
6511
  8
AM_0
 10
154.588303244343
 20
221.6330168903373
 30
0.0
 40
0.5
 50
270.0
 51
0.0
  0
ARC
  5
6512
  8
AM_0
 10
149.588303244343
 20
222.88908821174539
 30
0.0
 40
0.5
 50
0.0
 51
90.0
  0
ARC
  5
6513
  8
AM_0
 10
150.588303244343
 20
220.98908821174541
 30
0.0
 40
0.5
 50
180.0
 51
270.0
  0
ARC
  5
6514
  8
AM_0
 10
143.8896321479971
 20
226.34391745945331
 30
0.0
 40
0.3000000000000114
 50
270.0
 51
0.0
  0
LINE
  5
6515
  8
AM_0
 10
142.689632147997
 20
231.48908821174339
 30
0.0
 11
143.8896321479971
 21
231.48908821174339
 31
0.0
  0
ARC
  5
6516
  8
AM_0
 10
143.8896321479971
 20
231.78908821174329
 30
0.0
 40
0.2999999999999971
 50
270.0
 51
0.0
  0
LINE
  5
6517
  8
AM_0
 10
142.689632147997
 20
227.81616064588641
 30
0.0
 11
143.8896321479971
 21
227.81616064588641
 31
0.0
  0
ARC
  5
6518
  8
AM_0
 10
143.8896321479971
 20
227.5161606458862
 30
0.0
 40
0.3000000000000007
 50
0.0
 51
90.0
  0
LINE
  5
6519
  8
AM_0
 10
144.189632147997
 20
227.5161606458864
 30
0.0
 11
144.189632147997
 21
226.34391745945339
 31
0.0
  0
LINE
  5
651A
  8
AM_0
 10
145.61600030299391
 20
222.63908821174539
 30
0.0
 11
146.01157081591791
 21
222.63908821174539
 31
0.0
  0
LINE
  5
651B
  8
AM_0
 10
145.61600030299391
 20
222.63908821174539
 30
0.0
 11
146.01157081591791
 21
222.63908821174539
 31
0.0
  0
LINE
  5
651C
  8
AM_0
 10
146.10816331045709
 20
222.71320597848191
 30
0.0
 11
146.2694078084549
 21
223.3149704450089
 31
0.0
  0
LINE
  5
651D
  8
AM_0
 10
146.10816331045709
 20
222.71320597848191
 30
0.0
 11
146.2694078084549
 21
223.3149704450089
 31
0.0
  0
ARC
  5
651E
  8
AM_0
 10
146.36600030299391
 20
223.28908821174539
 30
0.0
 40
0.0999999999999943
 50
90.0
 51
164.99980499348811
  0
ARC
  5
651F
  8
AM_0
 10
146.01157081591791
 20
222.73908821174541
 30
0.0
 40
0.0999999999999943
 50
270.0
 51
344.99980499349448
  0
LINE
  5
6520
  8
AM_0
 10
144.68878555945591
 20
223.0140882117451
 30
0.0
 11
144.7694078084549
 21
223.3149704450089
 31
0.0
  0
LINE
  5
6521
  8
AM_0
 10
145.34101389654899
 20
223.34982367864731
 30
0.0
 11
145.5194078084549
 21
222.71320597848191
 31
0.0
  0
LINE
  5
6522
  8
AM_0
 10
145.35816331045709
 20
223.3149704450089
 30
0.0
 11
145.5194078084549
 21
222.71320597848191
 31
0.0
  0
LINE
  5
6523
  8
AM_0
 10
144.189632147997
 20
223.20225523123639
 30
0.0
 11
144.189632147997
 21
222.54534024758539
 31
0.0
  0
LINE
  5
6524
  8
AM_0
 10
144.689632147997
 20
223.0172476801834
 30
0.0
 11
144.7694078084549
 21
223.3149704450089
 31
0.0
  0
LINE
  5
6525
  8
AM_0
 10
142.689632147997
 20
223.50225523123649
 30
0.0
 11
143.8896321479971
 21
223.50225523123649
 31
0.0
  0
LINE
  5
6526
  8
AM_0
 10
143.8896321479971
 20
226.04391745945341
 30
0.0
 11
142.689632147997
 21
226.04391745945239
 31
0.0
  0
LINE
  5
6527
  8
AM_0
 10
145.29420308143301
 20
223.38908821174539
 30
0.0
 11
145.34101389654899
 21
223.34982367864731
 31
0.0
  0
LINE
  5
6528
  8
AM_0
 10
144.86600030299391
 20
223.38908821174539
 30
0.0
 11
145.29420308143301
 21
223.38908821174539
 31
0.0
  0
LINE
  5
6529
  8
AM_0
 10
144.86600030299391
 20
223.38908821174539
 30
0.0
 11
145.26157081591791
 21
223.38908821174539
 31
0.0
  0
ARC
  5
652A
  8
AM_0
 10
144.86600030299391
 20
223.28908821174539
 30
0.0
 40
0.0999999999999943
 50
90.0
 51
164.99980499348811
  0
ARC
  5
652B
  8
AM_0
 10
145.26157081591791
 20
223.28908821174539
 30
0.0
 40
0.0999999999999608
 50
15.000195006510941
 51
90.0
  0
ARC
  5
652C
  8
AM_0
 10
143.8896321479971
 20
223.20225523123639
 30
0.0
 40
0.3000000000000007
 50
0.0
 51
90.0
  0
LINE
  5
652D
  8
AM_0
 10
142.689632147997
 20
221.48908821174541
 30
0.0
 11
144.189632147997
 21
221.48908821174541
 31
0.0
  0
LINE
  5
652E
  8
AM_0
 10
143.8896321479971
 20
222.2453402475854
 30
0.0
 11
142.689632147997
 21
222.2453402475854
 31
0.0
  0
LINE
  5
652F
  8
AM_0
 10
143.9095878511541
 20
221.17041859195541
 30
0.0
 11
142.689632147997
 21
221.08908821174541
 31
0.0
  0
ARC
  5
6530
  8
AM_0
 10
144.189632147997
 20
221.98908821174541
 30
0.0
 40
0.5
 50
270.0
 51
0.0
  0
ARC
  5
6531
  8
AM_0
 10
145.61600030299391
 20
222.73908821174541
 30
0.0
 40
0.0999999999999606
 50
195.00019500650541
 51
270.0
  0
ARC
  5
6532
  8
AM_0
 10
143.8896321479971
 20
222.54534024758539
 30
0.0
 40
0.2999999999999971
 50
270.0
 51
0.0
  0
LINE
  5
6533
  8
AM_0
 10
144.189632147997
 20
221.48908821174541
 30
0.0
 11
144.189632147997
 21
221.46975413931241
 31
0.0
  0
ARC
  5
6534
  8
AM_0
 10
143.8896321479971
 20
221.46975413931241
 30
0.0
 40
0.3000000000000043
 50
273.81407483428148
 51
0.0
  0
ARC
  5
6535
  8
AM_0
 10
155.588303244343
 20
219.48908821174541
 30
0.0
 40
0.5
 50
180.0
 51
270.0
  0
LINE
  5
6536
  8
AM_0
 10
155.088303244343
 20
219.48908821174541
 30
0.0
 11
155.088303244343
 21
219.98908821174541
 31
0.0
  0
LINE
  5
6537
  8
AM_0
 10
133.689632147997
 20
222.83577628028641
 30
0.0
 11
140.189632147997
 21
222.83577628028641
 31
0.0
  0
LINE
  5
6538
  8
AM_0
 10
133.689632147997
 20
231.14240014320441
 30
0.0
 11
140.189632147997
 21
231.14240014320441
 31
0.0
  0
LINE
  5
6539
  8
AM_0
 10
133.051682083179
 20
221.48908821174541
 30
0.0
 11
139.8896321479971
 21
221.48908821174541
 31
0.0
  0
LINE
  5
653A
  8
AM_0
 10
140.189632147997
 20
231.48908821174541
 30
0.0
 11
133.189632147997
 21
231.48908821174541
 31
0.0
  0
LINE
  5
653B
  8
AM_0
 10
133.689632147997
 20
231.98908821174541
 30
0.0
 11
140.189632147997
 21
231.98908821174541
 31
0.0
  0
LINE
  5
653C
  8
AM_0
 10
140.189632147997
 20
221.85580838309741
 30
0.0
 11
133.689632147997
 21
221.85580838309741
 31
0.0
  0
LINE
  5
653D
  8
AM_0
 10
140.189632147997
 20
222.35580838309741
 30
0.0
 11
133.689632147997
 21
222.35580838309741
 31
0.0
  0
ARC
  5
653E
  8
AM_0
 10
139.8896321479971
 20
221.1890882117454
 30
0.0
 40
0.3000000000000043
 50
0.0
 51
90.0
  0
ARC
  5
653F
  8
AM_0
 10
140.48963214799701
 20
220.78908821174539
 30
0.0
 40
0.2999999999999971
 50
180.0
 51
270.0
  0
ARC
  5
6540
  8
AM_0
 10
141.814632147997
 20
226.98908821174541
 30
0.0
 40
9.124999999999984
 50
152.92493329272071
 51
207.07506670727921
  0
LINE
  5
6541
  8
AM_0
 10
133.189632147997
 20
231.48908821174541
 30
0.0
 11
133.689632147997
 21
231.14240014320441
 31
0.0
  0
LINE
  5
6542
  8
AM_0
 10
133.689632147997
 20
231.98908821174541
 30
0.0
 11
133.189632147997
 21
231.48908821174541
 31
0.0
  0
LINE
  5
6543
  8
AM_0
 10
130.0494477483324
 20
223.6892418781319
 30
0.0
 11
132.41149768351451
 21
221.72086693214791
 31
0.0
  0
LINE
  5
6544
  8
AM_0
 10
133.689632147997
 20
221.48908821174541
 30
0.0
 11
133.189632147997
 21
222.06752079525239
 31
0.0
  0
ARC
  5
6545
  8
AM_0
 10
133.051682083179
 20
222.48908821174541
 30
0.0
 40
1.0000000000000411
 50
230.19442890774451
 51
270.0
  0
LINE
  5
6546
  8
AM_0
 10
133.189632147997
 20
223.06752079525251
 30
0.0
 11
133.689632147997
 21
222.83577628028641
 31
0.0
  0
LINE
  5
6547
  8
AM_0
 10
133.689632147997
 20
222.35580838309741
 30
0.0
 11
133.189632147997
 21
223.06752079525251
 31
0.0
  0
LINE
  5
6548
  8
AM_0
 10
133.189632147997
 20
222.52979606822441
 30
0.0
 11
133.689632147997
 21
222.35580838309741
 31
0.0
  0
LINE
  5
6549
  8
AM_0
 10
133.689632147997
 20
221.85580838309741
 30
0.0
 11
133.189632147997
 21
222.52979606822441
 31
0.0
  0
LINE
  5
654A
  8
AM_0
 10
133.189632147997
 20
222.06752079525239
 30
0.0
 11
133.689632147997
 21
221.85580838309741
 31
0.0
  0
ARC
  5
654B
  8
AM_0
 10
130.689632147997
 20
224.45746315772931
 30
0.0
 40
1.0
 50
180.0
 51
230.19442890773581
  0
CIRCLE
  5
654C
  8
AM_0
 10
164.08830324434129
 20
273.48908821174501
 30
0.0
 40
4.0
  0
LINE
  5
654D
  8
AM_0
 10
163.77680324434121
 20
271.21027980602071
 30
0.0
 11
164.39980324434131
 21
271.21027980602071
 31
0.0
  0
LINE
  5
654E
  8
AM_0
 10
163.77680324434121
 20
275.76789661746938
 30
0.0
 11
164.39980324434131
 21
275.76789661746938
 31
0.0
  0
LINE
  5
654F
  8
AM_0
 10
163.77680324434121
 20
271.21027980602071
 30
0.0
 11
163.77680324434121
 21
273.17758821174499
 31
0.0
  0
LINE
  5
6550
  8
AM_0
 10
163.77680324434121
 20
273.80058821174498
 30
0.0
 11
163.77680324434121
 21
275.76789661746938
 31
0.0
  0
LINE
  5
6551
  8
AM_0
 10
163.77680324434121
 20
273.80058821174498
 30
0.0
 11
161.8094948386169
 21
273.80058821174498
 31
0.0
  0
LINE
  5
6552
  8
AM_0
 10
163.77680324434121
 20
273.17758821174499
 30
0.0
 11
161.8094948386169
 21
273.17758821174499
 31
0.0
  0
LINE
  5
6553
  8
AM_0
 10
161.8094948386169
 20
273.80058821174498
 30
0.0
 11
161.8094948386169
 21
273.17758821174499
 31
0.0
  0
LINE
  5
6554
  8
AM_0
 10
164.39980324434131
 20
271.21027980602071
 30
0.0
 11
164.39980324434131
 21
273.17758821174499
 31
0.0
  0
LINE
  5
6555
  8
AM_0
 10
164.39980324434131
 20
273.80058821174498
 30
0.0
 11
164.39980324434131
 21
275.76789661746938
 31
0.0
  0
LINE
  5
6556
  8
AM_0
 10
166.36711165006571
 20
273.17758821174499
 30
0.0
 11
164.39980324434131
 21
273.17758821174499
 31
0.0
  0
LINE
  5
6557
  8
AM_0
 10
166.36711165006571
 20
273.80058821174498
 30
0.0
 11
164.39980324434131
 21
273.80058821174498
 31
0.0
  0
LINE
  5
6558
  8
AM_0
 10
166.36711165006571
 20
273.80058821174498
 30
0.0
 11
166.36711165006571
 21
273.17758821174499
 31
0.0
  0
CIRCLE
  5
6559
  8
AM_0
 10
250.08830324434479
 20
273.48908821174501
 30
0.0
 40
4.0
  0
LINE
  5
655A
  8
AM_0
 10
249.7768032443449
 20
271.21027980602048
 30
0.0
 11
250.39980324434481
 21
271.21027980602048
 31
0.0
  0
LINE
  5
655B
  8
AM_0
 10
249.7768032443449
 20
275.76789661746932
 30
0.0
 11
250.39980324434481
 21
275.76789661746932
 31
0.0
  0
LINE
  5
655C
  8
AM_0
 10
249.7768032443449
 20
271.21027980602048
 30
0.0
 11
249.7768032443449
 21
273.17758821174499
 31
0.0
  0
LINE
  5
655D
  8
AM_0
 10
249.7768032443449
 20
273.80058821174498
 30
0.0
 11
249.7768032443449
 21
275.76789661746932
 31
0.0
  0
LINE
  5
655E
  8
AM_0
 10
249.7768032443449
 20
273.80058821174498
 30
0.0
 11
247.80949483862051
 21
273.80058821174498
 31
0.0
  0
LINE
  5
655F
  8
AM_0
 10
249.7768032443449
 20
273.17758821174499
 30
0.0
 11
247.80949483862051
 21
273.17758821174499
 31
0.0
  0
LINE
  5
6560
  8
AM_0
 10
247.80949483862051
 20
273.80058821174498
 30
0.0
 11
247.80949483862051
 21
273.17758821174499
 31
0.0
  0
LINE
  5
6561
  8
AM_0
 10
250.39980324434481
 20
271.21027980602048
 30
0.0
 11
250.39980324434481
 21
273.17758821174499
 31
0.0
  0
LINE
  5
6562
  8
AM_0
 10
250.39980324434481
 20
273.80058821174498
 30
0.0
 11
250.39980324434481
 21
275.76789661746932
 31
0.0
  0
LINE
  5
6563
  8
AM_0
 10
252.36711165006921
 20
273.17758821174499
 30
0.0
 11
250.39980324434481
 21
273.17758821174499
 31
0.0
  0
LINE
  5
6564
  8
AM_0
 10
252.36711165006921
 20
273.80058821174498
 30
0.0
 11
250.39980324434481
 21
273.80058821174498
 31
0.0
  0
LINE
  5
6565
  8
AM_0
 10
252.36711165006921
 20
273.80058821174498
 30
0.0
 11
252.36711165006921
 21
273.17758821174499
 31
0.0
  0
LINE
  5
6566
  8
AM_0
 10
177.62383715027599
 20
277.02462211767812
 30
0.0
 11
160.5527693384102
 21
259.95355430581287
 31
0.0
  0
LINE
  5
6567
  8
AM_0
 10
178.28069139976819
 20
272.02462211767812
 30
0.0
 11
165.5527693384102
 21
259.29670005632028
 31
0.0
  0
ARC
  5
6568
  8
AM_0
 10
169.088303244343
 20
255.7611661503874
 30
0.0
 40
5.0
 50
135.0
 51
180.0
1001
GENIUS_GENOBJ-N-FIL_13
1002
{
1000
OWNER
1000
GEN
1002
}
1001
GENIUS_GENODEF_13
1002
{
1000
HIER
1070
     0
1002
}
1002
{
1000
MANEDIT
1070
     0
1002
}
1002
{
1000
NOSEL
1070
     0
1002
}
1002
{
1000
BEHIND
1070
     0
1002
}
1002
{
1000
OTHER
1070
     0
1002
}
1002
{
1000
REACTOR
1002
}
  0
LINE
  5
6569
  8
AM_0
 10
236.55276933841029
 20
187.9535543058125
 30
0.0
 11
253.62383715027579
 21
205.02462211767781
 31
0.0
  0
ARC
  5
656A
  8
AM_0
 10
233.01723543247761
 20
191.48908821174521
 30
0.0
 40
5.0
 50
270.0
 51
315.0
1001
GENIUS_GENODEF_13
1002
{
1000
HIER
1070
     0
1002
}
1002
{
1000
MANEDIT
1070
     0
1002
}
1002
{
1000
NOSEL
1070
     0
1002
}
1002
{
1000
BEHIND
1070
     0
1002
}
1002
{
1000
OTHER
1070
     0
1002
}
1002
{
1000
REACTOR
1002
}
1001
GENIUS_GENOBJ-N-FIL_13
1002
{
1000
OWNER
1000
GEN
1002
}
  0
LINE
  5
656B
  8
AM_0
 10
235.89591508891809
 20
192.9535543058125
 30
0.0
 11
248.62383715027579
 21
205.68147636717021
 31
0.0
  0
ARC
  5
656C
  8
AM_0
 10
245.08830324434319
 20
209.21701027310289
 30
0.0
 40
5.0
 50
315.0
 51
0.0
1001
GENIUS_GENOBJ-N-FIL_13
1002
{
1000
OWNER
1000
GEN
1002
}
1001
GENIUS_GENODEF_13
1002
{
1000
HIER
1070
     0
1002
}
1002
{
1000
MANEDIT
1070
     0
1002
}
1002
{
1000
NOSEL
1070
     0
1002
}
1002
{
1000
BEHIND
1070
     0
1002
}
1002
{
1000
OTHER
1070
     0
1002
}
1002
{
1000
REACTOR
1002
}
  0
LINE
  5
656D
  8
AM_0
 10
177.62383715027579
 20
187.9535543058125
 30
0.0
 11
160.5527693384102
 21
205.02462211767769
 31
0.0
  0
LINE
  5
656E
  8
AM_0
 10
178.28069139976799
 20
192.9535543058125
 30
0.0
 11
165.5527693384102
 21
205.68147636717021
 31
0.0
  0
ARC
  5
656F
  8
AM_0
 10
181.8162253057007
 20
196.4890882117451
 30
0.0
 40
5.0
 50
225.0
 51
270.0
1001
GENIUS_GENOBJ-N-FIL_13
1002
{
1000
OWNER
1000
GEN
1002
}
1001
GENIUS_GENODEF_13
1002
{
1000
HIER
1070
     0
1002
}
1002
{
1000
MANEDIT
1070
     0
1002
}
1002
{
1000
NOSEL
1070
     0
1002
}
1002
{
1000
BEHIND
1070
     0
1002
}
1002
{
1000
OTHER
1070
     0
1002
}
1002
{
1000
REACTOR
1002
}
  0
CIRCLE
  5
6570
  8
AM_0
 10
164.0883032443412
 20
191.48908821174561
 30
0.0
 40
4.0
  0
LINE
  5
6571
  8
AM_0
 10
163.77680324434121
 20
193.76789661747
 30
0.0
 11
164.3998032443412
 21
193.76789661747
 31
0.0
  0
LINE
  5
6572
  8
AM_0
 10
163.77680324434121
 20
189.21027980602119
 30
0.0
 11
164.3998032443412
 21
189.21027980602119
 31
0.0
  0
LINE
  5
6573
  8
AM_0
 10
163.77680324434121
 20
193.76789661747
 30
0.0
 11
163.77680324434121
 21
191.80058821174561
 31
0.0
  0
LINE
  5
6574
  8
AM_0
 10
163.77680324434121
 20
191.17758821174559
 30
0.0
 11
163.77680324434121
 21
189.21027980602119
 31
0.0
  0
LINE
  5
6575
  8
AM_0
 10
163.77680324434121
 20
191.17758821174559
 30
0.0
 11
161.80949483861681
 21
191.17758821174559
 31
0.0
  0
LINE
  5
6576
  8
AM_0
 10
163.77680324434121
 20
191.80058821174561
 30
0.0
 11
161.80949483861681
 21
191.80058821174561
 31
0.0
  0
LINE
  5
6577
  8
AM_0
 10
161.80949483861681
 20
191.17758821174559
 30
0.0
 11
161.80949483861681
 21
191.80058821174561
 31
0.0
  0
LINE
  5
6578
  8
AM_0
 10
164.3998032443412
 20
193.76789661747
 30
0.0
 11
164.3998032443412
 21
191.80058821174561
 31
0.0
  0
LINE
  5
6579
  8
AM_0
 10
164.3998032443412
 20
191.17758821174559
 30
0.0
 11
164.3998032443412
 21
189.21027980602119
 31
0.0
  0
LINE
  5
657A
  8
AM_0
 10
166.36711165006551
 20
191.80058821174561
 30
0.0
 11
164.3998032443412
 21
191.80058821174561
 31
0.0
  0
LINE
  5
657B
  8
AM_0
 10
166.36711165006551
 20
191.17758821174559
 30
0.0
 11
164.3998032443412
 21
191.17758821174559
 31
0.0
  0
LINE
  5
657C
  8
AM_0
 10
166.36711165006551
 20
191.17758821174559
 30
0.0
 11
166.36711165006551
 21
191.80058821174561
 31
0.0
  0
CIRCLE
  5
657D
  8
AM_0
 10
250.0883032443447
 20
191.48908821174541
 30
0.0
 40
4.0
  0
LINE
  5
657E
  8
AM_0
 10
249.77680324434471
 20
193.76789661746989
 30
0.0
 11
250.39980324434481
 21
193.76789661746989
 31
0.0
  0
LINE
  5
657F
  8
AM_0
 10
249.77680324434471
 20
189.21027980602111
 30
0.0
 11
250.39980324434481
 21
189.21027980602111
 31
0.0
  0
LINE
  5
6580
  8
AM_0
 10
249.77680324434471
 20
193.76789661746989
 30
0.0
 11
249.77680324434471
 21
191.80058821174541
 31
0.0
  0
LINE
  5
6581
  8
AM_0
 10
249.77680324434471
 20
191.17758821174539
 30
0.0
 11
249.77680324434471
 21
189.21027980602111
 31
0.0
  0
LINE
  5
6582
  8
AM_0
 10
249.77680324434471
 20
191.17758821174539
 30
0.0
 11
247.8094948386204
 21
191.17758821174539
 31
0.0
  0
LINE
  5
6583
  8
AM_0
 10
249.77680324434471
 20
191.80058821174541
 30
0.0
 11
247.8094948386204
 21
191.80058821174541
 31
0.0
  0
LINE
  5
6584
  8
AM_0
 10
247.8094948386204
 20
191.17758821174539
 30
0.0
 11
247.8094948386204
 21
191.80058821174541
 31
0.0
  0
LINE
  5
6585
  8
AM_0
 10
250.39980324434481
 20
193.76789661746989
 30
0.0
 11
250.39980324434481
 21
191.80058821174541
 31
0.0
  0
LINE
  5
6586
  8
AM_0
 10
250.39980324434481
 20
191.17758821174539
 30
0.0
 11
250.39980324434481
 21
189.21027980602111
 31
0.0
  0
LINE
  5
6587
  8
AM_0
 10
252.36711165006909
 20
191.80058821174541
 30
0.0
 11
250.39980324434481
 21
191.80058821174541
 31
0.0
  0
LINE
  5
6588
  8
AM_0
 10
252.36711165006909
 20
191.17758821174539
 30
0.0
 11
250.39980324434481
 21
191.17758821174539
 31
0.0
  0
LINE
  5
6589
  8
AM_0
 10
252.36711165006909
 20
191.17758821174539
 30
0.0
 11
252.36711165006909
 21
191.80058821174541
 31
0.0
  0
LINE
  5
658A
  8
AM_0
 10
159.088303244343
 20
201.4890882117453
 30
0.0
 11
158.088303244343
 21
201.4890882117453
 31
0.0
  0
LINE
  5
658B
  8
AM_0
 10
159.088303244343
 20
263.48908821174541
 30
0.0
 11
158.088303244343
 21
263.4890882117453
 31
0.0
  0
LINE
  5
658C
  8
AM_0
 10
158.088303244343
 20
201.4890882117453
 30
0.0
 11
158.088303244343
 21
263.4890882117453
 31
0.0
  0
LINE
  5
658D
  8
ﾁｭｳｼﾝｾﾝ1
 10
164.08830324434101
 20
267.48908821174501
 30
0.0
 11
164.0883032443414
 21
279.4890882117449
 31
0.0
  0
LINE
  5
658E
  8
ﾁｭｳｼﾝｾﾝ1
 10
170.08830324434129
 20
273.48908821174467
 30
0.0
 11
158.08830324434129
 21
273.48908821174541
 31
0.0
  0
LINE
  5
658F
  8
ﾁｭｳｼﾝｾﾝ1
 10
164.08830324434081
 20
185.48908821174561
 30
0.0
 11
164.0883032443414
 21
197.48908821174561
 31
0.0
  0
LINE
  5
6590
  8
ﾁｭｳｼﾝｾﾝ1
 10
170.0883032443412
 20
191.48908821174541
 30
0.0
 11
158.08830324434109
 21
191.48908821174581
 31
0.0
  0
LINE
  5
6591
  8
ﾁｭｳｼﾝｾﾝ1
 10
250.08830324434439
 20
185.48908821174541
 30
0.0
 11
250.08830324434501
 21
197.48908821174541
 31
0.0
  0
LINE
  5
6592
  8
ﾁｭｳｼﾝｾﾝ1
 10
256.08830324434467
 20
191.48908821174521
 30
0.0
 11
244.0883032443447
 21
191.48908821174581
 31
0.0
  0
LINE
  5
6596
  8
AM_0
 10
372.08826324434278
 20
285.98909821174522
 30
0.0
 11
377.08826324434278
 21
280.98909821174527
 31
0.0
  0
LINE
  5
6597
  8
AM_0
 10
367.58826324434278
 20
285.98909821174522
 30
0.0
 11
372.08826324434278
 21
285.98909821174522
 31
0.0
  0
LINE
  5
6598
  8
AM_0
 10
367.08826324434278
 20
285.4890982117451
 30
0.0
 11
367.08826324434273
 21
264.29206421174513
 31
0.0
  0
LINE
  5
6599
  8
AM_0
 10
377.08826324434278
 20
280.98909821174527
 30
0.0
 11
377.08826324434278
 21
223.9890982117453
 31
0.0
  0
LINE
  5
659A
  8
AM_0
 10
368.0883532443429
 20
218.9890982117451
 30
0.0
 11
372.08826324434278
 21
218.9890982117451
 31
0.0
  0
LINE
  5
659B
  8
AM_0
 10
372.08826324434278
 20
218.9890982117451
 30
0.0
 11
377.08826324434278
 21
223.9890982117453
 31
0.0
  0
LINE
  5
659C
  8
AM_0
 10
367.58826324434278
 20
285.98909821174522
 30
0.0
 11
367.08826324434278
 21
285.4890982117451
 31
0.0
1001
GENIUS_GENFIL_13
1070
     0
1040
0.5
1040
0.5
1040
20.0
1040
0.0
1002
{
1002
}
1001
GENIUS_GENOBJ-N-CHA_13
1002
{
1000
OWNER
1000
GEN
1002
}
1001
GENIUS_GENODEF_13
1002
{
1000
HIER
1070
     0
1002
}
1002
{
1000
MANEDIT
1070
     0
1002
}
1002
{
1000
NOSEL
1070
     0
1002
}
1002
{
1000
BEHIND
1070
     0
1002
}
1002
{
1000
OTHER
1070
     0
1002
}
1002
{
1000
REACTOR
1002
}
  0
LINE
  5
659D
  8
AM_0
 10
372.08826324434278
 20
285.98909821174522
 30
0.0
 11
372.08826324434278
 21
218.9890982117451
 31
0.0
  0
CIRCLE
  5
659E
  8
AM_0
 10
629.24394520768055
 20
252.48910121174521
 30
0.0
 40
33.499999999999893
  0
CIRCLE
  5
659F
  8
AM_0
 10
629.24394520768055
 20
252.48910121174521
 30
0.0
 40
28.49999999999994
  0
LINE
  5
65A1
  8
AM_0
 10
514.24394520768055
 20
186.48724578415761
 30
0.0
 11
546.07246965820775
 21
187.5987223497568
 31
0.0
  0
LINE
  5
65A2
  8
AM_0
 10
544.24396420768062
 20
277.4396220359107
 30
0.0
 11
514.24394520768055
 21
278.48724578415772
 31
0.0
  0
LINE
  5
65A3
  8
AM_0
 10
514.24394520768055
 20
278.48724578415772
 30
0.0
 11
514.24394520768055
 21
186.48724578415741
 31
0.0
  0
LINE
  5
65A4
  8
ﾁｭｳｼﾝｾﾝ1
 10
503.2439452076805
 20
191.48724578415829
 30
0.0
 11
519.07146822021707
 21
191.4872457841582
 31
0.0
  0
LINE
  5
65A5
  8
AM_0
 10
510.24394520768038
 20
278.48724578415772
 30
0.0
 11
510.24394520768038
 21
257.67274088462523
 31
0.0
  0
LINE
  5
65A6
  8
AM_0
 10
510.24394520768038
 20
207.30175068368999
 30
0.0
 11
510.24394520768038
 21
186.4872457841584
 31
0.0
  0
LINE
  5
65A7
  8
AM_0
 10
506.24394520768038
 20
272.3514641149971
 30
0.0
 11
506.24394520768038
 21
192.6230274533182
 31
0.0
  0
LINE
  5
65A8
  8
AM_0
 10
508.18500769555271
 20
195.39460075646471
 30
0.0
 11
509.2439452076805
 21
195.48724578415809
 31
0.0
  0
LINE
  5
65A9
  8
AM_0
 10
508.18500769555271
 20
187.5798908118517
 30
0.0
 11
509.2439452076805
 21
187.4872457841582
 31
0.0
  0
ARC
  5
65AA
  8
AM_0
 10
512.64394520768053
 20
191.4872457841582
 30
0.0
 40
6.5
 50
151.82726586813479
 51
208.1727341318651
  0
ARC
  5
65AB
  8
AM_0
 10
508.32445688394893
 20
189.1738023287985
 30
0.0
 40
1.6000000000000001
 50
208.1727341318651
 51
265.00000000000028
  0
LINE
  5
65AC
  8
AM_0
 10
506.56447154625198
 20
193.7872457841581
 30
0.0
 11
508.85403122504772
 21
191.4872457841582
 31
0.0
  0
LINE
  5
65AD
  8
AM_0
 10
508.54394520768051
 20
191.79874578415809
 30
0.0
 11
508.54394520768051
 21
191.1757457841581
 31
0.0
  0
LINE
  5
65AE
  8
AM_0
 10
506.56447154625198
 20
189.18724578415811
 30
0.0
 11
508.85403122504772
 21
191.4872457841582
 31
0.0
  0
LINE
  5
65AF
  8
AM_0
 10
506.15141351734582
 20
191.79874578415809
 30
0.0
 11
508.54394520768051
 21
191.79874578415809
 31
0.0
  0
LINE
  5
65B0
  8
AM_0
 10
506.15141351734582
 20
191.1757457841581
 30
0.0
 11
508.54394520768051
 21
191.1757457841581
 31
0.0
  0
ARC
  5
65B1
  8
AM_0
 10
508.32445688394893
 20
193.80068923951771
 30
0.0
 40
1.6000000000000001
 50
94.999999999999758
 51
151.82726586813479
  0
LINE
  5
65B2
  8
AM_0
 10
510.24394520768038
 20
278.48724578415772
 30
0.0
 11
514.24394520768055
 21
278.48724578415772
 31
0.0
  0
LINE
  5
65B3
  8
AM_0
 10
509.24394520768021
 20
277.48724578415749
 30
0.0
 11
510.24394520768072
 21
278.48724578415772
 31
0.0
  0
LINE
  5
65B4
  8
AM_0
 10
514.24394520768055
 20
186.48724578415741
 30
0.0
 11
510.24394520768038
 21
186.4872457841584
 31
0.0
  0
LINE
  5
65B5
  8
AM_0N
 10
510.24394520768038
 20
195.2872457841581
 30
0.0
 11
509.2439452076805
 21
195.2872457841581
 31
0.0
  0
LINE
  5
65B6
  8
AM_0N
 10
509.2439452076805
 20
191.68724578415811
 30
0.0
 11
510.24394520768038
 21
192.05121601842441
 31
0.0
  0
LINE
  5
65B7
  8
AM_0N
 10
509.2439452076805
 20
191.2872457841581
 30
0.0
 11
510.24394520768038
 21
191.65121601842441
 31
0.0
  0
LINE
  5
65B8
  8
AM_0N
 10
509.2439452076805
 20
187.4872457841582
 30
0.0
 11
509.2439452076805
 21
195.48724578415809
 31
0.0
  0
LINE
  5
65B9
  8
AM_0N
 10
509.2439452076805
 20
187.68724578415811
 30
0.0
 11
510.24394520768038
 21
187.68724578415811
 31
0.0
  0
LINE
  5
65BA
  8
AM_0
 10
506.24394520768038
 20
207.3017506836899
 30
0.0
 11
510.24394520768038
 21
207.30175068368999
 31
0.0
  0
LINE
  5
65BB
  8
AM_0
 10
510.24394520768038
 20
205.64489643419739
 30
0.0
 11
506.24394520768038
 21
207.3017506836899
 31
0.0
  0
LINE
  5
65BC
  8
AM_0
 10
506.24394520768038
 20
257.67274088462523
 30
0.0
 11
510.24394520768038
 21
257.67274088462523
 31
0.0
  0
LINE
  5
65BD
  8
AM_0
 10
510.24394520768038
 20
259.32959513411782
 30
0.0
 11
506.24394520768038
 21
257.67274088462523
 31
0.0
  0
LINE
  5
65BE
  8
ﾁｭｳｼﾝｾﾝ1
 10
503.2439452076805
 20
273.48724578415693
 30
0.0
 11
519.07146822021707
 21
273.4872457841571
 31
0.0
  0
LINE
  5
65BF
  8
AM_0
 10
508.18500769555271
 20
269.57989081185048
 30
0.0
 11
509.2439452076805
 21
269.4872457841571
 31
0.0
  0
LINE
  5
65C0
  8
AM_0
 10
508.18500769555271
 20
277.39460075646338
 30
0.0
 11
509.2439452076805
 21
277.4872457841571
 31
0.0
  0
ARC
  5
65C1
  8
AM_0
 10
512.64394520768053
 20
273.4872457841571
 30
0.0
 40
6.5
 50
151.82726586813479
 51
208.1727341318651
  0
ARC
  5
65C2
  8
AM_0
 10
508.32445688394893
 20
275.80068923951671
 30
0.0
 40
1.6000000000000001
 50
94.999999999999758
 51
151.82726586813479
  0
LINE
  5
65C3
  8
AM_0
 10
506.56447154625198
 20
271.18724578415708
 30
0.0
 11
508.85403122504772
 21
273.4872457841571
 31
0.0
  0
LINE
  5
65C4
  8
AM_0
 10
508.54394520768051
 20
273.17574578415702
 30
0.0
 11
508.54394520768051
 21
273.79874578415712
 31
0.0
  0
LINE
  5
65C5
  8
AM_0
 10
506.56447154625198
 20
275.78724578415688
 30
0.0
 11
508.85403122504772
 21
273.4872457841571
 31
0.0
  0
LINE
  5
65C6
  8
AM_0
 10
506.15141351734582
 20
273.17574578415702
 30
0.0
 11
508.54394520768051
 21
273.17574578415702
 31
0.0
  0
LINE
  5
65C7
  8
AM_0
 10
506.15141351734582
 20
273.79874578415712
 30
0.0
 11
508.54394520768051
 21
273.79874578415712
 31
0.0
  0
ARC
  5
65C8
  8
AM_0
 10
508.32445688394893
 20
271.17380232879748
 30
0.0
 40
1.6000000000000001
 50
208.1727341318651
 51
265.00000000000028
  0
LINE
  5
65C9
  8
AM_0N
 10
510.24394520768038
 20
269.68724578415703
 30
0.0
 11
509.2439452076805
 21
269.68724578415703
 31
0.0
  0
LINE
  5
65CA
  8
AM_0N
 10
509.2439452076805
 20
273.28724578415688
 30
0.0
 11
510.24394520768038
 21
272.92327554989077
 31
0.0
  0
LINE
  5
65CB
  8
AM_0N
 10
509.2439452076805
 20
273.68724578415703
 30
0.0
 11
510.24394520768038
 21
273.32327554989081
 31
0.0
  0
LINE
  5
65CC
  8
AM_0N
 10
509.2439452076805
 20
277.4872457841571
 30
0.0
 11
509.2439452076805
 21
269.4872457841571
 31
0.0
  0
LINE
  5
65CD
  8
AM_0N
 10
509.2439452076805
 20
277.28724578415688
 30
0.0
 11
510.24394520768038
 21
277.28724578415688
 31
0.0
  0
LINE
  5
65CE
  8
AM_0
 10
299.08838324434282
 20
303.48908621174508
 30
0.0
 11
304.0883032443428
 21
303.48908621174508
 31
0.0
  0
LINE
  5
65CF
  8
AM_0
 10
304.0883032443428
 20
303.48908621174508
 30
0.0
 11
304.0883032443428
 21
158.98908221174511
 31
0.0
  0
LINE
  5
65D0
  8
AM_0
 10
267.08837324434302
 20
168.98909921174501
 30
0.0
 11
292.08830324434291
 21
168.33445121174509
 31
0.0
  0
LINE
  5
65D1
  8
AM_0
 10
292.08830324434291
 20
281.98911521174512
 30
0.0
 11
292.08830324434291
 21
267.35642621174509
 31
0.0
  0
LINE
  5
65D2
  8
AM_0
 10
267.08831324434288
 20
295.98908621174508
 30
0.0
 11
295.14068324434288
 21
296.72364521174512
 31
0.0
  0
LINE
  5
65D3
  8
AM_0
 10
297.08831324434288
 20
301.48911821174511
 30
0.0
 11
297.08831324434288
 21
285.98908721174507
 31
0.0
  0
LINE
  5
65D4
  8
ﾁｭｳｼﾝｾﾝ
 10
98.838132092519089
 20
232.48911521174509
 30
0.0
 11
294.36695788947429
 21
232.48911521174509
 31
0.0
  0
LINE
  5
65D5
  8
AM_0
 10
292.08830324434291
 20
176.85909221174509
 30
0.0
 11
296.56829324434278
 21
176.85909221174509
 31
0.0
  0
LINE
  5
65D6
  8
AM_0
 10
292.08830324434291
 20
265.35642521174509
 30
0.0
 11
296.52899324434298
 21
265.35642521174509
 31
0.0
  0
LINE
  5
65D7
  8
AM_0
 10
294.08831324434288
 20
274.87711721174509
 30
0.0
 11
297.08831324434288
 21
274.87711721174509
 31
0.0
  0
LINE
  5
65D8
  8
AM_0
 10
294.08831324434288
 20
283.98908621174508
 30
0.0
 11
295.0883032443428
 21
283.98908621174508
 31
0.0
  0
LINE
  5
65D9
  8
AM_0
 10
292.08830324434291
 20
174.859094211745
 30
0.0
 11
292.08830324434291
 21
160.989083211745
 31
0.0
  0
LINE
  5
65DA
  8
AM_0
 10
297.08831324434288
 20
274.87711721174509
 30
0.0
 11
297.08831324434288
 21
163.48908221174511
 31
0.0
  0
LINE
  5
65DB
  8
AM_0
 10
267.08831324434288
 20
283.98908621174508
 30
0.0
 11
293.08838324434282
 21
283.98908621174508
 31
0.0
  0
LINE
  5
65DC
  8
AM_0
 10
267.08831324434288
 20
269.63703521174511
 30
0.0
 11
292.08830324434291
 21
269.63703521174511
 31
0.0
  0
LINE
  5
65DD
  8
AM_0
 10
267.08831324434288
 20
195.3411352117451
 30
0.0
 11
297.08831324434288
 21
195.3411352117451
 31
0.0
  0
LINE
  5
65DE
  8
AM_0
 10
267.08831324434288
 20
180.98908421174511
 30
0.0
 11
297.08831324434288
 21
180.98908421174511
 31
0.0
  0
LINE
  5
65DF
  8
AM_0
 10
267.08831324434288
 20
295.98908621174508
 30
0.0
 11
267.08831324434288
 21
168.9890212117451
 31
0.0
  0
LINE
  5
65E1
  8
ﾁｭｳｼﾝｾﾝ
 10
417.23496133054221
 20
252.48910121174521
 30
0.0
 11
287.04163997162459
 21
252.48910121174521
 31
0.0
  0
LINE
  5
65EA
  8
AM_0
 10
364.80056324434292
 20
284.71970621174512
 30
0.0
 11
367.08826324434278
 21
281.99334720460058
 31
0.0
  0
LINE
  5
65EB
  8
AM_0
 10
364.0883032443428
 20
169.98908321174511
 30
0.0
 11
364.0883032443428
 21
337.48908221174509
 31
0.0
  0
LINE
  5
65EC
  8
AM_0
 10
354.08831324434288
 20
172.2696622117451
 30
0.0
 11
354.08831324434288
 21
205.33475621174509
 31
0.0
  0
LINE
  5
65ED
  8
AM_0
 10
336.08831324434288
 20
316.56309221174507
 30
0.0
 11
336.08831324434288
 21
271.3339342117452
 31
0.0
  0
LINE
  5
65EE
  8
AM_0
 10
364.0883032443428
 20
322.48908221174509
 30
0.0
 11
368.0883532443429
 21
322.48908221174509
 31
0.0
  0
LINE
  5
65EF
  8
AM_0
 10
356.01851324434301
 20
337.2072622117451
 30
0.0
 11
364.0883032443428
 21
337.48905221174488
 31
0.0
  0
LINE
  5
65F0
  8
AM_0
 10
341.41385324434282
 20
321.5600422117451
 30
0.0
 11
351.19301324434292
 21
321.90153221174512
 31
0.0
  0
LINE
  5
65F1
  8
ﾁｭｳｼﾝｾﾝ
 10
539.26812520768055
 20
252.48910121174521
 30
0.0
 11
719.21976520768055
 21
252.48910121174521
 31
0.0
  0
LINE
  5
65F2
  8
ﾁｭｳｼﾝｾﾝ
 10
666.54470916512275
 20
232.48911521174509
 30
0.0
 11
591.94318125023835
 21
232.48911521174509
 31
0.0
  0
LINE
  5
65F3
  8
ﾁｭｳｼﾝｾﾝ
 10
629.24394520768055
 20
341.49122243389769
 30
0.0
 11
629.24394520768055
 21
154.70308564344941
 31
0.0
  0
LINE
  5
65F4
  8
AM_0
 10
681.24396220768062
 20
247.48911521174509
 30
0.0
 11
681.24396220768062
 21
230.4890992117451
 31
0.0
  0
LINE
  5
65F5
  8
AM_0
 10
562.3060162076805
 20
264.29206421174513
 30
0.0
 11
562.3060162076805
 21
264.29206421174513
 31
0.0
  0
LINE
  5
65F6
  8
AM_0
 10
364.0883032443428
 20
182.4890992117451
 30
0.0
 11
368.0883532443429
 21
182.4890992117451
 31
0.0
  0
LINE
  5
65F7
  8
AM_0
 10
684.92219920768036
 20
291.47541521174509
 30
0.0
 11
684.92219920768036
 21
291.47541521174509
 31
0.0
  0
LINE
  5
65F8
  8
AM_0
 10
696.18190420768076
 20
264.29206421174513
 30
0.0
 11
696.18190420768076
 21
264.29206421174513
 31
0.0
  0
LINE
  5
65F9
  8
AM_0
 10
368.0883532443429
 20
264.29206421174513
 30
0.0
 11
368.0883532443429
 21
182.4890992117451
 31
0.0
  0
LINE
  5
65FA
  8
AM_0
 10
573.56569120768063
 20
291.47544521174518
 30
0.0
 11
573.56569120768063
 21
291.47544521174518
 31
0.0
  0
LINE
  5
65FB
  8
AM_0
 10
354.08831324434288
 20
294.44074721174508
 30
0.0
 11
354.08831324434288
 21
335.20851221174507
 31
0.0
  0
LINE
  5
65FC
  8
ﾁｭｳｼﾝｾﾝ1
 10
550.04799783344197
 20
173.29312383750661
 30
0.0
 11
567.01856058191925
 21
190.26368658598361
 31
0.0
  0
LINE
  5
65FD
  8
AM_0
 10
544.24396420768062
 20
282.48908621174508
 30
0.0
 11
546.51161320768063
 21
325.7584822117451
 31
0.0
  0
LINE
  5
65FE
  8
AM_0
 10
599.24394520768055
 20
337.48911221174512
 30
0.0
 11
629.24394520768055
 21
337.48911221174512
 31
0.0
  0
LINE
  5
65FF
  8
AM_0
 10
591.24395920768052
 20
227.4890992117451
 30
0.0
 11
570.21006820768037
 21
227.4890992117451
 31
0.0
  0
LINE
  5
6600
  8
AM_0
 10
544.24396420768062
 20
282.48908621174508
 30
0.0
 11
544.24396420768062
 21
252.48910121174521
 31
0.0
  0
LINE
  5
6601
  8
AM_0
 10
599.24396020768063
 20
337.48908221174509
 30
0.0
 11
555.97453420768045
 21
335.22141221174508
 31
0.0
  0
LINE
  5
6602
  8
AM_0
 10
341.0883532443429
 20
266.33396621174512
 30
0.0
 11
355.31906324434289
 21
266.33396621174512
 31
0.0
  0
LINE
  5
6603
  8
AM_0
 10
358.0883032443428
 20
188.20774121174509
 30
0.0
 11
358.0883032443428
 21
319.27044221174521
 31
0.0
  0
LINE
  5
6604
  8
AM_0
 10
356.01851324434301
 20
170.27089721174511
 30
0.0
 11
364.08833324434289
 21
169.98908321174511
 31
0.0
  0
LINE
  5
6605
  8
AM_0
 10
304.0883032443428
 20
303.48908621174508
 30
0.0
 11
333.1668532443428
 21
304.25053121174511
 31
0.0
  0
LINE
  5
6606
  8
AM_0
 10
544.24393420768058
 20
222.48908321174511
 30
0.0
 11
546.49870420768036
 21
179.46572321174509
 31
0.0
  0
LINE
  5
6607
  8
AM_0
 10
544.24396420768062
 20
222.4890982117451
 30
0.0
 11
544.24396420768062
 21
252.48910121174521
 31
0.0
  0
LINE
  5
6608
  8
AM_0
 10
556.48500220768062
 20
169.98908321174511
 30
0.0
 11
585.69468820768066
 21
169.98908321174511
 31
0.0
  0
LINE
  5
6609
  8
AM_0
 10
672.7932322076806
 20
169.98908321174511
 30
0.0
 11
702.00290320768056
 21
169.98908321174511
 31
0.0
  0
LINE
  5
660A
  8
AM_0
 10
714.24394720768055
 20
222.4890982117451
 30
0.0
 11
714.24394720768055
 21
252.48910121174521
 31
0.0
  0
LINE
  5
660B
  8
AM_0
 10
659.24394520768055
 20
337.48911221174512
 30
0.0
 11
629.24394520768055
 21
337.48911221174512
 31
0.0
  0
LINE
  5
660C
  8
AM_0
 10
304.0883032443428
 20
281.28614321174501
 30
0.0
 11
334.40657324434289
 21
281.28614321174501
 31
0.0
  0
LINE
  5
660D
  8
AM_0
 10
304.08836324434287
 20
158.98908221174511
 30
0.0
 11
340.08836324434287
 21
157.48908221174511
 31
0.0
  0
LINE
  5
660E
  8
AM_0
 10
340.08830324434291
 20
172.8995602117451
 30
0.0
 11
340.08830324434291
 21
157.48908221174511
 31
0.0
  0
LINE
  5
660F
  8
AM_0
 10
341.06213324434299
 20
173.89920821174499
 30
0.0
 11
354.08831324434288
 21
174.24030221174499
 31
0.0
  0
LINE
  5
6610
  8
AM_0
 10
368.01851324434301
 20
186.4915402117451
 30
0.0
 11
368.0883532443429
 21
186.4890982117451
 31
0.0
  0
LINE
  5
6611
  8
AM_0
 10
337.53650324434278
 20
292.21775321174511
 30
0.0
 11
354.5738032443428
 21
292.21775321174511
 31
0.0
  0
LINE
  5
6612
  8
AM_0
 10
577.24394320768045
 20
247.48911521174509
 30
0.0
 11
577.24394320768045
 21
230.4890992117451
 31
0.0
  0
LINE
  5
6613
  8
AM_0
 10
566.44270420768055
 20
254.48909921174501
 30
0.0
 11
574.47169720768056
 21
254.48909921174501
 31
0.0
  0
LINE
  5
6614
  8
AM_0
 10
662.24394520768055
 20
246.72281991441031
 30
0.0
 11
662.24394520768055
 21
232.48911521174509
 31
0.0
  0
LINE
  5
6615
  8
AM_0
 10
566.44270420768055
 20
250.48911521174509
 30
0.0
 11
574.24394320768045
 21
250.48911521174509
 31
0.0
  0
LINE
  5
6616
  8
AM_0
 10
671.85382420768076
 20
298.63450421174508
 30
0.0
 11
652.63319620768061
 21
279.41389121174512
 31
0.0
  0
LINE
  5
6617
  8
AM_0
 10
675.38937820768035
 20
295.09898021174507
 30
0.0
 11
656.16873520768047
 21
275.87833721174508
 31
0.0
  0
LINE
  5
6618
  8
AM_0
 10
586.63408120768054
 20
298.63450421174508
 30
0.0
 11
605.85472420768065
 21
279.4138612117452
 31
0.0
  0
LINE
  5
6619
  8
AM_0
 10
601.11668620768035
 20
157.58396021174511
 30
0.0
 11
657.37123420768035
 21
157.58396021174511
 31
0.0
  0
LINE
  5
661A
  8
AM_0
 10
667.24396120768063
 20
227.4890992117451
 30
0.0
 11
688.27783720768036
 21
227.4890992117451
 31
0.0
  0
LINE
  5
661B
  8
AM_0
 10
631.24396120768051
 20
315.29037221174508
 30
0.0
 11
631.24396120768051
 21
307.26135221174508
 31
0.0
  0
LINE
  5
661C
  8
AM_0
 10
627.24395920768052
 20
315.29037221174508
 30
0.0
 11
627.24395920768052
 21
307.26135221174508
 31
0.0
  0
LINE
  5
661D
  8
AM_0
 10
583.09855720768064
 20
295.09895021174509
 30
0.0
 11
602.31918520768056
 21
275.87833721174508
 31
0.0
  0
LINE
  5
661E
  8
AM_0
 10
692.04523120768044
 20
254.48909921174501
 30
0.0
 11
684.01620820768062
 21
254.48909921174501
 31
0.0
  0
LINE
  5
661F
  8
AM_0
 10
692.04523120768044
 20
250.48911521174509
 30
0.0
 11
684.24396220768062
 21
250.48911521174509
 31
0.0
  0
LINE
  5
6620
  8
AM_0
 10
585.69468820768066
 20
169.98908321174511
 30
0.0
 11
588.29277220768063
 21
174.4890982117451
 31
0.0
  0
LINE
  5
6621
  8
AM_0
 10
672.7932322076806
 20
169.98908321174511
 30
0.0
 11
670.19514820768063
 21
174.4890982117451
 31
0.0
  0
LINE
  5
6622
  8
AM_0
 10
304.0883032443428
 20
169.61901221174509
 30
0.0
 11
340.08830324434291
 21
169.61901221174509
 31
0.0
  0
LINE
  5
6623
  8
AM_0
 10
336.08834324434281
 20
298.72275821174492
 30
0.0
 11
352.41746324434291
 21
306.7925542117452
 31
0.0
  0
LINE
  5
6624
  8
AM_0
 10
338.0883532443429
 20
295.1462512117451
 30
0.0
 11
351.54440324434279
 21
295.1462512117451
 31
0.0
  0
LINE
  5
6625
  8
AM_0
 10
714.24394720768055
 20
282.48908621174508
 30
0.0
 11
714.24394720768055
 21
252.48910121174521
 31
0.0
  0
LINE
  5
6626
  8
AM_0
 10
714.24396220768062
 20
282.48908621174508
 30
0.0
 11
711.97630720768063
 21
325.7584822117451
 31
0.0
  0
LINE
  5
6627
  8
AM_0
 10
714.24396220768062
 20
222.48908321174511
 30
0.0
 11
711.98920120768037
 21
179.46573821174499
 31
0.0
  0
LINE
  5
6628
  8
AM_0
 10
659.24396020768063
 20
337.48908221174509
 30
0.0
 11
702.51337120768062
 21
335.22144221174511
 31
0.0
  0
LINE
  5
6629
  8
AM_0
 10
588.29277220768063
 20
174.48908321174511
 30
0.0
 11
670.19516320768048
 21
174.48908321174511
 31
0.0
  0
LINE
  5
662A
  8
AM_0
 10
596.24394520768055
 20
246.72281991441031
 30
0.0
 11
596.24394520768055
 21
232.48911521174509
 31
0.0
  0
LINE
  5
662B
  8
AM_0
 10
364.0883032443428
 20
291.11372021174509
 30
0.0
 11
368.0883532443429
 21
291.11372021174509
 31
0.0
  0
LINE
  5
662C
  8
AM_0
 10
364.0883032443428
 20
264.29206421174513
 30
0.0
 11
368.0883532443429
 21
264.29206421174513
 31
0.0
  0
LINE
  5
662D
  8
AM_0
 10
368.0883532443429
 20
291.11372021174509
 30
0.0
 11
368.0883532443429
 21
322.48908221174509
 31
0.0
  0
LINE
  5
662E
  8
AM_0
 10
576.68251120768036
 20
277.23310421174517
 30
0.0
 11
573.80751220768036
 21
272.25345821174511
 31
0.0
  0
LINE
  5
662F
  8
AM_0
 10
606.86667220768038
 20
164.58397721174501
 30
0.0
 11
603.99167020768061
 21
159.60433121174509
 31
0.0
  0
LINE
  5
6630
  8
AM_0
 10
603.99167020768061
 20
159.60431621174499
 30
0.0
 11
598.24166920768062
 21
159.60431621174499
 31
0.0
  0
LINE
  5
6631
  8
AM_0
 10
598.24168720768046
 20
159.60431621174499
 30
0.0
 11
595.36667020768061
 21
164.58397721174501
 31
0.0
  0
LINE
  5
6632
  8
AM_0
 10
595.36667020768061
 20
164.58397721174501
 30
0.0
 11
598.24166920768062
 21
169.5636232117451
 31
0.0
  0
LINE
  5
6633
  8
AM_0
 10
603.99167020768061
 20
169.5636232117451
 30
0.0
 11
598.24166920768062
 21
169.5636232117451
 31
0.0
  0
LINE
  5
6634
  8
AM_0
 10
606.86668720768046
 20
164.58397721174501
 30
0.0
 11
603.99168520768035
 21
169.5636232117451
 31
0.0
  0
LINE
  5
6635
  8
AM_0
 10
663.12123520768046
 20
164.58397721174501
 30
0.0
 11
660.24623620768045
 21
169.5636232117451
 31
0.0
  0
LINE
  5
6636
  8
AM_0
 10
660.24623620768045
 20
169.5636232117451
 30
0.0
 11
654.49625020768053
 21
169.5636232117451
 31
0.0
  0
LINE
  5
6637
  8
AM_0
 10
651.62123320768069
 20
164.58396221174499
 30
0.0
 11
654.49625020768053
 21
169.5636232117451
 31
0.0
  0
LINE
  5
6638
  8
AM_0
 10
654.49623520768046
 20
159.60433121174509
 30
0.0
 11
651.62123320768069
 21
164.58397721174501
 31
0.0
  0
LINE
  5
6639
  8
AM_0
 10
660.24623620768045
 20
159.60431621174499
 30
0.0
 11
654.49625020768053
 21
159.60431621174499
 31
0.0
  0
LINE
  5
663A
  8
AM_0
 10
663.12123520768046
 20
164.58397721174501
 30
0.0
 11
660.24623620768045
 21
159.60431621174499
 31
0.0
  0
LINE
  5
663B
  8
AM_0
 10
573.80751220768036
 20
272.25345821174511
 30
0.0
 11
568.05751120768036
 21
272.25345821174511
 31
0.0
  0
LINE
  5
663C
  8
AM_0
 10
568.05751120768036
 20
272.25342821174507
 30
0.0
 11
565.18251220768047
 21
277.23307421174502
 31
0.0
  0
LINE
  5
663D
  8
AM_0
 10
565.18248220768055
 20
277.23310421174517
 30
0.0
 11
568.05748120768055
 21
282.21275021174512
 31
0.0
  0
LINE
  5
663E
  8
AM_0
 10
573.80751220768036
 20
282.21275021174512
 30
0.0
 11
568.05751120768036
 21
282.21275021174512
 31
0.0
  0
LINE
  5
663F
  8
AM_0
 10
576.68251120768036
 20
277.23307421174502
 30
0.0
 11
573.80751220768036
 21
282.21275021174512
 31
0.0
  0
LINE
  5
6640
  8
AM_0
 10
693.30545620768055
 20
277.233014211745
 30
0.0
 11
690.43045420768055
 21
272.253368211745
 31
0.0
  0
LINE
  5
6641
  8
AM_0
 10
690.43045420768055
 20
272.25339821174509
 30
0.0
 11
684.68045620768055
 21
272.25339821174509
 31
0.0
  0
LINE
  5
6642
  8
AM_0
 10
684.68045620768055
 20
272.253368211745
 30
0.0
 11
681.80543920768037
 21
277.2330442117451
 31
0.0
  0
LINE
  5
6643
  8
AM_0
 10
681.80543920768037
 20
277.2330442117451
 30
0.0
 11
684.6804382076806
 21
282.21268721174511
 31
0.0
  0
LINE
  5
6644
  8
AM_0
 10
690.43045420768055
 20
282.21268721174511
 30
0.0
 11
684.68045620768055
 21
282.21268721174511
 31
0.0
  0
LINE
  5
6645
  8
AM_0
 10
693.30545620768055
 20
277.233014211745
 30
0.0
 11
690.43045420768055
 21
282.21268721174511
 31
0.0
  0
LINE
  5
6646
  8
AM_0
 10
299.08838324434282
 20
161.48908121174509
 30
0.0
 11
304.0883032443428
 21
161.48908121174509
 31
0.0
  0
LINE
  5
6647
  8
AM_0
 10
294.08831324434288
 20
158.98908221174511
 30
0.0
 11
304.0883032443428
 21
158.98908221174511
 31
0.0
  0
ARC
  5
6648
  8
AM_0
 10
299.08838324434282
 20
301.48911821174511
 30
0.0
 40
2.00000007
 50
90.00000299999769
 51
180.0000100000002
  0
ARC
  5
6649
  8
AM_0
 10
295.0883032443428
 20
285.98908721174507
 30
0.0
 40
2.00000007
 50
270.0
 51
0.0
  0
ARC
  5
664A
  8
AM_0
 10
294.08831324434288
 20
281.98911521174512
 30
0.0
 40
2.00000007
 50
90.00000299999769
 51
180.0000100000002
  0
ARC
  5
664B
  8
AM_0
 10
294.08831324434288
 20
276.87711821174508
 30
0.0
 40
2.00000007
 50
179.9999899999998
 51
270.0
  0
ARC
  5
664C
  8
AM_0
 10
290.08838324434282
 20
267.35642621174509
 30
0.0
 40
2.00000007
 50
270.0
 51
0.0
  0
ARC
  5
664D
  8
AM_0
 10
290.08838324434282
 20
174.859094211745
 30
0.0
 40
2.00000007
 50
0.0
 51
90.00000299999769
  0
ARC
  5
664E
  8
AM_0
 10
295.0883032443428
 20
298.72300421174509
 30
0.0
 40
2.00000007
 50
271.50000000000267
 51
0.0
  0
ARC
  5
6652
  8
AM_0
 10
341.0883532443429
 20
172.8995602117451
 30
0.0
 40
1.0000000199999981
 50
91.500001000001546
 51
180.0000100000002
  0
ARC
  5
6653
  8
AM_0
 10
561.95872720768045
 20
262.32245921174513
 30
0.0
 40
2.00000007
 50
351.68540999999948
 51
79.999998000000929
  0
ARC
  5
6654
  8
AM_0
 10
629.24394520768055
 20
252.48910121174521
 30
0.0
 40
66.000003000000007
 50
34.109953999997551
 51
145.8900400000021
  0
ARC
  5
6655
  8
AM_0
 10
696.52921120768076
 20
262.32245921174513
 30
0.0
 40
2.00000007
 50
99.999999999998593
 51
188.31458999999981
  0
ARC
  5
6656
  8
AM_0
 10
572.11451920768047
 20
291.18311621174507
 30
0.0
 40
3.0
 50
265.15681999999839
 51
325.89005000000031
  0
ARC
  5
6657
  8
AM_0
 10
696.52921120768076
 20
262.32245921174513
 30
0.0
 40
2.00000007
 50
8.3145873999999225
 51
99.999999999998593
  0
ARC
  5
6658
  8
AM_0
 10
687.55539520768036
 20
277.23310421174517
 30
0.0
 40
11.000000399999999
 50
311.14394000000323
 51
94.843180000001595
  0
ARC
  5
6659
  8
AM_0
 10
333.08831324434288
 20
307.24953221174508
 30
0.0
 40
3.0
 50
271.50000000000267
 51
0.0
  0
ARC
  5
665A
  8
AM_0
 10
574.71287620768067
 20
293.11372121174509
 30
0.0
 40
2.00000007
 50
235.00000000000259
 51
323.31459000000137
  0
ARC
  5
665B
  8
AM_0
 10
341.0883532443429
 20
316.56309221174507
 30
0.0
 40
5.0000001000000003
 50
91.999998000000545
 51
180.0000100000002
  0
ARC
  5
665C
  8
AM_0
 10
561.72117820768062
 20
266.69028821174498
 30
0.0
 40
3.0
 50
348.12283999999721
 51
48.856062999999523
  0
ARC
  5
665D
  8
AM_0
 10
696.76674220768064
 20
266.69028821174498
 30
0.0
 40
3.0
 50
131.14394000000331
 51
191.87716000000279
  0
ARC
  5
665E
  8
AM_0
 10
355.08830324434291
 20
188.20774121174509
 30
0.0
 40
3.0
 50
270.0
 51
0.0
  0
ARC
  5
665F
  8
AM_0
 10
570.93251020768037
 20
277.23310421174517
 30
0.0
 40
11.000000399999999
 50
85.1568180000002
 51
228.8560599999966
  0
ARC
  5
6660
  8
AM_0
 10
629.24394520768055
 20
252.48910121174521
 30
0.0
 40
70.000001999999995
 50
30.534626999999471
 51
149.46536999999981
  0
ARC
  5
6661
  8
AM_0
 10
629.24394520768055
 20
252.48910121174521
 30
0.0
 40
66.000003000000007
 50
0.0
 51
11.87716199999964
  0
ARC
  5
6662
  8
AM_0
 10
629.24394520768055
 20
232.48911521174509
 30
0.0
 40
71.000000999999983
 50
301.50671999999952
 51
305.22420999999957
  0
ARC
  5
6663
  8
AM_0
 10
683.77504420768048
 20
293.11372121174509
 30
0.0
 40
2.00000007
 50
304.99999999999739
 51
36.685413999996868
  0
ARC
  5
6664
  8
AM_0
 10
629.24394520768055
 20
252.48910121174521
 30
0.0
 40
52.000007999999987
 50
137.75567000000359
 51
174.78408999999999
  0
ARC
  5
6665
  8
AM_0
 10
669.73250320768045
 20
300.75584021174512
 30
0.0
 40
3.0
 50
315.0
 51
50.008388000003357
  0
ARC
  5
6666
  8
AM_0
 10
629.24394520768055
 20
252.48910121174521
 30
0.0
 40
52.000007999999987
 50
5.2159077000001099
 51
42.244334000004017
  0
ARC
  5
6667
  8
AM_0
 10
356.0883532443429
 20
335.20851221174507
 30
0.0
 40
2.00000007
 50
91.999998000000545
 51
180.0000100000002
  0
ARC
  5
6668
  8
AM_0
 10
561.95872720768045
 20
262.32245921174513
 30
0.0
 40
2.00000007
 50
79.999998000000929
 51
171.68541000000019
  0
ARC
  5
6669
  8
AM_0
 10
629.24394520768055
 20
252.48910121174521
 30
0.0
 40
66.000003000000007
 50
168.1228399999971
 51
0.0000100179130762
  0
ARC
  5
666A
  8
AM_0
 10
574.71287620768067
 20
293.11372121174509
 30
0.0
 40
2.00000007
 50
143.31457999999611
 51
235.00000999999719
  0
ARC
  5
666B
  8
AM_0
 10
684.24396220768062
 20
230.4890992117451
 30
0.0
 40
3.0
 50
179.9999899999998
 51
270.0
  0
ARC
  5
666C
  8
AM_0
 10
677.51068420768036
 20
292.97764121174509
 30
0.0
 40
3.0
 50
39.991611000003481
 51
135.0
  0
ARC
  5
666D
  8
AM_0
 10
629.24394520768055
 20
252.48910121174521
 30
0.0
 40
70.000001999999995
 50
0.0
 51
15.45248699999985
  0
ARC
  5
666E
  8
AM_0
 10
686.37340120768044
 20
291.18311621174507
 30
0.0
 40
3.0
 50
214.1099599999979
 51
274.84318000000161
  0
ARC
  5
666F
  8
AM_0
 10
341.0883532443429
 20
271.3339342117452
 30
0.0
 40
5.0000001000000003
 50
179.9999899999998
 51
270.0
  0
ARC
  5
6670
  8
AM_0
 10
629.24394520768055
 20
252.48910121174521
 30
0.0
 40
70.000001999999995
 50
164.54750999999871
 51
0.0000100179130762
  0
ARC
  5
6671
  8
AM_0
 10
356.0883532443429
 20
172.2696622117451
 30
0.0
 40
2.00000007
 50
179.9999899999998
 51
268.00000999999872
  0
ARC
  5
6672
  8
AM_0
 10
355.08830324434291
 20
319.27044221174521
 30
0.0
 40
3.0
 50
0.0
 51
90.00000299999769
  0
ARC
  5
6673
  8
ﾁｭｳｼﾝｾﾝ1
 10
629.24394520768055
 20
252.48910121174521
 30
0.0
 40
100.000011
 50
216.97203860267879
 51
233.02798570585759
  0
CIRCLE
  5
6674
  8
AM_0
 10
558.53327920768061
 20
323.19978221174517
 30
0.0
 40
6.0000002999999991
  0
ARC
  5
6675
  8
AM_0
 10
556.49791120768054
 20
325.23516221174509
 30
0.0
 40
10.000000200000001
 50
92.999999000001623
 51
176.9999900000002
  0
CIRCLE
  5
6676
  8
AM_0
 10
558.53327920768061
 20
181.77840521174511
 30
0.0
 40
6.0000002999999991
  0
CIRCLE
  5
6677
  8
AM_0
 10
699.95462620768046
 20
181.77840521174511
 30
0.0
 40
6.0000002999999991
  0
CIRCLE
  5
6678
  8
AM_0
 10
699.95462620768046
 20
323.19978221174517
 30
0.0
 40
6.0000002999999991
  0
ARC
  5
6679
  8
AM_0
 10
701.99000920768071
 20
325.23516221174509
 30
0.0
 40
10.000000200000001
 50
3.0000000999996601
 51
86.999998999996933
  0
ARC
  5
667B
  8
AM_0
 10
574.24394320768045
 20
230.4890992117451
 30
0.0
 40
3.0
 50
270.0
 51
0.0
  0
ARC
  5
667C
  8
AM_0
 10
607.97604520768061
 20
281.53519721174519
 30
0.0
 40
3.0
 50
225.0
 51
273.99789711117842
  0
ARC
  5
667D
  8
AM_0
 10
566.44270420768055
 20
257.48909921174487
 30
0.0
 40
3.0
 50
175.4479300000003
 51
270.0
  0
ARC
  5
667E
  8
AM_0
 10
566.44270420768055
 20
247.48911521174509
 30
0.0
 40
3.0
 50
90.00000299999769
 51
184.5520699999995
  0
ARC
  5
667F
  8
AM_0
 10
629.24394520768055
 20
252.48910121174521
 30
0.0
 40
52.000007999999987
 50
47.755664999999361
 51
84.78409399999758
  0
ARC
  5
6680
  8
AM_0
 10
650.51187520768053
 20
281.53519721174519
 30
0.0
 40
3.0
 50
266.0014741655441
 51
315.0
  0
ARC
  5
6681
  8
AM_0
 10
580.97725120768064
 20
292.97764121174509
 30
0.0
 40
3.0
 50
45.000001000003223
 51
140.00838999999601
  0
ARC
  5
6682
  8
AM_0
 10
658.29005920768054
 20
273.75703121174507
 30
0.0
 40
3.0
 50
135.0
 51
183.99899254674969
  0
ARC
  5
6683
  8
AM_0
 10
588.75538720768054
 20
300.75584021174512
 30
0.0
 40
3.0
 50
129.99160999999941
 51
225.0
  0
ARC
  5
6684
  8
AM_0
 10
357.08831324434288
 20
294.44074721174508
 30
0.0
 40
3.0
 50
179.9999899999998
 51
270.0
  0
ARC
  5
6685
  8
AM_0
 10
357.08831324434288
 20
205.33475621174509
 30
0.0
 40
3.0
 50
90.00000299999769
 51
180.0000100000002
  0
ARC
  5
6686
  8
AM_0
 10
589.52644420768036
 20
167.69309321174509
 30
0.0
 40
5.0000001000000003
 50
344.98364000000009
 51
56.872543000003112
  0
ARC
  5
6687
  8
AM_0
 10
601.11668620768035
 20
164.58396221174499
 30
0.0
 40
7.0000007999999987
 50
164.9194399999995
 51
270.0
  0
ARC
  5
6688
  8
AM_0
 10
668.96144620768064
 20
167.69309321174509
 30
0.0
 40
5.0000001000000003
 50
121.5067300000014
 51
195.01635000000289
  0
ARC
  5
6689
  8
AM_0
 10
570.21006820768037
 20
230.4890992117451
 30
0.0
 40
3.0
 50
200.43878000000279
 51
270.0
  0
ARC
  5
668A
  8
AM_0
 10
688.27783720768036
 20
230.4890992117451
 30
0.0
 40
3.0
 50
270.0
 51
339.56121999999698
  0
ARC
  5
668B
  8
AM_0
 10
591.24395920768052
 20
232.48911521174509
 30
0.0
 40
5.0000001000000003
 50
270.0
 51
0.0
  0
ARC
  5
668C
  8
AM_0
 10
667.24396120768063
 20
232.48911521174509
 30
0.0
 40
5.0000001000000003
 50
179.9999899999998
 51
270.0
  0
ARC
  5
668D
  8
AM_0
 10
351.08831324434288
 20
324.89970221174508
 30
0.0
 40
3.0
 50
271.9999999999971
 51
0.0
  0
ARC
  5
668E
  8
AM_0
 10
634.2439612076804
 20
307.26135221174508
 30
0.0
 40
3.0
 50
179.9999899999998
 51
264.78408999999982
  0
ARC
  5
668F
  8
AM_0
 10
574.47169720768056
 20
257.48909921174487
 30
0.0
 40
3.0
 50
270.0
 51
354.78408999999999
  0
ARC
  5
6690
  8
AM_0
 10
574.24394320768045
 20
247.48911521174509
 30
0.0
 40
3.0
 50
0.0
 51
90.00000299999769
  0
ARC
  5
6691
  8
AM_0
 10
684.24396220768062
 20
247.48911521174509
 30
0.0
 40
3.0
 50
90.00000299999769
 51
180.0000100000002
  0
ARC
  5
6692
  8
AM_0
 10
624.24395920768052
 20
307.26135221174508
 30
0.0
 40
3.0
 50
275.21591000000018
 51
0.0
  0
ARC
  5
6693
  8
AM_0
 10
634.2439612076804
 20
315.29037221174508
 30
0.0
 40
3.0
 50
85.447926999998117
 51
180.0000100000002
  0
ARC
  5
6694
  8
AM_0
 10
684.01620820768062
 20
257.48909921174487
 30
0.0
 40
3.0
 50
185.21590999999989
 51
270.0
  0
ARC
  5
6695
  8
AM_0
 10
600.1978612076806
 20
273.75703121174507
 30
0.0
 40
3.0
 50
356.0017853035049
 51
45.000001000003223
  0
ARC
  5
6696
  8
AM_0
 10
624.24395920768052
 20
315.29037221174508
 30
0.0
 40
3.0
 50
0.0
 51
94.552071000002115
  0
ARC
  5
6697
  8
AM_0
 10
692.04523120768044
 20
247.48911521174509
 30
0.0
 40
3.0
 50
355.44793000000038
 51
90.00000299999769
  0
ARC
  5
6698
  8
AM_0
 10
692.04523120768044
 20
257.48909921174487
 30
0.0
 40
3.0
 50
270.0
 51
4.5520713999997291
  0
ARC
  5
6699
  8
AM_0
 10
683.77504420768048
 20
293.11372121174509
 30
0.0
 40
2.00000007
 50
216.6854200000038
 51
304.99999999999739
  0
ARC
  5
669A
  8
AM_0
 10
351.54440324434279
 20
292.14625121174521
 30
0.0
 40
3.0
 50
22.48353600000339
 51
90.00000299999769
  0
ARC
  5
669B
  8
AM_0
 10
351.08831324434288
 20
309.48207221174511
 30
0.0
 40
3.0
 50
296.29843000000261
 51
0.0
  0
ARC
  5
669C
  8
AM_0
 10
338.0883532443429
 20
297.14625221174492
 30
0.0
 40
2.00000007
 50
179.9999899999998
 51
270.0
  0
ARC
  5
669D
  8
AM_0
 10
362.50244324434289
 20
282.79136321174508
 30
0.0
 40
3.0
 50
39.999999000003022
 51
58.086796999996537
  0
ARC
  5
669E
  8
AM_0
 10
556.48500220768062
 20
179.98909721174499
 30
0.0
 40
10.000000200000001
 50
183.00000999999969
 51
270.0
  0
ARC
  5
669F
  8
AM_0
 10
702.00290320768056
 20
179.98909721174499
 30
0.0
 40
10.000000200000001
 50
270.0
 51
357.00000000000023
  0
ARC
  5
66A0
  8
AM_0
 10
629.24394520768055
 20
232.48911521174509
 30
0.0
 40
71.000000999999983
 50
234.77579000000031
 51
238.4932699999986
  0
ARC
  5
66A1
  8
AM_0
 10
657.37123420768035
 20
164.58396221174499
 30
0.0
 40
7.0000007999999987
 50
270.000020000002
 51
15.08055899999691
  0
CIRCLE
  5
66A2
  8
AM_0
 10
601.11668620768035
 20
164.58396221174499
 30
0.0
 40
4.979646299999998
  0
CIRCLE
  5
66A3
  8
AM_0
 10
657.37123420768035
 20
164.58396221174499
 30
0.0
 40
4.979646299999998
  0
CIRCLE
  5
66A4
  8
AM_0
 10
570.93251020768037
 20
277.23310421174517
 30
0.0
 40
4.979646299999998
  0
CIRCLE
  5
66A5
  8
AM_0
 10
687.55544020768036
 20
277.2330442117451
 30
0.0
 40
4.979646299999998
  0
ARC
  5
66A6
  8
AM_0
 10
299.08838324434282
 20
163.48908221174511
 30
0.0
 40
2.00000007
 50
179.9999899999998
 51
270.0
  0
ARC
  5
66A7
  8
AM_0
 10
294.08831324434288
 20
160.989083211745
 30
0.0
 40
2.00000007
 50
179.9999899999998
 51
270.0
  0
ARC
  5
66BD
  8
AM_0
 10
629.24393010741528
 20
252.48910121174521
 30
0.0
 40
52.000007999999987
 50
95.215910999999593
 51
132.24432999999581
  0
LINE
  5
66C8
  8
ﾁｭｳｼﾝｾﾝ1
 10
708.43992258191895
 20
173.29315383750651
 30
0.0
 11
691.4693598334419
 21
190.2637165859839
 31
0.0
  0
ARC
  5
66C9
  8
ﾁｭｳｼﾝｾﾝ1
 10
629.24394520768055
 20
252.48910121174529
 30
0.0
 40
100.000011
 50
306.97203860268269
 51
323.0279857058552
  0
LINE
  5
66CA
  8
ﾁｭｳｼﾝｾﾝ1
 10
708.43989258191891
 20
331.68507858598372
 30
0.0
 11
691.46932983344175
 21
314.71451583750672
 31
0.0
  0
ARC
  5
66CB
  8
ﾁｭｳｼﾝｾﾝ1
 10
629.24394520768055
 20
252.48910121174521
 30
0.0
 40
100.000011
 50
36.972038602678822
 51
53.027985705857567
  0
LINE
  5
66CC
  8
ﾁｭｳｼﾝｾﾝ1
 10
550.04796783344193
 20
331.68504858598362
 30
0.0
 11
567.01853058191875
 21
314.71448583750617
 31
0.0
  0
ARC
  5
66CD
  8
ﾁｭｳｼﾝｾﾝ1
 10
629.24394520768033
 20
252.48910121174501
 30
0.0
 40
100.000011
 50
126.9720386026827
 51
143.02798570585529
  0
LINE
  5
6B51
  8
ﾁｭｳｼﾝｾﾝ
 10
98.297309951985085
 20
528.38129250818565
 30
0.0
 11
417.30800324434279
 21
528.38129250818565
 31
0.0
  0
LINE
  5
6B8F
  8
AM_0
 10
267.08834324434281
 20
464.88129250818582
 30
0.0
 11
267.08834324434281
 21
591.88129250818588
 31
0.0
  0
LINE
  5
6B9A
  8
AM_0
 10
379.08831324434288
 20
532.38126250818607
 30
0.0
 11
411.08831324434283
 21
532.38126250818607
 31
0.0
  0
LINE
  5
6B9B
  8
AM_0
 10
379.08831324434288
 20
532.38126250818607
 30
0.0
 11
379.08831324434288
 21
524.38129250818565
 31
0.0
  0
LINE
  5
6B9C
  8
AM_0
 10
377.08826324434273
 20
514.38129250818565
 30
0.0
 11
411.08831324434283
 21
514.38129250818565
 31
0.0
  0
LINE
  5
6B9D
  8
AM_0
 10
377.08826324434273
 20
542.38129250818577
 30
0.0
 11
411.08831324434283
 21
542.38129250818577
 31
0.0
  0
LINE
  5
6B9E
  8
AM_0
 10
411.08831324434283
 20
542.38129250818577
 30
0.0
 11
411.08831324434283
 21
514.38129250818565
 31
0.0
  0
LINE
  5
6B9F
  8
AM_0
 10
379.08831324434288
 20
524.38129250818565
 30
0.0
 11
411.08831324434283
 21
524.38129250818565
 31
0.0
  0
ARC
  5
6BD1
  8
AM_0
 10
379.08831324434288
 20
528.38126250818607
 30
0.0
 40
3.9999962
 50
90.000003000000945
 51
120.00085842361911
  0
ARC
  5
6BD2
  8
AM_0
 10
379.08831324434288
 20
528.38126250818607
 30
0.0
 40
3.9999962
 50
239.99914157638091
 51
270.0
  0
LINE
  5
6BD3
  8
AM_0
 10
108.08834324434289
 20
478.88129250818582
 30
0.0
 11
108.08834324434289
 21
479.411322508186
 31
0.0
  0
LINE
  5
6BD4
  8
AM_0
 10
108.08834324434289
 20
480.98126250818598
 30
0.0
 11
108.08834324434289
 21
481.53131250818598
 31
0.0
  0
LINE
  5
6BD5
  8
AM_0
 10
108.08834324434289
 20
485.55133250818602
 30
0.0
 11
108.08834324434289
 21
486.02130250818601
 31
0.0
  0
LINE
  5
6BD6
  8
AM_0
 10
107.8683132443427
 20
482.00128250818591
 30
0.0
 11
106.6183132443429
 21
482.66125250818601
 31
0.0
  0
LINE
  5
6BD7
  8
AM_0
 10
107.87832324434279
 20
479.89127250818592
 30
0.0
 11
106.6383332443429
 21
480.52127250818592
 31
0.0
  0
LINE
  5
6BD8
  8
AM_0
 10
107.85830324434291
 20
486.53125250818601
 30
0.0
 11
106.578333244343
 21
487.28125250818601
 31
0.0
  0
LINE
  5
6BD9
  8
AM_0
 10
108.328333244343
 20
479.78131250818598
 30
0.0
 11
110.58834324434299
 21
479.78131250818598
 31
0.0
  0
LINE
  5
6BDA
  8
AM_0
 10
108.33834324434299
 20
481.88129250818582
 30
0.0
 11
110.08834324434289
 21
481.88129250818582
 31
0.0
  0
LINE
  5
6BDB
  8
AM_0
 10
108.358363244343
 20
486.40131250818598
 30
0.0
 11
110.08834324434289
 21
486.40131250818598
 31
0.0
  0
LINE
  5
6BDC
  8
AM_0
 10
108.3883332443429
 20
485.26129250818599
 30
0.0
 11
111.08834324434299
 21
485.26129250818599
 31
0.0
  0
LINE
  5
6BDD
  8
AM_0
 10
108.3683732443431
 20
480.74127250818572
 30
0.0
 11
111.08834324434299
 21
480.74127250818572
 31
0.0
  0
LINE
  5
6BDE
  8
AM_0
 10
107.83834324434289
 20
485.42126250818592
 30
0.0
 11
106.5383532443429
 21
486.27127250818592
 31
0.0
  0
LINE
  5
6BDF
  8
AM_0
 10
107.8483532443429
 20
480.88126250818601
 30
0.0
 11
106.56832324434311
 21
481.65127250818603
 31
0.0
  0
LINE
  5
6BE0
  8
AM_0
 10
107.8583632443429
 20
478.77127250818592
 30
0.0
 11
106.5884032443429
 21
479.50125250818593
 31
0.0
  0
LINE
  5
6BE1
  8
AM_0
 10
108.358363244343
 20
478.63129250818571
 30
0.0
 11
110.58834324434299
 21
478.63129250818571
 31
0.0
  0
LINE
  5
6BE2
  8
AM_0
 10
106.08834324434299
 20
480.361272508186
 30
0.0
 11
106.08834324434299
 21
523.38129250818599
 31
0.0
  0
LINE
  5
6BE3
  8
AM_0
 10
106.578333244343
 20
487.28128250818571
 30
0.0
 11
106.558313244343
 21
487.29126250818592
 31
0.0
  0
LINE
  5
6BE4
  8
AM_0
 10
104.58834324434279
 20
511.10126250818593
 30
0.0
 11
106.08834324434299
 21
511.10126250818593
 31
0.0
  0
LINE
  5
6BE5
  8
AM_0
 10
104.58834324434279
 20
513.23126250818598
 30
0.0
 11
106.08834324434299
 21
513.23126250818598
 31
0.0
  0
LINE
  5
6BE6
  8
AM_0
 10
104.58834324434279
 20
508.38132250818592
 30
0.0
 11
106.08834324434299
 21
508.251312508186
 31
0.0
  0
LINE
  5
6BE7
  8
AM_0
 10
104.58834324434279
 20
508.38129250818599
 30
0.0
 11
104.58834324434279
 21
528.38129250818599
 31
0.0
  0
LINE
  5
6BE8
  8
AM_0
 10
108.08834324434289
 20
492.99127250818577
 30
0.0
 11
108.08834324434289
 21
494.05133250818602
 31
0.0
  0
LINE
  5
6BE9
  8
AM_0
 10
108.08834324434289
 20
502.75128250818602
 30
0.0
 11
108.08834324434289
 21
504.12128250818603
 31
0.0
  0
LINE
  5
6BEA
  8
AM_0
 10
108.08834324434289
 20
522.77130250818595
 30
0.0
 11
108.08834324434289
 21
523.93133250818607
 31
0.0
  0
LINE
  5
6BEB
  8
AM_0
 10
108.08834324434289
 20
512.77130250818595
 30
0.0
 11
108.08834324434289
 21
513.99127250818606
 31
0.0
  0
LINE
  5
6BEC
  8
AM_0
 10
110.08834324434289
 20
524.38129250818599
 30
0.0
 11
107.08834324434299
 21
524.38129250818599
 31
0.0
  0
LINE
  5
6BED
  8
AM_0
 10
110.08834324434289
 20
522.38129250818588
 30
0.0
 11
107.08834324434299
 21
522.38129250818588
 31
0.0
  0
LINE
  5
6BEE
  8
AM_0
 10
110.08834324434289
 20
514.38129250818588
 30
0.0
 11
107.08834324434299
 21
514.38129250818588
 31
0.0
  0
LINE
  5
6BEF
  8
AM_0
 10
110.08834324434289
 20
512.38129250818599
 30
0.0
 11
107.08834324434299
 21
512.38129250818599
 31
0.0
  0
LINE
  5
6BF0
  8
AM_0
 10
110.08834324434289
 20
504.38129250818599
 30
0.0
 11
107.08834324434299
 21
504.38129250818599
 31
0.0
  0
LINE
  5
6BF1
  8
AM_0
 10
110.08834324434289
 20
502.38129250818599
 30
0.0
 11
107.08834324434299
 21
502.38129250818599
 31
0.0
  0
LINE
  5
6BF2
  8
AM_0
 10
107.948333244343
 20
494.68130250818621
 30
0.0
 11
106.79836324434289
 21
495.04129250818602
 31
0.0
  0
LINE
  5
6BF3
  8
AM_0
 10
108.2383732443429
 20
494.64130250818567
 30
0.0
 11
110.08834324434289
 21
494.64130250818567
 31
0.0
  0
LINE
  5
6BF4
  8
AM_0
 10
107.89828324434291
 20
492.77127250818592
 30
0.0
 11
106.6983332443431
 21
493.29126250818598
 31
0.0
  0
LINE
  5
6BF5
  8
AM_0
 10
108.2883532443429
 20
492.69134250818598
 30
0.0
 11
110.3883332443429
 21
492.69134250818598
 31
0.0
  0
LINE
  5
6BF6
  8
AM_0
 10
104.58834324434279
 20
545.66132250818566
 30
0.0
 11
106.08834324434299
 21
545.66132250818566
 31
0.0
  0
LINE
  5
6BF7
  8
AM_0
 10
104.58834324434279
 20
543.53131250818592
 30
0.0
 11
106.08834324434299
 21
543.53131250818592
 31
0.0
  0
LINE
  5
6BF8
  8
AM_0
 10
104.5884032443429
 20
548.38132250818603
 30
0.0
 11
106.08834324434299
 21
548.51132250818591
 31
0.0
  0
LINE
  5
6BF9
  8
AM_0
 10
104.58834324434279
 20
548.38129250818599
 30
0.0
 11
104.58834324434279
 21
528.38129250818599
 31
0.0
  0
LINE
  5
6BFA
  8
AM_0
 10
108.08834324434289
 20
577.88129250818611
 30
0.0
 11
108.08834324434289
 21
577.35126250818598
 31
0.0
  0
LINE
  5
6BFB
  8
AM_0
 10
108.08834324434289
 20
575.78131250818615
 30
0.0
 11
108.08834324434289
 21
575.23126250818598
 31
0.0
  0
LINE
  5
6BFC
  8
AM_0
 10
108.08834324434289
 20
571.21124250818593
 30
0.0
 11
108.08834324434289
 21
570.74127250818583
 31
0.0
  0
LINE
  5
6BFD
  8
AM_0
 10
108.08834324434289
 20
563.77130250818595
 30
0.0
 11
108.08834324434289
 21
562.71124250818593
 31
0.0
  0
LINE
  5
6BFE
  8
AM_0
 10
108.08834324434289
 20
554.01129250818565
 30
0.0
 11
108.08834324434289
 21
552.64130250818596
 31
0.0
  0
LINE
  5
6BFF
  8
AM_0
 10
108.08834324434289
 20
533.99127250818594
 30
0.0
 11
108.08834324434289
 21
532.83124250818605
 31
0.0
  0
LINE
  5
6C00
  8
AM_0
 10
108.08834324434289
 20
543.99127250818594
 30
0.0
 11
108.08834324434289
 21
542.78131250818592
 31
0.0
  0
LINE
  5
6C01
  8
AM_0
 10
110.08834324434289
 20
532.38129250818599
 30
0.0
 11
107.08834324434299
 21
532.38129250818599
 31
0.0
  0
LINE
  5
6C02
  8
AM_0
 10
110.08834324434289
 20
534.38129250818588
 30
0.0
 11
107.08834324434299
 21
534.38129250818588
 31
0.0
  0
LINE
  5
6C03
  8
AM_0
 10
110.08834324434289
 20
542.38129250818588
 30
0.0
 11
107.08834324434299
 21
542.38129250818588
 31
0.0
  0
LINE
  5
6C04
  8
AM_0
 10
110.08834324434289
 20
544.38129250818599
 30
0.0
 11
107.08834324434299
 21
544.38129250818599
 31
0.0
  0
LINE
  5
6C05
  8
AM_0
 10
110.08834324434289
 20
552.38129250818599
 30
0.0
 11
107.08834324434299
 21
552.38129250818599
 31
0.0
  0
LINE
  5
6C06
  8
AM_0
 10
110.08834324434289
 20
554.38129250818588
 30
0.0
 11
107.08834324434299
 21
554.38129250818588
 31
0.0
  0
LINE
  5
6C07
  8
AM_0
 10
107.8683132443427
 20
574.77130250818607
 30
0.0
 11
106.6183732443431
 21
574.10132250818583
 31
0.0
  0
LINE
  5
6C08
  8
AM_0
 10
107.8783832443429
 20
576.88126250818596
 30
0.0
 11
106.6383332443429
 21
576.25125250818587
 31
0.0
  0
LINE
  5
6C09
  8
AM_0
 10
107.948333244343
 20
562.08127250818609
 30
0.0
 11
106.7983032443432
 21
561.73126250818609
 31
0.0
  0
LINE
  5
6C0A
  8
AM_0
 10
107.8583632443429
 20
570.23123250818605
 30
0.0
 11
106.578333244343
 21
569.48123250818583
 31
0.0
  0
LINE
  5
6C0B
  8
AM_0
 10
108.328333244343
 20
576.98126250818598
 30
0.0
 11
110.58834324434299
 21
576.98126250818598
 31
0.0
  0
LINE
  5
6C0C
  8
AM_0
 10
108.33834324434299
 20
574.88129250818599
 30
0.0
 11
110.08834324434289
 21
574.88129250818599
 31
0.0
  0
LINE
  5
6C0D
  8
AM_0
 10
108.358363244343
 20
570.37128250818614
 30
0.0
 11
110.08834324434289
 21
570.37128250818614
 31
0.0
  0
LINE
  5
6C0E
  8
AM_0
 10
108.2383732443429
 20
562.12128250818603
 30
0.0
 11
110.08834324434289
 21
562.12128250818603
 31
0.0
  0
LINE
  5
6C0F
  8
AM_0
 10
108.3883332443429
 20
571.51129250818599
 30
0.0
 11
111.08834324434299
 21
571.51129250818599
 31
0.0
  0
LINE
  5
6C10
  8
AM_0
 10
108.3683732443431
 20
576.02130250818595
 30
0.0
 11
111.08834324434299
 21
576.02130250818595
 31
0.0
  0
LINE
  5
6C11
  8
AM_0
 10
107.8984032443429
 20
563.99130250818598
 30
0.0
 11
106.6983932443429
 21
563.48129250818602
 31
0.0
  0
LINE
  5
6C12
  8
AM_0
 10
107.83834324434289
 20
571.34125250818568
 30
0.0
 11
106.5383532443429
 21
570.49127250818583
 31
0.0
  0
LINE
  5
6C13
  8
AM_0
 10
107.8482932443429
 20
575.88126250818596
 30
0.0
 11
106.56832324434311
 21
575.1113025081861
 31
0.0
  0
LINE
  5
6C14
  8
AM_0
 10
107.85830324434291
 20
578.00128250818568
 30
0.0
 11
106.5882832443431
 21
577.26129250818576
 31
0.0
  0
LINE
  5
6C15
  8
AM_0
 10
108.2883532443429
 20
564.07123250818597
 30
0.0
 11
110.3883332443429
 21
564.07123250818597
 31
0.0
  0
LINE
  5
6C16
  8
AM_0
 10
108.358363244343
 20
578.13129250818611
 30
0.0
 11
110.58834324434299
 21
578.13129250818611
 31
0.0
  0
LINE
  5
6C17
  8
AM_0
 10
106.08834324434299
 20
576.40131250818615
 30
0.0
 11
106.08834324434299
 21
533.38129250818599
 31
0.0
  0
LINE
  5
6C18
  8
AM_0
 10
258.08834324434292
 20
565.53131250818615
 30
0.0
 11
267.08834324434281
 21
565.53131250818615
 31
0.0
  0
LINE
  5
6C19
  8
AM_0
 10
259.08834324434292
 20
476.34125250818602
 30
0.0
 11
267.08834324434281
 21
476.34125250818602
 31
0.0
  0
LINE
  5
6C1A
  8
AM_0
 10
258.08834324434292
 20
491.23126250818598
 30
0.0
 11
267.08834324434281
 21
491.23126250818598
 31
0.0
  0
LINE
  5
6C1B
  8
AM_0
 10
259.08834324434292
 20
464.88129250818599
 30
0.0
 11
267.08834324434281
 21
464.88129250818628
 31
0.0
  0
LINE
  5
6C1C
  8
AM_0
 10
259.08834324434292
 20
580.42132250818577
 30
0.0
 11
267.08834324434281
 21
580.42132250818577
 31
0.0
  0
LINE
  5
6C1D
  8
AM_0
 10
259.08834324434292
 20
591.88129250818588
 30
0.0
 11
267.08834324434281
 21
591.88129250818588
 31
0.0
  0
LINE
  5
6C1E
  8
AM_0
 10
111.08834324434299
 20
470.95123250818602
 30
0.0
 11
113.9082932443427
 21
470.89123250818602
 31
0.0
  0
LINE
  5
6C1F
  8
AM_0
 10
152.08834324434309
 20
482.03131250818598
 30
0.0
 11
258.08834324434292
 21
482.03131250818598
 31
0.0
  0
LINE
  5
6C20
  8
AM_0
 10
252.798303244343
 20
467.88129250818571
 30
0.0
 11
258.08834324434292
 21
467.88129250818571
 31
0.0
  0
LINE
  5
6C21
  8
AM_0
 10
124.75833324434301
 20
495.0213025081859
 30
0.0
 11
219.10830324434301
 21
495.0213025081859
 31
0.0
  0
LINE
  5
6C22
  8
AM_0
 10
207.08834324434301
 20
492.38129250818582
 30
0.0
 11
125.6240532443431
 21
492.38129250818582
 31
0.0
  0
LINE
  5
6C23
  8
AM_0
 10
207.08834324434301
 20
491.66132250818578
 30
0.0
 11
254.908353244343
 21
491.66132250818578
 31
0.0
  0
LINE
  5
6C24
  8
AM_0
 10
124.75833324434301
 20
491.66132250818578
 30
0.0
 11
207.08834324434301
 21
491.66132250818578
 31
0.0
  0
LINE
  5
6C25
  8
AM_0
 10
124.7859732443429
 20
470.12128250818603
 30
0.0
 11
130.58834324434289
 21
470.12128250818603
 31
0.0
  0
LINE
  5
6C26
  8
AM_0
 10
134.08834324434289
 20
466.52130250818601
 30
0.0
 11
250.8983432443429
 21
466.52130250818601
 31
0.0
  0
LINE
  5
6C27
  8
AM_0
 10
124.84823324434311
 20
475.40131250818598
 30
0.0
 11
130.58834324434289
 21
475.40131250818598
 31
0.0
  0
LINE
  5
6C28
  8
AM_0
 10
121.08834324434279
 20
480.03131250818592
 30
0.0
 11
121.08834324434279
 21
494.08124250818571
 31
0.0
  0
LINE
  5
6C29
  8
AM_0
 10
111.08834324434299
 20
480.03131250818592
 30
0.0
 11
121.08834324434279
 21
480.03131250818592
 31
0.0
  0
LINE
  5
6C2A
  8
AM_0
 10
252.8283332443429
 20
468.01120250818599
 30
0.0
 11
256.288353244343
 21
480.92132250818599
 31
0.0
  0
LINE
  5
6C2B
  8
AM_0
 10
114.849633244343
 20
468.22229250818572
 30
0.0
 11
114.368373244343
 21
470.13129250818571
 31
0.0
  0
LINE
  5
6C2C
  8
AM_0
 10
115.27835324434309
 20
468.25122250818578
 30
0.0
 11
114.35830324434291
 21
472.13132250818597
 31
0.0
  0
LINE
  5
6C2D
  8
AM_0
 10
132.08834324434301
 20
466.49225250818603
 30
0.0
 11
132.08834324434301
 21
473.90131250818598
 31
0.0
  0
LINE
  5
6C2E
  8
AM_0
 10
112.9183632443429
 20
471.26129250818599
 30
0.0
 11
114.56832324434311
 21
471.26129250818599
 31
0.0
  0
LINE
  5
6C2F
  8
AM_0
 10
152.08834324434309
 20
574.73126250818598
 30
0.0
 11
258.08834324434292
 21
574.73126250818598
 31
0.0
  0
LINE
  5
6C30
  8
AM_0
 10
258.08834324434292
 20
465.88129250818582
 30
0.0
 11
258.08834324434292
 21
590.88129250818611
 31
0.0
  0
LINE
  5
6C31
  8
AM_0
 10
111.08834324434299
 20
585.81128250818597
 30
0.0
 11
113.9083532443432
 21
585.88129250818611
 31
0.0
  0
LINE
  5
6C32
  8
AM_0
 10
111.08834324434299
 20
470.95123250818602
 30
0.0
 11
111.08834324434299
 21
528.38129250818599
 31
0.0
  0
LINE
  5
6C33
  8
AM_0
 10
251.42831324434289
 20
492.38129250818582
 30
0.0
 11
207.08834324434301
 21
492.38129250818582
 31
0.0
  0
LINE
  5
6C34
  8
AM_0
 10
121.08834324434279
 20
576.73126250818575
 30
0.0
 11
121.08834324434279
 21
562.69134250818593
 31
0.0
  0
LINE
  5
6C35
  8
AM_0
 10
111.08834324434299
 20
562.69134250818593
 30
0.0
 11
121.08834324434279
 21
562.69134250818593
 31
0.0
  0
LINE
  5
6C36
  8
AM_0
 10
111.08834324434299
 20
571.07123250818597
 30
0.0
 11
121.08834324434279
 21
571.07123250818597
 31
0.0
  0
LINE
  5
6C37
  8
AM_0
 10
111.08834324434299
 20
576.73126250818575
 30
0.0
 11
121.08834324434279
 21
576.73126250818575
 31
0.0
  0
LINE
  5
6C38
  8
AM_0
 10
186.5304232443429
 20
514.38129250818588
 30
0.0
 11
116.6383332443429
 21
514.38129250818588
 31
0.0
  0
LINE
  5
6C39
  8
AM_0
 10
134.08834324434289
 20
590.24127250818583
 30
0.0
 11
250.8983432443429
 21
590.24127250818583
 31
0.0
  0
LINE
  5
6C3A
  8
AM_0
 10
125.04263324434289
 20
581.37128250818614
 30
0.0
 11
130.58834324434289
 21
581.37128250818614
 31
0.0
  0
LINE
  5
6C3B
  8
AM_0
 10
122.2976332443429
 20
575.37460250818583
 30
0.0
 11
123.08261324434299
 21
579.72128250818605
 31
0.0
  0
LINE
  5
6C3C
  8
AM_0
 10
124.97878324434291
 20
586.65131250818615
 30
0.0
 11
130.58834324434289
 21
586.65131250818615
 31
0.0
  0
LINE
  5
6C3D
  8
AM_0
 10
117.21835324434289
 20
590.05133250818608
 30
0.0
 11
130.58834324434289
 21
590.05133250818608
 31
0.0
  0
LINE
  5
6C3E
  8
AM_0
 10
117.1983332443431
 20
591.68133250818596
 30
0.0
 11
130.6983332443431
 21
591.68133250818596
 31
0.0
  0
LINE
  5
6C3F
  8
AM_0
 10
134.08834324434289
 20
594.30133250818585
 30
0.0
 11
252.17196324434289
 21
594.30133250818585
 31
0.0
  0
LINE
  5
6C40
  8
AM_0
 10
134.08834324434289
 20
593.63129250818599
 30
0.0
 11
252.31600324434299
 21
593.63129250818599
 31
0.0
  0
LINE
  5
6C41
  8
AM_0
 10
134.08834324434289
 20
592.27130250818595
 30
0.0
 11
252.60830324434301
 21
592.27130250818595
 31
0.0
  0
LINE
  5
6C42
  8
AM_0
 10
120.60262324434279
 20
579.42132250818577
 30
0.0
 11
123.02261324434291
 21
579.42132250818577
 31
0.0
  0
LINE
  5
6C43
  8
AM_0
 10
123.0325632443429
 20
585.07132250818597
 30
0.0
 11
122.07253324434311
 21
580.60123250818583
 31
0.0
  0
LINE
  5
6C44
  8
AM_0
 10
112.8983432443427
 20
583.48126250818609
 30
0.0
 11
122.69113324434289
 21
583.48126250818609
 31
0.0
  0
LINE
  5
6C45
  8
AM_0
 10
251.42831324434289
 20
564.38129250818611
 30
0.0
 11
125.6383332443431
 21
564.38129250818611
 31
0.0
  0
LINE
  5
6C46
  8
AM_0
 10
251.42831324434289
 20
562.38129250818599
 30
0.0
 11
237.08834324434289
 21
562.38129250818599
 31
0.0
  0
LINE
  5
6C47
  8
AM_0
 10
251.43545324434311
 20
554.38129250818588
 30
0.0
 11
237.08834324434289
 21
554.38129250818588
 31
0.0
  0
LINE
  5
6C48
  8
AM_0
 10
115.27835324434309
 20
588.51132250818614
 30
0.0
 11
114.35830324434291
 21
584.64127250818615
 31
0.0
  0
LINE
  5
6C49
  8
AM_0
 10
251.42117324434301
 20
552.38129250818599
 30
0.0
 11
125.6383332443431
 21
552.38129250818599
 31
0.0
  0
LINE
  5
6C4A
  8
AM_0
 10
112.9183632443429
 20
585.50128250818602
 30
0.0
 11
114.56832324434311
 21
585.50128250818602
 31
0.0
  0
LINE
  5
6C4B
  8
AM_0
 10
115.25833324434289
 20
590.17123250818588
 30
0.0
 11
114.368373244343
 21
586.64133250818577
 31
0.0
  0
LINE
  5
6C4C
  8
AM_0
 10
186.52706324434311
 20
544.38129250818599
 30
0.0
 11
116.6383332443429
 21
544.38129250818599
 31
0.0
  0
LINE
  5
6C4D
  8
AM_0
 10
132.08834324434301
 20
590.27130250818595
 30
0.0
 11
132.08834324434301
 21
582.87128250818614
 31
0.0
  0
LINE
  5
6C4E
  8
AM_0
 10
186.52706324434311
 20
542.38129250818588
 30
0.0
 11
116.6383332443429
 21
542.38129250818588
 31
0.0
  0
LINE
  5
6C4F
  8
AM_0
 10
186.5304232443429
 20
534.38129250818588
 30
0.0
 11
116.6383332443429
 21
534.38129250818588
 31
0.0
  0
LINE
  5
6C50
  8
AM_0
 10
186.5304232443429
 20
532.38129250818599
 30
0.0
 11
116.6383332443429
 21
532.38129250818599
 31
0.0
  0
LINE
  5
6C51
  8
AM_0
 10
252.8283332443429
 20
588.76132250818569
 30
0.0
 11
256.288353244343
 21
575.84125250818602
 31
0.0
  0
LINE
  5
6C52
  8
AM_0
 10
254.548733244343
 20
588.88129250818611
 30
0.0
 11
258.08834324434292
 21
588.88129250818611
 31
0.0
  0
LINE
  5
6C53
  8
AM_0
 10
257.79830324434312
 20
579.42132250818577
 30
0.0
 11
255.37832324434291
 21
579.42132250818577
 31
0.0
  0
LINE
  5
6C54
  8
AM_0
 10
253.638543244343
 20
593.11645250818583
 30
0.0
 11
256.32836324434288
 21
580.60123250818583
 31
0.0
  0
LINE
  5
6C55
  8
AM_0
 10
111.08834324434299
 20
585.81134250818604
 30
0.0
 11
111.08834324434299
 21
528.38129250818599
 31
0.0
  0
LINE
  5
6C56
  8
AM_0
 10
111.08834324434299
 20
494.08124250818571
 30
0.0
 11
121.08834324434279
 21
494.08124250818571
 31
0.0
  0
LINE
  5
6C57
  8
AM_0
 10
116.7889732443429
 20
466.71124250818582
 30
0.0
 11
130.83108324434329
 21
466.71124250818582
 31
0.0
  0
LINE
  5
6C58
  8
AM_0
 10
111.08834324434299
 20
485.69134250818593
 30
0.0
 11
121.08834324434279
 21
485.69134250818593
 31
0.0
  0
LINE
  5
6C59
  8
AM_0
 10
112.8983432443427
 20
473.28131250818592
 30
0.0
 11
122.69113324434289
 21
473.28131250818592
 31
0.0
  0
LINE
  5
6C5A
  8
AM_0
 10
134.08834324434289
 20
464.491272508186
 30
0.0
 11
175.41470324434289
 21
464.491272508186
 31
0.0
  0
LINE
  5
6C5B
  8
AM_0
 10
124.54836324434289
 20
501.90131250818592
 30
0.0
 11
219.08834324434281
 21
501.90131250818592
 31
0.0
  0
LINE
  5
6C5C
  8
AM_0
 10
219.08834324434281
 20
494.38129250818582
 30
0.0
 11
125.6240532443431
 21
494.38129250818582
 31
0.0
  0
LINE
  5
6C5D
  8
AM_0
 10
124.75833324434301
 20
565.11127250818595
 30
0.0
 11
254.908353244343
 21
565.11127250818595
 31
0.0
  0
LINE
  5
6C5E
  8
AM_0
 10
124.75833324434301
 20
561.75128250818602
 30
0.0
 11
219.10830324434301
 21
561.75128250818602
 31
0.0
  0
LINE
  5
6C5F
  8
AM_0
 10
124.54836324434289
 20
554.8712825081858
 30
0.0
 11
219.08834324434281
 21
554.8712825081858
 31
0.0
  0
LINE
  5
6C60
  8
AM_0
 10
124.54836324434289
 20
551.95123250818585
 30
0.0
 11
255.12258324434291
 21
551.95123250818585
 31
0.0
  0
LINE
  5
6C61
  8
AM_0
 10
115.4183632443431
 20
544.73126250818609
 30
0.0
 11
187.759613244343
 21
544.73126250818609
 31
0.0
  0
LINE
  5
6C62
  8
AM_0
 10
115.4183632443431
 20
542.06134250818604
 30
0.0
 11
187.7470332443429
 21
542.06134250818604
 31
0.0
  0
LINE
  5
6C63
  8
AM_0
 10
115.3583632443427
 20
534.661322508186
 30
0.0
 11
187.82345324434289
 21
534.661322508186
 31
0.0
  0
LINE
  5
6C64
  8
AM_0
 10
115.3583632443427
 20
532.12128250818603
 30
0.0
 11
187.82345324434289
 21
532.12128250818603
 31
0.0
  0
LINE
  5
6C65
  8
AM_0
 10
115.3583632443427
 20
524.65131250818604
 30
0.0
 11
187.82345324434289
 21
524.65131250818604
 31
0.0
  0
LINE
  5
6C66
  8
AM_0
 10
186.5304232443429
 20
522.38129250818588
 30
0.0
 11
116.6383332443429
 21
522.38129250818588
 31
0.0
  0
LINE
  5
6C67
  8
AM_0
 10
186.5304232443429
 20
524.38129250818599
 30
0.0
 11
116.6383332443429
 21
524.38129250818599
 31
0.0
  0
LINE
  5
6C68
  8
AM_0
 10
115.4183632443431
 20
514.70123250818619
 30
0.0
 11
187.759613244343
 21
514.70123250818619
 31
0.0
  0
LINE
  5
6C69
  8
AM_0
 10
186.5304232443429
 20
512.38129250818599
 30
0.0
 11
116.6383332443429
 21
512.38129250818599
 31
0.0
  0
LINE
  5
6C6A
  8
AM_0
 10
115.4183632443431
 20
512.04132250818589
 30
0.0
 11
187.759613244343
 21
512.04132250818589
 31
0.0
  0
LINE
  5
6C6B
  8
AM_0
 10
251.42117324434301
 20
504.38129250818599
 30
0.0
 11
125.6240532443431
 21
504.38129250818599
 31
0.0
  0
LINE
  5
6C6C
  8
AM_0
 10
124.54836324434289
 20
504.82123250818597
 30
0.0
 11
255.12258324434291
 21
504.82123250818597
 31
0.0
  0
LINE
  5
6C6D
  8
AM_0
 10
251.42117324434301
 20
502.38129250818599
 30
0.0
 11
237.08834324434289
 21
502.38129250818599
 31
0.0
  0
LINE
  5
6C6E
  8
AM_0
 10
251.42831324434289
 20
494.38129250818582
 30
0.0
 11
237.08834324434289
 21
494.38129250818582
 31
0.0
  0
LINE
  5
6C6F
  8
AM_0
 10
115.3583632443427
 20
522.11127250818595
 30
0.0
 11
187.82345324434289
 21
522.11127250818595
 31
0.0
  0
LINE
  5
6C70
  8
AM_0
 10
122.297573244343
 20
481.38791250818599
 30
0.0
 11
123.08261324434299
 21
477.041232508186
 31
0.0
  0
LINE
  5
6C71
  8
AM_0
 10
120.60262324434279
 20
477.34125250818602
 30
0.0
 11
123.02261324434291
 21
477.34125250818602
 31
0.0
  0
LINE
  5
6C72
  8
AM_0
 10
123.0326232443429
 20
471.69128250818602
 30
0.0
 11
122.0726032443427
 21
476.16125250818601
 31
0.0
  0
LINE
  5
6C73
  8
AM_0
 10
238.60195324434309
 20
458.38129250818599
 30
0.0
 11
250.10452324434289
 21
458.38129250818599
 31
0.0
  0
LINE
  5
6C74
  8
AM_0
 10
257.08837324434307
 20
467.88126250818578
 30
0.0
 11
251.36257324434311
 21
459.06430250818602
 31
0.0
  0
LINE
  5
6C75
  8
AM_0
 10
220.58834324434289
 20
500.88129250818582
 30
0.0
 11
220.58834324434289
 21
495.88129250818599
 31
0.0
  0
LINE
  5
6C76
  8
AM_0
 10
235.58834324434289
 20
500.88129250818582
 30
0.0
 11
235.58834324434289
 21
495.88129250818599
 31
0.0
  0
LINE
  5
6C77
  8
AM_0
 10
219.08834324434281
 20
502.38129250818599
 30
0.0
 11
125.6240532443431
 21
502.38129250818599
 31
0.0
  0
LINE
  5
6C78
  8
AM_0
 10
220.10830324434309
 20
500.88129250818582
 30
0.0
 11
220.10830324434309
 21
496.02130250818601
 31
0.0
  0
LINE
  5
6C79
  8
AM_0
 10
236.06832324434299
 20
500.88129250818582
 30
0.0
 11
236.06832324434299
 21
496.02130250818601
 31
0.0
  0
LINE
  5
6C7A
  8
AM_0
 10
237.08834324434289
 20
501.90131250818592
 30
0.0
 11
255.12258324434291
 21
501.90131250818592
 31
0.0
  0
LINE
  5
6C7B
  8
AM_0
 10
237.06832324434291
 20
495.0213025081859
 30
0.0
 11
254.908353244343
 21
495.0213025081859
 31
0.0
  0
LINE
  5
6C7C
  8
AM_0
 10
236.06832324434299
 20
555.88129250818588
 30
0.0
 11
236.06832324434299
 21
560.74127250818594
 31
0.0
  0
LINE
  5
6C7D
  8
AM_0
 10
220.10830324434309
 20
555.88129250818588
 30
0.0
 11
220.10830324434309
 21
560.74127250818594
 31
0.0
  0
LINE
  5
6C7E
  8
AM_0
 10
235.58834324434289
 20
555.88129250818588
 30
0.0
 11
235.58834324434289
 21
560.88129250818599
 31
0.0
  0
LINE
  5
6C7F
  8
AM_0
 10
220.58834324434289
 20
555.88129250818588
 30
0.0
 11
220.58834324434289
 21
560.88129250818599
 31
0.0
  0
LINE
  5
6C80
  8
AM_0
 10
219.08834324434281
 20
562.38129250818599
 30
0.0
 11
125.6383332443431
 21
562.38129250818599
 31
0.0
  0
LINE
  5
6C81
  8
AM_0
 10
237.06832324434291
 20
561.75128250818602
 30
0.0
 11
254.908353244343
 21
561.75128250818602
 31
0.0
  0
LINE
  5
6C82
  8
AM_0
 10
237.08834324434289
 20
554.8712825081858
 30
0.0
 11
255.134063244343
 21
554.8712825081858
 31
0.0
  0
LINE
  5
6C83
  8
AM_0
 10
219.08834324434281
 20
554.38129250818588
 30
0.0
 11
125.6383332443431
 21
554.38129250818588
 31
0.0
  0
LINE
  5
6C84
  8
AM_0
 10
192.08834324434289
 20
548.88129250818599
 30
0.0
 11
192.08834324434289
 21
507.88129250818599
 31
0.0
  0
LINE
  5
6C85
  8
AM_0
 10
255.08834324434289
 20
548.88129250818599
 30
0.0
 11
255.08834324434289
 21
507.88129250818599
 31
0.0
  0
LINE
  5
6C86
  8
AM_0
 10
192.08834324434289
 20
548.88129250818599
 30
0.0
 11
255.08834324434289
 21
548.88129250818599
 31
0.0
  0
LINE
  5
6C87
  8
AM_0
 10
192.08834324434289
 20
507.88129250818599
 30
0.0
 11
255.08834324434289
 21
507.88129250818599
 31
0.0
  0
LINE
  5
6C88
  8
AM_0
 10
192.08834324434289
 20
541.38129250818599
 30
0.0
 11
255.08834324434289
 21
541.38129250818599
 31
0.0
  0
LINE
  5
6C89
  8
AM_0
 10
152.08834324434309
 20
574.73120250818602
 30
0.0
 11
121.08834324434279
 21
572.70120250818616
 31
0.0
  0
LINE
  5
6C8A
  8
AM_0
 10
152.08834324434309
 20
482.03125250818601
 30
0.0
 11
121.08834324434279
 21
484.06125250818599
 31
0.0
  0
ARC
  5
6C8B
  8
AM_0
 10
110.58883324434279
 20
478.13177250818592
 30
0.0
 40
0.49952301
 50
359.9452300000014
 51
90.054773999999625
  0
ARC
  5
6C8C
  8
AM_0
 10
110.5849932443429
 20
480.28473250818593
 30
0.0
 40
0.5033929900000002
 50
270.38491000000062
 51
359.61509999999811
  0
ARC
  5
6C8D
  8
AM_0
 10
110.0842532443429
 20
482.88544250818597
 30
0.0
 40
1.004119999999999
 50
270.23460999999998
 51
359.76539000000002
  0
ARC
  5
6C8E
  8
AM_0
 10
110.0859032443431
 20
487.40375250818602
 30
0.0
 40
1.002470999999999
 50
270.14107000000013
 51
359.85892999999987
  0
ARC
  5
6C8F
  8
AM_0
 10
107.08712324434291
 20
482.50482250818601
 30
0.0
 40
0.9987969999999998
 50
179.62728000000101
 51
238.70795000000021
  0
ARC
  5
6C90
  8
AM_0
 10
107.0860832443429
 20
483.54254250818599
 30
0.0
 40
0.9977070099999998
 50
180.074020000004
 51
242.04481000000081
  0
ARC
  5
6C91
  8
AM_0
 10
107.0874332443431
 20
487.10602250818602
 30
0.0
 40
0.9990889999999998
 50
179.6950899999965
 51
236.66209000000279
  0
ARC
  5
6C92
  8
AM_0
 10
107.08682324434299
 20
488.14056250818601
 30
0.0
 40
0.9984580299999999
 50
179.95957999999851
 51
239.38657000000219
  0
ARC
  5
6C93
  8
AM_0
 10
108.3517132443431
 20
487.40228250818598
 30
0.0
 40
1.0010449999999991
 50
240.4718699999996
 51
270.37970999999948
  0
ARC
  5
6C94
  8
AM_0
 10
108.38113324434291
 20
486.261782508186
 30
0.0
 40
1.000521999999999
 50
237.1461799999995
 51
270.41344000000038
  0
ARC
  5
6C95
  8
AM_0
 10
108.34353324434279
 20
482.88190250818599
 30
0.0
 40
1.0006820000000001
 50
241.65062000000049
 51
269.70392999999888
  0
ARC
  5
6C96
  8
AM_0
 10
108.359703244343
 20
481.74493250818591
 30
0.0
 40
1.0037439999999991
 50
239.3711300000019
 51
270.49190000000061
  0
ARC
  5
6C97
  8
AM_0
 10
108.334193244343
 20
480.78058250818577
 30
0.0
 40
0.9993420200000001
 50
242.86200000000241
 51
269.6654599999984
  0
ARC
  5
6C98
  8
AM_0
 10
108.36904324434271
 20
479.6323825081858
 30
0.0
 40
1.001123999999999
 50
239.3278200000014
 51
269.38767999999868
  0
ARC
  5
6C99
  8
AM_0
 10
107.0840132443432
 20
481.411682508186
 30
0.0
 40
0.9956849800000001
 50
180.02113
 51
243.4091400000006
  0
ARC
  5
6C9A
  8
AM_0
 10
107.08596324434291
 20
480.36590250818602
 30
0.0
 40
0.9976310099999999
 50
180.2678099999986
 51
240.0792399999994
  0
ARC
  5
6C9B
  8
AM_0
 10
107.08682324434299
 20
488.14056250818601
 30
0.0
 40
0.9984580299999999
 50
179.95957999999851
 51
239.38657000000219
  0
ARC
  5
6C9C
  8
AM_0
 10
110.08511324434291
 20
487.40802250818598
 30
0.0
 40
1.0032760000000001
 50
334.19810000000479
 51
359.6181099999983
  0
ARC
  5
6C9D
  8
AM_0
 10
110.0885332443429
 20
511.38141250818597
 30
0.0
 40
0.9998210099999999
 50
359.98971999999799
 51
90.010282000001538
  0
ARC
  5
6C9E
  8
AM_0
 10
110.0834032443429
 20
515.38617250818595
 30
0.0
 40
1.004939
 50
270.2809399999997
 51
359.71907000000078
  0
ARC
  5
6C9F
  8
AM_0
 10
110.0885332443429
 20
521.38141250818603
 30
0.0
 40
0.9998279799999998
 50
359.99015999999688
 51
90.009838000000187
  0
ARC
  5
6CA0
  8
AM_0
 10
110.0834032443429
 20
525.38617250818595
 30
0.0
 40
1.004942999999999
 50
270.28113999999943
 51
359.71886999999822
  0
ARC
  5
6CA1
  8
AM_0
 10
107.0834032443429
 20
523.38617250818595
 30
0.0
 40
0.9950770099999999
 50
89.715859999999481
 51
180.28414000000049
  0
ARC
  5
6CA2
  8
AM_0
 10
107.0885332443429
 20
523.38153250818596
 30
0.0
 40
1.0002040000000001
 50
180.01165999999679
 51
269.98832000000078
  0
ARC
  5
6CA3
  8
AM_0
 10
107.0834032443429
 20
513.38617250818595
 30
0.0
 40
0.9950810099999999
 50
89.716072000000082
 51
180.2839200000044
  0
ARC
  5
6CA4
  8
AM_0
 10
107.0885332443429
 20
513.38153250818607
 30
0.0
 40
1.0001999999999991
 50
180.01145999999861
 51
269.98854000000142
  0
ARC
  5
6CA5
  8
AM_0
 10
107.0834032443429
 20
503.38617250818561
 30
0.0
 40
0.9950849999999999
 50
89.716282999999422
 51
180.28371999999919
  0
ARC
  5
6CA6
  8
AM_0
 10
107.0885332443429
 20
503.38153250818573
 30
0.0
 40
1.0001959999999981
 50
180.01124999999951
 51
269.98875000000061
  0
ARC
  5
6CA7
  8
AM_0
 10
107.084863244343
 20
494.20978250818598
 30
0.0
 40
0.9965090199999998
 50
179.9137499999965
 51
247.17844999999909
  0
ARC
  5
6CA8
  8
AM_0
 10
107.0847432443429
 20
495.99567250818598
 30
0.0
 40
0.99638802
 50
180.24990999999889
 51
253.29664000000031
  0
ARC
  5
6CA9
  8
AM_0
 10
108.2289132443432
 20
495.64398250818601
 30
0.0
 40
1.002699
 50
253.75271999999791
 51
270.54064000000108
  0
ARC
  5
6CAA
  8
AM_0
 10
108.2913532443427
 20
493.69647250818599
 30
0.0
 40
1.005233
 50
246.98639000000031
 51
269.82924999999938
  0
ARC
  5
6CAB
  8
AM_0
 10
110.38888324434291
 20
491.99188250818571
 30
0.0
 40
0.6994530000000001
 50
359.95517000000092
 51
90.044829000000746
  0
ARC
  5
6CAC
  8
AM_0
 10
110.0885332443429
 20
501.38141250818592
 30
0.0
 40
0.9998239899999999
 50
359.98991999999532
 51
90.01007700000045
  0
ARC
  5
6CAD
  8
AM_0
 10
110.0834032443429
 20
505.38617250818572
 30
0.0
 40
1.0049469
 50
270.28136999999919
 51
359.71863000000081
  0
ARC
  5
6CAE
  8
AM_0
 10
110.0849932443427
 20
495.64459250818601
 30
0.0
 40
1.003352
 50
270.19111000000021
 51
359.80890000000107
  0
ARC
  5
6CAF
  8
AM_0
 10
110.5837632443429
 20
578.63592250818579
 30
0.0
 40
0.50463498
 50
270.52383000000037
 51
359.47616999999963
  0
ARC
  5
6CB0
  8
AM_0
 10
110.5900532443431
 20
576.48297250818598
 30
0.0
 40
0.4983060100000002
 50
359.80488999999778
 51
90.195107000000036
  0
ARC
  5
6CB1
  8
AM_0
 10
110.0893232443433
 20
573.88226250818605
 30
0.0
 40
0.9990100299999999
 50
359.94319000000121
 51
90.056809000000058
  0
ARC
  5
6CB2
  8
AM_0
 10
110.3838132443431
 20
564.77582250818614
 30
0.0
 40
0.704566
 50
270.37010000000009
 51
359.62990999999778
  0
ARC
  5
6CB3
  8
AM_0
 10
110.0860232443427
 20
569.36896250818597
 30
0.0
 40
1.002353
 50
0.1343268199984526
 51
89.865672999999376
  0
ARC
  5
6CB4
  8
AM_0
 10
110.0900532443431
 20
561.12298250818594
 30
0.0
 40
0.9982839799999999
 50
359.90142000000009
 51
90.098576000001358
  0
ARC
  5
6CB5
  8
AM_0
 10
110.0834032443429
 20
555.38617250818595
 30
0.0
 40
1.004942999999999
 50
270.28111000000013
 51
359.71888999999987
  0
ARC
  5
6CB6
  8
AM_0
 10
110.0885332443429
 20
551.38141250818603
 30
0.0
 40
0.9998289899999999
 50
359.99019000000038
 51
90.009811000000937
  0
ARC
  5
6CB7
  8
AM_0
 10
110.0834032443429
 20
545.38617250818606
 30
0.0
 40
1.004939
 50
270.2809100000008
 51
359.71909999999991
  0
ARC
  5
6CB8
  8
AM_0
 10
110.0885332443429
 20
541.38141250818603
 30
0.0
 40
0.9998210099999999
 50
359.98975000000149
 51
90.010254999998992
  0
ARC
  5
6CB9
  8
AM_0
 10
110.0834032443429
 20
535.38617250818595
 30
0.0
 40
1.0049469
 50
270.28135000000037
 51
359.71866000000068
  0
ARC
  5
6CBA
  8
AM_0
 10
110.0885332443429
 20
531.38141250818603
 30
0.0
 40
0.9998249999999999
 50
359.98994999999883
 51
90.010050000001243
  0
ARC
  5
6CBB
  8
AM_0
 10
107.0885332443429
 20
533.38153250818618
 30
0.0
 40
1.0001959999999981
 50
180.0112199999958
 51
269.98878000000087
  0
ARC
  5
6CBC
  8
AM_0
 10
107.0834032443429
 20
533.38617250818595
 30
0.0
 40
0.9950849999999999
 50
89.716311000000914
 51
180.28368999999961
  0
ARC
  5
6CBD
  8
AM_0
 10
107.0885332443429
 20
543.38153250818607
 30
0.0
 40
1.0001999999999991
 50
180.01143000000161
 51
269.98856999999839
  0
ARC
  5
6CBE
  8
AM_0
 10
107.0834032443429
 20
543.38617250818595
 30
0.0
 40
0.99508202
 50
89.716099000001435
 51
180.2839099999978
  0
ARC
  5
6CBF
  8
AM_0
 10
107.0885332443429
 20
553.38153250818596
 30
0.0
 40
1.000203
 50
180.01164999999551
 51
269.98835000000122
  0
ARC
  5
6CC0
  8
AM_0
 10
107.0834032443429
 20
553.38617250818606
 30
0.0
 40
0.99507803
 50
89.715887000001331
 51
180.28410999999991
  0
ARC
  5
6CC1
  8
AM_0
 10
107.0847432443429
 20
562.56280250818577
 30
0.0
 40
0.9963999999999998
 50
112.8173600000008
 51
180.0904199999996
  0
ARC
  5
6CC2
  8
AM_0
 10
107.08462324434311
 20
560.77704250818579
 30
0.0
 40
0.9962710099999999
 50
106.6979199999999
 51
180.33004999999989
  0
ARC
  5
6CC3
  8
AM_0
 10
108.2275032443427
 20
561.12860250818596
 30
0.0
 40
0.9927430199999999
 50
89.374554999998736
 51
106.33207000000171
  0
ARC
  5
6CC4
  8
AM_0
 10
108.289333244343
 20
563.07587250818597
 30
0.0
 40
0.9954450099999999
 50
90.056904999999645
 51
113.1274500000013
  0
ARC
  5
6CC5
  8
AM_0
 10
107.0827932443427
 20
574.26031250818585
 30
0.0
 40
0.9944329899999999
 50
121.1521299999998
 51
179.94050999999911
  0
ARC
  5
6CC6
  8
AM_0
 10
107.0815732443431
 20
573.22272250818605
 30
0.0
 40
0.9932109699999999
 50
117.79932000000061
 51
180.08187000000001
  0
ARC
  5
6CC7
  8
AM_0
 10
107.08315324434299
 20
569.65887250818605
 30
0.0
 40
0.9948369899999999
 50
123.20496000000099
 51
180.43785999999801
  0
ARC
  5
6CC8
  8
AM_0
 10
107.0823632443429
 20
568.62445250818598
 30
0.0
 40
0.99404597
 50
120.4681999999988
 51
180.18564000000021
  0
ARC
  5
6CC9
  8
AM_0
 10
108.3677632443428
 20
569.37482250818596
 30
0.0
 40
0.99648702
 50
90.540720999998641
 51
120.74377000000059
  0
ARC
  5
6CCA
  8
AM_0
 10
108.3949832443429
 20
570.51507250818599
 30
0.0
 40
0.99617702
 50
90.381317999999226
 51
123.9704899999999
  0
ARC
  5
6CCB
  8
AM_0
 10
108.3234532443429
 20
573.88592250818601
 30
0.0
 40
0.99545902
 50
89.141290999999924
 51
117.2038199999995
  0
ARC
  5
6CCC
  8
AM_0
 10
108.3572032443429
 20
575.0270425081859
 30
0.0
 40
0.99427301
 50
89.356066000000013
 51
120.7809100000017
  0
ARC
  5
6CCD
  8
AM_0
 10
108.3131432443429
 20
575.987242508186
 30
0.0
 40
0.99411702
 50
89.122643999998516
 51
115.9349799999988
  0
ARC
  5
6CCE
  8
AM_0
 10
108.3503732443431
 20
577.13544250818597
 30
0.0
 40
0.9959030199999999
 50
89.541266999999124
 51
119.6071699999994
  0
ARC
  5
6CCF
  8
AM_0
 10
107.08395324434269
 20
575.36102250818612
 30
0.0
 40
0.995579
 50
116.5870900000007
 51
179.98263999999989
  0
ARC
  5
6CD0
  8
AM_0
 10
107.0815732443431
 20
576.39923250818595
 30
0.0
 40
0.99319202
 50
119.77338000000169
 51
179.87958999999799
  0
ARC
  5
6CD1
  8
AM_0
 10
124.2291532443429
 20
487.17096250818571
 30
0.0
 40
1.0032491999999991
 50
314.98118999999758
 51
5.167643400001003
  0
ARC
  5
6CD2
  8
AM_0
 10
259.08816324434292
 20
590.88153250818596
 30
0.0
 40
0.99980682
 50
89.98893100000069
 51
180.0110699999974
  0
ARC
  5
6CD3
  8
AM_0
 10
250.88961324434291
 20
468.52753250818591
 30
0.0
 40
2.0062942999999991
 50
270.24932999999891
 51
345.08844000000403
  0
ARC
  5
6CD4
  8
AM_0
 10
259.087433244343
 20
579.42218250818598
 30
0.0
 40
0.9990923399999999
 50
89.947921999999295
 51
180.05208000000431
  0
ARC
  5
6CD5
  8
AM_0
 10
133.08114324434291
 20
533.38129250818599
 30
0.0
 40
1.0000259
 50
89.587534000000232
 51
270.4124599999987
  0
ARC
  5
6CD6
  8
AM_0
 10
125.04782324434289
 20
579.37604250818606
 30
0.0
 40
1.9952742999999991
 50
90.148580000000095
 51
170.03521999999899
  0
ARC
  5
6CD7
  8
AM_0
 10
124.98568324434289
 20
584.65423250818583
 30
0.0
 40
1.997119399999999
 50
89.801366999998493
 51
167.94475999999821
  0
ARC
  5
6CD8
  8
AM_0
 10
120.6051932443429
 20
580.92364250818605
 30
0.0
 40
1.502416299999999
 50
269.90137999999882
 51
347.60813000000093
  0
ARC
  5
6CD9
  8
AM_0
 10
117.2185932443429
 20
588.05902250818576
 30
0.0
 40
1.9922863
 50
90.007721000000544
 51
166.8783899999971
  0
ARC
  5
6CDA
  8
AM_0
 10
112.8935832443433
 20
584.98614250818605
 30
0.0
 40
1.5048382
 50
270.18264000000067
 51
346.75308000000138
  0
ARC
  5
6CDB
  8
AM_0
 10
112.9079232443431
 20
587.00665250818611
 30
0.0
 40
1.505448699999999
 50
270.39686999999992
 51
345.95247000000012
  0
ARC
  5
6CDC
  8
AM_0
 10
117.1932032443431
 20
589.68671250818568
 30
0.0
 40
1.994612099999999
 50
89.851991999999015
 51
165.93885999999711
  0
ARC
  5
6CDD
  8
AM_0
 10
134.0816332443429
 20
588.24798250818571
 30
0.0
 40
1.9933081999999991
 50
89.807323000000935
 51
180.19266999999849
  0
ARC
  5
6CDE
  8
AM_0
 10
134.08248324434291
 20
590.27716250818594
 30
0.0
 40
1.994130499999996
 50
89.831105999999224
 51
180.16889000000049
  0
ARC
  5
6CDF
  8
AM_0
 10
134.08486324434301
 20
591.63483250818615
 30
0.0
 40
1.996488899999999
 50
89.899147999998391
 51
180.10084999999879
  0
ARC
  5
6CE0
  8
AM_0
 10
134.08212324434311
 20
592.30475250818608
 30
0.0
 40
1.9964978999999961
 50
89.821482000000245
 51
165.6006099999997
  0
ARC
  5
6CE1
  8
AM_0
 10
130.58462324434311
 20
582.87506250818592
 30
0.0
 40
1.5037541000000001
 50
270.14287000000093
 51
359.85713999999848
  0
ARC
  5
6CE2
  8
AM_0
 10
130.58346324434299
 20
588.156192508186
 30
0.0
 40
1.504891299999997
 50
270.1859300000005
 51
359.81406999999621
  0
ARC
  5
6CE3
  8
AM_0
 10
130.5814532443429
 20
591.55817250818598
 30
0.0
 40
1.506942899999999
 50
270.26336999999921
 51
359.73663000000079
  0
ARC
  5
6CE4
  8
AM_0
 10
130.693263244343
 20
593.18646250818597
 30
0.0
 40
1.505230099999999
 50
270.19421
 51
345.17177999999871
  0
ARC
  5
6CE5
  8
AM_0
 10
257.73849324434292
 20
576.23358250818615
 30
0.0
 40
1.5022733999999991
 50
195.1365099999966
 51
269.99412000000041
  0
ARC
  5
6CE6
  8
AM_0
 10
250.89779324434301
 20
588.24213250818605
 30
0.0
 40
1.9991226
 50
15.05079100000003
 51
89.984388999999666
  0
ARC
  5
6CE7
  8
AM_0
 10
259.08132324434291
 20
465.874332508186
 30
0.0
 40
0.99304521
 50
179.5973099999994
 51
270.40268000000009
  0
ARC
  5
6CE8
  8
AM_0
 10
259.0806532443429
 20
477.33368250818597
 30
0.0
 40
0.99237448
 50
179.55801999999801
 51
270.4419699999998
  0
ARC
  5
6CE9
  8
AM_0
 10
257.79403324434298
 20
580.92157250818616
 30
0.0
 40
1.500286
 50
192.32631000000171
 51
270.16416999999848
  0
ARC
  5
6CEA
  8
AM_0
 10
120.2439232443428
 20
569.97552250818603
 30
0.0
 40
5.0059714
 50
279.71098000000109
 51
354.67888000000482
  0
ARC
  5
6CEB
  8
AM_0
 10
120.7093132443427
 20
566.04877250818606
 30
0.0
 40
6.0044340999999992
 50
45.225578000001079
 51
86.380821999999185
  0
ARC
  5
6CEC
  8
AM_0
 10
124.2303132443429
 20
569.60199250818573
 30
0.0
 40
1.002184699999999
 50
354.8038600000034
 51
45.047306999998277
  0
ARC
  5
6CED
  8
AM_0
 10
120.7080332443429
 20
490.72662250818593
 30
0.0
 40
6.0073843
 50
273.6297400000006
 51
314.76385000000192
  0
ARC
  5
6CEE
  8
AM_0
 10
120.2511832443429
 20
486.79278250818601
 30
0.0
 40
4.9991421999999961
 50
5.3780268999992682
 51
80.360064999998514
  0
ARC
  5
6CEF
  8
AM_0
 10
117.2251832443431
 20
468.71185250818598
 30
0.0
 40
2.0005671999999981
 50
193.30959000000229
 51
269.80430999999942
  0
ARC
  5
6CF0
  8
AM_0
 10
112.9015832443427
 20
471.78363250818597
 30
0.0
 40
1.497715799999999
 50
13.424378999996071
 51
90.122645000001114
  0
ARC
  5
6CF1
  8
AM_0
 10
112.9160432443429
 20
469.76300250818599
 30
0.0
 40
1.4982997
 50
14.229739999998021
 51
89.910950000001179
  0
ARC
  5
6CF2
  8
AM_0
 10
134.08840324434291
 20
468.52130250818601
 30
0.0
 40
2.0000371999999991
 50
180.0010599999959
 51
269.99892999999969
  0
ARC
  5
6CF3
  8
AM_0
 10
134.0892632443427
 20
466.49225250818603
 30
0.0
 40
2.0009109999999981
 50
180.00001000000091
 51
269.97390999999988
  0
ARC
  5
6CF4
  8
AM_0
 10
130.5863932443429
 20
473.89935250818598
 30
0.0
 40
1.501982699999999
 50
0.0755872020005832
 51
89.924413000001564
  0
ARC
  5
6CF5
  8
AM_0
 10
130.5852332443431
 20
468.61810250818598
 30
0.0
 40
1.503128599999999
 50
0.1191296500022061
 51
89.880869999998822
  0
ARC
  5
6CF6
  8
AM_0
 10
257.73196324434292
 20
480.53754250818582
 30
0.0
 40
1.4937901
 50
89.756423999998475
 51
165.1129200000008
  0
ARC
  5
6CF7
  8
AM_0
 10
133.08114324434291
 20
543.38129250818588
 30
0.0
 40
1.0000259
 50
89.587534000000232
 51
270.4124599999987
  0
ARC
  5
6CF8
  8
AM_0
 10
133.08114324434291
 20
553.38129250818599
 30
0.0
 40
1.0000259
 50
89.587534000000232
 51
270.4124599999987
  0
ARC
  5
6CF9
  8
AM_0
 10
133.08114324434291
 20
563.38129250818611
 30
0.0
 40
1.0000259
 50
89.587534000000232
 51
270.4124599999987
  0
ARC
  5
6CFA
  8
AM_0
 10
115.3501232443429
 20
533.39130250818596
 30
0.0
 40
1.2700266
 50
89.629327999999504
 51
270.37065999999959
  0
ARC
  5
6CFB
  8
AM_0
 10
115.41207324434311
 20
543.39630250818618
 30
0.0
 40
1.3350147999999991
 50
89.730435000000341
 51
270.2695700000001
  0
ARC
  5
6CFC
  8
AM_0
 10
124.54263324434289
 20
553.411322508186
 30
0.0
 40
1.460011199999999
 50
89.775248000001255
 51
270.22474000000028
  0
ARC
  5
6CFD
  8
AM_0
 10
124.75833324434301
 20
563.43133250818585
 30
0.0
 40
1.6800002000000001
 50
90.000003000000945
 51
270.0
  0
ARC
  5
6CFE
  8
AM_0
 10
116.6383332443429
 20
533.38129250818599
 30
0.0
 40
1.0000056999999991
 50
90.000003000000945
 51
270.0
  0
ARC
  5
6CFF
  8
AM_0
 10
116.6383332443429
 20
543.38129250818588
 30
0.0
 40
1.0000056999999991
 50
90.000003000000945
 51
270.0
  0
ARC
  5
6D00
  8
AM_0
 10
125.6311932443427
 20
563.38129250818611
 30
0.0
 40
1.0000255999999981
 50
89.589474000000749
 51
270.41051999999962
  0
ARC
  5
6D01
  8
AM_0
 10
125.6311932443427
 20
553.38129250818599
 30
0.0
 40
1.0000255999999981
 50
89.589474000000749
 51
270.41051999999962
  0
ARC
  5
6D02
  8
AM_0
 10
254.908353244343
 20
563.43133250818585
 30
0.0
 40
1.6800077
 50
269.999989999999
 51
90.000003000000945
  0
ARC
  5
6D03
  8
AM_0
 10
251.42831324434289
 20
563.38129250818611
 30
0.0
 40
1.0000040999999991
 50
269.999989999999
 51
90.000003000000945
  0
ARC
  5
6D04
  8
AM_0
 10
251.42831324434289
 20
493.38129250818582
 30
0.0
 40
1.0000040999999991
 50
269.999989999999
 51
90.000003000000945
  0
ARC
  5
6D05
  8
AM_0
 10
254.908353244343
 20
493.34125250818602
 30
0.0
 40
1.6800077
 50
269.999989999999
 51
90.000003000000945
  0
ARC
  5
6D06
  8
AM_0
 10
116.6383332443429
 20
523.38129250818599
 30
0.0
 40
1.0000056999999991
 50
90.000003000000945
 51
270.0
  0
ARC
  5
6D07
  8
AM_0
 10
133.08114324434291
 20
513.38129250818588
 30
0.0
 40
1.0000259
 50
89.587534000000232
 51
270.4124599999987
  0
ARC
  5
6D08
  8
AM_0
 10
133.08114324434291
 20
503.38129250818582
 30
0.0
 40
1.0000259
 50
89.587534000000232
 51
270.4124599999987
  0
ARC
  5
6D09
  8
AM_0
 10
115.41207324434311
 20
513.37128250818603
 30
0.0
 40
1.3300148000000001
 50
89.729417999999541
 51
270.27058999999991
  0
ARC
  5
6D0A
  8
AM_0
 10
133.08114324434291
 20
523.38129250818599
 30
0.0
 40
1.0000259
 50
89.587534000000232
 51
270.4124599999987
  0
ARC
  5
6D0B
  8
AM_0
 10
133.08114324434291
 20
493.38129250818582
 30
0.0
 40
1.0000259
 50
89.587534000000232
 51
270.4124599999987
  0
ARC
  5
6D0C
  8
AM_0
 10
115.3501232443429
 20
523.38129250818599
 30
0.0
 40
1.2700266
 50
89.629320999999507
 51
270.3706899999986
  0
ARC
  5
6D0D
  8
AM_0
 10
116.6383332443429
 20
513.38129250818588
 30
0.0
 40
1.0000056999999991
 50
90.000003000000945
 51
270.0
  0
ARC
  5
6D0E
  8
AM_0
 10
120.82150324434291
 20
575.64130250818607
 30
0.0
 40
1.5
 50
280.24789000000129
 51
349.76261999999917
  0
ARC
  5
6D0F
  8
AM_0
 10
120.82150324434291
 20
481.12128250818591
 30
0.0
 40
1.5
 50
10.237378999998541
 51
79.752109999998723
  0
ARC
  5
6D10
  8
AM_0
 10
125.04782324434289
 20
477.38653250818589
 30
0.0
 40
1.9952742999999991
 50
189.9647800000009
 51
269.85141999999991
  0
ARC
  5
6D11
  8
AM_0
 10
120.6051932443429
 20
475.83893250818602
 30
0.0
 40
1.502416299999999
 50
12.391887000000411
 51
90.098616999999123
  0
ARC
  5
6D12
  8
AM_0
 10
124.98568324434289
 20
472.10834250818601
 30
0.0
 40
1.997119399999999
 50
192.0552400000017
 51
270.1986299999989
  0
ARC
  5
6D13
  8
AM_0
 10
124.75833324434301
 20
493.33124250818599
 30
0.0
 40
1.6800002000000001
 50
90.000003000000945
 51
270.0
  0
ARC
  5
6D14
  8
AM_0
 10
125.6311932443427
 20
493.38129250818582
 30
0.0
 40
1.0000255999999981
 50
89.589474000000749
 51
270.41051999999962
  0
ARC
  5
6D15
  8
AM_0
 10
125.6311932443427
 20
503.38129250818582
 30
0.0
 40
1.0000255999999981
 50
89.589474000000749
 51
270.41051999999962
  0
ARC
  5
6D16
  8
AM_0
 10
124.54263324434289
 20
503.35126250818598
 30
0.0
 40
1.460011199999999
 50
89.775248000001255
 51
270.22474000000028
  0
ARC
  5
6D17
  8
AM_0
 10
175.41470324434289
 20
462.991272508186
 30
0.0
 40
1.5
 50
1.5000027000022329
 51
90.000003000000945
  0
ARC
  5
6D18
  8
AM_0
 10
250.10452324434289
 20
459.88129250818571
 30
0.0
 40
1.5
 50
269.999989999999
 51
326.99999999999892
  0
ARC
  5
6D19
  8
AM_0
 10
238.60195324434309
 20
456.8812925081856
 30
0.0
 40
1.5
 50
90.000003000000945
 51
178.4999999999973
  0
ARC
  5
6D1A
  8
AM_0
 10
252.60830324434301
 20
590.77130250818595
 30
0.0
 40
1.5
 50
12.12979199999535
 51
90.000003000000945
  0
ARC
  5
6D1B
  8
AM_0
 10
252.31600324434299
 20
592.13129250818611
 30
0.0
 40
1.5
 50
12.12979199999535
 51
90.000003000000945
  0
ARC
  5
6D1C
  8
AM_0
 10
252.17196324434289
 20
592.80133250818596
 30
0.0
 40
1.5
 50
12.12979199999535
 51
90.000003000000945
  0
ARC
  5
6D1D
  8
AM_0
 10
255.12832324434299
 20
503.35126250818598
 30
0.0
 40
1.460011199999999
 50
269.77524999999991
 51
90.224750000000114
  0
ARC
  5
6D1E
  8
AM_0
 10
251.42831324434289
 20
503.38129250818582
 30
0.0
 40
1.0000255999999981
 50
269.58947000000001
 51
90.410531000001029
  0
ARC
  5
6D1F
  8
AM_0
 10
255.12832324434299
 20
553.411322508186
 30
0.0
 40
1.460011199999999
 50
269.77524999999991
 51
90.224750000000114
  0
ARC
  5
6D20
  8
AM_0
 10
251.42831324434289
 20
553.38129250818599
 30
0.0
 40
1.0000255999999981
 50
269.58947000000001
 51
90.410531000001029
  0
ARC
  5
6D21
  8
AM_0
 10
187.75332324434291
 20
543.39630250818618
 30
0.0
 40
1.3350147999999991
 50
269.7304299999999
 51
90.269556000001344
  0
ARC
  5
6D22
  8
AM_0
 10
186.52706324434311
 20
543.38129250818588
 30
0.0
 40
1.0000056999999991
 50
269.999989999999
 51
90.000003000000945
  0
ARC
  5
6D23
  8
AM_0
 10
186.52706324434311
 20
533.38129250818599
 30
0.0
 40
1.0000056999999991
 50
269.999989999999
 51
90.000003000000945
  0
ARC
  5
6D24
  8
AM_0
 10
187.81527324434299
 20
533.39130250818596
 30
0.0
 40
1.2700266
 50
269.62932000000001
 51
90.370670000001468
  0
ARC
  5
6D25
  8
AM_0
 10
186.52706324434311
 20
523.38129250818599
 30
0.0
 40
1.0000056999999991
 50
269.999989999999
 51
90.000003000000945
  0
ARC
  5
6D26
  8
AM_0
 10
187.81527324434299
 20
523.38129250818599
 30
0.0
 40
1.2700266
 50
269.62932000000001
 51
90.370670000001468
  0
ARC
  5
6D27
  8
AM_0
 10
186.52706324434311
 20
513.38129250818588
 30
0.0
 40
1.0000056999999991
 50
269.999989999999
 51
90.000003000000945
  0
ARC
  5
6D28
  8
AM_0
 10
187.75332324434291
 20
513.37128250818603
 30
0.0
 40
1.3300148000000001
 50
269.7294199999987
 51
90.270567000000995
  0
ARC
  5
6D29
  8
AM_0
 10
237.08834324434289
 20
500.88129250818582
 30
0.0
 40
1.5
 50
90.000003000000945
 51
180.00001000000091
  0
ARC
  5
6D2A
  8
AM_0
 10
237.08834324434289
 20
495.88129250818599
 30
0.0
 40
1.5
 50
179.999989999999
 51
270.0
  0
ARC
  5
6D2B
  8
AM_0
 10
219.08834324434281
 20
500.88129250818582
 30
0.0
 40
1.5
 50
0.0
 51
90.000003000000945
  0
ARC
  5
6D2C
  8
AM_0
 10
219.08834324434281
 20
495.88129250818599
 30
0.0
 40
1.5
 50
269.999989999999
 51
0.0000006832495047
  0
ARC
  5
6D2D
  8
AM_0
 10
237.08834324434289
 20
500.88129250818582
 30
0.0
 40
1.02
 50
90.000003000000945
 51
180.00001000000091
  0
ARC
  5
6D2E
  8
AM_0
 10
219.08834324434281
 20
500.88129250818582
 30
0.0
 40
1.02
 50
0.0
 51
90.000003000000945
  0
ARC
  5
6D2F
  8
AM_0
 10
219.10830324434301
 20
496.02130250818601
 30
0.0
 40
1.0
 50
269.999989999999
 51
0.0000006832495047
  0
ARC
  5
6D30
  8
AM_0
 10
237.06832324434291
 20
496.02130250818601
 30
0.0
 40
1.0
 50
179.999989999999
 51
270.0
  0
CIRCLE
  5
6D31
  8
AM_0
 10
225.58834324434289
 20
499.88129250818599
 30
0.0
 40
1.1000000000000001
  0
CIRCLE
  5
6D32
  8
AM_0
 10
225.58834324434289
 20
499.88129250818599
 30
0.0
 40
1.149999999999999
  0
CIRCLE
  5
6D33
  8
AM_0
 10
230.58834324434289
 20
499.88129250818599
 30
0.0
 40
1.0
  0
ARC
  5
6D34
  8
AM_0
 10
237.08834324434289
 20
555.88129250818588
 30
0.0
 40
1.5
 50
179.999989999999
 51
270.0
  0
ARC
  5
6D35
  8
AM_0
 10
237.08834324434289
 20
560.88129250818599
 30
0.0
 40
1.5
 50
90.000003000000945
 51
180.00001000000091
  0
ARC
  5
6D36
  8
AM_0
 10
219.08834324434281
 20
555.88129250818588
 30
0.0
 40
1.5
 50
269.999989999999
 51
0.0000006832495047
  0
ARC
  5
6D37
  8
AM_0
 10
219.08834324434281
 20
560.88129250818599
 30
0.0
 40
1.5
 50
0.0
 51
90.000003000000945
  0
ARC
  5
6D38
  8
AM_0
 10
237.08834324434289
 20
555.88129250818588
 30
0.0
 40
1.02
 50
179.999989999999
 51
270.0
  0
ARC
  5
6D39
  8
AM_0
 10
219.08834324434281
 20
555.88129250818588
 30
0.0
 40
1.02
 50
269.999989999999
 51
0.0000006832429909
  0
ARC
  5
6D3A
  8
AM_0
 10
219.10830324434301
 20
560.74127250818594
 30
0.0
 40
1.0
 50
0.0
 51
90.000003000000945
  0
ARC
  5
6D3B
  8
AM_0
 10
237.06832324434291
 20
560.74127250818594
 30
0.0
 40
1.0
 50
90.000003000000945
 51
180.00001000000091
  0
CIRCLE
  5
6D3C
  8
AM_0
 10
230.58834324434289
 20
556.88129250818599
 30
0.0
 40
1.0
  0
CIRCLE
  5
6D3D
  8
AM_0
 10
225.58834324434289
 20
556.88129250818599
 30
0.0
 40
1.149999999999999
  0
CIRCLE
  5
6D3E
  8
AM_0
 10
225.58834324434289
 20
556.88129250818599
 30
0.0
 40
1.1000000000000001
  0
ARC
  5
6D3F
  8
AM_0
 10
116.7889732443429
 20
468.71124250818599
 30
0.0
 40
2.0
 50
194.15074999999919
 51
269.999989999999
  0
ARC
  5
6D40
  8
AM_0
 10
130.83108324434329
 20
465.21124250818599
 30
0.0
 40
1.5
 50
21.46170899999715
 51
90.000003000000945
  0
LINE
  5
6D44
  8
AM_0
 10
237.11449309338369
 20
454.38129250818599
 30
0.0
 11
237.43241904707801
 21
466.52130250818601
 31
0.0
  0
LINE
  5
6D45
  8
AM_0
 10
177.06206109814309
 20
454.38129250818599
 30
0.0
 11
176.7442191167126
 21
466.52130250818601
 31
0.0
  0
LINE
  5
6D46
  8
AM_0
 10
173.58830324434311
 20
452.38129250818599
 30
0.0
 11
240.58830324434331
 21
452.38129250818599
 31
0.0
  0
LINE
  5
6D47
  8
AM_0
 10
173.58830324434311
 20
451.38129250818599
 30
0.0
 11
173.58830324434311
 21
452.38129250818599
 31
0.0
  0
LINE
  5
6D48
  8
AM_0
 10
240.58830324434331
 20
451.38129250818599
 30
0.0
 11
240.58830324434331
 21
452.38129250818599
 31
0.0
  0
LINE
  5
6D49
  8
AM_0
 10
159.08830324434311
 20
413.38129250818582
 30
0.0
 11
160.34788838060541
 21
449.45109150159101
 31
0.0
  0
LINE
  5
6D4A
  8
AM_0
 10
162.34667003464381
 20
451.38129250818599
 30
0.0
 11
251.82993645404281
 21
451.38129250818599
 31
0.0
  0
ARC
  5
6D4B
  8
AM_0
 10
162.34667003464381
 20
449.38129250818611
 30
0.0
 40
2.0
 50
90.0
 51
178.0000000000029
1001
GENIUS_GENODEF_13
1002
{
1000
HIER
1070
     0
1002
}
1002
{
1000
MANEDIT
1070
     0
1002
}
1002
{
1000
NOSEL
1070
     0
1002
}
1002
{
1000
BEHIND
1070
     0
1002
}
1002
{
1000
OTHER
1070
     0
1002
}
1002
{
1000
REACTOR
1002
}
1001
GENIUS_GENOBJ-N-FIL_13
1002
{
1000
OWNER
1000
GEN
1002
}
  0
LINE
  5
6D4C
  8
AM_0
 10
253.82871810808101
 20
449.45109150159101
 30
0.0
 11
255.08830324434331
 21
413.38129250818599
 31
0.0
  0
ARC
  5
6D4D
  8
AM_0
 10
251.82993645404281
 20
449.38129250818611
 30
0.0
 40
2.0
 50
1.9999999999971021
 51
90.0
1001
GENIUS_GENOBJ-N-FIL_13
1002
{
1000
OWNER
1000
GEN
1002
}
1001
GENIUS_GENODEF_13
1002
{
1000
HIER
1070
     0
1002
}
1002
{
1000
MANEDIT
1070
     0
1002
}
1002
{
1000
NOSEL
1070
     0
1002
}
1002
{
1000
BEHIND
1070
     0
1002
}
1002
{
1000
OTHER
1070
     0
1002
}
1002
{
1000
REACTOR
1002
}
  0
LINE
  5
6D4E
  8
AM_0
 10
255.08830324434331
 20
413.38129250818599
 30
0.0
 11
159.08830324434291
 21
413.38129250818582
 31
0.0
  0
LINE
  5
6D4F
  8
AM_0
 10
159.19306555281841
 20
416.38129250818582
 30
0.0
 11
158.08830324434311
 21
416.38129250818582
 31
0.0
  0
LINE
  5
6D50
  8
AM_0
 10
160.31053017655441
 20
448.3812925081856
 30
0.0
 11
158.08830324434311
 21
448.3812925081856
 31
0.0
  0
LINE
  5
6D51
  8
ﾁｭｳｼﾝｾﾝ1
 10
164.08830324434379
 20
403.11658500818601
 30
0.0
 11
164.0883032443439
 21
416.11658500818601
 31
0.0
  0
LINE
  5
6D52
  8
ﾁｭｳｼﾝｾﾝ
 10
207.08830324434319
 20
458.67332318141513
 30
0.0
 11
207.08830324434319
 21
400.9307698673768
 31
0.0
  0
LINE
  5
6D53
  8
AM_0
 10
155.58830324434311
 20
418.8812925081856
 30
0.0
 11
158.08830324434311
 21
418.8812925081856
 31
0.0
  0
LINE
  5
6D54
  8
AM_0
 10
158.08830324434311
 20
445.8812925081856
 30
0.0
 11
155.58830324434311
 21
445.88129250818582
 31
0.0
  0
LINE
  5
6D55
  8
AM_0
 10
144.6896321479972
 20
442.88129250818571
 30
0.0
 11
144.6896321479972
 21
421.88129250818571
 31
0.0
  0
LINE
  5
6D56
  8
AM_0
 10
129.6896321479972
 20
424.34966745417063
 30
0.0
 11
129.6896321479972
 21
440.41291756220159
 31
0.0
  0
LINE
  5
6D57
  8
AM_0
 10
142.6896321479972
 20
444.3812925081856
 30
0.0
 11
142.6896321479972
 21
420.38129250818582
 31
0.0
  0
LINE
  5
6D58
  8
AM_0
 10
133.1896321479972
 20
432.38129250818582
 30
0.0
 11
133.6896321479972
 21
432.88129250818582
 31
0.0
  0
LINE
  5
6D59
  8
AM_0
 10
140.1896321479972
 20
420.68129250818572
 30
0.0
 11
140.1896321479972
 21
444.08129250818558
 31
0.0
  0
LINE
  5
6D5A
  8
AM_0
 10
150.08830324434311
 20
420.88129250818582
 30
0.0
 11
150.08830324434311
 21
443.8812925081856
 31
0.0
  0
LINE
  5
6D5B
  8
AM_0
 10
144.1896321479972
 20
433.08129250818757
 30
0.0
 11
144.1896321479972
 21
431.68129250818458
 31
0.0
  0
LINE
  5
6D5C
  8
AM_0
 10
146.289267874568
 20
441.48129250818562
 30
0.0
 11
145.53926787456919
 21
423.28129250818557
 31
0.0
  0
LINE
  5
6D5D
  8
AM_0
 10
145.33830324434311
 20
441.48129250818562
 30
0.0
 11
144.6896321479972
 21
425.74020723686959
 31
0.0
  0
LINE
  5
6D5E
  8
AM_0
 10
146.08699583491509
 20
442.19695122054992
 30
0.0
 11
145.3397357915072
 21
422.56892074701869
 31
0.0
  0
LINE
  5
6D5F
  8
AM_0
 10
145.53783532740511
 20
442.1936642693538
 30
0.0
 11
144.78926787456919
 21
422.53129250818557
 31
0.0
  0
LINE
  5
6D60
  8
AM_0
 10
142.6896321479972
 20
420.38129250818582
 30
0.0
 11
140.48963214799721
 21
420.38129250818582
 31
0.0
  0
ARC
  5
6D61
  8
AM_0
 10
154.58830324434319
 20
419.88129250818571
 30
0.0
 40
0.5
 50
0.0
 51
90.000000000013017
  0
ARC
  5
6D62
  8
AM_0
 10
155.58830324434319
 20
419.3812925081856
 30
0.0
 40
0.5
 50
180.0
 51
270.0
  0
LINE
  5
6D63
  8
AM_0
 10
155.08830324434311
 20
419.88129250818571
 30
0.0
 11
155.08830324434311
 21
419.3812925081856
 31
0.0
  0
LINE
  5
6D64
  8
AM_0
 10
146.08830324434311
 20
423.28129250818557
 30
0.0
 11
149.58830324434311
 21
423.28129250818557
 31
0.0
  0
LINE
  5
6D65
  8
AM_0
 10
155.08830324434311
 20
421.52522118677882
 30
0.0
 11
155.08830324434311
 21
431.23736382959368
 31
0.0
  0
LINE
  5
6D66
  8
AM_0
 10
150.58830324434311
 20
420.38129250818582
 30
0.0
 11
154.58830324434311
 21
420.38129250818582
 31
0.0
  0
LINE
  5
6D67
  8
AM_0
 10
154.58830324434311
 20
421.02522118677882
 30
0.0
 11
150.08830324434311
 21
421.02522118677882
 31
0.0
  0
ARC
  5
6D68
  8
AM_0
 10
154.58830324434319
 20
421.52522118677882
 30
0.0
 40
0.5
 50
270.0
 51
0.0
  0
ARC
  5
6D69
  8
AM_0
 10
149.58830324434311
 20
422.78129250818603
 30
0.0
 40
0.5
 50
0.0
 51
90.0
  0
ARC
  5
6D6A
  8
AM_0
 10
150.58830324434311
 20
420.88129250818582
 30
0.0
 40
0.5
 50
180.0
 51
270.0
  0
LINE
  5
6D6B
  8
AM_0
 10
154.58830324434311
 20
431.73736382959362
 30
0.0
 11
150.08830324434311
 21
431.73736382959362
 31
0.0
  0
ARC
  5
6D6C
  8
AM_0
 10
154.58830324434311
 20
431.23736382959379
 30
0.0
 40
0.5
 50
0.0
 51
90.0
  0
LINE
  5
6D6D
  8
AM_0
 10
144.1896321479972
 20
426.23612175589369
 30
0.0
 11
144.1896321479972
 21
427.40836494232673
 31
0.0
  0
LINE
  5
6D6E
  8
AM_0
 10
145.61600030299419
 20
423.28129250818557
 30
0.0
 11
146.08830324434311
 21
423.28129250818557
 31
0.0
  0
LINE
  5
6D6F
  8
AM_0
 10
145.5194078084549
 20
423.20717474144891
 30
0.0
 11
145.53926787456919
 21
423.28129250818557
 31
0.0
  0
ARC
  5
6D70
  8
AM_0
 10
145.61600030299419
 20
423.18129250818572
 30
0.0
 40
0.1000000000000346
 50
90.0
 51
164.99980499355539
  0
ARC
  5
6D71
  8
AM_0
 10
143.88963214799719
 20
423.09445952767783
 30
0.0
 40
0.3000000000000043
 50
0.0
 51
90.0
  0
LINE
  5
6D72
  8
AM_0
 10
142.6896321479972
 20
420.98129250818562
 30
0.0
 11
143.90958785115421
 21
421.06262288839679
 31
0.0
  0
LINE
  5
6D73
  8
AM_0
 10
142.6896321479972
 20
422.13754454402567
 30
0.0
 11
143.8896321479971
 21
422.13754454402567
 31
0.0
  0
LINE
  5
6D74
  8
AM_0
 10
144.1896321479972
 20
421.38129250818582
 30
0.0
 11
142.6896321479972
 21
421.38129250818582
 31
0.0
  0
ARC
  5
6D75
  8
AM_0
 10
144.1896321479972
 20
421.88129250818571
 30
0.0
 40
0.5
 50
270.0
 51
0.0
  0
LINE
  5
6D76
  8
AM_0
 10
144.1896321479972
 20
421.36195843575371
 30
0.0
 11
144.1896321479972
 21
421.38129250818582
 31
0.0
  0
LINE
  5
6D77
  8
AM_0
 10
144.1896321479972
 20
421.08129250818581
 30
0.0
 11
144.1896321479972
 21
421.36195843575371
 31
0.0
  0
LINE
  5
6D78
  8
AM_0
 10
143.90958785115421
 20
421.06262288839679
 30
0.0
 11
144.1896321479972
 21
421.08129250818581
 31
0.0
  0
ARC
  5
6D79
  8
AM_0
 10
143.88963214799719
 20
421.36195843575371
 30
0.0
 40
0.3000000000000007
 50
273.81407483428148
 51
0.0
  0
LINE
  5
6D7A
  8
AM_0
 10
145.26157081591811
 20
422.53129250818557
 30
0.0
 11
145.33830324434399
 21
422.53129250818557
 31
0.0
  0
LINE
  5
6D7B
  8
AM_0
 10
145.33830324434399
 20
422.53129250818557
 30
0.0
 11
145.35816331045709
 21
422.60541027492201
 31
0.0
  0
LINE
  5
6D7C
  8
AM_0
 10
144.7694078084549
 20
422.60541027492201
 30
0.0
 11
144.78926787456919
 21
422.53129250818557
 31
0.0
  0
LINE
  5
6D7D
  8
AM_0
 10
144.78926787456919
 20
422.53129250818557
 30
0.0
 11
144.86600030299411
 21
422.53129250818557
 31
0.0
  0
LINE
  5
6D7E
  8
AM_0
 10
145.35816331045709
 20
422.60541027492201
 30
0.0
 11
145.5194078084549
 21
423.20717474144891
 31
0.0
  0
LINE
  5
6D7F
  8
AM_0
 10
144.86600030299411
 20
422.53129250818557
 30
0.0
 11
145.26157081591811
 21
422.53129250818557
 31
0.0
  0
LINE
  5
6D80
  8
AM_0
 10
144.68963214799811
 20
422.90313303974671
 30
0.0
 11
144.7694078084549
 21
422.60541027492201
 31
0.0
  0
ARC
  5
6D81
  8
AM_0
 10
145.26157081591811
 20
422.63129250818582
 30
0.0
 40
0.0999999999999866
 50
270.0
 51
344.99980499343371
  0
ARC
  5
6D82
  8
AM_0
 10
144.86600030299411
 20
422.63129250818582
 30
0.0
 40
0.1000000000000014
 50
195.00019500656629
 51
270.0
  0
LINE
  5
6D83
  8
AM_0
 10
144.1896321479972
 20
422.43754454402563
 30
0.0
 11
144.1896321479972
 21
423.09445952767783
 31
0.0
  0
ARC
  5
6D84
  8
AM_0
 10
143.88963214799719
 20
422.43754454402603
 30
0.0
 40
0.3000000000000007
 50
270.0
 51
0.0
  0
LINE
  5
6D85
  8
AM_0
 10
142.6896321479972
 20
425.93612175589368
 30
0.0
 11
143.8896321479971
 21
425.93612175589368
 31
0.0
  0
LINE
  5
6D86
  8
AM_0
 10
143.8896321479971
 20
423.39445952767778
 30
0.0
 11
142.6896321479972
 21
423.39445952767778
 31
0.0
  0
LINE
  5
6D87
  8
AM_0
 10
145.53926787456919
 20
423.28129250818557
 30
0.0
 11
145.61600030299419
 21
423.28129250818557
 31
0.0
  0
ARC
  5
6D88
  8
AM_0
 10
143.88963214799719
 20
426.23612175589392
 30
0.0
 40
0.3000000000000007
 50
270.0
 51
0.0
  0
LINE
  5
6D89
  8
AM_0
 10
143.8896321479971
 20
427.7083649423268
 30
0.0
 11
142.6896321479972
 21
427.7083649423268
 31
0.0
  0
ARC
  5
6D8A
  8
AM_0
 10
143.88963214799719
 20
427.4083649423269
 30
0.0
 40
0.3000000000000043
 50
0.0
 51
90.0
  0
LINE
  5
6D8B
  8
AM_0
 10
143.8896321479971
 20
431.38129250818469
 30
0.0
 11
142.6896321479972
 21
431.38129250818469
 31
0.0
  0
ARC
  5
6D8C
  8
AM_0
 10
143.88963214799719
 20
431.68129250818481
 30
0.0
 40
0.3000000000000007
 50
270.0
 51
0.0
  0
LINE
  5
6D8D
  8
AM_0
 10
133.6896321479972
 20
422.24801267953859
 30
0.0
 11
140.1896321479972
 21
422.24801267953859
 31
0.0
  0
LINE
  5
6D8E
  8
AM_0
 10
133.6896321479972
 20
421.74801267953859
 30
0.0
 11
140.1896321479972
 21
421.74801267953859
 31
0.0
  0
LINE
  5
6D8F
  8
AM_0
 10
140.1896321479972
 20
431.8812925081856
 30
0.0
 11
133.6896321479972
 21
431.8812925081856
 31
0.0
  0
LINE
  5
6D90
  8
AM_0
 10
133.1896321479972
 20
431.3812925081856
 30
0.0
 11
140.1896321479972
 21
431.3812925081856
 31
0.0
  0
LINE
  5
6D91
  8
AM_0
 10
139.8896321479971
 20
421.38129250818582
 30
0.0
 11
133.051682083179
 21
421.38129250818582
 31
0.0
  0
LINE
  5
6D92
  8
AM_0
 10
140.1896321479972
 20
431.03460443964462
 30
0.0
 11
133.6896321479972
 21
431.03460443964462
 31
0.0
  0
LINE
  5
6D93
  8
AM_0
 10
140.1896321479972
 20
422.72798057672679
 30
0.0
 11
133.6896321479972
 21
422.72798057672679
 31
0.0
  0
ARC
  5
6D94
  8
AM_0
 10
140.48963214799721
 20
420.68129250818572
 30
0.0
 40
0.2999999999999971
 50
180.0
 51
270.0
  0
ARC
  5
6D95
  8
AM_0
 10
139.88963214799719
 20
421.08129250818581
 30
0.0
 40
0.2999999999999971
 50
0.0
 51
90.0
  0
ARC
  5
6D96
  8
AM_0
 10
141.8146321479972
 20
426.8812925081856
 30
0.0
 40
9.124999999999984
 50
152.92493329271929
 51
207.07506670728071
  0
LINE
  5
6D97
  8
AM_0
 10
132.41149768351471
 20
421.6130712285883
 30
0.0
 11
130.04944774833271
 21
423.58144617457322
 31
0.0
  0
LINE
  5
6D98
  8
AM_0
 10
133.1896321479972
 20
421.95972509169371
 30
0.0
 11
133.6896321479972
 21
421.38129250818582
 31
0.0
  0
ARC
  5
6D99
  8
AM_0
 10
133.051682083179
 20
422.38129250818571
 30
0.0
 40
1.0
 50
230.19442890774391
 51
270.0
  0
LINE
  5
6D9A
  8
AM_0
 10
133.6896321479972
 20
421.74801267953859
 30
0.0
 11
133.1896321479972
 21
421.95972509169371
 31
0.0
  0
LINE
  5
6D9B
  8
AM_0
 10
133.1896321479972
 20
422.42200036466483
 30
0.0
 11
133.6896321479972
 21
421.74801267953859
 31
0.0
  0
LINE
  5
6D9C
  8
AM_0
 10
133.6896321479972
 20
422.24801267953859
 30
0.0
 11
133.1896321479972
 21
422.42200036466483
 31
0.0
  0
LINE
  5
6D9D
  8
AM_0
 10
133.1896321479972
 20
422.95972509169371
 30
0.0
 11
133.6896321479972
 21
422.24801267953859
 31
0.0
  0
LINE
  5
6D9E
  8
AM_0
 10
133.6896321479972
 20
422.72798057672679
 30
0.0
 11
133.1896321479972
 21
422.95972509169371
 31
0.0
  0
ARC
  5
6D9F
  8
AM_0
 10
130.6896321479972
 20
424.3496674541708
 30
0.0
 40
1.0000000000000291
 50
180.0
 51
230.19442890773479
  0
LINE
  5
6DA0
  8
AM_0
 10
133.6896321479972
 20
431.8812925081856
 30
0.0
 11
133.1896321479972
 21
432.38129250818582
 31
0.0
  0
LINE
  5
6DA1
  8
AM_0
 10
133.1896321479972
 20
431.3812925081856
 30
0.0
 11
133.6896321479972
 21
431.8812925081856
 31
0.0
  0
LINE
  5
6DA2
  8
AM_0
 10
133.6896321479972
 20
431.03460443964462
 30
0.0
 11
133.1896321479972
 21
431.3812925081856
 31
0.0
  0
LINE
  5
6DA3
  8
AM_0
 10
140.48963214799721
 20
444.3812925081856
 30
0.0
 11
142.6896321479972
 21
444.3812925081856
 31
0.0
  0
ARC
  5
6DA4
  8
AM_0
 10
154.58830324434311
 20
444.88129250818582
 30
0.0
 40
0.5
 50
269.99999999998693
 51
0.0
  0
LINE
  5
6DA5
  8
AM_0
 10
149.58830324434311
 20
441.48129250818562
 30
0.0
 11
146.36600030299411
 21
441.48129250818562
 31
0.0
  0
LINE
  5
6DA6
  8
AM_0
 10
155.08830324434311
 20
433.52522118677882
 30
0.0
 11
155.08830324434311
 21
443.23736382959379
 31
0.0
  0
LINE
  5
6DA7
  8
AM_0
 10
150.08830324434311
 20
433.02522118677882
 30
0.0
 11
154.58830324434311
 21
433.02522118677882
 31
0.0
  0
ARC
  5
6DA8
  8
AM_0
 10
154.58830324434311
 20
433.52522118677882
 30
0.0
 40
0.5
 50
270.0
 51
0.0
  0
LINE
  5
6DA9
  8
AM_0
 10
150.08830324434311
 20
443.73736382959379
 30
0.0
 11
154.58830324434311
 21
443.73736382959379
 31
0.0
  0
LINE
  5
6DAA
  8
AM_0
 10
154.58830324434311
 20
444.3812925081856
 30
0.0
 11
150.58830324434311
 21
444.3812925081856
 31
0.0
  0
ARC
  5
6DAB
  8
AM_0
 10
154.58830324434311
 20
443.23736382959379
 30
0.0
 40
0.5
 50
0.0
 51
90.0
  0
ARC
  5
6DAC
  8
AM_0
 10
149.58830324434311
 20
441.98129250818562
 30
0.0
 40
0.5
 50
270.0
 51
0.0
  0
ARC
  5
6DAD
  8
AM_0
 10
150.58830324434311
 20
443.8812925081856
 30
0.0
 40
0.5
 50
90.0
 51
180.0
  0
ARC
  5
6DAE
  8
AM_0
 10
143.88963214799719
 20
438.52646326047773
 30
0.0
 40
0.3000000000000114
 50
0.0
 51
90.0
  0
LINE
  5
6DAF
  8
AM_0
 10
142.6896321479972
 20
433.38129250818758
 30
0.0
 11
143.8896321479971
 21
433.38129250818758
 31
0.0
  0
ARC
  5
6DB0
  8
AM_0
 10
143.88963214799719
 20
433.08129250818791
 30
0.0
 40
0.2999999999999971
 50
0.0
 51
90.0
  0
LINE
  5
6DB1
  8
AM_0
 10
142.6896321479972
 20
437.05422007404451
 30
0.0
 11
143.8896321479971
 21
437.05422007404451
 31
0.0
  0
ARC
  5
6DB2
  8
AM_0
 10
143.88963214799719
 20
437.35422007404469
 30
0.0
 40
0.3000000000000007
 50
270.0
 51
0.0
  0
LINE
  5
6DB3
  8
AM_0
 10
144.1896321479972
 20
437.35422007404469
 30
0.0
 11
144.1896321479972
 21
438.52646326047773
 31
0.0
  0
LINE
  5
6DB4
  8
AM_0
 10
145.61600030299419
 20
442.23129250818567
 30
0.0
 11
146.01157081591811
 21
442.23129250818567
 31
0.0
  0
LINE
  5
6DB5
  8
AM_0
 10
145.61600030299419
 20
442.23129250818567
 30
0.0
 11
146.01157081591811
 21
442.23129250818567
 31
0.0
  0
LINE
  5
6DB6
  8
AM_0
 10
146.10816331045709
 20
442.1571747414493
 30
0.0
 11
146.2694078084549
 21
441.55541027492222
 31
0.0
  0
LINE
  5
6DB7
  8
AM_0
 10
146.10816331045709
 20
442.1571747414493
 30
0.0
 11
146.2694078084549
 21
441.55541027492222
 31
0.0
  0
ARC
  5
6DB8
  8
AM_0
 10
146.36600030299411
 20
441.58129250818581
 30
0.0
 40
0.0999999999999943
 50
195.00019500651879
 51
270.0
  0
ARC
  5
6DB9
  8
AM_0
 10
146.01157081591811
 20
442.1312925081856
 30
0.0
 40
0.0999999999999943
 50
15.000195006505431
 51
90.0
  0
LINE
  5
6DBA
  8
AM_0
 10
144.68878555945599
 20
441.85629250818602
 30
0.0
 11
144.7694078084549
 21
441.55541027492222
 31
0.0
  0
LINE
  5
6DBB
  8
AM_0
 10
145.34101389654899
 20
441.52055704128372
 30
0.0
 11
145.5194078084549
 21
442.1571747414493
 31
0.0
  0
LINE
  5
6DBC
  8
AM_0
 10
145.35816331045709
 20
441.55541027492222
 30
0.0
 11
145.5194078084549
 21
442.1571747414493
 31
0.0
  0
LINE
  5
6DBD
  8
AM_0
 10
144.1896321479972
 20
441.66812548869478
 30
0.0
 11
144.1896321479972
 21
442.32504047234562
 31
0.0
  0
LINE
  5
6DBE
  8
AM_0
 10
144.6896321479972
 20
441.85313303974772
 30
0.0
 11
144.7694078084549
 21
441.55541027492222
 31
0.0
  0
LINE
  5
6DBF
  8
AM_0
 10
142.6896321479972
 20
441.36812548869477
 30
0.0
 11
143.8896321479971
 21
441.36812548869477
 31
0.0
  0
LINE
  5
6DC0
  8
AM_0
 10
143.8896321479971
 20
438.82646326047762
 30
0.0
 11
142.6896321479972
 21
438.82646326047848
 31
0.0
  0
LINE
  5
6DC1
  8
AM_0
 10
145.29420308143321
 20
441.48129250818562
 30
0.0
 11
145.34101389654899
 21
441.52055704128372
 31
0.0
  0
LINE
  5
6DC2
  8
AM_0
 10
144.86600030299411
 20
441.48129250818562
 30
0.0
 11
145.29420308143321
 21
441.48129250818562
 31
0.0
  0
LINE
  5
6DC3
  8
AM_0
 10
144.86600030299411
 20
441.48129250818562
 30
0.0
 11
145.26157081591811
 21
441.48129250818562
 31
0.0
  0
ARC
  5
6DC4
  8
AM_0
 10
144.86600030299411
 20
441.58129250818581
 30
0.0
 40
0.0999999999999943
 50
195.00019500651879
 51
270.0
  0
ARC
  5
6DC5
  8
AM_0
 10
145.26157081591811
 20
441.58129250818581
 30
0.0
 40
0.0999999999999608
 50
270.0
 51
344.99980499348112
  0
ARC
  5
6DC6
  8
AM_0
 10
143.88963214799719
 20
441.66812548869478
 30
0.0
 40
0.3000000000000007
 50
270.0
 51
0.0
  0
LINE
  5
6DC7
  8
AM_0
 10
142.6896321479972
 20
443.3812925081856
 30
0.0
 11
144.1896321479972
 21
443.3812925081856
 31
0.0
  0
LINE
  5
6DC8
  8
AM_0
 10
143.8896321479971
 20
442.62504047234557
 30
0.0
 11
142.6896321479972
 21
442.62504047234557
 31
0.0
  0
LINE
  5
6DC9
  8
AM_0
 10
143.90958785115421
 20
443.69996212797582
 30
0.0
 11
142.6896321479972
 21
443.78129250818557
 31
0.0
  0
ARC
  5
6DCA
  8
AM_0
 10
144.1896321479972
 20
442.88129250818571
 30
0.0
 40
0.5
 50
0.0
 51
90.0
  0
ARC
  5
6DCB
  8
AM_0
 10
145.61600030299419
 20
442.1312925081856
 30
0.0
 40
0.0999999999999606
 50
90.0
 51
164.99980499349451
  0
ARC
  5
6DCC
  8
AM_0
 10
143.88963214799719
 20
442.32504047234562
 30
0.0
 40
0.2999999999999971
 50
0.0
 51
90.0
  0
LINE
  5
6DCD
  8
AM_0
 10
144.1896321479972
 20
443.3812925081856
 30
0.0
 11
144.1896321479972
 21
443.40062658061862
 31
0.0
  0
ARC
  5
6DCE
  8
AM_0
 10
143.88963214799719
 20
443.40062658061862
 30
0.0
 40
0.3000000000000043
 50
0.0
 51
86.18592516571853
  0
ARC
  5
6DCF
  8
AM_0
 10
155.58830324434311
 20
445.38129250818582
 30
0.0
 40
0.5
 50
90.0
 51
180.0
  0
LINE
  5
6DD0
  8
AM_0
 10
155.08830324434311
 20
445.38129250818582
 30
0.0
 11
155.08830324434311
 21
444.88129250818582
 31
0.0
  0
LINE
  5
6DD1
  8
AM_0
 10
133.6896321479972
 20
442.03460443964451
 30
0.0
 11
140.1896321479972
 21
442.03460443964451
 31
0.0
  0
LINE
  5
6DD2
  8
AM_0
 10
133.6896321479972
 20
433.72798057672679
 30
0.0
 11
140.1896321479972
 21
433.72798057672679
 31
0.0
  0
LINE
  5
6DD3
  8
AM_0
 10
133.051682083179
 20
443.3812925081856
 30
0.0
 11
139.8896321479971
 21
443.3812925081856
 31
0.0
  0
LINE
  5
6DD4
  8
AM_0
 10
140.1896321479972
 20
433.38129250818582
 30
0.0
 11
133.1896321479972
 21
433.38129250818582
 31
0.0
  0
LINE
  5
6DD5
  8
AM_0
 10
133.6896321479972
 20
432.88129250818582
 30
0.0
 11
140.1896321479972
 21
432.88129250818582
 31
0.0
  0
LINE
  5
6DD6
  8
AM_0
 10
140.1896321479972
 20
443.01457233683368
 30
0.0
 11
133.6896321479972
 21
443.01457233683368
 31
0.0
  0
LINE
  5
6DD7
  8
AM_0
 10
140.1896321479972
 20
442.51457233683368
 30
0.0
 11
133.6896321479972
 21
442.51457233683368
 31
0.0
  0
ARC
  5
6DD8
  8
AM_0
 10
139.88963214799719
 20
443.68129250818572
 30
0.0
 40
0.3000000000000043
 50
270.0
 51
0.0
  0
ARC
  5
6DD9
  8
AM_0
 10
140.48963214799721
 20
444.08129250818598
 30
0.0
 40
0.2999999999999971
 50
90.0
 51
180.0
  0
ARC
  5
6DDA
  8
AM_0
 10
141.8146321479972
 20
437.88129250818582
 30
0.0
 40
9.124999999999984
 50
152.92493329271929
 51
207.07506670728071
  0
LINE
  5
6DDB
  8
AM_0
 10
133.1896321479972
 20
433.38129250818582
 30
0.0
 11
133.6896321479972
 21
433.72798057672679
 31
0.0
  0
LINE
  5
6DDC
  8
AM_0
 10
133.6896321479972
 20
432.88129250818582
 30
0.0
 11
133.1896321479972
 21
433.38129250818582
 31
0.0
  0
LINE
  5
6DDD
  8
AM_0
 10
130.04944774833271
 20
441.18113884179911
 30
0.0
 11
132.41149768351471
 21
443.14951378778312
 31
0.0
  0
LINE
  5
6DDE
  8
AM_0
 10
133.6896321479972
 20
443.3812925081856
 30
0.0
 11
133.1896321479972
 21
442.80285992467873
 31
0.0
  0
ARC
  5
6DDF
  8
AM_0
 10
133.051682083179
 20
442.38129250818571
 30
0.0
 40
1.0000000000000411
 50
90.0
 51
129.805571092256
  0
LINE
  5
6DE0
  8
AM_0
 10
133.1896321479972
 20
441.80285992467873
 30
0.0
 11
133.6896321479972
 21
442.03460443964451
 31
0.0
  0
LINE
  5
6DE1
  8
AM_0
 10
133.6896321479972
 20
442.51457233683368
 30
0.0
 11
133.1896321479972
 21
441.80285992467873
 31
0.0
  0
LINE
  5
6DE2
  8
AM_0
 10
133.1896321479972
 20
442.34058465170682
 30
0.0
 11
133.6896321479972
 21
442.51457233683368
 31
0.0
  0
LINE
  5
6DE3
  8
AM_0
 10
133.6896321479972
 20
443.01457233683368
 30
0.0
 11
133.1896321479972
 21
442.34058465170682
 31
0.0
  0
LINE
  5
6DE4
  8
AM_0
 10
133.1896321479972
 20
442.80285992467873
 30
0.0
 11
133.6896321479972
 21
443.01457233683368
 31
0.0
  0
ARC
  5
6DE5
  8
AM_0
 10
130.6896321479972
 20
440.41291756220159
 30
0.0
 40
1.0
 50
129.80557109226521
 51
180.0
  0
LINE
  5
6DE6
  8
AM_0
 10
255.08830324434331
 20
409.38129250818599
 30
0.0
 11
234.27379834481081
 21
409.38129250818599
 31
0.0
  0
LINE
  5
6DE7
  8
AM_0
 10
179.9028081438756
 20
409.38129250818599
 30
0.0
 11
159.08830324434379
 21
409.38129250818599
 31
0.0
  0
LINE
  5
6DE8
  8
AM_0
 10
248.9525215751822
 20
405.38129250818599
 30
0.0
 11
165.22408491350399
 21
405.38129250818599
 31
0.0
  0
LINE
  5
6DE9
  8
AM_0
 10
167.99565821665021
 20
407.32235499605821
 30
0.0
 11
168.08830324434379
 21
408.38129250818599
 31
0.0
  0
LINE
  5
6DEA
  8
AM_0
 10
160.18094827203711
 20
407.32235499605821
 30
0.0
 11
160.08830324434379
 21
408.38129250818599
 31
0.0
  0
ARC
  5
6DEB
  8
AM_0
 10
164.08830324434379
 20
411.78129250818603
 30
0.0
 40
6.5
 50
241.82726586813479
 51
298.17273413186518
  0
ARC
  5
6DEC
  8
AM_0
 10
161.77485978898409
 20
407.46180418445442
 30
0.0
 40
1.6000000000000001
 50
184.99999999999969
 51
241.82726586813479
  0
LINE
  5
6DED
  8
AM_0
 10
166.38830324434369
 20
405.70181884675759
 30
0.0
 11
164.08830324434379
 21
407.99137852555322
 31
0.0
  0
LINE
  5
6DEE
  8
AM_0
 10
164.39980324434379
 20
407.681292508186
 30
0.0
 11
163.7768032443438
 21
407.681292508186
 31
0.0
  0
LINE
  5
6DEF
  8
AM_0
 10
161.78830324434389
 20
405.70181884675759
 30
0.0
 11
164.08830324434379
 21
407.99137852555322
 31
0.0
  0
LINE
  5
6DF0
  8
AM_0
 10
164.39980324434379
 20
405.28876081785131
 30
0.0
 11
164.39980324434379
 21
407.681292508186
 31
0.0
  0
LINE
  5
6DF1
  8
AM_0
 10
163.7768032443438
 20
405.28876081785131
 30
0.0
 11
163.7768032443438
 21
407.681292508186
 31
0.0
  0
ARC
  5
6DF2
  8
AM_0
 10
166.40174669970341
 20
407.46180418445442
 30
0.0
 40
1.6000000000000001
 50
298.17273413186518
 51
355.00000000000023
  0
LINE
  5
6DF3
  8
AM_0
 10
255.08830324434331
 20
409.38129250818599
 30
0.0
 11
255.08830324434331
 21
413.38129250818599
 31
0.0
  0
LINE
  5
6DF4
  8
AM_0
 10
159.08830324434291
 20
413.38129250818582
 30
0.0
 11
159.08830324434399
 21
409.38129250818599
 31
0.0
  0
LINE
  5
6DF5
  8
AM_0N
 10
167.8883032443438
 20
409.38129250818599
 30
0.0
 11
167.8883032443438
 21
408.38129250818599
 31
0.0
  0
LINE
  5
6DF6
  8
AM_0N
 10
164.28830324434381
 20
408.38129250818599
 30
0.0
 11
164.65227347861
 21
409.38129250818599
 31
0.0
  0
LINE
  5
6DF7
  8
AM_0N
 10
163.8883032443438
 20
408.38129250818599
 30
0.0
 11
164.25227347860991
 21
409.38129250818599
 31
0.0
  0
LINE
  5
6DF8
  8
AM_0N
 10
160.08830324434379
 20
408.38129250818599
 30
0.0
 11
168.08830324434379
 21
408.38129250818599
 31
0.0
  0
LINE
  5
6DF9
  8
AM_0N
 10
160.28830324434381
 20
408.38129250818599
 30
0.0
 11
160.28830324434381
 21
409.38129250818599
 31
0.0
  0
LINE
  5
6DFA
  8
AM_0
 10
179.9028081438754
 20
405.38129250818599
 30
0.0
 11
179.9028081438754
 21
409.38129250818599
 31
0.0
  0
LINE
  5
6DFB
  8
AM_0
 10
178.24595389438301
 20
409.38129250818599
 30
0.0
 11
179.9028081438754
 21
405.38129250818599
 31
0.0
  0
LINE
  5
6DFC
  8
AM_0
 10
234.27379834481081
 20
405.38129250818599
 30
0.0
 11
234.27379834481081
 21
409.38129250818599
 31
0.0
  0
LINE
  5
6DFD
  8
AM_0
 10
235.93065259430341
 20
409.38129250818599
 30
0.0
 11
234.27379834481081
 21
405.38129250818599
 31
0.0
  0
LINE
  5
6DFE
  8
AM_0
 10
173.58830324434311
 20
454.38129250818599
 30
0.0
 11
240.58830324434331
 21
454.38129250818599
 31
0.0
  0
LINE
  5
6DFF
  8
AM_0
 10
173.58830324434311
 20
454.38129250818599
 30
0.0
 11
173.58830324434311
 21
452.38129250818599
 31
0.0
  0
LINE
  5
6E00
  8
AM_0
 10
240.58830324434331
 20
454.38129250818599
 30
0.0
 11
240.58830324434331
 21
452.38129250818599
 31
0.0
  0
LINE
  5
6E01
  8
ﾁｭｳｼﾝｾﾝ1
 10
250.0883032443426
 20
403.11658500818601
 30
0.0
 11
250.0883032443426
 21
416.11658500818601
 31
0.0
  0
LINE
  5
6E02
  8
AM_0
 10
246.1809482720362
 20
407.32235499605821
 30
0.0
 11
246.08830324434271
 21
408.38129250818599
 31
0.0
  0
LINE
  5
6E03
  8
AM_0
 10
253.99565821664919
 20
407.32235499605821
 30
0.0
 11
254.0883032443426
 21
408.38129250818599
 31
0.0
  0
ARC
  5
6E04
  8
AM_0
 10
250.0883032443428
 20
411.78129250818591
 30
0.0
 40
6.5
 50
241.82726586813479
 51
298.17273413186518
  0
ARC
  5
6E05
  8
AM_0
 10
252.4017466997025
 20
407.46180418445431
 30
0.0
 40
1.6000000000000001
 50
298.17273413186518
 51
355.00000000000023
  0
LINE
  5
6E06
  8
AM_0
 10
247.7883032443427
 20
405.70181884675759
 30
0.0
 11
250.08830324434271
 21
407.99137852555322
 31
0.0
  0
LINE
  5
6E07
  8
AM_0
 10
249.77680324434269
 20
407.681292508186
 30
0.0
 11
250.39980324434271
 21
407.681292508186
 31
0.0
  0
LINE
  5
6E08
  8
AM_0
 10
252.38830324434261
 20
405.70181884675759
 30
0.0
 11
250.08830324434271
 21
407.99137852555322
 31
0.0
  0
LINE
  5
6E09
  8
AM_0
 10
249.77680324434269
 20
405.28876081785131
 30
0.0
 11
249.77680324434269
 21
407.681292508186
 31
0.0
  0
LINE
  5
6E0A
  8
AM_0
 10
250.39980324434271
 20
405.28876081785131
 30
0.0
 11
250.39980324434271
 21
407.681292508186
 31
0.0
  0
ARC
  5
6E0B
  8
AM_0
 10
247.77485978898309
 20
407.46180418445431
 30
0.0
 40
1.6000000000000001
 50
184.99999999999969
 51
241.82726586813479
  0
LINE
  5
6E0C
  8
AM_0N
 10
246.28830324434259
 20
409.38129250818599
 30
0.0
 11
246.28830324434259
 21
408.38129250818599
 31
0.0
  0
LINE
  5
6E0D
  8
AM_0N
 10
249.88830324434261
 20
408.38129250818599
 30
0.0
 11
249.5243330100765
 21
409.38129250818599
 31
0.0
  0
LINE
  5
6E0E
  8
AM_0N
 10
250.28830324434259
 20
408.38129250818599
 30
0.0
 11
249.9243330100764
 21
409.38129250818599
 31
0.0
  0
LINE
  5
6E0F
  8
AM_0N
 10
254.08830324434271
 20
408.38129250818599
 30
0.0
 11
246.08830324434271
 21
408.38129250818599
 31
0.0
  0
LINE
  5
6E10
  8
AM_0N
 10
253.88830324434261
 20
408.38129250818599
 30
0.0
 11
253.88830324434261
 21
409.38129250818599
 31
0.0
  0
LINE
  5
6E11
  8
AM_0
 10
158.08830324434311
 20
416.38129250818582
 30
0.0
 11
158.08830324434311
 21
448.3812925081856
 31
0.0
  0
LINE
  5
6E1A
  8
AM_0
 10
372.08826324434278
 20
561.88128950818555
 30
0.0
 11
377.08826324434278
 21
556.881289508186
 31
0.0
  0
LINE
  5
6E1B
  8
AM_0
 10
368.08834324434292
 20
561.88128950818555
 30
0.0
 11
372.08826324434278
 21
561.88128950818555
 31
0.0
  0
LINE
  5
6E1D
  8
AM_0
 10
377.08826324434278
 20
556.881289508186
 30
0.0
 11
377.08826324434278
 21
499.88128950818611
 31
0.0
  0
LINE
  5
6E1E
  8
AM_0
 10
368.08834324434292
 20
494.8812895081856
 30
0.0
 11
372.08826324434278
 21
494.8812895081856
 31
0.0
  0
LINE
  5
6E1F
  8
AM_0
 10
372.08826324434278
 20
494.8812895081856
 30
0.0
 11
377.08826324434278
 21
499.88128950818611
 31
0.0
  0
LINE
  5
6E22
  8
AM_0
 10
372.08826324434278
 20
561.88128950818555
 30
0.0
 11
372.08826324434278
 21
494.8812895081856
 31
0.0
  0
LINE
  5
6E6C
  8
AM_0
 10
304.088313244343
 20
599.38129250818588
 30
0.0
 11
304.088313244343
 21
457.38129250818571
 31
0.0
  0
LINE
  5
6E6D
  8
AM_0
 10
304.08834324434292
 20
457.38132250818597
 30
0.0
 11
299.03600324434291
 21
457.5136125081857
 31
0.0
  0
LINE
  5
6E6E
  8
AM_0
 10
304.088313244343
 20
599.38129250818588
 30
0.0
 11
299.03600324434291
 21
599.24899250818589
 31
0.0
  0
LINE
  5
6E6F
  8
AM_0
 10
297.08834324434298
 20
459.51291250818559
 30
0.0
 11
297.08834324434298
 21
597.24966250818557
 31
0.0
  0
LINE
  5
6E70
  8
AM_0
 10
292.3281432443431
 20
464.22037250818568
 30
0.0
 11
267.0883732443429
 21
464.8812925081856
 31
0.0
  0
LINE
  5
6E71
  8
AM_0
 10
294.08831324434288
 20
463.17001250818561
 30
0.0
 11
295.08834324434298
 21
463.17001250818561
 31
0.0
  0
LINE
  5
6E72
  8
AM_0
 10
292.08831324434288
 20
465.17001250818561
 30
0.0
 11
292.08831324434288
 21
474.3412525081859
 31
0.0
  0
LINE
  5
6E73
  8
AM_0
 10
292.08831324434288
 20
591.59259250818559
 30
0.0
 11
292.08831324434288
 21
582.42133250818574
 31
0.0
  0
LINE
  5
6E74
  8
AM_0
 10
292.3281432443431
 20
592.54224250818572
 30
0.0
 11
267.0883732443429
 21
591.88132250818592
 31
0.0
  0
LINE
  5
6E75
  8
AM_0
 10
294.08831324434288
 20
593.5925925081857
 30
0.0
 11
295.08834324434298
 21
593.5925925081857
 31
0.0
  0
LINE
  5
6E76
  8
AM_0
 10
267.08834324434281
 20
476.3412525081859
 30
0.0
 11
297.08834324434298
 21
476.3412525081859
 31
0.0
  0
LINE
  5
6E77
  8
AM_0
 10
267.08834324434281
 20
491.23126250818598
 30
0.0
 11
297.08834324434298
 21
491.23126250818598
 31
0.0
  0
LINE
  5
6E78
  8
AM_0
 10
267.08834324434281
 20
565.53131250818569
 30
0.0
 11
297.08834324434298
 21
565.53131250818569
 31
0.0
  0
LINE
  5
6E79
  8
AM_0
 10
267.08834324434281
 20
580.42133250818586
 30
0.0
 11
297.08834324434298
 21
580.42133250818586
 31
0.0
  0
LINE
  5
6E7A
  8
AM_0
 10
337.08831324434328
 20
576.0794125081859
 30
0.0
 11
352.08831324434328
 21
576.0794125081859
 31
0.0
  0
LINE
  5
6E7B
  8
AM_0
 10
356.01851324434301
 20
443.66309250818603
 30
0.0
 11
364.088313244343
 21
443.3812925081856
 31
0.0
  0
LINE
  5
6E7C
  8
AM_0
 10
336.08831324434328
 20
598.77026250818585
 30
0.0
 11
336.08831324434328
 21
457.99231250818559
 31
0.0
  0
LINE
  5
6E7D
  8
AM_0
 10
339.00979324434292
 20
601.76926250818565
 30
0.0
 11
351.16683324434302
 21
602.08759250818571
 31
0.0
  0
LINE
  5
6E7E
  8
AM_0
 10
364.088313244343
 20
598.38129250818565
 30
0.0
 11
368.08834324434292
 21
598.38129250818565
 31
0.0
  0
LINE
  5
6E7F
  8
AM_0
 10
337.08831324434328
 20
480.68317250818569
 30
0.0
 11
352.08831324434328
 21
480.68317250818569
 31
0.0
  0
LINE
  5
6E80
  8
AM_0
 10
364.088313244343
 20
458.38129250818571
 30
0.0
 11
368.08834324434292
 21
458.38129250818571
 31
0.0
  0
LINE
  5
6E81
  8
AM_0
 10
339.0098232443429
 20
454.99335250818592
 30
0.0
 11
351.16686324434289
 21
454.67502250818598
 31
0.0
  0
LINE
  5
6E82
  8
AM_0
 10
335.1119032443429
 20
456.5688825081856
 30
0.0
 11
304.088313244343
 21
457.38129250818571
 31
0.0
  0
LINE
  5
6E83
  8
AM_0
 10
356.01848324434297
 20
613.09952250818571
 30
0.0
 11
364.088313244343
 21
613.38132250818569
 31
0.0
  0
LINE
  5
6E84
  8
AM_0
 10
354.088313244343
 20
570.33295250818571
 30
0.0
 11
354.088313244343
 21
611.10068250818586
 31
0.0
  0
LINE
  5
6E85
  8
AM_0
 10
364.088313244343
 20
443.3812925081856
 30
0.0
 11
364.088313244343
 21
613.38132250818569
 31
0.0
  0
LINE
  5
6E86
  8
AM_0
 10
358.08831324434328
 20
461.5999425081859
 30
0.0
 11
358.08831324434328
 21
595.16263250818588
 31
0.0
  0
LINE
  5
6E87
  8
AM_0
 10
351.63112324434297
 20
466.21921250818559
 30
0.0
 11
338.54549324434282
 21
473.94827250818571
 31
0.0
  0
LINE
  5
6E88
  8
AM_0
 10
368.08834324434292
 20
598.38129250818565
 30
0.0
 11
368.08834324434292
 21
458.38129250818571
 31
0.0
  0
LINE
  5
6E89
  8
AM_0
 10
351.6311532443429
 20
587.05914250818557
 30
0.0
 11
338.54549324434282
 21
579.33008250818591
 31
0.0
  0
LINE
  5
6E8A
  8
AM_0
 10
354.088313244343
 20
486.42963250818559
 30
0.0
 11
354.088313244343
 21
445.66190250818568
 31
0.0
  0
LINE
  5
6E8B
  8
AM_0
 10
351.63112324434297
 20
469.70343250818593
 30
0.0
 11
338.54552324434297
 21
477.43246250818561
 31
0.0
  0
LINE
  5
6E8C
  8
AM_0
 10
351.6311532443429
 20
590.54337250818594
 30
0.0
 11
338.54549324434282
 21
582.81430250818585
 31
0.0
  0
LINE
  5
6E8D
  8
AM_0
 10
335.11193324434288
 20
600.19366250818575
 30
0.0
 11
304.088313244343
 21
599.38129250818588
 31
0.0
  0
ARC
  5
6E8E
  8
AM_0
 10
299.08834324434309
 20
459.51291250818559
 30
0.0
 40
2.0
 50
180.00001000000091
 51
268.49999999999733
  0
ARC
  5
6E8F
  8
AM_0
 10
299.08834324434309
 20
597.24966250818557
 30
0.0
 40
2.0
 50
91.500001000001546
 51
180.00001000000091
  0
ARC
  5
6E90
  8
AM_0
 10
294.08831324434288
 20
465.17001250818561
 30
0.0
 40
2.0
 50
180.00001000000091
 51
270.0
  0
ARC
  5
6E91
  8
AM_0
 10
295.08834324434298
 20
461.17001250818561
 30
0.0
 40
2.0
 50
0.0
 51
90.00000299999769
  0
ARC
  5
6E92
  8
AM_0
 10
295.08834324434298
 20
595.5925925081857
 30
0.0
 40
2.0
 50
270.0
 51
0.0
  0
ARC
  5
6E93
  8
AM_0
 10
294.08831324434288
 20
591.59259250818559
 30
0.0
 40
2.0
 50
90.00000299999769
 51
180.00001000000091
  0
ARC
  5
6E94
  8
AM_0
 10
290.08831324434288
 20
474.3412525081859
 30
0.0
 40
2.0
 50
0.0
 51
90.00000299999769
  0
ARC
  5
6E95
  8
AM_0
 10
290.08831324434288
 20
582.42133250818574
 30
0.0
 40
2.0
 50
270.0
 51
0.0
  0
ARC
  5
6E96
  8
AM_0
 10
349.08831324434288
 20
591.3642625081859
 30
0.0
 40
5.0
 50
300.56828999999891
 51
0.0
  0
ARC
  5
6E97
  8
AM_0
 10
357.08831324434288
 20
486.42963250818559
 30
0.0
 40
3.0
 50
90.00000299999769
 51
180.00001000000091
  0
ARC
  5
6E98
  8
AM_0
 10
335.03338324434287
 20
603.19263250818585
 30
0.0
 40
3.0
 50
271.50000000000267
 51
312.51811999999683
  0
ARC
  5
6E99
  8
AM_0
 10
339.088313244343
 20
457.99231250818559
 30
0.0
 40
3.0
 50
179.999989999999
 51
268.50000999999878
  0
ARC
  5
6E9A
  8
AM_0
 10
356.08834324434292
 20
445.66190250818568
 30
0.0
 40
2.0
 50
179.999989999999
 51
268.00000999999861
  0
ARC
  5
6E9B
  8
AM_0
 10
339.088313244343
 20
598.77026250818585
 30
0.0
 40
3.0
 50
91.500001000001546
 51
180.00001000000091
  0
ARC
  5
6E9C
  8
AM_0
 10
351.08831324434288
 20
605.08655250818572
 30
0.0
 40
3.0
 50
271.50000000000267
 51
0.0
  0
ARC
  5
6E9D
  8
AM_0
 10
351.08831324434288
 20
451.67603250818593
 30
0.0
 40
3.0
 50
0.0
 51
88.499997000000647
  0
ARC
  5
6E9E
  8
AM_0
 10
335.03338324434287
 20
453.5699225081857
 30
0.0
 40
3.0
 50
47.481951999999431
 51
88.499997000000647
  0
ARC
  5
6E9F
  8
AM_0
 10
356.08834324434292
 20
611.10068250818586
 30
0.0
 40
2.0
 50
91.999998000000545
 51
180.00001000000091
  0
ARC
  5
6EA0
  8
AM_0
 10
352.08831324434328
 20
478.68317250818569
 30
0.0
 40
2.0
 50
0.0
 51
90.00000299999769
  0
ARC
  5
6EA1
  8
AM_0
 10
352.08831324434328
 20
578.07941250818567
 30
0.0
 40
2.0
 50
270.0
 51
0.0
  0
ARC
  5
6EA2
  8
AM_0
 10
355.08831324434288
 20
595.16263250818588
 30
0.0
 40
3.0
 50
0.0
 51
90.00000299999769
  0
ARC
  5
6EA3
  8
AM_0
 10
357.08831324434288
 20
570.33295250818571
 30
0.0
 40
3.0
 50
179.999989999999
 51
270.0
  0
ARC
  5
6EA4
  8
AM_0
 10
349.08831324434288
 20
461.91406250818568
 30
0.0
 40
5.0
 50
0.0
 51
59.431709000002151
  0
ARC
  5
6EA5
  8
AM_0
 10
355.08831324434288
 20
461.5999425081859
 30
0.0
 40
3.0
 50
270.0
 51
0.0
  0
ARC
  5
6EA6
  8
AM_0
 10
341.088313244343
 20
478.25336250818572
 30
0.0
 40
5.0
 50
179.999989999999
 51
239.431710000001
  0
ARC
  5
6EA7
  8
AM_0
 10
349.08831324434288
 20
594.84851250818565
 30
0.0
 40
5.0
 50
300.56828999999891
 51
0.0
  0
ARC
  5
6EA8
  8
AM_0
 10
341.088313244343
 20
575.02496250818558
 30
0.0
 40
5.0
 50
120.5682899999989
 51
180.00001000000091
  0
ARC
  5
6EA9
  8
AM_0
 10
341.088313244343
 20
578.50922250818599
 30
0.0
 40
5.0
 50
120.5682899999989
 51
180.00001000000091
  0
ARC
  5
6EAA
  8
AM_0
 10
337.08831324434328
 20
481.68317250818592
 30
0.0
 40
1.0
 50
179.999989999999
 51
270.0
  0
ARC
  5
6EAB
  8
AM_0
 10
337.08831324434328
 20
575.0794125081859
 30
0.0
 40
1.0
 50
90.00000299999769
 51
180.00001000000091
  0
ARC
  5
6EAC
  8
AM_0
 10
341.088313244343
 20
481.73761250818558
 30
0.0
 40
5.0
 50
179.999989999999
 51
239.431710000001
  0
ARC
  5
6EAD
  8
AM_0
 10
349.08831324434288
 20
465.3983225081858
 30
0.0
 40
5.0
 50
0.0
 51
59.431709000002151
  0
TEXT
  5
7084
  8
AM_0
 10
500.21243850372542
 20
534.1868743473766
 30
0.0
 40
10.0
  1
VX04-040MFW~VX04-050MFW
  0
ENDSEC
  0
EOF
