  0
SECTION
  2
HEADER
  9
$ACADVER
  1
AC1009
  9
$INSBASE
 10
0.0
 20
0.0
 30
0.0
  9
$EXTMIN
 10
77.463045290279069
 20
145.125972250031
 30
-0.0015258207003583
  9
$EXTMAX
 10
754.02745243293157
 20
629.45556159815783
 30
0.0000000349246037
  9
$LIMMIN
 10
0.0
 20
0.0
  9
$LIMMAX
 10
853.5
 20
555.00000000000011
  9
$ORTHOMODE
 70
     0
  9
$REGENMODE
 70
     1
  9
$FILLMODE
 70
     1
  9
$QTEXTMODE
 70
     0
  9
$MIRRTEXT
 70
     1
  9
$DRAGMODE
 70
     2
  9
$LTSCALE
 40
3.0
  9
$OSMODE
 70
   551
  9
$ATTMODE
 70
     1
  9
$TEXTSIZE
 40
2.5
  9
$TRACEWID
 40
1.0
  9
$TEXTSTYLE
  7
STANDARD
  9
$CLAYER
  8
AM_0
  9
$CELTYPE
  6
BYLAYER
  9
$CECOLOR
 62
   256
  9
$DIMSCALE
 40
1.0
  9
$DIMASZ
 40
2.5
  9
$DIMEXO
 40
1.0
  9
$DIMDLI
 40
8.0
  9
$DIMRND
 40
0.0
  9
$DIMDLE
 40
0.0
  9
$DIMEXE
 40
0.6
  9
$DIMTP
 40
0.1
  9
$DIMTM
 40
0.1
  9
$DIMTXT
 40
2.5
  9
$DIMCEN
 40
0.0
  9
$DIMTSZ
 40
0.0
  9
$DIMTOL
 70
     0
  9
$DIMLIM
 70
     0
  9
$DIMTIH
 70
     0
  9
$DIMTOH
 70
     0
  9
$DIMSE1
 70
     0
  9
$DIMSE2
 70
     0
  9
$DIMTAD
 70
     1
  9
$DIMZIN
 70
     8
  9
$DIMBLK
  1

  9
$DIMASO
 70
     1
  9
$DIMSHO
 70
     1
  9
$DIMPOST
  1

  9
$DIMAPOST
  1
"
  9
$DIMALT
 70
     0
  9
$DIMALTD
 70
     2
  9
$DIMALTF
 40
0.0393701
  9
$DIMLFAC
 40
1.0
  9
$DIMTOFL
 70
     1
  9
$DIMTVP
 40
0.0
  9
$DIMTIX
 70
     0
  9
$DIMSOXD
 70
     0
  9
$DIMSAH
 70
     0
  9
$DIMBLK1
  1

  9
$DIMBLK2
  1

  9
$DIMSTYLE
  2
AM_ISO
  9
$DIMCLRD
 70
   256
  9
$DIMCLRE
 70
   256
  9
$DIMCLRT
 70
     4
  9
$DIMTFAC
 40
0.71
  9
$DIMGAP
 40
0.8
  9
$LUNITS
 70
     2
  9
$LUPREC
 70
     2
  9
$SKETCHINC
 40
1.0
  9
$FILLETRAD
 40
15.0
  9
$AUNITS
 70
     0
  9
$AUPREC
 70
     0
  9
$MENU
  1
.
  9
$ELEVATION
 40
0.0
  9
$PELEVATION
 40
0.0
  9
$THICKNESS
 40
0.0
  9
$LIMCHECK
 70
     0
  9
$BLIPMODE
 70
     0
  9
$CHAMFERA
 40
6.0
  9
$CHAMFERB
 40
3.0
  9
$SKPOLY
 70
     0
  9
$TDCREATE
 40
2452065.7887456599
  9
$TDUPDATE
 40
2458541.6046612039
  9
$TDINDWG
 40
0.1245819676
  9
$TDUSRTIMER
 40
0.1245819444
  9
$USRTIMER
 70
     1
  9
$ANGBASE
 50
0.0
  9
$ANGDIR
 70
     0
  9
$PDMODE
 70
     0
  9
$PDSIZE
 40
0.0
  9
$PLINEWID
 40
0.0
  9
$COORDS
 70
     1
  9
$SPLFRAME
 70
     0
  9
$SPLINETYPE
 70
     6
  9
$SPLINESEGS
 70
     8
  9
$ATTDIA
 70
     1
  9
$ATTREQ
 70
     1
  9
$HANDLING
 70
     1
  9
$HANDSEED
  5
75F3
  9
$SURFTAB1
 70
     6
  9
$SURFTAB2
 70
     6
  9
$SURFTYPE
 70
     6
  9
$SURFU
 70
     6
  9
$SURFV
 70
     6
  9
$UCSNAME
  2

  9
$UCSORG
 10
0.0
 20
0.0
 30
0.0
  9
$UCSXDIR
 10
1.0
 20
0.0
 30
0.0
  9
$UCSYDIR
 10
0.0
 20
1.0
 30
0.0
  9
$PUCSNAME
  2

  9
$PUCSORG
 10
0.0
 20
0.0
 30
0.0
  9
$PUCSXDIR
 10
1.0
 20
0.0
 30
0.0
  9
$PUCSYDIR
 10
0.0
 20
1.0
 30
0.0
  9
$USERI1
 70
     0
  9
$USERI2
 70
     0
  9
$USERI3
 70
     0
  9
$USERI4
 70
     0
  9
$USERI5
 70
     0
  9
$USERR1
 40
0.0
  9
$USERR2
 40
0.0
  9
$USERR3
 40
0.0
  9
$USERR4
 40
0.0
  9
$USERR5
 40
0.0
  9
$WORLDVIEW
 70
     1
  9
$SHADEDGE
 70
     3
  9
$SHADEDIF
 70
    70
  9
$TILEMODE
 70
     1
  9
$MAXACTVP
 70
    64
  9
$PLIMCHECK
 70
     0
  9
$PEXTMIN
 10
1.0000000000000000E+020
 20
1.0000000000000000E+020
 30
1.0000000000000000E+020
  9
$PEXTMAX
 10
-1.0000000000000000E+020
 20
-1.0000000000000000E+020
 30
-1.0000000000000000E+020
  9
$PLIMMIN
 10
0.0
 20
0.0
  9
$PLIMMAX
 10
420.0
 20
297.0
  9
$UNITMODE
 70
     0
  9
$VISRETAIN
 70
     1
  9
$PLINEGEN
 70
     0
  9
$PSLTSCALE
 70
     1
  0
ENDSEC
  0
SECTION
  2
TABLES
  0
TABLE
  2
VPORT
 70
     1
  0
VPORT
  2
*ACTIVE
 70
     0
 10
0.0
 20
0.0
 11
1.0
 21
1.0
 12
415.74524886160532
 22
387.29076692409438
 13
0.0
 23
0.0
 14
7.5
 24
7.5
 15
30.0
 25
30.0
 16
0.0
 26
0.0
 36
1.0
 17
0.0
 27
0.0
 37
0.0
 40
487.65450643747312
 41
1.7571592210767459
 42
50.0
 43
0.0
 44
0.0
 50
0.0
 51
0.0
 71
     0
 72
   100
 73
     1
 74
     3
 75
     0
 76
     0
 77
     0
 78
     0
  0
ENDTAB
  0
TABLE
  2
LTYPE
 70
    26
  0
LTYPE
  2
CONTINUOUS
 70
     0
  3
Solid line
 72
    65
 73
     0
 40
0.0
  0
LTYPE
  2
AM_ISO02W050
 70
     0
  3
__ __ __ __ __ __ __ __ __ __ __ __ __ __ __
 72
    65
 73
     2
 40
7.5
 49
6.0
 49
-1.5
  0
LTYPE
  2
AM_ISO08W050
 70
     0
  3
____ . ____ . ____ . ____ . ____ . ____ . ____
 72
    65
 73
     4
 40
18.0
 49
12.0
 49
-1.5
 49
3.0
 49
-1.5
  0
LTYPE
  2
AM_ISO09W050
 70
     0
  3
_____ . . _____ . . _____ . . ____ .. ____
 72
    65
 73
     6
 40
22.5
 49
12.0
 49
-1.5
 49
3.0
 49
-1.5
 49
3.0
 49
-1.5
  0
LTYPE
  2
AMCONSTR
 70
     0
  3
_______________________
 72
    65
 73
     2
 40
9999.0
 49
9999.0
 49
0.0
  0
LTYPE
  2
AM_ISO08W050X2
 70
     0
  3
__ . __ . __ . __ . __ . __
 72
    65
 73
     4
 40
9.0
 49
6.0
 49
-0.75
 49
1.5
 49
-0.75
  0
LTYPE
  2
AM_ISO02W050X2
 70
     0
  3
 _ _ _ _ _ _ _ _ _ _ _ _
 72
    65
 73
     2
 40
3.75
 49
3.0
 49
-0.75
  0
LTYPE
  2
AMZIGZAG
 70
     0
  3
/\/-/\/-/\/-/\/-/\/-/\/
 72
    65
 73
     2
 40
11.0001
 49
0.0001
 49
-11.0
  0
LTYPE
  2
ACISOWELD
 70
     0
  3
_ _ _ _ _
 72
    65
 73
     2
 40
2.0
 49
2.0
 49
-1.0
  0
LTYPE
  2
ACISOTGB
 70
     0
  3
__ . . __ . .
 72
    65
 73
     6
 40
9.0
 49
4.0
 49
-1.0
 49
1.0
 49
-1.0
 49
1.0
 49
-1.0
  0
LTYPE
  2
ACISOTGL
 70
     0
  3
_ _ _ _ _
 72
    65
 73
     2
 40
3.0
 49
2.0
 49
-1.0
  0
LTYPE
  2
CENTER
 70
     0
  3
__ . __
 72
    65
 73
     4
 40
7.0
 49
4.0
 49
-1.0
 49
1.0
 49
-1.0
  0
LTYPE
  2
HIDDEN
 70
     0
  3
Hidden __ __ __ __ __ __ __ __ __ __ __ __ __ _
 72
    65
 73
     2
 40
9.5249999999999986
 49
6.3499999999999979
 49
-3.174999999999998
  0
LTYPE
  2
PHANTOM2
 70
     0
  3
Phantom (.5x) ___ _ _ ___ _ _ ___ _ _ ___ _ _
 72
    65
 73
     6
 40
31.75
 49
15.875
 49
-3.174999999999998
 49
3.174999999999998
 49
-3.174999999999998
 49
3.174999999999998
 49
-3.174999999999998
  0
LTYPE
  2
ACANSTGBM
 70
     0
  3
__ . . __ . .
 72
    65
 73
     6
 40
9.0
 49
4.0
 49
-1.0
 49
1.0
 49
-1.0
 49
1.0
 49
-1.0
  0
LTYPE
  2
ACANSTGLM
 70
     0
  3
_ _ _ _ _
 72
    65
 73
     2
 40
3.0
 49
2.0
 49
-1.0
  0
LTYPE
  2
GEN7
 70
     0
  3
____ . ____ . ____ . ____ . ____ . ____ . ____
 72
    65
 73
     4
 40
14.25
 49
9.75
 49
-1.5
 49
1.5
 49
-1.5
  0
LTYPE
  2
GEN7A
 70
     0
  3
__ . __ . __
 72
    65
 73
     4
 40
7.375
 49
4.75
 49
-0.875
 49
0.875
 49
-0.875
  0
LTYPE
  2
ACJISTGB
 70
     0
  3
__ . . __ . .
 72
    65
 73
     6
 40
9.0
 49
4.0
 49
-1.0
 49
1.0
 49
-1.0
 49
1.0
 49
-1.0
  0
LTYPE
  2
ACJISTGL
 70
     0
  3
_ _ _ _ _
 72
    65
 73
     2
 40
3.0
 49
2.0
 49
-1.0
  0
LTYPE
  2
CENTER2
 70
     0
  3
Center (.5x) ___ _ ___ _ ___ _ ___ _ ___ _ ___
 72
    65
 73
     4
 40
1.125
 49
0.75
 49
-0.125
 49
0.125
 49
-0.125
  0
LTYPE
  2
HIDDEN2
 70
     0
  3
Hidden (.5x) _ _ _ _ _ _ _ _ _ _ _ _ _ _ _ _ _
 72
    65
 73
     2
 40
0.1875
 49
0.125
 49
-0.0625
  0
LTYPE
  2
AMZIGZAG2
 70
     0
  3
/\/-/\/-/\/-/\/-/\/-/\/
 72
    65
 73
     2
 40
0.4401
 49
0.0001
 49
-0.4400000000000001
  0
LTYPE
  2
ACANSTGB
 70
     0
  3
__ . . __ . .
 72
    65
 73
     6
 40
0.35433070866
 49
0.15748031496
 49
-0.03937007874
 49
0.03937007874
 49
-0.03937007874
 49
0.03937007874
 49
-0.03937007874
  0
LTYPE
  2
ACANSTGL
 70
     0
  3
_ _ _ _ _
 72
    65
 73
     2
 40
0.11811023622
 49
0.07874015748
 49
-0.03937007874
  0
ENDTAB
  0
TABLE
  2
LAYER
 70
     7
  0
LAYER
  2
0
 70
     0
 62
     7
  6
CONTINUOUS
  0
LAYER
  2
AM_0
 70
     0
 62
     7
  6
CONTINUOUS
  0
LAYER
  2
AM_5
 70
     0
 62
     2
  6
CONTINUOUS
  0
LAYER
  2
DEFPOINTS
 70
     0
 62
     7
  6
CONTINUOUS
  0
LAYER
  2
ﾁｭｳｼﾝｾﾝ
 70
     0
 62
     1
  6
GEN7
  0
LAYER
  2
ﾁｭｳｼﾝｾﾝ1
 70
     0
 62
     1
  6
GEN7A
  0
LAYER
  2
AM_0N
 70
     0
 62
     7
  6
CONTINUOUS
  0
ENDTAB
  0
TABLE
  2
STYLE
 70
    10
  0
STYLE
  2
STANDARD
 70
     0
 40
0.0
 41
0.8299999999999999
 50
0.0
 71
     0
 42
2.5
  3
txt.shx
  4
bigfont.shx
  0
STYLE
  2
ANNOTATIVE
 70
     0
 40
0.0
 41
1.0
 50
0.0
 71
     0
 42
0.2
  3
txt
  4

  0
STYLE
  2

 70
     1
 40
0.0
 41
1.0
 50
0.0
 71
     0
 42
2.5
  3
ltypeshp.shx
  4

  0
STYLE
  2
ACISOTS
 70
     0
 40
1.0
 41
1.0
 50
0.0
 71
     0
 42
2.5
  3
isocp.shx
  4
extfont.shx
  0
STYLE
  2
ACISOGDT
 70
     0
 40
0.0
 41
1.0
 50
0.0
 71
     0
 42
2.5
  3
amgdt.shx
  4

  0
STYLE
  2
ACANSTS
 70
     0
 40
1.0
 41
1.0
 50
0.0
 71
     0
 42
2.5
  3
romans.shx
  4
bigfont.shx
  0
STYLE
  2
ACANSGDT
 70
     0
 40
0.0
 41
1.0
 50
0.0
 71
     0
 42
2.5
  3
amgdt.shx
  4

  0
STYLE
  2
ACJISTS
 70
     0
 40
1.0
 41
1.0
 50
0.0
 71
     0
 42
2.5
  3
isocp.shx
  4
bigfont.shx
  0
STYLE
  2
ACJISGDT
 70
     0
 40
0.0
 41
1.0
 50
0.0
 71
     0
 42
2.5
  3
amgdt.shx
  4

  0
STYLE
  2

 70
     1
 40
0.0
 41
1.0
 50
0.0
 71
     0
 42
2.5
  3
genltshp.shx
  4

  0
ENDTAB
  0
TABLE
  2
VIEW
 70
     6
  0
VIEW
  2
AM_VIEW1
 70
     0
 40
277.50000000000011
 10
249.64779005524869
 20
416.25
 41
499.29558011049721
 11
0.0
 21
0.0
 31
1.0
 12
0.0
 22
0.0
 32
0.0
 42
50.0
 43
0.0
 44
0.0
 50
0.0
 71
     0
  0
VIEW
  2
AM_VIEW2
 70
     0
 40
277.50000000000011
 10
603.85220994475117
 20
416.25
 41
499.29558011049721
 11
0.0
 21
0.0
 31
1.0
 12
0.0
 22
0.0
 32
0.0
 42
50.0
 43
0.0
 44
0.0
 50
0.0
 71
     0
  0
VIEW
  2
AM_VIEW3
 70
     0
 40
277.50000000000011
 10
249.64779005524869
 20
138.75
 41
499.29558011049721
 11
0.0
 21
0.0
 31
1.0
 12
0.0
 22
0.0
 32
0.0
 42
50.0
 43
0.0
 44
0.0
 50
0.0
 71
     0
  0
VIEW
  2
AM_VIEW4
 70
     0
 40
277.50000000000011
 10
603.85220994475117
 20
138.75
 41
499.29558011049721
 11
0.0
 21
0.0
 31
1.0
 12
0.0
 22
0.0
 32
0.0
 42
50.0
 43
0.0
 44
0.0
 50
0.0
 71
     0
  0
VIEW
  2
AM_VIEW5
 70
     0
 40
277.50000000000011
 10
426.75
 20
277.50000000000011
 41
499.2955801104971
 11
0.0
 21
0.0
 31
1.0
 12
0.0
 22
0.0
 32
0.0
 42
50.0
 43
0.0
 44
0.0
 50
0.0
 71
     0
  0
VIEW
  2
AM_VIEW6
 70
     0
 40
554.99445000000014
 10
426.75
 20
277.5
 41
998.5811743093924
 11
0.0
 21
0.0
 31
1.0
 12
0.0
 22
0.0
 32
0.0
 42
50.0
 43
0.0
 44
0.0
 50
0.0
 71
     0
  0
ENDTAB
  0
TABLE
  2
UCS
 70
     0
  0
ENDTAB
  0
TABLE
  2
APPID
 70
    98
  0
APPID
  2
ACAD
 70
     0
  0
APPID
  2
ACADANNOTATIVE
 70
     0
  0
APPID
  2
MCAD_NO_VIS
 70
     0
  0
APPID
  2
ACAD_TEMP_GRAPHIC
 70
     0
  0
APPID
  2
ACATTRIBSERVICES
 70
     0
  0
APPID
  2
GENIUS_GENREC_14
 70
     0
  0
APPID
  2
GENIUS_GENOBJ-N-REC_13
 70
     0
  0
APPID
  2
GENIUS_GENODEF_13
 70
     0
  0
APPID
  2
GENIUS_GENOLIS_13
 70
     0
  0
APPID
  2
GENIUS_GENOBJ-N-TIT_13
 70
     0
  0
APPID
  2
GENIUS_GENOENT_13
 70
     0
  0
APPID
  2
GENIUS_GENTITLE_13
 70
     0
  0
APPID
  2
GENIUS_GENOREF_13
 70
     0
  0
APPID
  2
GENIUS_GENSCREG_15
 70
     0
  0
APPID
  2
GENIUS_GENOBJ-N-SDF_13
 70
     0
  0
APPID
  2
GENIUS_GENFIL_13
 70
     0
  0
APPID
  2
GENIUS_GENOBJ-N-CHA_13
 70
     0
  0
APPID
  2
GENIUS_GENDTOL_13
 70
     0
  0
APPID
  2
GENIUS_GENOBJ-N-FIL_13
 70
     0
  0
APPID
  2
AD_DRAW
 70
     0
  0
APPID
  2
DESIGNERASSEMBLIES
 70
     0
  0
APPID
  2
ASURF_PCURVE_APPNAME
 70
     0
  0
APPID
  2
GENIUS_GE3SECT_13
 70
     0
  0
APPID
  2
GENIUS_GENCFG_13
 70
     0
  0
APPID
  2
GENIUS_GE3CFG0_13
 70
     0
  0
APPID
  2
GENIUS_GENCFG0_13
 70
     0
  0
APPID
  2
GENIUS_GENCFG1_13
 70
     0
  0
APPID
  2
GENIUS_GENCFG2_13
 70
     0
  0
APPID
  2
GENIUS_GENCFG3_13
 70
     0
  0
APPID
  2
GENIUS_GENCFG4_13
 70
     0
  0
APPID
  2
GENIUS_GEVCFG0_13
 70
     0
  0
APPID
  2
GENIUS_GENHINW_13
 70
     0
  0
APPID
  2
GENIUS_FIRSTVISTXT_14
 70
     0
  0
APPID
  2
GENIUS_GENOBJ-N-LEADER_13
 70
     0
  0
APPID
  2
GEV_VCCNULL_SWITCH_OFF
 70
     0
  0
APPID
  2
GENIUS_GEFCFG0_13
 70
     0
  0
APPID
  2
GENIUS_GENZVEED_13
 70
     0
  0
APPID
  2
GENIUS_GENSCREG_13
 70
     0
  0
APPID
  2
GENIUS_DUMCFG0_13
 70
     0
  0
APPID
  2
GEVID936201362
 70
     0
  0
APPID
  2
GEVDC
 70
     0
  0
APPID
  2
GEVCON
 70
     0
  0
APPID
  2
VCC
 70
     0
  0
APPID
  2
GEVPT
 70
     0
  0
APPID
  2
GEVIT
 70
     0
  0
APPID
  2
GENBH
 70
     0
  0
APPID
  2
GEVMK
 70
     0
  0
APPID
  2
GENIUS_GENBH_13
 70
     0
  0
APPID
  2
GENIUS_GENOBJ-NBEHI-BHF_13
 70
     0
  0
APPID
  2
GENIUS_GENOBJ-NBEHI-BHB_13
 70
     0
  0
APPID
  2
GENIUS_GENOBJ-F-DESC_13
 70
     0
  0
APPID
  2
GENIUS_GEFDESC_14
 70
     0
  0
APPID
  2
GENIUS_GENOBJ-F-PART_13
 70
     0
  0
APPID
  2
GENIUS_GEFSTDP_13
 70
     0
  0
APPID
  2
GENIUS_GEFPARTINS_13
 70
     0
  0
APPID
  2
GENIUS_GENTRA_14
 70
     0
  0
APPID
  2
GENIUS_GENINF13_13
 70
     0
  0
APPID
  2
GENIUS_GENOBJ-N-INFOPT_13
 70
     0
  0
APPID
  2
GENIUS_GENOBJ-N-RSSYM_13
 70
     0
  0
APPID
  2
GENIUS_GENSYMENT_13
 70
     0
  0
APPID
  2
GENIUS_GENSCSYM_13
 70
     0
  0
APPID
  2
GENIUS_GEFINFNAM_13
 70
     0
  0
APPID
  2
GENIUS_GENOBJ-N-CEN_13
 70
     0
  0
APPID
  2
GENIUS_GENOBJ-N-CRS_13
 70
     0
  0
APPID
  2
GENIUS_GENOBJ-N-CRC_13
 70
     0
  0
APPID
  2
GENIUS_GENCRC_14
 70
     0
  0
APPID
  2
GEVID942827039
 70
     0
  0
APPID
  2
GEVID942827040
 70
     0
  0
APPID
  2
GEVID942827041
 70
     0
  0
APPID
  2
GENIUS_GENOBJ-F-SCPASSM_13
 70
     0
  0
APPID
  2
GENIUS_GENDIMSH_14
 70
     0
  0
APPID
  2
GEVID942827042
 70
     0
  0
APPID
  2
GEVID946020473
 70
     0
  0
APPID
  2
GEVID946020474
 70
     0
  0
APPID
  2
GEVID946020475
 70
     0
  0
APPID
  2
GENIUS_GENOBJ-N-HTC_13
 70
     0
  0
APPID
  2
GENIUS_GENHATCH_13
 70
     0
  0
APPID
  2
GEVID948854295
 70
     0
  0
APPID
  2
GEVID939402019
 70
     0
  0
APPID
  2
GEVID952919491
 70
     0
  0
APPID
  2
GEVID952919492
 70
     0
  0
APPID
  2
GENIUS_GEFWELD_13
 70
     0
  0
APPID
  2
GENIUS_GENOBJ-F-WELS_13
 70
     0
  0
APPID
  2
GEVID952919493
 70
     0
  0
APPID
  2
GENIUS_GENOBJ-N-RSBK_13
 70
     0
  0
APPID
  2
GENIUS_GENOBJ-N-LIB_13
 70
     0
  0
APPID
  2
GENIUS_GENSCALE_13
 70
     0
  0
APPID
  2
GEVID986376691
 70
     0
  0
APPID
  2
DCO15
 70
     0
  0
APPID
  2
ACADM_DIM_EDIT
 70
     0
  0
APPID
  2
AMDT_DM_ADJ
 70
     0
  0
APPID
  2
ACAD_PSEXT
 70
     0
  0
APPID
  2
ACAD_DSTYLE_DIMJAG
 70
     0
  0
APPID
  2
ACAD_DSTYLE_DIMBREAK
 70
     0
  0
APPID
  2
ACAD_NAV_VCDISPLAY
 70
     0
  0
APPID
  2
ACADANNOPO
 70
     0
  0
APPID
  2
ACAD_EXEMPT_FROM_CAD_STANDARDS
 70
     0
  0
APPID
  2
ACAD_MLEADERVER
 70
     0
  0
ENDTAB
  0
TABLE
  2
DIMSTYLE
 70
    22
  0
DIMSTYLE
  2
STANDARD
 70
     0
  3

  4

  5

  6

  7

 40
1.0
 41
0.18
 42
0.0625
 43
0.38
 44
0.18
 45
0.0
 46
0.0
 47
0.0
 48
0.0
140
0.18
141
0.09
142
0.0
143
25.399999999999999
144
1.0
145
0.0
146
1.0
147
0.09
 71
     0
 72
     0
 73
     1
 74
     1
 75
     0
 76
     0
 77
     0
 78
     0
170
     0
171
     2
172
     0
173
     0
174
     0
175
     0
176
     0
177
     0
178
     0
  0
DIMSTYLE
  2
ANNOTATIVE
 70
     0
  3

  4

  5

  6

  7

 40
1.0
 41
0.18
 42
0.0625
 43
0.38
 44
0.18
 45
0.0
 46
0.0
 47
0.0
 48
0.0
140
0.18
141
0.09
142
0.0
143
25.399999999999999
144
1.0
145
0.0
146
1.0
147
0.09
 71
     0
 72
     0
 73
     1
 74
     1
 75
     0
 76
     0
 77
     0
 78
     0
170
     0
171
     2
172
     0
173
     0
174
     0
175
     0
176
     0
177
     0
178
     0
  0
DIMSTYLE
  2
AM_ISO
 70
     0
  3

  4
"
  5

  6

  7

 40
1.0
 41
2.5
 42
1.0
 43
8.0
 44
0.6
 45
0.0
 46
0.0
 47
0.1
 48
0.1
140
2.5
141
0.0
142
0.0
143
0.0393701
144
1.0
145
0.0
146
0.71
147
0.8
 71
     0
 72
     0
 73
     0
 74
     0
 75
     0
 76
     0
 77
     1
 78
     8
170
     0
171
     2
172
     1
173
     0
174
     0
175
     0
176
   256
177
   256
178
     4
  0
DIMSTYLE
  2
AM_ISO$3
 70
     0
  3

  4
"
  5

  6

  7

 40
1.0
 41
2.5
 42
1.0
 43
8.0
 44
0.6
 45
0.0
 46
0.0
 47
0.1
 48
0.1
140
2.5
141
0.0
142
0.0
143
0.0393701
144
1.0
145
0.0
146
0.71
147
0.8
 71
     0
 72
     0
 73
     0
 74
     1
 75
     0
 76
     0
 77
     1
 78
     8
170
     0
171
     2
172
     0
173
     0
174
     0
175
     0
176
   256
177
   256
178
     4
  0
DIMSTYLE
  2
AM_ISO$4
 70
     0
  3

  4
"
  5

  6

  7

 40
1.0
 41
2.5
 42
1.0
 43
8.0
 44
0.6
 45
0.0
 46
0.0
 47
0.1
 48
0.1
140
2.5
141
0.0
142
0.0
143
0.0393701
144
1.0
145
0.0
146
0.71
147
0.8
 71
     0
 72
     0
 73
     0
 74
     1
 75
     0
 76
     0
 77
     1
 78
     8
170
     0
171
     2
172
     0
173
     0
174
     0
175
     0
176
   256
177
   256
178
     4
  0
DIMSTYLE
  2
AM_ISO$6
 70
     0
  3

  4
"
  5

  6

  7

 40
1.0
 41
2.5
 42
1.0
 43
8.0
 44
0.6
 45
0.0
 46
0.0
 47
0.1
 48
0.1
140
2.5
141
0.0
142
0.0
143
0.0393701
144
1.0
145
0.0
146
0.71
147
0.8
 71
     0
 72
     0
 73
     0
 74
     0
 75
     0
 76
     0
 77
     0
 78
     8
170
     0
171
     2
172
     1
173
     0
174
     0
175
     0
176
   256
177
   256
178
     4
  0
DIMSTYLE
  2
AM_ISO$7
 70
     0
  3

  4
"
  5

  6

  7

 40
1.0
 41
2.5
 42
1.0
 43
8.0
 44
0.6
 45
0.0
 46
0.0
 47
0.1
 48
0.1
140
2.5
141
0.0
142
0.0
143
0.0393701
144
1.0
145
0.0
146
0.71
147
0.8
 71
     0
 72
     0
 73
     0
 74
     0
 75
     0
 76
     0
 77
     1
 78
     8
170
     0
171
     2
172
     1
173
     0
174
     0
175
     0
176
   256
177
   256
178
     4
  0
DIMSTYLE
  2
AM_ISO$SF
 70
     0
  3

  4
"
  5

  6

  7

 40
1.0
 41
2.5
 42
1.0
 43
10.0
 44
1.0
 45
0.0
 46
0.0
 47
0.1
 48
0.1
140
3.5
141
0.0
142
0.0
143
0.0393701
144
1.0
145
0.0
146
0.71
147
1.5
 71
     0
 72
     0
 73
     0
 74
     0
 75
     1
 76
     1
 77
     1
 78
     8
170
     0
171
     2
172
     1
173
     0
174
     0
175
     0
176
   256
177
   256
178
     2
  0
DIMSTYLE
  2
AM_ISO$SH
 70
     0
  3

  4
"
  5

  6

  7

 40
1.0
 41
2.5
 42
1.0
 43
10.0
 44
1.0
 45
0.0
 46
0.0
 47
0.1
 48
0.1
140
3.5
141
0.0
142
0.0
143
0.0393701
144
2.0
145
0.0
146
0.71
147
1.5
 71
     0
 72
     0
 73
     0
 74
     0
 75
     1
 76
     1
 77
     1
 78
     8
170
     0
171
     2
172
     1
173
     1
174
     0
175
     0
176
   256
177
   256
178
     2
  0
DIMSTYLE
  2
AM_JIS
 70
     0
  3

  4
"
  5

  6

  7

 40
1.0
 41
2.5
 42
1.0
 43
7.0
 44
1.0
 45
0.0
 46
0.0
 47
0.1
 48
0.1000000001
140
2.5
141
0.0
142
0.0
143
0.0393701
144
1.0
145
0.0
146
0.71
147
1.0
 71
     0
 72
     0
 73
     0
 74
     0
 75
     0
 76
     0
 77
     3
 78
     8
170
     0
171
     2
172
     1
173
     0
174
     0
175
     0
176
   256
177
   256
178
     4
  0
DIMSTYLE
  2
AM_JIS$3
 70
     0
  3

  4
"
  5

  6

  7

 40
1.0
 41
2.5
 42
1.0
 43
7.0
 44
1.0
 45
0.0
 46
0.0
 47
0.1
 48
0.1000000001
140
2.5
141
0.0
142
0.0
143
0.0393701
144
1.0
145
0.0
146
0.71
147
1.0
 71
     0
 72
     0
 73
     0
 74
     1
 75
     0
 76
     0
 77
     3
 78
     8
170
     0
171
     2
172
     0
173
     0
174
     0
175
     0
176
   256
177
   256
178
     4
  0
DIMSTYLE
  2
AM_JIS$4
 70
     0
  3

  4
"
  5

  6

  7

 40
1.0
 41
2.5
 42
1.0
 43
7.0
 44
1.0
 45
0.0
 46
0.0
 47
0.1
 48
0.1000000001
140
2.5
141
0.0
142
0.0
143
0.0393701
144
1.0
145
0.0
146
0.71
147
1.0
 71
     0
 72
     0
 73
     0
 74
     0
 75
     0
 76
     0
 77
     3
 78
     8
170
     0
171
     2
172
     0
173
     0
174
     0
175
     0
176
   256
177
   256
178
     4
  0
DIMSTYLE
  2
AM_JIS$6
 70
     0
  3

  4
"
  5

  6

  7

 40
1.0
 41
2.5
 42
1.0
 43
7.0
 44
1.0
 45
0.0
 46
0.0
 47
0.1
 48
0.1000000001
140
2.5
141
0.0
142
0.0
143
0.0393701
144
1.0
145
0.0
146
0.71
147
1.0
 71
     0
 72
     0
 73
     0
 74
     0
 75
     0
 76
     0
 77
     0
 78
     8
170
     0
171
     2
172
     1
173
     0
174
     0
175
     0
176
   256
177
   256
178
     4
  0
DIMSTYLE
  2
AM_JIS$7
 70
     0
  3

  4
"
  5

  6

  7

 40
1.0
 41
2.5
 42
1.0
 43
7.0
 44
1.0
 45
0.0
 46
0.0
 47
0.1
 48
0.1000000001
140
2.5
141
0.0
142
0.0
143
0.0393701
144
1.0
145
0.0
146
0.71
147
1.0
 71
     0
 72
     0
 73
     0
 74
     0
 75
     0
 76
     0
 77
     3
 78
     8
170
     0
171
     2
172
     1
173
     0
174
     0
175
     0
176
   256
177
   256
178
     4
  0
DIMSTYLE
  2
AM_JIS$SF
 70
     0
  3

  4
"
  5

  6

  7

 40
1.0
 41
2.5
 42
1.0
 43
10.0
 44
1.0
 45
0.0
 46
0.0
 47
0.1
 48
0.1
140
3.5
141
0.0
142
0.0
143
0.0393701
144
1.0
145
0.0
146
0.71
147
1.5
 71
     0
 72
     0
 73
     0
 74
     0
 75
     1
 76
     1
 77
     3
 78
     8
170
     0
171
     2
172
     1
173
     0
174
     0
175
     0
176
   256
177
   256
178
     4
  0
DIMSTYLE
  2
AM_JIS$SH
 70
     0
  3

  4
"
  5

  6

  7

 40
1.0
 41
2.5
 42
1.0
 43
10.0
 44
1.0
 45
0.0
 46
0.0
 47
0.1
 48
0.1
140
3.5
141
0.0
142
0.0
143
0.0393701
144
1.0
145
0.0
146
0.71
147
1.5
 71
     0
 72
     0
 73
     0
 74
     0
 75
     1
 76
     0
 77
     3
 78
     8
170
     0
171
     2
172
     1
173
     1
174
     0
175
     0
176
   256
177
   256
178
     4
  0
DIMSTYLE
  2
AM_ANSI
 70
     0
  3

  4
mm
  5

  6

  7

 40
1.0
 41
0.12
 42
0.05
 43
0.5
 44
0.1
 45
0.0
 46
0.0
 47
0.1
 48
0.1
140
0.12
141
0.0
142
0.0
143
25.399999999999999
144
1.0
145
0.0
146
0.71
147
0.06
 71
     0
 72
     0
 73
     1
 74
     1
 75
     0
 76
     0
 77
     0
 78
     7
170
     0
171
     2
172
     0
173
     0
174
     0
175
     0
176
   256
177
   256
178
     2
  0
DIMSTYLE
  2
AM_ANSI$3
 70
     0
  3

  4
mm
  5

  6

  7

 40
1.0
 41
0.12
 42
0.05
 43
0.5
 44
0.1
 45
0.0
 46
0.0
 47
0.1
 48
0.1
140
0.12
141
0.0
142
0.0
143
25.399999999999999
144
1.0
145
0.0
146
0.71
147
0.06
 71
     0
 72
     0
 73
     1
 74
     1
 75
     0
 76
     0
 77
     0
 78
     7
170
     0
171
     2
172
     0
173
     0
174
     0
175
     0
176
   256
177
   256
178
     2
  0
DIMSTYLE
  2
AM_ANSI$4
 70
     0
  3

  4
mm
  5

  6

  7

 40
1.0
 41
0.12
 42
0.05
 43
0.5
 44
0.1
 45
0.0
 46
0.0
 47
0.1
 48
0.1
140
0.12
141
0.0
142
0.0
143
25.399999999999999
144
1.0
145
0.0
146
0.71
147
0.06
 71
     0
 72
     0
 73
     1
 74
     1
 75
     0
 76
     0
 77
     0
 78
     7
170
     0
171
     2
172
     0
173
     0
174
     0
175
     0
176
   256
177
   256
178
     2
  0
DIMSTYLE
  2
AM_ANSI$7
 70
     0
  3

  4
mm
  5

  6

  7

 40
1.0
 41
0.12
 42
0.05
 43
0.5
 44
0.1
 45
0.0
 46
0.0
 47
0.1
 48
0.1
140
0.12
141
0.0
142
0.0
143
25.399999999999999
144
1.0
145
0.0
146
0.71
147
0.06
 71
     0
 72
     0
 73
     1
 74
     1
 75
     0
 76
     0
 77
     0
 78
     7
170
     0
171
     2
172
     0
173
     0
174
     0
175
     0
176
   256
177
   256
178
     2
  0
DIMSTYLE
  2
AM_ANSI$SF
 70
     0
  3

  4
mm
  5

  6

  7

 40
1.0
 41
0.12
 42
0.05
 43
0.5
 44
0.1
 45
0.0
 46
0.0
 47
0.1
 48
0.1
140
0.12
141
0.0
142
0.0
143
25.399999999999999
144
1.0
145
0.0
146
0.71
147
0.06
 71
     0
 72
     0
 73
     1
 74
     1
 75
     1
 76
     1
 77
     0
 78
     7
170
     0
171
     2
172
     0
173
     0
174
     0
175
     0
176
   256
177
   256
178
     2
  0
DIMSTYLE
  2
AM_ANSI$SH
 70
     0
  3

  4
mm
  5

  6
GENAXEH
  7

 40
1.0
 41
0.12
 42
0.05
 43
0.5
 44
0.1
 45
0.0
 46
0.0
 47
0.1
 48
0.1
140
0.12
141
0.0
142
0.0
143
25.399999999999999
144
1.0
145
0.0
146
0.71
147
0.06
 71
     0
 72
     0
 73
     1
 74
     1
 75
     1
 76
     1
 77
     0
 78
     7
170
     0
171
     2
172
     0
173
     1
174
     0
175
     0
176
   256
177
   256
178
     2
  0
ENDTAB
  0
ENDSEC
  0
SECTION
  2
BLOCKS
  0
BLOCK
  8
0
  2
$MODEL_SPACE
 70
     0
 10
0.0
 20
0.0
 30
0.0
  3
$MODEL_SPACE
  1

  0
ENDBLK
  5
7471
  8
0
  0
BLOCK
 67
     1
  8
0
  2
$PAPER_SPACE
 70
     0
 10
0.0
 20
0.0
 30
0.0
  3
$PAPER_SPACE
  1

  0
ENDBLK
  5
746D
 67
     1
  8
0
  0
BLOCK
  8
0
  2
GENAXEH
 70
     0
 10
0.0
 20
0.0
 30
0.0
  3
GENAXEH
  1

  0
LINE
  5
73
  8
0
 10
-1.0
 20
0.0
 30
0.0
 11
1.0
 21
0.0
 31
0.0
  0
ENDBLK
  5
75
  8
0
  0
BLOCK
  8
0
  2
_OPEN30
 70
     0
 10
0.0
 20
0.0
 30
0.0
  3
_OPEN30
  1

  0
LINE
  5
31A
  8
0
 62
     0
 10
-1.0
 20
0.26794919
 30
0.0
 11
0.0
 21
0.0
 31
0.0
  0
LINE
  5
31B
  8
0
 62
     0
 10
0.0
 20
0.0
 30
0.0
 11
-1.0
 21
-0.26794919
 31
0.0
  0
LINE
  5
31C
  8
0
 62
     0
 10
0.0
 20
0.0
 30
0.0
 11
-1.0
 21
0.0
 31
0.0
  0
ENDBLK
  5
31E
  8
0
  0
BLOCK
  8
0
  2
_NONE
 70
     0
 10
0.0
 20
0.0
 30
0.0
  3
_NONE
  1

  0
ENDBLK
  5
579
  8
0
  0
BLOCK
  8
0
  2
*U5
 70
     1
 10
0.0
 20
0.0
 30
0.0
  3
*U5
  1

  0
TEXT
  5
73FE
  8
AM_0
 10
561.83678047481942
 20
530.49534969817626
 30
0.0
 40
10.0
  1
ＶＸ０４－０６０～１００ＭＦＷ
 41
0.8299999999999999
  0
ENDBLK
  5
7400
  8
0
  0
BLOCK
  8
0
  2
_ACMFILLEDHALF
 70
     0
 10
0.0
 20
0.0
 30
0.0
  3
_ACMFILLEDHALF
  1

  0
TRACE
  5
756F
  8
AM_0
 62
     0
 10
-0.8
 20
0.0
 30
0.0
 11
-1.0
 21
0.166666666
 31
0.0
 12
0.0
 22
0.0
 32
0.0
 13
0.0
 23
0.0
 33
0.0
  0
LINE
  5
7570
  8
AM_0
 62
     0
 10
-1.0
 20
0.0
 30
0.0
 11
-0.8
 21
0.0
 31
0.0
  0
ENDBLK
  5
756E
  8
0
  0
ENDSEC
  0
SECTION
  2
ENTITIES
  0
LINE
  5
19B2
  8
AM_0
 10
137.0861419269018
 20
185.14381325299581
 30
0.0
 11
102.0861319269016
 21
187.17381425299561
 31
0.0
  0
LINE
  5
19B3
  8
AM_0
 10
137.0861419269018
 20
277.84382225299578
 30
0.0
 11
102.0861319269016
 21
275.81381225299577
 31
0.0
  0
LINE
  5
19B4
  8
AM_0
 10
89.366161926901796
 20
183.85382225299571
 30
0.0
 11
92.08614192690186
 21
183.85382225299571
 31
0.0
  0
LINE
  5
19B5
  8
AM_0
 10
88.856161926901805
 20
181.88383625299571
 30
0.0
 11
87.586141926901874
 21
182.6138292529958
 31
0.0
  0
LINE
  5
19B6
  8
AM_0
 10
92.08614192690186
 20
174.06381125299569
 30
0.0
 11
94.906141926901796
 21
173.9938032529958
 31
0.0
  0
LINE
  5
19B7
  8
AM_0
 10
88.836151926901593
 20
188.5338282529957
 30
0.0
 11
87.536161926901855
 21
189.3838032529957
 31
0.0
  0
LINE
  5
19B8
  8
AM_0
 10
88.846141926901822
 20
183.99383525299569
 30
0.0
 11
87.566131926901647
 21
184.76383925299569
 31
0.0
  0
LINE
  5
19B9
  8
AM_0
 10
89.356171926901766
 20
181.7438052529958
 30
0.0
 11
91.586191926901733
 21
181.7438052529958
 31
0.0
  0
LINE
  5
19BA
  8
AM_0
 10
89.326141926901855
 20
182.8938132529959
 30
0.0
 11
91.586191926901733
 21
182.8938132529959
 31
0.0
  0
LINE
  5
19BB
  8
AM_0
 10
88.876171926901776
 20
183.00381425299591
 30
0.0
 11
87.636121926901623
 21
183.63382025299569
 31
0.0
  0
LINE
  5
19BC
  8
AM_0
 10
89.356171926901766
 20
189.5138082529956
 30
0.0
 11
91.086151926901593
 21
189.5138082529956
 31
0.0
  0
LINE
  5
19BD
  8
AM_0
 10
89.386201926901663
 20
188.37379325299571
 30
0.0
 11
92.08614192690186
 21
188.37379325299571
 31
0.0
  0
LINE
  5
19BE
  8
AM_0
 10
89.336191926901748
 20
184.99380425299569
 30
0.0
 11
91.086151926901593
 21
184.99380425299569
 31
0.0
  0
LINE
  5
19BF
  8
AM_0
 10
88.856101926901715
 20
189.6438282529956
 30
0.0
 11
87.576121926901706
 21
190.3938132529957
 31
0.0
  0
LINE
  5
19C0
  8
AM_0
 10
240.08619192690171
 20
167.99381825299591
 30
0.0
 11
248.08615192690169
 21
167.99381825299591
 31
0.0
  0
LINE
  5
19C1
  8
AM_0
 10
240.08619192690171
 20
179.99379425299571
 30
0.0
 11
248.08615192690169
 21
179.9937942529958
 31
0.0
  0
LINE
  5
19C2
  8
AM_0
 10
137.0861419269018
 20
185.14381325299581
 30
0.0
 11
239.08614192690189
 21
185.14381325299581
 31
0.0
  0
LINE
  5
19C3
  8
AM_0
 10
238.7961619269017
 20
180.46380725299571
 30
0.0
 11
236.38620192690169
 21
180.46380725299571
 31
0.0
  0
LINE
  5
19C4
  8
AM_0
 10
235.88613192690161
 20
172.57380725299569
 30
0.0
 11
237.3261319269017
 21
179.2738032529958
 31
0.0
  0
LINE
  5
19C5
  8
AM_0
 10
233.7961519269017
 20
170.99382125299559
 30
0.0
 11
239.08614192690189
 21
170.99382125299559
 31
0.0
  0
LINE
  5
19C7
  8
AM_0
 10
96.766141926901682
 20
198.1237962529957
 30
0.0
 11
140.0861419269018
 21
198.1237962529957
 31
0.0
  0
LINE
  5
19C8
  8
AM_0
 10
140.0861419269018
 20
195.49380425299589
 30
0.0
 11
97.636201926901691
 21
195.49380425299569
 31
0.0
  0
LINE
  5
19CA
  8
AM_0
 10
96.766141926901682
 20
194.77381925299571
 30
0.0
 11
140.0861419269018
 21
194.77381925299571
 31
0.0
  0
LINE
  5
19CB
  8
AM_0
 10
92.08614192690186
 20
197.19380225299571
 30
0.0
 11
95.256181926901832
 21
197.19380225299571
 31
0.0
  0
LINE
  5
19CC
  8
AM_0
 10
98.256181926901846
 20
173.23381025299591
 30
0.0
 11
111.5861419269018
 21
173.23381025299591
 31
0.0
  0
LINE
  5
19CD
  8
AM_0
 10
115.08615192690159
 20
169.63380425299579
 30
0.0
 11
231.8961319269018
 21
169.63380425299579
 31
0.0
  0
LINE
  5
19CE
  8
AM_0
 10
98.196121926901796
 20
168.1938162529957
 30
0.0
 11
111.6961219269018
 21
168.1938162529957
 31
0.0
  0
LINE
  5
19CF
  8
AM_0
 10
98.316181926901791
 20
178.51379525299581
 30
0.0
 11
111.5861419269018
 21
178.51379525299581
 31
0.0
  0
LINE
  5
19D0
  8
AM_0
 10
95.806111926901721
 20
183.14381525299581
 30
0.0
 11
96.346141926901865
 21
180.15380825299559
 31
0.0
  0
LINE
  5
19D1
  8
AM_0
 10
89.086141926901831
 20
188.66381825299561
 30
0.0
 11
89.086141926901831
 21
189.1338042529957
 31
0.0
  0
LINE
  5
19D2
  8
AM_0
 10
92.08614192690186
 20
183.1438002529957
 30
0.0
 11
102.08619192690171
 21
183.1438002529957
 31
0.0
  0
LINE
  5
19D3
  8
AM_0
 10
89.086141926901831
 20
184.0937952529957
 30
0.0
 11
89.086141926901831
 21
184.64380025299559
 31
0.0
  0
LINE
  5
19D4
  8
AM_0
 10
88.866091926901746
 20
185.1138012529957
 30
0.0
 11
87.616171926901742
 21
185.7738042529958
 31
0.0
  0
LINE
  5
19D5
  8
AM_0
 10
102.08619192690171
 20
183.1438002529957
 30
0.0
 11
102.08619192690171
 21
197.19380225299571
 31
0.0
  0
LINE
  5
19D6
  8
AM_0
 10
89.086141926901831
 20
181.99380425299569
 30
0.0
 11
89.086141926901831
 21
182.52380225299581
 31
0.0
  0
LINE
  5
19D7
  8
AM_0
 10
233.82612192690169
 20
171.11381525299581
 30
0.0
 11
237.28614192690171
 21
184.0338132529956
 31
0.0
  0
LINE
  5
19D8
  8
AM_0
 10
96.256111926901795
 20
169.7038122529957
 30
0.0
 11
95.366101926901706
 21
173.2438032529958
 31
0.0
  0
LINE
  5
19D9
  8
AM_0
 10
96.276151926901662
 20
171.36381425299581
 30
0.0
 11
95.356111926901676
 21
175.24381925299571
 31
0.0
  0
LINE
  5
19DA
  8
AM_0
 10
170.0861419269018
 20
167.58380225299581
 30
0.0
 11
170.0861419269018
 21
169.63380425299579
 31
0.0
  0
LINE
  5
19DB
  8
AM_0
 10
113.0861419269018
 20
169.60381925299561
 30
0.0
 11
113.0861419269018
 21
177.01379225299559
 31
0.0
  0
LINE
  5
19DC
  8
AM_0
 10
93.916141926901773
 20
174.37381025299581
 30
0.0
 11
95.566171926901575
 21
174.37381025299581
 31
0.0
  0
LINE
  5
19DF
  8
AM_0
 10
137.0861419269018
 20
277.84379225299563
 30
0.0
 11
239.08614192690189
 21
277.84379225299563
 31
0.0
  0
LINE
  5
19E0
  8
AM_0
 10
239.08614192690189
 20
293.99381225299572
 30
0.0
 11
239.08614192690189
 21
168.9938052529958
 31
0.0
  0
LINE
  5
19E2
  8
AM_0
 10
240.08619192690171
 20
294.99380225299569
 30
0.0
 11
248.08615192690169
 21
294.99380225299569
 31
0.0
  0
LINE
  5
19E4
  8
AM_0
 10
239.08614192690189
 20
268.64380025299567
 30
0.0
 11
248.08615192690169
 21
268.64380025299567
 31
0.0
  0
LINE
  5
19E5
  8
AM_0
 10
240.08619192690171
 20
282.99379625299571
 30
0.0
 11
248.08615192690169
 21
282.99379625299582
 31
0.0
  0
LINE
  5
19E6
  8
AM_0
 10
239.08614192690189
 20
194.34381125299569
 30
0.0
 11
248.08615192690169
 21
194.34381125299569
 31
0.0
  0
LINE
  5
19E8
  8
AM_0
 10
92.086081926901784
 20
288.9238422529956
 30
0.0
 11
94.906081926901734
 21
288.99383225299562
 31
0.0
  0
LINE
  5
19E9
  8
AM_0
 10
92.08614192690186
 20
288.92381225299579
 30
0.0
 11
92.08614192690186
 21
231.49380725299579
 31
0.0
  0
LINE
  5
19EA
  8
AM_0
 10
87.086191926901748
 20
279.51380225299567
 30
0.0
 11
87.086191926901748
 21
236.4938052529958
 31
0.0
  0
LINE
  5
19EB
  8
AM_0
 10
89.356171926901766
 20
281.24381225299572
 30
0.0
 11
91.586191926901733
 21
281.24381225299572
 31
0.0
  0
LINE
  5
19ED
  8
AM_0
 10
89.286151926901624
 20
267.18381125299578
 30
0.0
 11
91.386121926901666
 21
267.18381125299578
 31
0.0
  0
LINE
  5
19EE
  8
AM_0
 10
88.856161926901805
 20
281.11379225299578
 30
0.0
 11
87.586141926901874
 21
280.37381225299578
 31
0.0
  0
LINE
  5
19EF
  8
AM_0
 10
88.846081926901775
 20
278.99381225299572
 30
0.0
 11
87.566131926901647
 21
278.22383225299592
 31
0.0
  0
LINE
  5
19F0
  8
AM_0
 10
88.836151926901593
 20
274.45376225299577
 30
0.0
 11
87.536161926901855
 21
273.60380225299582
 31
0.0
  0
LINE
  5
19F1
  8
AM_0
 10
88.896121926901628
 20
267.10382225299583
 30
0.0
 11
87.696121926901796
 21
266.59381325299569
 31
0.0
  0
LINE
  5
19F2
  8
AM_0
 10
89.366161926901796
 20
279.13379225299582
 30
0.0
 11
92.08614192690186
 21
279.13379225299582
 31
0.0
  0
LINE
  5
19F3
  8
AM_0
 10
89.386201926901663
 20
274.6238022529958
 30
0.0
 11
92.08614192690186
 21
274.6238022529958
 31
0.0
  0
LINE
  5
19F4
  8
AM_0
 10
89.236171926901633
 20
265.23379625299572
 30
0.0
 11
91.086151926901593
 21
265.23379625299572
 31
0.0
  0
LINE
  5
19F5
  8
AM_0
 10
89.356171926901766
 20
273.4838022529957
 30
0.0
 11
91.086151926901593
 21
273.4838022529957
 31
0.0
  0
LINE
  5
19F6
  8
AM_0
 10
89.336191926901748
 20
277.99382225299559
 30
0.0
 11
91.086151926901593
 21
277.99382225299559
 31
0.0
  0
LINE
  5
19F7
  8
AM_0
 10
89.326141926901855
 20
280.09379225299563
 30
0.0
 11
91.586191926901733
 21
280.09379225299563
 31
0.0
  0
LINE
  5
19F8
  8
AM_0
 10
88.856161926901805
 20
273.34379225299563
 30
0.0
 11
87.576121926901706
 21
272.59378325299571
 31
0.0
  0
LINE
  5
19F9
  8
AM_0
 10
88.946191926901861
 20
265.19378825299577
 30
0.0
 11
87.796171926901565
 21
264.8438142529958
 31
0.0
  0
LINE
  5
19FA
  8
AM_0
 10
88.876171926901776
 20
279.99380225299569
 30
0.0
 11
87.636121926901623
 21
279.36380225299581
 31
0.0
  0
LINE
  5
19FB
  8
AM_0
 10
88.866091926901746
 20
277.88381225299582
 30
0.0
 11
87.616111926901908
 21
277.21382225299573
 31
0.0
  0
LINE
  5
19FC
  8
AM_0
 10
91.086151926901593
 20
257.49380825299568
 30
0.0
 11
88.086151926901564
 21
257.49380825299568
 31
0.0
  0
LINE
  5
19FD
  8
AM_0
 10
91.086151926901593
 20
255.49380725299571
 30
0.0
 11
88.086151926901564
 21
255.49380725299571
 31
0.0
  0
LINE
  5
19FE
  8
AM_0
 10
91.086151926901593
 20
247.49380625299571
 30
0.0
 11
88.086151926901564
 21
247.49380625299571
 31
0.0
  0
LINE
  5
19FF
  8
AM_0
 10
91.086151926901593
 20
245.49380825299571
 30
0.0
 11
88.086151926901564
 21
245.49380825299571
 31
0.0
  0
LINE
  5
1A00
  8
AM_0
 10
91.086151926901593
 20
237.49380725299579
 30
0.0
 11
88.086151926901564
 21
237.49380725299579
 31
0.0
  0
LINE
  5
1A01
  8
AM_0
 10
91.086151926901593
 20
235.49380625299571
 30
0.0
 11
88.086151926901564
 21
235.49380625299571
 31
0.0
  0
LINE
  5
1A02
  8
AM_0
 10
89.086141926901831
 20
247.10379125299571
 30
0.0
 11
89.086141926901831
 21
245.8938012529957
 31
0.0
  0
LINE
  5
1A03
  8
AM_0
 10
89.086141926901831
 20
237.10382225299571
 30
0.0
 11
89.086141926901831
 21
235.9437882529958
 31
0.0
  0
LINE
  5
1A04
  8
AM_0
 10
89.086141926901831
 20
257.12381225299578
 30
0.0
 11
89.086141926901831
 21
255.7538172529957
 31
0.0
  0
LINE
  5
1A05
  8
AM_0
 10
89.086141926901831
 20
266.88382325299563
 30
0.0
 11
89.086141926901831
 21
265.82382425299568
 31
0.0
  0
LINE
  5
1A06
  8
AM_0
 10
89.086141926901831
 20
274.32380225299562
 30
0.0
 11
89.086141926901831
 21
273.85382225299583
 31
0.0
  0
LINE
  5
1A07
  8
AM_0
 10
89.086141926901831
 20
278.89379225299581
 30
0.0
 11
89.086141926901831
 21
278.34380225299577
 31
0.0
  0
LINE
  5
1A08
  8
AM_0
 10
89.086141926901831
 20
280.99382225299559
 30
0.0
 11
89.086141926901831
 21
280.46381225299569
 31
0.0
  0
LINE
  5
1A09
  8
AM_0
 10
85.586191926901733
 20
251.49380825299571
 30
0.0
 11
85.586191926901733
 21
231.49380725299579
 31
0.0
  0
LINE
  5
1A0A
  8
AM_0
 10
85.586131926901629
 20
251.4938382529956
 30
0.0
 11
87.086131926901629
 21
251.62381325299569
 31
0.0
  0
LINE
  5
1A0B
  8
AM_0
 10
85.586191926901733
 20
248.77380425299569
 30
0.0
 11
87.086191926901748
 21
248.77380425299569
 31
0.0
  0
LINE
  5
1A12
  8
AM_0
 10
102.08619192690171
 20
279.84380225299577
 30
0.0
 11
102.08619192690171
 21
265.8038052529958
 31
0.0
  0
LINE
  5
1A13
  8
AM_0
 10
92.08614192690186
 20
265.8038052529958
 30
0.0
 11
102.08619192690171
 21
265.8038052529958
 31
0.0
  0
LINE
  5
1A14
  8
AM_0
 10
92.08614192690186
 20
274.1838222529957
 30
0.0
 11
102.08619192690171
 21
274.1838222529957
 31
0.0
  0
LINE
  5
1A15
  8
AM_0
 10
92.08614192690186
 20
279.84380225299577
 30
0.0
 11
102.08619192690171
 21
279.84380225299577
 31
0.0
  0
LINE
  5
1A22
  8
AM_0
 10
139.0861419269018
 20
217.49382125299579
 30
0.0
 11
97.636201926901691
 21
217.49382125299579
 31
0.0
  0
LINE
  5
1A28
  8
AM_0
 10
115.08615192690159
 20
293.35382225299571
 30
0.0
 11
231.8961319269018
 21
293.35382225299571
 31
0.0
  0
LINE
  5
1A29
  8
AM_0
 10
98.316181926901791
 20
284.47382225299572
 30
0.0
 11
111.5861419269018
 21
284.47382225299572
 31
0.0
  0
LINE
  5
1A2A
  8
AM_0
 10
95.806171926901825
 20
279.8438322529957
 30
0.0
 11
96.346141926901865
 21
282.83384225299568
 31
0.0
  0
LINE
  5
1A2B
  8
AM_0
 10
98.256181926901846
 20
289.76378225299578
 30
0.0
 11
111.5861419269018
 21
289.76378225299578
 31
0.0
  0
LINE
  5
1A2D
  8
AM_0
 10
98.226151926901721
 20
293.16380225299582
 30
0.0
 11
111.5861419269018
 21
293.16380225299582
 31
0.0
  0
LINE
  5
1A2E
  8
AM_0
 10
98.196121926901796
 20
294.79379225299567
 30
0.0
 11
111.6961219269018
 21
294.79379225299567
 31
0.0
  0
LINE
  5
1A2F
  8
AM_0
 10
115.08615192690159
 20
297.41381225299568
 30
0.0
 11
168.08619192690171
 21
297.41381225299568
 31
0.0
  0
LINE
  5
1A30
  8
AM_0
 10
115.08615192690159
 20
296.7338022529957
 30
0.0
 11
168.08619192690171
 21
296.7338022529957
 31
0.0
  0
LINE
  5
1A31
  8
AM_0
 10
115.08615192690159
 20
295.38383225299572
 30
0.0
 11
168.08619192690171
 21
295.38383225299572
 31
0.0
  0
LINE
  5
1A32
  8
AM_0
 10
93.876121926901646
 20
282.53381225299557
 30
0.0
 11
96.28614192690172
 21
282.53381225299557
 31
0.0
  0
LINE
  5
1A33
  8
AM_0
 10
96.296101926901784
 20
288.18383225299561
 30
0.0
 11
95.336071926901795
 21
283.71383225299559
 31
0.0
  0
LINE
  5
1A34
  8
AM_0
 10
93.896131926901802
 20
286.59380225299577
 30
0.0
 11
95.956201926901613
 21
286.59380225299577
 31
0.0
  0
LINE
  5
1A35
  8
AM_0
 10
140.0861419269018
 20
267.49380725299579
 30
0.0
 11
106.63620192690161
 21
267.49380725299579
 31
0.0
  0
LINE
  5
1A36
  8
AM_0
 10
140.0861419269018
 20
265.49380625299591
 30
0.0
 11
106.63620192690161
 21
265.49380625299568
 31
0.0
  0
LINE
  5
1A37
  8
AM_0
 10
139.0861419269018
 20
257.49380825299568
 30
0.0
 11
106.63620192690161
 21
257.49380825299568
 31
0.0
  0
LINE
  5
1A38
  8
AM_0
 10
96.276151926901662
 20
291.62381225299572
 30
0.0
 11
95.356171926901766
 21
287.74382225299581
 31
0.0
  0
LINE
  5
1A39
  8
AM_0
 10
139.0861419269018
 20
255.49380725299571
 30
0.0
 11
106.63620192690161
 21
255.49380725299571
 31
0.0
  0
LINE
  5
1A3A
  8
AM_0
 10
93.916141926901773
 20
288.61379225299578
 30
0.0
 11
95.566171926901575
 21
288.61379225299578
 31
0.0
  0
LINE
  5
1A3B
  8
AM_0
 10
96.256111926901795
 20
293.2838022529956
 30
0.0
 11
95.366101926901706
 21
289.75382225299558
 31
0.0
  0
LINE
  5
1A3C
  8
AM_0
 10
139.0861419269018
 20
247.49380625299571
 30
0.0
 11
97.636201926901691
 21
247.49380625299571
 31
0.0
  0
LINE
  5
1A3D
  8
AM_0
 10
113.0861419269018
 20
293.38379225299582
 30
0.0
 11
113.0861419269018
 21
285.97382225299572
 31
0.0
  0
LINE
  5
1A3E
  8
AM_0
 10
139.0861419269018
 20
245.49380825299571
 30
0.0
 11
97.636201926901691
 21
245.49380825299571
 31
0.0
  0
LINE
  5
1A3F
  8
AM_0
 10
110.6874708305557
 20
237.49380725299579
 30
0.0
 11
97.636201926901691
 21
237.49380725299579
 31
0.0
  0
LINE
  5
1A40
  8
AM_0
 10
170.0861419269018
 20
295.41380225299582
 30
0.0
 11
170.0861419269018
 21
293.35382225299571
 31
0.0
  0
LINE
  5
1A41
  8
AM_0
 10
110.6874708305557
 20
235.49380625299571
 30
0.0
 11
97.636201926901691
 21
235.49380625299571
 31
0.0
  0
LINE
  5
1A42
  8
AM_0
 10
233.82612192690169
 20
291.8738022529958
 30
0.0
 11
237.28614192690171
 21
278.95382225299568
 31
0.0
  0
LINE
  5
1A43
  8
AM_0
 10
233.7961519269017
 20
291.99380225299569
 30
0.0
 11
239.08614192690189
 21
291.99380225299569
 31
0.0
  0
LINE
  5
1A44
  8
AM_0
 10
238.7961619269017
 20
282.53381225299557
 30
0.0
 11
236.38620192690169
 21
282.53381225299557
 31
0.0
  0
LINE
  5
1A45
  8
AM_0
 10
235.88619192690169
 20
290.41382225299571
 30
0.0
 11
237.3261919269018
 21
283.71383225299559
 31
0.0
  0
LINE
  5
1A46
  8
AM_0
 10
92.08614192690186
 20
174.06381125299569
 30
0.0
 11
92.08614192690186
 21
231.49380725299579
 31
0.0
  0
LINE
  5
1A47
  8
AM_0
 10
87.086191926901748
 20
182.90379425299571
 30
0.0
 11
87.086191926901748
 21
226.4938212529957
 31
0.0
  0
LINE
  5
1A48
  8
AM_0
 10
89.286151926901624
 20
195.80380325299569
 30
0.0
 11
91.386121926901666
 21
195.80380325299569
 31
0.0
  0
LINE
  5
1A49
  8
AM_0
 10
88.896121926901628
 20
195.88381925299581
 30
0.0
 11
87.69618192690163
 21
196.40379425299571
 31
0.0
  0
LINE
  5
1A4A
  8
AM_0
 10
89.236171926901633
 20
197.75381525299571
 30
0.0
 11
91.086151926901593
 21
197.75381525299571
 31
0.0
  0
LINE
  5
1A4B
  8
AM_0
 10
88.946131926901785
 20
197.79382325299571
 30
0.0
 11
87.796171926901565
 21
198.15382325299581
 31
0.0
  0
LINE
  5
1A4C
  8
AM_0
 10
91.086151926901593
 20
205.49382125299579
 30
0.0
 11
88.086151926901564
 21
205.49382125299579
 31
0.0
  0
LINE
  5
1A4D
  8
AM_0
 10
91.086151926901593
 20
207.49380425299569
 30
0.0
 11
88.086151926901564
 21
207.49380425299569
 31
0.0
  0
LINE
  5
1A4E
  8
AM_0
 10
91.086151926901593
 20
215.4938052529958
 30
0.0
 11
88.086151926901564
 21
215.4938052529958
 31
0.0
  0
LINE
  5
1A4F
  8
AM_0
 10
91.086151926901593
 20
217.49382125299579
 30
0.0
 11
88.086151926901564
 21
217.49382125299579
 31
0.0
  0
LINE
  5
1A50
  8
AM_0
 10
91.086151926901593
 20
225.49380725299579
 30
0.0
 11
88.086151926901564
 21
225.49380725299579
 31
0.0
  0
LINE
  5
1A51
  8
AM_0
 10
91.086151926901593
 20
227.4938052529958
 30
0.0
 11
88.086151926901564
 21
227.4938052529958
 31
0.0
  0
LINE
  5
1A52
  8
AM_0
 10
89.086141926901831
 20
215.88382025299569
 30
0.0
 11
89.086141926901831
 21
217.10380625299581
 31
0.0
  0
LINE
  5
1A53
  8
AM_0
 10
89.086141926901831
 20
225.88380425299579
 30
0.0
 11
89.086141926901831
 21
227.04382325299571
 31
0.0
  0
LINE
  5
1A54
  8
AM_0
 10
89.086141926901831
 20
205.8637992529957
 30
0.0
 11
89.086141926901831
 21
207.2337972529958
 31
0.0
  0
LINE
  5
1A55
  8
AM_0
 10
89.086141926901831
 20
196.10380625299581
 30
0.0
 11
89.086141926901831
 21
197.16380225299571
 31
0.0
  0
LINE
  5
1A56
  8
AM_0
 10
85.586191926901733
 20
211.49382125299579
 30
0.0
 11
85.586191926901733
 21
231.49380725299579
 31
0.0
  0
LINE
  5
1A57
  8
AM_0
 10
85.586131926901629
 20
211.49380625299571
 30
0.0
 11
87.086131926901629
 21
211.36380125299559
 31
0.0
  0
LINE
  5
1A58
  8
AM_0
 10
85.586191926901733
 20
214.21380725299579
 30
0.0
 11
87.086191926901748
 21
214.21380725299579
 31
0.0
  0
LINE
  5
1A59
  8
AM_0
 10
115.08615192690159
 20
165.57380525299561
 30
0.0
 11
168.08619192690171
 21
165.57380525299561
 31
0.0
  0
LINE
  5
1A5A
  8
AM_0
 10
98.226151926901721
 20
169.82382125299591
 30
0.0
 11
111.5861419269018
 21
169.82382125299591
 31
0.0
  0
LINE
  5
1A5B
  8
AM_0
 10
92.08614192690186
 20
188.8038012529957
 30
0.0
 11
102.08619192690171
 21
188.8038012529957
 31
0.0
  0
LINE
  5
1A5C
  8
AM_0
 10
115.08615192690159
 20
166.25381525299571
 30
0.0
 11
168.08619192690171
 21
166.25381525299571
 31
0.0
  0
LINE
  5
1A5D
  8
AM_0
 10
93.896131926901802
 20
176.39379725299571
 30
0.0
 11
95.956201926901613
 21
176.39379725299571
 31
0.0
  0
LINE
  5
1A5E
  8
AM_0
 10
93.876121926901646
 20
180.46380725299571
 30
0.0
 11
96.28614192690172
 21
180.46380725299571
 31
0.0
  0
LINE
  5
1A5F
  8
AM_0
 10
96.296161926901846
 20
174.81381125299569
 30
0.0
 11
95.336131926901643
 21
179.2738032529958
 31
0.0
  0
LINE
  5
1A60
  8
AM_0
 10
115.08615192690159
 20
167.60380625299581
 30
0.0
 11
168.08619192690171
 21
167.60380625299581
 31
0.0
  0
LINE
  5
1A61
  8
AM_0
 10
96.546151926901643
 20
205.0038012529958
 30
0.0
 11
139.0861419269018
 21
205.0038012529958
 31
0.0
  0
LINE
  5
1A62
  8
AM_0
 10
140.0861419269018
 20
197.4938052529958
 30
0.0
 11
98.076181926901782
 21
197.4938052529958
 31
0.0
  0
LINE
  5
1A63
  8
AM_0
 10
105.7661419269017
 20
268.21380725299582
 30
0.0
 11
140.0861419269018
 21
268.21380725299582
 31
0.0
  0
LINE
  5
1A64
  8
AM_0
 10
105.7661419269017
 20
264.86380325299569
 30
0.0
 11
140.0861419269018
 21
264.86380325299569
 31
0.0
  0
LINE
  5
1A65
  8
AM_0
 10
105.5461519269016
 20
257.9837982529956
 30
0.0
 11
139.0861419269018
 21
257.98379825299588
 31
0.0
  0
LINE
  5
1A66
  8
AM_0
 10
105.5461519269016
 20
255.05380325299569
 30
0.0
 11
139.0861419269018
 21
255.05380325299569
 31
0.0
  0
LINE
  5
1A67
  8
AM_0
 10
96.416161926901722
 20
247.83380225299561
 30
0.0
 11
139.0861419269018
 21
247.83380225299561
 31
0.0
  0
LINE
  5
1A68
  8
AM_0
 10
96.416161926901722
 20
245.17379825299579
 30
0.0
 11
139.0861419269018
 21
245.17379825299579
 31
0.0
  0
LINE
  5
1A69
  8
AM_0
 10
96.356161926901805
 20
237.76379525299581
 30
0.0
 11
110.6874708305557
 21
237.76379525299581
 31
0.0
  0
LINE
  5
1A6A
  8
AM_0
 10
96.356161926901805
 20
235.233796252996
 30
0.0
 11
110.6874708305557
 21
235.233796252996
 31
0.0
  0
LINE
  5
1A6B
  8
AM_0
 10
113.0861419269018
 20
268.73379725299583
 30
0.0
 11
113.0861419269018
 21
268.66378925299568
 31
0.0
  0
LINE
  5
1A6F
  8
AM_0
 10
96.356161926901805
 20
227.76381125299579
 30
0.0
 11
110.6874708305557
 21
227.76381125299579
 31
0.0
  0
LINE
  5
1A70
  8
AM_0
 10
110.6874708305557
 20
225.49380725299579
 30
0.0
 11
97.636201926901691
 21
225.49380725299579
 31
0.0
  0
LINE
  5
1A71
  8
AM_0
 10
110.6874708305557
 20
227.4938052529958
 30
0.0
 11
97.636201926901691
 21
227.4938052529958
 31
0.0
  0
LINE
  5
1A74
  8
AM_0
 10
96.416161926901722
 20
217.81381325299569
 30
0.0
 11
139.0861419269018
 21
217.81381325299569
 31
0.0
  0
LINE
  5
1A75
  8
AM_0
 10
85.586191926901733
 20
246.6438012529957
 30
0.0
 11
89.866171926901728
 21
246.6438012529957
 31
0.0
  0
LINE
  5
1A78
  8
AM_0
 10
139.0861419269018
 20
215.4938052529958
 30
0.0
 11
97.636201926901691
 21
215.4938052529958
 31
0.0
  0
LINE
  5
1A79
  8
AM_0
 10
96.416161926901722
 20
215.15379425299579
 30
0.0
 11
139.0861419269018
 21
215.15379425299579
 31
0.0
  0
LINE
  5
1A7A
  8
AM_0
 10
139.0861419269018
 20
207.49380425299569
 30
0.0
 11
97.636201926901691
 21
207.49380425299569
 31
0.0
  0
LINE
  5
1A7B
  8
AM_0
 10
96.546151926901643
 20
207.9338082529957
 30
0.0
 11
139.0861419269018
 21
207.9338082529957
 31
0.0
  0
LINE
  5
1A7C
  8
AM_0
 10
139.0861419269018
 20
205.49382125299579
 30
0.0
 11
97.636201926901691
 21
205.49382125299579
 31
0.0
  0
LINE
  5
1A7E
  8
AM_0
 10
96.356161926901805
 20
225.2238162529957
 30
0.0
 11
110.6874708305557
 21
225.2238162529957
 31
0.0
  0
LINE
  5
1A7F
  8
AM_0
 10
85.586191926901733
 20
216.3437952529957
 30
0.0
 11
90.166141926901773
 21
216.3437952529957
 31
0.0
  0
ARC
  5
1AF8
  8
AM_0
 10
88.079371926901658
 20
279.51173225299573
 30
0.0
 40
0.9931920599999999
 50
119.7734
 51
179.87956
  0
ARC
  5
1AF9
  8
AM_0
 10
88.081741926901813
 20
278.47349225299581
 30
0.0
 40
0.9955880999999999
 50
116.58749
 51
179.98224999999999
  0
ARC
  5
1AFA
  8
AM_0
 10
89.348161926901767
 20
280.24793225299572
 30
0.0
 40
0.9959119799999999
 50
89.541443999999998
 51
119.60699
  0
ARC
  5
1AFB
  8
AM_0
 10
89.310931926901816
 20
279.09980225299569
 30
0.0
 40
0.99412809
 50
89.122808000000006
 51
115.93481
  0
ARC
  5
1AFC
  8
AM_0
 10
89.355001926901764
 20
278.13959225299573
 30
0.0
 40
0.9942600299999999
 50
89.355881999999966
 51
120.78109000000001
  0
ARC
  5
1AFD
  8
AM_0
 10
89.321251926901695
 20
276.99845225299578
 30
0.0
 40
0.99546798
 50
89.141447999999983
 51
117.20366
  0
ARC
  5
1AFE
  8
AM_0
 10
89.392771926901659
 20
273.62759225299578
 30
0.0
 40
0.9962120399999999
 50
90.381906000000001
 51
123.9699
  0
ARC
  5
1AFF
  8
AM_0
 10
89.365561926901705
 20
272.48730725299589
 30
0.0
 40
0.9965200799999999
 50
90.541213000000027
 51
120.74328
  0
ARC
  5
1B00
  8
AM_0
 10
88.080211926901825
 20
271.7370012529957
 30
0.0
 40
0.9940760400000001
 50
120.4692
 51
180.18464
  0
ARC
  5
1B01
  8
AM_0
 10
88.080961926901736
 20
272.77139525299572
 30
0.0
 40
0.9948280200000002
 50
123.20469
 51
180.43813
  0
ARC
  5
1B02
  8
AM_0
 10
88.079371926901658
 20
276.33524225299578
 30
0.0
 40
0.99321207
 50
117.79934
 51
180.08183
  0
ARC
  5
1B04
  8
AM_0
 10
88.080571926901584
 20
277.3727622529957
 30
0.0
 40
0.99443607
 50
121.15217
 51
179.94049000000001
  0
ARC
  5
1B05
  8
AM_0
 10
89.287141926901896
 20
266.1883272529958
 30
0.0
 40
0.9954800999999999
 50
90.057320999999988
 51
113.12703
  0
ARC
  5
1B06
  8
AM_0
 10
105.2268319269018
 20
190.27468925299581
 30
0.0
 40
1.00423602
 50
314.93782999999991
 51
5.6649238999999989
  0
ARC
  5
1B0A
  8
AM_0
 10
89.225311926901753
 20
264.2410902529956
 30
0.0
 40
0.992772
 50
89.374808000000016
 51
106.33181999999999
  0
ARC
  5
1B0B
  8
AM_0
 10
88.082401926901767
 20
263.8895592529957
 30
0.0
 40
0.9962600700000001
 50
106.69749
 51
180.33049
  0
ARC
  5
1B0C
  8
AM_0
 10
88.082551926901573
 20
265.67538725299568
 30
0.0
 40
0.99640008
 50
112.81739
 51
180.09039999999999
  0
ARC
  5
1B0D
  8
AM_0
 10
88.081201926901571
 20
256.49872025299578
 30
0.0
 40
0.9950800799999999
 50
89.71592099999998
 51
180.2840699999999
  0
ARC
  5
1B0E
  8
AM_0
 10
88.086331926901821
 20
256.4940192529956
 30
0.0
 40
1.000203989999999
 50
180.01167000000001
 51
269.9883200000001
  0
ARC
  5
1B0F
  8
AM_0
 10
88.081201926901571
 20
246.49872125299569
 30
0.0
 40
0.99508401
 50
89.716132999999985
 51
180.28387000000001
  0
ARC
  5
1B10
  8
AM_0
 10
88.086331926901821
 20
246.4940202529958
 30
0.0
 40
1.0002000600000001
 50
180.01146999999989
 51
269.98853000000003
  0
ARC
  5
1B11
  8
AM_0
 10
88.081201926901571
 20
236.49874925299579
 30
0.0
 40
0.9950879999999999
 50
89.716344999999961
 51
180.28364999999999
  0
ARC
  5
1B12
  8
AM_0
 10
88.086331926901821
 20
236.49398825299571
 30
0.0
 40
1.00019601
 50
180.01124999999999
 51
269.98874000000001
  0
ARC
  5
1B13
  8
AM_0
 10
91.086331926901835
 20
234.49396025299581
 30
0.0
 40
0.9998480400000001
 50
359.99122
 51
90.008778999999976
  0
ARC
  5
1B14
  8
AM_0
 10
91.081261926901689
 20
238.49872025299581
 30
0.0
 40
1.00492398
 50
270.28001
 51
359.71999000000011
  0
ARC
  5
1B15
  8
AM_0
 10
91.086331926901835
 20
244.49395925299561
 30
0.0
 40
0.9998440499999999
 50
359.99101000000002
 51
90.008991000000023
  0
ARC
  5
1B16
  8
AM_0
 10
91.081261926901689
 20
248.4987192529957
 30
0.0
 40
1.0049280299999981
 50
270.28021999999999
 51
359.71978000000001
  0
ARC
  5
1B17
  8
AM_0
 10
91.086331926901835
 20
254.4939582529957
 30
0.0
 40
0.9998520899999999
 50
359.99144999999999
 51
90.008546999999993
  0
ARC
  5
1B18
  8
AM_0
 10
91.081261926901689
 20
258.49872125299572
 30
0.0
 40
1.0049319599999991
 50
270.28041999999999
 51
359.71958000000001
  0
ARC
  5
1B19
  8
AM_0
 10
91.087861926901837
 20
264.23550725299577
 30
0.0
 40
0.99829605
 50
359.90204000000011
 51
90.097960999999998
  0
ARC
  5
1B1A
  8
AM_0
 10
91.083751926901755
 20
272.48144825299568
 30
0.0
 40
1.0023759899999991
 50
0.13559199
 51
89.864409999999964
  0
ARC
  5
1B1B
  8
AM_0
 10
91.381621926901644
 20
267.88833725299583
 30
0.0
 40
0.70455201
 50
270.36910999999998
 51
359.63089000000002
  0
ARC
  5
1B1C
  8
AM_0
 10
91.087171926901775
 20
276.99482225299568
 30
0.0
 40
0.9990081
 50
359.94315
 51
90.056843000000015
  0
ARC
  5
1B1D
  8
AM_0
 10
91.587781926901798
 20
279.59546225299567
 30
0.0
 40
0.49836402
 50
359.81141000000002
 51
90.188598000000013
  0
ARC
  5
1B1E
  8
AM_0
 10
91.581571926901574
 20
281.74841225299571
 30
0.0
 40
0.504636
 50
270.52375999999998
 51
359.47624000000002
  0
ARC
  5
1B1F
  8
AM_0
 10
240.08637192690171
 20
168.99398825299559
 30
0.0
 40
1.0001800499999991
 50
180.01031
 51
269.98968000000002
  0
ARC
  5
1B20
  8
AM_0
 10
231.89082192690179
 20
171.6391902529958
 30
0.0
 40
2.0053919100000002
 50
270.15275000000003
 51
344.81207000000001
  0
ARC
  5
1B21
  8
AM_0
 10
240.0856519269017
 20
180.99325925299581
 30
0.0
 40
0.99947604
 50
179.97009
 51
270.02992
  0
ARC
  5
1B23
  8
AM_0
 10
98.307211926901701
 20
282.4813722529957
 30
0.0
 40
1.9924480200000001
 50
89.742107999999988
 51
169.81179
  0
ARC
  5
1B24
  8
AM_0
 10
98.250991926901719
 20
287.76452225299568
 30
0.0
 40
1.9992880199999981
 50
89.851815000000016
 51
167.89433
  0
ARC
  5
1B25
  8
AM_0
 10
93.870451926901637
 20
284.03402225299578
 30
0.0
 40
1.5002480099999991
 50
270.21661999999998
 51
347.67500000000001
  0
ARC
  5
1B26
  8
AM_0
 10
98.21823192690168
 20
291.1692822529958
 30
0.0
 40
1.9945160699999991
 50
89.771334999999979
 51
166.82803999999999
  0
ARC
  5
1B27
  8
AM_0
 10
93.894601926901586
 20
288.09761225299582
 30
0.0
 40
1.5037760099999991
 50
270.05984000000001
 51
346.39312999999999
  0
ARC
  5
1B28
  8
AM_0
 10
93.907441926901683
 20
290.11700225299569
 30
0.0
 40
1.503232049999998
 50
270.33132000000001
 51
346.01803000000001
  0
ARC
  5
1B29
  8
AM_0
 10
98.192701926901805
 20
292.79699225299578
 30
0.0
 40
1.996816109999999
 50
89.901436000000004
 51
165.88941
  0
ARC
  5
1B2A
  8
AM_0
 10
115.0815619269018
 20
291.35843225299578
 30
0.0
 40
1.9953641399999991
 50
89.866758999999988
 51
180.13323
  0
ARC
  5
1B2B
  8
AM_0
 10
115.08234192690161
 20
293.3876022529958
 30
0.0
 40
1.99618809
 50
89.890486999999965
 51
180.10951
  0
ARC
  5
1B2C
  8
AM_0
 10
115.0797319269017
 20
294.74027225299568
 30
0.0
 40
1.993556189999999
 50
89.814515
 51
180.18548999999999
  0
ARC
  5
1B2D
  8
AM_0
 10
115.08168192690169
 20
295.41506225299582
 30
0.0
 40
1.998724049999999
 50
89.871137000000004
 51
165.55096
  0
ARC
  5
1B2E
  8
AM_0
 10
111.57948192690181
 20
285.98051225299582
 30
0.0
 40
1.5066999599999991
 50
270.25416000000001
 51
359.74583999999999
  0
ARC
  5
1B2F
  8
AM_0
 10
111.5833219269017
 20
291.26663225299581
 30
0.0
 40
1.5028360199999991
 50
270.10793999999999
 51
359.89206000000001
  0
ARC
  5
1B30
  8
AM_0
 10
111.58131192690171
 20
294.66866225299577
 30
0.0
 40
1.5048719999999991
 50
270.18518
 51
359.81482
  0
ARC
  5
1B31
  8
AM_0
 10
111.6927619269016
 20
296.29682225299581
 30
0.0
 40
1.50301605
 50
270.12945000000002
 51
345.23653999999999
  0
ARC
  5
1B32
  8
AM_0
 10
168.0852319269016
 20
293.38286225299561
 30
0.0
 40
2.0009239199999991
 50
0.026462999
 51
89.973535999999982
  0
ARC
  5
1B33
  8
AM_0
 10
168.08784192690149
 20
294.73550225299567
 30
0.0
 40
1.9982920200000001
 50
359.95103
 51
90.048975000000013
  0
ARC
  5
1B34
  8
AM_0
 10
168.08436192690181
 20
295.41200225299571
 30
0.0
 40
2.0018279999999979
 50
0.052301
 51
89.947696999999977
  0
ARC
  5
1B35
  8
AM_0
 10
238.73640192690181
 20
279.34619225299571
 30
0.0
 40
1.50239199
 50
195.1400099999999
 51
269.99063999999998
  0
ARC
  5
1B36
  8
AM_0
 10
231.8957119269017
 20
291.35483225299561
 30
0.0
 40
1.99898796
 50
15.047801
 51
89.987373000000005
  0
ARC
  5
1B37
  8
AM_0
 10
240.0812119269018
 20
293.99876225299568
 30
0.0
 40
0.9950640599999999
 50
89.714938000000004
 51
180.28505999999999
  0
ARC
  5
1B38
  8
AM_0
 10
240.0805219269017
 20
281.99944625299582
 30
0.0
 40
0.99440004
 50
89.676490999999999
 51
180.32351
  0
ARC
  5
1B39
  8
AM_0
 10
238.79202192690181
 20
284.03426225299557
 30
0.0
 40
1.5004760399999979
 50
192.33223000000001
 51
270.15827999999999
  0
ARC
  5
1B3A
  8
AM_0
 10
233.9336119269017
 20
289.9973322529957
 30
0.0
 40
1.9964880300000001
 50
12.040875
 51
89.926440999999969
  0
ARC
  5
1B3B
  8
AM_0
 10
91.082851926901753
 20
198.7571562529958
 30
0.0
 40
1.0033640100000001
 50
270.19171
 51
359.80828000000002
  0
ARC
  5
1B3C
  8
AM_0
 10
91.081261926901689
 20
208.49872025299581
 30
0.0
 40
1.00492398
 50
270.28003999999999
 51
359.71996999999999
  0
ARC
  5
1B3D
  8
AM_0
 10
91.086331926901835
 20
204.49397225299569
 30
0.0
 40
0.9998480400000001
 50
359.99119000000002
 51
90.008807000000004
  0
ARC
  5
1B3E
  8
AM_0
 10
91.386721926901714
 20
195.1043712529958
 30
0.0
 40
0.69944001
 50
359.95416
 51
90.045839999999984
  0
ARC
  5
1B3F
  8
AM_0
 10
89.289151926901809
 20
196.80903725299569
 30
0.0
 40
1.0052240100000001
 50
246.98629
 51
269.82936000000001
  0
ARC
  5
1B40
  8
AM_0
 10
89.226691926901694
 20
198.75649925299581
 30
0.0
 40
1.00272801
 50
253.75297
 51
270.54039999999998
  0
ARC
  5
1B41
  8
AM_0
 10
88.082551926901573
 20
199.10815325299581
 30
0.0
 40
0.99638007
 50
180.24949000000001
 51
253.29706999999999
  0
ARC
  5
1B42
  8
AM_0
 10
88.082671926901725
 20
197.3222802529958
 30
0.0
 40
0.9964760700000001
 50
179.91257999999999
 51
247.17966000000001
  0
ARC
  5
1B43
  8
AM_0
 10
88.086331926901821
 20
206.49400325299561
 30
0.0
 40
1.00019601
 50
180.01127999999991
 51
269.98872
  0
ARC
  5
1B44
  8
AM_0
 10
88.081201926901571
 20
206.49874925299579
 30
0.0
 40
0.99508401
 50
89.716324
 51
180.28368
  0
ARC
  5
1B45
  8
AM_0
 10
88.086331926901821
 20
216.4940202529958
 30
0.0
 40
1.0002000600000001
 50
180.01150000000001
 51
269.98851000000002
  0
ARC
  5
1B46
  8
AM_0
 10
88.081201926901571
 20
216.49873325299589
 30
0.0
 40
0.99508401
 50
89.716106000000025
 51
180.28389000000001
  0
ARC
  5
1B47
  8
AM_0
 10
88.086331926901821
 20
226.49401925299571
 30
0.0
 40
1.000203989999999
 50
180.01169999999999
 51
269.98829999999998
  0
ARC
  5
1B48
  8
AM_0
 10
88.081201926901571
 20
226.49873525299591
 30
0.0
 40
0.9950800799999999
 50
89.715893999999963
 51
180.2841
  0
ARC
  5
1B49
  8
AM_0
 10
91.081201926901628
 20
228.49873625299571
 30
0.0
 40
1.0049319599999991
 50
270.28044999999997
 51
359.71955000000008
  0
ARC
  5
1B4A
  8
AM_0
 10
91.086331926901835
 20
224.49395825299581
 30
0.0
 40
0.9998520899999999
 50
359.99142999999998
 51
90.008574000000024
  0
ARC
  5
1B4B
  8
AM_0
 10
91.081261926901689
 20
218.4987192529957
 30
0.0
 40
1.0049280299999981
 50
270.28023999999999
 51
359.71976000000001
  0
ARC
  5
1B4C
  8
AM_0
 10
91.086331926901835
 20
214.49395925299589
 30
0.0
 40
0.9998440499999999
 50
359.99097999999998
 51
90.00901800000004
  0
ARC
  5
1B4D
  8
AM_0
 10
101.2444519269016
 20
273.08661125299568
 30
0.0
 40
5.004112499999998
 50
279.68356999999997
 51
354.57834000000008
  0
ARC
  5
1B4E
  8
AM_0
 10
101.7069319269018
 20
269.16089225299578
 30
0.0
 40
6.0049157999999991
 50
45.22730700000001
 51
86.379093999999981
  0
ARC
  5
1B4F
  8
AM_0
 10
105.23013192690161
 20
272.71408325299581
 30
0.0
 40
1.001108069999999
 50
354.25024999999999
 51
45.146993999999992
  0
ARC
  5
1B50
  8
AM_0
 10
233.92860192690171
 20
172.99641425299569
 30
0.0
 40
2.0026238699999981
 50
270.21534000000003
 51
347.81734
  0
ARC
  5
1B51
  8
AM_0
 10
238.79322192690171
 20
178.96449125299571
 30
0.0
 40
1.499328059999999
 50
89.888150999999993
 51
168.09384
  0
ARC
  5
1B52
  8
AM_0
 10
101.7161419269017
 20
193.8409872529958
 30
0.0
 40
6.0085923000000001
 50
273.53095000000002
 51
314.61478
  0
ARC
  5
1B53
  8
AM_0
 10
101.24952192690159
 20
189.90573125299571
 30
0.0
 40
4.9985837999999987
 50
5.3731198999999981
 51
80.364975999999999
  0
ARC
  5
1B54
  8
AM_0
 10
88.083751926901741
 20
183.4784712529958
 30
0.0
 40
0.9976240799999999
 50
180.26750999999999
 51
240.07954000000001
  0
ARC
  5
1B55
  8
AM_0
 10
88.081801926901662
 20
184.52416925299579
 30
0.0
 40
0.9956680199999999
 50
180.02043
 51
243.40983
  0
ARC
  5
1B56
  8
AM_0
 10
89.366851926901631
 20
182.7448872529958
 30
0.0
 40
1.0011359699999991
 50
239.328
 51
269.38751000000002
  0
ARC
  5
1B57
  8
AM_0
 10
89.33199192690185
 20
183.89306525299571
 30
0.0
 40
0.999288
 50
242.86126999999999
 51
269.66618999999997
  0
ARC
  5
1B58
  8
AM_0
 10
89.35749192690183
 20
184.85746625299561
 30
0.0
 40
1.0036880100000001
 50
239.37027
 51
270.49275
  0
ARC
  5
1B59
  8
AM_0
 10
89.341321926901742
 20
185.99443025299561
 30
0.0
 40
1.00062801
 50
241.6498600000001
 51
269.70470999999998
  0
ARC
  5
1B5A
  8
AM_0
 10
89.378911926901623
 20
189.3743142529957
 30
0.0
 40
1.0005359999999981
 50
237.1464
 51
270.41322000000002
  0
ARC
  5
1B5B
  8
AM_0
 10
89.349511926901741
 20
190.5148002529956
 30
0.0
 40
1.0010120099999991
 50
240.47136
 51
270.3802
  0
ARC
  5
1B5C
  8
AM_0
 10
88.085221926901667
 20
190.21849025299571
 30
0.0
 40
0.99910005
 50
179.69542000000001
 51
236.66176999999999
  0
ARC
  5
1B5D
  8
AM_0
 10
88.083871926901665
 20
186.65510525299581
 30
0.0
 40
0.9977079899999999
 50
180.07405
 51
242.04476
  0
ARC
  5
1B5E
  8
AM_0
 10
88.084921926901742
 20
185.61730925299571
 30
0.0
 40
0.9987801
 50
179.62666999999999
 51
238.70855
  0
ARC
  5
1B5F
  8
AM_0
 10
91.083691926901665
 20
190.5162672529957
 30
0.0
 40
1.00246002
 50
270.14037999999999
 51
359.85962000000001
  0
ARC
  5
1B60
  8
AM_0
 10
88.08462192690159
 20
191.25311225299581
 30
0.0
 40
0.9984600300000001
 50
179.95962
 51
239.38655
  0
ARC
  5
1B61
  8
AM_0
 10
91.082101926901586
 20
185.9978952529957
 30
0.0
 40
1.004084009999999
 50
270.23262999999997
 51
359.76737000000008
  0
ARC
  5
1B62
  8
AM_0
 10
91.582711926901652
 20
183.39720125299559
 30
0.0
 40
0.50340399
 50
270.38612999999998
 51
359.61387000000002
  0
ARC
  5
1B63
  8
AM_0
 10
91.58655192690172
 20
181.2442482529957
 30
0.0
 40
0.4995560100000002
 50
359.94911000000002
 51
90.050894000000014
  0
ARC
  5
1B64
  8
AM_0
 10
98.312221926901543
 20
180.51223625299571
 30
0.0
 40
1.998444029999999
 50
190.33240000000001
 51
270.11369000000002
  0
ARC
  5
1B65
  8
AM_0
 10
98.251051926901823
 20
175.2331842529959
 30
0.0
 40
1.9993920899999991
 50
192.1080399999999
 51
270.14582000000001
  0
ARC
  5
1B66
  8
AM_0
 10
93.869281926901834
 20
178.96472225299561
 30
0.0
 40
1.499099999999999
 50
11.89856
 51
89.736657999999963
  0
ARC
  5
1B67
  8
AM_0
 10
98.223151926901764
 20
171.82456925299579
 30
0.0
 40
2.0007560699999991
 50
193.3141599999999
 51
270.08645000000001
  0
ARC
  5
1B68
  8
AM_0
 10
93.899551926901836
 20
174.89630225299581
 30
0.0
 40
1.497512039999999
 50
13.418233000000001
 51
90.128792999999988
  0
ARC
  5
1B69
  8
AM_0
 10
93.913951926901646
 20
172.87568525299571
 30
0.0
 40
1.498128089999998
 50
14.224575
 51
89.916113999999993
  0
ARC
  5
1B6A
  8
AM_0
 10
98.197651926901571
 20
170.1969462529957
 30
0.0
 40
2.0031319199999991
 50
194.25158999999999
 51
269.95755000000003
  0
ARC
  5
1B6B
  8
AM_0
 10
115.0866319269017
 20
171.63424625299581
 30
0.0
 40
2.000452109999999
 50
180.0129
 51
269.9871
  0
ARC
  5
1B6C
  8
AM_0
 10
115.0874719269017
 20
169.60511825299591
 30
0.0
 40
2.0013120899999981
 50
180.03756000000001
 51
269.96244000000002
  0
ARC
  5
1B6D
  8
AM_0
 10
115.0848019269016
 20
168.2524242529957
 30
0.0
 40
1.9986199799999991
 50
179.96046999999999
 51
270.03953000000001
  0
ARC
  5
1B6E
  8
AM_0
 10
115.0800919269019
 20
167.58386225299569
 30
0.0
 40
2.0000761200000001
 50
194.77498
 51
270.17353000000003
  0
ARC
  5
1B6F
  8
AM_0
 10
111.5846119269018
 20
177.01223825299559
 30
0.0
 40
1.5015680099999991
 50
0.059805003
 51
89.940196999999998
  0
ARC
  5
1B70
  8
AM_0
 10
111.5834419269018
 20
171.7310952529958
 30
0.0
 40
1.50271599
 50
0.103436
 51
89.896566000000007
  0
ARC
  5
1B71
  8
AM_0
 10
111.5864419269018
 20
168.32404925299579
 30
0.0
 40
1.49975601
 50
359.99059
 51
90.009407999999965
  0
ARC
  5
1B72
  8
AM_0
 10
111.6977119269019
 20
166.69715825299571
 30
0.0
 40
1.49664405
 50
14.57574
 51
90.058278000000001
  0
ARC
  5
1B73
  8
AM_0
 10
168.0801619269017
 20
169.60983125299569
 30
0.0
 40
2.0060480100000002
 50
270.17248999999998
 51
359.82751000000002
  0
ARC
  5
1B74
  8
AM_0
 10
168.08277192690159
 20
168.25717025299579
 30
0.0
 40
2.0033560499999989
 50
270.09593999999998
 51
359.90406000000002
  0
ARC
  5
1B75
  8
AM_0
 10
168.0842419269016
 20
167.58569225299581
 30
0.0
 40
2.0019000299999989
 50
270.05437999999998
 51
359.94562000000002
  0
ARC
  5
1B76
  8
AM_0
 10
238.73154192690171
 20
183.64782725299571
 30
0.0
 40
1.49599605
 50
89.821707000000004
 51
165.04766000000001
  0
ARC
  5
1B77
  8
AM_0
 10
114.0813919269018
 20
246.49380725299579
 30
0.0
 40
1.000011959999999
 50
89.726507999999981
 51
270.27348000000001
  0
ARC
  5
1B78
  8
AM_0
 10
114.0813919269018
 20
256.49380625299568
 30
0.0
 40
1.000011959999999
 50
89.726507999999981
 51
270.27348000000001
  0
ARC
  5
1B79
  8
AM_0
 10
114.0813919269018
 20
266.49380825299568
 30
0.0
 40
1.000011959999999
 50
89.726507999999981
 51
270.27348000000001
  0
ARC
  5
1B7A
  8
AM_0
 10
96.350371926901644
 20
236.4988122529958
 30
0.0
 40
1.26501207
 50
89.737716000000006
 51
270.26227999999998
  0
ARC
  5
1B7B
  8
AM_0
 10
96.416161926901722
 20
246.50381525299579
 30
0.0
 40
1.330008059999999
 50
90.000003000000007
 51
270.0
  0
ARC
  5
1B7C
  8
AM_0
 10
105.5461519269016
 20
256.51880225299578
 30
0.0
 40
1.465004009999999
 50
90.000003000000007
 51
270.0
  0
ARC
  5
1B7D
  8
AM_0
 10
105.7593019269017
 20
266.5387902529958
 30
0.0
 40
1.6750160999999979
 50
89.766540000000006
 51
270.23345999999998
  0
ARC
  5
1B7E
  8
AM_0
 10
97.636201926901691
 20
236.4938052529958
 30
0.0
 40
1.0000000199999981
 50
90.000003000000007
 51
270.0
  0
ARC
  5
1B7F
  8
AM_0
 10
97.636201926901691
 20
246.49380725299579
 30
0.0
 40
1.0000000199999981
 50
90.000003000000007
 51
270.0
  0
ARC
  5
1B80
  8
AM_0
 10
106.6314319269016
 20
266.49380825299568
 30
0.0
 40
1.000011959999999
 50
89.728448
 51
270.27154000000002
  0
ARC
  5
1B81
  8
AM_0
 10
106.6314319269016
 20
256.49380625299568
 30
0.0
 40
1.000011959999999
 50
89.728448
 51
270.27154000000002
  0
ARC
  5
1B86
  8
AM_0
 10
235.9061419269018
 20
266.5387902529958
 30
0.0
 40
1.675004159999999
 50
276.16905573844588
 51
83.830944261554208
  0
ARC
  5
1B89
  8
AM_0
 10
235.9061419269018
 20
196.44882125299591
 30
0.0
 40
1.675004159999999
 50
276.16905573844969
 51
83.830944261550343
  0
ARC
  5
1B8A
  8
AM_0
 10
97.636201926901691
 20
226.4938212529957
 30
0.0
 40
1.0000000199999981
 50
90.000003000000007
 51
270.0
  0
ARC
  5
1B8B
  8
AM_0
 10
114.0813919269018
 20
216.49380725299579
 30
0.0
 40
1.000011959999999
 50
89.726507999999981
 51
270.27348000000001
  0
ARC
  5
1B8C
  8
AM_0
 10
114.0813919269018
 20
206.4938052529958
 30
0.0
 40
1.000011959999999
 50
89.726507999999981
 51
270.27348000000001
  0
ARC
  5
1B8D
  8
AM_0
 10
96.416161926901722
 20
216.48381125299579
 30
0.0
 40
1.330008059999999
 50
90.000003000000007
 51
270.0
  0
ARC
  5
1B8E
  8
AM_0
 10
96.546151926901643
 20
206.4688122529958
 30
0.0
 40
1.465004009999999
 50
90.000003000000007
 51
270.0
  0
ARC
  5
1B8F
  8
AM_0
 10
97.631431926901655
 20
196.4938212529957
 30
0.0
 40
1.000011959999999
 50
89.728461999999965
 51
270.27154000000002
  0
ARC
  5
1B91
  8
AM_0
 10
114.0813919269018
 20
196.4938212529957
 30
0.0
 40
1.000011959999999
 50
89.726507999999981
 51
270.27348000000001
  0
ARC
  5
1B92
  8
AM_0
 10
96.350371926901644
 20
226.4938212529957
 30
0.0
 40
1.2700120500000001
 50
89.738748000000001
 51
270.26123999999999
  0
ARC
  5
1B93
  8
AM_0
 10
96.759301926901685
 20
196.44882125299591
 30
0.0
 40
1.6750160999999979
 50
89.764983000000015
 51
270.23500999999999
  0
ARC
  5
1B94
  8
AM_0
 10
97.636201926901691
 20
216.49380725299579
 30
0.0
 40
1.0000000199999981
 50
90.000003000000007
 51
270.0
  0
ARC
  5
1B95
  8
AM_0
 10
97.631431926901655
 20
206.4938052529958
 30
0.0
 40
1.000011959999999
 50
89.728461999999965
 51
270.27154000000002
  0
LINE
  5
25BA
  8
ﾁｭｳｼﾝｾﾝ
 10
188.0861419269018
 20
282.49380725299602
 30
0.0
 11
188.0861419269018
 21
180.49380725299571
 31
0.0
  0
LINE
  5
26B6
  8
AM_0
 10
232.0861419269018
 20
185.49380725299571
 30
0.0
 11
144.0861419269018
 21
185.49380725299571
 31
0.0
  0
ARC
  5
26B7
  8
AM_0
 10
162.15720973876711
 20
190.49380725299571
 30
0.0
 40
5.0
 50
225.0
 51
270.0
1001
GENIUS_GENOBJ-N-FIL_13
1002
{
1000
OWNER
1000
GEN
1002
}
1001
GENIUS_GENODEF_13
1002
{
1000
HIER
1070
     0
1002
}
1002
{
1000
MANEDIT
1070
     0
1002
}
1002
{
1000
NOSEL
1070
     0
1002
}
1002
{
1000
BEHIND
1070
     0
1002
}
1002
{
1000
OTHER
1070
     0
1002
}
1002
{
1000
REACTOR
1002
}
  0
LINE
  5
26B8
  8
AM_0
 10
213.3582198655441
 20
190.49380725299571
 30
0.0
 11
162.81406398825959
 21
190.49380725299571
 31
0.0
  0
ARC
  5
26B9
  8
AM_0
 10
213.3582198655441
 20
195.49380725299571
 30
0.0
 40
5.0
 50
270.0
 51
315.0
1001
GENIUS_GENOBJ-N-FIL_13
1002
{
1000
OWNER
1000
GEN
1002
}
1001
GENIUS_GENODEF_13
1002
{
1000
HIER
1070
     0
1002
}
1002
{
1000
MANEDIT
1070
     0
1002
}
1002
{
1000
NOSEL
1070
     0
1002
}
1002
{
1000
BEHIND
1070
     0
1002
}
1002
{
1000
OTHER
1070
     0
1002
}
1002
{
1000
REACTOR
1002
}
  0
ARC
  5
26BA
  8
AM_0
 10
232.0861419269018
 20
189.49380725299571
 30
0.0
 40
4.0
 50
270.0
 51
0.0
1001
GENIUS_GENOBJ-N-FIL_13
1002
{
1000
OWNER
1000
GEN
1002
}
1001
GENIUS_GENODEF_13
1002
{
1000
HIER
1070
     0
1002
}
1002
{
1000
MANEDIT
1070
     0
1002
}
1002
{
1000
NOSEL
1070
     0
1002
}
1002
{
1000
BEHIND
1070
     0
1002
}
1002
{
1000
OTHER
1070
     0
1002
}
1002
{
1000
REACTOR
1002
}
  0
LINE
  5
26BB
  8
AM_0
 10
232.0861419269016
 20
277.49380725299591
 30
0.0
 11
144.0861419269018
 21
277.49380725299591
 31
0.0
  0
ARC
  5
26BC
  8
AM_0
 10
214.0150741150363
 20
272.49380725299602
 30
0.0
 40
5.0
 50
45.0
 51
90.0
1001
GENIUS_GENOBJ-N-FIL_13
1002
{
1000
OWNER
1000
GEN
1002
}
1001
GENIUS_GENODEF_13
1002
{
1000
HIER
1070
     0
1002
}
1002
{
1000
MANEDIT
1070
     0
1002
}
1002
{
1000
NOSEL
1070
     0
1002
}
1002
{
1000
BEHIND
1070
     0
1002
}
1002
{
1000
OTHER
1070
     0
1002
}
1002
{
1000
REACTOR
1002
}
  0
ARC
  5
26BD
  8
AM_0
 10
162.15720973876739
 20
272.49380725299602
 30
0.0
 40
5.0
 50
90.0
 51
135.0
1001
GENIUS_GENODEF_13
1002
{
1000
HIER
1070
     0
1002
}
1002
{
1000
MANEDIT
1070
     0
1002
}
1002
{
1000
NOSEL
1070
     0
1002
}
1002
{
1000
BEHIND
1070
     0
1002
}
1002
{
1000
OTHER
1070
     0
1002
}
1002
{
1000
REACTOR
1002
}
1001
GENIUS_GENOBJ-N-FIL_13
1002
{
1000
OWNER
1000
GEN
1002
}
  0
LINE
  5
26BE
  8
AM_0
 10
213.3582198655439
 20
272.49380725299602
 30
0.0
 11
162.81406398825959
 21
272.49380725299602
 31
0.0
  0
ARC
  5
26BF
  8
AM_0
 10
162.81406398825959
 20
267.49380725299602
 30
0.0
 40
5.0
 50
90.0
 51
135.0
1001
GENIUS_GENODEF_13
1002
{
1000
HIER
1070
     0
1002
}
1002
{
1000
MANEDIT
1070
     0
1002
}
1002
{
1000
NOSEL
1070
     0
1002
}
1002
{
1000
BEHIND
1070
     0
1002
}
1002
{
1000
OTHER
1070
     0
1002
}
1002
{
1000
REACTOR
1002
}
1001
GENIUS_GENOBJ-N-FIL_13
1002
{
1000
OWNER
1000
GEN
1002
}
  0
ARC
  5
26C0
  8
AM_0
 10
144.0861419269018
 20
273.49380725299602
 30
0.0
 40
4.0
 50
90.0
 51
180.0
1001
GENIUS_GENODEF_13
1002
{
1000
HIER
1070
     0
1002
}
1002
{
1000
MANEDIT
1070
     0
1002
}
1002
{
1000
NOSEL
1070
     0
1002
}
1002
{
1000
BEHIND
1070
     0
1002
}
1002
{
1000
OTHER
1070
     0
1002
}
1002
{
1000
REACTOR
1002
}
1001
GENIUS_GENOBJ-N-FIL_13
1002
{
1000
OWNER
1000
GEN
1002
}
  0
LINE
  5
26C1
  8
AM_0
 10
140.0861419269018
 20
273.49380725299602
 30
0.0
 11
140.0861419269018
 21
189.49380725299571
 31
0.0
  0
ARC
  5
26C2
  8
AM_0
 10
145.0861419269018
 20
207.5648750648611
 30
0.0
 40
5.0
 50
180.0
 51
225.0
1001
GENIUS_GENOBJ-N-FIL_13
1002
{
1000
OWNER
1000
GEN
1002
}
1001
GENIUS_GENODEF_13
1002
{
1000
HIER
1070
     0
1002
}
1002
{
1000
MANEDIT
1070
     0
1002
}
1002
{
1000
NOSEL
1070
     0
1002
}
1002
{
1000
BEHIND
1070
     0
1002
}
1002
{
1000
OTHER
1070
     0
1002
}
1002
{
1000
REACTOR
1002
}
  0
ARC
  5
26C3
  8
AM_0
 10
145.0861419269018
 20
255.42273944113069
 30
0.0
 40
5.0
 50
135.0
 51
180.0
1001
GENIUS_GENOBJ-N-FIL_13
1002
{
1000
OWNER
1000
GEN
1002
}
1001
GENIUS_GENODEF_13
1002
{
1000
HIER
1070
     0
1002
}
1002
{
1000
MANEDIT
1070
     0
1002
}
1002
{
1000
NOSEL
1070
     0
1002
}
1002
{
1000
BEHIND
1070
     0
1002
}
1002
{
1000
OTHER
1070
     0
1002
}
1002
{
1000
REACTOR
1002
}
  0
LINE
  5
26C4
  8
AM_0
 10
145.0861419269018
 20
254.76588519163809
 30
0.0
 11
145.08614192690149
 21
208.2217293143535
 31
0.0
  0
ARC
  5
26C5
  8
AM_0
 10
150.08614192690149
 20
208.2217293143535
 30
0.0
 40
5.0
 50
180.0
 51
225.0
1001
GENIUS_GENOBJ-N-FIL_13
1002
{
1000
OWNER
1000
GEN
1002
}
1001
GENIUS_GENODEF_13
1002
{
1000
HIER
1070
     0
1002
}
1002
{
1000
MANEDIT
1070
     0
1002
}
1002
{
1000
NOSEL
1070
     0
1002
}
1002
{
1000
BEHIND
1070
     0
1002
}
1002
{
1000
OTHER
1070
     0
1002
}
1002
{
1000
REACTOR
1002
}
  0
ARC
  5
26C6
  8
AM_0
 10
144.0861419269018
 20
189.49380725299571
 30
0.0
 40
4.0
 50
180.0
 51
270.0
1001
GENIUS_GENODEF_13
1002
{
1000
HIER
1070
     0
1002
}
1002
{
1000
MANEDIT
1070
     0
1002
}
1002
{
1000
NOSEL
1070
     0
1002
}
1002
{
1000
BEHIND
1070
     0
1002
}
1002
{
1000
OTHER
1070
     0
1002
}
1002
{
1000
REACTOR
1002
}
1001
GENIUS_GENOBJ-N-FIL_13
1002
{
1000
OWNER
1000
GEN
1002
}
  0
LINE
  5
26C7
  8
AM_0
 10
236.0861419269018
 20
273.49380725299602
 30
0.0
 11
236.0861419269018
 21
189.49380725299571
 31
0.0
  0
ARC
  5
26C8
  8
AM_0
 10
231.08614192690189
 20
255.42273944113049
 30
0.0
 40
5.0
 50
0.0
 51
45.0
1001
GENIUS_GENOBJ-N-FIL_13
1002
{
1000
OWNER
1000
GEN
1002
}
1001
GENIUS_GENODEF_13
1002
{
1000
HIER
1070
     0
1002
}
1002
{
1000
MANEDIT
1070
     0
1002
}
1002
{
1000
NOSEL
1070
     0
1002
}
1002
{
1000
BEHIND
1070
     0
1002
}
1002
{
1000
OTHER
1070
     0
1002
}
1002
{
1000
REACTOR
1002
}
  0
ARC
  5
26C9
  8
AM_0
 10
231.08614192690189
 20
207.5648750648613
 30
0.0
 40
5.0
 50
315.0
 51
0.0
1001
GENIUS_GENOBJ-N-FIL_13
1002
{
1000
OWNER
1000
GEN
1002
}
1001
GENIUS_GENODEF_13
1002
{
1000
HIER
1070
     0
1002
}
1002
{
1000
MANEDIT
1070
     0
1002
}
1002
{
1000
NOSEL
1070
     0
1002
}
1002
{
1000
BEHIND
1070
     0
1002
}
1002
{
1000
OTHER
1070
     0
1002
}
1002
{
1000
REACTOR
1002
}
  0
LINE
  5
26CA
  8
AM_0
 10
217.55060802096901
 20
276.02934115892867
 30
0.0
 11
234.62167583283451
 21
258.95827334706343
 31
0.0
  0
LINE
  5
26CB
  8
AM_0
 10
216.89375377147661
 20
271.02934115892867
 30
0.0
 11
229.62167583283431
 21
258.30141909757128
 31
0.0
  0
ARC
  5
26CC
  8
AM_0
 10
213.3582198655439
 20
267.49380725299602
 30
0.0
 40
5.0
 50
45.0
 51
90.0
1001
GENIUS_GENOBJ-N-FIL_13
1002
{
1000
OWNER
1000
GEN
1002
}
1001
GENIUS_GENODEF_13
1002
{
1000
HIER
1070
     0
1002
}
1002
{
1000
MANEDIT
1070
     0
1002
}
1002
{
1000
NOSEL
1070
     0
1002
}
1002
{
1000
BEHIND
1070
     0
1002
}
1002
{
1000
OTHER
1070
     0
1002
}
1002
{
1000
REACTOR
1002
}
  0
LINE
  5
26CD
  8
AM_0
 10
231.0861419269016
 20
254.76588519163829
 30
0.0
 11
231.08614192690189
 21
208.2217293143535
 31
0.0
  0
ARC
  5
26CE
  8
AM_0
 10
226.0861419269016
 20
254.76588519163829
 30
0.0
 40
5.0
 50
0.0
 51
45.0
1001
GENIUS_GENODEF_13
1002
{
1000
HIER
1070
     0
1002
}
1002
{
1000
MANEDIT
1070
     0
1002
}
1002
{
1000
NOSEL
1070
     0
1002
}
1002
{
1000
BEHIND
1070
     0
1002
}
1002
{
1000
OTHER
1070
     0
1002
}
1002
{
1000
REACTOR
1002
}
1001
GENIUS_GENOBJ-N-FIL_13
1002
{
1000
OWNER
1000
GEN
1002
}
  0
ARC
  5
26CF
  8
AM_0
 10
232.0861419269016
 20
273.49380725299602
 30
0.0
 40
4.0
 50
0.0
 51
90.0
1001
GENIUS_GENODEF_13
1002
{
1000
HIER
1070
     0
1002
}
1002
{
1000
MANEDIT
1070
     0
1002
}
1002
{
1000
NOSEL
1070
     0
1002
}
1002
{
1000
BEHIND
1070
     0
1002
}
1002
{
1000
OTHER
1070
     0
1002
}
1002
{
1000
REACTOR
1002
}
1001
GENIUS_GENOBJ-N-FIL_13
1002
{
1000
OWNER
1000
GEN
1002
}
  0
LINE
  5
26D0
  8
ﾁｭｳｼﾝｾﾝ1
 10
231.0861419269032
 20
266.49380725299562
 30
0.0
 11
231.08614192690391
 21
278.49380725299562
 31
0.0
  0
LINE
  5
26D1
  8
ﾁｭｳｼﾝｾﾝ1
 10
237.08614192690371
 20
272.49380725299528
 30
0.0
 11
225.08614192690371
 21
272.49380725299602
 31
0.0
  0
LINE
  5
26D2
  8
AM_0
 10
136.5861419269018
 20
244.99380725299599
 30
0.0
 11
139.0861419269016
 21
244.99380725299611
 31
0.0
  0
LINE
  5
26D3
  8
AM_0
 10
139.0861419269018
 20
217.99380725299599
 30
0.0
 11
136.5861419269018
 21
217.99380725299599
 31
0.0
  0
LINE
  5
26D4
  8
AM_0
 10
125.6874708305557
 20
220.99380725299599
 30
0.0
 11
125.6874708305557
 21
241.99380725299599
 31
0.0
  0
LINE
  5
26D5
  8
AM_0
 10
110.6874708305557
 20
239.52543230701099
 30
0.0
 11
110.6874708305557
 21
223.46218219898009
 31
0.0
  0
LINE
  5
26D6
  8
AM_0
 10
123.6874708305557
 20
219.49380725299599
 30
0.0
 11
123.6874708305557
 21
243.49380725299599
 31
0.0
  0
LINE
  5
26D7
  8
AM_0
 10
114.1874708305557
 20
231.49380725299599
 30
0.0
 11
114.6874708305557
 21
230.99380725299599
 31
0.0
  0
LINE
  5
26D8
  8
AM_0
 10
121.1874708305557
 20
243.19380725299609
 30
0.0
 11
121.1874708305557
 21
219.793807252996
 31
0.0
  0
LINE
  5
26D9
  8
AM_0
 10
131.0861419269018
 20
242.99380725299599
 30
0.0
 11
131.0861419269018
 21
219.99380725299599
 31
0.0
  0
LINE
  5
26DA
  8
AM_0
 10
125.1874708305557
 20
230.79380725299421
 30
0.0
 11
125.1874708305557
 21
232.193807252997
 31
0.0
  0
LINE
  5
26DB
  8
AM_0
 10
127.2871065571268
 20
222.39380725299611
 30
0.0
 11
126.5371065571277
 21
240.5938072529961
 31
0.0
  0
LINE
  5
26DC
  8
AM_0
 10
126.3361419269018
 20
222.39380725299611
 30
0.0
 11
125.6874708305557
 21
238.13489252431211
 31
0.0
  0
LINE
  5
26DD
  8
AM_0
 10
127.0848345174736
 20
221.67814854063209
 30
0.0
 11
126.3375744740657
 21
241.30617901416301
 31
0.0
  0
LINE
  5
26DE
  8
AM_0
 10
126.5356740099638
 20
221.6814354918281
 30
0.0
 11
125.7871065571277
 21
241.34380725299599
 31
0.0
  0
LINE
  5
26DF
  8
AM_0
 10
123.6874708305557
 20
243.49380725299599
 30
0.0
 11
121.48747083055569
 21
243.49380725299599
 31
0.0
  0
ARC
  5
26E0
  8
AM_0
 10
135.5861419269018
 20
243.99380725299599
 30
0.0
 40
0.5
 50
269.99999999998693
 51
0.0
  0
ARC
  5
26E1
  8
AM_0
 10
136.5861419269018
 20
244.49380725299599
 30
0.0
 40
0.5
 50
90.0
 51
180.0
  0
LINE
  5
26E2
  8
AM_0
 10
136.0861419269018
 20
243.99380725299599
 30
0.0
 11
136.0861419269018
 21
244.49380725299599
 31
0.0
  0
LINE
  5
26E3
  8
AM_0
 10
127.0861419269018
 20
240.5938072529961
 30
0.0
 11
130.5861419269018
 21
240.5938072529959
 31
0.0
  0
LINE
  5
26E4
  8
AM_0
 10
136.0861419269018
 20
242.34987857440299
 30
0.0
 11
136.0861419269018
 21
232.637735931588
 31
0.0
  0
LINE
  5
26E5
  8
AM_0
 10
131.5861419269018
 20
243.49380725299599
 30
0.0
 11
135.58614192690149
 21
243.49380725299599
 31
0.0
  0
LINE
  5
26E6
  8
AM_0
 10
135.5861419269018
 20
242.84987857440299
 30
0.0
 11
131.0861419269018
 21
242.84987857440299
 31
0.0
  0
ARC
  5
26E7
  8
AM_0
 10
135.5861419269018
 20
242.34987857440299
 30
0.0
 40
0.5
 50
0.0
 51
90.0
  0
ARC
  5
26E8
  8
AM_0
 10
130.5861419269018
 20
241.0938072529959
 30
0.0
 40
0.5
 50
270.0
 51
0.0
  0
ARC
  5
26E9
  8
AM_0
 10
131.5861419269018
 20
242.99380725299599
 30
0.0
 40
0.5
 50
90.0
 51
180.0
  0
LINE
  5
26EA
  8
AM_0
 10
135.5861419269018
 20
232.13773593158791
 30
0.0
 11
131.0861419269018
 21
232.13773593158791
 31
0.0
  0
ARC
  5
26EB
  8
AM_0
 10
135.5861419269018
 20
232.637735931588
 30
0.0
 40
0.5
 50
270.0
 51
0.0
  0
LINE
  5
26EC
  8
AM_0
 10
125.1874708305557
 20
237.63897800528801
 30
0.0
 11
125.1874708305557
 21
236.466734818855
 31
0.0
  0
LINE
  5
26ED
  8
AM_0
 10
126.6138389855526
 20
240.5938072529961
 30
0.0
 11
127.0861419269018
 21
240.5938072529961
 31
0.0
  0
LINE
  5
26EE
  8
AM_0
 10
126.5172464910134
 20
240.66792501973251
 30
0.0
 11
126.5371065571277
 21
240.5938072529961
 31
0.0
  0
ARC
  5
26EF
  8
AM_0
 10
126.6138389855529
 20
240.69380725299601
 30
0.0
 40
0.1000000000000346
 50
195.00019500644541
 51
270.0
  0
ARC
  5
26F0
  8
AM_0
 10
124.8874708305558
 20
240.7806402335041
 30
0.0
 40
0.3000000000000043
 50
270.0
 51
0.0
  0
LINE
  5
26F1
  8
AM_0
 10
123.6874708305557
 20
242.89380725299611
 30
0.0
 11
124.90742653371279
 21
242.81247687278511
 31
0.0
  0
LINE
  5
26F2
  8
AM_0
 10
123.6874708305557
 20
241.73755521715611
 30
0.0
 11
124.8874708305558
 21
241.73755521715611
 31
0.0
  0
LINE
  5
26F3
  8
AM_0
 10
125.1874708305557
 20
242.49380725299599
 30
0.0
 11
123.6874708305557
 21
242.49380725299599
 31
0.0
  0
ARC
  5
26F4
  8
AM_0
 10
125.1874708305557
 20
241.99380725299599
 30
0.0
 40
0.5
 50
0.0
 51
90.0
  0
LINE
  5
26F5
  8
AM_0
 10
125.1874708305557
 20
242.51314132542799
 30
0.0
 11
125.1874708305557
 21
242.49380725299599
 31
0.0
  0
LINE
  5
26F6
  8
AM_0
 10
125.1874708305557
 20
242.793807252996
 30
0.0
 11
125.1874708305557
 21
242.51314132542799
 31
0.0
  0
LINE
  5
26F7
  8
AM_0
 10
124.90742653371279
 20
242.81247687278511
 30
0.0
 11
125.1874708305557
 21
242.793807252996
 31
0.0
  0
ARC
  5
26F8
  8
AM_0
 10
124.8874708305558
 20
242.51314132542799
 30
0.0
 40
0.3000000000000007
 50
0.0
 51
86.185925165718274
  0
LINE
  5
26F9
  8
AM_0
 10
126.2594094984766
 20
241.34380725299599
 30
0.0
 11
126.3361419269027
 21
241.34380725299599
 31
0.0
  0
LINE
  5
26FA
  8
AM_0
 10
126.3361419269027
 20
241.34380725299599
 30
0.0
 11
126.35600199301579
 21
241.26968948625949
 31
0.0
  0
LINE
  5
26FB
  8
AM_0
 10
125.76724649101359
 20
241.26968948625949
 30
0.0
 11
125.7871065571277
 21
241.34380725299599
 31
0.0
  0
LINE
  5
26FC
  8
AM_0
 10
125.7871065571277
 20
241.34380725299599
 30
0.0
 11
125.8638389855526
 21
241.34380725299599
 31
0.0
  0
LINE
  5
26FD
  8
AM_0
 10
126.35600199301579
 20
241.26968948625949
 30
0.0
 11
126.5172464910134
 21
240.66792501973251
 31
0.0
  0
LINE
  5
26FE
  8
AM_0
 10
125.8638389855526
 20
241.34380725299599
 30
0.0
 11
126.2594094984766
 21
241.34380725299599
 31
0.0
  0
LINE
  5
26FF
  8
AM_0
 10
125.68747083055661
 20
240.97196672143511
 30
0.0
 11
125.76724649101359
 21
241.26968948625949
 31
0.0
  0
ARC
  5
2700
  8
AM_0
 10
126.2594094984769
 20
241.24380725299599
 30
0.0
 40
0.0999999999999866
 50
15.00019500657341
 51
90.0
  0
ARC
  5
2701
  8
AM_0
 10
125.8638389855529
 20
241.24380725299599
 30
0.0
 40
0.1000000000000014
 50
90.0
 51
164.99980499342661
  0
LINE
  5
2702
  8
AM_0
 10
125.1874708305557
 20
241.4375552171559
 30
0.0
 11
125.1874708305557
 21
240.7806402335041
 31
0.0
  0
ARC
  5
2703
  8
AM_0
 10
124.8874708305558
 20
241.4375552171559
 30
0.0
 40
0.3000000000000007
 50
0.0
 51
90.0
  0
LINE
  5
2704
  8
AM_0
 10
123.6874708305557
 20
237.93897800528819
 30
0.0
 11
124.8874708305558
 21
237.93897800528819
 31
0.0
  0
LINE
  5
2705
  8
AM_0
 10
124.8874708305558
 20
240.48064023350409
 30
0.0
 11
123.6874708305557
 21
240.48064023350409
 31
0.0
  0
LINE
  5
2706
  8
AM_0
 10
126.5371065571277
 20
240.5938072529961
 30
0.0
 11
126.6138389855526
 21
240.5938072529961
 31
0.0
  0
ARC
  5
2707
  8
AM_0
 10
124.8874708305558
 20
237.63897800528801
 30
0.0
 40
0.3000000000000007
 50
0.0
 51
90.0
  0
LINE
  5
2708
  8
AM_0
 10
124.8874708305558
 20
236.1667348188551
 30
0.0
 11
123.6874708305557
 21
236.1667348188551
 31
0.0
  0
ARC
  5
2709
  8
AM_0
 10
124.8874708305558
 20
236.466734818855
 30
0.0
 40
0.3000000000000043
 50
270.0
 51
0.0
  0
LINE
  5
270A
  8
AM_0
 10
124.8874708305558
 20
232.49380725299719
 30
0.0
 11
123.6874708305557
 21
232.49380725299719
 31
0.0
  0
ARC
  5
270B
  8
AM_0
 10
124.8874708305558
 20
232.193807252997
 30
0.0
 40
0.3000000000000007
 50
0.0
 51
90.0
  0
LINE
  5
270C
  8
AM_0
 10
114.6874708305557
 20
241.62708708164291
 30
0.0
 11
121.1874708305557
 21
241.62708708164291
 31
0.0
  0
LINE
  5
270D
  8
AM_0
 10
114.6874708305557
 20
242.12708708164291
 30
0.0
 11
121.1874708305557
 21
242.12708708164291
 31
0.0
  0
LINE
  5
270E
  8
AM_0
 10
121.1874708305557
 20
231.99380725299599
 30
0.0
 11
114.6874708305557
 21
231.99380725299599
 31
0.0
  0
LINE
  5
270F
  8
AM_0
 10
114.1874708305557
 20
232.49380725299599
 30
0.0
 11
121.1874708305557
 21
232.49380725299599
 31
0.0
  0
LINE
  5
2710
  8
AM_0
 10
120.8874708305558
 20
242.49380725299599
 30
0.0
 11
114.0495207657378
 21
242.49380725299599
 31
0.0
  0
LINE
  5
2711
  8
AM_0
 10
121.1874708305557
 20
232.84049532153699
 30
0.0
 11
114.6874708305557
 21
232.84049532153699
 31
0.0
  0
LINE
  5
2712
  8
AM_0
 10
121.1874708305557
 20
241.14711918445511
 30
0.0
 11
114.6874708305557
 21
241.14711918445511
 31
0.0
  0
ARC
  5
2713
  8
AM_0
 10
121.48747083055569
 20
243.19380725299609
 30
0.0
 40
0.2999999999999971
 50
90.0
 51
180.0
  0
ARC
  5
2714
  8
AM_0
 10
120.8874708305558
 20
242.793807252996
 30
0.0
 40
0.2999999999999971
 50
270.0
 51
0.0
  0
ARC
  5
2715
  8
AM_0
 10
122.8124708305557
 20
236.99380725299599
 30
0.0
 40
9.124999999999984
 50
152.92493329271929
 51
207.07506670728071
  0
LINE
  5
2716
  8
AM_0
 10
113.40933636607321
 20
242.2620285325936
 30
0.0
 11
111.04728643089121
 21
240.2936535866086
 31
0.0
  0
LINE
  5
2717
  8
AM_0
 10
114.1874708305557
 20
241.9153746694881
 30
0.0
 11
114.6874708305557
 21
242.49380725299599
 31
0.0
  0
ARC
  5
2718
  8
AM_0
 10
114.0495207657378
 20
241.49380725299599
 30
0.0
 40
1.0
 50
90.0
 51
129.805571092256
  0
LINE
  5
2719
  8
AM_0
 10
114.6874708305557
 20
242.12708708164291
 30
0.0
 11
114.1874708305557
 21
241.9153746694881
 31
0.0
  0
LINE
  5
271A
  8
AM_0
 10
114.1874708305557
 20
241.45309939651699
 30
0.0
 11
114.6874708305557
 21
242.12708708164291
 31
0.0
  0
LINE
  5
271B
  8
AM_0
 10
114.6874708305557
 20
241.62708708164291
 30
0.0
 11
114.1874708305557
 21
241.45309939651699
 31
0.0
  0
LINE
  5
271C
  8
AM_0
 10
114.1874708305557
 20
240.9153746694881
 30
0.0
 11
114.6874708305557
 21
241.62708708164291
 31
0.0
  0
LINE
  5
271D
  8
AM_0
 10
114.6874708305557
 20
241.14711918445511
 30
0.0
 11
114.1874708305557
 21
240.9153746694881
 31
0.0
  0
ARC
  5
271E
  8
AM_0
 10
111.6874708305557
 20
239.52543230701099
 30
0.0
 40
1.0000000000000291
 50
129.80557109226521
 51
180.0
  0
LINE
  5
271F
  8
AM_0
 10
114.6874708305557
 20
231.99380725299599
 30
0.0
 11
114.1874708305557
 21
231.49380725299599
 31
0.0
  0
LINE
  5
2720
  8
AM_0
 10
114.1874708305557
 20
232.49380725299599
 30
0.0
 11
114.6874708305557
 21
231.99380725299599
 31
0.0
  0
LINE
  5
2721
  8
AM_0
 10
114.6874708305557
 20
232.84049532153699
 30
0.0
 11
114.1874708305557
 21
232.49380725299599
 31
0.0
  0
LINE
  5
2722
  8
AM_0
 10
121.48747083055569
 20
219.49380725299599
 30
0.0
 11
123.6874708305557
 21
219.49380725299599
 31
0.0
  0
ARC
  5
2723
  8
AM_0
 10
135.5861419269018
 20
218.99380725299599
 30
0.0
 40
0.5
 50
0.0
 51
90.000000000006537
  0
LINE
  5
2724
  8
AM_0
 10
130.5861419269018
 20
222.39380725299611
 30
0.0
 11
127.3638389855526
 21
222.39380725299611
 31
0.0
  0
LINE
  5
2725
  8
AM_0
 10
136.0861419269018
 20
230.34987857440299
 30
0.0
 11
136.0861419269018
 21
220.63773593158791
 31
0.0
  0
LINE
  5
2726
  8
AM_0
 10
131.0861419269018
 20
230.84987857440299
 30
0.0
 11
135.5861419269018
 21
230.84987857440299
 31
0.0
  0
ARC
  5
2727
  8
AM_0
 10
135.5861419269018
 20
230.34987857440299
 30
0.0
 40
0.5
 50
0.0
 51
90.0
  0
LINE
  5
2728
  8
AM_0
 10
131.0861419269018
 20
220.137735931588
 30
0.0
 11
135.5861419269018
 21
220.137735931588
 31
0.0
  0
LINE
  5
2729
  8
AM_0
 10
135.58614192690149
 20
219.49380725299599
 30
0.0
 11
131.5861419269018
 21
219.49380725299599
 31
0.0
  0
ARC
  5
272A
  8
AM_0
 10
135.5861419269018
 20
220.63773593158791
 30
0.0
 40
0.5
 50
270.0
 51
0.0
  0
ARC
  5
272B
  8
AM_0
 10
130.5861419269018
 20
221.89380725299611
 30
0.0
 40
0.5
 50
0.0
 51
90.0
  0
ARC
  5
272C
  8
AM_0
 10
131.5861419269018
 20
219.99380725299599
 30
0.0
 40
0.5
 50
180.0
 51
270.0
  0
ARC
  5
272D
  8
AM_0
 10
124.8874708305558
 20
225.34863650070409
 30
0.0
 40
0.3000000000000114
 50
270.0
 51
0.0
  0
LINE
  5
272E
  8
AM_0
 10
123.6874708305557
 20
230.493807252994
 30
0.0
 11
124.8874708305558
 21
230.493807252994
 31
0.0
  0
ARC
  5
272F
  8
AM_0
 10
124.8874708305558
 20
230.7938072529939
 30
0.0
 40
0.2999999999999971
 50
270.0
 51
0.0
  0
LINE
  5
2730
  8
AM_0
 10
123.6874708305557
 20
226.82087968713699
 30
0.0
 11
124.8874708305558
 21
226.82087968713699
 31
0.0
  0
ARC
  5
2731
  8
AM_0
 10
124.8874708305558
 20
226.52087968713701
 30
0.0
 40
0.3000000000000007
 50
0.0
 51
90.0
  0
LINE
  5
2732
  8
AM_0
 10
125.1874708305557
 20
226.52087968713701
 30
0.0
 11
125.1874708305557
 21
225.34863650070409
 31
0.0
  0
LINE
  5
2733
  8
AM_0
 10
126.6138389855526
 20
221.64380725299611
 30
0.0
 11
127.0094094984766
 21
221.64380725299611
 31
0.0
  0
LINE
  5
2734
  8
AM_0
 10
126.6138389855526
 20
221.64380725299611
 30
0.0
 11
127.0094094984766
 21
221.64380725299611
 31
0.0
  0
LINE
  5
2735
  8
AM_0
 10
127.10600199301579
 20
221.71792501973249
 30
0.0
 11
127.26724649101369
 21
222.3196894862597
 31
0.0
  0
LINE
  5
2736
  8
AM_0
 10
127.10600199301579
 20
221.71792501973249
 30
0.0
 11
127.26724649101369
 21
222.3196894862597
 31
0.0
  0
ARC
  5
2737
  8
AM_0
 10
127.3638389855526
 20
222.293807252996
 30
0.0
 40
0.0999999999999943
 50
90.0
 51
164.99980499348811
  0
ARC
  5
2738
  8
AM_0
 10
127.0094094984766
 20
221.74380725299599
 30
0.0
 40
0.0999999999999943
 50
270.0
 51
344.99980499349448
  0
LINE
  5
2739
  8
AM_0
 10
125.6866242420147
 20
222.01880725299591
 30
0.0
 11
125.76724649101359
 21
222.3196894862597
 31
0.0
  0
LINE
  5
273A
  8
AM_0
 10
126.33885257910769
 20
222.35454271989809
 30
0.0
 11
126.51724649101369
 21
221.71792501973249
 31
0.0
  0
LINE
  5
273B
  8
AM_0
 10
126.35600199301579
 20
222.3196894862597
 30
0.0
 11
126.51724649101369
 21
221.71792501973249
 31
0.0
  0
LINE
  5
273C
  8
AM_0
 10
125.1874708305557
 20
222.20697427248709
 30
0.0
 11
125.1874708305557
 21
221.55005928883611
 31
0.0
  0
LINE
  5
273D
  8
AM_0
 10
125.6874708305557
 20
222.0219667214339
 30
0.0
 11
125.76724649101359
 21
222.3196894862597
 31
0.0
  0
LINE
  5
273E
  8
AM_0
 10
123.6874708305557
 20
222.50697427248701
 30
0.0
 11
124.8874708305558
 21
222.50697427248701
 31
0.0
  0
LINE
  5
273F
  8
AM_0
 10
124.8874708305558
 20
225.04863650070411
 30
0.0
 11
123.6874708305557
 21
225.048636500703
 31
0.0
  0
LINE
  5
2740
  8
AM_0
 10
126.2920417639917
 20
222.39380725299611
 30
0.0
 11
126.33885257910769
 21
222.35454271989809
 31
0.0
  0
LINE
  5
2741
  8
AM_0
 10
125.8638389855526
 20
222.39380725299611
 30
0.0
 11
126.2920417639917
 21
222.39380725299611
 31
0.0
  0
LINE
  5
2742
  8
AM_0
 10
125.8638389855526
 20
222.39380725299611
 30
0.0
 11
126.2594094984766
 21
222.39380725299611
 31
0.0
  0
ARC
  5
2743
  8
AM_0
 10
125.8638389855526
 20
222.293807252996
 30
0.0
 40
0.0999999999999943
 50
90.0
 51
164.99980499348811
  0
ARC
  5
2744
  8
AM_0
 10
126.2594094984766
 20
222.293807252996
 30
0.0
 40
0.0999999999999608
 50
15.00019500651173
 51
90.0
  0
ARC
  5
2745
  8
AM_0
 10
124.8874708305558
 20
222.20697427248709
 30
0.0
 40
0.3000000000000007
 50
0.0
 51
90.0
  0
LINE
  5
2746
  8
AM_0
 10
123.6874708305557
 20
220.49380725299599
 30
0.0
 11
125.1874708305557
 21
220.49380725299599
 31
0.0
  0
LINE
  5
2747
  8
AM_0
 10
124.8874708305558
 20
221.2500592888361
 30
0.0
 11
123.6874708305557
 21
221.2500592888361
 31
0.0
  0
LINE
  5
2748
  8
AM_0
 10
124.90742653371279
 20
220.17513763320611
 30
0.0
 11
123.6874708305557
 21
220.0938072529961
 31
0.0
  0
ARC
  5
2749
  8
AM_0
 10
125.1874708305557
 20
220.99380725299599
 30
0.0
 40
0.5
 50
270.0
 51
0.0
  0
ARC
  5
274A
  8
AM_0
 10
126.6138389855526
 20
221.74380725299599
 30
0.0
 40
0.0999999999999606
 50
195.00019500650541
 51
270.0
  0
ARC
  5
274B
  8
AM_0
 10
124.8874708305558
 20
221.55005928883611
 30
0.0
 40
0.2999999999999971
 50
270.0
 51
0.0
  0
LINE
  5
274C
  8
AM_0
 10
125.1874708305557
 20
220.49380725299599
 30
0.0
 11
125.1874708305557
 21
220.47447318056311
 31
0.0
  0
ARC
  5
274D
  8
AM_0
 10
124.8874708305558
 20
220.47447318056311
 30
0.0
 40
0.3000000000000043
 50
273.81407483428171
 51
0.0
  0
ARC
  5
274E
  8
AM_0
 10
136.5861419269018
 20
218.49380725299599
 30
0.0
 40
0.5
 50
180.0
 51
270.0
  0
LINE
  5
274F
  8
AM_0
 10
136.0861419269018
 20
218.49380725299599
 30
0.0
 11
136.0861419269018
 21
218.99380725299599
 31
0.0
  0
LINE
  5
2750
  8
AM_0
 10
114.6874708305557
 20
221.84049532153699
 30
0.0
 11
121.1874708305557
 21
221.84049532153699
 31
0.0
  0
LINE
  5
2751
  8
AM_0
 10
114.6874708305557
 20
230.14711918445511
 30
0.0
 11
121.1874708305557
 21
230.14711918445511
 31
0.0
  0
LINE
  5
2752
  8
AM_0
 10
114.0495207657378
 20
220.49380725299599
 30
0.0
 11
120.8874708305558
 21
220.49380725299599
 31
0.0
  0
LINE
  5
2753
  8
AM_0
 10
121.1874708305557
 20
230.49380725299599
 30
0.0
 11
114.1874708305557
 21
230.49380725299599
 31
0.0
  0
LINE
  5
2754
  8
AM_0
 10
114.6874708305557
 20
230.99380725299599
 30
0.0
 11
121.1874708305557
 21
230.99380725299599
 31
0.0
  0
LINE
  5
2755
  8
AM_0
 10
121.1874708305557
 20
220.86052742434799
 30
0.0
 11
114.6874708305557
 21
220.86052742434799
 31
0.0
  0
LINE
  5
2756
  8
AM_0
 10
121.1874708305557
 20
221.36052742434799
 30
0.0
 11
114.6874708305557
 21
221.36052742434799
 31
0.0
  0
ARC
  5
2757
  8
AM_0
 10
120.8874708305558
 20
220.19380725299609
 30
0.0
 40
0.3000000000000043
 50
0.0
 51
90.0
  0
ARC
  5
2758
  8
AM_0
 10
121.48747083055569
 20
219.793807252996
 30
0.0
 40
0.2999999999999971
 50
180.0
 51
270.0
  0
ARC
  5
2759
  8
AM_0
 10
122.8124708305557
 20
225.99380725299599
 30
0.0
 40
9.124999999999984
 50
152.92493329271929
 51
207.07506670728071
  0
LINE
  5
275A
  8
AM_0
 10
114.1874708305557
 20
230.49380725299599
 30
0.0
 11
114.6874708305557
 21
230.14711918445511
 31
0.0
  0
LINE
  5
275B
  8
AM_0
 10
114.6874708305557
 20
230.99380725299599
 30
0.0
 11
114.1874708305557
 21
230.49380725299599
 31
0.0
  0
LINE
  5
275C
  8
AM_0
 10
111.04728643089121
 20
222.69396091938259
 30
0.0
 11
113.40933636607321
 21
220.72558597339869
 31
0.0
  0
LINE
  5
275D
  8
AM_0
 10
114.6874708305557
 20
220.49380725299599
 30
0.0
 11
114.1874708305557
 21
221.07223983650309
 31
0.0
  0
ARC
  5
275E
  8
AM_0
 10
114.0495207657378
 20
221.49380725299599
 30
0.0
 40
1.0000000000000411
 50
230.19442890774391
 51
270.0
  0
LINE
  5
275F
  8
AM_0
 10
114.1874708305557
 20
222.07223983650309
 30
0.0
 11
114.6874708305557
 21
221.84049532153699
 31
0.0
  0
LINE
  5
2760
  8
AM_0
 10
114.6874708305557
 20
221.36052742434799
 30
0.0
 11
114.1874708305557
 21
222.07223983650309
 31
0.0
  0
LINE
  5
2761
  8
AM_0
 10
114.1874708305557
 20
221.534515109475
 30
0.0
 11
114.6874708305557
 21
221.36052742434799
 31
0.0
  0
LINE
  5
2762
  8
AM_0
 10
114.6874708305557
 20
220.86052742434799
 30
0.0
 11
114.1874708305557
 21
221.534515109475
 31
0.0
  0
LINE
  5
2763
  8
AM_0
 10
114.1874708305557
 20
221.07223983650309
 30
0.0
 11
114.6874708305557
 21
220.86052742434799
 31
0.0
  0
ARC
  5
2764
  8
AM_0
 10
111.6874708305557
 20
223.46218219897989
 30
0.0
 40
1.0
 50
180.0
 51
230.19442890773479
  0
CIRCLE
  5
2765
  8
AM_0
 10
145.08614192690001
 20
272.49380725299562
 30
0.0
 40
4.0
  0
LINE
  5
2766
  8
AM_0
 10
144.77464192689999
 20
270.2149988472712
 30
0.0
 11
145.39764192690001
 21
270.2149988472712
 31
0.0
  0
LINE
  5
2767
  8
AM_0
 10
144.77464192689999
 20
274.7726156587201
 30
0.0
 11
145.39764192690001
 21
274.7726156587201
 31
0.0
  0
LINE
  5
2768
  8
AM_0
 10
144.77464192689999
 20
270.2149988472712
 30
0.0
 11
144.77464192689999
 21
272.18230725299583
 31
0.0
  0
LINE
  5
2769
  8
AM_0
 10
144.77464192689999
 20
272.80530725299559
 30
0.0
 11
144.77464192689999
 21
274.7726156587201
 31
0.0
  0
LINE
  5
276A
  8
AM_0
 10
144.77464192689999
 20
272.80530725299559
 30
0.0
 11
142.80733352117579
 21
272.80530725299559
 31
0.0
  0
LINE
  5
276B
  8
AM_0
 10
144.77464192689999
 20
272.18230725299583
 30
0.0
 11
142.80733352117579
 21
272.18230725299583
 31
0.0
  0
LINE
  5
276C
  8
AM_0
 10
142.80733352117579
 20
272.80530725299559
 30
0.0
 11
142.80733352117579
 21
272.18230725299583
 31
0.0
  0
LINE
  5
276D
  8
AM_0
 10
145.39764192690001
 20
270.2149988472712
 30
0.0
 11
145.39764192690001
 21
272.18230725299583
 31
0.0
  0
LINE
  5
276E
  8
AM_0
 10
145.39764192690001
 20
272.80530725299559
 30
0.0
 11
145.39764192690001
 21
274.7726156587201
 31
0.0
  0
LINE
  5
276F
  8
AM_0
 10
147.3649503326244
 20
272.18230725299583
 30
0.0
 11
145.39764192690001
 21
272.18230725299583
 31
0.0
  0
LINE
  5
2770
  8
AM_0
 10
147.3649503326244
 20
272.80530725299559
 30
0.0
 11
145.39764192690001
 21
272.80530725299559
 31
0.0
  0
LINE
  5
2771
  8
AM_0
 10
147.3649503326244
 20
272.80530725299559
 30
0.0
 11
147.3649503326244
 21
272.18230725299583
 31
0.0
  0
CIRCLE
  5
2772
  8
AM_0
 10
231.08614192690371
 20
272.49380725299562
 30
0.0
 40
4.0
  0
LINE
  5
2773
  8
AM_0
 10
230.77464192690371
 20
270.2149988472712
 30
0.0
 11
231.3976419269037
 21
270.2149988472712
 31
0.0
  0
LINE
  5
2774
  8
AM_0
 10
230.77464192690371
 20
274.7726156587201
 30
0.0
 11
231.3976419269037
 21
274.7726156587201
 31
0.0
  0
LINE
  5
2775
  8
AM_0
 10
230.77464192690371
 20
270.2149988472712
 30
0.0
 11
230.77464192690371
 21
272.18230725299537
 31
0.0
  0
LINE
  5
2776
  8
AM_0
 10
230.77464192690371
 20
272.80530725299559
 30
0.0
 11
230.77464192690371
 21
274.7726156587201
 31
0.0
  0
LINE
  5
2777
  8
AM_0
 10
230.77464192690371
 20
272.80530725299559
 30
0.0
 11
228.8073335211792
 21
272.80530725299559
 31
0.0
  0
LINE
  5
2778
  8
AM_0
 10
230.77464192690371
 20
272.18230725299537
 30
0.0
 11
228.8073335211792
 21
272.18230725299537
 31
0.0
  0
LINE
  5
2779
  8
AM_0
 10
228.8073335211792
 20
272.80530725299559
 30
0.0
 11
228.8073335211792
 21
272.18230725299537
 31
0.0
  0
LINE
  5
277A
  8
AM_0
 10
231.3976419269037
 20
270.2149988472712
 30
0.0
 11
231.3976419269037
 21
272.18230725299537
 31
0.0
  0
LINE
  5
277B
  8
AM_0
 10
231.3976419269037
 20
272.80530725299559
 30
0.0
 11
231.3976419269037
 21
274.7726156587201
 31
0.0
  0
LINE
  5
277C
  8
AM_0
 10
233.3649503326279
 20
272.18230725299537
 30
0.0
 11
231.3976419269037
 21
272.18230725299537
 31
0.0
  0
LINE
  5
277D
  8
AM_0
 10
233.3649503326279
 20
272.80530725299559
 30
0.0
 11
231.3976419269037
 21
272.80530725299559
 31
0.0
  0
LINE
  5
277E
  8
AM_0
 10
233.3649503326279
 20
272.80530725299559
 30
0.0
 11
233.3649503326279
 21
272.18230725299537
 31
0.0
  0
LINE
  5
277F
  8
AM_0
 10
158.62167583283471
 20
276.0293411589289
 30
0.0
 11
141.55060802096901
 21
258.9582733470636
 31
0.0
  0
LINE
  5
2780
  8
AM_0
 10
159.27853008232691
 20
271.02934115892867
 30
0.0
 11
146.55060802096881
 21
258.30141909757089
 31
0.0
  0
ARC
  5
2781
  8
AM_0
 10
150.0861419269018
 20
254.76588519163809
 30
0.0
 40
5.0
 50
135.0
 51
180.0
1001
GENIUS_GENOBJ-N-FIL_13
1002
{
1000
OWNER
1000
GEN
1002
}
1001
GENIUS_GENODEF_13
1002
{
1000
HIER
1070
     0
1002
}
1002
{
1000
MANEDIT
1070
     0
1002
}
1002
{
1000
NOSEL
1070
     0
1002
}
1002
{
1000
BEHIND
1070
     0
1002
}
1002
{
1000
OTHER
1070
     0
1002
}
1002
{
1000
REACTOR
1002
}
  0
LINE
  5
2782
  8
AM_0
 10
217.55060802096901
 20
186.95827334706311
 30
0.0
 11
234.62167583283451
 21
204.0293411589285
 31
0.0
  0
ARC
  5
2783
  8
AM_0
 10
214.0150741150363
 20
190.49380725299571
 30
0.0
 40
5.0
 50
270.0
 51
315.0
1001
GENIUS_GENODEF_13
1002
{
1000
HIER
1070
     0
1002
}
1002
{
1000
MANEDIT
1070
     0
1002
}
1002
{
1000
NOSEL
1070
     0
1002
}
1002
{
1000
BEHIND
1070
     0
1002
}
1002
{
1000
OTHER
1070
     0
1002
}
1002
{
1000
REACTOR
1002
}
1001
GENIUS_GENOBJ-N-FIL_13
1002
{
1000
OWNER
1000
GEN
1002
}
  0
LINE
  5
2784
  8
AM_0
 10
216.89375377147681
 20
191.95827334706311
 30
0.0
 11
229.62167583283451
 21
204.6861954084209
 31
0.0
  0
ARC
  5
2785
  8
AM_0
 10
226.08614192690189
 20
208.2217293143535
 30
0.0
 40
5.0
 50
315.0
 51
0.0
1001
GENIUS_GENOBJ-N-FIL_13
1002
{
1000
OWNER
1000
GEN
1002
}
1001
GENIUS_GENODEF_13
1002
{
1000
HIER
1070
     0
1002
}
1002
{
1000
MANEDIT
1070
     0
1002
}
1002
{
1000
NOSEL
1070
     0
1002
}
1002
{
1000
BEHIND
1070
     0
1002
}
1002
{
1000
OTHER
1070
     0
1002
}
1002
{
1000
REACTOR
1002
}
  0
LINE
  5
2786
  8
AM_0
 10
158.62167583283451
 20
186.95827334706311
 30
0.0
 11
141.55060802096901
 21
204.0293411589285
 31
0.0
  0
LINE
  5
2787
  8
AM_0
 10
159.27853008232671
 20
191.95827334706311
 30
0.0
 11
146.55060802096881
 21
204.6861954084209
 31
0.0
  0
ARC
  5
2788
  8
AM_0
 10
162.81406398825959
 20
195.49380725299571
 30
0.0
 40
5.0
 50
225.0
 51
270.0
1001
GENIUS_GENOBJ-N-FIL_13
1002
{
1000
OWNER
1000
GEN
1002
}
1001
GENIUS_GENODEF_13
1002
{
1000
HIER
1070
     0
1002
}
1002
{
1000
MANEDIT
1070
     0
1002
}
1002
{
1000
NOSEL
1070
     0
1002
}
1002
{
1000
BEHIND
1070
     0
1002
}
1002
{
1000
OTHER
1070
     0
1002
}
1002
{
1000
REACTOR
1002
}
  0
CIRCLE
  5
2789
  8
AM_0
 10
145.08614192690001
 20
190.49380725299611
 30
0.0
 40
4.0
  0
LINE
  5
278A
  8
AM_0
 10
144.77464192689999
 20
192.7726156587207
 30
0.0
 11
145.39764192690001
 21
192.7726156587207
 31
0.0
  0
LINE
  5
278B
  8
AM_0
 10
144.77464192689999
 20
188.214998847272
 30
0.0
 11
145.39764192690001
 21
188.214998847272
 31
0.0
  0
LINE
  5
278C
  8
AM_0
 10
144.77464192689999
 20
192.7726156587207
 30
0.0
 11
144.77464192689999
 21
190.8053072529961
 31
0.0
  0
LINE
  5
278D
  8
AM_0
 10
144.77464192689999
 20
190.18230725299611
 30
0.0
 11
144.77464192689999
 21
188.214998847272
 31
0.0
  0
LINE
  5
278E
  8
AM_0
 10
144.77464192689999
 20
190.18230725299611
 30
0.0
 11
142.80733352117551
 21
190.18230725299611
 31
0.0
  0
LINE
  5
278F
  8
AM_0
 10
144.77464192689999
 20
190.8053072529961
 30
0.0
 11
142.80733352117551
 21
190.8053072529961
 31
0.0
  0
LINE
  5
2790
  8
AM_0
 10
142.80733352117551
 20
190.18230725299611
 30
0.0
 11
142.80733352117551
 21
190.8053072529961
 31
0.0
  0
LINE
  5
2791
  8
AM_0
 10
145.39764192690001
 20
192.7726156587207
 30
0.0
 11
145.39764192690001
 21
190.8053072529961
 31
0.0
  0
LINE
  5
2792
  8
AM_0
 10
145.39764192690001
 20
190.18230725299611
 30
0.0
 11
145.39764192690001
 21
188.214998847272
 31
0.0
  0
LINE
  5
2793
  8
AM_0
 10
147.36495033262429
 20
190.8053072529961
 30
0.0
 11
145.39764192690001
 21
190.8053072529961
 31
0.0
  0
LINE
  5
2794
  8
AM_0
 10
147.36495033262429
 20
190.18230725299611
 30
0.0
 11
145.39764192690001
 21
190.18230725299611
 31
0.0
  0
LINE
  5
2795
  8
AM_0
 10
147.36495033262429
 20
190.18230725299611
 30
0.0
 11
147.36495033262429
 21
190.8053072529961
 31
0.0
  0
CIRCLE
  5
2796
  8
AM_0
 10
231.08614192690351
 20
190.49380725299599
 30
0.0
 40
4.0
  0
LINE
  5
2797
  8
AM_0
 10
230.7746419269034
 20
192.7726156587205
 30
0.0
 11
231.3976419269035
 21
192.7726156587205
 31
0.0
  0
LINE
  5
2798
  8
AM_0
 10
230.7746419269034
 20
188.21499884727169
 30
0.0
 11
231.3976419269035
 21
188.21499884727169
 31
0.0
  0
LINE
  5
2799
  8
AM_0
 10
230.7746419269034
 20
192.7726156587205
 30
0.0
 11
230.7746419269034
 21
190.8053072529959
 31
0.0
  0
LINE
  5
279A
  8
AM_0
 10
230.7746419269034
 20
190.182307252996
 30
0.0
 11
230.7746419269034
 21
188.21499884727169
 31
0.0
  0
LINE
  5
279B
  8
AM_0
 10
230.7746419269034
 20
190.182307252996
 30
0.0
 11
228.8073335211792
 21
190.182307252996
 31
0.0
  0
LINE
  5
279C
  8
AM_0
 10
230.7746419269034
 20
190.8053072529959
 30
0.0
 11
228.8073335211792
 21
190.8053072529959
 31
0.0
  0
LINE
  5
279D
  8
AM_0
 10
228.8073335211792
 20
190.182307252996
 30
0.0
 11
228.8073335211792
 21
190.8053072529959
 31
0.0
  0
LINE
  5
279E
  8
AM_0
 10
231.3976419269035
 20
192.7726156587205
 30
0.0
 11
231.3976419269035
 21
190.8053072529959
 31
0.0
  0
LINE
  5
279F
  8
AM_0
 10
231.3976419269035
 20
190.182307252996
 30
0.0
 11
231.3976419269035
 21
188.21499884727169
 31
0.0
  0
LINE
  5
27A0
  8
AM_0
 10
233.3649503326279
 20
190.8053072529959
 30
0.0
 11
231.3976419269035
 21
190.8053072529959
 31
0.0
  0
LINE
  5
27A1
  8
AM_0
 10
233.3649503326279
 20
190.182307252996
 30
0.0
 11
231.3976419269035
 21
190.182307252996
 31
0.0
  0
LINE
  5
27A2
  8
AM_0
 10
233.3649503326279
 20
190.182307252996
 30
0.0
 11
233.3649503326279
 21
190.8053072529959
 31
0.0
  0
LINE
  5
27A3
  8
AM_0
 10
140.0861419269018
 20
200.49380725299599
 30
0.0
 11
139.0861419269018
 21
200.49380725299599
 31
0.0
  0
LINE
  5
27A4
  8
AM_0
 10
140.0861419269018
 20
262.49380725299602
 30
0.0
 11
139.0861419269018
 21
262.49380725299602
 31
0.0
  0
LINE
  5
27A5
  8
AM_0
 10
139.0861419269018
 20
200.49380725299599
 30
0.0
 11
139.0861419269018
 21
262.49380725299602
 31
0.0
  0
LINE
  5
27EA
  8
ﾁｭｳｼﾝｾﾝ1
 10
145.08614192689981
 20
266.49380725299562
 30
0.0
 11
145.0861419269003
 21
278.49380725299562
 31
0.0
  0
LINE
  5
27EB
  8
ﾁｭｳｼﾝｾﾝ1
 10
151.08614192690001
 20
272.49380725299528
 30
0.0
 11
139.08614192690001
 21
272.49380725299602
 31
0.0
  0
LINE
  5
27EC
  8
ﾁｭｳｼﾝｾﾝ1
 10
145.08614192689959
 20
184.49380725299611
 30
0.0
 11
145.0861419269003
 21
196.49380725299611
 31
0.0
  0
LINE
  5
27ED
  8
ﾁｭｳｼﾝｾﾝ1
 10
151.08614192690001
 20
190.49380725299599
 30
0.0
 11
139.08614192690001
 21
190.4938072529967
 31
0.0
  0
LINE
  5
27EE
  8
ﾁｭｳｼﾝｾﾝ1
 10
231.0861419269032
 20
184.49380725299599
 30
0.0
 11
231.08614192690371
 21
196.49380725299599
 31
0.0
  0
LINE
  5
27EF
  8
ﾁｭｳｼﾝｾﾝ1
 10
237.08614192690359
 20
190.49380725299571
 30
0.0
 11
225.08614192690351
 21
190.49380725299639
 31
0.0
  0
CIRCLE
  5
4054
  8
AM_0
 10
645.29278784026326
 20
254.6938407529957
 30
0.0
 40
33.499999999999893
  0
CIRCLE
  5
4055
  8
AM_0
 10
645.29278784026326
 20
254.6938407529957
 30
0.0
 40
28.49999999999994
  0
LINE
  5
587A
  8
AM_0
 10
370.58605192690169
 20
288.19384075299581
 30
0.0
 11
375.58605192690152
 21
283.19384075299592
 31
0.0
  0
LINE
  5
587D
  8
AM_0
 10
375.58605192690152
 20
283.19384075299592
 30
0.0
 11
375.58605192690169
 21
226.1938407529959
 31
0.0
  0
LINE
  5
587F
  8
AM_0
 10
370.58605192690169
 20
221.19384075299581
 30
0.0
 11
375.58605192690158
 21
226.1938407529959
 31
0.0
  0
LINE
  5
5950
  8
AM_0
 10
530.29278784026314
 20
185.4919903254083
 30
0.0
 11
554.80236893036431
 21
186.347883756995
 31
0.0
  0
LINE
  5
5953
  8
AM_0
 10
552.79277384026307
 20
276.70627350073488
 30
0.0
 11
530.29278784026314
 21
277.49199032540838
 31
0.0
  0
LINE
  5
5955
  8
AM_0
 10
530.29278784026314
 20
277.49199032540838
 30
0.0
 11
530.29278784026314
 21
185.4919903254081
 31
0.0
  0
LINE
  5
5956
  8
ﾁｭｳｼﾝｾﾝ1
 10
519.29278784026314
 20
190.49199032540901
 30
0.0
 11
535.12031085279978
 21
190.49199032540881
 31
0.0
  0
LINE
  5
5957
  8
AM_0
 10
526.29278784026314
 20
277.49199032540838
 30
0.0
 11
526.29278784026314
 21
256.67748542587589
 31
0.0
  0
LINE
  5
5958
  8
AM_0
 10
526.29278784026314
 20
206.3064952249407
 30
0.0
 11
526.29278784026314
 21
185.49199032540909
 31
0.0
  0
LINE
  5
5959
  8
AM_0
 10
522.29278784026314
 20
271.35620865624782
 30
0.0
 11
522.29278784026314
 21
191.6277719945688
 31
0.0
  0
LINE
  5
595A
  8
AM_0
 10
524.23385032813508
 20
194.3993452977154
 30
0.0
 11
525.29278784026314
 21
194.49199032540881
 31
0.0
  0
LINE
  5
595B
  8
AM_0
 10
524.23385032813508
 20
186.5846353531025
 30
0.0
 11
525.29278784026314
 21
186.49199032540881
 31
0.0
  0
ARC
  5
595C
  8
AM_0
 10
528.69278784026324
 20
190.49199032540881
 30
0.0
 40
6.5
 50
151.82726586813479
 51
208.1727341318651
  0
ARC
  5
595D
  8
AM_0
 10
524.37329951653146
 20
188.1785468700491
 30
0.0
 40
1.6000000000000001
 50
208.1727341318651
 51
265.00000000000028
  0
LINE
  5
595E
  8
AM_0
 10
522.6133141788348
 20
192.79199032540879
 30
0.0
 11
524.90287385763031
 21
190.49199032540881
 31
0.0
  0
LINE
  5
595F
  8
AM_0
 10
524.5927878402631
 20
190.8034903254088
 30
0.0
 11
524.5927878402631
 21
190.18049032540881
 31
0.0
  0
LINE
  5
5960
  8
AM_0
 10
522.6133141788348
 20
188.1919903254088
 30
0.0
 11
524.90287385763031
 21
190.49199032540881
 31
0.0
  0
LINE
  5
5961
  8
AM_0
 10
522.20025614992846
 20
190.8034903254088
 30
0.0
 11
524.5927878402631
 21
190.8034903254088
 31
0.0
  0
LINE
  5
5962
  8
AM_0
 10
522.20025614992846
 20
190.18049032540881
 30
0.0
 11
524.5927878402631
 21
190.18049032540881
 31
0.0
  0
ARC
  5
5963
  8
AM_0
 10
524.37329951653146
 20
192.8054337807686
 30
0.0
 40
1.6000000000000001
 50
94.99999999999973
 51
151.82726586813479
  0
LINE
  5
5964
  8
AM_0
 10
526.29278784026314
 20
277.49199032540838
 30
0.0
 11
530.29278784026314
 21
277.49199032540838
 31
0.0
  0
LINE
  5
5965
  8
AM_0
 10
525.29278784026292
 20
276.49199032540821
 30
0.0
 11
526.29278784026314
 21
277.49199032540838
 31
0.0
  0
LINE
  5
5966
  8
AM_0
 10
530.29278784026314
 20
185.4919903254081
 30
0.0
 11
526.29278784026314
 21
185.49199032540909
 31
0.0
  0
LINE
  5
5967
  8
AM_0N
 10
526.29278784026314
 20
194.2919903254089
 30
0.0
 11
525.29278784026314
 21
194.2919903254089
 31
0.0
  0
LINE
  5
5968
  8
AM_0N
 10
525.29278784026314
 20
190.6919903254088
 30
0.0
 11
526.29278784026314
 21
191.0559605596751
 31
0.0
  0
LINE
  5
5969
  8
AM_0N
 10
525.29278784026314
 20
190.2919903254089
 30
0.0
 11
526.29278784026314
 21
190.65596055967509
 31
0.0
  0
LINE
  5
596A
  8
AM_0N
 10
525.29278784026314
 20
186.49199032540881
 30
0.0
 11
525.29278784026314
 21
194.49199032540881
 31
0.0
  0
LINE
  5
596B
  8
AM_0N
 10
525.29278784026314
 20
186.6919903254088
 30
0.0
 11
526.29278784026314
 21
186.6919903254088
 31
0.0
  0
LINE
  5
596C
  8
AM_0
 10
522.29278784026314
 20
206.30649522494059
 30
0.0
 11
526.29278784026314
 21
206.3064952249407
 31
0.0
  0
LINE
  5
596D
  8
AM_0
 10
526.29278784026314
 20
204.64964097544819
 30
0.0
 11
522.29278784026314
 21
206.30649522494059
 31
0.0
  0
LINE
  5
596E
  8
AM_0
 10
522.29278784026314
 20
256.67748542587589
 30
0.0
 11
526.29278784026314
 21
256.67748542587589
 31
0.0
  0
LINE
  5
596F
  8
AM_0
 10
526.29278784026314
 20
258.33433967536848
 30
0.0
 11
522.29278784026314
 21
256.67748542587589
 31
0.0
  0
LINE
  5
5970
  8
ﾁｭｳｼﾝｾﾝ1
 10
519.29278784026314
 20
272.49199032540758
 30
0.0
 11
535.12031085279978
 21
272.49199032540781
 31
0.0
  0
LINE
  5
5971
  8
AM_0
 10
524.23385032813508
 20
268.58463535310131
 30
0.0
 11
525.29278784026314
 21
268.49199032540781
 31
0.0
  0
LINE
  5
5972
  8
AM_0
 10
524.23385032813508
 20
276.39934529771421
 30
0.0
 11
525.29278784026314
 21
276.49199032540781
 31
0.0
  0
ARC
  5
5973
  8
AM_0
 10
528.69278784026324
 20
272.49199032540781
 30
0.0
 40
6.5
 50
151.82726586813479
 51
208.1727341318651
  0
ARC
  5
5974
  8
AM_0
 10
524.37329951653146
 20
274.80543378076737
 30
0.0
 40
1.6000000000000001
 50
94.99999999999973
 51
151.82726586813479
  0
LINE
  5
5975
  8
AM_0
 10
522.6133141788348
 20
270.19199032540791
 30
0.0
 11
524.90287385763031
 21
272.49199032540781
 31
0.0
  0
LINE
  5
5976
  8
AM_0
 10
524.5927878402631
 20
272.18049032540767
 30
0.0
 11
524.5927878402631
 21
272.80349032540778
 31
0.0
  0
LINE
  5
5977
  8
AM_0
 10
522.6133141788348
 20
274.7919903254076
 30
0.0
 11
524.90287385763031
 21
272.49199032540781
 31
0.0
  0
LINE
  5
5978
  8
AM_0
 10
522.20025614992846
 20
272.18049032540767
 30
0.0
 11
524.5927878402631
 21
272.18049032540767
 31
0.0
  0
LINE
  5
5979
  8
AM_0
 10
522.20025614992846
 20
272.80349032540778
 30
0.0
 11
524.5927878402631
 21
272.80349032540778
 31
0.0
  0
ARC
  5
597A
  8
AM_0
 10
524.37329951653146
 20
270.17854687004808
 30
0.0
 40
1.6000000000000001
 50
208.1727341318651
 51
265.00000000000028
  0
LINE
  5
597B
  8
AM_0N
 10
526.29278784026314
 20
268.69199032540769
 30
0.0
 11
525.29278784026314
 21
268.69199032540769
 31
0.0
  0
LINE
  5
597C
  8
AM_0N
 10
525.29278784026314
 20
272.2919903254076
 30
0.0
 11
526.29278784026314
 21
271.92802009114149
 31
0.0
  0
LINE
  5
597D
  8
AM_0N
 10
525.29278784026314
 20
272.69199032540769
 30
0.0
 11
526.29278784026314
 21
272.32802009114152
 31
0.0
  0
LINE
  5
597E
  8
AM_0N
 10
525.29278784026314
 20
276.49199032540781
 30
0.0
 11
525.29278784026314
 21
268.49199032540781
 31
0.0
  0
LINE
  5
597F
  8
AM_0N
 10
525.29278784026314
 20
276.2919903254076
 30
0.0
 11
526.29278784026314
 21
276.2919903254076
 31
0.0
  0
POINT
  5
6804
  8
AM_0
 10
645.29278784026326
 20
254.69384075299581
 30
0.0
  0
LINE
  5
6805
  8
AM_0
 10
412.58608192690161
 20
271.69384175299581
 30
0.0
 11
412.58608192690161
 21
240.6938577529958
 31
0.0
  0
LINE
  5
6806
  8
AM_0
 10
375.58605192690152
 20
268.69384175299581
 30
0.0
 11
412.58608192690161
 21
268.69384175299581
 31
0.0
  0
LINE
  5
6807
  8
AM_0
 10
370.58608192690173
 20
339.69381875299581
 30
0.0
 11
370.58608192690173
 21
169.69383875299579
 31
0.0
  0
LINE
  5
6808
  8
AM_0
 10
375.58605192690158
 20
240.6938577529958
 30
0.0
 11
412.58608192690161
 21
240.6938577529958
 31
0.0
  0
LINE
  5
6809
  8
ﾁｭｳｼﾝｾﾝ
 10
265.94509192690163
 20
254.69384075299581
 30
0.0
 11
417.53386192690141
 21
254.69384075299581
 31
0.0
  0
LINE
  5
680A
  8
AM_0
 10
380.58607192690152
 20
271.69384175299581
 30
0.0
 11
412.58608192690161
 21
271.69384175299581
 31
0.0
  0
LINE
  5
680B
  8
AM_0
 10
380.58607192690152
 20
271.69384175299581
 30
0.0
 11
380.58607192690152
 21
268.69384175299581
 31
0.0
  0
LINE
  5
680C
  8
AM_0
 10
291.58615192690161
 20
312.49386875299581
 30
0.0
 11
291.58615192690161
 21
150.49384175299579
 31
0.0
  0
LINE
  5
680D
  8
AM_0
 10
248.0860919269015
 20
294.99383075299568
 30
0.0
 11
270.1731719269016
 21
295.76513075299567
 31
0.0
  0
LINE
  5
680E
  8
AM_0
 10
248.0860919269015
 20
167.99385875299581
 30
0.0
 11
270.3129419269016
 21
167.2176747529958
 31
0.0
  0
LINE
  5
680F
  8
ﾁｭｳｼﾝｾﾝ
 10
77.488431392590854
 20
231.49385975299589
 30
0.0
 11
269.75424649626478
 21
231.49385975299589
 31
0.0
  0
LINE
  5
6810
  8
AM_0
 10
291.58609192690147
 20
312.49383875299583
 30
0.0
 11
286.5163319269015
 21
312.31680875299583
 31
0.0
  0
LINE
  5
6811
  8
AM_0
 10
270.72916192690161
 20
167.1739407529958
 30
0.0
 11
272.1070919269016
 21
166.9309767529958
 31
0.0
  0
LINE
  5
6812
  8
AM_0
 10
270.86695192690161
 20
295.83803975299583
 30
0.0
 11
272.1070919269016
 21
296.05669775299577
 31
0.0
  0
LINE
  5
6813
  8
AM_0
 10
279.41158192690159
 20
307.31316875299581
 30
0.0
 11
280.05679192690161
 21
307.33569875299582
 31
0.0
  0
LINE
  5
6814
  8
AM_0
 10
274.58608192690173
 20
302.3161887529958
 30
0.0
 11
274.58608192690173
 21
153.01888175299581
 31
0.0
  0
LINE
  5
6815
  8
AM_0
 10
248.08615192690161
 20
282.99383075299568
 30
0.0
 11
274.58608192690173
 21
282.99383075299568
 31
0.0
  0
LINE
  5
6816
  8
AM_0
 10
248.08615192690161
 20
268.64177975299589
 30
0.0
 11
274.58608192690173
 21
268.64177975299589
 31
0.0
  0
LINE
  5
6817
  8
AM_0
 10
248.08615192690161
 20
194.34592475299581
 30
0.0
 11
274.58608192690173
 21
194.34592475299581
 31
0.0
  0
LINE
  5
6818
  8
AM_0
 10
248.08615192690161
 20
179.99385875299581
 30
0.0
 11
274.58608192690173
 21
179.99385875299581
 31
0.0
  0
LINE
  5
6819
  8
AM_0
 10
284.58607192690158
 20
310.31802875299582
 30
0.0
 11
284.58607192690158
 21
287.82790775299583
 31
0.0
  0
LINE
  5
681A
  8
AM_0
 10
276.58615192690161
 20
264.64306175299578
 30
0.0
 11
282.58615192690161
 21
264.64306175299578
 31
0.0
  0
LINE
  5
681B
  8
AM_0
 10
276.58615192690161
 20
285.82793675299581
 30
0.0
 11
282.58615192690161
 21
285.82793675299581
 31
0.0
  0
LINE
  5
681C
  8
AM_0
 10
275.50156192690162
 20
258.16591775299582
 30
0.0
 11
282.58615192690161
 21
258.16591775299582
 31
0.0
  0
LINE
  5
681D
  8
AM_0
 10
276.58615192690161
 20
169.9498677529958
 30
0.0
 11
282.58615192690161
 21
169.9498677529958
 31
0.0
  0
LINE
  5
681E
  8
AM_0
 10
284.58607192690158
 20
262.6430307529958
 30
0.0
 11
284.58607192690158
 21
171.9498807529958
 31
0.0
  0
LINE
  5
681F
  8
AM_0
 10
248.08615192690161
 20
294.99383075299568
 30
0.0
 11
248.08615192690161
 21
167.99379575299579
 31
0.0
  0
LINE
  5
6820
  8
AM_0
 10
641.29277384026318
 20
271.69384175299581
 30
0.0
 11
649.29277484026295
 21
271.69384175299581
 31
0.0
  0
LINE
  5
6821
  8
AM_0
 10
641.29277384026318
 20
264.69384275299581
 30
0.0
 11
649.29277484026295
 21
264.69384275299581
 31
0.0
  0
LINE
  5
6822
  8
AM_0
 10
649.29277484026295
 20
264.69384275299581
 30
0.0
 11
649.29277484026295
 21
271.69384175299581
 31
0.0
  0
LINE
  5
6823
  8
AM_0
 10
641.29277384026318
 20
264.69384275299581
 30
0.0
 11
641.29277384026318
 21
271.69384175299581
 31
0.0
  0
LINE
  5
6824
  8
AM_0
 10
316.58608192690173
 20
179.40906575299579
 30
0.0
 11
316.58608192690173
 21
191.72907275299571
 31
0.0
  0
LINE
  5
6825
  8
AM_0
 10
316.58608192690173
 20
192.8893827529958
 30
0.0
 11
356.58607192690152
 21
192.8893827529958
 31
0.0
  0
LINE
  5
6826
  8
AM_0
 10
316.58608192690173
 20
178.22606675299579
 30
0.0
 11
356.58607192690152
 21
178.22606675299579
 31
0.0
  0
LINE
  5
6827
  8
AM_0
 10
645.29278784026326
 20
162.19383875299579
 30
0.0
 11
675.29277584026306
 21
162.19383875299579
 31
0.0
  0
LINE
  5
6828
  8
AM_0
 10
645.29278784026326
 20
162.19383875299579
 30
0.0
 11
615.29278784026314
 21
162.19383875299579
 31
0.0
  0
LINE
  5
6829
  8
AM_0
 10
552.79277384026307
 20
284.6938437529958
 30
0.0
 11
555.19829384026298
 21
330.59391875299582
 31
0.0
  0
LINE
  5
682A
  8
AM_0
 10
552.79277384026307
 20
254.69384075299581
 30
0.0
 11
552.79277384026307
 21
284.6938437529958
 31
0.0
  0
LINE
  5
682B
  8
AM_0
 10
355.16086192690159
 20
273.16811675299579
 30
0.0
 11
350.82439192690163
 21
250.0373487529958
 31
0.0
  0
LINE
  5
682C
  8
AM_0
 10
675.29277584026306
 20
347.19384875299568
 30
0.0
 11
721.19286284026305
 21
344.78832875299582
 31
0.0
  0
LINE
  5
682D
  8
AM_0
 10
645.29278784026326
 20
347.19381875299581
 30
0.0
 11
675.29277584026306
 21
347.19381875299581
 31
0.0
  0
LINE
  5
682E
  8
AM_0
 10
615.29277284026296
 20
162.19383875299579
 30
0.0
 11
569.39270084026305
 21
164.59935575299579
 31
0.0
  0
LINE
  5
682F
  8
AM_0
 10
647.79278984026325
 20
315.3135987529958
 30
0.0
 11
647.79278984026325
 21
325.88166875299578
 31
0.0
  0
LINE
  5
6830
  8
AM_0
 10
737.79276884026285
 20
254.69384075299581
 30
0.0
 11
737.79276884026285
 21
224.69384075299581
 31
0.0
  0
LINE
  5
6831
  8
AM_0
 10
737.79277784026306
 20
224.69384075299581
 30
0.0
 11
735.38725784026303
 21
178.7937537529958
 31
0.0
  0
LINE
  5
6832
  8
AM_0
 10
737.79278384026304
 20
284.6938437529958
 30
0.0
 11
735.38725784026303
 21
330.59391875299582
 31
0.0
  0
LINE
  5
6833
  8
AM_0
 10
737.79276884026285
 20
254.69384075299581
 30
0.0
 11
737.79276884026285
 21
284.6938437529958
 31
0.0
  0
LINE
  5
6834
  8
AM_0
 10
552.79274384026326
 20
224.69384075299581
 30
0.0
 11
555.19826384026305
 21
178.7937537529958
 31
0.0
  0
LINE
  5
6835
  8
AM_0
 10
347.5162019269016
 20
296.06496575299582
 30
0.0
 11
347.5162019269016
 21
296.06496575299582
 31
0.0
  0
LINE
  5
6836
  8
AM_0
 10
328.16341192690152
 20
313.77114875299583
 30
0.0
 11
347.5162019269016
 21
296.06496575299582
 31
0.0
  0
LINE
  5
6837
  8
AM_0
 10
358.51630192690158
 20
346.91202875299581
 30
0.0
 11
366.5861219269014
 21
347.19381875299581
 31
0.0
  0
LINE
  5
6838
  8
AM_0
 10
334.34002192690161
 20
149.0008617529958
 30
0.0
 11
356.58607192690152
 21
161.84462675299579
 31
0.0
  0
LINE
  5
6839
  8
AM_0
 10
356.58607192690152
 20
230.78347175299581
 30
0.0
 11
356.58607192690152
 21
305.81904875299603
 31
0.0
  0
LINE
  5
683A
  8
AM_0
 10
291.58609192690147
 20
312.49383875299583
 30
0.0
 11
326.98240192690162
 21
313.72992875299582
 31
0.0
  0
LINE
  5
683B
  8
AM_0
 10
291.58609192690147
 20
150.49384175299579
 30
0.0
 11
334.34002192690161
 21
149.00084675299581
 31
0.0
  0
LINE
  5
683C
  8
AM_0
 10
618.02021984026305
 20
286.2090417529958
 30
0.0
 11
593.13241784026309
 21
311.0968287529958
 31
0.0
  0
LINE
  5
683D
  8
AM_0
 10
613.77757484026313
 20
281.96639375299583
 30
0.0
 11
588.8898028402632
 21
306.8541687529958
 31
0.0
  0
LINE
  5
683E
  8
AM_0
 10
291.58615192690161
 20
277.74383075299579
 30
0.0
 11
353.53141192690163
 21
277.74383075299579
 31
0.0
  0
LINE
  5
683F
  8
AM_0
 10
356.58607192690152
 20
164.95122575299581
 30
0.0
 11
356.58607192690152
 21
200.32318775299581
 31
0.0
  0
LINE
  5
6840
  8
AM_0
 10
328.99903192690158
 20
314.60676875299578
 30
0.0
 11
356.58607192690152
 21
342.19383875299582
 31
0.0
  0
LINE
  5
6841
  8
AM_0
 10
570.42782684026315
 20
226.4938437529957
 30
0.0
 11
601.29278684026315
 21
226.4938437529957
 31
0.0
  0
LINE
  5
6842
  8
AM_0
 10
720.15772184026309
 20
226.4938437529957
 30
0.0
 11
689.29277384026295
 21
226.4938437529957
 31
0.0
  0
LINE
  5
6843
  8
AM_0
 10
358.21510192690153
 20
228.7834857529958
 30
0.0
 11
360.5861219269014
 21
228.7834857529958
 31
0.0
  0
LINE
  5
6844
  8
AM_0
 10
675.29277584026306
 20
162.19383875299579
 30
0.0
 11
721.19286284026305
 21
164.59935575299579
 31
0.0
  0
LINE
  5
6847
  8
AM_0
 10
552.79277384026307
 20
254.69384075299581
 30
0.0
 11
552.79277384026307
 21
224.69384075299581
 31
0.0
  0
LINE
  5
6848
  8
ﾁｭｳｼﾝｾﾝ1
 10
577.76409593156461
 20
187.1651374101674
 30
0.0
 11
560.79352225330365
 21
170.194585591481
 31
0.0
  0
LINE
  5
6849
  8
AM_0
 10
366.5861219269014
 20
162.19383875299579
 30
0.0
 11
366.5861219269014
 21
254.69384075299581
 31
0.0
  0
LINE
  5
684A
  8
AM_0
 10
356.58607192690152
 20
161.84462675299579
 30
0.0
 11
366.5861219269014
 21
162.1938237529958
 31
0.0
  0
LINE
  5
684B
  8
ﾁｭｳｼﾝｾﾝ
 10
598.31230731715323
 20
231.49385975299589
 30
0.0
 11
692.27326836337295
 21
231.49385975299589
 31
0.0
  0
LINE
  5
684C
  8
ﾁｭｳｼﾝｾﾝ
 10
645.29278784026326
 20
145.15910975299579
 30
0.0
 11
645.29278784026326
 21
352.31295870693612
 31
0.0
  0
LINE
  5
684D
  8
ﾁｭｳｼﾝｾﾝ
 10
545.20109316874232
 20
254.69384075299581
 30
0.0
 11
745.38448251178386
 21
254.69384075299581
 31
0.0
  0
LINE
  5
684E
  8
AM_0
 10
642.79277384026307
 20
315.3135987529958
 30
0.0
 11
642.79277384026307
 21
325.88166875299578
 31
0.0
  0
LINE
  5
684F
  8
AM_0
 10
676.80798884026285
 20
281.96639375299583
 30
0.0
 11
701.69577584026308
 21
306.8541687529958
 31
0.0
  0
LINE
  5
6850
  8
AM_0
 10
615.29275784026311
 20
347.19384875299568
 30
0.0
 11
569.39270084026305
 21
344.78832875299582
 31
0.0
  0
LINE
  5
6851
  8
AM_0
 10
606.29275784026288
 20
254.69384075299581
 30
0.0
 11
606.29275784026288
 21
231.49385975299589
 31
0.0
  0
LINE
  5
6852
  8
AM_0
 10
366.5861219269014
 20
339.69381875299581
 30
0.0
 11
370.58608192690173
 21
339.69381875299581
 31
0.0
  0
LINE
  5
6853
  8
AM_0
 10
684.29279084026325
 20
254.69384075299581
 30
0.0
 11
684.29279084026325
 21
231.49385975299589
 31
0.0
  0
LINE
  5
6854
  8
AM_0
 10
672.56534384026315
 20
286.2090417529958
 30
0.0
 11
697.45313084026327
 21
311.0968287529958
 31
0.0
  0
LINE
  5
6856
  8
AM_0
 10
360.5861219269014
 20
184.19382575299571
 30
0.0
 11
360.5861219269014
 21
324.8661087529959
 31
0.0
  0
LINE
  5
6857
  8
AM_0
 10
291.58615192690161
 20
165.38362775299581
 30
0.0
 11
356.58607192690152
 21
165.38362775299581
 31
0.0
  0
LINE
  5
6858
  8
AM_0
 10
645.29278784026326
 20
347.19381875299581
 30
0.0
 11
615.29278784026314
 21
347.19381875299581
 31
0.0
  0
LINE
  5
6859
  8
AM_0
 10
366.5861219269014
 20
169.69383875299579
 30
0.0
 11
370.58608192690173
 21
169.69383875299579
 31
0.0
  0
LINE
  5
685A
  8
AM_0
 10
366.5861219269014
 20
254.69384075299581
 30
0.0
 11
366.5861219269014
 21
347.19381875299581
 31
0.0
  0
LINE
  5
685B
  8
AM_0
 10
356.58607192690152
 20
305.81904875299603
 30
0.0
 11
356.58607192690152
 21
344.91324875299591
 31
0.0
  0
LINE
  5
685C
  8
AM_0
 10
291.58609192690147
 20
150.49385675299581
 30
0.0
 11
276.51631192690149
 21
151.0201017529958
 31
0.0
  0
ARC
  5
6947
  8
AM_0
 10
269.99875192690149
 20
300.76209875299571
 30
0.0
 40
5.0000001000000003
 50
271.9999999999971
 51
279.99999999999852
  0
ARC
  5
6948
  8
AM_0
 10
270.20821192690153
 20
164.21950475299579
 30
0.0
 40
3.0
 50
79.999998000000815
 51
88.000000000002842
  0
ARC
  5
6949
  8
AM_0
 10
271.58608192690173
 20
163.97655275299579
 30
0.0
 40
3.0
 50
0.0
 51
79.999998000000815
  0
ARC
  5
694A
  8
AM_0
 10
279.88228192690161
 20
312.33264875299602
 30
0.0
 40
5.0000001000000003
 50
271.9999999999971
 51
343.27366000000012
  0
ARC
  5
694B
  8
AM_0
 10
286.58608192690173
 20
310.31802875299582
 30
0.0
 40
2.00000007
 50
91.999998000000545
 51
163.27364999999961
  0
ARC
  5
694C
  8
AM_0
 10
271.58608192690173
 20
299.0111637529958
 30
0.0
 40
3.0
 50
279.99999999999852
 51
0.0
  0
ARC
  5
694D
  8
AM_0
 10
279.58615192690161
 20
302.3161887529958
 30
0.0
 40
5.0000001000000003
 50
91.999998000000545
 51
180.00000999999941
  0
ARC
  5
694E
  8
AM_0
 10
282.58615192690161
 20
171.9498807529958
 30
0.0
 40
2.00000007
 50
270.0
 51
0.0
  0
ARC
  5
694F
  8
AM_0
 10
276.58615192690161
 20
167.9498667529958
 30
0.0
 40
2.00000007
 50
90.00000299999769
 51
180.00000999999941
  0
ARC
  5
6950
  8
AM_0
 10
276.58615192690161
 20
266.64305975299578
 30
0.0
 40
2.00000007
 50
179.99999000000059
 51
270.0
  0
ARC
  5
6951
  8
AM_0
 10
276.58615192690161
 20
283.82793575299581
 30
0.0
 40
2.00000007
 50
90.00000299999769
 51
180.00000999999941
  0
ARC
  5
6952
  8
AM_0
 10
282.58615192690161
 20
287.82790775299583
 30
0.0
 40
2.00000007
 50
270.0
 51
0.0
  0
ARC
  5
6953
  8
AM_0
 10
282.58615192690161
 20
262.6430307529958
 30
0.0
 40
2.00000007
 50
0.0
 51
90.00000299999769
  0
ARC
  5
6954
  8
AM_0
 10
282.58615192690161
 20
256.16591675299583
 30
0.0
 40
2.00000007
 50
0.0
 51
90.00000299999769
  0
CIRCLE
  5
6955
  8
AM_5
 10
645.29278784026326
 20
254.69384075299581
 30
0.0
 40
4.0000001999999979
  0
ARC
  5
6956
  8
AM_0
 10
645.29278784026326
 20
254.69384075299581
 30
0.0
 40
14.000001299999999
 50
106.60154000000171
 51
73.398451999998244
  0
CIRCLE
  5
6957
  8
AM_0
 10
645.29278784026326
 20
254.69384075299581
 30
0.0
 40
3.0
  0
ARC
  5
6958
  8
AM_0
 10
316.58773192690171
 20
185.55773075299581
 30
0.0
 40
7.331659199999998
 50
90.00000299999769
 51
270.0
  0
ARC
  5
6959
  8
AM_0
 10
645.29278784026326
 20
231.49385975299589
 30
0.0
 40
76.000001999999981
 50
358.60644999999948
 51
12.760202000001
  0
ARC
  5
695A
  8
AM_0
 10
645.29278784026326
 20
231.49385975299589
 30
0.0
 40
76.000001999999981
 50
167.23980000000071
 51
181.39354000000071
  0
ARC
  5
695B
  8
AM_0
 10
645.29278784026326
 20
254.69384075299581
 30
0.0
 40
74.400002999999998
 50
171.88345000000001
 51
184.9454200000003
  0
ARC
  5
695C
  8
AM_0
 10
570.17776484026308
 20
329.80887875299578
 30
0.0
 40
15.000000299999989
 50
92.999999000001608
 51
176.9999900000002
  0
ARC
  5
695D
  8
AM_0
 10
720.40779584026291
 20
329.80887875299578
 30
0.0
 40
15.000000299999989
 50
3.0000001000004741
 51
86.999998999996933
  0
ARC
  5
695E
  8
AM_0
 10
720.40779584026291
 20
179.57880275299561
 30
0.0
 40
15.000000299999989
 50
272.99999999999909
 51
356.99999999999949
  0
ARC
  5
695F
  8
AM_0
 10
650.79278984026325
 20
315.3135987529958
 30
0.0
 40
3.0
 50
180.00000999999941
 51
266.24579999999759
  0
ARC
  5
6960
  8
AM_0
 10
720.40779584026291
 20
329.80887875299578
 30
0.0
 40
15.000000299999989
 50
3.0000001000004741
 51
86.999998999996933
  0
ARC
  5
6961
  8
AM_0
 10
639.79277384026307
 20
325.88166875299578
 30
0.0
 40
3.0
 50
0.0
 51
94.417918999996871
  0
ARC
  5
6962
  8
AM_0
 10
720.40779584026291
 20
179.57880275299561
 30
0.0
 40
15.000000299999989
 50
272.99999999999909
 51
356.99999999999949
  0
ARC
  5
6963
  8
AM_0
 10
650.79278984026325
 20
325.88166875299578
 30
0.0
 40
3.0
 50
85.582086000002178
 51
180.00000999999941
  0
ARC
  5
6964
  8
AM_0
 10
645.29278784026326
 20
254.69384075299581
 30
0.0
 40
74.400002999999998
 50
355.0545799999997
 51
8.1165494000001388
  0
ARC
  5
6965
  8
AM_0
 10
570.17776484026308
 20
179.57880275299561
 30
0.0
 40
15.000000299999989
 50
183.00000999999969
 51
267.0000000000008
  0
ARC
  5
6966
  8
AM_0
 10
375.23137192690149
 20
245.46161675299581
 30
0.0
 40
24.832211399999998
 50
169.38167999999899
 51
218.7932100000001
  0
ARC
  5
6967
  8
AM_0
 10
645.29278784026326
 20
231.49385975299589
 30
0.0
 40
81.000003000000007
 50
125.47417000000191
 51
155.4112299999997
  0
ARC
  5
6968
  8
AM_0
 10
330.75388192690161
 20
277.74383075299579
 30
0.0
 40
24.832211399999998
 50
349.38167999999899
 51
47.544066000002253
  0
ARC
  5
6969
  8
AM_0
 10
689.29277384026295
 20
231.49385975299589
 30
0.0
 40
5.0000001000000003
 50
179.99999000000059
 51
270.0
  0
ARC
  5
696A
  8
AM_0
 10
359.58607192690152
 20
164.95122575299581
 30
0.0
 40
3.0
 50
179.99999000000059
 51
271.99999000000128
  0
ARC
  5
696B
  8
AM_0
 10
359.58607192690152
 20
200.32318775299581
 30
0.0
 40
3.0
 50
90.00000299999769
 51
180.00000999999941
  0
ARC
  5
696C
  8
AM_0
 10
645.29278784026326
 20
254.69384075299581
 30
0.0
 40
39.000011999999998
 50
0.0
 51
36.786791000002722
  0
ARC
  5
696D
  8
AM_0
 10
357.58612192690151
 20
324.8661087529959
 30
0.0
 40
3.0
 50
0.0
 51
91.999998000000545
  0
ARC
  5
696E
  8
AM_0
 10
357.58612192690151
 20
184.19382575299571
 30
0.0
 40
3.0
 50
270.0
 51
0.0
  0
ARC
  5
696F
  8
AM_0
 10
620.14152884026305
 20
288.33034775299581
 30
0.0
 40
3.0
 50
225.0
 51
306.78678999999988
  0
ARC
  5
6970
  8
AM_0
 10
611.65626884026301
 20
279.84505775299579
 30
0.0
 40
3.0
 50
323.21321000000228
 51
45.000001000002641
  0
ARC
  5
6971
  8
AM_0
 10
645.29278784026326
 20
254.69384075299581
 30
0.0
 40
39.000011999999998
 50
53.213208000001032
 51
126.7867899999999
  0
ARC
  5
6972
  8
AM_0
 10
595.25375684026312
 20
313.21812875299582
 30
0.0
 40
3.0
 50
130.5308599999974
 51
225.0
  0
ARC
  5
6973
  8
AM_0
 10
645.29278784026326
 20
231.49385975299589
 30
0.0
 40
81.000003000000007
 50
58.860945000003653
 51
86.245802999997153
  0
ARC
  5
6974
  8
AM_0
 10
645.29278784026326
 20
254.69384075299581
 30
0.0
 40
39.000011999999998
 50
143.21321000000231
 51
180.00000999999941
  0
ARC
  5
6975
  8
AM_0
 10
601.29278684026315
 20
231.49385975299589
 30
0.0
 40
5.0000001000000003
 50
270.0
 51
0.0
  0
ARC
  5
6976
  8
AM_0
 10
613.96061984026312
 20
151.40454875299579
 30
0.0
 40
5.0000001000000003
 50
68.633797999997029
 51
143.26126000000099
  0
ARC
  5
6977
  8
AM_0
 10
603.54278684026315
 20
159.18071675299581
 30
0.0
 40
8.0000000999999976
 50
156.738740000001
 51
323.26127000000218
  0
ARC
  5
6978
  8
AM_0
 10
687.04275884026299
 20
159.18071675299581
 30
0.0
 40
8.0000000999999976
 50
216.7387399999989
 51
23.2612579999997
  0
ARC
  5
697A
  8
AM_0
 10
645.29278784026326
 20
231.49385975299589
 30
0.0
 40
81.000003000000007
 50
248.6337999999979
 51
270.0
  0
ARC
  5
697B
  8
AM_0
 10
676.62494384026286
 20
151.40454875299579
 30
0.0
 40
5.0000001000000003
 50
36.738736999999908
 51
111.3662099999999
  0
CIRCLE
  5
697C
  8
AM_0
 10
721.30675184026302
 20
330.70782875299568
 30
0.0
 40
6.0000002999999991
  0
CIRCLE
  5
697D
  8
AM_0
 10
569.27880884026308
 20
330.70782875299568
 30
0.0
 40
6.0000002999999991
  0
ARC
  5
697F
  8
AM_0
 10
586.76849384026286
 20
304.7328387529958
 30
0.0
 40
3.0
 50
45.000001000002641
 51
139.46914000000129
  0
ARC
  5
6980
  8
AM_0
 10
570.17776484026308
 20
179.57880275299561
 30
0.0
 40
15.000000299999989
 50
183.00000999999969
 51
267.0000000000008
  0
ARC
  5
6981
  8
ﾁｭｳｼﾝｾﾝ1
 10
645.29278784026633
 20
254.69384075299899
 30
0.0
 40
107.50001100000451
 50
216.99874048807541
 51
233.00125951192439
  0
CIRCLE
  5
6982
  8
AM_0
 10
569.27880884026308
 20
178.67986175299581
 30
0.0
 40
6.0000002999999991
  0
ARC
  5
6983
  8
AM_0
 10
358.58608192690178
 20
344.91324875299591
 30
0.0
 40
2.00000007
 50
91.999998000000545
 51
180.00000999999941
  0
CIRCLE
  5
6985
  8
AM_0
 10
721.30675184026302
 20
178.67986175299581
 30
0.0
 40
6.0000002999999991
  0
CIRCLE
  5
6986
  8
AM_0
 10
645.29278784026326
 20
254.69384075299581
 30
0.0
 40
80.000000999999983
  0
ARC
  5
6987
  8
AM_0
 10
645.29278784026326
 20
231.49385975299589
 30
0.0
 40
81.000003000000007
 50
24.588774999999941
 51
54.525829999998038
  0
CIRCLE
  5
6988
  8
AM_0
 10
645.29278784026326
 20
254.69384075299581
 30
0.0
 40
85.000001999999981
  0
ARC
  5
6989
  8
AM_0
 10
703.81708184026309
 20
304.7328387529958
 30
0.0
 40
3.0
 50
40.530864999996624
 51
135.0
  0
ARC
  5
698A
  8
AM_0
 10
670.44403484026316
 20
288.33034775299581
 30
0.0
 40
3.0
 50
233.21321000000009
 51
315.0
  0
ARC
  5
698C
  8
AM_0
 10
678.92929484026286
 20
279.84505775299579
 30
0.0
 40
3.0
 50
135.0
 51
216.78678999999761
  0
ARC
  5
698D
  8
AM_0
 10
695.33179184026301
 20
313.21812875299582
 30
0.0
 40
3.0
 50
315.0
 51
49.469136999997183
  0
ARC
  5
698E
  8
AM_0
 10
570.17776484026308
 20
329.80887875299578
 30
0.0
 40
15.000000299999989
 50
92.999999000001608
 51
176.9999900000002
  0
ARC
  5
698F
  8
AM_0
 10
645.29278784026326
 20
231.49385975299589
 30
0.0
 40
81.000003000000007
 50
270.0
 51
291.36620000000198
  0
ARC
  5
6990
  8
AM_0
 10
639.79277384026307
 20
315.3135987529958
 30
0.0
 40
3.0
 50
273.75420000000253
 51
0.0
  0
ARC
  5
6991
  8
AM_0
 10
326.87770192690169
 20
316.72809875299589
 30
0.0
 40
3.0
 50
271.9999999999971
 51
315.0
  0
ARC
  5
6992
  8
AM_0
 10
359.58607192690152
 20
305.81904875299603
 30
0.0
 40
3.0
 50
179.99999000000059
 51
270.0
  0
ARC
  5
6993
  8
AM_0
 10
358.21510192690153
 20
231.7834857529958
 30
0.0
 40
3.0
 50
218.7932199999976
 51
270.0
  0
ARC
  5
6994
  8
AM_0
 10
276.58615192690161
 20
153.01888175299581
 30
0.0
 40
2.00000007
 50
179.99999000000059
 51
268.00000999999872
  0
ARC
  5
6A50
  8
AM_0
 10
645.29280131363942
 20
231.49382975299579
 30
0.0
 40
81.000003000000007
 50
93.754195000000863
 51
121.1390599999999
  0
LINE
  5
6C0B
  8
ﾁｭｳｼﾝｾﾝ1
 10
712.82149118309144
 20
187.16514884429711
 30
0.0
 11
729.79204300177776
 21
170.1945751660364
 31
0.0
  0
ARC
  5
6C0C
  8
ﾁｭｳｼﾝｾﾝ1
 10
645.29278784025985
 20
254.69384075299911
 30
0.0
 40
107.50001100000451
 50
306.99874048807538
 51
323.00125951192439
  0
LINE
  5
6C0D
  8
ﾁｭｳｼﾝｾﾝ1
 10
712.82147974896145
 20
322.22254409582399
 30
0.0
 11
729.7920534272223
 21
339.19309591451042
 31
0.0
  0
ARC
  5
6C0E
  8
ﾁｭｳｼﾝｾﾝ1
 10
645.29278784025962
 20
254.69384075299249
 30
0.0
 40
107.50001100000451
 50
36.998740488075441
 51
53.001259511924466
  0
LINE
  5
6C0F
  8
ﾁｭｳｼﾝｾﾝ1
 10
577.76408449743485
 20
322.2225326616944
 30
0.0
 11
560.79353267874842
 21
339.19310633995508
 31
0.0
  0
ARC
  5
6C10
  8
ﾁｭｳｼﾝｾﾝ1
 10
645.29278784026633
 20
254.69384075299249
 30
0.0
 40
107.50001100000451
 50
126.9987404880753
 51
143.00125951192439
  0
LINE
  5
70A1
  8
ﾁｭｳｼﾝｾﾝ
 10
80.330311926901715
 20
536.92430970694772
 30
0.0
 11
417.2931119269017
 21
536.92430970694772
 31
0.0
  0
LINE
  5
70A2
  8
AM_0
 10
412.58608192690161
 20
550.92433970694799
 30
0.0
 11
412.58608192690161
 21
522.92433970694776
 31
0.0
  0
LINE
  5
70A3
  8
AM_0
 10
375.58605192690158
 20
550.92433970694799
 30
0.0
 11
412.58608192690161
 21
550.92433970694799
 31
0.0
  0
LINE
  5
70A4
  8
AM_0
 10
375.58605192690169
 20
522.92433970694776
 30
0.0
 11
412.58608192690161
 21
522.92433970694776
 31
0.0
  0
LINE
  5
70A5
  8
AM_0
 10
380.58608192690173
 20
540.92427970694757
 30
0.0
 11
380.58608192690173
 21
532.92430970694772
 31
0.0
  0
LINE
  5
70B4
  8
AM_0
 10
380.58608192690173
 20
532.92430970694772
 30
0.0
 11
412.58608192690161
 21
532.92430970694772
 31
0.0
  0
LINE
  5
70B5
  8
AM_0
 10
380.58608192690173
 20
540.92427970694757
 30
0.0
 11
412.58608192690161
 21
540.92427970694757
 31
0.0
  0
LINE
  5
70C9
  8
AM_0
 10
248.08611192690159
 20
473.42430970694772
 30
0.0
 11
248.08611192690159
 21
600.42430970694784
 31
0.0
  0
ARC
  5
70E4
  8
AM_0
 10
380.58608192690173
 20
536.92427970694757
 30
0.0
 40
3.9999962
 50
90.000003000000945
 51
270.0
  0
LINE
  5
7113
  8
AM_0
 10
370.58605192690169
 20
570.42433970694765
 30
0.0
 11
375.58605192690152
 21
565.42433970694776
 31
0.0
  0
LINE
  5
7116
  8
AM_0
 10
375.58605192690152
 20
565.42433970694776
 30
0.0
 11
375.58605192690169
 21
508.42433970694799
 31
0.0
  0
LINE
  5
7118
  8
AM_0
 10
370.58605192690169
 20
503.42433970694771
 30
0.0
 11
375.58605192690158
 21
508.42433970694799
 31
0.0
  0
LINE
  5
711C
  8
AM_0
 10
89.086111926901623
 20
487.42430970694772
 30
0.0
 11
89.086111926901623
 21
487.95433970694768
 31
0.0
  0
LINE
  5
711D
  8
AM_0
 10
89.086111926901623
 20
489.52427970694771
 30
0.0
 11
89.086111926901623
 21
490.07432970694759
 31
0.0
  0
LINE
  5
711E
  8
AM_0
 10
89.086111926901623
 20
494.09434970694792
 30
0.0
 11
89.086111926901623
 21
494.5643197069478
 31
0.0
  0
LINE
  5
711F
  8
AM_0
 10
88.866081926901472
 20
490.54429970694781
 30
0.0
 11
87.6160819269017
 21
491.2042697069478
 31
0.0
  0
LINE
  5
7120
  8
AM_0
 10
88.876091926901665
 20
488.43428970694771
 30
0.0
 11
87.636101926901645
 21
489.0642897069477
 31
0.0
  0
LINE
  5
7121
  8
AM_0
 10
88.85607192690162
 20
495.07426970694792
 30
0.0
 11
87.576101926901785
 21
495.82426970694769
 31
0.0
  0
LINE
  5
7122
  8
AM_0
 10
89.326101926901813
 20
488.32432970694759
 30
0.0
 11
91.586111926901864
 21
488.32432970694759
 31
0.0
  0
LINE
  5
7123
  8
AM_0
 10
89.336111926901893
 20
490.42430970694772
 30
0.0
 11
91.086111926901651
 21
490.42430970694772
 31
0.0
  0
LINE
  5
7124
  8
AM_0
 10
89.356131926901696
 20
494.94432970694771
 30
0.0
 11
91.086111926901651
 21
494.94432970694771
 31
0.0
  0
LINE
  5
7125
  8
AM_0
 10
89.386101926901631
 20
493.80430970694778
 30
0.0
 11
92.086111926901907
 21
493.80430970694778
 31
0.0
  0
LINE
  5
7126
  8
AM_0
 10
89.366141926901904
 20
489.28428970694767
 30
0.0
 11
92.086111926901907
 21
489.28428970694767
 31
0.0
  0
LINE
  5
7127
  8
AM_0
 10
88.836111926901665
 20
493.96427970694782
 30
0.0
 11
87.536121926901686
 21
494.81428970694782
 31
0.0
  0
LINE
  5
7128
  8
AM_0
 10
88.846121926901631
 20
489.4242797069478
 30
0.0
 11
87.566091926901834
 21
490.19428970694793
 31
0.0
  0
LINE
  5
7129
  8
AM_0
 10
88.856131926901696
 20
487.3142897069477
 30
0.0
 11
87.586171926901628
 21
488.04426970694772
 31
0.0
  0
LINE
  5
712A
  8
AM_0
 10
89.356131926901696
 20
487.17430970694772
 30
0.0
 11
91.586111926901864
 21
487.17430970694772
 31
0.0
  0
LINE
  5
712B
  8
AM_0
 10
87.086111926901907
 20
488.90428970694779
 30
0.0
 11
87.086111926901907
 21
531.92430970694784
 31
0.0
  0
LINE
  5
712C
  8
AM_0
 10
87.576101926901785
 20
495.82429970694761
 30
0.0
 11
87.556081926901726
 21
495.83427970694783
 31
0.0
  0
LINE
  5
712D
  8
AM_0
 10
85.586111926901651
 20
519.64427970694771
 30
0.0
 11
87.086111926901907
 21
519.64427970694771
 31
0.0
  0
LINE
  5
712E
  8
AM_0
 10
85.586111926901651
 20
521.77427970694782
 30
0.0
 11
87.086111926901907
 21
521.77427970694782
 31
0.0
  0
LINE
  5
712F
  8
AM_0
 10
85.586111926901651
 20
516.92433970694765
 30
0.0
 11
87.086111926901907
 21
516.79432970694791
 31
0.0
  0
LINE
  5
7130
  8
AM_0
 10
85.586111926901651
 20
516.92430970694784
 30
0.0
 11
85.586111926901651
 21
536.92430970694784
 31
0.0
  0
LINE
  5
7131
  8
AM_0
 10
89.086111926901623
 20
501.53428970694762
 30
0.0
 11
89.086111926901623
 21
502.59434970694758
 31
0.0
  0
LINE
  5
7132
  8
AM_0
 10
89.086111926901623
 20
511.2942997069477
 30
0.0
 11
89.086111926901623
 21
512.66429970694776
 31
0.0
  0
LINE
  5
7133
  8
AM_0
 10
89.086111926901623
 20
531.31431970694791
 30
0.0
 11
89.086111926901623
 21
532.47434970694792
 31
0.0
  0
LINE
  5
7134
  8
AM_0
 10
89.086111926901623
 20
521.31431970694791
 30
0.0
 11
89.086111926901623
 21
522.53428970694756
 31
0.0
  0
LINE
  5
7135
  8
AM_0
 10
91.086111926901651
 20
532.92430970694784
 30
0.0
 11
88.086111926901765
 21
532.92430970694784
 31
0.0
  0
LINE
  5
7136
  8
AM_0
 10
91.086111926901651
 20
530.92430970694784
 30
0.0
 11
88.086111926901765
 21
530.92430970694784
 31
0.0
  0
LINE
  5
7137
  8
AM_0
 10
91.086111926901651
 20
522.92430970694784
 30
0.0
 11
88.086111926901765
 21
522.92430970694784
 31
0.0
  0
LINE
  5
7138
  8
AM_0
 10
91.086111926901651
 20
520.92430970694784
 30
0.0
 11
88.086111926901765
 21
520.92430970694784
 31
0.0
  0
LINE
  5
7139
  8
AM_0
 10
91.086111926901651
 20
512.92430970694784
 30
0.0
 11
88.086111926901765
 21
512.92430970694784
 31
0.0
  0
LINE
  5
713A
  8
AM_0
 10
91.086111926901651
 20
510.92430970694772
 30
0.0
 11
88.086111926901765
 21
510.92430970694772
 31
0.0
  0
LINE
  5
713B
  8
AM_0
 10
88.946101926901804
 20
503.22431970694799
 30
0.0
 11
87.796131926901609
 21
503.58430970694792
 31
0.0
  0
LINE
  5
713C
  8
AM_0
 10
89.236141926901666
 20
503.18431970694741
 30
0.0
 11
91.086111926901651
 21
503.18431970694741
 31
0.0
  0
LINE
  5
713D
  8
AM_0
 10
88.89605192690162
 20
501.3142897069477
 30
0.0
 11
87.696101926901804
 21
501.83427970694771
 31
0.0
  0
LINE
  5
713E
  8
AM_0
 10
89.286121926901671
 20
501.2343597069476
 30
0.0
 11
91.386101926901645
 21
501.2343597069476
 31
0.0
  0
LINE
  5
713F
  8
AM_0
 10
85.586111926901651
 20
554.20433970694774
 30
0.0
 11
87.086111926901907
 21
554.20433970694774
 31
0.0
  0
LINE
  5
7140
  8
AM_0
 10
85.586111926901651
 20
552.07432970694765
 30
0.0
 11
87.086111926901907
 21
552.07432970694765
 31
0.0
  0
LINE
  5
7141
  8
AM_0
 10
85.586171926901613
 20
556.92433970694765
 30
0.0
 11
87.086111926901907
 21
557.05433970694764
 31
0.0
  0
LINE
  5
7142
  8
AM_0
 10
85.586111926901651
 20
556.92430970694784
 30
0.0
 11
85.586111926901651
 21
536.92430970694784
 31
0.0
  0
LINE
  5
7143
  8
AM_0
 10
89.086111926901623
 20
586.42430970694784
 30
0.0
 11
89.086111926901623
 21
585.8942797069476
 31
0.0
  0
LINE
  5
7144
  8
AM_0
 10
89.086111926901623
 20
584.32432970694765
 30
0.0
 11
89.086111926901623
 21
583.77427970694782
 31
0.0
  0
LINE
  5
7145
  8
AM_0
 10
89.086111926901623
 20
579.75425970694778
 30
0.0
 11
89.086111926901623
 21
579.28428970694756
 31
0.0
  0
LINE
  5
7146
  8
AM_0
 10
89.086111926901623
 20
572.3143197069478
 30
0.0
 11
89.086111926901623
 21
571.25425970694778
 31
0.0
  0
LINE
  5
7147
  8
AM_0
 10
89.086111926901623
 20
562.55430970694772
 30
0.0
 11
89.086111926901623
 21
561.1843197069478
 31
0.0
  0
LINE
  5
7148
  8
AM_0
 10
89.086111926901623
 20
542.53428970694767
 30
0.0
 11
89.086111926901623
 21
541.37425970694778
 31
0.0
  0
LINE
  5
7149
  8
AM_0
 10
89.086111926901623
 20
552.53428970694756
 30
0.0
 11
89.086111926901623
 21
551.32432970694765
 31
0.0
  0
LINE
  5
714A
  8
AM_0
 10
91.086111926901651
 20
540.92430970694784
 30
0.0
 11
88.086111926901765
 21
540.92430970694784
 31
0.0
  0
LINE
  5
714B
  8
AM_0
 10
91.086111926901651
 20
542.92430970694784
 30
0.0
 11
88.086111926901765
 21
542.92430970694784
 31
0.0
  0
LINE
  5
714C
  8
AM_0
 10
91.086111926901651
 20
550.92430970694784
 30
0.0
 11
88.086111926901765
 21
550.92430970694784
 31
0.0
  0
LINE
  5
714D
  8
AM_0
 10
91.086111926901651
 20
552.92430970694784
 30
0.0
 11
88.086111926901765
 21
552.92430970694784
 31
0.0
  0
LINE
  5
714E
  8
AM_0
 10
91.086111926901651
 20
560.92430970694784
 30
0.0
 11
88.086111926901765
 21
560.92430970694784
 31
0.0
  0
LINE
  5
714F
  8
AM_0
 10
91.086111926901651
 20
562.92430970694784
 30
0.0
 11
88.086111926901765
 21
562.92430970694784
 31
0.0
  0
LINE
  5
7150
  8
AM_0
 10
88.866081926901472
 20
583.31431970694791
 30
0.0
 11
87.616141926901875
 21
582.64433970694779
 31
0.0
  0
LINE
  5
7151
  8
AM_0
 10
88.876151926901613
 20
585.4242797069478
 30
0.0
 11
87.636101926901645
 21
584.79426970694783
 31
0.0
  0
LINE
  5
7152
  8
AM_0
 10
88.946101926901804
 20
570.62428970694759
 30
0.0
 11
87.796071926901917
 21
570.27427970694782
 31
0.0
  0
LINE
  5
7153
  8
AM_0
 10
88.856131926901696
 20
578.7742497069479
 30
0.0
 11
87.576101926901785
 21
578.02424970694778
 31
0.0
  0
LINE
  5
7154
  8
AM_0
 10
89.326101926901813
 20
585.52427970694782
 30
0.0
 11
91.586111926901864
 21
585.52427970694782
 31
0.0
  0
LINE
  5
7155
  8
AM_0
 10
89.336111926901893
 20
583.42430970694784
 30
0.0
 11
91.086111926901651
 21
583.42430970694784
 31
0.0
  0
LINE
  5
7156
  8
AM_0
 10
89.356131926901696
 20
578.91429970694765
 30
0.0
 11
91.086111926901651
 21
578.91429970694765
 31
0.0
  0
LINE
  5
7157
  8
AM_0
 10
89.236141926901666
 20
570.66429970694776
 30
0.0
 11
91.086111926901651
 21
570.66429970694776
 31
0.0
  0
LINE
  5
7158
  8
AM_0
 10
89.386101926901631
 20
580.05430970694761
 30
0.0
 11
92.086111926901907
 21
580.05430970694761
 31
0.0
  0
LINE
  5
7159
  8
AM_0
 10
89.366141926901904
 20
584.56431970694769
 30
0.0
 11
92.086111926901907
 21
584.56431970694769
 31
0.0
  0
LINE
  5
715A
  8
AM_0
 10
88.896171926901644
 20
572.53431970694783
 30
0.0
 11
87.696161926901667
 21
572.02430970694775
 31
0.0
  0
LINE
  5
715B
  8
AM_0
 10
88.836111926901665
 20
579.88426970694763
 30
0.0
 11
87.536121926901686
 21
579.03428970694779
 31
0.0
  0
LINE
  5
715C
  8
AM_0
 10
88.846061926901669
 20
584.4242797069478
 30
0.0
 11
87.566091926901834
 21
583.65431970694783
 31
0.0
  0
LINE
  5
715D
  8
AM_0
 10
88.85607192690162
 20
586.54429970694764
 30
0.0
 11
87.586051926901817
 21
585.80430970694761
 31
0.0
  0
LINE
  5
715E
  8
AM_0
 10
89.286121926901671
 20
572.61424970694782
 30
0.0
 11
91.386101926901645
 21
572.61424970694782
 31
0.0
  0
LINE
  5
715F
  8
AM_0
 10
89.356131926901696
 20
586.67430970694784
 30
0.0
 11
91.586111926901864
 21
586.67430970694784
 31
0.0
  0
LINE
  5
7160
  8
AM_0
 10
87.086111926901907
 20
584.94432970694766
 30
0.0
 11
87.086111926901907
 21
541.92430970694784
 31
0.0
  0
LINE
  5
7161
  8
AM_0
 10
239.08611192690159
 20
574.07432970694765
 30
0.0
 11
248.08611192690159
 21
574.07432970694765
 31
0.0
  0
LINE
  5
7162
  8
AM_0
 10
240.08611192690159
 20
484.8842697069478
 30
0.0
 11
248.08611192690159
 21
484.8842697069478
 31
0.0
  0
LINE
  5
7163
  8
AM_0
 10
239.08611192690159
 20
499.77427970694771
 30
0.0
 11
248.08611192690159
 21
499.77427970694771
 31
0.0
  0
LINE
  5
7164
  8
AM_0
 10
240.08611192690159
 20
473.42430970694772
 30
0.0
 11
248.08611192690159
 21
473.42430970694789
 31
0.0
  0
LINE
  5
7165
  8
AM_0
 10
240.08611192690159
 20
588.96433970694761
 30
0.0
 11
248.08611192690159
 21
588.96433970694761
 31
0.0
  0
LINE
  5
7166
  8
AM_0
 10
240.08611192690159
 20
600.42430970694784
 30
0.0
 11
248.08611192690159
 21
600.42430970694784
 31
0.0
  0
LINE
  5
7167
  8
AM_0
 10
92.086111926901907
 20
479.49424970694758
 30
0.0
 11
94.906061926901486
 21
479.43424970694781
 31
0.0
  0
LINE
  5
7168
  8
AM_0
 10
133.08611192690179
 20
490.57432970694759
 30
0.0
 11
239.08611192690159
 21
490.57432970694759
 31
0.0
  0
LINE
  5
7169
  8
AM_0
 10
233.7960719269017
 20
476.42430970694772
 30
0.0
 11
239.08611192690159
 21
476.42430970694772
 31
0.0
  0
LINE
  5
716A
  8
AM_0
 10
105.75610192690171
 20
503.56431970694757
 30
0.0
 11
200.10607192690171
 21
503.56431970694757
 31
0.0
  0
LINE
  5
716B
  8
AM_0
 10
188.08611192690171
 20
500.92430970694772
 30
0.0
 11
106.6218219269019
 21
500.92430970694772
 31
0.0
  0
LINE
  5
716C
  8
AM_0
 10
188.08611192690171
 20
500.20433970694768
 30
0.0
 11
235.9061219269017
 21
500.20433970694768
 31
0.0
  0
LINE
  5
716D
  8
AM_0
 10
105.75610192690171
 20
500.20433970694768
 30
0.0
 11
188.08611192690171
 21
500.20433970694768
 31
0.0
  0
LINE
  5
716E
  8
AM_0
 10
105.7837419269016
 20
478.66429970694787
 30
0.0
 11
111.58611192690159
 21
478.66429970694787
 31
0.0
  0
LINE
  5
716F
  8
AM_0
 10
115.08611192690159
 20
475.0643197069478
 30
0.0
 11
231.8961119269016
 21
475.0643197069478
 31
0.0
  0
LINE
  5
7170
  8
AM_0
 10
105.84600192690181
 20
483.94432970694771
 30
0.0
 11
111.58611192690159
 21
483.94432970694771
 31
0.0
  0
LINE
  5
7171
  8
AM_0
 10
102.08611192690159
 20
488.57432970694782
 30
0.0
 11
102.08611192690159
 21
502.62425970694778
 31
0.0
  0
LINE
  5
7172
  8
AM_0
 10
92.086111926901907
 20
488.57432970694782
 30
0.0
 11
102.08611192690159
 21
488.57432970694782
 31
0.0
  0
LINE
  5
7173
  8
AM_0
 10
233.8261019269016
 20
476.55421970694778
 30
0.0
 11
237.2861219269017
 21
489.46433970694778
 31
0.0
  0
LINE
  5
7174
  8
AM_0
 10
95.847401926901796
 20
476.76530970694762
 30
0.0
 11
95.366141926901761
 21
478.67430970694772
 31
0.0
  0
LINE
  5
7175
  8
AM_0
 10
96.276121926901794
 20
476.79423970694779
 30
0.0
 11
95.356071926901635
 21
480.67433970694759
 31
0.0
  0
LINE
  5
7176
  8
AM_0
 10
113.08611192690169
 20
475.03526970694787
 30
0.0
 11
113.08611192690169
 21
482.44432970694771
 31
0.0
  0
LINE
  5
7177
  8
AM_0
 10
93.916131926901627
 20
479.80430970694772
 30
0.0
 11
95.566091926901834
 21
479.80430970694772
 31
0.0
  0
LINE
  5
7178
  8
AM_0
 10
133.08611192690179
 20
583.27427970694782
 30
0.0
 11
239.08611192690159
 21
583.27427970694782
 31
0.0
  0
LINE
  5
7179
  8
AM_0
 10
239.08611192690159
 20
474.42430970694772
 30
0.0
 11
239.08611192690159
 21
599.42430970694784
 31
0.0
  0
LINE
  5
717A
  8
AM_0
 10
92.086111926901907
 20
594.35429970694781
 30
0.0
 11
94.906121926901903
 21
594.42430970694784
 31
0.0
  0
LINE
  5
717B
  8
AM_0
 10
92.086111926901907
 20
479.49424970694758
 30
0.0
 11
92.086111926901907
 21
536.92430970694784
 31
0.0
  0
LINE
  5
717C
  8
AM_0
 10
232.42608192690159
 20
500.92430970694772
 30
0.0
 11
188.08611192690171
 21
500.92430970694772
 31
0.0
  0
LINE
  5
717D
  8
AM_0
 10
102.08611192690159
 20
585.2742797069476
 30
0.0
 11
102.08611192690159
 21
571.23435970694777
 31
0.0
  0
LINE
  5
717E
  8
AM_0
 10
92.086111926901907
 20
571.23435970694777
 30
0.0
 11
102.08611192690159
 21
571.23435970694777
 31
0.0
  0
LINE
  5
717F
  8
AM_0
 10
92.086111926901907
 20
579.61424970694782
 30
0.0
 11
102.08611192690159
 21
579.61424970694782
 31
0.0
  0
LINE
  5
7180
  8
AM_0
 10
92.086111926901907
 20
585.2742797069476
 30
0.0
 11
102.08611192690159
 21
585.2742797069476
 31
0.0
  0
LINE
  5
7181
  8
AM_0
 10
167.52819192690171
 20
522.92430970694784
 30
0.0
 11
97.636101926901645
 21
522.92430970694784
 31
0.0
  0
LINE
  5
7182
  8
AM_0
 10
115.08611192690159
 20
598.78428970694767
 30
0.0
 11
231.8961119269016
 21
598.78428970694767
 31
0.0
  0
LINE
  5
7183
  8
AM_0
 10
106.04040192690159
 20
589.91429970694765
 30
0.0
 11
111.58611192690159
 21
589.91429970694765
 31
0.0
  0
LINE
  5
7184
  8
AM_0
 10
103.2954019269016
 20
583.91761970694779
 30
0.0
 11
104.08038192690179
 21
588.26429970694778
 31
0.0
  0
LINE
  5
7185
  8
AM_0
 10
105.97655192690161
 20
595.19432970694766
 30
0.0
 11
111.58611192690159
 21
595.19432970694766
 31
0.0
  0
LINE
  5
7186
  8
AM_0
 10
98.216121926901621
 20
598.5943497069477
 30
0.0
 11
111.58611192690159
 21
598.5943497069477
 31
0.0
  0
LINE
  5
7187
  8
AM_0
 10
98.196101926901804
 20
600.22434970694781
 30
0.0
 11
111.6961019269018
 21
600.22434970694781
 31
0.0
  0
LINE
  5
7188
  8
AM_0
 10
115.08611192690159
 20
602.84434970694736
 30
0.0
 11
233.1697319269017
 21
602.84434970694736
 31
0.0
  0
LINE
  5
7189
  8
AM_0
 10
115.08611192690159
 20
602.17430970694784
 30
0.0
 11
233.31377192690169
 21
602.17430970694784
 31
0.0
  0
LINE
  5
718A
  8
AM_0
 10
115.08611192690159
 20
600.81431970694791
 30
0.0
 11
233.60607192690171
 21
600.81431970694791
 31
0.0
  0
LINE
  5
718B
  8
AM_0
 10
101.60039192690159
 20
587.96433970694761
 30
0.0
 11
104.02038192690161
 21
587.96433970694761
 31
0.0
  0
LINE
  5
718C
  8
AM_0
 10
104.0303319269016
 20
593.61433970694782
 30
0.0
 11
103.07030192690191
 21
589.14424970694756
 31
0.0
  0
LINE
  5
718D
  8
AM_0
 10
93.896111926901497
 20
592.0242797069476
 30
0.0
 11
103.68890192690159
 21
592.0242797069476
 31
0.0
  0
LINE
  5
718E
  8
AM_0
 10
232.42608192690159
 20
572.92430970694784
 30
0.0
 11
106.6361019269018
 21
572.92430970694784
 31
0.0
  0
LINE
  5
718F
  8
AM_0
 10
232.42608192690159
 20
570.92430970694784
 30
0.0
 11
218.08611192690159
 21
570.92430970694784
 31
0.0
  0
LINE
  5
7190
  8
AM_0
 10
232.43322192690189
 20
562.92430970694784
 30
0.0
 11
218.08611192690159
 21
562.92430970694784
 31
0.0
  0
LINE
  5
7191
  8
AM_0
 10
96.276121926901794
 20
597.05433970694764
 30
0.0
 11
95.356071926901635
 21
593.18428970694765
 31
0.0
  0
LINE
  5
7192
  8
AM_0
 10
232.41894192690171
 20
560.92430970694784
 30
0.0
 11
106.6361019269018
 21
560.92430970694784
 31
0.0
  0
LINE
  5
7193
  8
AM_0
 10
93.916131926901627
 20
594.04429970694775
 30
0.0
 11
95.566091926901834
 21
594.04429970694775
 31
0.0
  0
LINE
  5
7194
  8
AM_0
 10
96.256101926901664
 20
598.71424970694784
 30
0.0
 11
95.366141926901761
 21
595.18434970694761
 31
0.0
  0
LINE
  5
7195
  8
AM_0
 10
167.52483192690181
 20
552.92430970694784
 30
0.0
 11
97.636101926901645
 21
552.92430970694784
 31
0.0
  0
LINE
  5
7196
  8
AM_0
 10
113.08611192690169
 20
598.8143197069478
 30
0.0
 11
113.08611192690169
 21
591.41429970694765
 31
0.0
  0
LINE
  5
7197
  8
AM_0
 10
167.52483192690181
 20
550.92430970694784
 30
0.0
 11
97.636101926901645
 21
550.92430970694784
 31
0.0
  0
LINE
  5
7198
  8
AM_0
 10
167.52819192690171
 20
542.92430970694784
 30
0.0
 11
97.636101926901645
 21
542.92430970694784
 31
0.0
  0
LINE
  5
7199
  8
AM_0
 10
167.52819192690171
 20
540.92430970694784
 30
0.0
 11
97.636101926901645
 21
540.92430970694784
 31
0.0
  0
LINE
  5
719A
  8
AM_0
 10
233.8261019269016
 20
597.30433970694764
 30
0.0
 11
237.2861219269017
 21
584.38426970694786
 31
0.0
  0
LINE
  5
719B
  8
AM_0
 10
235.5465019269017
 20
597.42430970694784
 30
0.0
 11
239.08611192690159
 21
597.42430970694784
 31
0.0
  0
LINE
  5
719C
  8
AM_0
 10
238.7960719269017
 20
587.96433970694761
 30
0.0
 11
236.37609192690169
 21
587.96433970694761
 31
0.0
  0
LINE
  5
719D
  8
AM_0
 10
234.6363119269017
 20
601.65946970694779
 30
0.0
 11
237.3261319269017
 21
589.14424970694756
 31
0.0
  0
LINE
  5
719E
  8
AM_0
 10
92.086111926901907
 20
594.35435970694755
 30
0.0
 11
92.086111926901907
 21
536.92430970694784
 31
0.0
  0
LINE
  5
719F
  8
AM_0
 10
92.086111926901907
 20
502.62425970694778
 30
0.0
 11
102.08611192690159
 21
502.62425970694778
 31
0.0
  0
LINE
  5
71A0
  8
AM_0
 10
97.786741926901698
 20
475.25425970694772
 30
0.0
 11
111.828851926902
 21
475.25425970694772
 31
0.0
  0
LINE
  5
71A1
  8
AM_0
 10
92.086111926901907
 20
494.23435970694771
 30
0.0
 11
102.08611192690159
 21
494.23435970694771
 31
0.0
  0
LINE
  5
71A2
  8
AM_0
 10
93.896111926901497
 20
481.82432970694782
 30
0.0
 11
103.68890192690159
 21
481.82432970694782
 31
0.0
  0
LINE
  5
71A3
  8
AM_0
 10
115.08611192690159
 20
473.03428970694779
 30
0.0
 11
156.4124719269017
 21
473.03428970694779
 31
0.0
  0
LINE
  5
71A4
  8
AM_0
 10
105.54613192690159
 20
510.44432970694783
 30
0.0
 11
200.08611192690159
 21
510.44432970694783
 31
0.0
  0
LINE
  5
71A5
  8
AM_0
 10
200.08611192690159
 20
502.92430970694772
 30
0.0
 11
106.6218219269019
 21
502.92430970694772
 31
0.0
  0
LINE
  5
71A6
  8
AM_0
 10
105.75610192690171
 20
573.65428970694779
 30
0.0
 11
235.9061219269017
 21
573.65428970694779
 31
0.0
  0
LINE
  5
71A7
  8
AM_0
 10
105.75610192690171
 20
570.29429970694775
 30
0.0
 11
200.10607192690171
 21
570.29429970694775
 31
0.0
  0
LINE
  5
71A8
  8
AM_0
 10
105.54613192690159
 20
563.41429970694765
 30
0.0
 11
200.08611192690159
 21
563.41429970694765
 31
0.0
  0
LINE
  5
71A9
  8
AM_0
 10
105.54613192690159
 20
560.4942497069477
 30
0.0
 11
236.12035192690169
 21
560.4942497069477
 31
0.0
  0
LINE
  5
71AA
  8
AM_0
 10
96.416131926901855
 20
553.27427970694782
 30
0.0
 11
168.7573819269017
 21
553.27427970694782
 31
0.0
  0
LINE
  5
71AB
  8
AM_0
 10
96.416131926901855
 20
550.60435970694755
 30
0.0
 11
168.7448019269016
 21
550.60435970694755
 31
0.0
  0
LINE
  5
71AC
  8
AM_0
 10
96.356131926901512
 20
543.20433970694774
 30
0.0
 11
168.82122192690159
 21
543.20433970694774
 31
0.0
  0
LINE
  5
71AD
  8
AM_0
 10
96.356131926901512
 20
540.66429970694799
 30
0.0
 11
168.82122192690159
 21
540.66429970694799
 31
0.0
  0
LINE
  5
71AE
  8
AM_0
 10
96.356131926901512
 20
533.19432970694777
 30
0.0
 11
168.82122192690159
 21
533.19432970694777
 31
0.0
  0
LINE
  5
71AF
  8
AM_0
 10
167.52819192690171
 20
530.92430970694784
 30
0.0
 11
97.636101926901645
 21
530.92430970694784
 31
0.0
  0
LINE
  5
71B0
  8
AM_0
 10
167.52819192690171
 20
532.92430970694784
 30
0.0
 11
97.636101926901645
 21
532.92430970694784
 31
0.0
  0
LINE
  5
71B1
  8
AM_0
 10
96.416131926901855
 20
523.24424970694793
 30
0.0
 11
168.7573819269017
 21
523.24424970694793
 31
0.0
  0
LINE
  5
71B2
  8
AM_0
 10
167.52819192690171
 20
520.92430970694784
 30
0.0
 11
97.636101926901645
 21
520.92430970694784
 31
0.0
  0
LINE
  5
71B3
  8
AM_0
 10
96.416131926901855
 20
520.58433970694773
 30
0.0
 11
168.7573819269017
 21
520.58433970694773
 31
0.0
  0
LINE
  5
71B4
  8
AM_0
 10
232.41894192690171
 20
512.92430970694784
 30
0.0
 11
106.6218219269019
 21
512.92430970694784
 31
0.0
  0
LINE
  5
71B5
  8
AM_0
 10
105.54613192690159
 20
513.36424970694782
 30
0.0
 11
236.12035192690169
 21
513.36424970694782
 31
0.0
  0
LINE
  5
71B6
  8
AM_0
 10
232.41894192690171
 20
510.92430970694772
 30
0.0
 11
218.08611192690159
 21
510.92430970694772
 31
0.0
  0
LINE
  5
71B7
  8
AM_0
 10
232.42608192690159
 20
502.92430970694772
 30
0.0
 11
218.08611192690159
 21
502.92430970694772
 31
0.0
  0
LINE
  5
71B8
  8
AM_0
 10
96.356131926901512
 20
530.65428970694791
 30
0.0
 11
168.82122192690159
 21
530.65428970694791
 31
0.0
  0
LINE
  5
71B9
  8
AM_0
 10
103.2953419269017
 20
489.93092970694778
 30
0.0
 11
104.08038192690179
 21
485.58424970694779
 31
0.0
  0
LINE
  5
71BA
  8
AM_0
 10
101.60039192690159
 20
485.88426970694769
 30
0.0
 11
104.02038192690161
 21
485.88426970694769
 31
0.0
  0
LINE
  5
71BB
  8
AM_0
 10
104.0303919269017
 20
480.23429970694792
 30
0.0
 11
103.0703719269015
 21
484.70426970694763
 31
0.0
  0
LINE
  5
71BC
  8
AM_0
 10
219.59972192690171
 20
466.92430970694772
 30
0.0
 11
231.1022919269017
 21
466.92430970694772
 31
0.0
  0
LINE
  5
71BD
  8
AM_0
 10
238.0861419269018
 20
476.4242797069478
 30
0.0
 11
232.3603419269019
 21
467.60731970694792
 31
0.0
  0
LINE
  5
71BE
  8
AM_0
 10
201.58611192690159
 20
509.42430970694772
 30
0.0
 11
201.58611192690159
 21
504.42430970694772
 31
0.0
  0
LINE
  5
71BF
  8
AM_0
 10
216.58611192690159
 20
509.42430970694772
 30
0.0
 11
216.58611192690159
 21
504.42430970694772
 31
0.0
  0
LINE
  5
71C0
  8
AM_0
 10
200.08611192690159
 20
510.92430970694772
 30
0.0
 11
106.6218219269019
 21
510.92430970694772
 31
0.0
  0
LINE
  5
71C1
  8
AM_0
 10
201.10607192690171
 20
509.42430970694772
 30
0.0
 11
201.10607192690171
 21
504.56431970694791
 31
0.0
  0
LINE
  5
71C2
  8
AM_0
 10
217.06609192690169
 20
509.42430970694772
 30
0.0
 11
217.06609192690169
 21
504.56431970694791
 31
0.0
  0
LINE
  5
71C3
  8
AM_0
 10
218.08611192690159
 20
510.44432970694783
 30
0.0
 11
236.12035192690169
 21
510.44432970694783
 31
0.0
  0
LINE
  5
71C4
  8
AM_0
 10
218.06609192690161
 20
503.56431970694757
 30
0.0
 11
235.9061219269017
 21
503.56431970694757
 31
0.0
  0
LINE
  5
71C5
  8
AM_0
 10
217.06609192690169
 20
564.42430970694784
 30
0.0
 11
217.06609192690169
 21
569.28428970694767
 31
0.0
  0
LINE
  5
71C6
  8
AM_0
 10
201.10607192690171
 20
564.42430970694784
 30
0.0
 11
201.10607192690171
 21
569.28428970694767
 31
0.0
  0
LINE
  5
71C7
  8
AM_0
 10
216.58611192690159
 20
564.42430970694784
 30
0.0
 11
216.58611192690159
 21
569.42430970694784
 31
0.0
  0
LINE
  5
71C8
  8
AM_0
 10
201.58611192690159
 20
564.42430970694784
 30
0.0
 11
201.58611192690159
 21
569.42430970694784
 31
0.0
  0
LINE
  5
71C9
  8
AM_0
 10
200.08611192690159
 20
570.92430970694784
 30
0.0
 11
106.6361019269018
 21
570.92430970694784
 31
0.0
  0
LINE
  5
71CA
  8
AM_0
 10
218.06609192690161
 20
570.29429970694775
 30
0.0
 11
235.9061219269017
 21
570.29429970694775
 31
0.0
  0
LINE
  5
71CB
  8
AM_0
 10
218.08611192690159
 20
563.41429970694765
 30
0.0
 11
236.1318319269017
 21
563.41429970694765
 31
0.0
  0
LINE
  5
71CC
  8
AM_0
 10
200.08611192690159
 20
562.92430970694784
 30
0.0
 11
106.6361019269018
 21
562.92430970694784
 31
0.0
  0
LINE
  5
71CD
  8
AM_0
 10
173.08611192690159
 20
557.42430970694784
 30
0.0
 11
173.08611192690159
 21
516.42430970694784
 31
0.0
  0
LINE
  5
71CE
  8
AM_0
 10
236.08611192690159
 20
557.42430970694784
 30
0.0
 11
236.08611192690159
 21
516.42430970694784
 31
0.0
  0
LINE
  5
71CF
  8
AM_0
 10
173.08611192690159
 20
557.42430970694784
 30
0.0
 11
236.08611192690159
 21
557.42430970694784
 31
0.0
  0
LINE
  5
71D0
  8
AM_0
 10
173.08611192690159
 20
516.42430970694784
 30
0.0
 11
236.08611192690159
 21
516.42430970694784
 31
0.0
  0
LINE
  5
71D1
  8
AM_0
 10
173.08611192690159
 20
549.92430970694784
 30
0.0
 11
236.08611192690159
 21
549.92430970694784
 31
0.0
  0
LINE
  5
71D2
  8
AM_0
 10
133.08611192690179
 20
583.27421970694775
 30
0.0
 11
102.08611192690159
 21
581.24421970694766
 31
0.0
  0
LINE
  5
71D3
  8
AM_0
 10
133.08611192690179
 20
490.57426970694792
 30
0.0
 11
102.08611192690159
 21
492.60426970694789
 31
0.0
  0
ARC
  5
71D4
  8
AM_0
 10
91.586601926901665
 20
486.67478970694771
 30
0.0
 40
0.49952301
 50
359.9452300000014
 51
90.054773999999625
  0
ARC
  5
71D5
  8
AM_0
 10
91.582761926901682
 20
488.82774970694771
 30
0.0
 40
0.5033929900000002
 50
270.38491000000062
 51
359.61509999999811
  0
ARC
  5
71D6
  8
AM_0
 10
91.082021926901589
 20
491.42845970694788
 30
0.0
 40
1.004119999999999
 50
270.23460999999998
 51
359.76539000000002
  0
ARC
  5
71D7
  8
AM_0
 10
91.083671926901914
 20
495.94676970694769
 30
0.0
 40
1.002470999999999
 50
270.14107000000013
 51
359.85892999999987
  0
ARC
  5
71D8
  8
AM_0
 10
88.084891926901633
 20
491.0478397069478
 30
0.0
 40
0.9987969999999998
 50
179.62728000000101
 51
238.70795000000021
  0
ARC
  5
71D9
  8
AM_0
 10
88.083851926901644
 20
492.08555970694772
 30
0.0
 40
0.9977070099999998
 50
180.074020000004
 51
242.04481000000081
  0
ARC
  5
71DA
  8
AM_0
 10
88.085201926901917
 20
495.64903970694792
 30
0.0
 40
0.9990889999999998
 50
179.6950899999965
 51
236.66209000000279
  0
ARC
  5
71DB
  8
AM_0
 10
88.084591926901822
 20
496.68357970694768
 30
0.0
 40
0.9984580299999999
 50
179.95957999999851
 51
239.38657000000219
  0
ARC
  5
71DC
  8
AM_0
 10
89.349481926901888
 20
495.94529970694788
 30
0.0
 40
1.0010449999999991
 50
240.4718699999996
 51
270.37970999999948
  0
ARC
  5
71DD
  8
AM_0
 10
89.378901926901605
 20
494.80479970694779
 30
0.0
 40
1.000521999999999
 50
237.1461799999995
 51
270.41344000000038
  0
ARC
  5
71DE
  8
AM_0
 10
89.341301926901622
 20
491.42491970694772
 30
0.0
 40
1.0006820000000001
 50
241.65062000000049
 51
269.70392999999888
  0
ARC
  5
71DF
  8
AM_0
 10
89.357471926901823
 20
490.2879497069477
 30
0.0
 40
1.0037439999999991
 50
239.3711300000019
 51
270.49190000000061
  0
ARC
  5
71E0
  8
AM_0
 10
89.331961926901783
 20
489.32359970694779
 30
0.0
 40
0.9993420200000001
 50
242.86200000000241
 51
269.6654599999984
  0
ARC
  5
71E1
  8
AM_0
 10
89.366811926901434
 20
488.1753997069477
 30
0.0
 40
1.001123999999999
 50
239.3278200000014
 51
269.38767999999868
  0
ARC
  5
71E2
  8
AM_0
 10
88.081781926901897
 20
489.95469970694768
 30
0.0
 40
0.9956849800000001
 50
180.02113
 51
243.4091400000006
  0
ARC
  5
71E3
  8
AM_0
 10
88.083731926901621
 20
488.90891970694793
 30
0.0
 40
0.9976310099999999
 50
180.2678099999986
 51
240.0792399999994
  0
ARC
  5
71E4
  8
AM_0
 10
88.084591926901822
 20
496.68357970694768
 30
0.0
 40
0.9984580299999999
 50
179.95957999999851
 51
239.38657000000219
  0
ARC
  5
71E5
  8
AM_0
 10
91.082881926901621
 20
495.95103970694771
 30
0.0
 40
1.0032760000000001
 50
334.19810000000479
 51
359.6181099999983
  0
ARC
  5
71E6
  8
AM_0
 10
91.086301926901626
 20
519.92442970694765
 30
0.0
 40
0.9998210099999999
 50
359.98971999999799
 51
90.010282000001538
  0
ARC
  5
71E7
  8
AM_0
 10
91.081171926901575
 20
523.92918970694768
 30
0.0
 40
1.004939
 50
270.2809399999997
 51
359.71907000000078
  0
ARC
  5
71E8
  8
AM_0
 10
91.086301926901626
 20
529.92442970694765
 30
0.0
 40
0.9998279799999998
 50
359.99015999999688
 51
90.009838000000187
  0
ARC
  5
71E9
  8
AM_0
 10
91.081171926901575
 20
533.9291897069478
 30
0.0
 40
1.004942999999999
 50
270.28113999999943
 51
359.71886999999822
  0
ARC
  5
71EA
  8
AM_0
 10
88.081171926901604
 20
531.9291897069478
 30
0.0
 40
0.9950770099999999
 50
89.715859999999481
 51
180.28414000000049
  0
ARC
  5
71EB
  8
AM_0
 10
88.086301926901626
 20
531.92454970694791
 30
0.0
 40
1.0002040000000001
 50
180.01165999999679
 51
269.98832000000078
  0
ARC
  5
71EC
  8
AM_0
 10
88.081171926901604
 20
521.9291897069478
 30
0.0
 40
0.9950810099999999
 50
89.716072000000082
 51
180.2839200000044
  0
ARC
  5
71ED
  8
AM_0
 10
88.086301926901626
 20
521.92454970694769
 30
0.0
 40
1.0001999999999991
 50
180.01145999999861
 51
269.98854000000142
  0
ARC
  5
71EE
  8
AM_0
 10
88.081171926901604
 20
511.92918970694762
 30
0.0
 40
0.9950849999999999
 50
89.716282999999422
 51
180.28371999999919
  0
ARC
  5
71EF
  8
AM_0
 10
88.086301926901626
 20
511.92454970694769
 30
0.0
 40
1.0001959999999981
 50
180.01124999999939
 51
269.98875000000061
  0
ARC
  5
71F0
  8
AM_0
 10
88.082631926901797
 20
502.7527997069476
 30
0.0
 40
0.9965090199999998
 50
179.9137499999965
 51
247.17844999999909
  0
ARC
  5
71F1
  8
AM_0
 10
88.082511926901617
 20
504.53868970694771
 30
0.0
 40
0.99638802
 50
180.24990999999889
 51
253.29664000000031
  0
ARC
  5
71F2
  8
AM_0
 10
89.226681926901918
 20
504.18699970694769
 30
0.0
 40
1.002699
 50
253.75271999999791
 51
270.54064000000108
  0
ARC
  5
71F3
  8
AM_0
 10
89.289121926901458
 20
502.23948970694789
 30
0.0
 40
1.005233
 50
246.98639000000031
 51
269.82924999999938
  0
ARC
  5
71F4
  8
AM_0
 10
91.386651926901607
 20
500.53489970694773
 30
0.0
 40
0.6994530000000001
 50
359.95517000000092
 51
90.044829000000746
  0
ARC
  5
71F5
  8
AM_0
 10
91.086301926901626
 20
509.92442970694782
 30
0.0
 40
0.9998239899999999
 50
359.98991999999532
 51
90.01007700000045
  0
ARC
  5
71F6
  8
AM_0
 10
91.081171926901575
 20
513.92918970694745
 30
0.0
 40
1.0049469
 50
270.28136999999919
 51
359.71863000000081
  0
ARC
  5
71F7
  8
AM_0
 10
91.082761926901441
 20
504.1876097069478
 30
0.0
 40
1.003352
 50
270.19111000000021
 51
359.80890000000107
  0
ARC
  5
71F8
  8
AM_0
 10
91.581531926901619
 20
587.17893970694763
 30
0.0
 40
0.50463498
 50
270.52383000000037
 51
359.47616999999963
  0
ARC
  5
71F9
  8
AM_0
 10
91.587821926901853
 20
585.02598970694783
 30
0.0
 40
0.4983060100000002
 50
359.80488999999778
 51
90.195107000000036
  0
ARC
  5
71FA
  8
AM_0
 10
91.087091926902005
 20
582.42527970694789
 30
0.0
 40
0.9990100299999999
 50
359.94319000000121
 51
90.056809000000058
  0
ARC
  5
71FB
  8
AM_0
 10
91.381581926901873
 20
573.31883970694776
 30
0.0
 40
0.704566
 50
270.37010000000009
 51
359.62990999999778
  0
ARC
  5
71FC
  8
AM_0
 10
91.083791926901483
 20
577.91197970694782
 30
0.0
 40
1.002353
 50
0.1343268199984526
 51
89.865672999999376
  0
ARC
  5
71FD
  8
AM_0
 10
91.087821926901881
 20
569.66599970694779
 30
0.0
 40
0.9982839799999999
 50
359.90142000000009
 51
90.098576000001358
  0
ARC
  5
71FE
  8
AM_0
 10
91.081171926901575
 20
563.9291897069478
 30
0.0
 40
1.004942999999999
 50
270.28111000000013
 51
359.71888999999987
  0
ARC
  5
71FF
  8
AM_0
 10
91.086301926901626
 20
559.92442970694776
 30
0.0
 40
0.9998289899999999
 50
359.99019000000038
 51
90.009811000000937
  0
ARC
  5
7200
  8
AM_0
 10
91.081171926901575
 20
553.92918970694757
 30
0.0
 40
1.004939
 50
270.2809100000008
 51
359.71909999999991
  0
ARC
  5
7201
  8
AM_0
 10
91.086301926901626
 20
549.92442970694765
 30
0.0
 40
0.9998210099999999
 50
359.98975000000149
 51
90.010254999998992
  0
ARC
  5
7202
  8
AM_0
 10
91.081171926901575
 20
543.9291897069478
 30
0.0
 40
1.0049469
 50
270.28135000000037
 51
359.71866000000068
  0
ARC
  5
7203
  8
AM_0
 10
91.086301926901626
 20
539.92442970694765
 30
0.0
 40
0.9998249999999999
 50
359.98994999999883
 51
90.010050000001243
  0
ARC
  5
7204
  8
AM_0
 10
88.086301926901626
 20
541.92454970694791
 30
0.0
 40
1.0001959999999981
 50
180.0112199999958
 51
269.98878000000087
  0
ARC
  5
7205
  8
AM_0
 10
88.081171926901604
 20
541.92918970694757
 30
0.0
 40
0.9950849999999999
 50
89.716311000000914
 51
180.28368999999961
  0
ARC
  5
7206
  8
AM_0
 10
88.086301926901626
 20
551.92454970694791
 30
0.0
 40
1.0001999999999991
 50
180.01143000000161
 51
269.98856999999839
  0
ARC
  5
7207
  8
AM_0
 10
88.081171926901604
 20
551.9291897069478
 30
0.0
 40
0.99508202
 50
89.716099000001435
 51
180.2839099999978
  0
ARC
  5
7208
  8
AM_0
 10
88.086301926901626
 20
561.9245497069478
 30
0.0
 40
1.000203
 50
180.01164999999551
 51
269.98835000000122
  0
ARC
  5
7209
  8
AM_0
 10
88.081171926901604
 20
561.92918970694757
 30
0.0
 40
0.99507803
 50
89.715887000001331
 51
180.28410999999991
  0
ARC
  5
720A
  8
AM_0
 10
88.082511926901617
 20
571.10581970694784
 30
0.0
 40
0.9963999999999998
 50
112.8173600000008
 51
180.0904199999996
  0
ARC
  5
720B
  8
AM_0
 10
88.082391926901821
 20
569.32005970694775
 30
0.0
 40
0.9962710099999999
 50
106.6979199999999
 51
180.33004999999989
  0
ARC
  5
720C
  8
AM_0
 10
89.22527192690147
 20
569.67161970694781
 30
0.0
 40
0.9927430199999999
 50
89.374554999998736
 51
106.33207000000171
  0
ARC
  5
720D
  8
AM_0
 10
89.287101926901698
 20
571.61888970694781
 30
0.0
 40
0.9954450099999999
 50
90.056904999999645
 51
113.1274500000013
  0
ARC
  5
720E
  8
AM_0
 10
88.080561926901453
 20
582.80332970694758
 30
0.0
 40
0.9944329899999999
 50
121.1521299999998
 51
179.94050999999911
  0
ARC
  5
720F
  8
AM_0
 10
88.079341926901805
 20
581.76573970694778
 30
0.0
 40
0.9932109699999999
 50
117.79932000000061
 51
180.08187000000001
  0
ARC
  5
7210
  8
AM_0
 10
88.080921926901794
 20
578.20188970694778
 30
0.0
 40
0.9948369899999999
 50
123.20496000000099
 51
180.43785999999801
  0
ARC
  5
7211
  8
AM_0
 10
88.080131926901629
 20
577.16746970694783
 30
0.0
 40
0.99404597
 50
120.4681999999988
 51
180.18564000000021
  0
ARC
  5
7212
  8
AM_0
 10
89.365531926901568
 20
577.91783970694792
 30
0.0
 40
0.99648702
 50
90.540720999998641
 51
120.74377000000059
  0
ARC
  5
7213
  8
AM_0
 10
89.392751926901667
 20
579.05808970694784
 30
0.0
 40
0.99617702
 50
90.381317999999226
 51
123.9704899999999
  0
ARC
  5
7214
  8
AM_0
 10
89.321221926901629
 20
582.42893970694763
 30
0.0
 40
0.99545902
 50
89.141290999999924
 51
117.2038199999995
  0
ARC
  5
7215
  8
AM_0
 10
89.354971926901683
 20
583.57005970694775
 30
0.0
 40
0.99427301
 50
89.356066000000013
 51
120.7809100000017
  0
ARC
  5
7216
  8
AM_0
 10
89.310911926901625
 20
584.5302597069475
 30
0.0
 40
0.99411702
 50
89.122643999998516
 51
115.9349799999988
  0
ARC
  5
7217
  8
AM_0
 10
89.34814192690186
 20
585.67845970694782
 30
0.0
 40
0.9959030199999999
 50
89.541266999999124
 51
119.6071699999994
  0
ARC
  5
7218
  8
AM_0
 10
88.081721926901494
 20
583.90403970694786
 30
0.0
 40
0.995579
 50
116.5870900000007
 51
179.98263999999989
  0
ARC
  5
7219
  8
AM_0
 10
88.079341926901805
 20
584.94224970694756
 30
0.0
 40
0.99319202
 50
119.77338000000169
 51
179.87958999999799
  0
ARC
  5
721A
  8
AM_0
 10
105.2269219269015
 20
495.7139797069475
 30
0.0
 40
1.0032491999999991
 50
314.98118999999758
 51
5.167643400001003
  0
ARC
  5
721B
  8
AM_0
 10
240.08593192690171
 20
599.4245497069478
 30
0.0
 40
0.99980682
 50
89.98893100000069
 51
180.0110699999974
  0
ARC
  5
721C
  8
AM_0
 10
231.8873819269017
 20
477.0705497069477
 30
0.0
 40
2.0062942999999991
 50
270.24932999999891
 51
345.08844000000403
  0
ARC
  5
721D
  8
AM_0
 10
240.0852019269017
 20
587.96519970694783
 30
0.0
 40
0.9990923399999999
 50
89.947921999999295
 51
180.05208000000431
  0
ARC
  5
721E
  8
AM_0
 10
114.0789119269016
 20
541.92430970694784
 30
0.0
 40
1.0000259
 50
89.587534000000232
 51
270.4124599999987
  0
ARC
  5
721F
  8
AM_0
 10
106.04559192690159
 20
587.91905970694756
 30
0.0
 40
1.9952742999999991
 50
90.148580000000095
 51
170.03521999999899
  0
ARC
  5
7220
  8
AM_0
 10
105.98345192690159
 20
593.19724970694779
 30
0.0
 40
1.997119399999999
 50
89.801366999998493
 51
167.94475999999821
  0
ARC
  5
7221
  8
AM_0
 10
101.6029619269016
 20
589.46665970694778
 30
0.0
 40
1.502416299999999
 50
269.90137999999882
 51
347.60813000000093
  0
ARC
  5
7222
  8
AM_0
 10
98.216361926901726
 20
596.60203970694761
 30
0.0
 40
1.9922863
 50
90.007721000000544
 51
166.8783899999971
  0
ARC
  5
7223
  8
AM_0
 10
93.891351926902004
 20
593.52915970694755
 30
0.0
 40
1.5048382
 50
270.18264000000067
 51
346.75308000000138
  0
ARC
  5
7224
  8
AM_0
 10
93.905691926901838
 20
595.54966970694784
 30
0.0
 40
1.505448699999999
 50
270.39686999999992
 51
345.95247000000012
  0
ARC
  5
7225
  8
AM_0
 10
98.190971926901796
 20
598.22972970694764
 30
0.0
 40
1.994612099999999
 50
89.851991999999015
 51
165.93885999999711
  0
ARC
  5
7226
  8
AM_0
 10
115.0794019269016
 20
596.79099970694779
 30
0.0
 40
1.9933081999999991
 50
89.807323000000935
 51
180.19266999999849
  0
ARC
  5
7227
  8
AM_0
 10
115.0802519269016
 20
598.82017970694778
 30
0.0
 40
1.994130499999996
 50
89.831105999999224
 51
180.16889000000049
  0
ARC
  5
7228
  8
AM_0
 10
115.0826319269018
 20
600.17784970694765
 30
0.0
 40
1.996488899999999
 50
89.899147999998391
 51
180.10084999999879
  0
ARC
  5
7229
  8
AM_0
 10
115.07989192690189
 20
600.84776970694782
 30
0.0
 40
1.9964978999999961
 50
89.821482000000245
 51
165.6006099999997
  0
ARC
  5
722A
  8
AM_0
 10
111.58239192690181
 20
591.41807970694765
 30
0.0
 40
1.5037541000000001
 50
270.14287000000093
 51
359.85713999999848
  0
ARC
  5
722B
  8
AM_0
 10
111.58123192690169
 20
596.69920970694761
 30
0.0
 40
1.504891299999997
 50
270.1859300000005
 51
359.81406999999621
  0
ARC
  5
722C
  8
AM_0
 10
111.5792219269016
 20
600.10118970694782
 30
0.0
 40
1.506942899999999
 50
270.26336999999921
 51
359.73663000000079
  0
ARC
  5
722D
  8
AM_0
 10
111.6910319269019
 20
601.72947970694747
 30
0.0
 40
1.505230099999999
 50
270.19421
 51
345.17177999999871
  0
ARC
  5
722E
  8
AM_0
 10
238.73626192690159
 20
584.77659970694788
 30
0.0
 40
1.5022733999999991
 50
195.1365099999966
 51
269.99412000000041
  0
ARC
  5
722F
  8
AM_0
 10
231.89556192690171
 20
596.78514970694789
 30
0.0
 40
1.9991226
 50
15.05079100000003
 51
89.984388999999666
  0
ARC
  5
7230
  8
AM_0
 10
240.0790919269017
 20
474.41734970694768
 30
0.0
 40
0.99304521
 50
179.5973099999994
 51
270.40268000000009
  0
ARC
  5
7231
  8
AM_0
 10
240.0784219269016
 20
485.8766997069477
 30
0.0
 40
0.99237448
 50
179.55801999999801
 51
270.4419699999998
  0
ARC
  5
7232
  8
AM_0
 10
238.79180192690171
 20
589.46458970694766
 30
0.0
 40
1.500286
 50
192.32631000000171
 51
270.16416999999848
  0
ARC
  5
7233
  8
AM_0
 10
101.24169192690159
 20
578.51853970694765
 30
0.0
 40
5.0059714
 50
279.71098000000109
 51
354.67888000000482
  0
ARC
  5
7234
  8
AM_0
 10
101.7070819269014
 20
574.59178970694791
 30
0.0
 40
6.0044340999999992
 50
45.225578000001079
 51
86.380821999999185
  0
ARC
  5
7235
  8
AM_0
 10
105.2280819269016
 20
578.1450097069478
 30
0.0
 40
1.002184699999999
 50
354.8038600000034
 51
45.047306999998277
  0
ARC
  5
7236
  8
AM_0
 10
101.7058019269016
 20
499.26963970694771
 30
0.0
 40
6.0073843
 50
273.6297400000006
 51
314.76385000000192
  0
ARC
  5
7237
  8
AM_0
 10
101.2489519269015
 20
495.3357997069478
 30
0.0
 40
4.9991421999999961
 50
5.3780268999992682
 51
80.360064999998514
  0
ARC
  5
7238
  8
AM_0
 10
98.222951926901871
 20
477.25486970694777
 30
0.0
 40
2.0005671999999981
 50
193.3095900000024
 51
269.80430999999942
  0
ARC
  5
7239
  8
AM_0
 10
93.899351926901488
 20
480.32664970694771
 30
0.0
 40
1.497715799999999
 50
13.424378999996071
 51
90.122645000001114
  0
ARC
  5
723A
  8
AM_0
 10
93.913811926901701
 20
478.30601970694772
 30
0.0
 40
1.4982997
 50
14.229739999998021
 51
89.910950000001179
  0
ARC
  5
723B
  8
AM_0
 10
115.0861719269016
 20
477.06431970694757
 30
0.0
 40
2.0000371999999991
 50
180.0010599999959
 51
269.99892999999969
  0
ARC
  5
723C
  8
AM_0
 10
115.0870319269015
 20
475.03526970694787
 30
0.0
 40
2.0009109999999981
 50
180.00001000000091
 51
269.97390999999988
  0
ARC
  5
723D
  8
AM_0
 10
111.5841619269017
 20
482.44236970694777
 30
0.0
 40
1.501982699999999
 50
0.0755872020005832
 51
89.924413000001564
  0
ARC
  5
723E
  8
AM_0
 10
111.5830019269019
 20
477.16111970694777
 30
0.0
 40
1.503128599999999
 50
0.1191296500022061
 51
89.880869999998822
  0
ARC
  5
723F
  8
AM_0
 10
238.72973192690159
 20
489.08055970694772
 30
0.0
 40
1.4937901
 50
89.756423999998475
 51
165.1129200000008
  0
ARC
  5
7240
  8
AM_0
 10
114.0789119269016
 20
551.92430970694784
 30
0.0
 40
1.0000259
 50
89.587534000000232
 51
270.4124599999987
  0
ARC
  5
7241
  8
AM_0
 10
114.0789119269016
 20
561.92430970694784
 30
0.0
 40
1.0000259
 50
89.587534000000232
 51
270.4124599999987
  0
ARC
  5
7242
  8
AM_0
 10
114.0789119269016
 20
571.92430970694784
 30
0.0
 40
1.0000259
 50
89.587534000000232
 51
270.4124599999987
  0
ARC
  5
7243
  8
AM_0
 10
96.347891926901696
 20
541.9343197069478
 30
0.0
 40
1.2700266
 50
89.629327999999504
 51
270.37065999999959
  0
ARC
  5
7244
  8
AM_0
 10
96.409841926901834
 20
551.9393197069478
 30
0.0
 40
1.3350147999999991
 50
89.730435000000341
 51
270.2695700000001
  0
ARC
  5
7245
  8
AM_0
 10
105.54040192690159
 20
561.95433970694785
 30
0.0
 40
1.460011199999999
 50
89.775248000001255
 51
270.22474000000028
  0
ARC
  5
7246
  8
AM_0
 10
105.75610192690171
 20
571.97434970694746
 30
0.0
 40
1.6800002000000001
 50
90.000003000000945
 51
270.0
  0
ARC
  5
7247
  8
AM_0
 10
97.636101926901645
 20
541.92430970694784
 30
0.0
 40
1.0000056999999991
 50
90.000003000000945
 51
270.0
  0
ARC
  5
7248
  8
AM_0
 10
97.636101926901645
 20
551.92430970694784
 30
0.0
 40
1.0000056999999991
 50
90.000003000000945
 51
270.0
  0
ARC
  5
7249
  8
AM_0
 10
106.6289619269014
 20
571.92430970694784
 30
0.0
 40
1.0000255999999981
 50
89.589474000000749
 51
270.41051999999962
  0
ARC
  5
724A
  8
AM_0
 10
106.6289619269014
 20
561.92430970694784
 30
0.0
 40
1.0000255999999981
 50
89.589474000000749
 51
270.41051999999962
  0
ARC
  5
724B
  8
AM_0
 10
235.9061219269017
 20
571.97434970694746
 30
0.0
 40
1.6800077
 50
269.999989999999
 51
90.000003000000945
  0
ARC
  5
724C
  8
AM_0
 10
232.42608192690159
 20
571.92430970694784
 30
0.0
 40
1.0000040999999991
 50
269.999989999999
 51
90.000003000000945
  0
ARC
  5
724D
  8
AM_0
 10
232.42608192690159
 20
501.92430970694772
 30
0.0
 40
1.0000040999999991
 50
269.999989999999
 51
90.000003000000945
  0
ARC
  5
724E
  8
AM_0
 10
235.9061219269017
 20
501.88426970694769
 30
0.0
 40
1.6800077
 50
269.999989999999
 51
90.000003000000945
  0
ARC
  5
724F
  8
AM_0
 10
97.636101926901645
 20
531.92430970694784
 30
0.0
 40
1.0000056999999991
 50
90.000003000000945
 51
270.0
  0
ARC
  5
7250
  8
AM_0
 10
114.0789119269016
 20
521.92430970694784
 30
0.0
 40
1.0000259
 50
89.587534000000232
 51
270.4124599999987
  0
ARC
  5
7251
  8
AM_0
 10
114.0789119269016
 20
511.92430970694772
 30
0.0
 40
1.0000259
 50
89.587534000000232
 51
270.4124599999987
  0
ARC
  5
7252
  8
AM_0
 10
96.409841926901834
 20
521.91429970694799
 30
0.0
 40
1.3300148000000001
 50
89.729417999999541
 51
270.27058999999991
  0
ARC
  5
7253
  8
AM_0
 10
114.0789119269016
 20
531.92430970694784
 30
0.0
 40
1.0000259
 50
89.587534000000232
 51
270.4124599999987
  0
ARC
  5
7254
  8
AM_0
 10
114.0789119269016
 20
501.92430970694772
 30
0.0
 40
1.0000259
 50
89.587534000000232
 51
270.4124599999987
  0
ARC
  5
7255
  8
AM_0
 10
96.347891926901696
 20
531.92430970694784
 30
0.0
 40
1.2700266
 50
89.629320999999507
 51
270.3706899999986
  0
ARC
  5
7256
  8
AM_0
 10
97.636101926901645
 20
521.92430970694784
 30
0.0
 40
1.0000056999999991
 50
90.000003000000945
 51
270.0
  0
ARC
  5
7257
  8
AM_0
 10
101.81927192690161
 20
584.18431970694758
 30
0.0
 40
1.5
 50
280.24789000000129
 51
349.76261999999917
  0
ARC
  5
7258
  8
AM_0
 10
101.81927192690161
 20
489.6642997069477
 30
0.0
 40
1.5
 50
10.237378999998541
 51
79.752109999998723
  0
ARC
  5
7259
  8
AM_0
 10
106.04559192690159
 20
485.92954970694791
 30
0.0
 40
1.9952742999999991
 50
189.9647800000009
 51
269.85141999999991
  0
ARC
  5
725A
  8
AM_0
 10
101.6029619269016
 20
484.38194970694769
 30
0.0
 40
1.502416299999999
 50
12.391887000000411
 51
90.098616999999123
  0
ARC
  5
725B
  8
AM_0
 10
105.98345192690159
 20
480.65135970694791
 30
0.0
 40
1.997119399999999
 50
192.0552400000017
 51
270.1986299999989
  0
ARC
  5
725C
  8
AM_0
 10
105.75610192690171
 20
501.87425970694773
 30
0.0
 40
1.6800002000000001
 50
90.000003000000945
 51
270.0
  0
ARC
  5
725D
  8
AM_0
 10
106.6289619269014
 20
501.92430970694772
 30
0.0
 40
1.0000255999999981
 50
89.589474000000749
 51
270.41051999999962
  0
ARC
  5
725E
  8
AM_0
 10
106.6289619269014
 20
511.92430970694772
 30
0.0
 40
1.0000255999999981
 50
89.589474000000749
 51
270.41051999999962
  0
ARC
  5
725F
  8
AM_0
 10
105.54040192690159
 20
511.89427970694771
 30
0.0
 40
1.460011199999999
 50
89.775248000001255
 51
270.22474000000028
  0
ARC
  5
7260
  8
AM_0
 10
156.4124719269017
 20
471.53428970694767
 30
0.0
 40
1.5
 50
1.5000027000022329
 51
90.000003000000945
  0
ARC
  5
7261
  8
AM_0
 10
231.1022919269017
 20
468.42430970694772
 30
0.0
 40
1.5
 50
269.999989999999
 51
326.99999999999892
  0
ARC
  5
7262
  8
AM_0
 10
219.59972192690171
 20
465.42430970694772
 30
0.0
 40
1.5
 50
90.000003000000945
 51
178.4999999999973
  0
ARC
  5
7263
  8
AM_0
 10
233.60607192690171
 20
599.31431970694769
 30
0.0
 40
1.5
 50
12.12979199999535
 51
90.000003000000945
  0
ARC
  5
7264
  8
AM_0
 10
233.31377192690169
 20
600.67430970694784
 30
0.0
 40
1.5
 50
12.12979199999535
 51
90.000003000000945
  0
ARC
  5
7265
  8
AM_0
 10
233.1697319269017
 20
601.34434970694781
 30
0.0
 40
1.5
 50
12.12979199999535
 51
90.000003000000945
  0
ARC
  5
7266
  8
AM_0
 10
236.12609192690169
 20
511.89427970694771
 30
0.0
 40
1.460011199999999
 50
269.77524999999991
 51
90.224750000000114
  0
ARC
  5
7267
  8
AM_0
 10
232.42608192690159
 20
511.92430970694772
 30
0.0
 40
1.0000255999999981
 50
269.58947000000001
 51
90.410531000001029
  0
ARC
  5
7268
  8
AM_0
 10
236.12609192690169
 20
561.95433970694785
 30
0.0
 40
1.460011199999999
 50
269.77524999999991
 51
90.224750000000114
  0
ARC
  5
7269
  8
AM_0
 10
232.42608192690159
 20
561.92430970694784
 30
0.0
 40
1.0000255999999981
 50
269.58947000000001
 51
90.410531000001029
  0
ARC
  5
726A
  8
AM_0
 10
168.75109192690161
 20
551.9393197069478
 30
0.0
 40
1.3350147999999991
 50
269.7304299999999
 51
90.269556000001344
  0
ARC
  5
726B
  8
AM_0
 10
167.52483192690181
 20
551.92430970694784
 30
0.0
 40
1.0000056999999991
 50
269.999989999999
 51
90.000003000000945
  0
ARC
  5
726C
  8
AM_0
 10
167.52483192690181
 20
541.92430970694784
 30
0.0
 40
1.0000056999999991
 50
269.999989999999
 51
90.000003000000945
  0
ARC
  5
726D
  8
AM_0
 10
168.81304192690169
 20
541.9343197069478
 30
0.0
 40
1.2700266
 50
269.62932000000001
 51
90.370670000001468
  0
ARC
  5
726E
  8
AM_0
 10
167.52483192690181
 20
531.92430970694784
 30
0.0
 40
1.0000056999999991
 50
269.999989999999
 51
90.000003000000945
  0
ARC
  5
726F
  8
AM_0
 10
168.81304192690169
 20
531.92430970694784
 30
0.0
 40
1.2700266
 50
269.62932000000001
 51
90.370670000001468
  0
ARC
  5
7270
  8
AM_0
 10
167.52483192690181
 20
521.92430970694784
 30
0.0
 40
1.0000056999999991
 50
269.999989999999
 51
90.000003000000945
  0
ARC
  5
7271
  8
AM_0
 10
168.75109192690161
 20
521.91429970694799
 30
0.0
 40
1.3300148000000001
 50
269.7294199999987
 51
90.270567000000995
  0
ARC
  5
7272
  8
AM_0
 10
218.08611192690159
 20
509.42430970694772
 30
0.0
 40
1.5
 50
90.000003000000945
 51
180.00001000000091
  0
ARC
  5
7273
  8
AM_0
 10
218.08611192690159
 20
504.42430970694772
 30
0.0
 40
1.5
 50
179.999989999999
 51
270.0
  0
ARC
  5
7274
  8
AM_0
 10
200.08611192690159
 20
509.42430970694772
 30
0.0
 40
1.5
 50
0.0
 51
90.000003000000945
  0
ARC
  5
7275
  8
AM_0
 10
200.08611192690159
 20
504.42430970694772
 30
0.0
 40
1.5
 50
269.999989999999
 51
0.0000006832495047
  0
ARC
  5
7276
  8
AM_0
 10
218.08611192690159
 20
509.42430970694772
 30
0.0
 40
1.02
 50
90.000003000000945
 51
180.00001000000091
  0
ARC
  5
7277
  8
AM_0
 10
200.08611192690159
 20
509.42430970694772
 30
0.0
 40
1.02
 50
0.0
 51
90.000003000000945
  0
ARC
  5
7278
  8
AM_0
 10
200.10607192690171
 20
504.56431970694791
 30
0.0
 40
1.0
 50
269.999989999999
 51
0.0000006832495047
  0
ARC
  5
7279
  8
AM_0
 10
218.06609192690161
 20
504.56431970694791
 30
0.0
 40
1.0
 50
179.999989999999
 51
270.0
  0
CIRCLE
  5
727A
  8
AM_0
 10
206.58611192690159
 20
508.42430970694772
 30
0.0
 40
1.1000000000000001
  0
CIRCLE
  5
727B
  8
AM_0
 10
206.58611192690159
 20
508.42430970694772
 30
0.0
 40
1.149999999999999
  0
CIRCLE
  5
727C
  8
AM_0
 10
211.58611192690159
 20
508.42430970694772
 30
0.0
 40
1.0
  0
ARC
  5
727D
  8
AM_0
 10
218.08611192690159
 20
564.42430970694784
 30
0.0
 40
1.5
 50
179.999989999999
 51
270.0
  0
ARC
  5
727E
  8
AM_0
 10
218.08611192690159
 20
569.42430970694784
 30
0.0
 40
1.5
 50
90.000003000000945
 51
180.00001000000091
  0
ARC
  5
727F
  8
AM_0
 10
200.08611192690159
 20
564.42430970694784
 30
0.0
 40
1.5
 50
269.999989999999
 51
0.0000006832495047
  0
ARC
  5
7280
  8
AM_0
 10
200.08611192690159
 20
569.42430970694784
 30
0.0
 40
1.5
 50
0.0
 51
90.000003000000945
  0
ARC
  5
7281
  8
AM_0
 10
218.08611192690159
 20
564.42430970694784
 30
0.0
 40
1.02
 50
179.999989999999
 51
270.0
  0
ARC
  5
7282
  8
AM_0
 10
200.08611192690159
 20
564.42430970694784
 30
0.0
 40
1.02
 50
269.999989999999
 51
0.0000006832429909
  0
ARC
  5
7283
  8
AM_0
 10
200.10607192690171
 20
569.28428970694767
 30
0.0
 40
1.0
 50
0.0
 51
90.000003000000945
  0
ARC
  5
7284
  8
AM_0
 10
218.06609192690161
 20
569.28428970694767
 30
0.0
 40
1.0
 50
90.000003000000945
 51
180.00001000000091
  0
CIRCLE
  5
7285
  8
AM_0
 10
211.58611192690159
 20
565.42430970694784
 30
0.0
 40
1.0
  0
CIRCLE
  5
7286
  8
AM_0
 10
206.58611192690159
 20
565.42430970694784
 30
0.0
 40
1.149999999999999
  0
CIRCLE
  5
7287
  8
AM_0
 10
206.58611192690159
 20
565.42430970694784
 30
0.0
 40
1.1000000000000001
  0
ARC
  5
7288
  8
AM_0
 10
97.786741926901698
 20
477.25425970694772
 30
0.0
 40
2.0
 50
194.15074999999919
 51
269.999989999999
  0
ARC
  5
7289
  8
AM_0
 10
111.828851926902
 20
473.75425970694761
 30
0.0
 40
1.5
 50
21.46170899999715
 51
90.000003000000945
  0
LINE
  5
728B
  8
AM_0
 10
218.1122617759425
 20
462.92430970694789
 30
0.0
 11
218.43018772963671
 21
475.0643197069478
 31
0.0
  0
LINE
  5
728C
  8
AM_0
 10
158.05982978070179
 20
462.92430970694789
 30
0.0
 11
157.7419877992713
 21
475.0643197069478
 31
0.0
  0
LINE
  5
728D
  8
AM_0
 10
154.58607192690181
 20
460.92430970694772
 30
0.0
 11
221.58607192690201
 21
460.92430970694772
 31
0.0
  0
LINE
  5
728E
  8
AM_0
 10
154.58607192690181
 20
459.92430970694789
 30
0.0
 11
154.58607192690181
 21
460.92430970694772
 31
0.0
  0
LINE
  5
728F
  8
AM_0
 10
221.58607192690201
 20
459.92430970694789
 30
0.0
 11
221.58607192690201
 21
460.92430970694772
 31
0.0
  0
LINE
  5
7290
  8
AM_0
 10
140.08607192690189
 20
421.92430970694778
 30
0.0
 11
141.3456570631642
 21
457.99410870035268
 31
0.0
  0
LINE
  5
7291
  8
AM_0
 10
143.34443871720251
 20
459.92430970694789
 30
0.0
 11
232.82770513660151
 21
459.92430970694789
 31
0.0
  0
ARC
  5
7292
  8
AM_0
 10
143.34443871720251
 20
457.92430970694772
 30
0.0
 40
2.0
 50
90.0
 51
178.0000000000029
1001
GENIUS_GENODEF_13
1002
{
1000
HIER
1070
     0
1002
}
1002
{
1000
MANEDIT
1070
     0
1002
}
1002
{
1000
NOSEL
1070
     0
1002
}
1002
{
1000
BEHIND
1070
     0
1002
}
1002
{
1000
OTHER
1070
     0
1002
}
1002
{
1000
REACTOR
1002
}
1001
GENIUS_GENOBJ-N-FIL_13
1002
{
1000
OWNER
1000
GEN
1002
}
  0
LINE
  5
7293
  8
AM_0
 10
234.82648679063979
 20
457.99410870035268
 30
0.0
 11
236.08607192690209
 21
421.92430970694789
 31
0.0
  0
ARC
  5
7294
  8
AM_0
 10
232.82770513660151
 20
457.92430970694772
 30
0.0
 40
2.0
 50
1.9999999999971021
 51
90.0
1001
GENIUS_GENOBJ-N-FIL_13
1002
{
1000
OWNER
1000
GEN
1002
}
1001
GENIUS_GENODEF_13
1002
{
1000
HIER
1070
     0
1002
}
1002
{
1000
MANEDIT
1070
     0
1002
}
1002
{
1000
NOSEL
1070
     0
1002
}
1002
{
1000
BEHIND
1070
     0
1002
}
1002
{
1000
OTHER
1070
     0
1002
}
1002
{
1000
REACTOR
1002
}
  0
LINE
  5
7295
  8
AM_0
 10
236.08607192690209
 20
421.92430970694789
 30
0.0
 11
140.08607192690161
 21
421.92430970694778
 31
0.0
  0
LINE
  5
7296
  8
AM_0
 10
140.19083423537711
 20
424.9243097069475
 30
0.0
 11
139.08607192690181
 21
424.9243097069475
 31
0.0
  0
LINE
  5
7297
  8
AM_0
 10
141.30829885911311
 20
456.92430970694772
 30
0.0
 11
139.08607192690181
 21
456.92430970694772
 31
0.0
  0
LINE
  5
7298
  8
ﾁｭｳｼﾝｾﾝ1
 10
145.08607192690241
 20
411.6596022069478
 30
0.0
 11
145.0860719269026
 21
424.6596022069478
 31
0.0
  0
LINE
  5
7299
  8
ﾁｭｳｼﾝｾﾝ
 10
188.08607192690189
 20
467.2163403801768
 30
0.0
 11
188.08607192690189
 21
409.47378706613853
 31
0.0
  0
LINE
  5
729A
  8
AM_0
 10
136.58607192690181
 20
427.42430970694772
 30
0.0
 11
139.08607192690181
 21
427.42430970694733
 31
0.0
  0
LINE
  5
729B
  8
AM_0
 10
139.08607192690181
 20
454.42430970694738
 30
0.0
 11
136.58607192690181
 21
454.4243097069475
 31
0.0
  0
LINE
  5
729C
  8
AM_0
 10
125.687400830556
 20
451.42430970694761
 30
0.0
 11
125.687400830556
 21
430.42430970694761
 31
0.0
  0
LINE
  5
729D
  8
AM_0
 10
110.687400830556
 20
432.89268465293242
 30
0.0
 11
110.687400830556
 21
448.95593476096337
 31
0.0
  0
LINE
  5
729E
  8
AM_0
 10
123.687400830556
 20
452.92430970694772
 30
0.0
 11
123.687400830556
 21
428.9243097069475
 31
0.0
  0
LINE
  5
729F
  8
AM_0
 10
114.187400830556
 20
440.92430970694761
 30
0.0
 11
114.687400830556
 21
441.4243097069475
 31
0.0
  0
LINE
  5
72A0
  8
AM_0
 10
121.187400830556
 20
429.22430970694762
 30
0.0
 11
121.187400830556
 21
452.62430970694737
 31
0.0
  0
LINE
  5
72A1
  8
AM_0
 10
131.08607192690181
 20
429.4243097069475
 30
0.0
 11
131.08607192690181
 21
452.42430970694772
 31
0.0
  0
LINE
  5
72A2
  8
AM_0
 10
125.187400830556
 20
441.62430970694948
 30
0.0
 11
125.187400830556
 21
440.22430970694643
 31
0.0
  0
LINE
  5
72A3
  8
AM_0
 10
127.2870365571268
 20
450.02430970694758
 30
0.0
 11
126.53703655712791
 21
431.82430970694742
 31
0.0
  0
LINE
  5
72A4
  8
AM_0
 10
126.33607192690179
 20
450.02430970694758
 30
0.0
 11
125.687400830556
 21
434.2832244356315
 31
0.0
  0
LINE
  5
72A5
  8
AM_0
 10
127.0847645174739
 20
450.73996841931148
 30
0.0
 11
126.3375044740659
 21
431.1119379457806
 31
0.0
  0
LINE
  5
72A6
  8
AM_0
 10
126.53560400996381
 20
450.73668146811542
 30
0.0
 11
125.78703655712791
 21
431.07430970694742
 31
0.0
  0
LINE
  5
72A7
  8
AM_0
 10
123.687400830556
 20
428.9243097069475
 30
0.0
 11
121.4874008305559
 21
428.9243097069475
 31
0.0
  0
ARC
  5
72A8
  8
AM_0
 10
135.58607192690181
 20
428.42430970694761
 30
0.0
 40
0.5
 50
0.0
 51
90.000000000013017
  0
ARC
  5
72A9
  8
AM_0
 10
136.58607192690181
 20
427.92430970694772
 30
0.0
 40
0.5
 50
180.0
 51
270.0
  0
LINE
  5
72AA
  8
AM_0
 10
136.08607192690181
 20
428.42430970694761
 30
0.0
 11
136.08607192690181
 21
427.92430970694772
 31
0.0
  0
LINE
  5
72AB
  8
AM_0
 10
127.08607192690179
 20
431.82430970694742
 30
0.0
 11
130.58607192690181
 21
431.82430970694742
 31
0.0
  0
LINE
  5
72AC
  8
AM_0
 10
136.08607192690181
 20
430.06823838554078
 30
0.0
 11
136.08607192690181
 21
439.78038102835541
 31
0.0
  0
LINE
  5
72AD
  8
AM_0
 10
131.58607192690181
 20
428.9243097069475
 30
0.0
 11
135.58607192690181
 21
428.9243097069475
 31
0.0
  0
LINE
  5
72AE
  8
AM_0
 10
135.58607192690181
 20
429.56823838554078
 30
0.0
 11
131.08607192690181
 21
429.56823838554078
 31
0.0
  0
ARC
  5
72AF
  8
AM_0
 10
135.58607192690181
 20
430.06823838554078
 30
0.0
 40
0.5
 50
270.0
 51
0.0
  0
ARC
  5
72B0
  8
AM_0
 10
130.58607192690181
 20
431.32430970694759
 30
0.0
 40
0.5
 50
0.0
 51
90.0
  0
ARC
  5
72B1
  8
AM_0
 10
131.58607192690181
 20
429.4243097069475
 30
0.0
 40
0.5
 50
180.0
 51
270.0
  0
LINE
  5
72B2
  8
AM_0
 10
135.58607192690181
 20
440.28038102835541
 30
0.0
 11
131.08607192690181
 21
440.28038102835541
 31
0.0
  0
ARC
  5
72B3
  8
AM_0
 10
135.58607192690181
 20
439.78038102835569
 30
0.0
 40
0.5
 50
0.0
 51
90.0
  0
LINE
  5
72B4
  8
AM_0
 10
125.187400830556
 20
434.77913895465542
 30
0.0
 11
125.187400830556
 21
435.95138214108829
 31
0.0
  0
LINE
  5
72B5
  8
AM_0
 10
126.6137689855528
 20
431.82430970694742
 30
0.0
 11
127.08607192690179
 21
431.82430970694742
 31
0.0
  0
LINE
  5
72B6
  8
AM_0
 10
126.5171764910137
 20
431.75019194021093
 30
0.0
 11
126.53703655712791
 21
431.82430970694742
 31
0.0
  0
ARC
  5
72B7
  8
AM_0
 10
126.6137689855528
 20
431.72430970694762
 30
0.0
 40
0.1000000000000346
 50
90.0
 51
164.99980499355539
  0
ARC
  5
72B8
  8
AM_0
 10
124.8874008305559
 20
431.63747672643962
 30
0.0
 40
0.3000000000000043
 50
0.0
 51
90.0
  0
LINE
  5
72B9
  8
AM_0
 10
123.687400830556
 20
429.52430970694758
 30
0.0
 11
124.9073565337129
 21
429.60564008715852
 31
0.0
  0
LINE
  5
72BA
  8
AM_0
 10
123.687400830556
 20
430.6805617427874
 30
0.0
 11
124.8874008305558
 21
430.6805617427874
 31
0.0
  0
LINE
  5
72BB
  8
AM_0
 10
125.187400830556
 20
429.92430970694761
 30
0.0
 11
123.687400830556
 21
429.92430970694761
 31
0.0
  0
ARC
  5
72BC
  8
AM_0
 10
125.187400830556
 20
430.42430970694761
 30
0.0
 40
0.5
 50
270.0
 51
0.0
  0
LINE
  5
72BD
  8
AM_0
 10
125.187400830556
 20
429.90497563451561
 30
0.0
 11
125.187400830556
 21
429.92430970694761
 31
0.0
  0
LINE
  5
72BE
  8
AM_0
 10
125.187400830556
 20
429.62430970694771
 30
0.0
 11
125.187400830556
 21
429.90497563451561
 31
0.0
  0
LINE
  5
72BF
  8
AM_0
 10
124.9073565337129
 20
429.60564008715852
 30
0.0
 11
125.187400830556
 21
429.62430970694771
 31
0.0
  0
ARC
  5
72C0
  8
AM_0
 10
124.8874008305559
 20
429.90497563451561
 30
0.0
 40
0.3000000000000007
 50
273.81407483428148
 51
0.0
  0
LINE
  5
72C1
  8
AM_0
 10
126.2593394984769
 20
431.07430970694742
 30
0.0
 11
126.3360719269027
 21
431.07430970694742
 31
0.0
  0
LINE
  5
72C2
  8
AM_0
 10
126.3360719269027
 20
431.07430970694742
 30
0.0
 11
126.3559319930158
 21
431.14842747368391
 31
0.0
  0
LINE
  5
72C3
  8
AM_0
 10
125.7671764910137
 20
431.14842747368391
 30
0.0
 11
125.78703655712791
 21
431.07430970694742
 31
0.0
  0
LINE
  5
72C4
  8
AM_0
 10
125.78703655712791
 20
431.07430970694742
 30
0.0
 11
125.86376898555289
 21
431.07430970694742
 31
0.0
  0
LINE
  5
72C5
  8
AM_0
 10
126.3559319930158
 20
431.14842747368391
 30
0.0
 11
126.5171764910137
 21
431.75019194021093
 31
0.0
  0
LINE
  5
72C6
  8
AM_0
 10
125.86376898555289
 20
431.07430970694742
 30
0.0
 11
126.2593394984769
 21
431.07430970694742
 31
0.0
  0
LINE
  5
72C7
  8
AM_0
 10
125.6874008305569
 20
431.44615023850849
 30
0.0
 11
125.7671764910137
 21
431.14842747368391
 31
0.0
  0
ARC
  5
72C8
  8
AM_0
 10
126.2593394984769
 20
431.1743097069475
 30
0.0
 40
0.0999999999999866
 50
270.0
 51
344.99980499343371
  0
ARC
  5
72C9
  8
AM_0
 10
125.86376898555289
 20
431.1743097069475
 30
0.0
 40
0.1000000000000014
 50
195.00019500656629
 51
270.0
  0
LINE
  5
72CA
  8
AM_0
 10
125.187400830556
 20
430.98056174278742
 30
0.0
 11
125.187400830556
 21
431.63747672643962
 31
0.0
  0
ARC
  5
72CB
  8
AM_0
 10
124.8874008305559
 20
430.98056174278759
 30
0.0
 40
0.3000000000000007
 50
270.0
 51
0.0
  0
LINE
  5
72CC
  8
AM_0
 10
123.687400830556
 20
434.47913895465553
 30
0.0
 11
124.8874008305558
 21
434.47913895465553
 31
0.0
  0
LINE
  5
72CD
  8
AM_0
 10
124.8874008305558
 20
431.9374767264394
 30
0.0
 11
123.687400830556
 21
431.9374767264394
 31
0.0
  0
LINE
  5
72CE
  8
AM_0
 10
126.53703655712791
 20
431.82430970694742
 30
0.0
 11
126.6137689855528
 21
431.82430970694742
 31
0.0
  0
ARC
  5
72CF
  8
AM_0
 10
124.8874008305559
 20
434.77913895465548
 30
0.0
 40
0.3000000000000007
 50
270.0
 51
0.0
  0
LINE
  5
72D0
  8
AM_0
 10
124.8874008305558
 20
436.25138214108853
 30
0.0
 11
123.687400830556
 21
436.25138214108853
 31
0.0
  0
ARC
  5
72D1
  8
AM_0
 10
124.8874008305559
 20
435.95138214108852
 30
0.0
 40
0.3000000000000043
 50
0.0
 51
90.0
  0
LINE
  5
72D2
  8
AM_0
 10
124.8874008305558
 20
439.92430970694642
 30
0.0
 11
123.687400830556
 21
439.92430970694642
 31
0.0
  0
ARC
  5
72D3
  8
AM_0
 10
124.8874008305559
 20
440.22430970694671
 30
0.0
 40
0.3000000000000007
 50
270.0
 51
0.0
  0
LINE
  5
72D4
  8
AM_0
 10
114.687400830556
 20
430.79102987830061
 30
0.0
 11
121.187400830556
 21
430.79102987830061
 31
0.0
  0
LINE
  5
72D5
  8
AM_0
 10
114.687400830556
 20
430.29102987830049
 30
0.0
 11
121.187400830556
 21
430.29102987830049
 31
0.0
  0
LINE
  5
72D6
  8
AM_0
 10
121.187400830556
 20
440.42430970694772
 30
0.0
 11
114.687400830556
 21
440.42430970694772
 31
0.0
  0
LINE
  5
72D7
  8
AM_0
 10
114.187400830556
 20
439.92430970694772
 30
0.0
 11
121.187400830556
 21
439.92430970694772
 31
0.0
  0
LINE
  5
72D8
  8
AM_0
 10
120.8874008305558
 20
429.92430970694761
 30
0.0
 11
114.0494507657378
 21
429.92430970694761
 31
0.0
  0
LINE
  5
72D9
  8
AM_0
 10
121.187400830556
 20
439.57762163840653
 30
0.0
 11
114.687400830556
 21
439.57762163840653
 31
0.0
  0
LINE
  5
72DA
  8
AM_0
 10
121.187400830556
 20
431.27099777548852
 30
0.0
 11
114.687400830556
 21
431.27099777548852
 31
0.0
  0
ARC
  5
72DB
  8
AM_0
 10
121.4874008305559
 20
429.22430970694762
 30
0.0
 40
0.2999999999999971
 50
180.0
 51
270.0
  0
ARC
  5
72DC
  8
AM_0
 10
120.8874008305559
 20
429.62430970694771
 30
0.0
 40
0.2999999999999971
 50
0.0
 51
90.0
  0
ARC
  5
72DD
  8
AM_0
 10
122.812400830556
 20
435.42430970694772
 30
0.0
 40
9.124999999999984
 50
152.92493329271929
 51
207.07506670728071
  0
LINE
  5
72DE
  8
AM_0
 10
113.4092663660735
 20
430.15608842735003
 30
0.0
 11
111.0472164308914
 21
432.12446337333512
 31
0.0
  0
LINE
  5
72DF
  8
AM_0
 10
114.187400830556
 20
430.50274229045561
 30
0.0
 11
114.687400830556
 21
429.92430970694761
 31
0.0
  0
ARC
  5
72E0
  8
AM_0
 10
114.0494507657378
 20
430.92430970694761
 30
0.0
 40
1.0
 50
230.19442890774391
 51
270.0
  0
LINE
  5
72E1
  8
AM_0
 10
114.687400830556
 20
430.29102987830049
 30
0.0
 11
114.187400830556
 21
430.50274229045561
 31
0.0
  0
LINE
  5
72E2
  8
AM_0
 10
114.187400830556
 20
430.96501756342661
 30
0.0
 11
114.687400830556
 21
430.29102987830049
 31
0.0
  0
LINE
  5
72E3
  8
AM_0
 10
114.687400830556
 20
430.79102987830061
 30
0.0
 11
114.187400830556
 21
430.96501756342661
 31
0.0
  0
LINE
  5
72E4
  8
AM_0
 10
114.187400830556
 20
431.50274229045561
 30
0.0
 11
114.687400830556
 21
430.79102987830061
 31
0.0
  0
LINE
  5
72E5
  8
AM_0
 10
114.687400830556
 20
431.27099777548852
 30
0.0
 11
114.187400830556
 21
431.50274229045561
 31
0.0
  0
ARC
  5
72E6
  8
AM_0
 10
111.687400830556
 20
432.89268465293247
 30
0.0
 40
1.0000000000000291
 50
180.0
 51
230.19442890773479
  0
LINE
  5
72E7
  8
AM_0
 10
114.687400830556
 20
440.42430970694772
 30
0.0
 11
114.187400830556
 21
440.92430970694761
 31
0.0
  0
LINE
  5
72E8
  8
AM_0
 10
114.187400830556
 20
439.92430970694772
 30
0.0
 11
114.687400830556
 21
440.42430970694772
 31
0.0
  0
LINE
  5
72E9
  8
AM_0
 10
114.687400830556
 20
439.57762163840653
 30
0.0
 11
114.187400830556
 21
439.92430970694772
 31
0.0
  0
LINE
  5
72EA
  8
AM_0
 10
121.4874008305559
 20
452.92430970694772
 30
0.0
 11
123.687400830556
 21
452.92430970694772
 31
0.0
  0
ARC
  5
72EB
  8
AM_0
 10
135.58607192690181
 20
453.42430970694761
 30
0.0
 40
0.5
 50
269.99999999998693
 51
0.0
  0
LINE
  5
72EC
  8
AM_0
 10
130.58607192690181
 20
450.02430970694758
 30
0.0
 11
127.36376898555289
 21
450.02430970694758
 31
0.0
  0
LINE
  5
72ED
  8
AM_0
 10
136.08607192690181
 20
442.06823838554078
 30
0.0
 11
136.08607192690181
 21
451.78038102835569
 31
0.0
  0
LINE
  5
72EE
  8
AM_0
 10
131.08607192690181
 20
441.56823838554078
 30
0.0
 11
135.58607192690181
 21
441.56823838554078
 31
0.0
  0
ARC
  5
72EF
  8
AM_0
 10
135.58607192690181
 20
442.06823838554078
 30
0.0
 40
0.5
 50
270.0
 51
0.0
  0
LINE
  5
72F0
  8
AM_0
 10
131.08607192690181
 20
452.28038102835569
 30
0.0
 11
135.58607192690181
 21
452.28038102835569
 31
0.0
  0
LINE
  5
72F1
  8
AM_0
 10
135.58607192690181
 20
452.92430970694772
 30
0.0
 11
131.58607192690181
 21
452.92430970694772
 31
0.0
  0
ARC
  5
72F2
  8
AM_0
 10
135.58607192690181
 20
451.78038102835569
 30
0.0
 40
0.5
 50
0.0
 51
90.0
  0
ARC
  5
72F3
  8
AM_0
 10
130.58607192690181
 20
450.52430970694758
 30
0.0
 40
0.5
 50
270.0
 51
0.0
  0
ARC
  5
72F4
  8
AM_0
 10
131.58607192690181
 20
452.42430970694772
 30
0.0
 40
0.5
 50
90.0
 51
180.0
  0
ARC
  5
72F5
  8
AM_0
 10
124.8874008305559
 20
447.06948045923963
 30
0.0
 40
0.3000000000000114
 50
0.0
 51
90.0
  0
LINE
  5
72F6
  8
AM_0
 10
123.687400830556
 20
441.92430970694949
 30
0.0
 11
124.8874008305558
 21
441.92430970694949
 31
0.0
  0
ARC
  5
72F7
  8
AM_0
 10
124.8874008305559
 20
441.6243097069497
 30
0.0
 40
0.2999999999999971
 50
0.0
 51
90.0
  0
LINE
  5
72F8
  8
AM_0
 10
123.687400830556
 20
445.59723727280641
 30
0.0
 11
124.8874008305558
 21
445.59723727280641
 31
0.0
  0
ARC
  5
72F9
  8
AM_0
 10
124.8874008305559
 20
445.89723727280648
 30
0.0
 40
0.3000000000000007
 50
270.0
 51
0.0
  0
LINE
  5
72FA
  8
AM_0
 10
125.187400830556
 20
445.89723727280648
 30
0.0
 11
125.187400830556
 21
447.06948045923963
 31
0.0
  0
LINE
  5
72FB
  8
AM_0
 10
126.6137689855528
 20
450.77430970694741
 30
0.0
 11
127.0093394984769
 21
450.77430970694741
 31
0.0
  0
LINE
  5
72FC
  8
AM_0
 10
126.6137689855528
 20
450.77430970694741
 30
0.0
 11
127.0093394984769
 21
450.77430970694741
 31
0.0
  0
LINE
  5
72FD
  8
AM_0
 10
127.1059319930158
 20
450.70019194021103
 30
0.0
 11
127.2671764910137
 21
450.09842747368401
 31
0.0
  0
LINE
  5
72FE
  8
AM_0
 10
127.1059319930158
 20
450.70019194021103
 30
0.0
 11
127.2671764910137
 21
450.09842747368401
 31
0.0
  0
ARC
  5
72FF
  8
AM_0
 10
127.36376898555289
 20
450.12430970694771
 30
0.0
 40
0.0999999999999943
 50
195.00019500651879
 51
270.0
  0
ARC
  5
7300
  8
AM_0
 10
127.0093394984769
 20
450.67430970694772
 30
0.0
 40
0.0999999999999943
 50
15.000195006505431
 51
90.0
  0
LINE
  5
7301
  8
AM_0
 10
125.68655424201479
 20
450.3993097069478
 30
0.0
 11
125.7671764910137
 21
450.09842747368401
 31
0.0
  0
LINE
  5
7302
  8
AM_0
 10
126.3387825791078
 20
450.06357424004563
 30
0.0
 11
126.5171764910137
 21
450.70019194021103
 31
0.0
  0
LINE
  5
7303
  8
AM_0
 10
126.3559319930158
 20
450.09842747368401
 30
0.0
 11
126.5171764910137
 21
450.70019194021103
 31
0.0
  0
LINE
  5
7304
  8
AM_0
 10
125.187400830556
 20
450.21114268745657
 30
0.0
 11
125.187400830556
 21
450.86805767110758
 31
0.0
  0
LINE
  5
7305
  8
AM_0
 10
125.687400830556
 20
450.39615023850928
 30
0.0
 11
125.7671764910137
 21
450.09842747368401
 31
0.0
  0
LINE
  5
7306
  8
AM_0
 10
123.687400830556
 20
449.9111426874565
 30
0.0
 11
124.8874008305558
 21
449.9111426874565
 31
0.0
  0
LINE
  5
7307
  8
AM_0
 10
124.8874008305558
 20
447.36948045923958
 30
0.0
 11
123.687400830556
 21
447.36948045924049
 31
0.0
  0
LINE
  5
7308
  8
AM_0
 10
126.2919717639919
 20
450.02430970694758
 30
0.0
 11
126.3387825791078
 21
450.06357424004563
 31
0.0
  0
LINE
  5
7309
  8
AM_0
 10
125.86376898555289
 20
450.02430970694758
 30
0.0
 11
126.2919717639919
 21
450.02430970694758
 31
0.0
  0
LINE
  5
730A
  8
AM_0
 10
125.86376898555289
 20
450.02430970694758
 30
0.0
 11
126.2593394984769
 21
450.02430970694758
 31
0.0
  0
ARC
  5
730B
  8
AM_0
 10
125.86376898555289
 20
450.12430970694771
 30
0.0
 40
0.0999999999999943
 50
195.00019500651879
 51
270.0
  0
ARC
  5
730C
  8
AM_0
 10
126.2593394984769
 20
450.12430970694771
 30
0.0
 40
0.0999999999999608
 50
270.0
 51
344.99980499348112
  0
ARC
  5
730D
  8
AM_0
 10
124.8874008305559
 20
450.21114268745657
 30
0.0
 40
0.3000000000000007
 50
270.0
 51
0.0
  0
LINE
  5
730E
  8
AM_0
 10
123.687400830556
 20
451.92430970694761
 30
0.0
 11
125.187400830556
 21
451.92430970694761
 31
0.0
  0
LINE
  5
730F
  8
AM_0
 10
124.8874008305558
 20
451.16805767110742
 30
0.0
 11
123.687400830556
 21
451.16805767110742
 31
0.0
  0
LINE
  5
7310
  8
AM_0
 10
124.9073565337129
 20
452.24297932673761
 30
0.0
 11
123.687400830556
 21
452.32430970694742
 31
0.0
  0
ARC
  5
7311
  8
AM_0
 10
125.187400830556
 20
451.42430970694761
 30
0.0
 40
0.5
 50
0.0
 51
90.0
  0
ARC
  5
7312
  8
AM_0
 10
126.6137689855528
 20
450.67430970694772
 30
0.0
 40
0.0999999999999606
 50
90.0
 51
164.99980499349451
  0
ARC
  5
7313
  8
AM_0
 10
124.8874008305559
 20
450.86805767110758
 30
0.0
 40
0.2999999999999971
 50
0.0
 51
90.0
  0
LINE
  5
7314
  8
AM_0
 10
125.187400830556
 20
451.92430970694761
 30
0.0
 11
125.187400830556
 21
451.94364377938058
 31
0.0
  0
ARC
  5
7315
  8
AM_0
 10
124.8874008305559
 20
451.94364377938058
 30
0.0
 40
0.3000000000000043
 50
0.0
 51
86.18592516571853
  0
ARC
  5
7316
  8
AM_0
 10
136.58607192690181
 20
453.9243097069475
 30
0.0
 40
0.5
 50
90.0
 51
180.0
  0
LINE
  5
7317
  8
AM_0
 10
136.08607192690181
 20
453.9243097069475
 30
0.0
 11
136.08607192690181
 21
453.42430970694761
 31
0.0
  0
LINE
  5
7318
  8
AM_0
 10
114.687400830556
 20
450.5776216384063
 30
0.0
 11
121.187400830556
 21
450.5776216384063
 31
0.0
  0
LINE
  5
7319
  8
AM_0
 10
114.687400830556
 20
442.27099777548858
 30
0.0
 11
121.187400830556
 21
442.27099777548858
 31
0.0
  0
LINE
  5
731A
  8
AM_0
 10
114.0494507657378
 20
451.92430970694761
 30
0.0
 11
120.8874008305558
 21
451.92430970694761
 31
0.0
  0
LINE
  5
731B
  8
AM_0
 10
121.187400830556
 20
441.9243097069475
 30
0.0
 11
114.187400830556
 21
441.9243097069475
 31
0.0
  0
LINE
  5
731C
  8
AM_0
 10
114.687400830556
 20
441.4243097069475
 30
0.0
 11
121.187400830556
 21
441.4243097069475
 31
0.0
  0
LINE
  5
731D
  8
AM_0
 10
121.187400830556
 20
451.5575895355953
 30
0.0
 11
114.687400830556
 21
451.5575895355953
 31
0.0
  0
LINE
  5
731E
  8
AM_0
 10
121.187400830556
 20
451.05758953559541
 30
0.0
 11
114.687400830556
 21
451.05758953559541
 31
0.0
  0
ARC
  5
731F
  8
AM_0
 10
120.8874008305559
 20
452.22430970694762
 30
0.0
 40
0.3000000000000043
 50
270.0
 51
0.0
  0
ARC
  5
7320
  8
AM_0
 10
121.4874008305559
 20
452.6243097069476
 30
0.0
 40
0.2999999999999971
 50
90.0
 51
180.0
  0
ARC
  5
7321
  8
AM_0
 10
122.812400830556
 20
446.42430970694761
 30
0.0
 40
9.124999999999984
 50
152.92493329271929
 51
207.07506670728071
  0
LINE
  5
7322
  8
AM_0
 10
114.187400830556
 20
441.9243097069475
 30
0.0
 11
114.687400830556
 21
442.27099777548858
 31
0.0
  0
LINE
  5
7323
  8
AM_0
 10
114.687400830556
 20
441.4243097069475
 30
0.0
 11
114.187400830556
 21
441.9243097069475
 31
0.0
  0
LINE
  5
7324
  8
AM_0
 10
111.0472164308914
 20
449.72415604056079
 30
0.0
 11
113.4092663660735
 21
451.69253098654491
 31
0.0
  0
LINE
  5
7325
  8
AM_0
 10
114.687400830556
 20
451.92430970694761
 30
0.0
 11
114.187400830556
 21
451.34587712344057
 31
0.0
  0
ARC
  5
7326
  8
AM_0
 10
114.0494507657378
 20
450.92430970694761
 30
0.0
 40
1.0000000000000411
 50
90.0
 51
129.805571092256
  0
LINE
  5
7327
  8
AM_0
 10
114.187400830556
 20
450.34587712344052
 30
0.0
 11
114.687400830556
 21
450.5776216384063
 31
0.0
  0
LINE
  5
7328
  8
AM_0
 10
114.687400830556
 20
451.05758953559541
 30
0.0
 11
114.187400830556
 21
450.34587712344052
 31
0.0
  0
LINE
  5
7329
  8
AM_0
 10
114.187400830556
 20
450.88360185046872
 30
0.0
 11
114.687400830556
 21
451.05758953559541
 31
0.0
  0
LINE
  5
732A
  8
AM_0
 10
114.687400830556
 20
451.5575895355953
 30
0.0
 11
114.187400830556
 21
450.88360185046872
 31
0.0
  0
LINE
  5
732B
  8
AM_0
 10
114.187400830556
 20
451.34587712344057
 30
0.0
 11
114.687400830556
 21
451.5575895355953
 31
0.0
  0
ARC
  5
732C
  8
AM_0
 10
111.687400830556
 20
448.95593476096337
 30
0.0
 40
1.0
 50
129.80557109226521
 51
180.0
  0
LINE
  5
732D
  8
AM_0
 10
236.08607192690201
 20
417.92430970694789
 30
0.0
 11
215.2715670273696
 21
417.92430970694789
 31
0.0
  0
LINE
  5
732E
  8
AM_0
 10
160.9005768264343
 20
417.92430970694789
 30
0.0
 11
140.08607192690249
 21
417.92430970694789
 31
0.0
  0
LINE
  5
732F
  8
AM_0
 10
229.95029025774099
 20
413.92430970694801
 30
0.0
 11
146.22185359606269
 21
413.92430970694801
 31
0.0
  0
LINE
  5
7330
  8
AM_0
 10
148.99342689920891
 20
415.86537219482
 30
0.0
 11
149.08607192690241
 21
416.92430970694789
 31
0.0
  0
LINE
  5
7331
  8
AM_0
 10
141.1787169545959
 20
415.86537219482
 30
0.0
 11
141.08607192690241
 21
416.92430970694789
 31
0.0
  0
ARC
  5
7332
  8
AM_0
 10
145.08607192690241
 20
420.32430970694787
 30
0.0
 40
6.5
 50
241.82726586813479
 51
298.17273413186518
  0
ARC
  5
7333
  8
AM_0
 10
142.7726284715429
 20
416.00482138321632
 30
0.0
 40
1.6000000000000001
 50
184.99999999999969
 51
241.82726586813479
  0
LINE
  5
7334
  8
AM_0
 10
147.3860719269025
 20
414.24483604551938
 30
0.0
 11
145.08607192690241
 21
416.534395724315
 31
0.0
  0
LINE
  5
7335
  8
AM_0
 10
145.3975719269024
 20
416.22430970694768
 30
0.0
 11
144.7745719269025
 21
416.22430970694768
 31
0.0
  0
LINE
  5
7336
  8
AM_0
 10
142.78607192690259
 20
414.24483604551938
 30
0.0
 11
145.08607192690241
 21
416.534395724315
 31
0.0
  0
LINE
  5
7337
  8
AM_0
 10
145.3975719269024
 20
413.8317780166131
 30
0.0
 11
145.3975719269024
 21
416.22430970694768
 31
0.0
  0
LINE
  5
7338
  8
AM_0
 10
144.7745719269025
 20
413.8317780166131
 30
0.0
 11
144.7745719269025
 21
416.22430970694768
 31
0.0
  0
ARC
  5
7339
  8
AM_0
 10
147.39951538226219
 20
416.00482138321632
 30
0.0
 40
1.6000000000000001
 50
298.17273413186518
 51
355.00000000000023
  0
LINE
  5
733A
  8
AM_0
 10
236.08607192690209
 20
417.92430970694789
 30
0.0
 11
236.08607192690209
 21
421.92430970694789
 31
0.0
  0
LINE
  5
733B
  8
AM_0
 10
140.08607192690161
 20
421.92430970694778
 30
0.0
 11
140.0860719269028
 21
417.92430970694789
 31
0.0
  0
LINE
  5
733C
  8
AM_0N
 10
148.8860719269025
 20
417.92430970694789
 30
0.0
 11
148.8860719269025
 21
416.92430970694789
 31
0.0
  0
LINE
  5
733D
  8
AM_0N
 10
145.28607192690259
 20
416.92430970694789
 30
0.0
 11
145.6500421611687
 21
417.92430970694789
 31
0.0
  0
LINE
  5
733E
  8
AM_0N
 10
144.8860719269025
 20
416.92430970694789
 30
0.0
 11
145.25004216116861
 21
417.92430970694789
 31
0.0
  0
LINE
  5
733F
  8
AM_0N
 10
141.08607192690241
 20
416.92430970694789
 30
0.0
 11
149.08607192690241
 21
416.92430970694789
 31
0.0
  0
LINE
  5
7340
  8
AM_0N
 10
141.28607192690259
 20
416.92430970694789
 30
0.0
 11
141.28607192690259
 21
417.92430970694789
 31
0.0
  0
LINE
  5
7341
  8
AM_0
 10
160.9005768264341
 20
413.92430970694801
 30
0.0
 11
160.9005768264341
 21
417.92430970694789
 31
0.0
  0
LINE
  5
7342
  8
AM_0
 10
159.24372257694171
 20
417.92430970694789
 30
0.0
 11
160.9005768264341
 21
413.92430970694801
 31
0.0
  0
LINE
  5
7343
  8
AM_0
 10
215.2715670273696
 20
413.92430970694801
 30
0.0
 11
215.2715670273696
 21
417.92430970694789
 31
0.0
  0
LINE
  5
7344
  8
AM_0
 10
216.92842127686211
 20
417.92430970694789
 30
0.0
 11
215.2715670273696
 21
413.92430970694801
 31
0.0
  0
LINE
  5
7345
  8
AM_0
 10
154.58607192690181
 20
462.92430970694789
 30
0.0
 11
221.58607192690201
 21
462.92430970694789
 31
0.0
  0
LINE
  5
7346
  8
AM_0
 10
154.58607192690181
 20
462.92430970694789
 30
0.0
 11
154.58607192690181
 21
460.92430970694772
 31
0.0
  0
LINE
  5
7347
  8
AM_0
 10
221.58607192690201
 20
462.92430970694789
 30
0.0
 11
221.58607192690201
 21
460.92430970694772
 31
0.0
  0
LINE
  5
7348
  8
ﾁｭｳｼﾝｾﾝ1
 10
231.0860719269013
 20
411.6596022069478
 30
0.0
 11
231.0860719269013
 21
424.6596022069478
 31
0.0
  0
LINE
  5
7349
  8
AM_0
 10
227.1787169545949
 20
415.86537219482
 30
0.0
 11
227.08607192690141
 21
416.92430970694789
 31
0.0
  0
LINE
  5
734A
  8
AM_0
 10
234.99342689920789
 20
415.86537219482
 30
0.0
 11
235.0860719269013
 21
416.92430970694789
 31
0.0
  0
ARC
  5
734B
  8
AM_0
 10
231.0860719269015
 20
420.3243097069477
 30
0.0
 40
6.5
 50
241.82726586813479
 51
298.17273413186518
  0
ARC
  5
734C
  8
AM_0
 10
233.3995153822612
 20
416.0048213832161
 30
0.0
 40
1.6000000000000001
 50
298.17273413186518
 51
355.00000000000023
  0
LINE
  5
734D
  8
AM_0
 10
228.7860719269016
 20
414.24483604551938
 30
0.0
 11
231.08607192690141
 21
416.534395724315
 31
0.0
  0
LINE
  5
734E
  8
AM_0
 10
230.77457192690139
 20
416.22430970694768
 30
0.0
 11
231.39757192690141
 21
416.22430970694768
 31
0.0
  0
LINE
  5
734F
  8
AM_0
 10
233.38607192690139
 20
414.24483604551938
 30
0.0
 11
231.08607192690141
 21
416.534395724315
 31
0.0
  0
LINE
  5
7350
  8
AM_0
 10
230.77457192690139
 20
413.8317780166131
 30
0.0
 11
230.77457192690139
 21
416.22430970694768
 31
0.0
  0
LINE
  5
7351
  8
AM_0
 10
231.39757192690141
 20
413.8317780166131
 30
0.0
 11
231.39757192690141
 21
416.22430970694768
 31
0.0
  0
ARC
  5
7352
  8
AM_0
 10
228.77262847154179
 20
416.0048213832161
 30
0.0
 40
1.6000000000000001
 50
184.99999999999969
 51
241.82726586813479
  0
LINE
  5
7353
  8
AM_0N
 10
227.28607192690129
 20
417.92430970694789
 30
0.0
 11
227.28607192690129
 21
416.92430970694789
 31
0.0
  0
LINE
  5
7354
  8
AM_0N
 10
230.88607192690139
 20
416.92430970694789
 30
0.0
 11
230.5221016926352
 21
417.92430970694789
 31
0.0
  0
LINE
  5
7355
  8
AM_0N
 10
231.28607192690129
 20
416.92430970694789
 30
0.0
 11
230.92210169263521
 21
417.92430970694789
 31
0.0
  0
LINE
  5
7356
  8
AM_0N
 10
235.08607192690141
 20
416.92430970694789
 30
0.0
 11
227.08607192690141
 21
416.92430970694789
 31
0.0
  0
LINE
  5
7357
  8
AM_0N
 10
234.88607192690139
 20
416.92430970694789
 30
0.0
 11
234.88607192690139
 21
417.92430970694789
 31
0.0
  0
LINE
  5
7358
  8
AM_0
 10
139.08607192690181
 20
424.9243097069475
 30
0.0
 11
139.08607192690181
 21
456.92430970694772
 31
0.0
  0
LINE
  5
7392
  8
AM_0
 10
291.58611192690171
 20
454.67335970694739
 30
0.0
 11
291.58611192690171
 21
619.17525970694783
 31
0.0
  0
LINE
  5
7393
  8
AM_0
 10
291.58611192690171
 20
454.67335970694739
 30
0.0
 11
279.41161192690163
 21
455.09849970694779
 31
0.0
  0
LINE
  5
7394
  8
AM_0
 10
291.58608192690173
 20
619.17525970694783
 30
0.0
 11
279.41158192690159
 21
618.75010970694768
 31
0.0
  0
LINE
  5
7395
  8
AM_0
 10
274.58611192690159
 20
460.0954497069477
 30
0.0
 11
274.58611192690159
 21
613.75316970694757
 31
0.0
  0
LINE
  5
7396
  8
AM_0
 10
274.58611192690159
 20
596.23280970694759
 30
0.0
 11
284.58608192690173
 21
596.23280970694759
 31
0.0
  0
LINE
  5
7397
  8
AM_0
 10
274.58611192690159
 20
477.6158097069478
 30
0.0
 11
284.58608192690173
 21
477.6158097069478
 31
0.0
  0
LINE
  5
7398
  8
AM_0
 10
284.58608192690173
 20
465.83412970694781
 30
0.0
 11
284.58608192690173
 21
608.01448970694764
 31
0.0
  0
LINE
  5
7399
  8
AM_0
 10
248.08611192690159
 20
588.96431970694755
 30
0.0
 11
274.58608192690173
 21
588.96431970694755
 31
0.0
  0
LINE
  5
739A
  8
AM_0
 10
248.08611192690159
 20
574.07222970694784
 30
0.0
 11
274.58608192690173
 21
574.07222970694784
 31
0.0
  0
LINE
  5
739B
  8
AM_0
 10
248.08611192690159
 20
600.42430970694761
 30
0.0
 11
271.69082192690172
 21
601.24861970694758
 31
0.0
  0
LINE
  5
739C
  8
AM_0
 10
248.0861419269016
 20
473.4242797069478
 30
0.0
 11
271.69079192690151
 21
472.59999970694781
 31
0.0
  0
LINE
  5
739D
  8
AM_0
 10
248.08611192690159
 20
499.77638970694778
 30
0.0
 11
274.58608192690173
 21
499.77638970694778
 31
0.0
  0
LINE
  5
739E
  8
AM_0
 10
248.08611192690159
 20
484.88429970694767
 30
0.0
 11
274.58608192690173
 21
484.88429970694767
 31
0.0
  0
LINE
  5
739F
  8
AM_0
 10
366.58611192690159
 20
451.92430970694761
 30
0.0
 11
370.58614192690158
 21
451.92430970694761
 31
0.0
  0
LINE
  5
73A0
  8
AM_0
 10
358.51635192690162
 20
629.1424797069476
 30
0.0
 11
366.58611192690159
 21
629.4242797069478
 31
0.0
  0
LINE
  5
73A1
  8
AM_0
 10
354.89187192690167
 20
451.11860970694778
 30
0.0
 11
356.58614192690158
 21
449.42433970694771
 31
0.0
  0
LINE
  5
73A2
  8
AM_0
 10
351.53081192690161
 20
621.26854970694785
 30
0.0
 11
291.58611192690171
 21
619.17525970694783
 31
0.0
  0
LINE
  5
73A3
  8
AM_0
 10
351.53081192690161
 20
452.58003970694762
 30
0.0
 11
291.58611192690171
 21
454.67335970694739
 31
0.0
  0
LINE
  5
73A4
  8
AM_0
 10
366.58611192690159
 20
444.42430970694761
 30
0.0
 11
366.58611192690159
 21
629.4243097069475
 31
0.0
  0
LINE
  5
73A5
  8
AM_0
 10
366.58611192690159
 20
621.92430970694761
 30
0.0
 11
370.58614192690158
 21
621.92430970694761
 31
0.0
  0
LINE
  5
73A6
  8
AM_0
 10
360.58611192690159
 20
466.42430970694772
 30
0.0
 11
360.58611192690159
 21
607.09660970694767
 31
0.0
  0
LINE
  5
73A7
  8
AM_0
 10
354.89187192690167
 20
622.7299697069476
 30
0.0
 11
356.58614192690158
 21
624.42427970694757
 31
0.0
  0
LINE
  5
73A8
  8
AM_0
 10
356.58611192690159
 20
446.70491970694781
 30
0.0
 11
356.58611192690159
 21
627.14369970694781
 31
0.0
  0
LINE
  5
73A9
  8
AM_0
 10
370.58614192690158
 20
621.92430970694761
 30
0.0
 11
370.58614192690158
 21
451.92430970694761
 31
0.0
  0
LINE
  5
73AA
  8
AM_0
 10
358.51632192690158
 20
444.7061097069477
 30
0.0
 11
366.58608192690173
 21
444.42430970694761
 31
0.0
  0
ARC
  5
73AB
  8
AM_0
 10
279.58611192690159
 20
460.0954497069477
 30
0.0
 40
5.0
 50
180.00001000000091
 51
267.99999999999949
  0
ARC
  5
73AC
  8
AM_0
 10
279.58611192690159
 20
613.75316970694757
 30
0.0
 40
5.0
 50
91.999998000000545
 51
180.00001000000091
  0
ARC
  5
73AD
  8
AM_0
 10
271.58611192690171
 20
469.60182970694768
 30
0.0
 40
3.0
 50
0.0
 51
87.999999999999503
  0
ARC
  5
73AE
  8
AM_0
 10
271.58611192690171
 20
604.24678970694765
 30
0.0
 40
3.0
 50
272.00000000000051
 51
0.0
  0
ARC
  5
73AF
  8
AM_0
 10
359.58611192690171
 20
485.79906970694759
 30
0.0
 40
3.0
 50
90.000003000000945
 51
180.00001000000091
  0
ARC
  5
73B0
  8
AM_0
 10
351.35631192690158
 20
626.26552970694752
 30
0.0
 40
5.0
 50
272.00000000000051
 51
315.0
  0
ARC
  5
73B1
  8
AM_0
 10
357.58611192690171
 20
607.09660970694767
 30
0.0
 40
3.0
 50
0.0
 51
91.999998000000545
  0
ARC
  5
73B2
  8
AM_0
 10
358.58614192690158
 20
627.14369970694781
 30
0.0
 40
2.0
 50
91.999998000000545
 51
180.00001000000091
  0
ARC
  5
73B3
  8
AM_0
 10
359.58611192690171
 20
588.04954970694757
 30
0.0
 40
3.0
 50
179.999989999999
 51
270.0
  0
ARC
  5
73B4
  8
AM_0
 10
358.58614192690158
 20
446.70491970694781
 30
0.0
 40
2.0
 50
179.999989999999
 51
268.00000999999861
  0
ARC
  5
73B5
  8
AM_0
 10
357.58611192690171
 20
466.75200970694772
 30
0.0
 40
3.0
 50
267.99999999999949
 51
0.0
  0
ARC
  5
73B6
  8
AM_0
 10
351.35631192690158
 20
447.5830897069477
 30
0.0
 40
5.0
 50
45.000000999996892
 51
87.999999999999503
  0
POLYLINE
  5
73B7
  8
AM_0
 66
     1
 10
0.0
 20
0.0
 30
0.0
  0
VERTEX
  5
73B8
  8
AM_0
 10
353.49917192690168
 20
621.33729970694765
 30
0.0
 42
0.081985852
  0
VERTEX
  5
73B9
  8
AM_0
 10
331.3832819269017
 20
566.4256197069476
 30
0.0
 42
0.10914194
  0
VERTEX
  5
73BA
  8
AM_0
 10
331.3833719269017
 20
507.42260970694758
 30
0.0
 42
0.081985219
  0
VERTEX
  5
73BB
  8
AM_0
 10
353.49917192690168
 20
452.51130970694771
 30
0.0
  0
SEQEND
  5
73BC
  8
AM_0
  0
TEXT
  5
7594
  8
AM_0
 10
527.33544268488811
 20
543.83729277164718
 30
0.0
 40
10.0
  1
VX04-060MFW~VX04-100MFW
  0
ENDSEC
  0
EOF
