  0
SECTION
  2
HEADER
  9
$ACADVER
  1
AC1009
  9
$INSBASE
 10
0.0
 20
0.0
 30
0.0
  9
$EXTMIN
 10
142.57992769030369
 20
197.28241549559721
 30
-0.0015258207003583
  9
$EXTMAX
 10
694.18503750730895
 20
603.73139250525935
 30
0.0000000349246037
  9
$LIMMIN
 10
0.0
 20
0.0
  9
$LIMMAX
 10
853.5
 20
555.00000000000011
  9
$ORTHOMODE
 70
     0
  9
$REGENMODE
 70
     1
  9
$FILLMODE
 70
     1
  9
$QTEXTMODE
 70
     0
  9
$MIRRTEXT
 70
     1
  9
$DRAGMODE
 70
     2
  9
$LTSCALE
 40
3.0
  9
$OSMODE
 70
   551
  9
$ATTMODE
 70
     1
  9
$TEXTSIZE
 40
2.5
  9
$TRACEWID
 40
1.0
  9
$TEXTSTYLE
  7
STANDARD
  9
$CLAYER
  8
AM_0
  9
$CELTYPE
  6
BYLAYER
  9
$CECOLOR
 62
   256
  9
$DIMSCALE
 40
3.0
  9
$DIMASZ
 40
2.5
  9
$DIMEXO
 40
1.0
  9
$DIMDLI
 40
8.0
  9
$DIMRND
 40
0.0
  9
$DIMDLE
 40
0.0
  9
$DIMEXE
 40
0.6
  9
$DIMTP
 40
0.1
  9
$DIMTM
 40
0.1
  9
$DIMTXT
 40
2.5
  9
$DIMCEN
 40
0.0
  9
$DIMTSZ
 40
0.0
  9
$DIMTOL
 70
     0
  9
$DIMLIM
 70
     0
  9
$DIMTIH
 70
     0
  9
$DIMTOH
 70
     0
  9
$DIMSE1
 70
     0
  9
$DIMSE2
 70
     0
  9
$DIMTAD
 70
     1
  9
$DIMZIN
 70
     8
  9
$DIMBLK
  1

  9
$DIMASO
 70
     1
  9
$DIMSHO
 70
     1
  9
$DIMPOST
  1

  9
$DIMAPOST
  1
"
  9
$DIMALT
 70
     0
  9
$DIMALTD
 70
     2
  9
$DIMALTF
 40
0.0393701
  9
$DIMLFAC
 40
1.0
  9
$DIMTOFL
 70
     1
  9
$DIMTVP
 40
0.0
  9
$DIMTIX
 70
     0
  9
$DIMSOXD
 70
     0
  9
$DIMSAH
 70
     0
  9
$DIMBLK1
  1

  9
$DIMBLK2
  1

  9
$DIMSTYLE
  2
AM_ISO
  9
$DIMCLRD
 70
   256
  9
$DIMCLRE
 70
   256
  9
$DIMCLRT
 70
     4
  9
$DIMTFAC
 40
0.71
  9
$DIMGAP
 40
0.8
  9
$LUNITS
 70
     2
  9
$LUPREC
 70
     2
  9
$SKETCHINC
 40
1.0
  9
$FILLETRAD
 40
1.0
  9
$AUNITS
 70
     0
  9
$AUPREC
 70
     0
  9
$MENU
  1
.
  9
$ELEVATION
 40
0.0
  9
$PELEVATION
 40
0.0
  9
$THICKNESS
 40
0.0
  9
$LIMCHECK
 70
     0
  9
$BLIPMODE
 70
     0
  9
$CHAMFERA
 40
6.0
  9
$CHAMFERB
 40
3.0
  9
$SKPOLY
 70
     0
  9
$TDCREATE
 40
2452065.6056192131
  9
$TDUPDATE
 40
2458541.5974793402
  9
$TDINDWG
 40
0.3609160069
  9
$TDUSRTIMER
 40
0.3609157986
  9
$USRTIMER
 70
     1
  9
$ANGBASE
 50
0.0
  9
$ANGDIR
 70
     0
  9
$PDMODE
 70
     0
  9
$PDSIZE
 40
0.0
  9
$PLINEWID
 40
0.0
  9
$COORDS
 70
     1
  9
$SPLFRAME
 70
     0
  9
$SPLINETYPE
 70
     6
  9
$SPLINESEGS
 70
     8
  9
$ATTDIA
 70
     1
  9
$ATTREQ
 70
     1
  9
$HANDLING
 70
     1
  9
$HANDSEED
  5
4BAA
  9
$SURFTAB1
 70
     6
  9
$SURFTAB2
 70
     6
  9
$SURFTYPE
 70
     6
  9
$SURFU
 70
     6
  9
$SURFV
 70
     6
  9
$UCSNAME
  2

  9
$UCSORG
 10
0.0
 20
0.0
 30
0.0
  9
$UCSXDIR
 10
1.0
 20
0.0
 30
0.0
  9
$UCSYDIR
 10
0.0
 20
1.0
 30
0.0
  9
$PUCSNAME
  2

  9
$PUCSORG
 10
0.0
 20
0.0
 30
0.0
  9
$PUCSXDIR
 10
1.0
 20
0.0
 30
0.0
  9
$PUCSYDIR
 10
0.0
 20
1.0
 30
0.0
  9
$USERI1
 70
     0
  9
$USERI2
 70
     0
  9
$USERI3
 70
     0
  9
$USERI4
 70
     0
  9
$USERI5
 70
     0
  9
$USERR1
 40
0.0
  9
$USERR2
 40
0.0
  9
$USERR3
 40
0.0
  9
$USERR4
 40
0.0
  9
$USERR5
 40
0.0
  9
$WORLDVIEW
 70
     1
  9
$SHADEDGE
 70
     3
  9
$SHADEDIF
 70
    70
  9
$TILEMODE
 70
     1
  9
$MAXACTVP
 70
    64
  9
$PLIMCHECK
 70
     0
  9
$PEXTMIN
 10
1.0000000000000000E+020
 20
1.0000000000000000E+020
 30
1.0000000000000000E+020
  9
$PEXTMAX
 10
-1.0000000000000000E+020
 20
-1.0000000000000000E+020
 30
-1.0000000000000000E+020
  9
$PLIMMIN
 10
0.0
 20
0.0
  9
$PLIMMAX
 10
420.0
 20
297.0
  9
$UNITMODE
 70
     0
  9
$VISRETAIN
 70
     1
  9
$PLINEGEN
 70
     0
  9
$PSLTSCALE
 70
     1
  0
ENDSEC
  0
SECTION
  2
TABLES
  0
TABLE
  2
VPORT
 70
     1
  0
VPORT
  2
*ACTIVE
 70
     0
 10
0.0
 20
0.0
 11
1.0
 21
1.0
 12
418.38248259880629
 22
400.50690400042828
 13
0.0
 23
0.0
 14
7.5
 24
7.5
 15
30.0
 25
30.0
 16
0.0
 26
0.0
 36
1.0
 17
0.0
 27
0.0
 37
0.0
 40
409.23924458638771
 41
1.7571592210767459
 42
50.0
 43
0.0
 44
0.0
 50
0.0
 51
0.0
 71
     0
 72
   100
 73
     1
 74
     3
 75
     0
 76
     0
 77
     0
 78
     0
  0
ENDTAB
  0
TABLE
  2
LTYPE
 70
    27
  0
LTYPE
  2
CONTINUOUS
 70
     0
  3
Solid line
 72
    65
 73
     0
 40
0.0
  0
LTYPE
  2
AM_ISO02W050
 70
     0
  3
__ __ __ __ __ __ __ __ __ __ __ __ __ __ __
 72
    65
 73
     2
 40
7.5
 49
6.0
 49
-1.5
  0
LTYPE
  2
AM_ISO08W050
 70
     0
  3
____ . ____ . ____ . ____ . ____ . ____ . ____
 72
    65
 73
     4
 40
18.0
 49
12.0
 49
-1.5
 49
3.0
 49
-1.5
  0
LTYPE
  2
AM_ISO09W050
 70
     0
  3
_____ . . _____ . . _____ . . ____ .. ____
 72
    65
 73
     6
 40
22.5
 49
12.0
 49
-1.5
 49
3.0
 49
-1.5
 49
3.0
 49
-1.5
  0
LTYPE
  2
AMCONSTR
 70
     0
  3
_______________________
 72
    65
 73
     2
 40
9999.0
 49
9999.0
 49
0.0
  0
LTYPE
  2
AM_ISO08W050X2
 70
     0
  3
__ . __ . __ . __ . __ . __
 72
    65
 73
     4
 40
9.0
 49
6.0
 49
-0.75
 49
1.5
 49
-0.75
  0
LTYPE
  2
AM_ISO02W050X2
 70
     0
  3
 _ _ _ _ _ _ _ _ _ _ _ _
 72
    65
 73
     2
 40
3.75
 49
3.0
 49
-0.75
  0
LTYPE
  2
AMZIGZAG
 70
     0
  3
/\/-/\/-/\/-/\/-/\/-/\/
 72
    65
 73
     2
 40
11.0001
 49
0.0001
 49
-11.0
  0
LTYPE
  2
ACISOWELD
 70
     0
  3
_ _ _ _ _
 72
    65
 73
     2
 40
2.0
 49
2.0
 49
-1.0
  0
LTYPE
  2
ACISOTGB
 70
     0
  3
__ . . __ . .
 72
    65
 73
     6
 40
9.0
 49
4.0
 49
-1.0
 49
1.0
 49
-1.0
 49
1.0
 49
-1.0
  0
LTYPE
  2
ACISOTGL
 70
     0
  3
_ _ _ _ _
 72
    65
 73
     2
 40
3.0
 49
2.0
 49
-1.0
  0
LTYPE
  2
CENTER
 70
     0
  3
__ . __
 72
    65
 73
     4
 40
7.0
 49
4.0
 49
-1.0
 49
1.0
 49
-1.0
  0
LTYPE
  2
HIDDEN
 70
     0
  3
Hidden __ __ __ __ __ __ __ __ __ __ __ __ __ _
 72
    65
 73
     2
 40
9.5249999999999986
 49
6.3499999999999979
 49
-3.174999999999998
  0
LTYPE
  2
PHANTOM2
 70
     0
  3
Phantom (.5x) ___ _ _ ___ _ _ ___ _ _ ___ _ _
 72
    65
 73
     6
 40
31.75
 49
15.875
 49
-3.174999999999998
 49
3.174999999999998
 49
-3.174999999999998
 49
3.174999999999998
 49
-3.174999999999998
  0
LTYPE
  2
ACANSTGBM
 70
     0
  3
__ . . __ . .
 72
    65
 73
     6
 40
9.0
 49
4.0
 49
-1.0
 49
1.0
 49
-1.0
 49
1.0
 49
-1.0
  0
LTYPE
  2
ACANSTGLM
 70
     0
  3
_ _ _ _ _
 72
    65
 73
     2
 40
3.0
 49
2.0
 49
-1.0
  0
LTYPE
  2
GEN3B
 70
     0
  3
 - - - - -
 72
    65
 73
     2
 40
1.0
 49
0.5
 49
-0.5
  0
LTYPE
  2
GEN7A
 70
     0
  3
__ . __ . __
 72
    65
 73
     4
 40
7.375
 49
4.75
 49
-0.875
 49
0.875
 49
-0.875
  0
LTYPE
  2
ACJISTGB
 70
     0
  3
__ . . __ . .
 72
    65
 73
     6
 40
9.0
 49
4.0
 49
-1.0
 49
1.0
 49
-1.0
 49
1.0
 49
-1.0
  0
LTYPE
  2
ACJISTGL
 70
     0
  3
_ _ _ _ _
 72
    65
 73
     2
 40
3.0
 49
2.0
 49
-1.0
  0
LTYPE
  2
GEN7
 70
     0
  3
____ . ____ . ____ . ____ . ____ . ____ . ____
 72
    65
 73
     4
 40
14.25
 49
9.75
 49
-1.5
 49
1.5
 49
-1.5
  0
LTYPE
  2
CENTER2
 70
     0
  3
Center (.5x) ___ _ ___ _ ___ _ ___ _ ___ _ ___
 72
    65
 73
     4
 40
1.125
 49
0.75
 49
-0.125
 49
0.125
 49
-0.125
  0
LTYPE
  2
HIDDEN2
 70
     0
  3
Hidden (.5x) _ _ _ _ _ _ _ _ _ _ _ _ _ _ _ _ _
 72
    65
 73
     2
 40
0.1875
 49
0.125
 49
-0.0625
  0
LTYPE
  2
AMZIGZAG2
 70
     0
  3
/\/-/\/-/\/-/\/-/\/-/\/
 72
    65
 73
     2
 40
0.4401
 49
0.0001
 49
-0.4400000000000001
  0
LTYPE
  2
ACANSTGB
 70
     0
  3
__ . . __ . .
 72
    65
 73
     6
 40
0.35433070866
 49
0.15748031496
 49
-0.03937007874
 49
0.03937007874
 49
-0.03937007874
 49
0.03937007874
 49
-0.03937007874
  0
LTYPE
  2
ACANSTGL
 70
     0
  3
_ _ _ _ _
 72
    65
 73
     2
 40
0.11811023622
 49
0.07874015748
 49
-0.03937007874
  0
ENDTAB
  0
TABLE
  2
LAYER
 70
     8
  0
LAYER
  2
0
 70
     0
 62
     7
  6
CONTINUOUS
  0
LAYER
  2
AM_0
 70
     0
 62
     7
  6
CONTINUOUS
  0
LAYER
  2
DEFPOINTS
 70
     0
 62
     7
  6
CONTINUOUS
  0
LAYER
  2
ｶｸﾚｾﾝ2
 70
     0
 62
     3
  6
GEN3B
  0
LAYER
  2
ﾁｭｳｼﾝｾﾝ1
 70
     0
 62
     1
  6
GEN7A
  0
LAYER
  2
AM_0N
 70
     0
 62
     7
  6
CONTINUOUS
  0
LAYER
  2
AM_4
 70
     0
 62
     2
  6
CONTINUOUS
  0
LAYER
  2
ﾁｭｳｼﾝｾﾝ
 70
     0
 62
     1
  6
GEN7
  0
ENDTAB
  0
TABLE
  2
STYLE
 70
    10
  0
STYLE
  2
STANDARD
 70
     0
 40
0.0
 41
0.8299999999999999
 50
0.0
 71
     0
 42
2.5
  3
txt.shx
  4
bigfont.shx
  0
STYLE
  2
ANNOTATIVE
 70
     0
 40
0.0
 41
1.0
 50
0.0
 71
     0
 42
0.2
  3
txt
  4

  0
STYLE
  2

 70
     1
 40
0.0
 41
1.0
 50
0.0
 71
     0
 42
2.5
  3
ltypeshp.shx
  4

  0
STYLE
  2
ACISOTS
 70
     0
 40
1.0
 41
1.0
 50
0.0
 71
     0
 42
2.5
  3
isocp.shx
  4
extfont.shx
  0
STYLE
  2
ACISOGDT
 70
     0
 40
0.0
 41
1.0
 50
0.0
 71
     0
 42
2.5
  3
amgdt.shx
  4

  0
STYLE
  2
ACANSTS
 70
     0
 40
1.0
 41
1.0
 50
0.0
 71
     0
 42
2.5
  3
romans.shx
  4
bigfont.shx
  0
STYLE
  2
ACANSGDT
 70
     0
 40
0.0
 41
1.0
 50
0.0
 71
     0
 42
2.5
  3
amgdt.shx
  4

  0
STYLE
  2
ACJISTS
 70
     0
 40
1.0
 41
1.0
 50
0.0
 71
     0
 42
2.5
  3
isocp.shx
  4
bigfont.shx
  0
STYLE
  2
ACJISGDT
 70
     0
 40
0.0
 41
1.0
 50
0.0
 71
     0
 42
2.5
  3
amgdt.shx
  4

  0
STYLE
  2

 70
     1
 40
0.0
 41
1.0
 50
0.0
 71
     0
 42
2.5
  3
genltshp.shx
  4

  0
ENDTAB
  0
TABLE
  2
VIEW
 70
     6
  0
VIEW
  2
AM_VIEW1
 70
     0
 40
277.50000000000011
 10
249.64779005524869
 20
416.25
 41
499.29558011049721
 11
0.0
 21
0.0
 31
1.0
 12
0.0
 22
0.0
 32
0.0
 42
50.0
 43
0.0
 44
0.0
 50
0.0
 71
     0
  0
VIEW
  2
AM_VIEW2
 70
     0
 40
277.50000000000011
 10
603.85220994475117
 20
416.25
 41
499.29558011049721
 11
0.0
 21
0.0
 31
1.0
 12
0.0
 22
0.0
 32
0.0
 42
50.0
 43
0.0
 44
0.0
 50
0.0
 71
     0
  0
VIEW
  2
AM_VIEW3
 70
     0
 40
277.50000000000011
 10
249.64779005524869
 20
138.75
 41
499.29558011049721
 11
0.0
 21
0.0
 31
1.0
 12
0.0
 22
0.0
 32
0.0
 42
50.0
 43
0.0
 44
0.0
 50
0.0
 71
     0
  0
VIEW
  2
AM_VIEW4
 70
     0
 40
277.50000000000011
 10
603.85220994475117
 20
138.75
 41
499.29558011049721
 11
0.0
 21
0.0
 31
1.0
 12
0.0
 22
0.0
 32
0.0
 42
50.0
 43
0.0
 44
0.0
 50
0.0
 71
     0
  0
VIEW
  2
AM_VIEW5
 70
     0
 40
277.50000000000011
 10
426.75
 20
277.50000000000011
 41
499.2955801104971
 11
0.0
 21
0.0
 31
1.0
 12
0.0
 22
0.0
 32
0.0
 42
50.0
 43
0.0
 44
0.0
 50
0.0
 71
     0
  0
VIEW
  2
AM_VIEW6
 70
     0
 40
554.99445000000014
 10
426.75
 20
277.5
 41
998.5811743093924
 11
0.0
 21
0.0
 31
1.0
 12
0.0
 22
0.0
 32
0.0
 42
50.0
 43
0.0
 44
0.0
 50
0.0
 71
     0
  0
ENDTAB
  0
TABLE
  2
UCS
 70
     0
  0
ENDTAB
  0
TABLE
  2
APPID
 70
   101
  0
APPID
  2
ACAD
 70
     0
  0
APPID
  2
ACADANNOTATIVE
 70
     0
  0
APPID
  2
MCAD_NO_VIS
 70
     0
  0
APPID
  2
ACAD_TEMP_GRAPHIC
 70
     0
  0
APPID
  2
ACATTRIBSERVICES
 70
     0
  0
APPID
  2
GENIUS_GENREC_14
 70
     0
  0
APPID
  2
GENIUS_GENOBJ-N-REC_13
 70
     0
  0
APPID
  2
GENIUS_GENODEF_13
 70
     0
  0
APPID
  2
GENIUS_GENOLIS_13
 70
     0
  0
APPID
  2
GENIUS_GENOBJ-N-TIT_13
 70
     0
  0
APPID
  2
GENIUS_GENOENT_13
 70
     0
  0
APPID
  2
GENIUS_GENTITLE_13
 70
     0
  0
APPID
  2
GENIUS_GENOREF_13
 70
     0
  0
APPID
  2
GENIUS_GENSCREG_15
 70
     0
  0
APPID
  2
GENIUS_GENOBJ-N-SDF_13
 70
     0
  0
APPID
  2
GENIUS_GENFIL_13
 70
     0
  0
APPID
  2
GENIUS_GENOBJ-N-CHA_13
 70
     0
  0
APPID
  2
GENIUS_GENDTOL_13
 70
     0
  0
APPID
  2
GENIUS_GENOBJ-N-FIL_13
 70
     0
  0
APPID
  2
AD_DRAW
 70
     0
  0
APPID
  2
DESIGNERASSEMBLIES
 70
     0
  0
APPID
  2
ASURF_PCURVE_APPNAME
 70
     0
  0
APPID
  2
GENIUS_GE3SECT_13
 70
     0
  0
APPID
  2
GENIUS_GENCFG_13
 70
     0
  0
APPID
  2
GENIUS_GE3CFG0_13
 70
     0
  0
APPID
  2
GENIUS_GENCFG0_13
 70
     0
  0
APPID
  2
GENIUS_GENCFG1_13
 70
     0
  0
APPID
  2
GENIUS_GENCFG2_13
 70
     0
  0
APPID
  2
GENIUS_GENCFG3_13
 70
     0
  0
APPID
  2
GENIUS_GENCFG4_13
 70
     0
  0
APPID
  2
GENIUS_GEVCFG0_13
 70
     0
  0
APPID
  2
GENIUS_GENHINW_13
 70
     0
  0
APPID
  2
GENIUS_FIRSTVISTXT_14
 70
     0
  0
APPID
  2
GENIUS_GENOBJ-N-LEADER_13
 70
     0
  0
APPID
  2
GEV_VCCNULL_SWITCH_OFF
 70
     0
  0
APPID
  2
GENIUS_GEFCFG0_13
 70
     0
  0
APPID
  2
GENIUS_GENZVEED_13
 70
     0
  0
APPID
  2
GENIUS_GENSCREG_13
 70
     0
  0
APPID
  2
GENIUS_DUMCFG0_13
 70
     0
  0
APPID
  2
GEVID936201362
 70
     0
  0
APPID
  2
GEVDC
 70
     0
  0
APPID
  2
GEVCON
 70
     0
  0
APPID
  2
VCC
 70
     0
  0
APPID
  2
GEVPT
 70
     0
  0
APPID
  2
GEVIT
 70
     0
  0
APPID
  2
GENBH
 70
     0
  0
APPID
  2
GEVMK
 70
     0
  0
APPID
  2
GENIUS_GENBH_13
 70
     0
  0
APPID
  2
GENIUS_GENOBJ-NBEHI-BHF_13
 70
     0
  0
APPID
  2
GENIUS_GENOBJ-NBEHI-BHB_13
 70
     0
  0
APPID
  2
GENIUS_GENOBJ-F-DESC_13
 70
     0
  0
APPID
  2
GENIUS_GEFDESC_14
 70
     0
  0
APPID
  2
GENIUS_GENOBJ-F-PART_13
 70
     0
  0
APPID
  2
GENIUS_GEFSTDP_13
 70
     0
  0
APPID
  2
GENIUS_GEFPARTINS_13
 70
     0
  0
APPID
  2
GENIUS_GENTRA_14
 70
     0
  0
APPID
  2
GENIUS_GENINF13_13
 70
     0
  0
APPID
  2
GENIUS_GENOBJ-N-INFOPT_13
 70
     0
  0
APPID
  2
GENIUS_GENOBJ-N-RSSYM_13
 70
     0
  0
APPID
  2
GENIUS_GENSYMENT_13
 70
     0
  0
APPID
  2
GENIUS_GENSCSYM_13
 70
     0
  0
APPID
  2
GENIUS_GEFINFNAM_13
 70
     0
  0
APPID
  2
GENIUS_GENOBJ-N-CEN_13
 70
     0
  0
APPID
  2
GENIUS_GENOBJ-N-CRS_13
 70
     0
  0
APPID
  2
GENIUS_GENOBJ-N-CRC_13
 70
     0
  0
APPID
  2
GENIUS_GENCRC_14
 70
     0
  0
APPID
  2
GEVID942827039
 70
     0
  0
APPID
  2
GEVID942827040
 70
     0
  0
APPID
  2
GEVID942827041
 70
     0
  0
APPID
  2
GENIUS_GENOBJ-F-SCPASSM_13
 70
     0
  0
APPID
  2
GENIUS_GENDIMSH_14
 70
     0
  0
APPID
  2
GEVID942827042
 70
     0
  0
APPID
  2
GEVID946020473
 70
     0
  0
APPID
  2
GEVID946020474
 70
     0
  0
APPID
  2
GEVID946020475
 70
     0
  0
APPID
  2
GENIUS_GENOBJ-N-HTC_13
 70
     0
  0
APPID
  2
GENIUS_GENHATCH_13
 70
     0
  0
APPID
  2
GEVID948854295
 70
     0
  0
APPID
  2
GEVID939402019
 70
     0
  0
APPID
  2
GEVID952919491
 70
     0
  0
APPID
  2
GEVID952919492
 70
     0
  0
APPID
  2
GENIUS_GEFWELD_13
 70
     0
  0
APPID
  2
GENIUS_GENOBJ-F-WELS_13
 70
     0
  0
APPID
  2
GEVID952919493
 70
     0
  0
APPID
  2
GENIUS_GENOBJ-N-RSBK_13
 70
     0
  0
APPID
  2
GENIUS_GENOBJ-N-LIB_13
 70
     0
  0
APPID
  2
GENIUS_GENSCALE_13
 70
     0
  0
APPID
  2
GEVID986376691
 70
     0
  0
APPID
  2
DCO15
 70
     0
  0
APPID
  2
GEVID988070561
 70
     0
  0
APPID
  2
GEVID988070562
 70
     0
  0
APPID
  2
GEVID988070563
 70
     0
  0
APPID
  2
ACADM_DIM_EDIT
 70
     0
  0
APPID
  2
AMDT_DM_ADJ
 70
     0
  0
APPID
  2
ACAD_PSEXT
 70
     0
  0
APPID
  2
ACAD_DSTYLE_DIMJAG
 70
     0
  0
APPID
  2
ACAD_DSTYLE_DIMBREAK
 70
     0
  0
APPID
  2
ACAD_NAV_VCDISPLAY
 70
     0
  0
APPID
  2
ACADANNOPO
 70
     0
  0
APPID
  2
ACAD_EXEMPT_FROM_CAD_STANDARDS
 70
     0
  0
APPID
  2
ACAD_MLEADERVER
 70
     0
  0
ENDTAB
  0
TABLE
  2
DIMSTYLE
 70
    23
  0
DIMSTYLE
  2
STANDARD
 70
     0
  3

  4

  5

  6

  7

 40
1.0
 41
0.18
 42
0.0625
 43
0.38
 44
0.18
 45
0.0
 46
0.0
 47
0.0
 48
0.0
140
0.18
141
0.09
142
0.0
143
25.399999999999999
144
1.0
145
0.0
146
1.0
147
0.09
 71
     0
 72
     0
 73
     1
 74
     1
 75
     0
 76
     0
 77
     0
 78
     0
170
     0
171
     2
172
     0
173
     0
174
     0
175
     0
176
     0
177
     0
178
     0
  0
DIMSTYLE
  2
ANNOTATIVE
 70
     0
  3

  4

  5

  6

  7

 40
1.0
 41
0.18
 42
0.0625
 43
0.38
 44
0.18
 45
0.0
 46
0.0
 47
0.0
 48
0.0
140
0.18
141
0.09
142
0.0
143
25.399999999999999
144
1.0
145
0.0
146
1.0
147
0.09
 71
     0
 72
     0
 73
     1
 74
     1
 75
     0
 76
     0
 77
     0
 78
     0
170
     0
171
     2
172
     0
173
     0
174
     0
175
     0
176
     0
177
     0
178
     0
  0
DIMSTYLE
  2
AM_ISO
 70
     0
  3

  4
"
  5

  6

  7

 40
1.0
 41
2.5
 42
1.0
 43
8.0
 44
0.6
 45
0.0
 46
0.0
 47
0.1
 48
0.1
140
2.5
141
0.0
142
0.0
143
0.0393701
144
1.0
145
0.0
146
0.71
147
0.8
 71
     0
 72
     0
 73
     0
 74
     0
 75
     0
 76
     0
 77
     1
 78
     8
170
     0
171
     2
172
     1
173
     0
174
     0
175
     0
176
   256
177
   256
178
     4
  0
DIMSTYLE
  2
AM_ISO$3
 70
     0
  3

  4
"
  5

  6

  7

 40
1.0
 41
2.5
 42
1.0
 43
8.0
 44
0.6
 45
0.0
 46
0.0
 47
0.1
 48
0.1
140
2.5
141
0.0
142
0.0
143
0.0393701
144
1.0
145
0.0
146
0.71
147
0.8
 71
     0
 72
     0
 73
     0
 74
     1
 75
     0
 76
     0
 77
     1
 78
     8
170
     0
171
     2
172
     0
173
     0
174
     0
175
     0
176
   256
177
   256
178
     4
  0
DIMSTYLE
  2
AM_ISO$4
 70
     0
  3

  4
"
  5

  6

  7

 40
1.0
 41
2.5
 42
1.0
 43
8.0
 44
0.6
 45
0.0
 46
0.0
 47
0.1
 48
0.1
140
2.5
141
0.0
142
0.0
143
0.0393701
144
1.0
145
0.0
146
0.71
147
0.8
 71
     0
 72
     0
 73
     0
 74
     1
 75
     0
 76
     0
 77
     1
 78
     8
170
     0
171
     2
172
     0
173
     0
174
     0
175
     0
176
   256
177
   256
178
     4
  0
DIMSTYLE
  2
AM_ISO$6
 70
     0
  3

  4
"
  5

  6

  7

 40
1.0
 41
2.5
 42
1.0
 43
8.0
 44
0.6
 45
0.0
 46
0.0
 47
0.1
 48
0.1
140
2.5
141
0.0
142
0.0
143
0.0393701
144
1.0
145
0.0
146
0.71
147
0.8
 71
     0
 72
     0
 73
     0
 74
     0
 75
     0
 76
     0
 77
     0
 78
     8
170
     0
171
     2
172
     1
173
     0
174
     0
175
     0
176
   256
177
   256
178
     4
  0
DIMSTYLE
  2
AM_ISO$7
 70
     0
  3

  4
"
  5

  6

  7

 40
1.0
 41
2.5
 42
1.0
 43
8.0
 44
0.6
 45
0.0
 46
0.0
 47
0.1
 48
0.1
140
2.5
141
0.0
142
0.0
143
0.0393701
144
1.0
145
0.0
146
0.71
147
0.8
 71
     0
 72
     0
 73
     0
 74
     0
 75
     0
 76
     0
 77
     1
 78
     8
170
     0
171
     2
172
     1
173
     0
174
     0
175
     0
176
   256
177
   256
178
     4
  0
DIMSTYLE
  2
AM_ISO$SF
 70
     0
  3

  4
"
  5

  6

  7

 40
1.0
 41
2.5
 42
1.0
 43
10.0
 44
1.0
 45
0.0
 46
0.0
 47
0.1
 48
0.1
140
3.5
141
0.0
142
0.0
143
0.0393701
144
1.0
145
0.0
146
0.71
147
1.5
 71
     0
 72
     0
 73
     0
 74
     0
 75
     1
 76
     1
 77
     1
 78
     8
170
     0
171
     2
172
     1
173
     0
174
     0
175
     0
176
   256
177
   256
178
     2
  0
DIMSTYLE
  2
AM_ISO$SH
 70
     0
  3

  4
"
  5

  6

  7

 40
1.0
 41
2.5
 42
1.0
 43
10.0
 44
1.0
 45
0.0
 46
0.0
 47
0.1
 48
0.1
140
3.5
141
0.0
142
0.0
143
0.0393701
144
2.0
145
0.0
146
0.71
147
1.5
 71
     0
 72
     0
 73
     0
 74
     0
 75
     1
 76
     1
 77
     1
 78
     8
170
     0
171
     2
172
     1
173
     1
174
     0
175
     0
176
   256
177
   256
178
     2
  0
DIMSTYLE
  2
AM_JIS
 70
     0
  3

  4
"
  5

  6

  7

 40
1.0
 41
2.5
 42
1.0
 43
7.0
 44
1.0
 45
0.0
 46
0.0
 47
0.1
 48
0.1000000001
140
2.5
141
0.0
142
0.0
143
0.0393701
144
1.0
145
0.0
146
0.71
147
1.0
 71
     0
 72
     0
 73
     0
 74
     0
 75
     0
 76
     0
 77
     3
 78
     8
170
     0
171
     2
172
     1
173
     0
174
     0
175
     0
176
   256
177
   256
178
     4
  0
DIMSTYLE
  2
AM_JIS$3
 70
     0
  3

  4
"
  5

  6

  7

 40
1.0
 41
2.5
 42
1.0
 43
7.0
 44
1.0
 45
0.0
 46
0.0
 47
0.1
 48
0.1000000001
140
2.5
141
0.0
142
0.0
143
0.0393701
144
1.0
145
0.0
146
0.71
147
1.0
 71
     0
 72
     0
 73
     0
 74
     1
 75
     0
 76
     0
 77
     3
 78
     8
170
     0
171
     2
172
     0
173
     0
174
     0
175
     0
176
   256
177
   256
178
     4
  0
DIMSTYLE
  2
AM_JIS$4
 70
     0
  3

  4
"
  5

  6

  7

 40
1.0
 41
2.5
 42
1.0
 43
7.0
 44
1.0
 45
0.0
 46
0.0
 47
0.1
 48
0.1000000001
140
2.5
141
0.0
142
0.0
143
0.0393701
144
1.0
145
0.0
146
0.71
147
1.0
 71
     0
 72
     0
 73
     0
 74
     0
 75
     0
 76
     0
 77
     3
 78
     8
170
     0
171
     2
172
     0
173
     0
174
     0
175
     0
176
   256
177
   256
178
     4
  0
DIMSTYLE
  2
AM_JIS$6
 70
     0
  3

  4
"
  5

  6

  7

 40
1.0
 41
2.5
 42
1.0
 43
7.0
 44
1.0
 45
0.0
 46
0.0
 47
0.1
 48
0.1000000001
140
2.5
141
0.0
142
0.0
143
0.0393701
144
1.0
145
0.0
146
0.71
147
1.0
 71
     0
 72
     0
 73
     0
 74
     0
 75
     0
 76
     0
 77
     0
 78
     8
170
     0
171
     2
172
     1
173
     0
174
     0
175
     0
176
   256
177
   256
178
     4
  0
DIMSTYLE
  2
AM_JIS$7
 70
     0
  3

  4
"
  5

  6

  7

 40
1.0
 41
2.5
 42
1.0
 43
7.0
 44
1.0
 45
0.0
 46
0.0
 47
0.1
 48
0.1000000001
140
2.5
141
0.0
142
0.0
143
0.0393701
144
1.0
145
0.0
146
0.71
147
1.0
 71
     0
 72
     0
 73
     0
 74
     0
 75
     0
 76
     0
 77
     3
 78
     8
170
     0
171
     2
172
     1
173
     0
174
     0
175
     0
176
   256
177
   256
178
     4
  0
DIMSTYLE
  2
AM_JIS$SF
 70
     0
  3

  4
"
  5

  6

  7

 40
1.0
 41
2.5
 42
1.0
 43
10.0
 44
1.0
 45
0.0
 46
0.0
 47
0.1
 48
0.1
140
3.5
141
0.0
142
0.0
143
0.0393701
144
1.0
145
0.0
146
0.71
147
1.5
 71
     0
 72
     0
 73
     0
 74
     0
 75
     1
 76
     1
 77
     3
 78
     8
170
     0
171
     2
172
     1
173
     0
174
     0
175
     0
176
   256
177
   256
178
     4
  0
DIMSTYLE
  2
AM_JIS$SH
 70
     0
  3

  4
"
  5

  6

  7

 40
1.0
 41
2.5
 42
1.0
 43
10.0
 44
1.0
 45
0.0
 46
0.0
 47
0.1
 48
0.1
140
3.5
141
0.0
142
0.0
143
0.0393701
144
1.0
145
0.0
146
0.71
147
1.5
 71
     0
 72
     0
 73
     0
 74
     0
 75
     1
 76
     0
 77
     3
 78
     8
170
     0
171
     2
172
     1
173
     1
174
     0
175
     0
176
   256
177
   256
178
     4
  0
DIMSTYLE
  2
AM_ISO$0
 70
     0
  3

  4
"
  5

  6

  7

 40
1.0
 41
2.5
 42
1.0
 43
8.0
 44
0.6
 45
0.0
 46
0.0
 47
0.1
 48
0.1
140
2.5
141
0.0
142
0.0
143
0.0393701
144
1.0
145
0.0
146
0.71
147
0.8
 71
     0
 72
     0
 73
     0
 74
     0
 75
     0
 76
     0
 77
     1
 78
     8
170
     0
171
     2
172
     1
173
     0
174
     0
175
     0
176
   256
177
   256
178
     4
  0
DIMSTYLE
  2
AM_ANSI
 70
     0
  3

  4
mm
  5

  6

  7

 40
1.0
 41
0.12
 42
0.05
 43
0.5
 44
0.1
 45
0.0
 46
0.0
 47
0.1
 48
0.1
140
0.12
141
0.0
142
0.0
143
25.399999999999999
144
1.0
145
0.0
146
0.71
147
0.06
 71
     0
 72
     0
 73
     1
 74
     1
 75
     0
 76
     0
 77
     0
 78
     7
170
     0
171
     2
172
     0
173
     0
174
     0
175
     0
176
   256
177
   256
178
     2
  0
DIMSTYLE
  2
AM_ANSI$3
 70
     0
  3

  4
mm
  5

  6

  7

 40
1.0
 41
0.12
 42
0.05
 43
0.5
 44
0.1
 45
0.0
 46
0.0
 47
0.1
 48
0.1
140
0.12
141
0.0
142
0.0
143
25.399999999999999
144
1.0
145
0.0
146
0.71
147
0.06
 71
     0
 72
     0
 73
     1
 74
     1
 75
     0
 76
     0
 77
     0
 78
     7
170
     0
171
     2
172
     0
173
     0
174
     0
175
     0
176
   256
177
   256
178
     2
  0
DIMSTYLE
  2
AM_ANSI$4
 70
     0
  3

  4
mm
  5

  6

  7

 40
1.0
 41
0.12
 42
0.05
 43
0.5
 44
0.1
 45
0.0
 46
0.0
 47
0.1
 48
0.1
140
0.12
141
0.0
142
0.0
143
25.399999999999999
144
1.0
145
0.0
146
0.71
147
0.06
 71
     0
 72
     0
 73
     1
 74
     1
 75
     0
 76
     0
 77
     0
 78
     7
170
     0
171
     2
172
     0
173
     0
174
     0
175
     0
176
   256
177
   256
178
     2
  0
DIMSTYLE
  2
AM_ANSI$7
 70
     0
  3

  4
mm
  5

  6

  7

 40
1.0
 41
0.12
 42
0.05
 43
0.5
 44
0.1
 45
0.0
 46
0.0
 47
0.1
 48
0.1
140
0.12
141
0.0
142
0.0
143
25.399999999999999
144
1.0
145
0.0
146
0.71
147
0.06
 71
     0
 72
     0
 73
     1
 74
     1
 75
     0
 76
     0
 77
     0
 78
     7
170
     0
171
     2
172
     0
173
     0
174
     0
175
     0
176
   256
177
   256
178
     2
  0
DIMSTYLE
  2
AM_ANSI$SF
 70
     0
  3

  4
mm
  5

  6

  7

 40
1.0
 41
0.12
 42
0.05
 43
0.5
 44
0.1
 45
0.0
 46
0.0
 47
0.1
 48
0.1
140
0.12
141
0.0
142
0.0
143
25.399999999999999
144
1.0
145
0.0
146
0.71
147
0.06
 71
     0
 72
     0
 73
     1
 74
     1
 75
     1
 76
     1
 77
     0
 78
     7
170
     0
171
     2
172
     0
173
     0
174
     0
175
     0
176
   256
177
   256
178
     2
  0
DIMSTYLE
  2
AM_ANSI$SH
 70
     0
  3

  4
mm
  5

  6
GENAXEH
  7

 40
1.0
 41
0.12
 42
0.05
 43
0.5
 44
0.1
 45
0.0
 46
0.0
 47
0.1
 48
0.1
140
0.12
141
0.0
142
0.0
143
25.399999999999999
144
1.0
145
0.0
146
0.71
147
0.06
 71
     0
 72
     0
 73
     1
 74
     1
 75
     1
 76
     1
 77
     0
 78
     7
170
     0
171
     2
172
     0
173
     1
174
     0
175
     0
176
   256
177
   256
178
     2
  0
ENDTAB
  0
ENDSEC
  0
SECTION
  2
BLOCKS
  0
BLOCK
  8
0
  2
$MODEL_SPACE
 70
     0
 10
0.0
 20
0.0
 30
0.0
  3
$MODEL_SPACE
  1

  0
ENDBLK
  5
4A20
  8
0
  0
BLOCK
 67
     1
  8
0
  2
$PAPER_SPACE
 70
     0
 10
0.0
 20
0.0
 30
0.0
  3
$PAPER_SPACE
  1

  0
ENDBLK
  5
4A1C
 67
     1
  8
0
  0
BLOCK
  8
0
  2
GENAXEH
 70
     0
 10
0.0
 20
0.0
 30
0.0
  3
GENAXEH
  1

  0
LINE
  5
73
  8
0
 10
-1.0
 20
0.0
 30
0.0
 11
1.0
 21
0.0
 31
0.0
  0
ENDBLK
  5
75
  8
0
  0
BLOCK
  8
0
  2
_OPEN30
 70
     0
 10
0.0
 20
0.0
 30
0.0
  3
_OPEN30
  1

  0
LINE
  5
31A
  8
0
 62
     0
 10
-1.0
 20
0.26794919
 30
0.0
 11
0.0
 21
0.0
 31
0.0
  0
LINE
  5
31B
  8
0
 62
     0
 10
0.0
 20
0.0
 30
0.0
 11
-1.0
 21
-0.26794919
 31
0.0
  0
LINE
  5
31C
  8
0
 62
     0
 10
0.0
 20
0.0
 30
0.0
 11
-1.0
 21
0.0
 31
0.0
  0
ENDBLK
  5
31E
  8
0
  0
BLOCK
  8
0
  2
_NONE
 70
     0
 10
0.0
 20
0.0
 30
0.0
  3
_NONE
  1

  0
ENDBLK
  5
579
  8
0
  0
BLOCK
  8
0
  2
*U5
 70
     1
 10
0.0
 20
0.0
 30
0.0
  3
*U5
  1

  0
TEXT
  5
49AD
  8
AM_0
 10
531.96438024753365
 20
527.27600768716968
 30
0.0
 40
10.0
  1
ＶＸ０１－００５～０５０ＭＷ
 41
0.8299999999999999
  0
ENDBLK
  5
49AF
  8
0
  0
BLOCK
  8
0
  2
_ACMFILLEDHALF
 70
     0
 10
0.0
 20
0.0
 30
0.0
  3
_ACMFILLEDHALF
  1

  0
TRACE
  5
4B24
  8
AM_0
 62
     0
 10
-0.8
 20
0.0
 30
0.0
 11
-1.0
 21
0.166666666
 31
0.0
 12
0.0
 22
0.0
 32
0.0
 13
0.0
 23
0.0
 33
0.0
  0
LINE
  5
4B25
  8
AM_0
 62
     0
 10
-1.0
 20
0.0
 30
0.0
 11
-0.8
 21
0.0
 31
0.0
  0
ENDBLK
  5
4B23
  8
0
  0
ENDSEC
  0
SECTION
  2
ENTITIES
  0
LINE
  5
3760
  8
AM_0
 10
269.97269308736372
 20
232.07576136153909
 30
0.0
 11
272.97269308736361
 21
232.07576136153909
 31
0.0
  0
LINE
  5
3761
  8
AM_0
 10
269.97269308736361
 20
308.52186036153921
 30
0.0
 11
272.97269308736361
 21
308.52186036153921
 31
0.0
  0
LINE
  5
3762
  8
ﾁｭｳｼﾝｾﾝ
 10
142.5865368942641
 20
270.29884536153901
 30
0.0
 11
302.93627308736347
 21
270.29884536153918
 31
0.0
  0
LINE
  5
3763
  8
AM_0
 10
168.17912308736351
 20
214.0155933615392
 30
0.0
 11
265.09886308736361
 21
214.0155933615392
 31
0.0
  0
LINE
  5
3764
  8
AM_0
 10
166.6506230873635
 20
233.57576136153909
 30
0.0
 11
173.97269308736361
 21
233.57576136153921
 31
0.0
  0
LINE
  5
3765
  8
AM_0
 10
173.97269308736361
 20
236.2988433615391
 30
0.0
 11
167.33810308736349
 21
236.2988433615391
 31
0.0
  0
LINE
  5
3766
  8
AM_0
 10
173.97269308736361
 20
234.29884536153909
 30
0.0
 11
167.33810308736349
 21
234.29884536153909
 31
0.0
  0
LINE
  5
3767
  8
AM_0
 10
173.97269308736361
 20
306.29886036153908
 30
0.0
 11
167.33810308736349
 21
306.29886036153908
 31
0.0
  0
LINE
  5
3768
  8
AM_0
 10
173.97269308736361
 20
304.29884736153917
 30
0.0
 11
167.33810308736349
 21
304.29884736153917
 31
0.0
  0
LINE
  5
3769
  8
AM_0
 10
166.6499930873635
 20
307.02186036153921
 30
0.0
 11
173.97269308736361
 21
307.02186036153921
 31
0.0
  0
LINE
  5
376A
  8
AM_0
 10
168.17912308736351
 20
326.58210036153918
 30
0.0
 11
265.09886308736361
 21
326.58210036153918
 31
0.0
  0
ARC
  5
376B
  8
AM_0
 10
166.6499930873635
 20
305.34395136153921
 30
0.0
 40
1.6779127499999991
 50
90.00000299999769
 51
270.0
  0
ARC
  5
376C
  8
AM_0
 10
167.52206308736351
 20
305.29884636153918
 30
0.0
 40
1.0000000199999981
 50
90.00000299999769
 51
270.0
  0
LINE
  5
376D
  8
AM_0
 10
152.97269308736361
 20
305.69172936153922
 30
0.0
 11
152.97269308736361
 21
304.63179336153922
 31
0.0
  0
ARC
  5
376E
  8
AM_0
 10
151.97270308736341
 20
304.47358836153921
 30
0.0
 40
1.0000000199999981
 50
113.1270300000016
 51
180.00001000000091
  0
LINE
  5
376F
  8
AM_0
 10
152.78453308736351
 20
305.9077623615392
 30
0.0
 11
151.57994308736349
 21
305.39329836153911
 31
0.0
  0
LINE
  5
3770
  8
AM_0
 10
150.97268308736341
 20
318.31521036153919
 30
0.0
 11
150.97268308736341
 21
281.29884536153929
 31
0.0
  0
LINE
  5
3771
  8
AM_0
 10
156.97268308736341
 20
323.29884036153919
 30
0.0
 11
156.97268308736341
 21
282.29884536153929
 31
0.0
  0
LINE
  5
3772
  8
AM_0
 10
156.97268308736341
 20
258.29884536153929
 30
0.0
 11
156.97268308736341
 21
217.2988593615392
 31
0.0
  0
LINE
  5
3773
  8
AM_0
 10
164.97269308736361
 20
323.29884036153919
 30
0.0
 11
164.97269308736361
 21
220.8586113615392
 31
0.0
  0
LINE
  5
3774
  8
AM_0
 10
155.97269308736361
 20
320.29884036153919
 30
0.0
 11
155.97269308736361
 21
282.29884536153918
 31
0.0
  0
LINE
  5
3775
  8
AM_0
 10
155.97269308736361
 20
258.29884536153929
 30
0.0
 11
155.97269308736361
 21
219.1756143615392
 31
0.0
  0
LINE
  5
3776
  8
AM_0
 10
170.33816308736371
 20
233.64756936153921
 30
0.0
 11
164.9727530873634
 21
222.2030943615392
 31
0.0
  0
ARC
  5
3777
  8
AM_0
 10
151.97270308736341
 20
222.2824413615391
 30
0.0
 40
1.0000000199999981
 50
179.999989999999
 51
239.973610000001
  0
LINE
  5
3778
  8
AM_0
 10
152.75930308736341
 20
221.80409136153921
 30
0.0
 11
151.5200630873635
 21
222.4331223615392
 31
0.0
  0
ARC
  5
3779
  8
AM_0
 10
201.97268308736349
 20
213.1692033615391
 30
0.0
 40
2.00000007
 50
270.0
 51
0.0
  0
ARC
  5
377A
  8
AM_0
 10
201.97268308736349
 20
210.41090436153911
 30
0.0
 40
2.00000007
 50
270.0
 51
0.0
  0
LINE
  5
377B
  8
AM_0
 10
203.97269308736361
 20
210.41090436153911
 30
0.0
 11
203.97269308736361
 21
214.0155933615392
 31
0.0
  0
ARC
  5
377C
  8
AM_0
 10
201.97268308736349
 20
211.32142536153921
 30
0.0
 40
2.00000007
 50
270.0
 51
0.0
  0
LINE
  5
377D
  8
AM_0
 10
164.97269308736361
 20
222.20306436153919
 30
0.0
 11
166.21391308736341
 21
215.64370836153901
 31
0.0
  0
LINE
  5
377E
  8
AM_0
 10
164.97269308736361
 20
220.85853636153919
 30
0.0
 11
166.2527930873635
 21
212.85336336153921
 31
0.0
  0
LINE
  5
377F
  8
AM_0
 10
164.97263308736339
 20
219.5140083615392
 30
0.0
 11
166.26371308736361
 21
211.02088836153919
 31
0.0
  0
ARC
  5
3780
  8
AM_0
 10
168.17912308736351
 20
216.01557936153921
 30
0.0
 40
2.00000007
 50
190.71568999999951
 51
270.0
  0
ARC
  5
3781
  8
AM_0
 10
168.22769308736369
 20
213.1692033615391
 30
0.0
 40
2.00000007
 50
189.08497000000031
 51
270.0
  0
LINE
  5
3782
  8
AM_0
 10
155.97269308736361
 20
220.29885936153909
 30
0.0
 11
156.97268308736341
 21
220.29885936153909
 31
0.0
  0
ARC
  5
3783
  8
AM_0
 10
155.47268308736341
 20
220.0494693615392
 30
0.0
 40
0.5000000100000001
 50
0.0
 51
90.00000299999769
  0
ARC
  5
3784
  8
AM_0
 10
155.47268308736341
 20
222.1957563615392
 30
0.0
 40
0.5000000100000001
 50
270.0
 51
0.0
  0
LINE
  5
3785
  8
AM_0
 10
156.97268308736341
 20
217.2988593615392
 30
0.0
 11
164.97269308736361
 21
217.2988593615392
 31
0.0
  0
ARC
  5
3786
  8
AM_0
 10
168.2623730873635
 20
210.41090436153911
 30
0.0
 40
2.00000007
 50
187.94403999999901
 51
270.0
  0
LINE
  5
3787
  8
AM_0
 10
164.97263308736339
 20
219.5139633615392
 30
0.0
 11
166.28153308736361
 21
210.1345203615391
 31
0.0
  0
ARC
  5
3788
  8
AM_0
 10
168.24107308736359
 20
211.32142536153921
 30
0.0
 40
2.00000007
 50
188.6433899999989
 51
270.0
  0
ARC
  5
3789
  8
AM_0
 10
153.2408930873635
 20
221.5494693615392
 30
0.0
 40
1.0000000199999981
 50
239.97359999999779
 51
270.0
  0
ARC
  5
378A
  8
AM_0
 10
153.21194308736361
 20
222.6957543615392
 30
0.0
 40
1.0000000199999981
 50
243.0887399999981
 51
270.0
  0
LINE
  5
378B
  8
AM_0
 10
152.97269308736361
 20
220.8026883615392
 30
0.0
 11
152.97269308736361
 21
221.32846236153921
 31
0.0
  0
LINE
  5
378C
  8
AM_0
 10
152.74052308736361
 20
220.68365436153911
 30
0.0
 11
151.47233308736349
 21
221.41664136153909
 31
0.0
  0
LINE
  5
378D
  8
AM_0
 10
153.2408930873635
 20
220.5494553615392
 30
0.0
 11
155.47268308736341
 21
220.5494553615392
 31
0.0
  0
LINE
  5
378E
  8
AM_0
 10
153.21194308736361
 20
221.69577036153919
 30
0.0
 11
155.47268308736341
 21
221.69577036153919
 31
0.0
  0
LINE
  5
378F
  8
AM_0
 10
168.22769308736369
 20
211.16922036153909
 30
0.0
 11
201.97268308736349
 21
211.16922036153909
 31
0.0
  0
LINE
  5
3790
  8
AM_0
 10
168.24107308736359
 20
209.32142736153921
 30
0.0
 11
201.97268308736349
 21
209.32142736153921
 31
0.0
  0
LINE
  5
3791
  8
AM_0
 10
168.2623730873635
 20
208.41091836153919
 30
0.0
 11
201.97268308736349
 21
208.41091836153919
 31
0.0
  0
ARC
  5
3792
  8
AM_0
 10
154.9727030873635
 20
303.0419493615392
 30
0.0
 40
1.0000000199999981
 50
0.0
 51
90.00000299999769
  0
LINE
  5
3793
  8
AM_0
 10
172.9726930873635
 20
294.29884536153918
 30
0.0
 11
167.33810308736349
 21
294.29884536153918
 31
0.0
  0
LINE
  5
3794
  8
AM_0
 10
172.9726930873635
 20
296.29884636153918
 30
0.0
 11
167.33810308736349
 21
296.29884636153918
 31
0.0
  0
ARC
  5
3795
  8
AM_0
 10
166.43417308736349
 20
295.32350436153911
 30
0.0
 40
1.461486869999999
 50
90.00000299999769
 51
270.0
  0
ARC
  5
3796
  8
AM_0
 10
167.52206308736351
 20
295.29884736153917
 30
0.0
 40
1.0000000199999981
 50
90.00000299999769
 51
270.0
  0
LINE
  5
3797
  8
AM_0
 10
166.43417308736349
 20
293.86201836153919
 30
0.0
 11
172.97269308736361
 21
293.86201836153919
 31
0.0
  0
LINE
  5
3798
  8
AM_0
 10
166.43417308736349
 20
296.78499036153909
 30
0.0
 11
172.97269308736361
 21
296.78499036153909
 31
0.0
  0
LINE
  5
3799
  8
AM_0
 10
172.97269308736361
 20
286.29884436153918
 30
0.0
 11
167.33810308736349
 21
286.29884436153918
 31
0.0
  0
LINE
  5
379A
  8
AM_0
 10
172.97269308736361
 20
284.29884636153918
 30
0.0
 11
167.33810308736349
 21
284.29884636153918
 31
0.0
  0
ARC
  5
379B
  8
AM_0
 10
166.3036130873634
 20
285.3114183615391
 30
0.0
 40
1.3309326599999991
 50
90.00000299999769
 51
270.0
  0
ARC
  5
379C
  8
AM_0
 10
167.52206308736351
 20
285.29884536153918
 30
0.0
 40
1.0000000199999981
 50
90.00000299999769
 51
270.0
  0
LINE
  5
379D
  8
AM_0
 10
166.3036130873634
 20
286.64235036153917
 30
0.0
 11
172.97269308736361
 21
286.64235036153917
 31
0.0
  0
LINE
  5
379E
  8
AM_0
 10
166.3036130873634
 20
283.98048636153919
 30
0.0
 11
172.97269308736361
 21
283.98048636153931
 31
0.0
  0
POLYLINE
  5
379F
  8
AM_0
 66
     1
 10
0.0
 20
0.0
 30
0.0
  0
VERTEX
  5
37A0
  8
AM_0
  6
CONTINUOUS
 10
167.8531730873635
 20
286.64139336153909
 30
0.0
  0
VERTEX
  5
37A1
  8
AM_0
  6
CONTINUOUS
 10
168.49922308736359
 20
293.86231536153912
 30
0.0
 42
-1.0
  0
SEQEND
  5
37A2
  8
AM_0
  0
ARC
  5
37A3
  8
AM_0
 10
154.9727030873635
 20
293.29884636153918
 30
0.0
 40
1.0000000199999981
 50
0.0
 51
90.00000299999769
  0
ARC
  5
37A4
  8
AM_0
 10
154.9727030873635
 20
297.29884536153918
 30
0.0
 40
1.0000000199999981
 50
270.0
 51
0.0
  0
ARC
  5
37A5
  8
AM_0
 10
154.9727030873635
 20
283.29884436153918
 30
0.0
 40
1.0000000199999981
 50
0.0
 51
90.00000299999769
  0
ARC
  5
37A6
  8
AM_0
 10
154.9727030873635
 20
287.29884636153918
 30
0.0
 40
1.0000000199999981
 50
270.0
 51
0.0
  0
POLYLINE
  5
37A7
  8
AM_0
 66
     1
 10
0.0
 20
0.0
 30
0.0
  0
VERTEX
  5
37A8
  8
AM_0
  6
CONTINUOUS
 10
168.83492308736371
 20
296.78578236153919
 30
0.0
  0
VERTEX
  5
37A9
  8
AM_0
  6
CONTINUOUS
 10
169.79540308736361
 20
303.6674163615391
 30
0.0
 42
-1.0
  0
SEQEND
  5
37AA
  8
AM_0
  0
LINE
  5
37AB
  8
AM_0
 10
166.6499930873635
 20
303.66603336153918
 30
0.0
 11
173.97269308736361
 21
303.66603336153918
 31
0.0
  0
POLYLINE
  5
37AC
  8
AM_0
 66
     1
 10
0.0
 20
0.0
 30
0.0
  0
VERTEX
  5
37AD
  8
AM_0
  6
CONTINUOUS
 10
167.8531730873635
 20
253.9562583615392
 30
0.0
  0
VERTEX
  5
37AE
  8
AM_0
  6
CONTINUOUS
 10
168.49922308736359
 20
246.73532136153921
 30
0.0
 42
-1.0
  0
SEQEND
  5
37AF
  8
AM_0
  0
LINE
  5
37B0
  8
AM_0
 10
172.97269308736361
 20
246.29884536153921
 30
0.0
 11
167.33810308736349
 21
246.29884536153921
 31
0.0
  0
LINE
  5
37B1
  8
AM_0
 10
172.97269308736361
 20
256.29885936153909
 30
0.0
 11
167.33810308736349
 21
256.29885936153909
 31
0.0
  0
LINE
  5
37B2
  8
AM_0
 10
172.97269308736361
 20
254.29884336153921
 30
0.0
 11
167.33810308736349
 21
254.29884336153921
 31
0.0
  0
ARC
  5
37B3
  8
AM_0
 10
166.3036130873634
 20
255.28628736153919
 30
0.0
 40
1.3309326599999991
 50
90.00000299999769
 51
270.0
  0
LINE
  5
37B4
  8
AM_0
 10
166.43423308736351
 20
246.7356273615392
 30
0.0
 11
172.97269308736361
 21
246.7356273615392
 31
0.0
  0
ARC
  5
37B5
  8
AM_0
 10
167.52206308736351
 20
255.29884536153921
 30
0.0
 40
1.0000000199999981
 50
90.00000299999769
 51
270.0
  0
LINE
  5
37B6
  8
AM_0
 10
166.3036130873634
 20
256.61720436153922
 30
0.0
 11
172.97269308736361
 21
256.61720436153922
 31
0.0
  0
LINE
  5
37B7
  8
AM_0
 10
166.3036130873634
 20
253.95533736153911
 30
0.0
 11
172.97269308736361
 21
253.95533736153911
 31
0.0
  0
ARC
  5
37B8
  8
AM_0
 10
154.9727030873635
 20
247.29885936153909
 30
0.0
 40
1.0000000199999981
 50
270.0
 51
0.0
  0
ARC
  5
37B9
  8
AM_0
 10
154.9727030873635
 20
257.29884336153918
 30
0.0
 40
1.0000000199999981
 50
270.0
 51
0.0
  0
ARC
  5
37BA
  8
AM_0
 10
154.9727030873635
 20
253.29885936153909
 30
0.0
 40
1.0000000199999981
 50
0.0
 51
90.00000299999769
  0
POLYLINE
  5
37BB
  8
AM_0
 66
     1
 10
0.0
 20
0.0
 30
0.0
  0
VERTEX
  5
37BC
  8
AM_0
 10
167.6123717505682
 20
258.29884536153918
 30
0.0
  0
VERTEX
  5
37BD
  8
AM_0
 10
167.6800430873636
 20
256.61945736153911
 30
0.0
 42
-1.0
  0
SEQEND
  5
37BE
  8
AM_0
  0
POLYLINE
  5
37BF
  8
AM_0
 66
     1
 10
0.0
 20
0.0
 30
0.0
  0
VERTEX
  5
37C0
  8
AM_0
 10
167.61237252587651
 20
282.29884536153918
 30
0.0
  0
VERTEX
  5
37C1
  8
AM_0
 10
167.6800430873636
 20
283.9782093615392
 30
0.0
 42
-1.0
  0
SEQEND
  5
37C2
  8
AM_0
  0
ARC
  5
37C3
  8
AM_0
 10
153.12302308736361
 20
303.0419493615392
 30
0.0
 40
1.0000000199999981
 50
90.00000299999769
 51
107.0976299999964
  0
ARC
  5
37C4
  8
AM_0
 10
151.97270308736341
 20
302.6881293615391
 30
0.0
 40
1.0000000199999981
 50
107.0976299999964
 51
180.00001000000091
  0
LINE
  5
37C5
  8
AM_0
 10
152.82902308736351
 20
303.99775836153918
 30
0.0
 11
151.67870308736349
 21
303.64390836153922
 31
0.0
  0
LINE
  5
37C6
  8
AM_0
 10
152.97269308736361
 20
295.92500436153921
 30
0.0
 11
152.97269308736361
 21
294.56221236153908
 31
0.0
  0
ARC
  5
37C7
  8
AM_0
 10
151.97270308736341
 20
295.29884736153917
 30
0.0
 40
1.0000000199999981
 50
179.999989999999
 51
270.0
  0
ARC
  5
37C8
  8
AM_0
 10
151.97270308736341
 20
295.29884736153917
 30
0.0
 40
1.0000000199999981
 50
90.00000299999769
 51
180.00001000000091
  0
LINE
  5
37C9
  8
AM_0
 10
152.97269308736361
 20
285.9059613615392
 30
0.0
 11
152.97269308736361
 21
284.69453736153912
 31
0.0
  0
LINE
  5
37CA
  8
AM_0
 10
149.47268308736341
 20
290.29884636153918
 30
0.0
 11
150.97268308736341
 21
290.4300723615392
 31
0.0
  0
LINE
  5
37CB
  8
AM_0
 10
149.47268308736341
 20
287.58082836153909
 30
0.0
 11
150.97268308736341
 21
287.58082836153909
 31
0.0
  0
ARC
  5
37CC
  8
AM_0
 10
151.97270308736341
 20
285.29884536153918
 30
0.0
 40
1.0000000199999981
 50
90.00000299999769
 51
180.00001000000091
  0
ARC
  5
37CD
  8
AM_0
 10
151.97270308736341
 20
285.29884536153918
 30
0.0
 40
1.0000000199999981
 50
179.999989999999
 51
270.0
  0
LINE
  5
37CE
  8
AM_0
 10
152.97269308736361
 20
254.69174436153909
 30
0.0
 11
152.97269308736361
 21
255.90309336153919
 31
0.0
  0
LINE
  5
37CF
  8
AM_0
 10
149.4727430873636
 20
250.29885936153909
 30
0.0
 11
150.97268308736341
 21
250.16761836153921
 31
0.0
  0
LINE
  5
37D0
  8
AM_0
 10
149.47268308736341
 20
253.01680236153919
 30
0.0
 11
150.97268308736341
 21
253.01680236153919
 31
0.0
  0
ARC
  5
37D1
  8
AM_0
 10
151.97270308736341
 20
255.29884536153921
 30
0.0
 40
1.0000000199999981
 50
179.999989999999
 51
270.0
  0
ARC
  5
37D2
  8
AM_0
 10
151.97270308736341
 20
255.29884536153921
 30
0.0
 40
1.0000000199999981
 50
90.00000299999769
 51
180.00001000000091
  0
LINE
  5
37D3
  8
AM_0
 10
149.47268308736341
 20
255.14882136153921
 30
0.0
 11
152.76638308736349
 21
255.14882136153921
 31
0.0
  0
LINE
  5
37D4
  8
AM_0
 10
149.47268308736341
 20
250.29885936153909
 30
0.0
 11
149.47268308736341
 21
259.29884536153929
 31
0.0
  0
LINE
  5
37D5
  8
AM_0
 10
149.47268308736341
 20
290.29884636153918
 30
0.0
 11
149.47268308736341
 21
281.29884536153929
 31
0.0
  0
LINE
  5
37D6
  8
AM_0
 10
154.9727030873635
 20
294.29884536153918
 30
0.0
 11
151.97270308736341
 21
294.29884536153918
 31
0.0
  0
LINE
  5
37D7
  8
AM_0
 10
153.12302308736361
 20
304.0419483615392
 30
0.0
 11
154.9727030873635
 21
304.0419483615392
 31
0.0
  0
LINE
  5
37D8
  8
AM_0
 10
154.9727030873635
 20
296.29884636153918
 30
0.0
 11
151.97270308736341
 21
296.29884636153918
 31
0.0
  0
LINE
  5
37D9
  8
AM_0
 10
154.9727030873635
 20
286.29884436153918
 30
0.0
 11
151.97270308736341
 21
286.29884436153918
 31
0.0
  0
LINE
  5
37DA
  8
AM_0
 10
154.9727030873635
 20
284.29884636153918
 30
0.0
 11
151.97270308736341
 21
284.29884636153918
 31
0.0
  0
LINE
  5
37DB
  8
AM_0
 10
154.9727030873635
 20
246.29884536153921
 30
0.0
 11
151.97270308736341
 21
246.29884536153921
 31
0.0
  0
LINE
  5
37DC
  8
AM_0
 10
154.9727030873635
 20
254.29884336153921
 30
0.0
 11
151.97270308736341
 21
254.29884336153921
 31
0.0
  0
LINE
  5
37DD
  8
AM_0
 10
154.9727030873635
 20
256.29885936153909
 30
0.0
 11
151.97270308736341
 21
256.29885936153909
 31
0.0
  0
LINE
  5
37DE
  8
AM_0
 10
149.47268308736341
 20
285.44886936153921
 30
0.0
 11
154.1501930873635
 21
285.44886936153921
 31
0.0
  0
LINE
  5
37DF
  8
AM_0
 10
172.97269308736361
 20
244.2988593615392
 30
0.0
 11
167.33810308736349
 21
244.2988593615392
 31
0.0
  0
POLYLINE
  5
37E0
  8
AM_0
 66
     1
 10
0.0
 20
0.0
 30
0.0
  0
VERTEX
  5
37E1
  8
AM_0
  6
CONTINUOUS
 10
168.83492308736371
 20
243.8118603615392
 30
0.0
  0
VERTEX
  5
37E2
  8
AM_0
  6
CONTINUOUS
 10
169.79540308736361
 20
236.93026836153919
 30
0.0
 42
-1.0
  0
SEQEND
  5
37E3
  8
AM_0
  0
ARC
  5
37E4
  8
AM_0
 10
166.6506230873635
 20
235.2536793615391
 30
0.0
 40
1.6779175200000001
 50
90.00000299999769
 51
270.0
  0
ARC
  5
37E5
  8
AM_0
 10
167.52206308736351
 20
235.29885936153909
 30
0.0
 40
1.0000000199999981
 50
90.00000299999769
 51
270.0
  0
LINE
  5
37E6
  8
AM_0
 10
166.43423308736351
 20
243.81263736153909
 30
0.0
 11
172.97269308736361
 21
243.81263736153909
 31
0.0
  0
ARC
  5
37E7
  8
AM_0
 10
154.9727030873635
 20
243.29884536153921
 30
0.0
 40
1.0000000199999981
 50
0.0
 51
90.00000299999769
  0
ARC
  5
37E8
  8
AM_0
 10
154.9727030873635
 20
229.31391936153921
 30
0.0
 40
1.0000000199999981
 50
334.63675999999958
 51
0.0
  0
ARC
  5
37E9
  8
AM_0
 10
154.9727030873635
 20
237.55568136153909
 30
0.0
 40
1.0000000199999981
 50
270.0
 51
0.0
  0
ARC
  5
37EA
  8
AM_0
 10
155.27267308736359
 20
233.90963736153921
 30
0.0
 40
0.7000000200000001
 50
0.0
 51
90.00000299999769
  0
ARC
  5
37EB
  8
AM_0
 10
154.9727030873635
 20
224.79721236153921
 30
0.0
 40
1.0000000199999981
 50
270.0
 51
0.0
  0
LINE
  5
37EC
  8
AM_0
 10
157.67081308736351
 20
227.10737736153911
 30
0.0
 11
163.90061308736369
 21
227.10737736153911
 31
0.0
  0
ARC
  5
37ED
  8
AM_0
 10
154.9727030873635
 20
229.31391936153921
 30
0.0
 40
1.0000000199999981
 50
270.0
 51
0.0
  0
LINE
  5
37EE
  8
AM_0
 10
166.6506230873635
 20
236.93161236153921
 30
0.0
 11
173.97269308736361
 21
236.93161236153929
 31
0.0
  0
ARC
  5
37EF
  8
AM_0
 10
153.2439830873634
 20
229.31391936153921
 30
0.0
 40
1.0000000199999981
 50
239.64050000000131
 51
270.0
  0
ARC
  5
37F0
  8
AM_0
 10
153.1773530873636
 20
235.60959036153909
 30
0.0
 40
1.0000000199999981
 50
246.8729699999983
 51
270.0
  0
ARC
  5
37F1
  8
AM_0
 10
153.12302308736361
 20
237.55568136153909
 30
0.0
 40
1.0000000199999981
 50
252.9023699999955
 51
270.0
  0
LINE
  5
37F2
  8
AM_0
 10
152.97269308736361
 20
234.90596136153911
 30
0.0
 11
152.97269308736361
 21
235.96591236153901
 31
0.0
  0
ARC
  5
37F3
  8
AM_0
 10
151.97270308736341
 20
230.05860936153911
 30
0.0
 40
1.0000000199999981
 50
179.999989999999
 51
239.64048999999821
  0
ARC
  5
37F4
  8
AM_0
 10
151.97270308736341
 20
230.05860936153911
 30
0.0
 40
1.0000000199999981
 50
179.999989999999
 51
239.64048999999821
  0
LINE
  5
37F5
  8
AM_0
 10
151.4672630873637
 20
229.1957103615392
 30
0.0
 11
151.4436530873636
 21
229.20954936153919
 31
0.0
  0
ARC
  5
37F6
  8
AM_0
 10
151.97270308736341
 20
237.90957636153919
 30
0.0
 40
1.0000000199999981
 50
179.999989999999
 51
252.9023699999955
  0
ARC
  5
37F7
  8
AM_0
 10
151.97270308736341
 20
236.1241143615392
 30
0.0
 40
1.0000000199999981
 50
179.999989999999
 51
246.87297999999879
  0
LINE
  5
37F8
  8
AM_0
 10
152.73857308736359
 20
228.45100536153919
 30
0.0
 11
151.4672630873637
 21
229.1956803615391
 31
0.0
  0
LINE
  5
37F9
  8
AM_0
 10
152.78453308736351
 20
234.6899583615392
 30
0.0
 11
151.57988308736341
 21
235.20445236153921
 31
0.0
  0
LINE
  5
37FA
  8
AM_0
 10
152.82902308736351
 20
236.5998993615392
 30
0.0
 11
151.67870308736349
 21
236.95375236153919
 31
0.0
  0
ARC
  5
37FB
  8
AM_0
 10
151.97270308736341
 20
245.29884336153921
 30
0.0
 40
1.0000000199999981
 50
179.999989999999
 51
270.0
  0
ARC
  5
37FC
  8
AM_0
 10
153.27134308736359
 20
228.1739043615392
 30
0.0
 40
1.0000000199999981
 50
236.74527000000111
 51
270.0
  0
LINE
  5
37FD
  8
AM_0
 10
152.97269308736361
 20
227.46840036153921
 30
0.0
 11
152.97269308736361
 21
227.94050736153909
 31
0.0
  0
ARC
  5
37FE
  8
AM_0
 10
153.24974308736361
 20
223.6571973615392
 30
0.0
 40
1.0000000199999981
 50
239.03339999999869
 51
270.0
  0
ARC
  5
37FF
  8
AM_0
 10
153.22136308736361
 20
224.79721236153921
 30
0.0
 40
1.0000000199999981
 50
242.0734000000036
 51
270.0
  0
LINE
  5
3800
  8
AM_0
 10
152.97269308736361
 20
222.90229836153901
 30
0.0
 11
152.97269308736361
 21
223.44831936153921
 31
0.0
  0
ARC
  5
3801
  8
AM_0
 10
151.97270308736341
 20
223.32478236153921
 30
0.0
 40
1.0000000199999981
 50
179.999989999999
 51
243.08874999999691
  0
ARC
  5
3802
  8
AM_0
 10
151.97270308736341
 20
225.4590603615392
 30
0.0
 40
1.0000000199999981
 50
179.999989999999
 51
242.07341000000091
  0
ARC
  5
3803
  8
AM_0
 10
151.97270308736341
 20
224.42349336153919
 30
0.0
 40
1.0000000199999981
 50
179.999989999999
 51
239.03339999999869
  0
LINE
  5
3804
  8
AM_0
 10
152.73515308736339
 20
222.7997433615391
 30
0.0
 11
151.45817308736341
 21
223.5660093615391
 31
0.0
  0
LINE
  5
3805
  8
AM_0
 10
152.7530330873636
 20
223.91365236153919
 30
0.0
 11
151.5043730873634
 21
224.5755153615392
 31
0.0
  0
ARC
  5
3806
  8
AM_0
 10
151.97270308736341
 20
229.02548136153911
 30
0.0
 40
1.0000000199999981
 50
179.999989999999
 51
236.74528000000319
  0
LINE
  5
3807
  8
AM_0
 10
152.7229430873634
 20
227.33766336153909
 30
0.0
 11
151.42430308736351
 21
228.1892253615392
 31
0.0
  0
LINE
  5
3808
  8
AM_0
 10
154.9727030873635
 20
244.2988593615392
 30
0.0
 11
151.97270308736341
 21
244.2988593615392
 31
0.0
  0
LINE
  5
3809
  8
AM_0
 10
153.27134308736359
 20
227.17392036153919
 30
0.0
 11
155.97269308736361
 21
227.17392036153919
 31
0.0
  0
LINE
  5
380A
  8
AM_0
 10
153.2439830873634
 20
228.31393536153919
 30
0.0
 11
154.9727030873635
 21
228.31393536153919
 31
0.0
  0
LINE
  5
380B
  8
AM_0
 10
153.1773530873636
 20
234.60957336153919
 30
0.0
 11
155.27267308736359
 21
234.60957336153919
 31
0.0
  0
LINE
  5
380C
  8
AM_0
 10
153.12302308736361
 20
236.5556943615392
 30
0.0
 11
154.9727030873635
 21
236.5556943615392
 31
0.0
  0
LINE
  5
380D
  8
AM_0
 10
153.24974308736361
 20
222.65718036153919
 30
0.0
 11
155.97269308736361
 21
222.65718036153919
 31
0.0
  0
LINE
  5
380E
  8
AM_0
 10
153.22136308736361
 20
223.79719536153911
 30
0.0
 11
154.9727030873635
 21
223.79719536153911
 31
0.0
  0
ARC
  5
380F
  8
AM_0
 10
166.43423308736351
 20
245.2741263615392
 30
0.0
 40
1.4615021100000001
 50
90.00000299999769
 51
270.0
  0
LINE
  5
3810
  8
AM_0
 10
152.97269308736361
 20
244.67262336153911
 30
0.0
 11
152.97269308736361
 21
246.03547836153919
 31
0.0
  0
ARC
  5
3811
  8
AM_0
 10
167.52206308736351
 20
245.29884336153921
 30
0.0
 40
1.0000000199999981
 50
90.00000299999769
 51
270.0
  0
ARC
  5
3812
  8
AM_0
 10
151.97270308736341
 20
245.29884336153921
 30
0.0
 40
1.0000000199999981
 50
90.00000299999769
 51
180.00001000000091
  0
LINE
  5
3813
  8
AM_0
 10
150.97268308736341
 20
222.2824413615391
 30
0.0
 11
150.97268308736341
 21
259.29884536153929
 31
0.0
  0
ARC
  5
3814
  8
AM_0
 10
201.97268308736349
 20
327.42849036153922
 30
0.0
 40
2.00000007
 50
0.0
 51
90.00000299999769
  0
ARC
  5
3815
  8
AM_0
 10
201.97268308736349
 20
329.27619036153919
 30
0.0
 40
2.00000007
 50
0.0
 51
90.00000299999769
  0
ARC
  5
3816
  8
AM_0
 10
201.97268308736349
 20
330.18672036153919
 30
0.0
 40
2.00000007
 50
0.0
 51
90.00000299999769
  0
LINE
  5
3817
  8
AM_0
 10
203.97269308736361
 20
330.18672036153919
 30
0.0
 11
203.97269308736361
 21
326.58210036153918
 31
0.0
  0
ARC
  5
3818
  8
AM_0
 10
168.17912308736351
 20
324.58212036153918
 30
0.0
 40
2.00000007
 50
90.00000299999769
 51
169.2843100000004
  0
ARC
  5
3819
  8
AM_0
 10
168.22769308736369
 20
327.42849036153922
 30
0.0
 40
2.00000007
 50
90.00000299999769
 51
170.9150299999996
  0
ARC
  5
381A
  8
AM_0
 10
168.24107308736359
 20
329.27619036153919
 30
0.0
 40
2.00000007
 50
90.00000299999769
 51
171.35661000000101
  0
ARC
  5
381B
  8
AM_0
 10
168.2623730873635
 20
330.18672036153919
 30
0.0
 40
2.00000007
 50
90.00000299999769
 51
172.05596000000091
  0
LINE
  5
381C
  8
AM_0
 10
164.97269308736361
 20
319.73910036153922
 30
0.0
 11
166.25273308736359
 21
327.7442403615392
 31
0.0
  0
LINE
  5
381D
  8
AM_0
 10
164.97269308736361
 20
321.08370036153917
 30
0.0
 11
166.26371308736361
 21
329.57676036153919
 31
0.0
  0
LINE
  5
381E
  8
AM_0
 10
164.97269308736361
 20
321.08370036153917
 30
0.0
 11
166.28153308736361
 21
330.46311036153918
 31
0.0
  0
LINE
  5
381F
  8
AM_0
 10
164.97269308736361
 20
318.39456036153922
 30
0.0
 11
166.21397308736371
 21
324.95397036153912
 31
0.0
  0
LINE
  5
3820
  8
AM_0
 10
155.97269308736361
 20
320.29884036153919
 30
0.0
 11
156.97268308736341
 21
320.29884036153919
 31
0.0
  0
ARC
  5
3821
  8
AM_0
 10
155.47268308736341
 20
318.40194036153918
 30
0.0
 40
0.5000000100000001
 50
0.0
 51
90.00000299999769
  0
ARC
  5
3822
  8
AM_0
 10
155.47268308736341
 20
320.54823036153908
 30
0.0
 40
0.5000000100000001
 50
270.0
 51
0.0
  0
LINE
  5
3823
  8
AM_0
 10
156.97268308736341
 20
323.29884036153919
 30
0.0
 11
164.97269308736361
 21
323.29884036153919
 31
0.0
  0
ARC
  5
3824
  8
AM_0
 10
153.2408930873635
 20
319.04823036153908
 30
0.0
 40
1.0000000199999981
 50
90.00000299999769
 51
120.0264000000022
  0
ARC
  5
3825
  8
AM_0
 10
153.21194308736361
 20
317.90193036153909
 30
0.0
 40
1.0000000199999981
 50
90.00000299999769
 51
116.9112600000018
  0
ARC
  5
3826
  8
AM_0
 10
153.24974308736361
 20
316.94046036153918
 30
0.0
 40
1.0000000199999981
 50
90.00000299999769
 51
120.96660000000119
  0
ARC
  5
3827
  8
AM_0
 10
153.22136308736361
 20
315.80049036153912
 30
0.0
 40
1.0000000199999981
 50
90.00000299999769
 51
117.9265999999963
  0
LINE
  5
3828
  8
AM_0
 10
152.97269308736361
 20
317.69538036153921
 30
0.0
 11
152.97269308736361
 21
317.14932036153908
 31
0.0
  0
LINE
  5
3829
  8
AM_0
 10
152.97269308736361
 20
319.79499036153908
 30
0.0
 11
152.97269308736361
 21
319.26924036153912
 31
0.0
  0
ARC
  5
382A
  8
AM_0
 10
151.97270308736341
 20
318.31521036153919
 30
0.0
 40
1.0000000199999981
 50
120.0264000000022
 51
180.00001000000091
  0
ARC
  5
382B
  8
AM_0
 10
151.97270308736341
 20
317.27292036153921
 30
0.0
 40
1.0000000199999981
 50
116.9112600000018
 51
180.00001000000091
  0
LINE
  5
382C
  8
AM_0
 10
152.74052308736361
 20
319.91394036153918
 30
0.0
 11
151.47233308736349
 21
319.18098036153918
 31
0.0
  0
LINE
  5
382D
  8
AM_0
 10
152.73515308736339
 20
317.79795036153922
 30
0.0
 11
151.45811308736361
 21
317.0316603615392
 31
0.0
  0
LINE
  5
382E
  8
AM_0
 10
152.75936308736371
 20
318.7936803615392
 30
0.0
 11
151.5200630873635
 21
318.16467036153909
 31
0.0
  0
LINE
  5
382F
  8
AM_0
 10
153.2408930873635
 20
320.0482503615392
 30
0.0
 11
155.47268308736341
 21
320.0482503615392
 31
0.0
  0
LINE
  5
3830
  8
AM_0
 10
153.24974308736361
 20
317.94045036153921
 30
0.0
 11
155.97269308736361
 21
317.94045036153921
 31
0.0
  0
LINE
  5
3831
  8
AM_0
 10
153.22136308736361
 20
316.80048036153909
 30
0.0
 11
154.9727030873635
 21
316.80048036153909
 31
0.0
  0
LINE
  5
3832
  8
AM_0
 10
153.21194308736361
 20
318.90192036153928
 30
0.0
 11
155.47268308736341
 21
318.90192036153928
 31
0.0
  0
ARC
  5
3833
  8
AM_0
 10
154.9727030873635
 20
311.28378036153907
 30
0.0
 40
1.0000000199999981
 50
0.0
 51
90.00000299999769
  0
ARC
  5
3834
  8
AM_0
 10
155.27267308736359
 20
306.68808036153922
 30
0.0
 40
0.7000000200000001
 50
270.0
 51
0.0
  0
LINE
  5
3835
  8
AM_0
 10
157.67081308736351
 20
313.4902503615391
 30
0.0
 11
163.90061308736369
 21
313.4902503615391
 31
0.0
  0
ARC
  5
3836
  8
AM_0
 10
153.27134308736359
 20
312.42372036153921
 30
0.0
 40
1.0000000199999981
 50
90.00000299999769
 51
123.2547299999989
  0
ARC
  5
3837
  8
AM_0
 10
153.2439830873634
 20
311.28378036153907
 30
0.0
 40
1.0000000199999981
 50
90.00000299999769
 51
120.3594999999986
  0
LINE
  5
3838
  8
AM_0
 10
152.97269308736361
 20
313.12929036153912
 30
0.0
 11
152.97269308736361
 21
312.65712036153928
 31
0.0
  0
ARC
  5
3839
  8
AM_0
 10
153.1773530873636
 20
304.98805536153918
 30
0.0
 40
1.0000000199999981
 50
90.00000299999769
 51
113.1270300000016
  0
ARC
  5
383A
  8
AM_0
 10
151.97270308736341
 20
315.13857036153911
 30
0.0
 40
1.0000000199999981
 50
117.9265999999963
 51
180.00001000000091
  0
ARC
  5
383B
  8
AM_0
 10
151.97270308736341
 20
310.53909036153908
 30
0.0
 40
1.0000000199999981
 50
120.3594999999986
 51
180.00001000000091
  0
ARC
  5
383C
  8
AM_0
 10
151.97270308736341
 20
311.57217036153912
 30
0.0
 40
1.0000000199999981
 50
123.2547299999989
 51
180.00001000000091
  0
LINE
  5
383D
  8
AM_0
 10
152.7229430873634
 20
313.2600003615392
 30
0.0
 11
151.42430308736351
 21
312.40842036153907
 31
0.0
  0
LINE
  5
383E
  8
AM_0
 10
152.73857308736359
 20
312.1466403615392
 30
0.0
 11
151.4672630873637
 21
311.40195036153909
 31
0.0
  0
LINE
  5
383F
  8
AM_0
 10
153.27134308736359
 20
313.42371036153918
 30
0.0
 11
155.97269308736361
 21
313.42371036153918
 31
0.0
  0
LINE
  5
3840
  8
AM_0
 10
153.2439830873634
 20
312.28377036153921
 30
0.0
 11
154.9727030873635
 21
312.28377036153921
 31
0.0
  0
LINE
  5
3841
  8
AM_0
 10
153.1773530873636
 20
305.98805436153918
 30
0.0
 11
155.27267308736359
 21
305.98805436153918
 31
0.0
  0
ARC
  5
3842
  8
AM_0
 10
154.9727030873635
 20
315.80049036153912
 30
0.0
 40
1.0000000199999981
 50
0.0
 51
90.00000299999769
  0
LINE
  5
3843
  8
AM_0
 10
170.33810308736341
 20
306.9500403615391
 30
0.0
 11
164.97269308736361
 21
318.39453036153918
 31
0.0
  0
ARC
  5
3844
  8
AM_0
 10
151.97270308736341
 20
316.17414036153912
 30
0.0
 40
1.0000000199999981
 50
120.96660000000119
 51
180.00001000000091
  0
LINE
  5
3845
  8
AM_0
 10
152.7530330873636
 20
316.68399036153909
 30
0.0
 11
151.5043730873634
 21
316.02210036153917
 31
0.0
  0
LINE
  5
3846
  8
AM_0
 10
168.22769308736369
 20
329.42850036153919
 30
0.0
 11
201.97268308736349
 21
329.42850036153919
 31
0.0
  0
LINE
  5
3847
  8
AM_0
 10
168.24107308736359
 20
331.27620036153922
 30
0.0
 11
201.97268308736349
 21
331.27620036153922
 31
0.0
  0
LINE
  5
3848
  8
AM_0
 10
168.2623730873635
 20
332.18673036153922
 30
0.0
 11
201.97268308736349
 21
332.18673036153922
 31
0.0
  0
LINE
  5
3849
  8
AM_0
 10
362.97266308736369
 20
315.2988603615392
 30
0.0
 11
362.97266308736369
 21
215.4892413615392
 31
0.0
  0
ARC
  5
384A
  8
AM_0
 10
319.97270308736353
 20
304.76405736153907
 30
0.0
 40
1.0000000199999981
 50
0.0
 51
90.00000299999769
  0
LINE
  5
384B
  8
AM_0
 10
320.97266308736369
 20
303.87730836153918
 30
0.0
 11
320.97266308736369
 21
313.42434036153918
 31
0.0
  0
LINE
  5
384C
  8
AM_0
 10
316.97270308736353
 20
314.9243103615392
 30
0.0
 11
316.97270308736353
 21
302.37730536153919
 31
0.0
  0
LINE
  5
384D
  8
AM_0
 10
289.97270308736353
 20
314.29884036153919
 30
0.0
 11
289.97270308736353
 21
296.08155936153912
 31
0.0
  0
LINE
  5
384E
  8
AM_0
 10
298.97270308736341
 20
310.17246036153909
 30
0.0
 11
298.97270308736341
 21
270.29884536153918
 31
0.0
  0
ARC
  5
384F
  8
AM_0
 10
269.79479308736359
 20
305.34395136153921
 30
0.0
 40
1.6779127499999991
 50
276.08620038401642
 51
83.913799615983635
  0
LINE
  5
3850
  8
ﾁｭｳｼﾝｾﾝ
 10
221.97269308736361
 20
321.29884536153918
 30
0.0
 11
221.97269308736361
 21
219.29884536153909
 31
0.0
  0
LINE
  5
3851
  8
AM_0
 10
315.97271308736367
 20
318.52080036153922
 30
0.0
 11
315.97271308736367
 21
299.1370713615392
 31
0.0
  0
LINE
  5
3852
  8
AM_0
 10
352.97270308736358
 20
324.17115036153922
 30
0.0
 11
352.97270308736358
 21
239.0662683615391
 31
0.0
  0
LINE
  5
3853
  8
AM_0
 10
272.97269308736361
 20
326.29884036153919
 30
0.0
 11
272.97269308736361
 21
214.29885936153909
 31
0.0
  0
LINE
  5
3854
  8
AM_0
 10
280.97270308736353
 20
326.29887036153912
 30
0.0
 11
280.97270308736353
 21
214.29885936153909
 31
0.0
  0
LINE
  5
3855
  8
AM_0
 10
304.97270308736353
 20
330.29886036153908
 30
0.0
 11
304.97270308736353
 21
220.29885936153909
 31
0.0
  0
ARC
  5
3856
  8
AM_0
 10
344.97266308736369
 20
295.21626636153928
 30
0.0
 40
5.0000001000000003
 50
90.00000299999769
 51
180.00001000000091
  0
LINE
  5
3857
  8
AM_0
 10
347.97266308736369
 20
234.06625536153919
 30
0.0
 11
339.97271308736367
 21
234.06625536153919
 31
0.0
  0
ARC
  5
3858
  8
AM_0
 10
344.97266308736369
 20
217.29882936153919
 30
0.0
 40
5.0000001000000003
 50
180.00001000000091
 51
270.0
  0
ARC
  5
3859
  8
AM_0
 10
343.97270308736358
 20
202.29882936153919
 30
0.0
 40
1.0000000199999981
 50
0.0
 51
90.00000299999769
  0
LINE
  5
385A
  8
ﾁｭｳｼﾝｾﾝ
 10
293.62328308736352
 20
287.29884636153918
 30
0.0
 11
400.9036743175435
 21
287.29884636153918
 31
0.0
  0
LINE
  5
385B
  8
AM_0
 10
329.75840308736349
 20
294.6381723615392
 30
0.0
 11
317.97269308736361
 21
212.29881336153909
 31
0.0
  0
LINE
  5
385C
  8
AM_0
 10
317.97266308736369
 20
298.92970536153922
 30
0.0
 11
317.97266308736369
 21
212.29884336153921
 31
0.0
  0
LINE
  5
385D
  8
AM_0
 10
298.97270308736341
 20
212.29884336153921
 30
0.0
 11
298.97270308736341
 21
270.29884536153918
 31
0.0
  0
LINE
  5
385E
  8
AM_0
 10
339.97271308736367
 20
217.29882936153919
 30
0.0
 11
339.97271308736367
 21
295.21626636153928
 31
0.0
  0
LINE
  5
385F
  8
AM_0
 10
307.95218308736338
 20
246.12416136153919
 30
0.0
 11
304.28447308736361
 21
214.94828736153909
 31
0.0
  0
LINE
  5
3860
  8
AM_0
 10
271.47269308736361
 20
232.07580636153921
 30
0.0
 11
267.03068308736363
 21
215.4979413615392
 31
0.0
  0
LINE
  5
3861
  8
AM_0
 10
272.97269308736361
 20
214.29885936153909
 30
0.0
 11
280.97270308736353
 21
214.29885936153909
 31
0.0
  0
LINE
  5
3862
  8
AM_0
 10
267.51323308736357
 20
217.2988593615392
 30
0.0
 11
272.97269308736361
 21
217.2988593615392
 31
0.0
  0
ARC
  5
3863
  8
AM_0
 10
265.09886308736361
 20
216.01557936153921
 30
0.0
 40
2.00000007
 50
270.0
 51
344.99999999999841
  0
ARC
  5
3864
  8
AM_0
 10
297.47270308736353
 20
212.36627136153919
 30
0.0
 40
1.5000000299999989
 50
0.0
 51
88.499997000000647
  0
ARC
  5
3865
  8
AM_0
 10
301.30496308736349
 20
215.2988433615391
 30
0.0
 40
3.0
 50
270.0
 51
353.29015999999717
  0
ARC
  5
3866
  8
AM_0
 10
283.47269308736361
 20
210.79884336153921
 30
0.0
 40
1.5000000299999989
 50
90.00000299999769
 51
180.00001000000091
  0
LINE
  5
3867
  8
AM_0
 10
280.97270308736353
 20
214.29882936153919
 30
0.0
 11
297.5120030873635
 21
213.8657373615392
 31
0.0
  0
LINE
  5
3868
  8
AM_0
 10
301.30496308736349
 20
212.29884336153921
 30
0.0
 11
283.47269308736361
 21
212.29884336153921
 31
0.0
  0
LINE
  5
3869
  8
AM_0
 10
301.97270308736353
 20
202.29882936153919
 30
0.0
 11
301.97270308736353
 21
202.29882936153919
 31
0.0
  0
ARC
  5
386A
  8
AM_0
 10
302.97269308736361
 20
202.29882936153919
 30
0.0
 40
1.0000000199999981
 50
90.00000299999769
 51
180.00001000000091
  0
LINE
  5
386B
  8
AM_0
 10
281.97269308736361
 20
202.29882936153919
 30
0.0
 11
301.97270308736353
 21
202.29882936153919
 31
0.0
  0
LINE
  5
386C
  8
ｶｸﾚｾﾝ2
 10
296.97269308736361
 20
202.29882936153919
 30
0.0
 11
296.97269308736361
 21
212.29884336153921
 31
0.0
  0
LINE
  5
386D
  8
ｶｸﾚｾﾝ2
 10
286.97270308736353
 20
202.29882936153919
 30
0.0
 11
286.97270308736353
 21
212.29884336153921
 31
0.0
  0
LINE
  5
386E
  8
AM_0
 10
281.97269308736361
 20
202.29882936153919
 30
0.0
 11
281.97269308736361
 21
210.79884336153921
 31
0.0
  0
LINE
  5
386F
  8
AM_0
 10
302.97269308736361
 20
203.29884336153921
 30
0.0
 11
343.97270308736358
 21
203.29884336153921
 31
0.0
  0
LINE
  5
3870
  8
AM_0
 10
272.97269308736361
 20
302.23628436153911
 30
0.0
 11
280.97270308736353
 21
302.23628436153911
 31
0.0
  0
LINE
  5
3871
  8
AM_0
 10
272.97269308736361
 20
238.36140636153911
 30
0.0
 11
280.97270308736353
 21
238.36140636153911
 31
0.0
  0
LINE
  5
3872
  8
AM_0
 10
272.97269308736361
 20
224.2988433615391
 30
0.0
 11
280.97270308736353
 21
224.2988433615391
 31
0.0
  0
ARC
  5
3873
  8
AM_0
 10
269.79479308736359
 20
235.2536793615391
 30
0.0
 40
1.6779127499999991
 50
276.08620038402279
 51
83.913799615977155
  0
ARC
  5
3874
  8
AM_0
 10
319.97270308736353
 20
303.87730836153918
 30
0.0
 40
1.0000000199999981
 50
270.0
 51
0.0
  0
ARC
  5
3875
  8
AM_0
 10
334.70795308736359
 20
293.92970436153922
 30
0.0
 40
5.0000001000000003
 50
90.00000299999769
 51
171.85423999999699
  0
LINE
  5
3876
  8
AM_0
 10
315.97271308736367
 20
302.37730536153919
 30
0.0
 11
316.97270308736353
 21
302.37730536153919
 31
0.0
  0
ARC
  5
3877
  8
AM_0
 10
316.97270308736353
 20
299.1370713615392
 30
0.0
 40
1.0000000199999981
 50
179.999989999999
 51
270.0
  0
LINE
  5
3878
  8
AM_0
 10
280.97270308736353
 20
302.23628436153911
 30
0.0
 11
289.97270308736353
 21
302.23628436153911
 31
0.0
  0
LINE
  5
3879
  8
AM_0
 10
289.97270308736353
 20
296.08155936153912
 30
0.0
 11
298.97270308736341
 21
296.08155936153912
 31
0.0
  0
ARC
  5
387A
  8
AM_0
 10
304.97270308736353
 20
246.4747023615391
 30
0.0
 40
3.0
 50
353.29015999999717
 51
0.0
  0
LINE
  5
387B
  8
AM_0
 10
307.97270308736353
 20
275.04966936153909
 30
0.0
 11
307.97270308736353
 21
246.4747023615391
 31
0.0
  0
ARC
  5
387C
  8
AM_0
 10
316.97270308736353
 20
297.13707336153908
 30
0.0
 40
1.0000000199999981
 50
0.0
 51
90.00000299999769
  0
LINE
  5
387D
  8
AM_0
 10
316.97270308736353
 20
302.87727636153909
 30
0.0
 11
319.97270308736353
 21
302.87727636153909
 31
0.0
  0
LINE
  5
387E
  8
AM_0
 10
317.97266308736369
 20
298.92970536153922
 30
0.0
 11
341.6244830873635
 21
298.92970536153922
 31
0.0
  0
LINE
  5
387F
  8
AM_0
 10
280.97270308736353
 20
238.36140636153911
 30
0.0
 11
298.97270308736341
 21
238.36140636153911
 31
0.0
  0
LINE
  5
3880
  8
AM_0
 10
280.97270308736353
 20
224.2988433615391
 30
0.0
 11
298.97270308736341
 21
224.2988433615391
 31
0.0
  0
ARC
  5
3881
  8
AM_0
 10
363.47270308736353
 20
210.79884336153921
 30
0.0
 40
1.5000000299999989
 50
0.0
 51
90.00000299999769
  0
ARC
  5
3882
  8
AM_0
 10
367.97270308736353
 20
215.4892413615392
 30
0.0
 40
5.0000001000000003
 50
179.999989999999
 51
226.18693000000411
  0
LINE
  5
3883
  8
AM_0
 10
364.97270308736353
 20
202.29882936153919
 30
0.0
 11
364.97270308736353
 21
210.79884336153921
 31
0.0
  0
LINE
  5
3884
  8
ｶｸﾚｾﾝ2
 10
359.97266308736369
 20
202.29882936153919
 30
0.0
 11
359.97266308736369
 21
212.29884336153921
 31
0.0
  0
LINE
  5
3885
  8
AM_0
 10
344.97266308736369
 20
202.29882936153919
 30
0.0
 11
344.97266308736369
 21
202.29882936153919
 31
0.0
  0
LINE
  5
3886
  8
ｶｸﾚｾﾝ2
 10
349.97270308736358
 20
202.29882936153919
 30
0.0
 11
349.97270308736358
 21
212.29884336153921
 31
0.0
  0
LINE
  5
3887
  8
AM_0
 10
344.97266308736369
 20
202.29882936153919
 30
0.0
 11
364.97270308736353
 21
202.29882936153919
 31
0.0
  0
LINE
  5
3888
  8
AM_0
 10
363.47270308736353
 20
212.29884336153921
 30
0.0
 11
344.97266308736369
 21
212.29884336153921
 31
0.0
  0
LINE
  5
3889
  8
AM_0
 10
372.97268308736358
 20
296.79884736153917
 30
0.0
 11
372.97268308736358
 21
299.29884536153918
 31
0.0
  0
LINE
  5
388A
  8
AM_0
 10
370.97268308736358
 20
296.79884736153912
 30
0.0
 11
394.97270308736353
 21
296.79884736153917
 31
0.0
  0
LINE
  5
388B
  8
AM_0
 10
372.97268308736358
 20
299.29884536153918
 30
0.0
 11
394.97270308736353
 21
299.29884536153918
 31
0.0
  0
ARC
  5
388C
  8
AM_0
 10
363.97271308736367
 20
266.27229336153908
 30
0.0
 40
1.0000000199999981
 50
90.001718873355244
 51
180.00001000000091
  0
LINE
  5
388D
  8
AM_0
 10
370.97268308736398
 20
277.79884536153912
 30
0.0
 11
394.97270308736353
 21
277.79884536153918
 31
0.0
  0
LINE
  5
388E
  8
AM_0
 10
394.97270308736353
 20
277.79884536153918
 30
0.0
 11
394.97270308736353
 21
299.29884536153918
 31
0.0
  0
LINE
  5
388F
  8
AM_0
 10
352.97270308736358
 20
300.21626436153917
 30
0.0
 11
344.97266308736369
 21
300.21626436153917
 31
0.0
  0
ARC
  5
3890
  8
AM_0
 10
347.97266308736369
 20
239.0662683615391
 30
0.0
 40
5.0000001000000003
 50
270.0
 51
0.0
  0
LINE
  5
3891
  8
AM_0
 10
304.97270308736353
 20
330.2988303615391
 30
0.0
 11
348.10358308736369
 21
329.16939036153917
 31
0.0
  0
LINE
  5
3892
  8
AM_0
 10
320.97266308736369
 20
313.82025036153908
 30
0.0
 11
347.97266308736369
 21
313.82025036153908
 31
0.0
  0
LINE
  5
3893
  8
AM_0
 10
272.97269308736361
 20
326.29884036153919
 30
0.0
 11
280.97270308736353
 21
326.29884036153919
 31
0.0
  0
LINE
  5
3894
  8
AM_0
 10
272.97269308736361
 20
316.29885036153911
 30
0.0
 11
280.97270308736353
 21
316.29885036153911
 31
0.0
  0
LINE
  5
3895
  8
AM_0
 10
267.51323308736357
 20
323.29884036153919
 30
0.0
 11
272.97269308736361
 21
323.29884036153919
 31
0.0
  0
ARC
  5
3896
  8
AM_0
 10
265.09886308736361
 20
324.58212036153918
 30
0.0
 40
2.00000007
 50
15.000000000001579
 51
90.00000299999769
  0
ARC
  5
3897
  8
AM_0
 10
272.62370308736371
 20
310.02186036153921
 30
0.0
 40
1.5000000299999989
 50
195.00001000000211
 51
270.0
  0
LINE
  5
3898
  8
AM_0
 10
271.17485308736349
 20
309.63366036153928
 30
0.0
 11
267.03068308736363
 21
325.0997403615392
 31
0.0
  0
ARC
  5
3899
  8
AM_0
 10
316.97270308736353
 20
318.52080036153922
 30
0.0
 40
1.0000000199999981
 50
90.00000299999769
 51
180.00001000000091
  0
ARC
  5
389A
  8
AM_0
 10
297.47270308736353
 20
328.23144036153928
 30
0.0
 40
1.5000000299999989
 50
271.49999999999608
 51
0.0
  0
ARC
  5
389B
  8
AM_0
 10
300.47270308736353
 20
328.68051036153918
 30
0.0
 40
1.5000000299999989
 50
91.500001000001546
 51
180.00001000000091
  0
LINE
  5
389C
  8
AM_0
 10
300.43346308736358
 20
330.18000036153921
 30
0.0
 11
304.97270308736353
 21
330.29889036153918
 31
0.0
  0
LINE
  5
389D
  8
AM_0
 10
280.97270308736353
 20
326.29884036153919
 30
0.0
 11
297.51194308736359
 21
326.73195036153908
 31
0.0
  0
LINE
  5
389E
  8
AM_0
 10
280.97270308736353
 20
316.29885036153911
 30
0.0
 11
298.97270308736341
 21
316.29885036153911
 31
0.0
  0
ARC
  5
389F
  8
AM_0
 10
316.97270308736353
 20
320.52084036153917
 30
0.0
 40
1.0000000199999981
 50
270.0
 51
0.0
  0
ARC
  5
38A0
  8
AM_0
 10
319.97270308736353
 20
313.42434036153918
 30
0.0
 40
1.0000000199999981
 50
0.0
 51
90.00000299999769
  0
ARC
  5
38A1
  8
AM_0
 10
319.97270308736353
 20
310.53756036153908
 30
0.0
 40
1.0000000199999981
 50
0.0
 51
90.00000299999769
  0
ARC
  5
38A2
  8
AM_0
 10
319.97270308736353
 20
312.53754036153919
 30
0.0
 40
1.0000000199999981
 50
270.0
 51
0.0
  0
ARC
  5
38A3
  8
AM_0
 10
319.97270308736353
 20
306.7640703615391
 30
0.0
 40
1.0000000199999981
 50
270.0
 51
0.0
  0
LINE
  5
38A4
  8
AM_0
 10
315.97271308736367
 20
314.9243103615392
 30
0.0
 11
316.97270308736353
 21
314.9243103615392
 31
0.0
  0
LINE
  5
38A5
  8
AM_0
 10
289.97270308736353
 20
314.29884036153919
 30
0.0
 11
298.97270308736341
 21
314.29884036153919
 31
0.0
  0
LINE
  5
38A6
  8
AM_0
 10
289.97270308736353
 20
312.90570036153917
 30
0.0
 11
315.97271308736367
 21
312.90570036153917
 31
0.0
  0
LINE
  5
38A7
  8
AM_0
 10
316.97270308736353
 20
311.53755036153922
 30
0.0
 11
319.97270308736353
 21
311.53755036153922
 31
0.0
  0
LINE
  5
38A8
  8
AM_0
 10
316.97270308736353
 20
305.76402636153921
 30
0.0
 11
319.97270308736353
 21
305.76402636153921
 31
0.0
  0
LINE
  5
38A9
  8
AM_0
 10
316.97270308736353
 20
314.42430036153922
 30
0.0
 11
319.97270308736353
 21
314.42430036153922
 31
0.0
  0
LINE
  5
38AA
  8
AM_0
 10
330.37271308736348
 20
313.82025036153908
 30
0.0
 11
317.97275308736351
 21
329.9584203615392
 31
0.0
  0
LINE
  5
38AB
  8
AM_0
 10
317.97266308736369
 20
329.85369036153918
 30
0.0
 11
317.97266308736369
 21
314.42430036153922
 31
0.0
  0
LINE
  5
38AC
  8
AM_0
 10
298.97270308736341
 20
328.68051036153918
 30
0.0
 11
298.97270308736341
 21
314.29884036153919
 31
0.0
  0
ARC
  5
38AD
  8
AM_0
 10
363.97271308736367
 20
308.32536036153908
 30
0.0
 40
1.0000000199999981
 50
179.999989999999
 51
269.99828112664488
  0
ARC
  5
38AE
  8
AM_0
 10
360.97271308736367
 20
315.2988603615392
 30
0.0
 40
2.00000007
 50
0.0
 51
90.00000299999769
  0
ARC
  5
38AF
  8
AM_0
 10
347.97266308736369
 20
324.17115036153922
 30
0.0
 40
5.0000001000000003
 50
0.0
 51
88.499997000000647
  0
ARC
  5
38B0
  8
AM_0
 10
347.97266308736369
 20
308.82024036153922
 30
0.0
 40
5.0000001000000003
 50
0.0
 51
90.00000299999769
  0
ARC
  5
38B1
  8
AM_0
 10
357.97271308736367
 20
322.29882036153907
 30
0.0
 40
5.0000001000000003
 50
180.00001000000091
 51
270.0
  0
LINE
  5
38B2
  8
AM_0
 10
357.97271308736367
 20
317.29884036153919
 30
0.0
 11
360.97271308736367
 21
317.29884036153919
 31
0.0
  0
LINE
  5
38B3
  8
AM_0
 10
658.30981263677143
 20
305.76405636153908
 30
0.0
 11
663.3098136367712
 21
302.87730636153918
 31
0.0
  0
CIRCLE
  5
38B4
  8
AM_0
 10
663.3098136367712
 20
308.65080036153921
 30
0.0
 40
4.9999998000000003
  0
LINE
  5
38B5
  8
AM_0
 10
663.30982863677127
 20
302.87730636153918
 30
0.0
 11
668.30982963677116
 21
305.76405636153908
 31
0.0
  0
ARC
  5
38B6
  8
AM_0
 10
664.89652863677145
 20
309.86832036153908
 30
0.0
 40
11.000000399999999
 50
149.8422100000013
 51
285.16364999999968
  0
LINE
  5
38B7
  8
AM_0
 10
558.34730163677125
 20
305.76405636153908
 30
0.0
 11
563.34729963677125
 21
302.87730636153918
 31
0.0
  0
LINE
  5
38B8
  8
AM_0
 10
563.34729963677125
 20
302.87733636153922
 30
0.0
 11
568.34730063677125
 21
305.76408636153928
 31
0.0
  0
CIRCLE
  5
38B9
  8
AM_0
 10
563.34729963677125
 20
308.65080036153921
 30
0.0
 40
4.9999998000000003
  0
ARC
  5
38BA
  8
AM_0
 10
561.76059963677119
 20
309.86832036153908
 30
0.0
 40
11.000000399999999
 50
254.8363599999989
 51
30.157795000006761
  0
ARC
  5
38BB
  8
AM_0
 10
653.32856463677138
 20
300.29884536153918
 30
0.0
 40
20.000000700000001
 50
6.4023797999986547
 51
61.92751500000066
  0
ARC
  5
38BC
  8
AM_0
 10
613.32856563677126
 20
274.79884536153918
 30
0.0
 40
42.500000999999997
 50
0.0
 51
180.00001000000091
  0
LINE
  5
38BD
  8
ﾁｭｳｼﾝｾﾝ
 10
613.32856563677126
 20
199.22816955089669
 30
0.0
 11
613.32856563677126
 21
336.66262872873881
 31
0.0
  0
LINE
  5
38BE
  8
AM_0
 10
547.32856563677126
 20
247.94626130738729
 30
0.0
 11
547.32856563677126
 21
300.29884536153912
 31
0.0
  0
ARC
  5
38BF
  8
AM_0
 10
573.32856363677115
 20
300.29884536153918
 30
0.0
 40
20.000000700000001
 50
118.07247999999809
 51
173.59761999999901
  0
LINE
  5
38C0
  8
AM_0
 10
643.32856563677149
 20
221.79882936153919
 30
0.0
 11
583.32856263677115
 21
221.79882936153919
 31
0.0
  0
LINE
  5
38C1
  8
AM_0
 10
652.32856563677149
 20
203.29884336153921
 30
0.0
 11
613.32856563677126
 21
203.29884336153921
 31
0.0
  0
LINE
  5
38C2
  8
ﾁｭｳｼﾝｾﾝ
 10
679.57188517316513
 20
270.29884536153918
 30
0.0
 11
496.15980697763058
 21
270.29884536153918
 31
0.0
  0
ARC
  5
38C3
  8
AM_0
 10
622.31466363677134
 20
218.79882936153919
 30
0.0
 40
3.0
 50
90.00000299999769
 51
183.18473999999989
  0
ARC
  5
38C4
  8
AM_0
 10
604.34244963677122
 20
218.79882936153919
 30
0.0
 40
3.0
 50
356.81526000000008
 51
90.00000299999769
  0
ARC
  5
38C5
  8
AM_0
 10
613.32856563677126
 20
218.2988433615391
 30
0.0
 40
6.0000002999999991
 50
176.81527000000079
 51
3.1847359999983702
  0
ARC
  5
38C6
  8
AM_0
 10
583.32856263677115
 20
216.7988433615391
 30
0.0
 40
5.0000001000000003
 50
90.00000299999769
 51
180.00001000000091
  0
LINE
  5
38C7
  8
AM_0
 10
570.82856463677138
 20
274.79884536153918
 30
0.0
 11
570.82856463677138
 21
215.2988433615391
 31
0.0
  0
LINE
  5
38C8
  8
AM_0
 10
543.32856663677148
 20
212.29882836153911
 30
0.0
 11
553.45329663677148
 21
302.52900936153912
 31
0.0
  0
LINE
  5
38C9
  8
AM_0
 10
543.32859663677141
 20
212.29881336153909
 30
0.0
 11
554.0762466367712
 21
279.7412883615392
 31
0.0
  0
ARC
  5
38CA
  8
AM_0
 10
575.32856463677138
 20
207.79884336153921
 30
0.0
 40
3.0
 50
270.0
 51
0.0
  0
LINE
  5
38CB
  8
AM_0
 10
574.32856263677115
 20
203.29884336153921
 30
0.0
 11
613.32856563677126
 21
203.29884336153921
 31
0.0
  0
ARC
  5
38CC
  8
AM_0
 10
567.82856163677138
 20
215.2988433615391
 30
0.0
 40
3.0
 50
270.0
 51
0.0
  0
LINE
  5
38CD
  8
AM_0
 10
544.82886663682973
 20
212.29884336153921
 30
0.0
 11
571.32856263677127
 21
212.29884336153921
 31
0.0
  0
ARC
  5
38CE
  8
AM_0
 10
574.32856263677115
 20
203.79882936153911
 30
0.0
 40
1.0000000199999981
 50
90.00000299999769
 51
180.00001000000091
  0
ARC
  5
38CF
  8
AM_0
 10
574.32856263677115
 20
202.29882936153919
 30
0.0
 40
1.0000000199999981
 50
90.00000299999769
 51
180.00001000000091
  0
LINE
  5
38D0
  8
AM_0
 10
573.32856363677115
 20
210.2988423615391
 30
0.0
 11
573.32856363677115
 21
202.29882936153919
 31
0.0
  0
LINE
  5
38D1
  8
AM_0
 10
574.32856263677115
 20
204.79884336153921
 30
0.0
 11
575.32856463677138
 21
204.79884336153921
 31
0.0
  0
ARC
  5
38D2
  8
AM_0
 10
571.32856263677127
 20
210.2988423615391
 30
0.0
 40
2.00000007
 50
0.0
 51
90.00000299999769
  0
LINE
  5
38D3
  8
ｶｸﾚｾﾝ2
 10
560.82856263677115
 20
212.29884336153921
 30
0.0
 11
560.82856263677115
 21
202.29882936153919
 31
0.0
  0
ARC
  5
38D4
  8
AM_0
 10
544.82856663677148
 20
210.79884336153921
 30
0.0
 40
1.5000000299999989
 50
90.00000299999769
 51
180.00001000000091
  0
LINE
  5
38D5
  8
ｶｸﾚｾﾝ2
 10
550.82856663677126
 20
212.29884336153921
 30
0.0
 11
550.82856663677126
 21
202.29882936153919
 31
0.0
  0
LINE
  5
38D6
  8
AM_0
 10
543.32856663677148
 20
212.29884336153921
 30
0.0
 11
543.32856663677148
 21
202.29882936153919
 31
0.0
  0
LINE
  5
38D7
  8
AM_0
 10
543.32856663677148
 20
202.29882936153919
 30
0.0
 11
573.32856363677115
 21
202.29882936153919
 31
0.0
  0
LINE
  5
38D8
  8
AM_0
 10
642.43761963677116
 20
214.9811703615392
 30
0.0
 11
637.43761863677128
 21
217.86792036153909
 31
0.0
  0
LINE
  5
38D9
  8
AM_0
 10
637.43761863677128
 20
206.32092336153909
 30
0.0
 11
642.43763463677135
 21
209.20767336153921
 31
0.0
  0
LINE
  5
38DA
  8
AM_0
 10
642.43761963677116
 20
209.20767336153921
 30
0.0
 11
642.43761963677116
 21
214.98120036153909
 31
0.0
  0
LINE
  5
38DB
  8
AM_0
 10
632.4376056367712
 20
214.98120036153909
 30
0.0
 11
632.4376056367712
 21
209.20767336153921
 31
0.0
  0
LINE
  5
38DC
  8
AM_0
 10
594.21949263677118
 20
214.9811703615392
 30
0.0
 11
589.21949463677129
 21
217.86792036153909
 31
0.0
  0
LINE
  5
38DD
  8
AM_0
 10
589.21952463677121
 20
217.86792036153909
 30
0.0
 11
584.21952363677144
 21
214.9811703615392
 31
0.0
  0
LINE
  5
38DE
  8
AM_0
 10
589.21952463677121
 20
206.32092336153909
 30
0.0
 11
594.21952563677144
 21
209.20767336153921
 31
0.0
  0
LINE
  5
38DF
  8
AM_0
 10
584.21949363677129
 20
209.20767336153921
 30
0.0
 11
589.21949463677129
 21
206.32092336153909
 31
0.0
  0
LINE
  5
38E0
  8
AM_0
 10
594.21949263677118
 20
209.20767336153921
 30
0.0
 11
594.21949263677118
 21
214.98120036153909
 31
0.0
  0
LINE
  5
38E1
  8
AM_0
 10
578.32856463677138
 20
216.7988433615391
 30
0.0
 11
578.32856463677138
 21
207.79884336153921
 31
0.0
  0
LINE
  5
38E2
  8
AM_0
 10
584.21952363677144
 20
214.98120036153909
 30
0.0
 11
584.21952363677144
 21
209.20767336153921
 31
0.0
  0
CIRCLE
  5
38E3
  8
AM_0
 10
589.21949463677129
 20
212.09445336153919
 30
0.0
 40
4.9999998000000003
  0
CIRCLE
  5
38E4
  8
AM_0
 10
637.43761863677128
 20
212.09445336153919
 30
0.0
 40
4.9999998000000003
  0
LINE
  5
38E5
  8
AM_0
 10
632.43762063677138
 20
209.20767336153921
 30
0.0
 11
637.43761863677128
 21
206.32092336153909
 31
0.0
  0
LINE
  5
38E6
  8
AM_0
 10
637.43763363677135
 20
217.8679353615392
 30
0.0
 11
632.43762063677138
 21
214.98118536153919
 31
0.0
  0
ARC
  5
38E7
  8
AM_0
 10
562.3926186367712
 20
295.88258736153921
 30
0.0
 40
3.0
 50
92.587449000000944
 51
153.3308500000023
  0
ARC
  5
38E8
  8
AM_0
 10
566.32856163677138
 20
294.53425836153917
 30
0.0
 40
5.0000001000000003
 50
106.5886100000029
 51
180.00001000000091
  0
LINE
  5
38E9
  8
AM_0
 10
561.32856363677115
 20
294.53425836153917
 30
0.0
 11
561.32856363677115
 21
252.29884536153921
 31
0.0
  0
ARC
  5
38EA
  8
AM_0
 10
593.32856463677115
 20
252.29884536153921
 30
0.0
 40
32.000000999999997
 50
179.999989999999
 51
225.32173999999881
  0
LINE
  5
38EB
  8
AM_0
 10
553.20303663677134
 20
300.29884536153918
 30
0.0
 11
545.32856563677149
 21
300.29884536153918
 31
0.0
  0
ARC
  5
38EC
  8
AM_0
 10
613.32856563677126
 20
270.29884536153918
 30
0.0
 40
60.000002999999992
 50
171.12479000000241
 51
172.44926000000231
  0
ARC
  5
38ED
  8
AM_0
 10
557.57538963677121
 20
294.42540336153922
 30
0.0
 40
5.0000001000000003
 50
74.836353999996092
 51
173.59761999999901
  0
ARC
  5
38EE
  8
AM_0
 10
613.32856563677126
 20
270.29884536153918
 30
0.0
 40
60.000002999999992
 50
153.3308500000023
 51
170.94545999999991
  0
LINE
  5
38EF
  8
AM_0
 10
616.32856563677137
 20
293.29884636153918
 30
0.0
 11
616.32856563677137
 21
299.29884636153918
 31
0.0
  0
CIRCLE
  5
38F0
  8
AM_0
 10
613.32856563677126
 20
287.29884636153918
 30
0.0
 40
2.4999998400000001
  0
LINE
  5
38F1
  8
AM_0
 10
610.32856563677149
 20
299.29884636153918
 30
0.0
 11
610.32856563677149
 21
293.29884636153918
 31
0.0
  0
LINE
  5
38F2
  8
AM_0
 10
610.32856563677149
 20
293.29884636153918
 30
0.0
 11
616.32856563677137
 21
293.29884636153918
 31
0.0
  0
LINE
  5
38F3
  8
AM_0
 10
616.32856563677137
 20
299.29884636153918
 30
0.0
 11
610.32856563677149
 21
299.29884636153918
 31
0.0
  0
CIRCLE
  5
38F4
  8
AM_4
 10
613.32856563677126
 20
287.29884636153918
 30
0.0
 40
3.0
  0
ARC
  5
38F5
  8
AM_0
 10
613.32856563677126
 20
287.29884636153918
 30
0.0
 40
9.5000003999999993
 50
108.40848
 51
71.591512000000776
  0
LINE
  5
38F6
  8
ﾁｭｳｼﾝｾﾝ
 10
570.35174968641377
 20
287.29884636153918
 30
0.0
 11
656.30538158712932
 21
287.29884636153918
 31
0.0
  0
ARC
  5
38F7
  8
AM_0
 10
643.32856563677149
 20
216.7988433615391
 30
0.0
 40
5.0000001000000003
 50
0.0
 51
90.00000299999769
  0
LINE
  5
38F8
  8
AM_0
 10
683.32855263677129
 20
212.29882836153911
 30
0.0
 11
673.20382563677128
 21
302.52903936153922
 31
0.0
  0
LINE
  5
38F9
  8
AM_0
 10
683.32856763677125
 20
212.29881336153909
 30
0.0
 11
672.58089963677116
 21
279.7412883615392
 31
0.0
  0
LINE
  5
38FA
  8
AM_0
 10
655.82855163677118
 20
274.79884536153918
 30
0.0
 11
655.82855163677118
 21
215.2988433615391
 31
0.0
  0
ARC
  5
38FB
  8
AM_0
 10
681.82856763677137
 20
210.79884336153921
 30
0.0
 40
1.5000000299999989
 50
0.0
 51
90.00000299999769
  0
LINE
  5
38FC
  8
AM_0
 10
683.32856763677125
 20
212.29884336153921
 30
0.0
 11
683.32856763677125
 21
202.29882936153919
 31
0.0
  0
ARC
  5
38FD
  8
AM_0
 10
658.82855163677118
 20
215.2988433615391
 30
0.0
 40
3.0
 50
179.999989999999
 51
270.0
  0
LINE
  5
38FE
  8
AM_0
 10
681.8282676367686
 20
212.29884336153921
 30
0.0
 11
655.32856563677126
 21
212.29884336153921
 31
0.0
  0
ARC
  5
38FF
  8
AM_0
 10
652.32856563677149
 20
203.79882936153911
 30
0.0
 40
1.0000000199999981
 50
0.0
 51
90.00000299999769
  0
ARC
  5
3900
  8
AM_0
 10
652.32856563677149
 20
202.29882936153919
 30
0.0
 40
1.0000000199999981
 50
0.0
 51
90.00000299999769
  0
LINE
  5
3901
  8
AM_0
 10
652.32856563677149
 20
204.79884336153921
 30
0.0
 11
651.32855163677118
 21
204.79884336153921
 31
0.0
  0
LINE
  5
3902
  8
AM_0
 10
653.32856463677138
 20
202.29882936153919
 30
0.0
 11
653.32856463677138
 21
210.2988423615391
 31
0.0
  0
ARC
  5
3903
  8
AM_0
 10
651.32855163677118
 20
207.79884336153921
 30
0.0
 40
3.0
 50
179.999989999999
 51
270.0
  0
LINE
  5
3904
  8
ﾁｭｳｼﾝｾﾝ1
 10
670.82855163677129
 20
217.29884336153921
 30
0.0
 11
670.82855163677129
 21
197.29882936153919
 31
0.0
  0
LINE
  5
3905
  8
ｶｸﾚｾﾝ2
 10
665.82856563677115
 20
212.29884336153921
 30
0.0
 11
665.82856563677115
 21
202.29882936153919
 31
0.0
  0
LINE
  5
3906
  8
ｶｸﾚｾﾝ2
 10
675.82856763677125
 20
212.29884336153921
 30
0.0
 11
675.82856763677125
 21
202.29882936153919
 31
0.0
  0
ARC
  5
3907
  8
AM_0
 10
655.32856563677126
 20
210.2988423615391
 30
0.0
 40
2.00000007
 50
90.00000299999769
 51
180.00001000000091
  0
LINE
  5
3908
  8
AM_0
 10
648.32855163677129
 20
216.7988433615391
 30
0.0
 11
648.32855163677129
 21
207.79884336153921
 31
0.0
  0
LINE
  5
3909
  8
AM_0
 10
683.32856763677125
 20
202.29882936153919
 30
0.0
 11
653.32856463677138
 21
202.29882936153919
 31
0.0
  0
ARC
  5
390A
  8
AM_0
 10
669.0817566367715
 20
294.42540336153922
 30
0.0
 40
5.0000001000000003
 50
6.4023797999986547
 51
105.1636400000011
  0
ARC
  5
390B
  8
AM_0
 10
660.32855163677118
 20
294.53425836153917
 30
0.0
 40
5.0000001000000003
 50
0.0
 51
73.411385000002255
  0
ARC
  5
390C
  8
AM_0
 10
664.26452463677117
 20
295.88258736153921
 30
0.0
 40
3.0
 50
26.66915700000234
 51
87.412549000002571
  0
LINE
  5
390D
  8
AM_0
 10
665.32856463677115
 20
294.53425836153917
 30
0.0
 11
665.32856463677115
 21
252.29884536153921
 31
0.0
  0
ARC
  5
390E
  8
AM_0
 10
613.32856563677126
 20
270.29884536153918
 30
0.0
 40
60.000002999999992
 50
9.0545419000017677
 51
26.66915700000234
  0
ARC
  5
390F
  8
AM_0
 10
633.32854863677142
 20
252.29884536153921
 30
0.0
 40
32.000000999999997
 50
314.67826000000122
 51
0.0
  0
ARC
  5
3910
  8
AM_0
 10
613.32856563677126
 20
225.2988423615391
 30
0.0
 40
105.00000300000001
 50
61.92751500000066
 51
118.07247999999809
  0
ARC
  5
3911
  8
AM_0
 10
613.32856563677126
 20
270.29884536153918
 30
0.0
 40
60.000002999999992
 50
48.330844999997282
 51
131.66915000000051
  0
ARC
  5
3912
  8
AM_0
 10
575.43336063677145
 20
312.87762036153907
 30
0.0
 40
3.0
 50
131.66915000000051
 51
192.4125499999968
  0
LINE
  5
3913
  8
AM_0
 10
568.34730063677125
 20
305.76405636153908
 30
0.0
 11
568.34730063677125
 21
311.53755036153922
 31
0.0
  0
LINE
  5
3914
  8
AM_0
 10
558.34730163677125
 20
311.53755036153922
 30
0.0
 11
558.34730163677125
 21
305.76405636153908
 31
0.0
  0
LINE
  5
3915
  8
AM_0
 10
563.34729963677125
 20
314.42433036153921
 30
0.0
 11
558.34730163677125
 21
311.53758036153909
 31
0.0
  0
LINE
  5
3916
  8
AM_0
 10
568.34727063677144
 20
311.53755036153922
 30
0.0
 11
563.34729963677125
 21
314.42430036153922
 31
0.0
  0
ARC
  5
3917
  8
AM_0
 10
575.59491963677146
 20
317.90649036153911
 30
0.0
 40
5.0000001000000003
 50
112.1688000000041
 51
210.1577899999985
  0
LINE
  5
3918
  8
AM_0
 10
637.82858163677145
 20
327.40050036153917
 30
0.0
 11
637.82858163677145
 21
329.36679036153919
 31
0.0
  0
LINE
  5
3919
  8
AM_0
 10
627.82856463677115
 20
329.29281036153918
 30
0.0
 11
627.82856463677115
 21
331.34787036153921
 31
0.0
  0
LINE
  5
391A
  8
AM_0
 10
617.82856563677126
 20
330.12987036153908
 30
0.0
 11
617.82856563677126
 21
332.29884036153919
 31
0.0
  0
LINE
  5
391B
  8
AM_0
 10
608.82856563677126
 20
330.12987036153908
 30
0.0
 11
608.82856563677126
 21
332.29884036153919
 31
0.0
  0
LINE
  5
391C
  8
AM_0
 10
598.82856363677115
 20
329.29281036153918
 30
0.0
 11
598.82856363677115
 21
331.34787036153921
 31
0.0
  0
LINE
  5
391D
  8
AM_0
 10
588.82856463677115
 20
327.40050036153917
 30
0.0
 11
588.82856463677115
 21
329.36679036153919
 31
0.0
  0
LINE
  5
391E
  8
AM_0
 10
578.82856263677115
 20
324.46914036153919
 30
0.0
 11
578.82856263677115
 21
326.29074036153918
 31
0.0
  0
LINE
  5
391F
  8
AM_0
 10
647.82856563677149
 20
324.46914036153919
 30
0.0
 11
647.82856563677149
 21
326.29074036153918
 31
0.0
  0
LINE
  5
3920
  8
AM_0
 10
668.30982963677116
 20
305.76405636153908
 30
0.0
 11
668.30982963677116
 21
311.53755036153922
 31
0.0
  0
LINE
  5
3921
  8
AM_0
 10
663.30982863677127
 20
314.42430036153922
 30
0.0
 11
658.30982763677127
 21
311.53755036153922
 31
0.0
  0
LINE
  5
3922
  8
AM_0
 10
658.30981263677143
 20
311.53755036153922
 30
0.0
 11
658.30981263677143
 21
305.76405636153908
 31
0.0
  0
LINE
  5
3923
  8
AM_0
 10
668.3098116367712
 20
311.53755036153922
 30
0.0
 11
663.3098136367712
 21
314.42430036153922
 31
0.0
  0
ARC
  5
3924
  8
AM_0
 10
651.22376763677141
 20
312.87762036153907
 30
0.0
 40
3.0
 50
347.58745000000312
 51
48.330844999997282
  0
ARC
  5
3925
  8
AM_0
 10
651.0622086367714
 20
317.90649036153911
 30
0.0
 40
5.0000001000000003
 50
329.84219999999971
 51
67.83120299999679
  0
LINE
  5
393C
  8
AM_0
 10
265.97269308736372
 20
224.29884536153909
 30
0.0
 11
177.97269308736361
 21
224.29884536153909
 31
0.0
  0
ARC
  5
393D
  8
AM_0
 10
196.043760899229
 20
229.29884536153909
 30
0.0
 40
5.0
 50
225.0
 51
270.0
1001
GENIUS_GENOBJ-N-FIL_13
1002
{
1000
OWNER
1000
GEN
1002
}
1001
GENIUS_GENODEF_13
1002
{
1000
HIER
1070
     0
1002
}
1002
{
1000
MANEDIT
1070
     0
1002
}
1002
{
1000
NOSEL
1070
     0
1002
}
1002
{
1000
BEHIND
1070
     0
1002
}
1002
{
1000
OTHER
1070
     0
1002
}
1002
{
1000
REACTOR
1002
}
  0
LINE
  5
393E
  8
AM_0
 10
247.24477102600591
 20
229.29884536153909
 30
0.0
 11
196.70061514872131
 21
229.29884536153909
 31
0.0
  0
ARC
  5
393F
  8
AM_0
 10
247.24477102600591
 20
234.29884536153909
 30
0.0
 40
5.0
 50
270.0
 51
315.0
1001
GENIUS_GENOBJ-N-FIL_13
1002
{
1000
OWNER
1000
GEN
1002
}
1001
GENIUS_GENODEF_13
1002
{
1000
HIER
1070
     0
1002
}
1002
{
1000
MANEDIT
1070
     0
1002
}
1002
{
1000
NOSEL
1070
     0
1002
}
1002
{
1000
BEHIND
1070
     0
1002
}
1002
{
1000
OTHER
1070
     0
1002
}
1002
{
1000
REACTOR
1002
}
  0
ARC
  5
3940
  8
AM_0
 10
265.97269308736372
 20
228.29884536153909
 30
0.0
 40
4.0
 50
270.0
 51
0.0
1001
GENIUS_GENOBJ-N-FIL_13
1002
{
1000
OWNER
1000
GEN
1002
}
1001
GENIUS_GENODEF_13
1002
{
1000
HIER
1070
     0
1002
}
1002
{
1000
MANEDIT
1070
     0
1002
}
1002
{
1000
NOSEL
1070
     0
1002
}
1002
{
1000
BEHIND
1070
     0
1002
}
1002
{
1000
OTHER
1070
     0
1002
}
1002
{
1000
REACTOR
1002
}
  0
LINE
  5
3941
  8
AM_0
 10
265.9726930873635
 20
316.29884536153929
 30
0.0
 11
177.97269308736361
 21
316.29884536153918
 31
0.0
  0
ARC
  5
3942
  8
AM_0
 10
247.90162527549811
 20
311.29884536153929
 30
0.0
 40
5.0
 50
45.0
 51
90.0
1001
GENIUS_GENOBJ-N-FIL_13
1002
{
1000
OWNER
1000
GEN
1002
}
1001
GENIUS_GENODEF_13
1002
{
1000
HIER
1070
     0
1002
}
1002
{
1000
MANEDIT
1070
     0
1002
}
1002
{
1000
NOSEL
1070
     0
1002
}
1002
{
1000
BEHIND
1070
     0
1002
}
1002
{
1000
OTHER
1070
     0
1002
}
1002
{
1000
REACTOR
1002
}
  0
ARC
  5
3943
  8
AM_0
 10
196.0437608992292
 20
311.29884536153929
 30
0.0
 40
5.0
 50
90.0
 51
135.0
1001
GENIUS_GENODEF_13
1002
{
1000
HIER
1070
     0
1002
}
1002
{
1000
MANEDIT
1070
     0
1002
}
1002
{
1000
NOSEL
1070
     0
1002
}
1002
{
1000
BEHIND
1070
     0
1002
}
1002
{
1000
OTHER
1070
     0
1002
}
1002
{
1000
REACTOR
1002
}
1001
GENIUS_GENOBJ-N-FIL_13
1002
{
1000
OWNER
1000
GEN
1002
}
  0
LINE
  5
3944
  8
AM_0
 10
247.24477102600571
 20
311.29884536153918
 30
0.0
 11
196.7006151487214
 21
311.29884536153929
 31
0.0
  0
ARC
  5
3945
  8
AM_0
 10
196.7006151487214
 20
306.29884536153929
 30
0.0
 40
5.0
 50
90.0
 51
135.0
1001
GENIUS_GENODEF_13
1002
{
1000
HIER
1070
     0
1002
}
1002
{
1000
MANEDIT
1070
     0
1002
}
1002
{
1000
NOSEL
1070
     0
1002
}
1002
{
1000
BEHIND
1070
     0
1002
}
1002
{
1000
OTHER
1070
     0
1002
}
1002
{
1000
REACTOR
1002
}
1001
GENIUS_GENOBJ-N-FIL_13
1002
{
1000
OWNER
1000
GEN
1002
}
  0
ARC
  5
3946
  8
AM_0
 10
177.97269308736361
 20
312.29884536153918
 30
0.0
 40
4.0
 50
90.0
 51
180.0
1001
GENIUS_GENODEF_13
1002
{
1000
HIER
1070
     0
1002
}
1002
{
1000
MANEDIT
1070
     0
1002
}
1002
{
1000
NOSEL
1070
     0
1002
}
1002
{
1000
BEHIND
1070
     0
1002
}
1002
{
1000
OTHER
1070
     0
1002
}
1002
{
1000
REACTOR
1002
}
1001
GENIUS_GENOBJ-N-FIL_13
1002
{
1000
OWNER
1000
GEN
1002
}
  0
LINE
  5
3947
  8
AM_0
 10
173.97269308736361
 20
312.29884536153918
 30
0.0
 11
173.97269308736361
 21
228.29884536153909
 31
0.0
  0
ARC
  5
3948
  8
AM_0
 10
178.97269308736361
 20
246.3699131734044
 30
0.0
 40
5.0
 50
180.0
 51
225.0
1001
GENIUS_GENOBJ-N-FIL_13
1002
{
1000
OWNER
1000
GEN
1002
}
1001
GENIUS_GENODEF_13
1002
{
1000
HIER
1070
     0
1002
}
1002
{
1000
MANEDIT
1070
     0
1002
}
1002
{
1000
NOSEL
1070
     0
1002
}
1002
{
1000
BEHIND
1070
     0
1002
}
1002
{
1000
OTHER
1070
     0
1002
}
1002
{
1000
REACTOR
1002
}
  0
ARC
  5
3949
  8
AM_0
 10
178.97269308736361
 20
294.22777754967399
 30
0.0
 40
5.0
 50
135.0
 51
180.0
1001
GENIUS_GENOBJ-N-FIL_13
1002
{
1000
OWNER
1000
GEN
1002
}
1001
GENIUS_GENODEF_13
1002
{
1000
HIER
1070
     0
1002
}
1002
{
1000
MANEDIT
1070
     0
1002
}
1002
{
1000
NOSEL
1070
     0
1002
}
1002
{
1000
BEHIND
1070
     0
1002
}
1002
{
1000
OTHER
1070
     0
1002
}
1002
{
1000
REACTOR
1002
}
  0
LINE
  5
394A
  8
AM_0
 10
178.97269308736361
 20
293.57092330018139
 30
0.0
 11
178.9726930873635
 21
247.0267674228968
 31
0.0
  0
ARC
  5
394B
  8
AM_0
 10
183.9726930873635
 20
247.0267674228968
 30
0.0
 40
5.0
 50
180.0
 51
225.0
1001
GENIUS_GENOBJ-N-FIL_13
1002
{
1000
OWNER
1000
GEN
1002
}
1001
GENIUS_GENODEF_13
1002
{
1000
HIER
1070
     0
1002
}
1002
{
1000
MANEDIT
1070
     0
1002
}
1002
{
1000
NOSEL
1070
     0
1002
}
1002
{
1000
BEHIND
1070
     0
1002
}
1002
{
1000
OTHER
1070
     0
1002
}
1002
{
1000
REACTOR
1002
}
  0
ARC
  5
394C
  8
AM_0
 10
177.97269308736361
 20
228.29884536153909
 30
0.0
 40
4.0
 50
180.0
 51
270.0
1001
GENIUS_GENODEF_13
1002
{
1000
HIER
1070
     0
1002
}
1002
{
1000
MANEDIT
1070
     0
1002
}
1002
{
1000
NOSEL
1070
     0
1002
}
1002
{
1000
BEHIND
1070
     0
1002
}
1002
{
1000
OTHER
1070
     0
1002
}
1002
{
1000
REACTOR
1002
}
1001
GENIUS_GENOBJ-N-FIL_13
1002
{
1000
OWNER
1000
GEN
1002
}
  0
LINE
  5
394D
  8
AM_0
 10
269.97269308736361
 20
312.29884536153929
 30
0.0
 11
269.97269308736372
 21
228.29884536153909
 31
0.0
  0
ARC
  5
394E
  8
AM_0
 10
264.97269308736372
 20
294.22777754967382
 30
0.0
 40
5.0
 50
0.0
 51
45.0
1001
GENIUS_GENOBJ-N-FIL_13
1002
{
1000
OWNER
1000
GEN
1002
}
1001
GENIUS_GENODEF_13
1002
{
1000
HIER
1070
     0
1002
}
1002
{
1000
MANEDIT
1070
     0
1002
}
1002
{
1000
NOSEL
1070
     0
1002
}
1002
{
1000
BEHIND
1070
     0
1002
}
1002
{
1000
OTHER
1070
     0
1002
}
1002
{
1000
REACTOR
1002
}
  0
ARC
  5
394F
  8
AM_0
 10
264.97269308736372
 20
246.36991317340451
 30
0.0
 40
5.0
 50
315.0
 51
0.0
1001
GENIUS_GENOBJ-N-FIL_13
1002
{
1000
OWNER
1000
GEN
1002
}
1001
GENIUS_GENODEF_13
1002
{
1000
HIER
1070
     0
1002
}
1002
{
1000
MANEDIT
1070
     0
1002
}
1002
{
1000
NOSEL
1070
     0
1002
}
1002
{
1000
BEHIND
1070
     0
1002
}
1002
{
1000
OTHER
1070
     0
1002
}
1002
{
1000
REACTOR
1002
}
  0
LINE
  5
3950
  8
AM_0
 10
251.43715918143079
 20
314.834379267472
 30
0.0
 11
268.50822699329638
 21
297.76331145560653
 31
0.0
  0
LINE
  5
3951
  8
AM_0
 10
250.78030493193839
 20
309.83437926747189
 30
0.0
 11
263.50822699329609
 21
297.10645720611438
 31
0.0
  0
ARC
  5
3952
  8
AM_0
 10
247.24477102600571
 20
306.29884536153929
 30
0.0
 40
5.0
 50
45.0
 51
90.0
1001
GENIUS_GENOBJ-N-FIL_13
1002
{
1000
OWNER
1000
GEN
1002
}
1001
GENIUS_GENODEF_13
1002
{
1000
HIER
1070
     0
1002
}
1002
{
1000
MANEDIT
1070
     0
1002
}
1002
{
1000
NOSEL
1070
     0
1002
}
1002
{
1000
BEHIND
1070
     0
1002
}
1002
{
1000
OTHER
1070
     0
1002
}
1002
{
1000
REACTOR
1002
}
  0
LINE
  5
3953
  8
AM_0
 10
264.9726930873635
 20
293.57092330018162
 30
0.0
 11
264.97269308736372
 21
247.0267674228968
 31
0.0
  0
ARC
  5
3954
  8
AM_0
 10
259.9726930873635
 20
293.57092330018162
 30
0.0
 40
5.0
 50
0.0
 51
45.0
1001
GENIUS_GENODEF_13
1002
{
1000
HIER
1070
     0
1002
}
1002
{
1000
MANEDIT
1070
     0
1002
}
1002
{
1000
NOSEL
1070
     0
1002
}
1002
{
1000
BEHIND
1070
     0
1002
}
1002
{
1000
OTHER
1070
     0
1002
}
1002
{
1000
REACTOR
1002
}
1001
GENIUS_GENOBJ-N-FIL_13
1002
{
1000
OWNER
1000
GEN
1002
}
  0
ARC
  5
3955
  8
AM_0
 10
265.9726930873635
 20
312.29884536153929
 30
0.0
 40
4.0
 50
0.0
 51
90.0
1001
GENIUS_GENODEF_13
1002
{
1000
HIER
1070
     0
1002
}
1002
{
1000
MANEDIT
1070
     0
1002
}
1002
{
1000
NOSEL
1070
     0
1002
}
1002
{
1000
BEHIND
1070
     0
1002
}
1002
{
1000
OTHER
1070
     0
1002
}
1002
{
1000
REACTOR
1002
}
1001
GENIUS_GENOBJ-N-FIL_13
1002
{
1000
OWNER
1000
GEN
1002
}
  0
LINE
  5
3956
  8
ﾁｭｳｼﾝｾﾝ1
 10
264.97269308736509
 20
305.29884536153878
 30
0.0
 11
264.97269308736583
 21
317.29884536153878
 31
0.0
  0
LINE
  5
3957
  8
ﾁｭｳｼﾝｾﾝ1
 10
270.97269308736543
 20
311.29884536153861
 30
0.0
 11
258.97269308736543
 21
311.29884536153918
 31
0.0
  0
LINE
  5
3958
  8
AM_0
 10
170.47269308736361
 20
283.79884536153929
 30
0.0
 11
172.9726930873635
 21
283.79884536153941
 31
0.0
  0
LINE
  5
3959
  8
AM_0
 10
172.97269308736361
 20
256.79884536153929
 30
0.0
 11
170.47269308736361
 21
256.79884536153918
 31
0.0
  0
LINE
  5
395A
  8
AM_0
 10
159.57402199101759
 20
259.79884536153929
 30
0.0
 11
159.57402199101759
 21
280.79884536153918
 31
0.0
  0
LINE
  5
395B
  8
AM_0
 10
144.57402199101759
 20
278.3304704155542
 30
0.0
 11
144.57402199101759
 21
262.2672203075233
 31
0.0
  0
LINE
  5
395C
  8
AM_0
 10
157.57402199101759
 20
258.29884536153929
 30
0.0
 11
157.57402199101759
 21
282.29884536153918
 31
0.0
  0
LINE
  5
395D
  8
AM_0
 10
148.07402199101759
 20
270.29884536153929
 30
0.0
 11
148.57402199101759
 21
269.79884536153929
 31
0.0
  0
LINE
  5
395E
  8
AM_0
 10
155.07402199101759
 20
281.99884536153922
 30
0.0
 11
155.07402199101759
 21
258.59884536153919
 31
0.0
  0
LINE
  5
395F
  8
AM_0
 10
164.97269308736361
 20
281.79884536153918
 30
0.0
 11
164.97269308736361
 21
258.79884536153918
 31
0.0
  0
LINE
  5
3960
  8
AM_0
 10
159.07402199101759
 20
269.59884536153731
 30
0.0
 11
159.07402199101759
 21
270.9988453615403
 31
0.0
  0
LINE
  5
3961
  8
AM_0
 10
161.17365771758861
 20
261.19884536153933
 30
0.0
 11
160.42365771758941
 21
279.3988453615392
 31
0.0
  0
LINE
  5
3962
  8
AM_0
 10
160.22269308736361
 20
261.19884536153933
 30
0.0
 11
159.57402199101759
 21
276.93993063285518
 31
0.0
  0
LINE
  5
3963
  8
AM_0
 10
160.97138567793559
 20
260.4831866491752
 30
0.0
 11
160.22412563452761
 21
280.11121712270608
 31
0.0
  0
LINE
  5
3964
  8
AM_0
 10
160.42222517042541
 20
260.48647360037131
 30
0.0
 11
159.67365771758941
 21
280.14884536153932
 31
0.0
  0
LINE
  5
3965
  8
AM_0
 10
157.57402199101759
 20
282.29884536153918
 30
0.0
 11
155.37402199101751
 21
282.29884536153918
 31
0.0
  0
ARC
  5
3966
  8
AM_0
 10
169.47269308736369
 20
282.79884536153918
 30
0.0
 40
0.5
 50
269.99999999998693
 51
0.0
  0
ARC
  5
3967
  8
AM_0
 10
170.47269308736369
 20
283.29884536153918
 30
0.0
 40
0.5
 50
90.0
 51
180.0
  0
LINE
  5
3968
  8
AM_0
 10
169.97269308736361
 20
282.79884536153918
 30
0.0
 11
169.97269308736361
 21
283.29884536153918
 31
0.0
  0
LINE
  5
3969
  8
AM_0
 10
160.97269308736361
 20
279.3988453615392
 30
0.0
 11
164.47269308736361
 21
279.3988453615392
 31
0.0
  0
LINE
  5
396A
  8
AM_0
 10
169.97269308736361
 20
281.15491668294629
 30
0.0
 11
169.97269308736361
 21
271.44277404013133
 31
0.0
  0
LINE
  5
396B
  8
AM_0
 10
165.47269308736361
 20
282.29884536153918
 30
0.0
 11
169.4726930873635
 21
282.29884536153918
 31
0.0
  0
LINE
  5
396C
  8
AM_0
 10
169.47269308736361
 20
281.65491668294618
 30
0.0
 11
164.97269308736361
 21
281.65491668294618
 31
0.0
  0
ARC
  5
396D
  8
AM_0
 10
169.47269308736369
 20
281.15491668294629
 30
0.0
 40
0.5
 50
0.0
 51
90.0
  0
ARC
  5
396E
  8
AM_0
 10
164.47269308736361
 20
279.8988453615392
 30
0.0
 40
0.5
 50
270.0
 51
0.0
  0
ARC
  5
396F
  8
AM_0
 10
165.47269308736361
 20
281.79884536153918
 30
0.0
 40
0.5
 50
90.0
 51
180.0
  0
LINE
  5
3970
  8
AM_0
 10
169.47269308736361
 20
270.94277404013133
 30
0.0
 11
164.97269308736361
 21
270.94277404013133
 31
0.0
  0
ARC
  5
3971
  8
AM_0
 10
169.47269308736361
 20
271.44277404013121
 30
0.0
 40
0.5
 50
270.0
 51
0.0
  0
LINE
  5
3972
  8
AM_0
 10
159.07402199101759
 20
276.4440161138312
 30
0.0
 11
159.07402199101759
 21
275.27177292739827
 31
0.0
  0
LINE
  5
3973
  8
AM_0
 10
160.5003901460145
 20
279.3988453615392
 30
0.0
 11
160.97269308736361
 21
279.3988453615392
 31
0.0
  0
LINE
  5
3974
  8
AM_0
 10
160.40379765147529
 20
279.47296312827592
 30
0.0
 11
160.42365771758941
 21
279.3988453615392
 31
0.0
  0
ARC
  5
3975
  8
AM_0
 10
160.50039014601461
 20
279.49884536153922
 30
0.0
 40
0.1000000000000346
 50
195.00019500644461
 51
270.0
  0
ARC
  5
3976
  8
AM_0
 10
158.77402199101749
 20
279.58567834204717
 30
0.0
 40
0.3000000000000043
 50
270.0
 51
0.0
  0
LINE
  5
3977
  8
AM_0
 10
157.57402199101759
 20
281.69884536153921
 30
0.0
 11
158.79397769417471
 21
281.61751498132821
 31
0.0
  0
LINE
  5
3978
  8
AM_0
 10
157.57402199101759
 20
280.54259332569927
 30
0.0
 11
158.77402199101749
 21
280.54259332569927
 31
0.0
  0
LINE
  5
3979
  8
AM_0
 10
159.07402199101759
 20
281.29884536153929
 30
0.0
 11
157.57402199101759
 21
281.29884536153929
 31
0.0
  0
ARC
  5
397A
  8
AM_0
 10
159.07402199101759
 20
280.79884536153918
 30
0.0
 40
0.5
 50
0.0
 51
90.0
  0
LINE
  5
397B
  8
AM_0
 10
159.07402199101759
 20
281.31817943397118
 30
0.0
 11
159.07402199101759
 21
281.29884536153929
 31
0.0
  0
LINE
  5
397C
  8
AM_0
 10
159.07402199101759
 20
281.5988453615393
 30
0.0
 11
159.07402199101759
 21
281.31817943397118
 31
0.0
  0
LINE
  5
397D
  8
AM_0
 10
158.79397769417471
 20
281.61751498132821
 30
0.0
 11
159.07402199101759
 21
281.5988453615393
 31
0.0
  0
ARC
  5
397E
  8
AM_0
 10
158.77402199101749
 20
281.31817943397118
 30
0.0
 40
0.3000000000000007
 50
0.0
 51
86.185925165718274
  0
LINE
  5
397F
  8
AM_0
 10
160.14596065893841
 20
280.14884536153932
 30
0.0
 11
160.2226930873646
 21
280.14884536153932
 31
0.0
  0
LINE
  5
3980
  8
AM_0
 10
160.2226930873646
 20
280.14884536153932
 30
0.0
 11
160.2425531534777
 21
280.07472759480282
 31
0.0
  0
LINE
  5
3981
  8
AM_0
 10
159.6537976514754
 20
280.07472759480282
 30
0.0
 11
159.67365771758941
 21
280.14884536153932
 31
0.0
  0
LINE
  5
3982
  8
AM_0
 10
159.67365771758941
 20
280.14884536153932
 30
0.0
 11
159.7503901460145
 21
280.14884536153932
 31
0.0
  0
LINE
  5
3983
  8
AM_0
 10
160.2425531534777
 20
280.07472759480282
 30
0.0
 11
160.40379765147529
 21
279.47296312827592
 31
0.0
  0
LINE
  5
3984
  8
AM_0
 10
159.7503901460145
 20
280.14884536153932
 30
0.0
 11
160.14596065893841
 21
280.14884536153932
 31
0.0
  0
LINE
  5
3985
  8
AM_0
 10
159.5740219910185
 20
279.7770048299783
 30
0.0
 11
159.6537976514754
 21
280.07472759480282
 31
0.0
  0
ARC
  5
3986
  8
AM_0
 10
160.14596065893861
 20
280.04884536153918
 30
0.0
 40
0.0999999999999866
 50
15.00019500657257
 51
90.0
  0
ARC
  5
3987
  8
AM_0
 10
159.75039014601461
 20
280.04884536153918
 30
0.0
 40
0.1000000000000014
 50
90.0
 51
164.9998049934274
  0
LINE
  5
3988
  8
AM_0
 10
159.07402199101759
 20
280.2425933256992
 30
0.0
 11
159.07402199101759
 21
279.58567834204717
 31
0.0
  0
ARC
  5
3989
  8
AM_0
 10
158.77402199101749
 20
280.2425933256992
 30
0.0
 40
0.3000000000000007
 50
0.0
 51
90.0
  0
LINE
  5
398A
  8
AM_0
 10
157.57402199101759
 20
276.74401611383132
 30
0.0
 11
158.77402199101749
 21
276.74401611383132
 31
0.0
  0
LINE
  5
398B
  8
AM_0
 10
158.77402199101749
 20
279.28567834204728
 30
0.0
 11
157.57402199101759
 21
279.28567834204728
 31
0.0
  0
LINE
  5
398C
  8
AM_0
 10
160.42365771758941
 20
279.3988453615392
 30
0.0
 11
160.5003901460145
 21
279.3988453615392
 31
0.0
  0
ARC
  5
398D
  8
AM_0
 10
158.77402199101749
 20
276.4440161138312
 30
0.0
 40
0.3000000000000007
 50
0.0
 51
90.0
  0
LINE
  5
398E
  8
AM_0
 10
158.77402199101749
 20
274.97177292739832
 30
0.0
 11
157.57402199101759
 21
274.97177292739832
 31
0.0
  0
ARC
  5
398F
  8
AM_0
 10
158.77402199101749
 20
275.27177292739827
 30
0.0
 40
0.3000000000000043
 50
270.0
 51
0.0
  0
LINE
  5
3990
  8
AM_0
 10
158.77402199101749
 20
271.29884536154032
 30
0.0
 11
157.57402199101759
 21
271.29884536154032
 31
0.0
  0
ARC
  5
3991
  8
AM_0
 10
158.77402199101749
 20
270.9988453615403
 30
0.0
 40
0.3000000000000007
 50
0.0
 51
90.0
  0
LINE
  5
3992
  8
AM_0
 10
148.57402199101759
 20
280.43212519018618
 30
0.0
 11
155.07402199101759
 21
280.43212519018618
 31
0.0
  0
LINE
  5
3993
  8
AM_0
 10
148.57402199101759
 20
280.9321251901863
 30
0.0
 11
155.07402199101759
 21
280.9321251901863
 31
0.0
  0
LINE
  5
3994
  8
AM_0
 10
155.07402199101759
 20
270.79884536153929
 30
0.0
 11
148.57402199101759
 21
270.79884536153929
 31
0.0
  0
LINE
  5
3995
  8
AM_0
 10
148.07402199101759
 20
271.29884536153929
 30
0.0
 11
155.07402199101759
 21
271.29884536153929
 31
0.0
  0
LINE
  5
3996
  8
AM_0
 10
154.77402199101749
 20
281.29884536153929
 30
0.0
 11
147.93607192619959
 21
281.29884536153929
 31
0.0
  0
LINE
  5
3997
  8
AM_0
 10
155.07402199101759
 20
271.64553343008032
 30
0.0
 11
148.57402199101759
 21
271.64553343008032
 31
0.0
  0
LINE
  5
3998
  8
AM_0
 10
155.07402199101759
 20
279.95215729299832
 30
0.0
 11
148.57402199101759
 21
279.95215729299832
 31
0.0
  0
ARC
  5
3999
  8
AM_0
 10
155.37402199101751
 20
281.99884536153922
 30
0.0
 40
0.2999999999999971
 50
90.0
 51
180.0
  0
ARC
  5
399A
  8
AM_0
 10
154.77402199101749
 20
281.5988453615393
 30
0.0
 40
0.2999999999999971
 50
270.0
 51
0.0
  0
ARC
  5
399B
  8
AM_0
 10
156.69902199101759
 20
275.79884536153918
 30
0.0
 40
9.124999999999984
 50
152.92493329271929
 51
207.07506670728071
  0
LINE
  5
399C
  8
AM_0
 10
147.2958875265351
 20
281.06706664113682
 30
0.0
 11
144.93383759135301
 21
279.09869169515167
 31
0.0
  0
LINE
  5
399D
  8
AM_0
 10
148.07402199101759
 20
280.72041277803129
 30
0.0
 11
148.57402199101759
 21
281.29884536153929
 31
0.0
  0
ARC
  5
399E
  8
AM_0
 10
147.93607192619959
 20
280.29884536153918
 30
0.0
 40
1.0
 50
90.0
 51
129.805571092256
  0
LINE
  5
399F
  8
AM_0
 10
148.57402199101759
 20
280.9321251901863
 30
0.0
 11
148.07402199101759
 21
280.72041277803129
 31
0.0
  0
LINE
  5
39A0
  8
AM_0
 10
148.07402199101759
 20
280.25813750506029
 30
0.0
 11
148.57402199101759
 21
280.9321251901863
 31
0.0
  0
LINE
  5
39A1
  8
AM_0
 10
148.57402199101759
 20
280.43212519018618
 30
0.0
 11
148.07402199101759
 21
280.25813750506029
 31
0.0
  0
LINE
  5
39A2
  8
AM_0
 10
148.07402199101759
 20
279.72041277803118
 30
0.0
 11
148.57402199101759
 21
280.43212519018618
 31
0.0
  0
LINE
  5
39A3
  8
AM_0
 10
148.57402199101759
 20
279.95215729299832
 30
0.0
 11
148.07402199101759
 21
279.72041277803118
 31
0.0
  0
ARC
  5
39A4
  8
AM_0
 10
145.57402199101759
 20
278.3304704155542
 30
0.0
 40
1.0000000000000291
 50
129.80557109226521
 51
180.0
  0
LINE
  5
39A5
  8
AM_0
 10
148.57402199101759
 20
270.79884536153929
 30
0.0
 11
148.07402199101759
 21
270.29884536153929
 31
0.0
  0
LINE
  5
39A6
  8
AM_0
 10
148.07402199101759
 20
271.29884536153929
 30
0.0
 11
148.57402199101759
 21
270.79884536153929
 31
0.0
  0
LINE
  5
39A7
  8
AM_0
 10
148.57402199101759
 20
271.64553343008032
 30
0.0
 11
148.07402199101759
 21
271.29884536153929
 31
0.0
  0
LINE
  5
39A8
  8
AM_0
 10
155.37402199101751
 20
258.29884536153929
 30
0.0
 11
157.57402199101759
 21
258.29884536153929
 31
0.0
  0
ARC
  5
39A9
  8
AM_0
 10
169.47269308736361
 20
257.79884536153918
 30
0.0
 40
0.5
 50
0.0
 51
90.000000000006537
  0
LINE
  5
39AA
  8
AM_0
 10
164.47269308736361
 20
261.19884536153933
 30
0.0
 11
161.2503901460145
 21
261.19884536153933
 31
0.0
  0
LINE
  5
39AB
  8
AM_0
 10
169.97269308736361
 20
269.15491668294618
 30
0.0
 11
169.97269308736361
 21
259.44277404013121
 31
0.0
  0
LINE
  5
39AC
  8
AM_0
 10
164.97269308736361
 20
269.65491668294618
 30
0.0
 11
169.47269308736361
 21
269.65491668294618
 31
0.0
  0
ARC
  5
39AD
  8
AM_0
 10
169.47269308736361
 20
269.15491668294618
 30
0.0
 40
0.5
 50
0.0
 51
90.0
  0
LINE
  5
39AE
  8
AM_0
 10
164.97269308736361
 20
258.94277404013121
 30
0.0
 11
169.47269308736361
 21
258.94277404013121
 31
0.0
  0
LINE
  5
39AF
  8
AM_0
 10
169.4726930873635
 20
258.29884536153918
 30
0.0
 11
165.47269308736361
 21
258.29884536153918
 31
0.0
  0
ARC
  5
39B0
  8
AM_0
 10
169.47269308736361
 20
259.44277404013121
 30
0.0
 40
0.5
 50
270.0
 51
0.0
  0
ARC
  5
39B1
  8
AM_0
 10
164.47269308736361
 20
260.69884536153933
 30
0.0
 40
0.5
 50
0.0
 51
90.0
  0
ARC
  5
39B2
  8
AM_0
 10
165.47269308736361
 20
258.79884536153918
 30
0.0
 40
0.5
 50
180.0
 51
270.0
  0
ARC
  5
39B3
  8
AM_0
 10
158.77402199101749
 20
264.15367460924722
 30
0.0
 40
0.3000000000000114
 50
270.0
 51
0.0
  0
LINE
  5
39B4
  8
AM_0
 10
157.57402199101759
 20
269.29884536153719
 30
0.0
 11
158.77402199101749
 21
269.29884536153719
 31
0.0
  0
ARC
  5
39B5
  8
AM_0
 10
158.77402199101749
 20
269.59884536153709
 30
0.0
 40
0.2999999999999971
 50
270.0
 51
0.0
  0
LINE
  5
39B6
  8
AM_0
 10
157.57402199101759
 20
265.62591779568021
 30
0.0
 11
158.77402199101749
 21
265.62591779568021
 31
0.0
  0
ARC
  5
39B7
  8
AM_0
 10
158.77402199101749
 20
265.3259177956802
 30
0.0
 40
0.3000000000000007
 50
0.0
 51
90.0
  0
LINE
  5
39B8
  8
AM_0
 10
159.07402199101759
 20
265.32591779568031
 30
0.0
 11
159.07402199101759
 21
264.15367460924728
 31
0.0
  0
LINE
  5
39B9
  8
AM_0
 10
160.5003901460145
 20
260.44884536153933
 30
0.0
 11
160.89596065893841
 21
260.44884536153933
 31
0.0
  0
LINE
  5
39BA
  8
AM_0
 10
160.5003901460145
 20
260.44884536153933
 30
0.0
 11
160.89596065893841
 21
260.44884536153933
 31
0.0
  0
LINE
  5
39BB
  8
AM_0
 10
160.9925531534777
 20
260.52296312827582
 30
0.0
 11
161.1537976514754
 21
261.12472759480278
 31
0.0
  0
LINE
  5
39BC
  8
AM_0
 10
160.9925531534777
 20
260.52296312827582
 30
0.0
 11
161.1537976514754
 21
261.12472759480278
 31
0.0
  0
ARC
  5
39BD
  8
AM_0
 10
161.2503901460145
 20
261.0988453615393
 30
0.0
 40
0.0999999999999943
 50
90.0
 51
164.9998049934874
  0
ARC
  5
39BE
  8
AM_0
 10
160.89596065893841
 20
260.54884536153929
 30
0.0
 40
0.0999999999999943
 50
270.0
 51
344.99980499349448
  0
LINE
  5
39BF
  8
AM_0
 10
159.57317540247641
 20
260.8238453615391
 30
0.0
 11
159.6537976514754
 21
261.12472759480278
 31
0.0
  0
LINE
  5
39C0
  8
AM_0
 10
160.2254037395696
 20
261.15958082844122
 30
0.0
 11
160.4037976514754
 21
260.52296312827582
 31
0.0
  0
LINE
  5
39C1
  8
AM_0
 10
160.2425531534777
 20
261.12472759480278
 30
0.0
 11
160.4037976514754
 21
260.52296312827582
 31
0.0
  0
LINE
  5
39C2
  8
AM_0
 10
159.07402199101759
 20
261.01201238103039
 30
0.0
 11
159.07402199101759
 21
260.35509739737921
 31
0.0
  0
LINE
  5
39C3
  8
AM_0
 10
159.57402199101759
 20
260.82700482997728
 30
0.0
 11
159.6537976514754
 21
261.12472759480278
 31
0.0
  0
LINE
  5
39C4
  8
AM_0
 10
157.57402199101759
 20
261.31201238103029
 30
0.0
 11
158.77402199101749
 21
261.31201238103029
 31
0.0
  0
LINE
  5
39C5
  8
AM_0
 10
158.77402199101749
 20
263.85367460924732
 30
0.0
 11
157.57402199101759
 21
263.85367460924613
 31
0.0
  0
LINE
  5
39C6
  8
AM_0
 10
160.1785929244536
 20
261.19884536153933
 30
0.0
 11
160.2254037395696
 21
261.15958082844122
 31
0.0
  0
LINE
  5
39C7
  8
AM_0
 10
159.7503901460145
 20
261.19884536153933
 30
0.0
 11
160.1785929244536
 21
261.19884536153933
 31
0.0
  0
LINE
  5
39C8
  8
AM_0
 10
159.7503901460145
 20
261.19884536153933
 30
0.0
 11
160.14596065893841
 21
261.19884536153933
 31
0.0
  0
ARC
  5
39C9
  8
AM_0
 10
159.7503901460145
 20
261.0988453615393
 30
0.0
 40
0.0999999999999943
 50
90.0
 51
164.9998049934874
  0
ARC
  5
39CA
  8
AM_0
 10
160.14596065893841
 20
261.0988453615393
 30
0.0
 40
0.0999999999999608
 50
15.00019500651257
 51
90.0
  0
ARC
  5
39CB
  8
AM_0
 10
158.77402199101749
 20
261.01201238103022
 30
0.0
 40
0.3000000000000007
 50
0.0
 51
90.0
  0
LINE
  5
39CC
  8
AM_0
 10
157.57402199101759
 20
259.29884536153929
 30
0.0
 11
159.07402199101759
 21
259.29884536153929
 31
0.0
  0
LINE
  5
39CD
  8
AM_0
 10
158.77402199101749
 20
260.0550973973792
 30
0.0
 11
157.57402199101759
 21
260.0550973973792
 31
0.0
  0
LINE
  5
39CE
  8
AM_0
 10
158.79397769417471
 20
258.98017574174918
 30
0.0
 11
157.57402199101759
 21
258.8988453615392
 31
0.0
  0
ARC
  5
39CF
  8
AM_0
 10
159.07402199101759
 20
259.79884536153918
 30
0.0
 40
0.5
 50
270.0
 51
0.0
  0
ARC
  5
39D0
  8
AM_0
 10
160.5003901460145
 20
260.54884536153929
 30
0.0
 40
0.0999999999999606
 50
195.00019500650541
 51
270.0
  0
ARC
  5
39D1
  8
AM_0
 10
158.77402199101749
 20
260.35509739737921
 30
0.0
 40
0.2999999999999971
 50
270.0
 51
0.0
  0
LINE
  5
39D2
  8
AM_0
 10
159.07402199101759
 20
259.29884536153929
 30
0.0
 11
159.07402199101759
 21
259.27951128910632
 31
0.0
  0
ARC
  5
39D3
  8
AM_0
 10
158.77402199101749
 20
259.27951128910632
 30
0.0
 40
0.3000000000000043
 50
273.81407483428171
 51
0.0
  0
ARC
  5
39D4
  8
AM_0
 10
170.47269308736361
 20
257.29884536153918
 30
0.0
 40
0.5
 50
180.0
 51
270.0
  0
LINE
  5
39D5
  8
AM_0
 10
169.97269308736361
 20
257.29884536153918
 30
0.0
 11
169.97269308736361
 21
257.79884536153918
 31
0.0
  0
LINE
  5
39D6
  8
AM_0
 10
148.57402199101759
 20
260.64553343008032
 30
0.0
 11
155.07402199101759
 21
260.64553343008032
 31
0.0
  0
LINE
  5
39D7
  8
AM_0
 10
148.57402199101759
 20
268.95215729299832
 30
0.0
 11
155.07402199101759
 21
268.95215729299832
 31
0.0
  0
LINE
  5
39D8
  8
AM_0
 10
147.93607192619959
 20
259.29884536153929
 30
0.0
 11
154.77402199101749
 21
259.29884536153929
 31
0.0
  0
LINE
  5
39D9
  8
AM_0
 10
155.07402199101759
 20
269.29884536153929
 30
0.0
 11
148.07402199101759
 21
269.29884536153929
 31
0.0
  0
LINE
  5
39DA
  8
AM_0
 10
148.57402199101759
 20
269.79884536153929
 30
0.0
 11
155.07402199101759
 21
269.79884536153929
 31
0.0
  0
LINE
  5
39DB
  8
AM_0
 10
155.07402199101759
 20
259.66556553289132
 30
0.0
 11
148.57402199101759
 21
259.66556553289132
 31
0.0
  0
LINE
  5
39DC
  8
AM_0
 10
155.07402199101759
 20
260.16556553289121
 30
0.0
 11
148.57402199101759
 21
260.16556553289121
 31
0.0
  0
ARC
  5
39DD
  8
AM_0
 10
154.77402199101749
 20
258.99884536153922
 30
0.0
 40
0.3000000000000043
 50
0.0
 51
90.0
  0
ARC
  5
39DE
  8
AM_0
 10
155.37402199101751
 20
258.59884536153919
 30
0.0
 40
0.2999999999999971
 50
180.0
 51
270.0
  0
ARC
  5
39DF
  8
AM_0
 10
156.69902199101759
 20
264.79884536153929
 30
0.0
 40
9.124999999999984
 50
152.92493329271929
 51
207.07506670728071
  0
LINE
  5
39E0
  8
AM_0
 10
148.07402199101759
 20
269.29884536153929
 30
0.0
 11
148.57402199101759
 21
268.95215729299832
 31
0.0
  0
LINE
  5
39E1
  8
AM_0
 10
148.57402199101759
 20
269.79884536153929
 30
0.0
 11
148.07402199101759
 21
269.29884536153929
 31
0.0
  0
LINE
  5
39E2
  8
AM_0
 10
144.93383759135301
 20
261.49899902792589
 30
0.0
 11
147.2958875265351
 21
259.53062408194182
 31
0.0
  0
LINE
  5
39E3
  8
AM_0
 10
148.57402199101759
 20
259.29884536153929
 30
0.0
 11
148.07402199101759
 21
259.87727794504627
 31
0.0
  0
ARC
  5
39E4
  8
AM_0
 10
147.93607192619959
 20
260.29884536153918
 30
0.0
 40
1.0000000000000411
 50
230.19442890774391
 51
270.0
  0
LINE
  5
39E5
  8
AM_0
 10
148.07402199101759
 20
260.87727794504627
 30
0.0
 11
148.57402199101759
 21
260.64553343008032
 31
0.0
  0
LINE
  5
39E6
  8
AM_0
 10
148.57402199101759
 20
260.16556553289121
 30
0.0
 11
148.07402199101759
 21
260.87727794504627
 31
0.0
  0
LINE
  5
39E7
  8
AM_0
 10
148.07402199101759
 20
260.3395532180183
 30
0.0
 11
148.57402199101759
 21
260.16556553289121
 31
0.0
  0
LINE
  5
39E8
  8
AM_0
 10
148.57402199101759
 20
259.66556553289132
 30
0.0
 11
148.07402199101759
 21
260.3395532180183
 31
0.0
  0
LINE
  5
39E9
  8
AM_0
 10
148.07402199101759
 20
259.87727794504627
 30
0.0
 11
148.57402199101759
 21
259.66556553289132
 31
0.0
  0
ARC
  5
39EA
  8
AM_0
 10
145.57402199101759
 20
262.26722030752319
 30
0.0
 40
1.0
 50
180.0
 51
230.19442890773479
  0
CIRCLE
  5
39EB
  8
AM_0
 10
178.9726930873619
 20
311.29884536153889
 30
0.0
 40
4.0
  0
LINE
  5
39EC
  8
AM_0
 10
178.6611930873618
 20
309.02003695581448
 30
0.0
 11
179.2841930873619
 21
309.02003695581448
 31
0.0
  0
LINE
  5
39ED
  8
AM_0
 10
178.6611930873618
 20
313.5776537672632
 30
0.0
 11
179.2841930873619
 21
313.5776537672632
 31
0.0
  0
LINE
  5
39EE
  8
AM_0
 10
178.6611930873618
 20
309.02003695581448
 30
0.0
 11
178.6611930873618
 21
310.98734536153893
 31
0.0
  0
LINE
  5
39EF
  8
AM_0
 10
178.6611930873618
 20
311.61034536153892
 30
0.0
 11
178.6611930873618
 21
313.5776537672632
 31
0.0
  0
LINE
  5
39F0
  8
AM_0
 10
178.6611930873618
 20
311.61034536153892
 30
0.0
 11
176.69388468163751
 21
311.61034536153892
 31
0.0
  0
LINE
  5
39F1
  8
AM_0
 10
178.6611930873618
 20
310.98734536153893
 30
0.0
 11
176.69388468163751
 21
310.98734536153893
 31
0.0
  0
LINE
  5
39F2
  8
AM_0
 10
176.69388468163751
 20
311.61034536153892
 30
0.0
 11
176.69388468163751
 21
310.98734536153893
 31
0.0
  0
LINE
  5
39F3
  8
AM_0
 10
179.2841930873619
 20
309.02003695581448
 30
0.0
 11
179.2841930873619
 21
310.98734536153893
 31
0.0
  0
LINE
  5
39F4
  8
AM_0
 10
179.2841930873619
 20
311.61034536153892
 30
0.0
 11
179.2841930873619
 21
313.5776537672632
 31
0.0
  0
LINE
  5
39F5
  8
AM_0
 10
181.25150149308621
 20
310.98734536153893
 30
0.0
 11
179.2841930873619
 21
310.98734536153893
 31
0.0
  0
LINE
  5
39F6
  8
AM_0
 10
181.25150149308621
 20
311.61034536153892
 30
0.0
 11
179.2841930873619
 21
311.61034536153892
 31
0.0
  0
LINE
  5
39F7
  8
AM_0
 10
181.25150149308621
 20
311.61034536153892
 30
0.0
 11
181.25150149308621
 21
310.98734536153893
 31
0.0
  0
CIRCLE
  5
39F8
  8
AM_0
 10
264.97269308736543
 20
311.29884536153878
 30
0.0
 40
4.0
  0
LINE
  5
39F9
  8
AM_0
 10
264.66119308736552
 20
309.02003695581448
 30
0.0
 11
265.28419308736551
 21
309.02003695581448
 31
0.0
  0
LINE
  5
39FA
  8
AM_0
 10
264.66119308736552
 20
313.5776537672632
 30
0.0
 11
265.28419308736551
 21
313.5776537672632
 31
0.0
  0
LINE
  5
39FB
  8
AM_0
 10
264.66119308736552
 20
309.02003695581448
 30
0.0
 11
264.66119308736552
 21
310.98734536153893
 31
0.0
  0
LINE
  5
39FC
  8
AM_0
 10
264.66119308736552
 20
311.61034536153892
 30
0.0
 11
264.66119308736552
 21
313.5776537672632
 31
0.0
  0
LINE
  5
39FD
  8
AM_0
 10
264.66119308736552
 20
311.61034536153892
 30
0.0
 11
262.69388468164112
 21
311.61034536153892
 31
0.0
  0
LINE
  5
39FE
  8
AM_0
 10
264.66119308736552
 20
310.98734536153893
 30
0.0
 11
262.69388468164112
 21
310.98734536153893
 31
0.0
  0
LINE
  5
39FF
  8
AM_0
 10
262.69388468164112
 20
311.61034536153892
 30
0.0
 11
262.69388468164112
 21
310.98734536153893
 31
0.0
  0
LINE
  5
3A00
  8
AM_0
 10
265.28419308736551
 20
309.02003695581448
 30
0.0
 11
265.28419308736551
 21
310.98734536153893
 31
0.0
  0
LINE
  5
3A01
  8
AM_0
 10
265.28419308736551
 20
311.61034536153892
 30
0.0
 11
265.28419308736551
 21
313.5776537672632
 31
0.0
  0
LINE
  5
3A02
  8
AM_0
 10
267.25150149308979
 20
310.98734536153893
 30
0.0
 11
265.28419308736551
 21
310.98734536153893
 31
0.0
  0
LINE
  5
3A03
  8
AM_0
 10
267.25150149308979
 20
311.61034536153892
 30
0.0
 11
265.28419308736551
 21
311.61034536153892
 31
0.0
  0
LINE
  5
3A04
  8
AM_0
 10
267.25150149308979
 20
311.61034536153892
 30
0.0
 11
267.25150149308979
 21
310.98734536153893
 31
0.0
  0
LINE
  5
3A05
  8
AM_0
 10
192.5082269932966
 20
314.83437926747212
 30
0.0
 11
175.43715918143079
 21
297.76331145560681
 31
0.0
  0
LINE
  5
3A06
  8
AM_0
 10
193.1650812427888
 20
309.834379267472
 30
0.0
 11
180.43715918143079
 21
297.10645720611421
 31
0.0
  0
ARC
  5
3A07
  8
AM_0
 10
183.97269308736361
 20
293.57092330018139
 30
0.0
 40
5.0
 50
135.0
 51
180.0
1001
GENIUS_GENOBJ-N-FIL_13
1002
{
1000
OWNER
1000
GEN
1002
}
1001
GENIUS_GENODEF_13
1002
{
1000
HIER
1070
     0
1002
}
1002
{
1000
MANEDIT
1070
     0
1002
}
1002
{
1000
NOSEL
1070
     0
1002
}
1002
{
1000
BEHIND
1070
     0
1002
}
1002
{
1000
OTHER
1070
     0
1002
}
1002
{
1000
REACTOR
1002
}
  0
LINE
  5
3A08
  8
AM_0
 10
251.43715918143079
 20
225.7633114556063
 30
0.0
 11
268.50822699329638
 21
242.8343792674718
 31
0.0
  0
ARC
  5
3A09
  8
AM_0
 10
247.90162527549811
 20
229.29884536153909
 30
0.0
 40
5.0
 50
270.0
 51
315.0
1001
GENIUS_GENODEF_13
1002
{
1000
HIER
1070
     0
1002
}
1002
{
1000
MANEDIT
1070
     0
1002
}
1002
{
1000
NOSEL
1070
     0
1002
}
1002
{
1000
BEHIND
1070
     0
1002
}
1002
{
1000
OTHER
1070
     0
1002
}
1002
{
1000
REACTOR
1002
}
1001
GENIUS_GENOBJ-N-FIL_13
1002
{
1000
OWNER
1000
GEN
1002
}
  0
LINE
  5
3A0A
  8
AM_0
 10
250.7803049319385
 20
230.76331145560641
 30
0.0
 11
263.50822699329638
 21
243.491233516964
 31
0.0
  0
ARC
  5
3A0B
  8
AM_0
 10
259.97269308736372
 20
247.0267674228968
 30
0.0
 40
5.0
 50
315.0
 51
0.0
1001
GENIUS_GENOBJ-N-FIL_13
1002
{
1000
OWNER
1000
GEN
1002
}
1001
GENIUS_GENODEF_13
1002
{
1000
HIER
1070
     0
1002
}
1002
{
1000
MANEDIT
1070
     0
1002
}
1002
{
1000
NOSEL
1070
     0
1002
}
1002
{
1000
BEHIND
1070
     0
1002
}
1002
{
1000
OTHER
1070
     0
1002
}
1002
{
1000
REACTOR
1002
}
  0
LINE
  5
3A0C
  8
AM_0
 10
192.50822699329629
 20
225.7633114556063
 30
0.0
 11
175.43715918143079
 21
242.8343792674716
 31
0.0
  0
LINE
  5
3A0D
  8
AM_0
 10
193.1650812427884
 20
230.76331145560641
 30
0.0
 11
180.43715918143079
 21
243.491233516964
 31
0.0
  0
ARC
  5
3A0E
  8
AM_0
 10
196.70061514872131
 20
234.29884536153909
 30
0.0
 40
5.0
 50
225.0
 51
270.0
1001
GENIUS_GENOBJ-N-FIL_13
1002
{
1000
OWNER
1000
GEN
1002
}
1001
GENIUS_GENODEF_13
1002
{
1000
HIER
1070
     0
1002
}
1002
{
1000
MANEDIT
1070
     0
1002
}
1002
{
1000
NOSEL
1070
     0
1002
}
1002
{
1000
BEHIND
1070
     0
1002
}
1002
{
1000
OTHER
1070
     0
1002
}
1002
{
1000
REACTOR
1002
}
  0
CIRCLE
  5
3A0F
  8
AM_0
 10
178.97269308736179
 20
229.29884536153949
 30
0.0
 40
4.0
  0
LINE
  5
3A10
  8
AM_0
 10
178.6611930873618
 20
231.57765376726391
 30
0.0
 11
179.28419308736181
 21
231.57765376726391
 31
0.0
  0
LINE
  5
3A11
  8
AM_0
 10
178.6611930873618
 20
227.02003695581519
 30
0.0
 11
179.28419308736181
 21
227.02003695581519
 31
0.0
  0
LINE
  5
3A12
  8
AM_0
 10
178.6611930873618
 20
231.57765376726391
 30
0.0
 11
178.6611930873618
 21
229.61034536153949
 31
0.0
  0
LINE
  5
3A13
  8
AM_0
 10
178.6611930873618
 20
228.9873453615395
 30
0.0
 11
178.6611930873618
 21
227.02003695581519
 31
0.0
  0
LINE
  5
3A14
  8
AM_0
 10
178.6611930873618
 20
228.9873453615395
 30
0.0
 11
176.6938846816374
 21
228.9873453615395
 31
0.0
  0
LINE
  5
3A15
  8
AM_0
 10
178.6611930873618
 20
229.61034536153949
 30
0.0
 11
176.6938846816374
 21
229.61034536153949
 31
0.0
  0
LINE
  5
3A16
  8
AM_0
 10
176.6938846816374
 20
228.9873453615395
 30
0.0
 11
176.6938846816374
 21
229.61034536153949
 31
0.0
  0
LINE
  5
3A17
  8
AM_0
 10
179.28419308736181
 20
231.57765376726391
 30
0.0
 11
179.28419308736181
 21
229.61034536153949
 31
0.0
  0
LINE
  5
3A18
  8
AM_0
 10
179.28419308736181
 20
228.9873453615395
 30
0.0
 11
179.28419308736181
 21
227.02003695581519
 31
0.0
  0
LINE
  5
3A19
  8
AM_0
 10
181.2515014930861
 20
229.61034536153949
 30
0.0
 11
179.28419308736181
 21
229.61034536153949
 31
0.0
  0
LINE
  5
3A1A
  8
AM_0
 10
181.2515014930861
 20
228.9873453615395
 30
0.0
 11
179.28419308736181
 21
228.9873453615395
 31
0.0
  0
LINE
  5
3A1B
  8
AM_0
 10
181.2515014930861
 20
228.9873453615395
 30
0.0
 11
181.2515014930861
 21
229.61034536153949
 31
0.0
  0
CIRCLE
  5
3A1C
  8
AM_0
 10
264.97269308736531
 20
229.29884536153929
 30
0.0
 40
4.0
  0
LINE
  5
3A1D
  8
AM_0
 10
264.66119308736529
 20
231.57765376726371
 30
0.0
 11
265.28419308736528
 21
231.57765376726371
 31
0.0
  0
LINE
  5
3A1E
  8
AM_0
 10
264.66119308736529
 20
227.02003695581499
 30
0.0
 11
265.28419308736528
 21
227.02003695581499
 31
0.0
  0
LINE
  5
3A1F
  8
AM_0
 10
264.66119308736529
 20
231.57765376726371
 30
0.0
 11
264.66119308736529
 21
229.61034536153929
 31
0.0
  0
LINE
  5
3A20
  8
AM_0
 10
264.66119308736529
 20
228.9873453615393
 30
0.0
 11
264.66119308736529
 21
227.02003695581499
 31
0.0
  0
LINE
  5
3A21
  8
AM_0
 10
264.66119308736529
 20
228.9873453615393
 30
0.0
 11
262.6938846816409
 21
228.9873453615393
 31
0.0
  0
LINE
  5
3A22
  8
AM_0
 10
264.66119308736529
 20
229.61034536153929
 30
0.0
 11
262.6938846816409
 21
229.61034536153929
 31
0.0
  0
LINE
  5
3A23
  8
AM_0
 10
262.6938846816409
 20
228.9873453615393
 30
0.0
 11
262.6938846816409
 21
229.61034536153929
 31
0.0
  0
LINE
  5
3A24
  8
AM_0
 10
265.28419308736528
 20
231.57765376726371
 30
0.0
 11
265.28419308736528
 21
229.61034536153929
 31
0.0
  0
LINE
  5
3A25
  8
AM_0
 10
265.28419308736528
 20
228.9873453615393
 30
0.0
 11
265.28419308736528
 21
227.02003695581499
 31
0.0
  0
LINE
  5
3A26
  8
AM_0
 10
267.25150149308968
 20
229.61034536153929
 30
0.0
 11
265.28419308736528
 21
229.61034536153929
 31
0.0
  0
LINE
  5
3A27
  8
AM_0
 10
267.25150149308968
 20
228.9873453615393
 30
0.0
 11
265.28419308736528
 21
228.9873453615393
 31
0.0
  0
LINE
  5
3A28
  8
AM_0
 10
267.25150149308968
 20
228.9873453615393
 30
0.0
 11
267.25150149308968
 21
229.61034536153929
 31
0.0
  0
LINE
  5
3A29
  8
AM_0
 10
173.97269308736361
 20
239.29884536153921
 30
0.0
 11
172.97269308736361
 21
239.29884536153921
 31
0.0
  0
LINE
  5
3A2A
  8
AM_0
 10
173.97269308736361
 20
301.29884536153918
 30
0.0
 11
172.97269308736361
 21
301.29884536153918
 31
0.0
  0
LINE
  5
3A2B
  8
AM_0
 10
172.97269308736361
 20
239.29884536153921
 30
0.0
 11
172.97269308736361
 21
301.29884536153918
 31
0.0
  0
LINE
  5
3A2D
  8
AM_0
 10
545.32856563677149
 20
236.79884536153921
 30
0.0
 11
545.32856563677149
 21
303.79884536153918
 31
0.0
  0
LINE
  5
3A2E
  8
AM_0
 10
544.32856563677149
 20
236.79884536153909
 30
0.0
 11
545.32856563677149
 21
236.79884536153921
 31
0.0
  0
LINE
  5
3A2F
  8
AM_0
 10
544.32856563677149
 20
303.79884536153918
 30
0.0
 11
545.32856563677149
 21
303.79884536153918
 31
0.0
  0
LINE
  5
3A30
  8
AM_0
 10
506.3285656367712
 20
224.29884536153921
 30
0.0
 11
542.39836463017616
 21
225.55843049780151
 31
0.0
  0
LINE
  5
3A31
  8
AM_0
 10
544.32856563677149
 20
227.55721215183971
 30
0.0
 11
544.32856563677149
 21
313.04047857123879
 31
0.0
  0
ARC
  5
3A32
  8
AM_0
 10
542.32856563677126
 20
227.55721215183971
 30
0.0
 40
2.0
 50
271.99999999999721
 51
0.0
1001
GENIUS_GENODEF_13
1002
{
1000
HIER
1070
     0
1002
}
1002
{
1000
MANEDIT
1070
     0
1002
}
1002
{
1000
NOSEL
1070
     0
1002
}
1002
{
1000
BEHIND
1070
     0
1002
}
1002
{
1000
OTHER
1070
     0
1002
}
1002
{
1000
REACTOR
1002
}
1001
GENIUS_GENOBJ-N-FIL_13
1002
{
1000
OWNER
1000
GEN
1002
}
  0
LINE
  5
3A33
  8
AM_0
 10
542.39836463017616
 20
315.03926022527691
 30
0.0
 11
506.32856563677149
 21
316.29884536153929
 31
0.0
  0
ARC
  5
3A34
  8
AM_0
 10
542.3285656367716
 20
313.04047857123879
 30
0.0
 40
2.0
 50
0.0
 51
88.000000000002785
1001
GENIUS_GENOBJ-N-FIL_13
1002
{
1000
OWNER
1000
GEN
1002
}
1001
GENIUS_GENODEF_13
1002
{
1000
HIER
1070
     0
1002
}
1002
{
1000
MANEDIT
1070
     0
1002
}
1002
{
1000
NOSEL
1070
     0
1002
}
1002
{
1000
BEHIND
1070
     0
1002
}
1002
{
1000
OTHER
1070
     0
1002
}
1002
{
1000
REACTOR
1002
}
  0
LINE
  5
3A35
  8
AM_0
 10
506.32856563677149
 20
316.29884536153929
 30
0.0
 11
506.3285656367712
 21
224.29884536153901
 31
0.0
  0
LINE
  5
3A36
  8
ﾁｭｳｼﾝｾﾝ1
 10
495.32856563677137
 20
229.29884536153989
 30
0.0
 11
511.15608864930812
 21
229.2988453615398
 31
0.0
  0
LINE
  5
3A37
  8
AM_0
 10
502.32856563677149
 20
316.29884536153918
 30
0.0
 11
502.32856563677149
 21
295.4843404620068
 31
0.0
  0
LINE
  5
3A38
  8
AM_0
 10
502.3285656367712
 20
245.11335026107159
 30
0.0
 11
502.3285656367712
 21
224.29884536153989
 31
0.0
  0
LINE
  5
3A39
  8
AM_0
 10
498.32856563677149
 20
310.16306369237861
 30
0.0
 11
498.3285656367712
 21
230.4346270306998
 31
0.0
  0
LINE
  5
3A3A
  8
AM_0
 10
500.26962812464342
 20
233.2062003338462
 30
0.0
 11
501.3285656367712
 21
233.29884536153969
 31
0.0
  0
LINE
  5
3A3B
  8
AM_0
 10
500.26962812464342
 20
225.3914903892333
 30
0.0
 11
501.3285656367712
 21
225.2988453615398
 31
0.0
  0
ARC
  5
3A3C
  8
AM_0
 10
504.72856563677141
 20
229.29884536153969
 30
0.0
 40
6.5
 50
151.82726586813479
 51
208.1727341318651
  0
ARC
  5
3A3D
  8
AM_0
 10
500.40907731303992
 20
226.9854019061801
 30
0.0
 40
1.6000000000000001
 50
208.1727341318651
 51
265.0
  0
LINE
  5
3A3E
  8
AM_0
 10
498.64909197534303
 20
231.5988453615397
 30
0.0
 11
500.9386516541386
 21
229.29884536153969
 31
0.0
  0
LINE
  5
3A3F
  8
AM_0
 10
500.62856563677121
 20
229.6103453615398
 30
0.0
 11
500.62856563677121
 21
228.9873453615397
 31
0.0
  0
LINE
  5
3A40
  8
AM_0
 10
498.64909197534303
 20
226.99884536153979
 30
0.0
 11
500.9386516541386
 21
229.29884536153969
 31
0.0
  0
LINE
  5
3A41
  8
AM_0
 10
498.23603394643641
 20
229.6103453615398
 30
0.0
 11
500.62856563677121
 21
229.6103453615398
 31
0.0
  0
LINE
  5
3A42
  8
AM_0
 10
498.23603394643641
 20
228.9873453615397
 30
0.0
 11
500.62856563677121
 21
228.9873453615397
 31
0.0
  0
ARC
  5
3A43
  8
AM_0
 10
500.40907731303992
 20
231.61228881689939
 30
0.0
 40
1.6000000000000001
 50
95.0
 51
151.82726586813479
  0
LINE
  5
3A44
  8
AM_0
 10
502.32856563677149
 20
316.29884536153929
 30
0.0
 11
506.32856563677149
 21
316.29884536153929
 31
0.0
  0
LINE
  5
3A45
  8
AM_0
 10
501.32856563677109
 20
315.29884536153912
 30
0.0
 11
502.3285656367716
 21
316.29884536153929
 31
0.0
  0
LINE
  5
3A46
  8
AM_0
 10
506.3285656367712
 20
224.29884536153901
 30
0.0
 11
502.3285656367712
 21
224.29884536154
 31
0.0
  0
LINE
  5
3A47
  8
AM_0N
 10
502.3285656367712
 20
233.09884536153979
 30
0.0
 11
501.3285656367712
 21
233.09884536153979
 31
0.0
  0
LINE
  5
3A48
  8
AM_0N
 10
501.3285656367712
 20
229.49884536153979
 30
0.0
 11
502.3285656367712
 21
229.86281559580601
 31
0.0
  0
LINE
  5
3A49
  8
AM_0N
 10
501.3285656367712
 20
229.09884536153979
 30
0.0
 11
502.3285656367712
 21
229.46281559580601
 31
0.0
  0
LINE
  5
3A4A
  8
AM_0N
 10
501.3285656367712
 20
225.29884536153969
 30
0.0
 11
501.3285656367712
 21
233.29884536153969
 31
0.0
  0
LINE
  5
3A4B
  8
AM_0N
 10
501.3285656367712
 20
225.49884536153979
 30
0.0
 11
502.3285656367712
 21
225.49884536153979
 31
0.0
  0
LINE
  5
3A4C
  8
AM_0
 10
498.3285656367712
 20
245.1133502610713
 30
0.0
 11
502.3285656367712
 21
245.1133502610715
 31
0.0
  0
LINE
  5
3A4D
  8
AM_0
 10
502.3285656367712
 20
243.45649601157899
 30
0.0
 11
498.3285656367712
 21
245.1133502610713
 31
0.0
  0
LINE
  5
3A4E
  8
AM_0
 10
498.32856563677149
 20
295.4843404620068
 30
0.0
 11
502.32856563677149
 21
295.4843404620068
 31
0.0
  0
LINE
  5
3A4F
  8
AM_0
 10
502.32856563677149
 20
297.14119471149922
 30
0.0
 11
498.32856563677149
 21
295.4843404620068
 31
0.0
  0
LINE
  5
3A50
  8
ﾁｭｳｼﾝｾﾝ1
 10
495.32856563677149
 20
311.2988453615385
 30
0.0
 11
511.15608864930812
 21
311.29884536153861
 31
0.0
  0
LINE
  5
3A51
  8
AM_0
 10
500.26962812464342
 20
307.39149038923222
 30
0.0
 11
501.3285656367712
 21
307.29884536153861
 31
0.0
  0
LINE
  5
3A52
  8
AM_0
 10
500.26962812464342
 20
315.20620033384512
 30
0.0
 11
501.3285656367712
 21
315.29884536153861
 31
0.0
  0
ARC
  5
3A53
  8
AM_0
 10
504.72856563677141
 20
311.29884536153861
 30
0.0
 40
6.5
 50
151.82726586813479
 51
208.1727341318651
  0
ARC
  5
3A54
  8
AM_0
 10
500.40907731303992
 20
313.61228881689817
 30
0.0
 40
1.6000000000000001
 50
95.0
 51
151.82726586813479
  0
LINE
  5
3A55
  8
AM_0
 10
498.64909197534303
 20
308.9988453615386
 30
0.0
 11
500.9386516541386
 21
311.29884536153861
 31
0.0
  0
LINE
  5
3A56
  8
AM_0
 10
500.62856563677121
 20
310.98734536153859
 30
0.0
 11
500.62856563677121
 21
311.61034536153852
 31
0.0
  0
LINE
  5
3A57
  8
AM_0
 10
498.64909197534303
 20
313.59884536153862
 30
0.0
 11
500.9386516541386
 21
311.29884536153861
 31
0.0
  0
LINE
  5
3A58
  8
AM_0
 10
498.23603394643641
 20
310.98734536153859
 30
0.0
 11
500.62856563677121
 21
310.98734536153859
 31
0.0
  0
LINE
  5
3A59
  8
AM_0
 10
498.23603394643641
 20
311.61034536153852
 30
0.0
 11
500.62856563677121
 21
311.61034536153852
 31
0.0
  0
ARC
  5
3A5A
  8
AM_0
 10
500.40907731303992
 20
308.98540190617888
 30
0.0
 40
1.6000000000000001
 50
208.1727341318651
 51
265.0
  0
LINE
  5
3A5B
  8
AM_0N
 10
502.3285656367712
 20
307.49884536153849
 30
0.0
 11
501.3285656367712
 21
307.49884536153849
 31
0.0
  0
LINE
  5
3A5C
  8
AM_0N
 10
501.3285656367712
 20
311.09884536153862
 30
0.0
 11
502.3285656367712
 21
310.7348751272724
 31
0.0
  0
LINE
  5
3A5D
  8
AM_0N
 10
501.3285656367712
 20
311.4988453615386
 30
0.0
 11
502.3285656367712
 21
311.13487512727238
 31
0.0
  0
LINE
  5
3A5E
  8
AM_0N
 10
501.3285656367712
 20
315.29884536153861
 30
0.0
 11
501.3285656367712
 21
307.29884536153861
 31
0.0
  0
LINE
  5
3A5F
  8
AM_0N
 10
501.3285656367712
 20
315.09884536153862
 30
0.0
 11
502.3285656367712
 21
315.09884536153862
 31
0.0
  0
LINE
  5
3A60
  8
AM_0
 10
546.4704489756798
 20
240.29884536153921
 30
0.0
 11
545.32856563677149
 21
240.29884536153921
 31
0.0
  0
LINE
  5
3A61
  8
ﾁｭｳｼﾝｾﾝ1
 10
555.82857663677134
 20
217.29884336153921
 30
0.0
 11
555.82857663677134
 21
197.29882936153919
 31
0.0
  0
LINE
  5
3A62
  8
ﾁｭｳｼﾝｾﾝ1
 10
354.97268308736358
 20
217.29884336153921
 30
0.0
 11
354.97268308736358
 21
197.29882936153919
 31
0.0
  0
LINE
  5
3A63
  8
ﾁｭｳｼﾝｾﾝ1
 10
291.97271308736367
 20
217.29884336153921
 30
0.0
 11
291.97271308736367
 21
197.29882936153919
 31
0.0
  0
LINE
  5
3A65
  8
AM_0
 10
366.97268308736358
 20
311.79884636153918
 30
0.0
 11
370.97268308736352
 21
307.7988463615394
 31
0.0
  0
LINE
  5
3A66
  8
AM_0
 10
364.47268308736358
 20
311.79884636153918
 30
0.0
 11
366.97268308736358
 21
311.79884636153918
 31
0.0
  0
LINE
  5
3A67
  8
AM_0
 10
363.97268308736369
 20
311.29884636153918
 30
0.0
 11
363.97268308736369
 21
263.29884636153918
 31
0.0
  0
LINE
  5
3A68
  8
AM_0
 10
370.97268308736352
 20
307.7988463615394
 30
0.0
 11
370.9726830873642
 21
266.79884636153912
 31
0.0
  0
LINE
  5
3A69
  8
AM_0
 10
366.97268308736358
 20
262.79884636153918
 30
0.0
 11
370.97268308736352
 21
266.79884636153912
 31
0.0
  0
LINE
  5
3A6A
  8
AM_0
 10
364.47268308736358
 20
262.79884636153918
 30
0.0
 11
366.97268308736358
 21
262.79884636153929
 31
0.0
  0
LINE
  5
3A6B
  8
AM_0
 10
363.97268308736369
 20
311.29884636153918
 30
0.0
 11
364.47268308736358
 21
311.79884636153918
 31
0.0
1001
GENIUS_GENFIL_13
1070
     0
1040
0.5
1040
0.5
1040
20.0
1040
0.0
1002
{
1002
}
1001
GENIUS_GENOBJ-N-CHA_13
1002
{
1000
OWNER
1000
GEN
1002
}
1001
GENIUS_GENODEF_13
1002
{
1000
HIER
1070
     0
1002
}
1002
{
1000
MANEDIT
1070
     0
1002
}
1002
{
1000
NOSEL
1070
     0
1002
}
1002
{
1000
BEHIND
1070
     0
1002
}
1002
{
1000
OTHER
1070
     0
1002
}
1002
{
1000
REACTOR
1002
}
  0
LINE
  5
3A6C
  8
AM_0
 10
363.97268308736369
 20
263.29884636153918
 30
0.0
 11
364.47268308736358
 21
262.79884636153918
 31
0.0
1001
GENIUS_GENFIL_13
1070
     0
1040
0.5
1040
0.5
1040
20.0
1040
0.0
1002
{
1002
}
1001
GENIUS_GENODEF_13
1002
{
1000
HIER
1070
     0
1002
}
1002
{
1000
MANEDIT
1070
     0
1002
}
1002
{
1000
NOSEL
1070
     0
1002
}
1002
{
1000
BEHIND
1070
     0
1002
}
1002
{
1000
OTHER
1070
     0
1002
}
1002
{
1000
REACTOR
1002
}
1001
GENIUS_GENOBJ-N-CHA_13
1002
{
1000
OWNER
1000
GEN
1002
}
  0
CIRCLE
  5
3A6D
  8
AM_0
 10
613.32856563677126
 20
287.29884636153918
 30
0.0
 40
24.49999999999989
  0
CIRCLE
  5
3A6E
  8
AM_0
 10
613.32856563677126
 20
287.29884636153918
 30
0.0
 40
20.50000000000011
  0
LINE
  5
3A6F
  8
AM_0
 10
366.97268308736358
 20
311.79884636153918
 30
0.0
 11
366.97268308736358
 21
262.79884636153929
 31
0.0
  0
LINE
  5
3A70
  8
ﾁｭｳｼﾝｾﾝ1
 10
178.97269308736151
 20
305.29884536153889
 30
0.0
 11
178.9726930873621
 21
317.29884536153889
 31
0.0
  0
LINE
  5
3A71
  8
ﾁｭｳｼﾝｾﾝ1
 10
184.9726930873619
 20
311.29884536153872
 30
0.0
 11
172.9726930873619
 21
311.29884536153929
 31
0.0
  0
LINE
  5
3A72
  8
ﾁｭｳｼﾝｾﾝ1
 10
178.97269308736139
 20
223.29884536153949
 30
0.0
 11
178.9726930873621
 21
235.29884536153949
 31
0.0
  0
LINE
  5
3A73
  8
ﾁｭｳｼﾝｾﾝ1
 10
184.97269308736171
 20
229.29884536153929
 30
0.0
 11
172.97269308736179
 21
229.29884536153989
 31
0.0
  0
LINE
  5
3A74
  8
ﾁｭｳｼﾝｾﾝ1
 10
264.97269308736497
 20
223.29884536153921
 30
0.0
 11
264.97269308736543
 21
235.29884536153929
 31
0.0
  0
LINE
  5
3A75
  8
ﾁｭｳｼﾝｾﾝ1
 10
270.97269308736531
 20
229.29884536153909
 30
0.0
 11
258.97269308736531
 21
229.29884536153969
 31
0.0
  0
LINE
  5
4178
  8
AM_0
 10
251.99889293640391
 20
467.70496769594138
 30
0.0
 11
252.2534422104267
 21
477.4249376959412
 31
0.0
  0
LINE
  5
4179
  8
AM_0
 10
191.9464609411632
 20
467.70496769594138
 30
0.0
 11
191.6919789000244
 21
477.4249376959412
 31
0.0
  0
LINE
  5
4283
  8
AM_0
 10
188.4727030873633
 20
465.70496769594132
 30
0.0
 11
255.47270308736341
 21
465.70496769594132
 31
0.0
  0
LINE
  5
4284
  8
AM_0
 10
188.4727030873633
 20
464.70496769594132
 30
0.0
 11
188.4727030873633
 21
465.70496769594132
 31
0.0
  0
LINE
  5
4285
  8
AM_0
 10
255.47270308736341
 20
464.70496769594132
 30
0.0
 11
255.47270308736341
 21
465.70496769594132
 31
0.0
  0
LINE
  5
4286
  8
AM_0
 10
173.9727030873633
 20
426.70496769594132
 30
0.0
 11
175.23228822362569
 21
462.77476668934628
 31
0.0
  0
LINE
  5
4287
  8
AM_0
 10
177.23106987766391
 20
464.70496769594132
 30
0.0
 11
266.7143362970628
 21
464.70496769594132
 31
0.0
  0
ARC
  5
4288
  8
AM_0
 10
177.23106987766391
 20
462.70496769594138
 30
0.0
 40
2.0
 50
90.0
 51
178.00000000000259
1001
GENIUS_GENODEF_13
1002
{
1000
HIER
1070
     0
1002
}
1002
{
1000
MANEDIT
1070
     0
1002
}
1002
{
1000
NOSEL
1070
     0
1002
}
1002
{
1000
BEHIND
1070
     0
1002
}
1002
{
1000
OTHER
1070
     0
1002
}
1002
{
1000
REACTOR
1002
}
1001
GENIUS_GENOBJ-N-FIL_13
1002
{
1000
OWNER
1000
GEN
1002
}
  0
LINE
  5
4289
  8
AM_0
 10
268.71311795110108
 20
462.77476668934628
 30
0.0
 11
269.97270308736353
 21
426.70496769594132
 31
0.0
  0
ARC
  5
428A
  8
AM_0
 10
266.71433629706303
 20
462.70496769594138
 30
0.0
 40
2.0
 50
1.999999999997194
 51
90.0
1001
GENIUS_GENOBJ-N-FIL_13
1002
{
1000
OWNER
1000
GEN
1002
}
1001
GENIUS_GENODEF_13
1002
{
1000
HIER
1070
     0
1002
}
1002
{
1000
MANEDIT
1070
     0
1002
}
1002
{
1000
NOSEL
1070
     0
1002
}
1002
{
1000
BEHIND
1070
     0
1002
}
1002
{
1000
OTHER
1070
     0
1002
}
1002
{
1000
REACTOR
1002
}
  0
LINE
  5
428B
  8
AM_0
 10
269.97270308736353
 20
426.70496769594132
 30
0.0
 11
173.9727030873631
 21
426.70496769594132
 31
0.0
  0
LINE
  5
428C
  8
AM_0
 10
174.0774653958384
 20
429.70496769594109
 30
0.0
 11
172.9727030873633
 21
429.70496769594109
 31
0.0
  0
LINE
  5
428D
  8
AM_0
 10
175.19493001957451
 20
461.70496769594098
 30
0.0
 11
172.97270308736319
 21
461.70496769594098
 31
0.0
  0
LINE
  5
428E
  8
ﾁｭｳｼﾝｾﾝ1
 10
178.97270308736401
 20
416.44026019594122
 30
0.0
 11
178.97270308736401
 21
429.44026019594111
 31
0.0
  0
LINE
  5
428F
  8
ﾁｭｳｼﾝｾﾝ
 10
221.97270308736341
 20
471.99699836917029
 30
0.0
 11
221.97270308736341
 21
414.2544450551319
 31
0.0
  0
LINE
  5
4290
  8
AM_0
 10
170.4727030873633
 20
432.20496769594109
 30
0.0
 11
172.97270308736319
 21
432.20496769594092
 31
0.0
  0
LINE
  5
4291
  8
AM_0
 10
172.97270308736319
 20
459.20496769594081
 30
0.0
 11
170.4727030873633
 21
459.20496769594109
 31
0.0
  0
LINE
  5
4292
  8
AM_0
 10
159.57403199101731
 20
456.20496769594109
 30
0.0
 11
159.57403199101731
 21
435.20496769594109
 31
0.0
  0
LINE
  5
4293
  8
AM_0
 10
144.57403199101731
 20
437.6733426419259
 30
0.0
 11
144.57403199101731
 21
453.73659274995691
 31
0.0
  0
LINE
  5
4294
  8
AM_0
 10
157.57403199101731
 20
457.70496769594098
 30
0.0
 11
157.57403199101731
 21
433.70496769594109
 31
0.0
  0
LINE
  5
4295
  8
AM_0
 10
148.07403199101731
 20
445.70496769594109
 30
0.0
 11
148.57403199101731
 21
446.20496769594109
 31
0.0
  0
LINE
  5
4296
  8
AM_0
 10
155.07403199101731
 20
434.0049676959411
 30
0.0
 11
155.07403199101731
 21
457.40496769594091
 31
0.0
  0
LINE
  5
4297
  8
AM_0
 10
164.9727030873633
 20
434.20496769594109
 30
0.0
 11
164.9727030873633
 21
457.20496769594109
 31
0.0
  0
LINE
  5
4298
  8
AM_0
 10
159.07403199101731
 20
446.40496769594301
 30
0.0
 11
159.07403199101731
 21
445.00496769594002
 31
0.0
  0
LINE
  5
4299
  8
AM_0
 10
161.17366771758819
 20
454.804967695941
 30
0.0
 11
160.4236677175893
 21
436.6049676959409
 31
0.0
  0
LINE
  5
429A
  8
AM_0
 10
160.2227030873633
 20
454.804967695941
 30
0.0
 11
159.57403199101731
 21
439.06388242462492
 31
0.0
  0
LINE
  5
429B
  8
AM_0
 10
160.97139567793531
 20
455.52062640830519
 30
0.0
 11
160.2241356345273
 21
435.89259593477402
 31
0.0
  0
LINE
  5
429C
  8
AM_0
 10
160.4222351704253
 20
455.51733945710907
 30
0.0
 11
159.6736677175893
 21
435.85496769594118
 31
0.0
  0
LINE
  5
429D
  8
AM_0
 10
157.57403199101731
 20
433.70496769594109
 30
0.0
 11
155.37403199101729
 21
433.70496769594109
 31
0.0
  0
ARC
  5
429E
  8
AM_0
 10
169.47270308736341
 20
433.20496769594109
 30
0.0
 40
0.5
 50
0.0
 51
90.000000000013017
  0
ARC
  5
429F
  8
AM_0
 10
170.47270308736341
 20
432.70496769594098
 30
0.0
 40
0.5
 50
180.0
 51
270.0
  0
LINE
  5
42A0
  8
AM_0
 10
169.9727030873633
 20
433.20496769594109
 30
0.0
 11
169.9727030873633
 21
432.70496769594098
 31
0.0
  0
LINE
  5
42A1
  8
AM_0
 10
160.9727030873633
 20
436.6049676959409
 30
0.0
 11
164.4727030873633
 21
436.6049676959409
 31
0.0
  0
LINE
  5
42A2
  8
AM_0
 10
169.9727030873633
 20
434.84889637453409
 30
0.0
 11
169.9727030873633
 21
444.56103901734912
 31
0.0
  0
LINE
  5
42A3
  8
AM_0
 10
165.4727030873633
 20
433.70496769594109
 30
0.0
 11
169.47270308736319
 21
433.70496769594109
 31
0.0
  0
LINE
  5
42A4
  8
AM_0
 10
169.4727030873633
 20
434.34889637453409
 30
0.0
 11
164.9727030873633
 21
434.34889637453409
 31
0.0
  0
ARC
  5
42A5
  8
AM_0
 10
169.47270308736341
 20
434.84889637453409
 30
0.0
 40
0.5
 50
270.0
 51
0.0
  0
ARC
  5
42A6
  8
AM_0
 10
164.4727030873633
 20
436.1049676959413
 30
0.0
 40
0.5
 50
0.0
 51
90.0
  0
ARC
  5
42A7
  8
AM_0
 10
165.4727030873633
 20
434.20496769594109
 30
0.0
 40
0.5
 50
180.0
 51
270.0
  0
LINE
  5
42A8
  8
AM_0
 10
169.4727030873633
 20
445.06103901734912
 30
0.0
 11
164.9727030873633
 21
445.06103901734912
 31
0.0
  0
ARC
  5
42A9
  8
AM_0
 10
169.4727030873633
 20
444.56103901734917
 30
0.0
 40
0.5
 50
0.0
 51
90.0
  0
LINE
  5
42AA
  8
AM_0
 10
159.07403199101731
 20
439.55979694364879
 30
0.0
 11
159.07403199101731
 21
440.732040130082
 31
0.0
  0
LINE
  5
42AB
  8
AM_0
 10
160.5004001460143
 20
436.6049676959409
 30
0.0
 11
160.9727030873633
 21
436.6049676959409
 31
0.0
  0
LINE
  5
42AC
  8
AM_0
 10
160.40380765147489
 20
436.53084992920418
 30
0.0
 11
160.4236677175893
 21
436.6049676959409
 31
0.0
  0
ARC
  5
42AD
  8
AM_0
 10
160.5004001460143
 20
436.50496769594122
 30
0.0
 40
0.1000000000000346
 50
90.0
 51
164.99980499355451
  0
ARC
  5
42AE
  8
AM_0
 10
158.7740319910173
 20
436.4181347154331
 30
0.0
 40
0.3000000000000043
 50
0.0
 51
90.0
  0
LINE
  5
42AF
  8
AM_0
 10
157.57403199101731
 20
434.304967695941
 30
0.0
 11
158.7939876941744
 21
434.386298076152
 31
0.0
  0
LINE
  5
42B0
  8
AM_0
 10
157.57403199101731
 20
435.46121973178123
 30
0.0
 11
158.7740319910173
 21
435.46121973178123
 31
0.0
  0
LINE
  5
42B1
  8
AM_0
 10
159.07403199101731
 20
434.70496769594109
 30
0.0
 11
157.57403199101731
 21
434.70496769594109
 31
0.0
  0
ARC
  5
42B2
  8
AM_0
 10
159.07403199101739
 20
435.20496769594109
 30
0.0
 40
0.5
 50
270.0
 51
0.0
  0
LINE
  5
42B3
  8
AM_0
 10
159.07403199101731
 20
434.6856336235092
 30
0.0
 11
159.07403199101731
 21
434.70496769594109
 31
0.0
  0
LINE
  5
42B4
  8
AM_0
 10
159.07403199101731
 20
434.40496769594131
 30
0.0
 11
159.07403199101731
 21
434.6856336235092
 31
0.0
  0
LINE
  5
42B5
  8
AM_0
 10
158.7939876941744
 20
434.386298076152
 30
0.0
 11
159.07403199101731
 21
434.40496769594131
 31
0.0
  0
ARC
  5
42B6
  8
AM_0
 10
158.7740319910173
 20
434.6856336235092
 30
0.0
 40
0.3000000000000007
 50
273.81407483428171
 51
0.0
  0
LINE
  5
42B7
  8
AM_0
 10
160.14597065893821
 20
435.85496769594118
 30
0.0
 11
160.22270308736421
 21
435.85496769594118
 31
0.0
  0
LINE
  5
42B8
  8
AM_0
 10
160.22270308736421
 20
435.85496769594118
 30
0.0
 11
160.24256315347731
 21
435.92908546267762
 31
0.0
  0
LINE
  5
42B9
  8
AM_0
 10
159.6538076514752
 20
435.92908546267762
 30
0.0
 11
159.6736677175893
 21
435.85496769594118
 31
0.0
  0
LINE
  5
42BA
  8
AM_0
 10
159.6736677175893
 20
435.85496769594118
 30
0.0
 11
159.75040014601419
 21
435.85496769594118
 31
0.0
  0
LINE
  5
42BB
  8
AM_0
 10
160.24256315347731
 20
435.92908546267762
 30
0.0
 11
160.40380765147489
 21
436.53084992920418
 31
0.0
  0
LINE
  5
42BC
  8
AM_0
 10
159.75040014601419
 20
435.85496769594118
 30
0.0
 11
160.14597065893821
 21
435.85496769594118
 31
0.0
  0
LINE
  5
42BD
  8
AM_0
 10
159.57403199101819
 20
436.22680822750192
 30
0.0
 11
159.6538076514752
 21
435.92908546267762
 31
0.0
  0
ARC
  5
42BE
  8
AM_0
 10
160.1459706589383
 20
435.95496769594109
 30
0.0
 40
0.0999999999999866
 50
270.0
 51
344.99980499343292
  0
ARC
  5
42BF
  8
AM_0
 10
159.7504001460143
 20
435.95496769594109
 30
0.0
 40
0.1000000000000014
 50
195.00019500656711
 51
270.0
  0
LINE
  5
42C0
  8
AM_0
 10
159.07403199101731
 20
435.7612197317809
 30
0.0
 11
159.07403199101731
 21
436.4181347154331
 31
0.0
  0
ARC
  5
42C1
  8
AM_0
 10
158.7740319910173
 20
435.7612197317813
 30
0.0
 40
0.3000000000000007
 50
270.0
 51
0.0
  0
LINE
  5
42C2
  8
AM_0
 10
157.57403199101731
 20
439.25979694364878
 30
0.0
 11
158.7740319910173
 21
439.25979694364878
 31
0.0
  0
LINE
  5
42C3
  8
AM_0
 10
158.7740319910173
 20
436.71813471543311
 30
0.0
 11
157.57403199101731
 21
436.71813471543311
 31
0.0
  0
LINE
  5
42C4
  8
AM_0
 10
160.4236677175893
 20
436.6049676959409
 30
0.0
 11
160.5004001460143
 21
436.6049676959409
 31
0.0
  0
ARC
  5
42C5
  8
AM_0
 10
158.7740319910173
 20
439.55979694364919
 30
0.0
 40
0.3000000000000007
 50
270.0
 51
0.0
  0
LINE
  5
42C6
  8
AM_0
 10
158.7740319910173
 20
441.03204013008201
 30
0.0
 11
157.57403199101731
 21
441.03204013008201
 31
0.0
  0
ARC
  5
42C7
  8
AM_0
 10
158.7740319910173
 20
440.73204013008223
 30
0.0
 40
0.3000000000000043
 50
0.0
 51
90.0
  0
LINE
  5
42C8
  8
AM_0
 10
158.7740319910173
 20
444.70496769594013
 30
0.0
 11
157.57403199101731
 21
444.70496769594013
 31
0.0
  0
ARC
  5
42C9
  8
AM_0
 10
158.7740319910173
 20
445.00496769594019
 30
0.0
 40
0.3000000000000007
 50
270.0
 51
0.0
  0
LINE
  5
42CA
  8
AM_0
 10
148.57403199101731
 20
435.57168786729397
 30
0.0
 11
155.07403199101731
 21
435.57168786729397
 31
0.0
  0
LINE
  5
42CB
  8
AM_0
 10
148.57403199101731
 20
435.07168786729392
 30
0.0
 11
155.07403199101731
 21
435.07168786729392
 31
0.0
  0
LINE
  5
42CC
  8
AM_0
 10
155.07403199101731
 20
445.20496769594098
 30
0.0
 11
148.57403199101731
 21
445.20496769594098
 31
0.0
  0
LINE
  5
42CD
  8
AM_0
 10
148.07403199101731
 20
444.70496769594109
 30
0.0
 11
155.07403199101731
 21
444.70496769594109
 31
0.0
  0
LINE
  5
42CE
  8
AM_0
 10
154.7740319910173
 20
434.70496769594109
 30
0.0
 11
147.93608192619931
 21
434.70496769594109
 31
0.0
  0
LINE
  5
42CF
  8
AM_0
 10
155.07403199101731
 20
444.35827962739978
 30
0.0
 11
148.57403199101731
 21
444.35827962739978
 31
0.0
  0
LINE
  5
42D0
  8
AM_0
 10
155.07403199101731
 20
436.05165576448201
 30
0.0
 11
148.57403199101731
 21
436.05165576448201
 31
0.0
  0
ARC
  5
42D1
  8
AM_0
 10
155.3740319910174
 20
434.0049676959411
 30
0.0
 40
0.2999999999999971
 50
180.0
 51
270.0
  0
ARC
  5
42D2
  8
AM_0
 10
154.7740319910173
 20
434.40496769594131
 30
0.0
 40
0.2999999999999971
 50
0.0
 51
90.0
  0
ARC
  5
42D3
  8
AM_0
 10
156.69903199101739
 20
440.20496769594109
 30
0.0
 40
9.124999999999984
 50
152.92493329271929
 51
207.07506670728071
  0
LINE
  5
42D4
  8
AM_0
 10
147.29589752653479
 20
434.93674641634362
 30
0.0
 11
144.93384759135279
 21
436.9051213623286
 31
0.0
  0
LINE
  5
42D5
  8
AM_0
 10
148.07403199101731
 20
435.2834002794491
 30
0.0
 11
148.57403199101731
 21
434.70496769594109
 31
0.0
  0
ARC
  5
42D6
  8
AM_0
 10
147.93608192619931
 20
435.70496769594121
 30
0.0
 40
1.0
 50
230.19442890774391
 51
270.0
  0
LINE
  5
42D7
  8
AM_0
 10
148.57403199101731
 20
435.07168786729392
 30
0.0
 11
148.07403199101731
 21
435.2834002794491
 31
0.0
  0
LINE
  5
42D8
  8
AM_0
 10
148.07403199101731
 20
435.74567555242021
 30
0.0
 11
148.57403199101731
 21
435.07168786729392
 31
0.0
  0
LINE
  5
42D9
  8
AM_0
 10
148.57403199101731
 20
435.57168786729397
 30
0.0
 11
148.07403199101731
 21
435.74567555242021
 31
0.0
  0
LINE
  5
42DA
  8
AM_0
 10
148.07403199101731
 20
436.28340027944921
 30
0.0
 11
148.57403199101731
 21
435.57168786729397
 31
0.0
  0
LINE
  5
42DB
  8
AM_0
 10
148.57403199101731
 20
436.05165576448201
 30
0.0
 11
148.07403199101731
 21
436.28340027944921
 31
0.0
  0
ARC
  5
42DC
  8
AM_0
 10
145.57403199101739
 20
437.67334264192618
 30
0.0
 40
1.0000000000000291
 50
180.0
 51
230.19442890773479
  0
LINE
  5
42DD
  8
AM_0
 10
148.57403199101731
 20
445.20496769594098
 30
0.0
 11
148.07403199101731
 21
445.70496769594109
 31
0.0
  0
LINE
  5
42DE
  8
AM_0
 10
148.07403199101731
 20
444.70496769594109
 30
0.0
 11
148.57403199101731
 21
445.20496769594098
 31
0.0
  0
LINE
  5
42DF
  8
AM_0
 10
148.57403199101731
 20
444.35827962739978
 30
0.0
 11
148.07403199101731
 21
444.70496769594109
 31
0.0
  0
LINE
  5
42E0
  8
AM_0
 10
155.37403199101729
 20
457.70496769594098
 30
0.0
 11
157.57403199101731
 21
457.70496769594098
 31
0.0
  0
ARC
  5
42E1
  8
AM_0
 10
169.4727030873633
 20
458.20496769594109
 30
0.0
 40
0.5
 50
269.99999999998693
 51
0.0
  0
LINE
  5
42E2
  8
AM_0
 10
164.4727030873633
 20
454.804967695941
 30
0.0
 11
161.2504001460143
 21
454.804967695941
 31
0.0
  0
LINE
  5
42E3
  8
AM_0
 10
169.9727030873633
 20
446.84889637453409
 30
0.0
 11
169.9727030873633
 21
456.56103901734917
 31
0.0
  0
LINE
  5
42E4
  8
AM_0
 10
164.9727030873633
 20
446.34889637453421
 30
0.0
 11
169.4727030873633
 21
446.34889637453421
 31
0.0
  0
ARC
  5
42E5
  8
AM_0
 10
169.4727030873633
 20
446.84889637453409
 30
0.0
 40
0.5
 50
270.0
 51
0.0
  0
LINE
  5
42E6
  8
AM_0
 10
164.9727030873633
 20
457.06103901734917
 30
0.0
 11
169.4727030873633
 21
457.06103901734917
 31
0.0
  0
LINE
  5
42E7
  8
AM_0
 10
169.47270308736319
 20
457.70496769594098
 30
0.0
 11
165.4727030873633
 21
457.70496769594098
 31
0.0
  0
ARC
  5
42E8
  8
AM_0
 10
169.4727030873633
 20
456.56103901734917
 30
0.0
 40
0.5
 50
0.0
 51
90.0
  0
ARC
  5
42E9
  8
AM_0
 10
164.4727030873633
 20
455.30496769594089
 30
0.0
 40
0.5
 50
270.0
 51
0.0
  0
ARC
  5
42EA
  8
AM_0
 10
165.4727030873633
 20
457.20496769594109
 30
0.0
 40
0.5
 50
90.0
 51
180.0
  0
ARC
  5
42EB
  8
AM_0
 10
158.7740319910173
 20
451.850138448233
 30
0.0
 40
0.3000000000000114
 50
0.0
 51
90.0
  0
LINE
  5
42EC
  8
AM_0
 10
157.57403199101731
 20
446.70496769594308
 30
0.0
 11
158.7740319910173
 21
446.70496769594308
 31
0.0
  0
ARC
  5
42ED
  8
AM_0
 10
158.7740319910173
 20
446.40496769594318
 30
0.0
 40
0.2999999999999971
 50
0.0
 51
90.0
  0
LINE
  5
42EE
  8
AM_0
 10
157.57403199101731
 20
450.37789526180001
 30
0.0
 11
158.7740319910173
 21
450.37789526180001
 31
0.0
  0
ARC
  5
42EF
  8
AM_0
 10
158.7740319910173
 20
450.67789526180007
 30
0.0
 40
0.3000000000000007
 50
270.0
 51
0.0
  0
LINE
  5
42F0
  8
AM_0
 10
159.07403199101731
 20
450.67789526180007
 30
0.0
 11
159.07403199101731
 21
451.850138448233
 31
0.0
  0
LINE
  5
42F1
  8
AM_0
 10
160.5004001460143
 20
455.55496769594117
 30
0.0
 11
160.8959706589383
 21
455.55496769594117
 31
0.0
  0
LINE
  5
42F2
  8
AM_0
 10
160.5004001460143
 20
455.55496769594117
 30
0.0
 11
160.8959706589383
 21
455.55496769594117
 31
0.0
  0
LINE
  5
42F3
  8
AM_0
 10
160.99256315347731
 20
455.48084992920468
 30
0.0
 11
161.1538076514752
 21
454.87908546267749
 31
0.0
  0
LINE
  5
42F4
  8
AM_0
 10
160.99256315347731
 20
455.48084992920468
 30
0.0
 11
161.1538076514752
 21
454.87908546267749
 31
0.0
  0
ARC
  5
42F5
  8
AM_0
 10
161.2504001460143
 20
454.90496769594108
 30
0.0
 40
0.0999999999999943
 50
195.00019500651791
 51
270.0
  0
ARC
  5
42F6
  8
AM_0
 10
160.8959706589383
 20
455.45496769594098
 30
0.0
 40
0.0999999999999943
 50
15.00019500650545
 51
90.0
  0
LINE
  5
42F7
  8
AM_0
 10
159.5731854024761
 20
455.17996769594117
 30
0.0
 11
159.6538076514752
 21
454.87908546267749
 31
0.0
  0
LINE
  5
42F8
  8
AM_0
 10
160.22541373956921
 20
454.84423222903911
 30
0.0
 11
160.40380765147509
 21
455.48084992920468
 31
0.0
  0
LINE
  5
42F9
  8
AM_0
 10
160.24256315347731
 20
454.87908546267749
 30
0.0
 11
160.40380765147509
 21
455.48084992920468
 31
0.0
  0
LINE
  5
42FA
  8
AM_0
 10
159.07403199101731
 20
454.99180067645
 30
0.0
 11
159.07403199101731
 21
455.64871566010112
 31
0.0
  0
LINE
  5
42FB
  8
AM_0
 10
159.57403199101731
 20
455.17680822750299
 30
0.0
 11
159.6538076514752
 21
454.87908546267749
 31
0.0
  0
LINE
  5
42FC
  8
AM_0
 10
157.57403199101731
 20
454.69180067645021
 30
0.0
 11
158.7740319910173
 21
454.69180067645021
 31
0.0
  0
LINE
  5
42FD
  8
AM_0
 10
158.7740319910173
 20
452.15013844823312
 30
0.0
 11
157.57403199101731
 21
452.15013844823397
 31
0.0
  0
LINE
  5
42FE
  8
AM_0
 10
160.17860292445329
 20
454.804967695941
 30
0.0
 11
160.22541373956921
 21
454.84423222903911
 31
0.0
  0
LINE
  5
42FF
  8
AM_0
 10
159.75040014601419
 20
454.804967695941
 30
0.0
 11
160.17860292445329
 21
454.804967695941
 31
0.0
  0
LINE
  5
4300
  8
AM_0
 10
159.75040014601419
 20
454.804967695941
 30
0.0
 11
160.14597065893821
 21
454.804967695941
 31
0.0
  0
ARC
  5
4301
  8
AM_0
 10
159.7504001460143
 20
454.90496769594108
 30
0.0
 40
0.0999999999999943
 50
195.00019500651791
 51
270.0
  0
ARC
  5
4302
  8
AM_0
 10
160.1459706589383
 20
454.90496769594108
 30
0.0
 40
0.0999999999999608
 50
270.0
 51
344.99980499348197
  0
ARC
  5
4303
  8
AM_0
 10
158.7740319910173
 20
454.99180067645
 30
0.0
 40
0.3000000000000007
 50
270.0
 51
0.0
  0
LINE
  5
4304
  8
AM_0
 10
157.57403199101731
 20
456.70496769594109
 30
0.0
 11
159.07403199101731
 21
456.70496769594109
 31
0.0
  0
LINE
  5
4305
  8
AM_0
 10
158.7740319910173
 20
455.94871566010107
 30
0.0
 11
157.57403199101731
 21
455.94871566010107
 31
0.0
  0
LINE
  5
4306
  8
AM_0
 10
158.7939876941744
 20
457.02363731573109
 30
0.0
 11
157.57403199101731
 21
457.1049676959409
 31
0.0
  0
ARC
  5
4307
  8
AM_0
 10
159.07403199101739
 20
456.20496769594109
 30
0.0
 40
0.5
 50
0.0
 51
90.0
  0
ARC
  5
4308
  8
AM_0
 10
160.5004001460143
 20
455.45496769594098
 30
0.0
 40
0.0999999999999606
 50
90.0
 51
164.99980499349451
  0
ARC
  5
4309
  8
AM_0
 10
158.7740319910173
 20
455.64871566010112
 30
0.0
 40
0.2999999999999971
 50
0.0
 51
90.0
  0
LINE
  5
430A
  8
AM_0
 10
159.07403199101731
 20
456.70496769594109
 30
0.0
 11
159.07403199101731
 21
456.72430176837412
 31
0.0
  0
ARC
  5
430B
  8
AM_0
 10
158.7740319910173
 20
456.72430176837412
 30
0.0
 40
0.3000000000000043
 50
0.0
 51
86.185925165718274
  0
ARC
  5
430C
  8
AM_0
 10
170.4727030873633
 20
458.70496769594109
 30
0.0
 40
0.5
 50
90.0
 51
180.0
  0
LINE
  5
430D
  8
AM_0
 10
169.9727030873633
 20
458.70496769594109
 30
0.0
 11
169.9727030873633
 21
458.20496769594109
 31
0.0
  0
LINE
  5
430E
  8
AM_0
 10
148.57403199101731
 20
455.3582796273999
 30
0.0
 11
155.07403199101731
 21
455.3582796273999
 31
0.0
  0
LINE
  5
430F
  8
AM_0
 10
148.57403199101731
 20
447.05165576448201
 30
0.0
 11
155.07403199101731
 21
447.05165576448201
 31
0.0
  0
LINE
  5
4310
  8
AM_0
 10
147.93608192619931
 20
456.70496769594109
 30
0.0
 11
154.7740319910173
 21
456.70496769594109
 31
0.0
  0
LINE
  5
4311
  8
AM_0
 10
155.07403199101731
 20
446.70496769594109
 30
0.0
 11
148.07403199101731
 21
446.70496769594109
 31
0.0
  0
LINE
  5
4312
  8
AM_0
 10
148.57403199101731
 20
446.20496769594109
 30
0.0
 11
155.07403199101731
 21
446.20496769594109
 31
0.0
  0
LINE
  5
4313
  8
AM_0
 10
155.07403199101731
 20
456.33824752458889
 30
0.0
 11
148.57403199101731
 21
456.33824752458889
 31
0.0
  0
LINE
  5
4314
  8
AM_0
 10
155.07403199101731
 20
455.83824752458889
 30
0.0
 11
148.57403199101731
 21
455.83824752458889
 31
0.0
  0
ARC
  5
4315
  8
AM_0
 10
154.7740319910173
 20
457.00496769594122
 30
0.0
 40
0.3000000000000043
 50
270.0
 51
0.0
  0
ARC
  5
4316
  8
AM_0
 10
155.3740319910174
 20
457.40496769594108
 30
0.0
 40
0.2999999999999971
 50
90.0
 51
180.0
  0
ARC
  5
4317
  8
AM_0
 10
156.69903199101739
 20
451.20496769594109
 30
0.0
 40
9.124999999999984
 50
152.92493329271929
 51
207.07506670728071
  0
LINE
  5
4318
  8
AM_0
 10
148.07403199101731
 20
446.70496769594109
 30
0.0
 11
148.57403199101731
 21
447.05165576448201
 31
0.0
  0
LINE
  5
4319
  8
AM_0
 10
148.57403199101731
 20
446.20496769594109
 30
0.0
 11
148.07403199101731
 21
446.70496769594109
 31
0.0
  0
LINE
  5
431A
  8
AM_0
 10
144.93384759135279
 20
454.50481402955432
 30
0.0
 11
147.29589752653479
 21
456.47318897553851
 31
0.0
  0
LINE
  5
431B
  8
AM_0
 10
148.57403199101731
 20
456.70496769594109
 30
0.0
 11
148.07403199101731
 21
456.126535112434
 31
0.0
  0
ARC
  5
431C
  8
AM_0
 10
147.93608192619931
 20
455.70496769594109
 30
0.0
 40
1.0000000000000411
 50
90.0
 51
129.805571092256
  0
LINE
  5
431D
  8
AM_0
 10
148.07403199101731
 20
455.12653511243411
 30
0.0
 11
148.57403199101731
 21
455.3582796273999
 31
0.0
  0
LINE
  5
431E
  8
AM_0
 10
148.57403199101731
 20
455.83824752458889
 30
0.0
 11
148.07403199101731
 21
455.12653511243411
 31
0.0
  0
LINE
  5
431F
  8
AM_0
 10
148.07403199101731
 20
455.66425983946198
 30
0.0
 11
148.57403199101731
 21
455.83824752458889
 31
0.0
  0
LINE
  5
4320
  8
AM_0
 10
148.57403199101731
 20
456.33824752458889
 30
0.0
 11
148.07403199101731
 21
455.66425983946198
 31
0.0
  0
LINE
  5
4321
  8
AM_0
 10
148.07403199101731
 20
456.126535112434
 30
0.0
 11
148.57403199101731
 21
456.33824752458889
 31
0.0
  0
ARC
  5
4322
  8
AM_0
 10
145.57403199101739
 20
453.73659274995691
 30
0.0
 40
1.0
 50
129.80557109226521
 51
180.0
  0
LINE
  5
4323
  8
AM_0
 10
269.97270308736341
 20
422.70496769594132
 30
0.0
 11
249.158198187831
 21
422.70496769594132
 31
0.0
  0
LINE
  5
4324
  8
AM_0
 10
194.78720798689571
 20
422.70496769594132
 30
0.0
 11
173.97270308736401
 21
422.70496769594132
 31
0.0
  0
LINE
  5
4325
  8
AM_0
 10
263.83692141820239
 20
418.70496769594132
 30
0.0
 11
180.10848475652421
 21
418.70496769594132
 31
0.0
  0
LINE
  5
4326
  8
AM_0
 10
182.8800580596704
 20
420.64603018381342
 30
0.0
 11
182.9727030873639
 21
421.70496769594138
 31
0.0
  0
LINE
  5
4327
  8
AM_0
 10
175.06534811505739
 20
420.64603018381342
 30
0.0
 11
174.97270308736401
 21
421.70496769594138
 31
0.0
  0
ARC
  5
4328
  8
AM_0
 10
178.97270308736401
 20
425.1049676959413
 30
0.0
 40
6.5
 50
241.82726586813479
 51
298.17273413186518
  0
ARC
  5
4329
  8
AM_0
 10
176.65925963200431
 20
420.78547937220969
 30
0.0
 40
1.6000000000000001
 50
185.0
 51
241.82726586813479
  0
LINE
  5
432A
  8
AM_0
 10
181.27270308736371
 20
419.02549403451309
 30
0.0
 11
178.9727030873639
 21
421.31505371330871
 31
0.0
  0
LINE
  5
432B
  8
AM_0
 10
179.28420308736389
 20
421.00496769594122
 30
0.0
 11
178.6612030873639
 21
421.00496769594122
 31
0.0
  0
LINE
  5
432C
  8
AM_0
 10
176.672703087364
 20
419.02549403451309
 30
0.0
 11
178.9727030873639
 21
421.31505371330871
 31
0.0
  0
LINE
  5
432D
  8
AM_0
 10
179.28420308736389
 20
418.61243600560681
 30
0.0
 11
179.28420308736389
 21
421.00496769594122
 31
0.0
  0
LINE
  5
432E
  8
AM_0
 10
178.6612030873639
 20
418.61243600560681
 30
0.0
 11
178.6612030873639
 21
421.00496769594122
 31
0.0
  0
ARC
  5
432F
  8
AM_0
 10
181.28614654272349
 20
420.78547937220969
 30
0.0
 40
1.6000000000000001
 50
298.17273413186518
 51
355.0
  0
LINE
  5
4330
  8
AM_0
 10
269.97270308736353
 20
422.70496769594132
 30
0.0
 11
269.97270308736353
 21
426.70496769594132
 31
0.0
  0
LINE
  5
4331
  8
AM_0
 10
173.9727030873631
 20
426.70496769594132
 30
0.0
 11
173.9727030873641
 21
422.70496769594132
 31
0.0
  0
LINE
  5
4332
  8
AM_0N
 10
182.77270308736399
 20
422.70496769594132
 30
0.0
 11
182.77270308736399
 21
421.70496769594138
 31
0.0
  0
LINE
  5
4333
  8
AM_0N
 10
179.17270308736391
 20
421.70496769594138
 30
0.0
 11
179.5366733216301
 21
422.70496769594132
 31
0.0
  0
LINE
  5
4334
  8
AM_0N
 10
178.77270308736399
 20
421.70496769594138
 30
0.0
 11
179.1366733216301
 21
422.70496769594132
 31
0.0
  0
LINE
  5
4335
  8
AM_0N
 10
174.9727030873639
 20
421.70496769594138
 30
0.0
 11
182.9727030873639
 21
421.70496769594138
 31
0.0
  0
LINE
  5
4336
  8
AM_0N
 10
175.17270308736391
 20
421.70496769594138
 30
0.0
 11
175.17270308736391
 21
422.70496769594132
 31
0.0
  0
LINE
  5
4337
  8
AM_0
 10
194.7872079868956
 20
418.70496769594132
 30
0.0
 11
194.7872079868956
 21
422.70496769594132
 31
0.0
  0
LINE
  5
4338
  8
AM_0
 10
193.13035373740311
 20
422.70496769594132
 30
0.0
 11
194.7872079868956
 21
418.70496769594132
 31
0.0
  0
LINE
  5
4339
  8
AM_0
 10
249.158198187831
 20
418.70496769594132
 30
0.0
 11
249.158198187831
 21
422.70496769594132
 31
0.0
  0
LINE
  5
433A
  8
AM_0
 10
250.81505243732349
 20
422.70496769594132
 30
0.0
 11
249.158198187831
 21
418.70496769594132
 31
0.0
  0
LINE
  5
433B
  8
AM_0
 10
188.4727030873633
 20
467.70496769594138
 30
0.0
 11
255.47270308736341
 21
467.70496769594138
 31
0.0
  0
LINE
  5
433C
  8
AM_0
 10
188.4727030873633
 20
467.70496769594138
 30
0.0
 11
188.4727030873633
 21
465.70496769594132
 31
0.0
  0
LINE
  5
433D
  8
AM_0
 10
255.47270308736341
 20
467.70496769594138
 30
0.0
 11
255.47270308736341
 21
465.70496769594132
 31
0.0
  0
LINE
  5
433E
  8
ﾁｭｳｼﾝｾﾝ1
 10
264.97270308736267
 20
416.44026019594122
 30
0.0
 11
264.97270308736267
 21
429.44026019594111
 31
0.0
  0
LINE
  5
433F
  8
AM_0
 10
261.06534811505628
 20
420.64603018381342
 30
0.0
 11
260.97270308736279
 21
421.70496769594138
 31
0.0
  0
LINE
  5
4340
  8
AM_0
 10
268.8800580596693
 20
420.64603018381342
 30
0.0
 11
268.97270308736267
 21
421.70496769594138
 31
0.0
  0
ARC
  5
4341
  8
AM_0
 10
264.97270308736302
 20
425.1049676959413
 30
0.0
 40
6.5
 50
241.82726586813479
 51
298.17273413186518
  0
ARC
  5
4342
  8
AM_0
 10
267.28614654272258
 20
420.78547937220969
 30
0.0
 40
1.6000000000000001
 50
298.17273413186518
 51
355.0
  0
LINE
  5
4343
  8
AM_0
 10
262.67270308736278
 20
419.02549403451309
 30
0.0
 11
264.97270308736279
 21
421.31505371330871
 31
0.0
  0
LINE
  5
4344
  8
AM_0
 10
264.66120308736282
 20
421.00496769594122
 30
0.0
 11
265.28420308736281
 21
421.00496769594122
 31
0.0
  0
LINE
  5
4345
  8
AM_0
 10
267.27270308736269
 20
419.02549403451309
 30
0.0
 11
264.97270308736279
 21
421.31505371330871
 31
0.0
  0
LINE
  5
4346
  8
AM_0
 10
264.66120308736282
 20
418.61243600560681
 30
0.0
 11
264.66120308736282
 21
421.00496769594122
 31
0.0
  0
LINE
  5
4347
  8
AM_0
 10
265.28420308736281
 20
418.61243600560681
 30
0.0
 11
265.28420308736281
 21
421.00496769594122
 31
0.0
  0
ARC
  5
4348
  8
AM_0
 10
262.65925963200328
 20
420.78547937220969
 30
0.0
 40
1.6000000000000001
 50
185.0
 51
241.82726586813479
  0
LINE
  5
4349
  8
AM_0N
 10
261.17270308736272
 20
422.70496769594132
 30
0.0
 11
261.17270308736272
 21
421.70496769594138
 31
0.0
  0
LINE
  5
434A
  8
AM_0N
 10
264.77270308736269
 20
421.70496769594138
 30
0.0
 11
264.40873285309658
 21
422.70496769594132
 31
0.0
  0
LINE
  5
434B
  8
AM_0N
 10
265.17270308736272
 20
421.70496769594138
 30
0.0
 11
264.80873285309661
 21
422.70496769594132
 31
0.0
  0
LINE
  5
434C
  8
AM_0N
 10
268.97270308736279
 20
421.70496769594138
 30
0.0
 11
260.97270308736279
 21
421.70496769594138
 31
0.0
  0
LINE
  5
434D
  8
AM_0N
 10
268.77270308736269
 20
421.70496769594138
 30
0.0
 11
268.77270308736269
 21
422.70496769594132
 31
0.0
  0
LINE
  5
434E
  8
AM_0
 10
172.9727030873633
 20
429.70496769594109
 30
0.0
 11
172.97270308736319
 21
461.70496769594098
 31
0.0
  0
LINE
  5
4654
  8
ﾁｭｳｼﾝｾﾝ
 10
145.38927308736359
 20
533.70496769594138
 30
0.0
 11
400.33650308736333
 21
533.70496769594138
 31
0.0
  0
LINE
  5
4659
  8
AM_0
 10
372.97270308736353
 20
530.70496769594126
 30
0.0
 11
372.97270308736353
 21
536.70496769594115
 31
0.0
  0
LINE
  5
465B
  8
AM_0
 10
370.97268308736398
 20
524.2049976959413
 30
0.0
 11
394.97270308736353
 21
524.2049976959413
 31
0.0
  0
LINE
  5
465C
  8
AM_0
 10
370.97268308736358
 20
543.20499769594119
 30
0.0
 11
394.97270308736353
 21
543.2049976959413
 31
0.0
  0
LINE
  5
465D
  8
AM_0
 10
394.97270308736353
 20
524.2049976959413
 30
0.0
 11
394.97270308736353
 21
543.2049976959413
 31
0.0
  0
LINE
  5
465F
  8
AM_0
 10
372.97270308736353
 20
530.70496769594126
 30
0.0
 11
394.97270308736353
 21
530.70496769594126
 31
0.0
  0
LINE
  5
4660
  8
AM_0
 10
372.97270308736353
 20
536.70496769594115
 30
0.0
 11
394.97270308736353
 21
536.70496769594115
 31
0.0
  0
LINE
  5
4661
  8
AM_0
 10
339.97270308736353
 20
467.70105769594142
 30
0.0
 11
339.97270308736353
 21
476.83420769594142
 31
0.0
  0
LINE
  5
4662
  8
AM_0
 10
349.97270308736358
 20
484.8893176959412
 30
0.0
 11
349.97270308736358
 21
582.52063769594122
 31
0.0
  0
LINE
  5
4663
  8
AM_0
 10
344.84181308736368
 20
481.8324676959412
 30
0.0
 11
347.05125308736348
 21
481.8903276959411
 31
0.0
  0
LINE
  5
4664
  8
AM_0
 10
306.9465530873635
 20
467.6546676959411
 30
0.0
 11
304.99889308736351
 21
467.70569769594152
 31
0.0
  0
LINE
  5
4665
  8
AM_0
 10
307.97270308736353
 20
465.73187769594119
 30
0.0
 11
307.97270308736353
 21
471.7304776959412
 31
0.0
  0
LINE
  5
4666
  8
AM_0
 10
303.97270308736353
 20
464.70532769594109
 30
0.0
 11
303.97270308736353
 21
466.70599769594122
 31
0.0
  0
LINE
  5
4668
  8
AM_0
 10
360.10362308736359
 20
465.14862769594117
 30
0.0
 11
304.97273308736351
 21
463.70496769594138
 31
0.0
  0
LINE
  5
4669
  8
AM_0
 10
304.9727030873637
 20
463.7049976959413
 30
0.0
 11
286.84184308736349
 21
464.17975769594142
 31
0.0
  0
LINE
  5
466A
  8
AM_0
 10
362.97270308736353
 20
572.94208769594115
 30
0.0
 11
362.97270308736353
 21
491.26306769594117
 31
0.0
  0
LINE
  5
466B
  8
AM_0
 10
304.9727030873637
 20
473.70496769594109
 30
0.0
 11
304.9727030873637
 21
593.70499769594119
 31
0.0
  0
LINE
  5
466E
  8
AM_0
 10
354.84184308736349
 20
491.3324976959413
 30
0.0
 11
360.05125308736348
 21
491.4689076959412
 31
0.0
  0
LINE
  5
466F
  8
AM_0
 10
364.97270308736353
 20
470.14691769594123
 30
0.0
 11
364.97270308736353
 21
487.26306769594117
 31
0.0
  0
LINE
  5
4670
  8
AM_0
 10
281.97270308736341
 20
469.17804769594119
 30
0.0
 11
281.97270308736341
 21
477.17877769594122
 31
0.0
  0
LINE
  5
4672
  8
AM_0
 10
304.9727030873637
 20
473.70499769594107
 30
0.0
 11
313.43391308736369
 21
473.92654769594122
 31
0.0
  0
LINE
  5
4673
  8
AM_0
 10
339.97270308736353
 20
599.70889769594135
 30
0.0
 11
339.97270308736353
 21
590.57574769594135
 31
0.0
  0
LINE
  5
4674
  8
AM_0
 10
344.84184308736349
 20
585.57748769594116
 30
0.0
 11
347.05125308736348
 21
585.51962769594127
 31
0.0
  0
LINE
  5
4675
  8
AM_0
 10
306.9465530873635
 20
599.75528769594143
 30
0.0
 11
304.99892308736349
 21
599.70428769594128
 31
0.0
  0
LINE
  5
4676
  8
AM_0
 10
307.97270308736353
 20
601.67810769594121
 30
0.0
 11
307.97270308736353
 21
595.67947769594116
 31
0.0
  0
LINE
  5
4677
  8
AM_0
 10
303.97270308736353
 20
602.70465769594125
 30
0.0
 11
303.97270308736353
 21
600.70395769594143
 31
0.0
  0
LINE
  5
4679
  8
AM_0
 10
360.10359308736349
 20
602.26135769594123
 30
0.0
 11
304.97273308736351
 21
603.70499769594142
 31
0.0
  0
LINE
  5
467A
  8
AM_0
 10
304.97273308736351
 20
603.70496769594115
 30
0.0
 11
286.84184308736349
 21
603.23019769594146
 31
0.0
  0
LINE
  5
467D
  8
AM_0
 10
354.84184308736349
 20
576.07748769594139
 30
0.0
 11
360.05125308736348
 21
575.94107769594143
 31
0.0
  0
LINE
  5
467E
  8
AM_0
 10
364.97270308736353
 20
597.26303769594108
 30
0.0
 11
364.97270308736353
 21
580.14691769594128
 31
0.0
  0
LINE
  5
467F
  8
AM_0
 10
281.97270308736341
 20
598.23193769594138
 30
0.0
 11
281.97270308736341
 21
590.23117769594137
 31
0.0
  0
LINE
  5
4681
  8
AM_0
 10
304.97273308736351
 20
593.70499769594119
 30
0.0
 11
313.43394308736362
 21
593.48343769594112
 31
0.0
  0
LINE
  5
4682
  8
AM_0
 10
315.97270308736353
 20
576.43863769594122
 30
0.0
 11
315.97270308736353
 21
593.08667769594138
 31
0.0
  0
LINE
  5
4683
  8
AM_0
 10
317.97270308736353
 20
490.9713476959414
 30
0.0
 11
317.97270308736353
 21
576.43863769594122
 31
0.0
  0
LINE
  5
4684
  8
AM_0
 10
304.9727030873637
 20
589.23132769594145
 30
0.0
 11
315.97270308736353
 21
589.23132769594145
 31
0.0
  0
LINE
  5
4685
  8
AM_0
 10
304.9727030873637
 20
478.1786576959413
 30
0.0
 11
315.97270308736353
 21
478.1786576959413
 31
0.0
  0
LINE
  5
4686
  8
AM_0
 10
324.93574308736362
 20
588.24213769594121
 30
0.0
 11
318.17213308736359
 21
592.1470976959414
 31
0.0
  0
LINE
  5
4687
  8
AM_0
 10
315.97270308736353
 20
576.43863769594122
 30
0.0
 11
317.97270308736353
 21
576.43863769594122
 31
0.0
  0
LINE
  5
4688
  8
AM_0
 10
341.96168308736361
 20
586.58405769594128
 30
0.0
 11
329.67396308736357
 21
586.90582769594141
 31
0.0
  0
LINE
  5
4689
  8
AM_0
 10
329.47081308736358
 20
575.02682769594117
 30
0.0
 11
317.97270308736353
 21
576.43863769594122
 31
0.0
  0
LINE
  5
468A
  8
AM_0
 10
349.97270308736358
 20
574.31088769594112
 30
0.0
 11
329.47084308736362
 21
575.02682769594117
 31
0.0
  0
LINE
  5
468B
  8
AM_0
 10
324.93574308736362
 20
479.16782769594141
 30
0.0
 11
318.17216308736357
 21
475.2628876959414
 31
0.0
  0
LINE
  5
468C
  8
AM_0
 10
315.97270308736353
 20
490.9713476959414
 30
0.0
 11
315.97270308736353
 21
474.3233076959412
 31
0.0
  0
LINE
  5
468D
  8
AM_0
 10
349.97270308736358
 20
493.09906769594153
 30
0.0
 11
329.47081308736358
 21
492.3831276959412
 31
0.0
  0
LINE
  5
468E
  8
AM_0
 10
329.47081308736358
 20
492.38315769594141
 30
0.0
 11
317.97270308736353
 21
490.9713476959414
 31
0.0
  0
LINE
  5
468F
  8
AM_0
 10
315.97270308736353
 20
490.9713476959414
 30
0.0
 11
317.97270308736353
 21
490.9713476959414
 31
0.0
  0
LINE
  5
4690
  8
AM_0
 10
341.96168308736361
 20
480.82593769594121
 30
0.0
 11
329.67396308736357
 21
480.5041576959411
 31
0.0
  0
LINE
  5
4691
  8
AM_0
 10
316.9727030873637
 20
489.49725769594141
 30
0.0
 11
319.97270308736353
 21
489.49725769594141
 31
0.0
  0
LINE
  5
4692
  8
AM_0
 10
316.9727030873637
 20
477.95020769594117
 30
0.0
 11
319.97270308736353
 21
477.95020769594117
 31
0.0
  0
LINE
  5
4693
  8
AM_0
 10
316.9727030873637
 20
486.6104776959412
 30
0.0
 11
319.97270308736353
 21
486.6104776959412
 31
0.0
  0
LINE
  5
4694
  8
AM_0
 10
320.9727030873637
 20
478.9502376959411
 30
0.0
 11
320.9727030873637
 21
488.4972576959413
 31
0.0
  0
LINE
  5
4695
  8
AM_0
 10
316.9727030873637
 20
480.83697769594141
 30
0.0
 11
319.97270308736353
 21
480.83697769594141
 31
0.0
  0
LINE
  5
4696
  8
AM_0
 10
315.97270308736353
 20
477.4502376959411
 30
0.0
 11
316.9727030873637
 21
477.4502376959411
 31
0.0
  0
LINE
  5
4697
  8
AM_0
 10
315.97270308736353
 20
489.99722769594121
 30
0.0
 11
316.9727030873637
 21
489.99722769594121
 31
0.0
  0
LINE
  5
4698
  8
AM_0
 10
316.9727030873637
 20
489.99722769594121
 30
0.0
 11
316.9727030873637
 21
477.4502376959411
 31
0.0
  0
LINE
  5
4699
  8
AM_0
 10
316.9727030873637
 20
577.41272769594116
 30
0.0
 11
316.9727030873637
 21
589.95975769594122
 31
0.0
  0
LINE
  5
469A
  8
AM_0
 10
315.97270308736353
 20
577.41272769594116
 30
0.0
 11
316.9727030873637
 21
577.41272769594116
 31
0.0
  0
LINE
  5
469B
  8
AM_0
 10
315.97270308736353
 20
589.95975769594122
 30
0.0
 11
316.9727030873637
 21
589.95975769594122
 31
0.0
  0
LINE
  5
469C
  8
AM_0
 10
316.9727030873637
 20
586.57300769594144
 30
0.0
 11
319.97270308736353
 21
586.57300769594144
 31
0.0
  0
LINE
  5
469D
  8
AM_0
 10
320.9727030873637
 20
588.45975769594122
 30
0.0
 11
320.9727030873637
 21
578.91272769594138
 31
0.0
  0
LINE
  5
469E
  8
AM_0
 10
316.9727030873637
 20
580.79947769594139
 30
0.0
 11
319.97270308736353
 21
580.79947769594139
 31
0.0
  0
LINE
  5
469F
  8
AM_0
 10
316.9727030873637
 20
589.45975769594111
 30
0.0
 11
319.97270308736353
 21
589.45975769594111
 31
0.0
  0
LINE
  5
46A0
  8
AM_0
 10
316.9727030873637
 20
577.91272769594116
 30
0.0
 11
319.97270308736353
 21
577.91272769594116
 31
0.0
  0
LINE
  5
46A1
  8
AM_0
 10
298.97270308736341
 20
475.81042769594131
 30
0.0
 11
298.97270308736341
 21
591.59955769594137
 31
0.0
  0
LINE
  5
46A2
  8
AM_0
 10
304.97273308736351
 20
473.70496769594109
 30
0.0
 11
300.92039308736349
 21
473.8111076959413
 31
0.0
  0
LINE
  5
46A3
  8
AM_0
 10
300.92036308736363
 20
593.59888769594124
 30
0.0
 11
304.9727030873637
 21
593.70499769594119
 31
0.0
  0
LINE
  5
46A4
  8
AM_0
 10
280.97270308736353
 20
477.20496769594109
 30
0.0
 11
280.97270308736353
 21
590.20499769594142
 31
0.0
  0
LINE
  5
46A5
  8
AM_0
 10
280.97273308736362
 20
590.20499769594142
 30
0.0
 11
290.96706308736361
 21
590.46667769594114
 31
0.0
  0
LINE
  5
46A6
  8
AM_0
 10
289.97270308736353
 20
581.88928769594145
 30
0.0
 11
289.97270308736353
 21
588.73791769594095
 31
0.0
  0
LINE
  5
46A7
  8
AM_0
 10
291.92036308736351
 20
590.73724769594151
 30
0.0
 11
297.6013930873637
 21
590.88602769594138
 31
0.0
  0
LINE
  5
46A8
  8
AM_0
 10
280.97270308736353
 20
579.70529769594145
 30
0.0
 11
297.02507308736358
 21
580.12561769594117
 31
0.0
  0
LINE
  5
46A9
  8
AM_0
 10
291.92036308736351
 20
476.67273769594112
 30
0.0
 11
297.60136308736361
 21
476.52396769594139
 31
0.0
  0
LINE
  5
46AA
  8
AM_0
 10
280.97273308736362
 20
477.20499769594119
 30
0.0
 11
290.96706308736361
 21
476.94327769594111
 31
0.0
  0
LINE
  5
46AB
  8
AM_0
 10
289.97270308736353
 20
485.52069769594141
 30
0.0
 11
289.97270308736353
 21
478.67203769594113
 31
0.0
  0
LINE
  5
46AC
  8
AM_0
 10
280.97273308736362
 20
487.70468769594112
 30
0.0
 11
297.02507308736358
 21
487.2843376959413
 31
0.0
  0
LINE
  5
46C1
  8
AM_0
 10
271.17845308736349
 20
578.6338576959414
 30
0.0
 11
267.03273308736362
 21
594.11496769594123
 31
0.0
  0
LINE
  5
46C2
  8
AM_0
 10
271.17842308736363
 20
577.72385769594143
 30
0.0
 11
267.03270308736347
 21
593.20496769594126
 31
0.0
  0
LINE
  5
46C3
  8
AM_0
 10
271.17842308736363
 20
575.87387769594147
 30
0.0
 11
267.03270308736347
 21
591.35501769594123
 31
0.0
  0
LINE
  5
46C4
  8
AM_0
 10
272.97270308736353
 20
589.70496769594115
 30
0.0
 11
272.97270308736353
 21
477.70496769594109
 31
0.0
  0
LINE
  5
46C5
  8
AM_0
 10
150.97270308736361
 20
581.72498769594119
 30
0.0
 11
150.97270308736361
 21
538.70496769594138
 31
0.0
  0
LINE
  5
46C6
  8
AM_0
 10
153.2427230873634
 20
583.45496769594115
 30
0.0
 11
155.4727030873635
 21
583.45496769594115
 31
0.0
  0
LINE
  5
46C7
  8
AM_0
 10
153.17271308736329
 20
569.39490769594136
 30
0.0
 11
155.27269308736351
 21
569.39490769594136
 31
0.0
  0
LINE
  5
46C8
  8
AM_0
 10
152.7427230873634
 20
583.32492769594126
 30
0.0
 11
151.4727630873634
 21
582.58493769594111
 31
0.0
  0
LINE
  5
46C9
  8
AM_0
 10
152.73265308736359
 20
581.20502769594123
 30
0.0
 11
151.4526830873634
 21
580.43500769594152
 31
0.0
  0
LINE
  5
46CA
  8
AM_0
 10
152.72264308736359
 20
576.66498769594125
 30
0.0
 11
151.42265308736339
 21
575.8150076959414
 31
0.0
  0
LINE
  5
46CB
  8
AM_0
 10
152.7827030873635
 20
569.31497769594137
 30
0.0
 11
151.58275308736361
 21
568.8049676959414
 31
0.0
  0
LINE
  5
46CC
  8
AM_0
 10
153.25273308736351
 20
581.34497769594145
 30
0.0
 11
155.97270308736361
 21
581.34497769594145
 31
0.0
  0
LINE
  5
46CD
  8
AM_0
 10
153.2727530873635
 20
576.83496769594115
 30
0.0
 11
155.97270308736361
 21
576.83496769594115
 31
0.0
  0
LINE
  5
46CE
  8
AM_0
 10
153.12273308736351
 20
567.44495769594141
 30
0.0
 11
154.97270308736361
 21
567.44495769594141
 31
0.0
  0
LINE
  5
46CF
  8
AM_0
 10
153.2427230873634
 20
575.69495769594141
 30
0.0
 11
154.97270308736361
 21
575.69495769594141
 31
0.0
  0
LINE
  5
46D0
  8
AM_0
 10
153.2227030873635
 20
580.20496769594138
 30
0.0
 11
154.97270308736361
 21
580.20496769594138
 31
0.0
  0
LINE
  5
46D1
  8
AM_0
 10
153.21269308736359
 20
582.30493769594136
 30
0.0
 11
155.4727030873635
 21
582.30493769594136
 31
0.0
  0
LINE
  5
46D2
  8
AM_0
 10
152.7426630873637
 20
575.55499769594144
 30
0.0
 11
151.4626930873637
 21
574.8049976959411
 31
0.0
  0
LINE
  5
46D3
  8
AM_0
 10
152.83269308736371
 20
567.40500769594121
 30
0.0
 11
151.6827230873636
 21
567.05499769594144
 31
0.0
  0
LINE
  5
46D4
  8
AM_0
 10
152.76268308736351
 20
582.20496769594115
 30
0.0
 11
151.52269308736371
 21
581.57495769594118
 31
0.0
  0
LINE
  5
46D5
  8
AM_0
 10
152.75273308736351
 20
580.09500769594138
 30
0.0
 11
151.50273308736351
 21
579.42499769594122
 31
0.0
  0
LINE
  5
46D6
  8
AM_0
 10
154.97270308736361
 20
559.70496769594138
 30
0.0
 11
151.97270308736361
 21
559.70496769594138
 31
0.0
  0
LINE
  5
46D7
  8
AM_0
 10
154.97270308736361
 20
557.70496769594115
 30
0.0
 11
151.97270308736361
 21
557.70496769594115
 31
0.0
  0
LINE
  5
46D8
  8
AM_0
 10
154.97270308736361
 20
549.70496769594115
 30
0.0
 11
151.97270308736361
 21
549.70496769594115
 31
0.0
  0
LINE
  5
46D9
  8
AM_0
 10
154.97270308736361
 20
547.70496769594126
 30
0.0
 11
151.97270308736361
 21
547.70496769594126
 31
0.0
  0
LINE
  5
46DA
  8
AM_0
 10
154.97270308736361
 20
539.70496769594115
 30
0.0
 11
151.97270308736361
 21
539.70496769594115
 31
0.0
  0
LINE
  5
46DB
  8
AM_0
 10
154.97270308736361
 20
537.70496769594138
 30
0.0
 11
151.97270308736361
 21
537.70496769594138
 31
0.0
  0
LINE
  5
46DC
  8
AM_0
 10
152.97270308736361
 20
549.31494769594121
 30
0.0
 11
152.97270308736361
 21
548.1049876959413
 31
0.0
  0
LINE
  5
46DD
  8
AM_0
 10
152.97270308736361
 20
539.31494769594121
 30
0.0
 11
152.97270308736361
 21
538.15491769594121
 31
0.0
  0
LINE
  5
46DE
  8
AM_0
 10
152.97270308736361
 20
559.33496769594115
 30
0.0
 11
152.97270308736361
 21
557.96497769594123
 31
0.0
  0
LINE
  5
46DF
  8
AM_0
 10
152.97270308736361
 20
569.09497769594122
 30
0.0
 11
152.97270308736361
 21
568.0349176959412
 31
0.0
  0
LINE
  5
46E0
  8
AM_0
 10
152.97270308736361
 20
576.5349176959412
 30
0.0
 11
152.97270308736361
 21
576.06494769594121
 31
0.0
  0
LINE
  5
46E1
  8
AM_0
 10
152.97270308736361
 20
581.10498769594142
 30
0.0
 11
152.97270308736361
 21
580.55493769594125
 31
0.0
  0
LINE
  5
46E2
  8
AM_0
 10
152.97270308736361
 20
583.20496769594115
 30
0.0
 11
152.97270308736361
 21
582.67493769594125
 31
0.0
  0
LINE
  5
46E3
  8
AM_0
 10
149.47270308736361
 20
553.70496769594115
 30
0.0
 11
149.47270308736361
 21
533.70496769594138
 31
0.0
  0
LINE
  5
46E4
  8
AM_0
 10
149.47270308736361
 20
553.70493769594145
 30
0.0
 11
150.97270308736361
 21
553.83493769594122
 31
0.0
  0
LINE
  5
46E5
  8
AM_0
 10
149.47270308736361
 20
548.8549876959413
 30
0.0
 11
150.97270308736361
 21
548.8549876959413
 31
0.0
  0
LINE
  5
46E6
  8
AM_0
 10
149.47270308736361
 20
550.98499769594116
 30
0.0
 11
150.97270308736361
 21
550.98499769594116
 31
0.0
  0
LINE
  5
46E7
  8
AM_0
 10
266.31273308736348
 20
569.70496769594115
 30
0.0
 11
167.33269308736351
 21
569.70496769594115
 31
0.0
  0
LINE
  5
46E8
  8
AM_0
 10
266.31273308736348
 20
567.70496769594138
 30
0.0
 11
167.33269308736351
 21
567.70496769594138
 31
0.0
  0
LINE
  5
46E9
  8
AM_0
 10
233.9727030873637
 20
559.70496769594138
 30
0.0
 11
167.33269308736351
 21
559.70496769594138
 31
0.0
  0
LINE
  5
46EA
  8
AM_0
 10
266.3055330873637
 20
557.70496769594115
 30
0.0
 11
167.33269308736351
 21
557.70496769594115
 31
0.0
  0
LINE
  5
46EB
  8
AM_0
 10
201.41142308736349
 20
549.70496769594115
 30
0.0
 11
167.33269308736351
 21
549.70496769594115
 31
0.0
  0
LINE
  5
46EC
  8
AM_0
 10
201.41142308736349
 20
547.70496769594126
 30
0.0
 11
167.33269308736351
 21
547.70496769594126
 31
0.0
  0
LINE
  5
46ED
  8
AM_0
 10
201.41142308736349
 20
539.70496769594115
 30
0.0
 11
167.33269308736351
 21
539.70496769594115
 31
0.0
  0
LINE
  5
46EE
  8
AM_0
 10
201.41142308736349
 20
537.70496769594138
 30
0.0
 11
167.33269308736351
 21
537.70496769594138
 31
0.0
  0
LINE
  5
46EF
  8
AM_0
 10
166.6526930873637
 20
570.42493769594125
 30
0.0
 11
269.7927130873635
 21
570.42493769594125
 31
0.0
  0
LINE
  5
46F0
  8
AM_0
 10
166.6526930873637
 20
567.07495769594152
 30
0.0
 11
233.9927230873636
 21
567.07495769594152
 31
0.0
  0
LINE
  5
46F1
  8
AM_0
 10
166.43272308736351
 20
560.19495769594118
 30
0.0
 11
233.9727030873637
 21
560.19495769594118
 31
0.0
  0
LINE
  5
46F2
  8
AM_0
 10
166.43272308736351
 20
557.26501769594108
 30
0.0
 11
270.00694308736348
 21
557.26501769594108
 31
0.0
  0
LINE
  5
46F3
  8
AM_0
 10
166.3027230873634
 20
550.0449276959414
 30
0.0
 11
202.63139308736359
 21
550.0449276959414
 31
0.0
  0
LINE
  5
46F4
  8
AM_0
 10
166.3027230873634
 20
547.3850176959412
 30
0.0
 11
202.63139308736359
 21
547.3850176959412
 31
0.0
  0
LINE
  5
46F5
  8
AM_0
 10
166.2427230873634
 20
539.97498769594108
 30
0.0
 11
202.69139308736351
 21
539.97498769594108
 31
0.0
  0
LINE
  5
46F6
  8
AM_0
 10
166.2427230873634
 20
537.44495769594118
 30
0.0
 11
202.69139308736351
 21
537.44495769594118
 31
0.0
  0
LINE
  5
46F7
  8
AM_0
 10
166.2427230873634
 20
529.97498769594119
 30
0.0
 11
202.69139308736351
 21
529.97498769594119
 31
0.0
  0
LINE
  5
46F8
  8
AM_0
 10
201.41142308736349
 20
529.70496769594138
 30
0.0
 11
167.33269308736351
 21
529.70496769594138
 31
0.0
  0
LINE
  5
46F9
  8
AM_0
 10
201.41142308736349
 20
527.70496769594115
 30
0.0
 11
167.33269308736351
 21
527.70496769594115
 31
0.0
  0
LINE
  5
46FA
  8
AM_0
 10
166.2427230873634
 20
527.43494769594145
 30
0.0
 11
202.69139308736351
 21
527.43494769594145
 31
0.0
  0
LINE
  5
46FB
  8
AM_0
 10
166.3027230873634
 20
520.02490769594147
 30
0.0
 11
202.63139308736359
 21
520.02490769594147
 31
0.0
  0
LINE
  5
46FC
  8
AM_0
 10
201.41142308736349
 20
519.70496769594115
 30
0.0
 11
167.33269308736351
 21
519.70496769594115
 31
0.0
  0
LINE
  5
46FD
  8
AM_0
 10
201.41142308736349
 20
517.70496769594138
 30
0.0
 11
167.33269308736351
 21
517.70496769594138
 31
0.0
  0
LINE
  5
46FE
  8
AM_0
 10
166.3027230873634
 20
517.36499769594127
 30
0.0
 11
202.64397308736349
 21
517.36499769594127
 31
0.0
  0
LINE
  5
46FF
  8
AM_0
 10
266.3055330873637
 20
509.70496769594138
 30
0.0
 11
167.33269308736351
 21
509.70496769594138
 31
0.0
  0
LINE
  5
4700
  8
AM_0
 10
166.43272308736351
 20
510.14490769594141
 30
0.0
 11
270.00694308736348
 21
510.14490769594141
 31
0.0
  0
LINE
  5
4701
  8
AM_0
 10
233.9727030873637
 20
507.70496769594121
 30
0.0
 11
167.33269308736351
 21
507.70496769594121
 31
0.0
  0
LINE
  5
4702
  8
AM_0
 10
166.43272308736351
 20
507.21497769594117
 30
0.0
 11
233.9727030873637
 21
507.21497769594117
 31
0.0
  0
LINE
  5
4703
  8
AM_0
 10
266.31273308736348
 20
499.70496769594109
 30
0.0
 11
221.97270308736341
 21
499.70496769594109
 31
0.0
  0
LINE
  5
4704
  8
AM_0
 10
266.31273308736348
 20
497.70496769594132
 30
0.0
 11
221.97270308736341
 21
497.70496769594132
 31
0.0
  0
LINE
  5
4705
  8
AM_0
 10
166.6526930873637
 20
496.9849976959411
 30
0.0
 11
221.97270308736341
 21
496.9849976959411
 31
0.0
  0
LINE
  5
4706
  8
AM_0
 10
269.7927130873635
 20
500.33496769594132
 30
0.0
 11
251.9527430873635
 21
500.33496769594132
 31
0.0
  0
LINE
  5
4707
  8
AM_0
 10
153.17271308736329
 20
498.0150176959412
 30
0.0
 11
155.27269308736351
 21
498.0150176959412
 31
0.0
  0
LINE
  5
4708
  8
AM_0
 10
152.78276308736329
 20
498.09500769594132
 30
0.0
 11
151.58275308736361
 21
498.61502769594131
 31
0.0
  0
LINE
  5
4709
  8
AM_0
 10
153.12273308736351
 20
499.96497769594117
 30
0.0
 11
154.97270308736361
 21
499.96497769594117
 31
0.0
  0
LINE
  5
470A
  8
AM_0
 10
152.83269308736371
 20
500.0049476959411
 30
0.0
 11
151.6827230873636
 21
500.3649676959414
 31
0.0
  0
LINE
  5
470B
  8
AM_0
 10
154.97270308736361
 20
507.70496769594121
 30
0.0
 11
151.97270308736361
 21
507.70496769594121
 31
0.0
  0
LINE
  5
470C
  8
AM_0
 10
154.97270308736361
 20
509.70496769594138
 30
0.0
 11
151.97270308736361
 21
509.70496769594138
 31
0.0
  0
LINE
  5
470D
  8
AM_0
 10
154.97270308736361
 20
517.70496769594138
 30
0.0
 11
151.97270308736361
 21
517.70496769594138
 31
0.0
  0
LINE
  5
470E
  8
AM_0
 10
154.97270308736361
 20
519.70496769594115
 30
0.0
 11
151.97270308736361
 21
519.70496769594115
 31
0.0
  0
LINE
  5
470F
  8
AM_0
 10
154.97270308736361
 20
527.70496769594115
 30
0.0
 11
151.97270308736361
 21
527.70496769594115
 31
0.0
  0
LINE
  5
4710
  8
AM_0
 10
154.97270308736361
 20
529.70496769594138
 30
0.0
 11
151.97270308736361
 21
529.70496769594138
 31
0.0
  0
LINE
  5
4711
  8
AM_0
 10
152.97270308736361
 20
518.09497769594145
 30
0.0
 11
152.97270308736361
 21
519.31494769594121
 31
0.0
  0
LINE
  5
4712
  8
AM_0
 10
152.97270308736361
 20
528.09497769594145
 30
0.0
 11
152.97270308736361
 21
529.25500769594123
 31
0.0
  0
LINE
  5
4713
  8
AM_0
 10
152.97270308736361
 20
508.07495769594141
 30
0.0
 11
152.97270308736361
 21
509.44495769594141
 31
0.0
  0
LINE
  5
4714
  8
AM_0
 10
152.97270308736361
 20
498.3149476959411
 30
0.0
 11
152.97270308736361
 21
499.37500769594141
 31
0.0
  0
LINE
  5
4715
  8
AM_0
 10
149.47270308736361
 20
513.70496769594138
 30
0.0
 11
149.47270308736361
 21
533.70496769594138
 31
0.0
  0
LINE
  5
4716
  8
AM_0
 10
149.47270308736361
 20
513.70493769594145
 30
0.0
 11
150.97270308736361
 21
513.57492769594137
 31
0.0
  0
LINE
  5
4717
  8
AM_0
 10
149.47270308736361
 20
518.55493769594125
 30
0.0
 11
150.97270308736361
 21
518.55493769594125
 31
0.0
  0
LINE
  5
4718
  8
AM_0
 10
149.47270308736361
 20
516.42493769594125
 30
0.0
 11
150.97270308736361
 21
516.42493769594125
 31
0.0
  0
LINE
  5
4719
  8
AM_0
 10
166.6526930873637
 20
500.33496769594132
 30
0.0
 11
233.9927230873636
 21
500.33496769594132
 31
0.0
  0
LINE
  5
471A
  8
AM_0
 10
221.97270308736341
 20
499.70496769594109
 30
0.0
 11
167.33269308736351
 21
499.70496769594109
 31
0.0
  0
LINE
  5
471B
  8
AM_0
 10
221.97270308736341
 20
497.70496769594132
 30
0.0
 11
167.33269308736351
 21
497.70496769594132
 31
0.0
  0
LINE
  5
471C
  8
AM_0
 10
221.97270308736341
 20
496.9849976959411
 30
0.0
 11
269.7927130873635
 21
496.9849976959411
 31
0.0
  0
LINE
  5
471D
  8
AM_0
 10
156.97270308736361
 20
586.70496769594115
 30
0.0
 11
156.97270308736361
 21
480.70496769594132
 31
0.0
  0
LINE
  5
471E
  8
AM_0
 10
164.9727030873635
 20
586.70496769594115
 30
0.0
 11
164.9727030873635
 21
480.70496769594132
 31
0.0
  0
LINE
  5
471F
  8
AM_0
 10
151.4626930873637
 20
492.6049576959411
 30
0.0
 11
151.4426730873634
 21
492.61493769594119
 31
0.0
  0
LINE
  5
4720
  8
AM_0
 10
155.97270308736361
 20
583.70496769594138
 30
0.0
 11
155.97270308736361
 21
483.70496769594109
 31
0.0
  0
LINE
  5
4721
  8
AM_0
 10
155.97270308736361
 20
583.70496769594138
 30
0.0
 11
156.97270308736361
 21
583.70496769594138
 31
0.0
  0
LINE
  5
4722
  8
AM_0
 10
156.97270308736361
 20
586.70496769594115
 30
0.0
 11
164.9727030873635
 21
586.70496769594115
 31
0.0
  0
LINE
  5
4723
  8
AM_0
 10
157.67271308736329
 20
576.89490769594136
 30
0.0
 11
163.90269308736359
 21
576.89490769594136
 31
0.0
  0
LINE
  5
4724
  8
AM_0
 10
272.97270308736353
 20
579.70496769594138
 30
0.0
 11
280.97270308736353
 21
579.70496769594138
 31
0.0
  0
LINE
  5
4725
  8
AM_0
 10
272.97270308736353
 20
565.64490769594136
 30
0.0
 11
280.97270308736353
 21
565.64490769594136
 31
0.0
  0
LINE
  5
4726
  8
AM_0
 10
272.97270308736353
 20
589.70496769594115
 30
0.0
 11
280.97270308736353
 21
589.70496769594115
 31
0.0
  0
LINE
  5
4727
  8
AM_0
 10
168.18272308736351
 20
589.9849976959415
 30
0.0
 11
265.1027130873635
 21
589.9849976959415
 31
0.0
  0
LINE
  5
4728
  8
AM_0
 10
164.9727030873635
 20
581.80502769594136
 30
0.0
 11
166.2126930873635
 21
588.36502769594119
 31
0.0
  0
LINE
  5
4729
  8
AM_0
 10
170.3327530873635
 20
570.35498769594119
 30
0.0
 11
164.9727630873634
 21
581.80496769594129
 31
0.0
  0
LINE
  5
472A
  8
AM_0
 10
170.33269308736351
 20
497.05493769594119
 30
0.0
 11
164.9727630873634
 21
485.61502769594119
 31
0.0
  0
LINE
  5
472B
  8
AM_0
 10
168.2227030873635
 20
592.83496769594115
 30
0.0
 11
265.1027130873635
 21
592.83496769594115
 31
0.0
  0
LINE
  5
472C
  8
AM_0
 10
168.2427230873634
 20
594.68494769594145
 30
0.0
 11
265.1027130873635
 21
594.68494769594145
 31
0.0
  0
LINE
  5
472D
  8
AM_0
 10
168.2627430873635
 20
595.59497769594145
 30
0.0
 11
265.10277308736357
 21
595.59497769594145
 31
0.0
  0
LINE
  5
472E
  8
AM_0
 10
164.9727630873634
 20
583.14499769594136
 30
0.0
 11
166.25273308736351
 21
591.15494769594147
 31
0.0
  0
LINE
  5
472F
  8
AM_0
 10
164.9727630873634
 20
584.49493769594096
 30
0.0
 11
166.26274308736359
 21
592.98502769594108
 31
0.0
  0
LINE
  5
4730
  8
AM_0
 10
164.9727030873635
 20
584.49496769594123
 30
0.0
 11
166.2827030873635
 21
593.87500769594135
 31
0.0
  0
LINE
  5
4731
  8
AM_0
 10
271.17277308736362
 20
573.04492769594117
 30
0.0
 11
267.03276308736349
 21
588.50494769594115
 31
0.0
  0
LINE
  5
4732
  8
AM_0
 10
267.51274308736362
 20
586.70496769594115
 30
0.0
 11
272.97270308736353
 21
586.70496769594115
 31
0.0
  0
LINE
  5
4733
  8
AM_0
 10
150.97270308736361
 20
485.6849476959411
 30
0.0
 11
150.97270308736361
 21
528.70496769594115
 31
0.0
  0
LINE
  5
4734
  8
AM_0
 10
153.2427230873634
 20
483.95496769594109
 30
0.0
 11
155.4727030873635
 21
483.95496769594109
 31
0.0
  0
LINE
  5
4735
  8
AM_0
 10
152.7427230873634
 20
484.09497769594111
 30
0.0
 11
151.4727630873634
 21
484.82495769594141
 31
0.0
  0
LINE
  5
4736
  8
AM_0
 10
152.7327730873634
 20
486.20496769594109
 30
0.0
 11
151.45274308736359
 21
486.97498769594119
 31
0.0
  0
LINE
  5
4737
  8
AM_0
 10
152.72264308736359
 20
490.74493769594108
 30
0.0
 11
151.42265308736339
 21
491.59494769594107
 31
0.0
  0
LINE
  5
4738
  8
AM_0
 10
153.25273308736351
 20
486.0649476959411
 30
0.0
 11
155.97270308736361
 21
486.0649476959411
 31
0.0
  0
LINE
  5
4739
  8
AM_0
 10
153.2727530873635
 20
490.58496769594109
 30
0.0
 11
155.97270308736361
 21
490.58496769594109
 31
0.0
  0
LINE
  5
473A
  8
AM_0
 10
153.2427230873634
 20
491.72498769594119
 30
0.0
 11
154.97270308736361
 21
491.72498769594119
 31
0.0
  0
LINE
  5
473B
  8
AM_0
 10
153.2227030873635
 20
487.20496769594109
 30
0.0
 11
154.97270308736361
 21
487.20496769594109
 31
0.0
  0
LINE
  5
473C
  8
AM_0
 10
153.21269308736359
 20
485.1049876959413
 30
0.0
 11
155.4727030873635
 21
485.1049876959413
 31
0.0
  0
LINE
  5
473D
  8
AM_0
 10
152.7427230873634
 20
491.85501769594123
 30
0.0
 11
151.46275308736361
 21
492.6049876959413
 31
0.0
  0
LINE
  5
473E
  8
AM_0
 10
152.76268308736351
 20
485.21494769594119
 30
0.0
 11
151.52269308736371
 21
485.8449476959413
 31
0.0
  0
LINE
  5
473F
  8
AM_0
 10
152.75273308736351
 20
487.32495769594118
 30
0.0
 11
151.50273308736351
 21
487.9849576959412
 31
0.0
  0
LINE
  5
4740
  8
AM_0
 10
152.97270308736361
 20
490.87500769594141
 30
0.0
 11
152.97270308736361
 21
491.3449776959414
 31
0.0
  0
LINE
  5
4741
  8
AM_0
 10
152.97270308736361
 20
486.30493769594119
 30
0.0
 11
152.97270308736361
 21
486.8549876959413
 31
0.0
  0
LINE
  5
4742
  8
AM_0
 10
152.97270308736361
 20
484.20496769594109
 30
0.0
 11
152.97270308736361
 21
484.73499769594139
 31
0.0
  0
LINE
  5
4743
  8
AM_0
 10
155.97270308736361
 20
483.70496769594109
 30
0.0
 11
156.97270308736361
 21
483.70496769594109
 31
0.0
  0
LINE
  5
4744
  8
AM_0
 10
156.97270308736361
 20
480.70496769594132
 30
0.0
 11
164.9727030873635
 21
480.70496769594132
 31
0.0
  0
LINE
  5
4745
  8
AM_0
 10
157.67271308736329
 20
490.5150176959412
 30
0.0
 11
163.90269308736359
 21
490.5150176959412
 31
0.0
  0
LINE
  5
4746
  8
AM_0
 10
272.97270308736353
 20
487.70496769594109
 30
0.0
 11
280.97270308736353
 21
487.70496769594109
 31
0.0
  0
LINE
  5
4747
  8
AM_0
 10
272.97270308736353
 20
477.70496769594109
 30
0.0
 11
280.97270308736353
 21
477.70496769594109
 31
0.0
  0
LINE
  5
4748
  8
AM_0
 10
168.18272308736351
 20
477.4249376959412
 30
0.0
 11
265.1027130873635
 21
477.4249376959412
 31
0.0
  0
LINE
  5
4749
  8
AM_0
 10
164.9727030873635
 20
485.61493769594119
 30
0.0
 11
166.2127530873635
 21
479.05493769594119
 31
0.0
  0
LINE
  5
474A
  8
AM_0
 10
167.8789530873635
 20
474.57495769594141
 30
0.0
 11
190.37083308736339
 21
474.57495769594141
 31
0.0
  0
LINE
  5
474B
  8
AM_0
 10
164.9727030873635
 20
484.2649276959412
 30
0.0
 11
166.25273308736351
 21
476.2650176959412
 31
0.0
  0
LINE
  5
474C
  8
AM_0
 10
164.9727030873635
 20
482.92502769594108
 30
0.0
 11
165.9819830873634
 21
476.27484769594111
 31
0.0
  0
LINE
  5
474D
  8
AM_0
 10
164.9727630873634
 20
482.9249976959411
 30
0.0
 11
165.89818308736341
 21
476.29840769594119
 31
0.0
  0
LINE
  5
474E
  8
AM_0
 10
271.17842308736363
 20
494.3861176959411
 30
0.0
 11
267.03270308736347
 21
478.9049776959414
 31
0.0
  0
LINE
  5
474F
  8
AM_0
 10
267.51475308736349
 20
480.70496769594132
 30
0.0
 11
272.97270308736353
 21
480.70496769594132
 31
0.0
  0
LINE
  5
4750
  8
AM_0
 10
272.97270308736353
 20
501.76501769594131
 30
0.0
 11
280.97270308736353
 21
501.76501769594131
 31
0.0
  0
LINE
  5
4753
  8
AM_0
 10
271.97270308736341
 20
480.70496769594132
 30
0.0
 11
266.2469630873635
 21
471.8880676959414
 31
0.0
  0
LINE
  5
4755
  8
AM_0
 10
253.48631308736361
 20
471.20496769594109
 30
0.0
 11
264.98894308736362
 21
471.20496769594109
 31
0.0
  0
LINE
  5
4756
  8
AM_0
 10
250.9527430873635
 20
561.20496769594115
 30
0.0
 11
250.9527430873635
 21
566.06494769594121
 31
0.0
  0
LINE
  5
4757
  8
AM_0
 10
234.9927230873634
 20
561.20496769594115
 30
0.0
 11
234.9927230873634
 21
566.06494769594121
 31
0.0
  0
LINE
  5
4758
  8
AM_0
 10
250.47270308736361
 20
561.20496769594115
 30
0.0
 11
250.47270308736361
 21
566.20496769594115
 31
0.0
  0
LINE
  5
4759
  8
AM_0
 10
235.4727030873635
 20
561.20496769594115
 30
0.0
 11
235.4727030873635
 21
566.20496769594115
 31
0.0
  0
LINE
  5
475A
  8
AM_0
 10
206.9727030873635
 20
546.70496769594138
 30
0.0
 11
269.97270308736353
 21
546.70496769594138
 31
0.0
  0
LINE
  5
475B
  8
AM_0
 10
206.9727030873635
 20
513.20496769594138
 30
0.0
 11
269.97270308736353
 21
513.20496769594138
 31
0.0
  0
LINE
  5
475C
  8
AM_0
 10
206.9727030873635
 20
554.20496769594138
 30
0.0
 11
269.97270308736353
 21
554.20496769594138
 31
0.0
  0
LINE
  5
475D
  8
AM_0
 10
269.97270308736353
 20
554.20496769594138
 30
0.0
 11
269.97270308736353
 21
513.20496769594138
 31
0.0
  0
LINE
  5
475E
  8
AM_0
 10
206.9727030873635
 20
554.20496769594138
 30
0.0
 11
206.9727030873635
 21
513.20496769594138
 31
0.0
  0
LINE
  5
475F
  8
AM_0
 10
251.9727030873635
 20
560.19495769594118
 30
0.0
 11
270.01842308736349
 21
560.19495769594118
 31
0.0
  0
LINE
  5
4760
  8
AM_0
 10
251.9727030873635
 20
507.22498769594108
 30
0.0
 11
270.00694308736348
 21
507.22498769594108
 31
0.0
  0
LINE
  5
4761
  8
AM_0
 10
250.9527430873635
 20
506.20496769594109
 30
0.0
 11
250.9527430873635
 21
501.34497769594111
 31
0.0
  0
LINE
  5
4762
  8
AM_0
 10
234.9927230873634
 20
506.20496769594109
 30
0.0
 11
234.9927230873634
 21
501.34497769594111
 31
0.0
  0
LINE
  5
4763
  8
AM_0
 10
250.47270308736361
 20
506.20496769594109
 30
0.0
 11
250.47270308736361
 21
501.20496769594138
 31
0.0
  0
LINE
  5
4764
  8
AM_0
 10
235.4727030873635
 20
506.20496769594109
 30
0.0
 11
235.4727030873635
 21
501.20496769594138
 31
0.0
  0
LINE
  5
4765
  8
AM_0
 10
266.3055330873637
 20
507.70496769594121
 30
0.0
 11
251.9727030873635
 21
507.70496769594121
 31
0.0
  0
LINE
  5
4766
  8
AM_0
 10
266.3198730873637
 20
559.70496769594138
 30
0.0
 11
251.9727030873635
 21
559.70496769594138
 31
0.0
  0
LINE
  5
4767
  8
AM_0
 10
251.9527430873635
 20
567.06494769594121
 30
0.0
 11
269.7927130873635
 21
567.06494769594121
 31
0.0
  0
LINE
  5
4768
  8
AM_0
 10
280.97270308736353
 20
501.76501769594131
 30
0.0
 11
296.97270308736341
 21
501.76501769594131
 31
0.0
  0
LINE
  5
4769
  8
AM_0
 10
280.97270308736353
 20
565.64490769594136
 30
0.0
 11
296.97270308736341
 21
565.64490769594136
 31
0.0
  0
ARC
  5
476E
  8
AM_0
 10
372.97270308736353
 20
533.70496769594138
 30
0.0
 40
3.0
 50
89.986013999999244
 51
131.81082736685221
  0
ARC
  5
476F
  8
AM_0
 10
304.9727030873637
 20
464.70532769594109
 30
0.0
 40
1.0
 50
180.00001000000091
 51
268.5000000000004
  0
ARC
  5
4770
  8
AM_0
 10
359.97270308736358
 20
494.46786769594121
 30
0.0
 40
3.0
 50
271.49999999999949
 51
0.0
  0
ARC
  5
4771
  8
AM_0
 10
305.97270308736353
 20
465.73187769594119
 30
0.0
 40
2.0
 50
271.49999999999949
 51
0.0
  0
ARC
  5
4772
  8
AM_0
 10
305.97270308736353
 20
471.7304776959412
 30
0.0
 40
2.0
 50
0.0
 51
91.500001000001546
  0
ARC
  5
4773
  8
AM_0
 10
346.97270308736358
 20
484.8893176959412
 30
0.0
 40
3.0
 50
271.49999999999949
 51
0.0
  0
ARC
  5
4774
  8
AM_0
 10
342.97270308736353
 20
467.70105769594142
 30
0.0
 40
3.0
 50
180.00001000000091
 51
271.49999999999949
  0
ARC
  5
4775
  8
AM_0
 10
344.97270308736358
 20
476.83420769594142
 30
0.0
 40
5.0
 50
91.500001000001546
 51
180.00001000000091
  0
ARC
  5
4776
  8
AM_0
 10
354.97270308736358
 20
486.33420769594147
 30
0.0
 40
5.0
 50
91.500001000001546
 51
180.00001000000091
  0
ARC
  5
4777
  8
AM_0
 10
306.97270308736353
 20
468.65433769594119
 30
0.0
 40
1.0
 50
268.5000000000004
 51
0.0000006832462478
  0
ARC
  5
4778
  8
AM_0
 10
304.9727030873637
 20
466.70599769594122
 30
0.0
 40
1.0
 50
88.499997000000747
 51
180.00001000000091
  0
CIRCLE
  5
477A
  8
AM_0
 10
354.97270308736358
 20
476.20496769594138
 30
0.0
 40
5.0
  0
ARC
  5
477B
  8
AM_0
 10
286.97270308736353
 20
469.17804769594119
 30
0.0
 40
5.0
 50
180.00001000000091
 51
268.5000000000004
  0
ARC
  5
477C
  8
AM_0
 10
359.97270308736358
 20
487.26306769594117
 30
0.0
 40
5.0
 50
0.0
 51
70.485339000000806
  0
ARC
  5
477D
  8
AM_0
 10
359.97270308736358
 20
470.14691769594123
 30
0.0
 40
5.0
 50
271.49999999999949
 51
0.0
  0
ARC
  5
477E
  8
AM_0
 10
304.9727030873637
 20
602.70465769594125
 30
0.0
 40
1.0
 50
91.500001000001546
 51
180.00001000000091
  0
ARC
  5
477F
  8
AM_0
 10
359.97270308736358
 20
572.94208769594115
 30
0.0
 40
3.0
 50
0.0
 51
88.499997000000747
  0
ARC
  5
4780
  8
AM_0
 10
305.97270308736353
 20
601.67810769594121
 30
0.0
 40
2.0
 50
0.0
 51
88.499997000000747
  0
ARC
  5
4781
  8
AM_0
 10
305.97270308736353
 20
595.67947769594116
 30
0.0
 40
2.0
 50
268.5000000000004
 51
0.0000006832462478
  0
ARC
  5
4782
  8
AM_0
 10
346.97270308736358
 20
582.52063769594122
 30
0.0
 40
3.0
 50
0.0
 51
88.499997000000747
  0
ARC
  5
4783
  8
AM_0
 10
342.97270308736353
 20
599.70889769594135
 30
0.0
 40
3.0
 50
88.499997000000747
 51
180.00001000000091
  0
ARC
  5
4784
  8
AM_0
 10
344.97270308736358
 20
590.57574769594135
 30
0.0
 40
5.0
 50
180.00001000000091
 51
268.5000000000004
  0
ARC
  5
4785
  8
AM_0
 10
354.97270308736358
 20
581.07574769594112
 30
0.0
 40
5.0
 50
180.00001000000091
 51
268.5000000000004
  0
ARC
  5
4786
  8
AM_0
 10
306.97270308736353
 20
598.75565769594152
 30
0.0
 40
1.0
 50
0.0
 51
91.500001000001546
  0
ARC
  5
4787
  8
AM_0
 10
304.9727030873637
 20
600.70395769594143
 30
0.0
 40
1.0
 50
180.00001000000091
 51
271.49999999999949
  0
CIRCLE
  5
4788
  8
AM_0
 10
354.97270308736358
 20
591.20499769594142
 30
0.0
 40
5.0
  0
ARC
  5
4789
  8
AM_0
 10
286.97270308736353
 20
598.23193769594138
 30
0.0
 40
5.0
 50
91.500001000001546
 51
180.00001000000091
  0
ARC
  5
478A
  8
AM_0
 10
359.97270308736358
 20
580.14691769594128
 30
0.0
 40
5.0
 50
289.51466999999963
 51
0.0
  0
ARC
  5
478B
  8
AM_0
 10
359.97270308736358
 20
597.26303769594108
 30
0.0
 40
5.0
 50
0.0
 51
88.499997000000747
  0
ARC
  5
478C
  8
AM_0
 10
397.97270308736353
 20
533.70496769594138
 30
0.0
 40
80.0
 50
148.90067999999891
 51
211.0993000000006
  0
ARC
  5
478D
  8
AM_0
 10
319.97270308736353
 20
487.61047769594131
 30
0.0
 40
1.0
 50
269.999989999999
 51
0.0000006832462478
  0
ARC
  5
478E
  8
AM_0
 10
319.97270308736353
 20
481.83697769594119
 30
0.0
 40
1.0
 50
269.999989999999
 51
0.0000006832462478
  0
ARC
  5
478F
  8
AM_0
 10
319.97270308736353
 20
478.9502376959411
 30
0.0
 40
1.0
 50
269.999989999999
 51
0.0000006832462478
  0
ARC
  5
4790
  8
AM_0
 10
319.97270308736353
 20
485.6104776959412
 30
0.0
 40
1.0
 50
0.0
 51
90.000003000000945
  0
ARC
  5
4791
  8
AM_0
 10
319.97270308736353
 20
488.4972576959413
 30
0.0
 40
1.0
 50
0.0
 51
90.000003000000945
  0
ARC
  5
4792
  8
AM_0
 10
319.97270308736353
 20
479.83697769594153
 30
0.0
 40
1.0
 50
0.0
 51
90.000003000000945
  0
ARC
  5
4793
  8
AM_0
 10
319.97270308736353
 20
587.57300769594121
 30
0.0
 40
1.0
 50
269.999989999999
 51
0.0000006832462478
  0
ARC
  5
4794
  8
AM_0
 10
319.97270308736353
 20
578.91272769594138
 30
0.0
 40
1.0
 50
269.999989999999
 51
0.0000006832462478
  0
ARC
  5
4795
  8
AM_0
 10
319.97270308736353
 20
581.79950769594097
 30
0.0
 40
1.0
 50
269.999989999999
 51
0.0000006832462478
  0
ARC
  5
4796
  8
AM_0
 10
319.97270308736353
 20
588.45975769594122
 30
0.0
 40
1.0
 50
0.0
 51
90.000003000000945
  0
ARC
  5
4797
  8
AM_0
 10
319.97270308736353
 20
585.57300769594144
 30
0.0
 40
1.0
 50
0.0
 51
90.000003000000945
  0
ARC
  5
4798
  8
AM_0
 10
319.97270308736353
 20
579.79950769594143
 30
0.0
 40
1.0
 50
0.0
 51
90.000003000000945
  0
ARC
  5
4799
  8
AM_0
 10
300.9727030873637
 20
591.59955769594137
 30
0.0
 40
2.0
 50
91.500001000001546
 51
180.00001000000091
  0
ARC
  5
479A
  8
AM_0
 10
300.9727030873637
 20
475.81042769594131
 30
0.0
 40
2.0
 50
180.00001000000091
 51
268.5000000000004
  0
ARC
  5
479B
  8
AM_0
 10
297.5621230873636
 20
592.3855076959411
 30
0.0
 40
1.5
 50
271.49999999999949
 51
347.02334999999908
  0
ARC
  5
479C
  8
AM_0
 10
291.9727030873637
 20
588.73791769594095
 30
0.0
 40
2.0
 50
91.500001000001546
 51
180.00001000000091
  0
ARC
  5
479D
  8
AM_0
 10
296.97270308736341
 20
582.12494769594139
 30
0.0
 40
2.0
 50
271.49999999999949
 51
0.0
  0
ARC
  5
479E
  8
AM_0
 10
287.97270308736358
 20
581.88928769594145
 30
0.0
 40
2.0
 50
271.49999999999949
 51
0.0
  0
ARC
  5
479F
  8
AM_0
 10
287.97270308736358
 20
485.52069769594141
 30
0.0
 40
2.0
 50
0.0
 51
88.499997000000747
  0
ARC
  5
47A0
  8
AM_0
 10
291.9727030873637
 20
478.67203769594113
 30
0.0
 40
2.0
 50
180.00001000000091
 51
268.5000000000004
  0
ARC
  5
47A1
  8
AM_0
 10
297.5621230873636
 20
475.02447769594141
 30
0.0
 40
1.5
 50
12.97665300000153
 51
88.499997000000747
  0
ARC
  5
47A2
  8
AM_0
 10
296.97270308736341
 20
485.2850376959413
 30
0.0
 40
2.0
 50
0.0
 51
88.499997000000747
  0
ARC
  5
47A3
  8
AM_0
 10
291.9727030873637
 20
476.20496769594138
 30
0.0
 40
5.0
 50
170.3165899999986
 51
3.8501329999991398
  0
ARC
  5
47A5
  8
AM_0
 10
291.9727030873637
 20
591.20499769594142
 30
0.0
 40
5.0
 50
356.1498700000015
 51
189.68341000000129
  0
ARC
  5
47A6
  8
AM_0
 10
329.93571308736369
 20
470.50757769594139
 30
0.0
 40
10.0
 50
91.500001000001546
 51
120.0000000000005
  0
ARC
  5
47A7
  8
AM_0
 10
329.93571308736369
 20
596.90240769594141
 30
0.0
 40
10.0
 50
239.99999999999949
 51
268.5000000000004
  0
ARC
  5
47A8
  8
AM_0
 10
313.17216308736351
 20
583.48685769594135
 30
0.0
 40
10.0
 50
60.000002000001302
 51
88.499997000000747
  0
ARC
  5
47A9
  8
AM_0
 10
313.17216308736351
 20
483.92310769594121
 30
0.0
 40
10.0
 50
271.49999999999949
 51
300.00001000000083
  0
ARC
  5
47AC
  8
AM_0
 10
272.6259030873635
 20
579.03772769594127
 30
0.0
 40
1.502775999999999
 50
194.75642999999971
 51
269.87757999999872
  0
ARC
  5
47AD
  8
AM_0
 10
272.6259030873635
 20
578.12769769594127
 30
0.0
 40
1.502775999999999
 50
194.75642999999971
 51
269.87757999999872
  0
ARC
  5
47AE
  8
AM_0
 10
272.6259030873635
 20
576.27771769594142
 30
0.0
 40
1.502775999999999
 50
194.75642999999971
 51
269.87757999999872
  0
ARC
  5
47AF
  8
AM_0
 10
265.0978830873637
 20
593.59021769594119
 30
0.0
 40
2.0047290000000002
 50
15.173495999999471
 51
89.861678000000197
  0
ARC
  5
47B0
  8
AM_0
 10
265.0978830873637
 20
592.68018769594084
 30
0.0
 40
2.0047290000000002
 50
15.173495999999471
 51
89.861678000000197
  0
ARC
  5
47B1
  8
AM_0
 10
265.0978830873637
 20
590.83020769594123
 30
0.0
 40
2.0047290000000002
 50
15.173495999999471
 51
89.861678000000197
  0
ARC
  5
47B2
  8
AM_0
 10
272.6259030873635
 20
493.98218769594109
 30
0.0
 40
1.502775999999999
 50
90.122413000001615
 51
165.2435700000002
  0
ARC
  5
47B3
  8
AM_0
 10
151.9659330873634
 20
581.72290769594122
 30
0.0
 40
0.99319202
 50
119.77338000000169
 51
179.87959000000129
  0
ARC
  5
47B4
  8
AM_0
 10
151.96831308736361
 20
580.68469769594128
 30
0.0
 40
0.995579
 50
116.5870900000007
 51
179.98263999999989
  0
ARC
  5
47B5
  8
AM_0
 10
153.23473308736351
 20
582.45911769594136
 30
0.0
 40
0.9959030199999999
 50
89.541266999999124
 51
119.6071699999994
  0
ARC
  5
47B6
  8
AM_0
 10
153.19749308736351
 20
581.31091769594127
 30
0.0
 40
0.99411702
 50
89.122643999998516
 51
115.9349799999988
  0
ARC
  5
47B7
  8
AM_0
 10
153.24156308736329
 20
580.35071769594128
 30
0.0
 40
0.99427301
 50
89.356066000000013
 51
120.7809100000017
  0
ARC
  5
47B8
  8
AM_0
 10
153.20781308736341
 20
579.2095976959414
 30
0.0
 40
0.99545902
 50
89.141290999999924
 51
117.2038199999995
  0
ARC
  5
47B9
  8
AM_0
 10
153.27934308736349
 20
575.83874769594138
 30
0.0
 40
0.99617702
 50
90.381317999999226
 51
123.9704899999999
  0
ARC
  5
47BA
  8
AM_0
 10
153.2521230873634
 20
574.69849769594146
 30
0.0
 40
0.99648702
 50
90.540720999998641
 51
120.74377000000059
  0
ARC
  5
47BB
  8
AM_0
 10
151.96678308736341
 20
573.94812769594137
 30
0.0
 40
0.99404597
 50
120.4681999999988
 51
180.18564000000021
  0
ARC
  5
47BC
  8
AM_0
 10
151.96751308736339
 20
574.98254769594109
 30
0.0
 40
0.9948369899999999
 50
123.20496000000099
 51
180.43786000000131
  0
ARC
  5
47BD
  8
AM_0
 10
151.9659330873634
 20
578.54639769594121
 30
0.0
 40
0.9932109699999999
 50
117.79932000000061
 51
180.08187000000001
  0
ARC
  5
47BE
  8
AM_0
 10
151.9671530873633
 20
579.58398769594123
 30
0.0
 40
0.9944329899999999
 50
121.1521299999998
 51
179.94050999999911
  0
ARC
  5
47BF
  8
AM_0
 10
153.1736930873638
 20
568.39954769594135
 30
0.0
 40
0.9954450099999999
 50
90.056904999999645
 51
113.1274500000013
  0
ARC
  5
47C0
  8
AM_0
 10
153.1118630873635
 20
566.45227769594135
 30
0.0
 40
0.9927430199999999
 50
89.374554999998736
 51
106.3320700000007
  0
ARC
  5
47C1
  8
AM_0
 10
151.96898308736371
 20
566.10071769594128
 30
0.0
 40
0.9962710099999999
 50
106.6979199999999
 51
180.33004999999989
  0
ARC
  5
47C2
  8
AM_0
 10
151.96910308736349
 20
567.88647769594138
 30
0.0
 40
0.9963999999999998
 50
112.8173600000008
 51
180.0904199999996
  0
ARC
  5
47C3
  8
AM_0
 10
151.9678230873634
 20
558.70984769594122
 30
0.0
 40
0.99507803
 50
89.715887000001331
 51
180.28410999999991
  0
ARC
  5
47C4
  8
AM_0
 10
151.97295308736341
 20
558.70520769594123
 30
0.0
 40
1.000203
 50
180.01164999999889
 51
269.98835000000122
  0
ARC
  5
47C5
  8
AM_0
 10
151.9678230873634
 20
548.70984769594111
 30
0.0
 40
0.99508202
 50
89.716099000001435
 51
180.2839100000011
  0
ARC
  5
47C6
  8
AM_0
 10
151.97295308736341
 20
548.70520769594145
 30
0.0
 40
1.0001999999999991
 50
180.01142999999831
 51
269.98856999999839
  0
ARC
  5
47C7
  8
AM_0
 10
151.9678230873634
 20
538.70984769594122
 30
0.0
 40
0.9950849999999999
 50
89.716311000000914
 51
180.28368999999961
  0
ARC
  5
47C8
  8
AM_0
 10
151.97295308736341
 20
538.70520769594145
 30
0.0
 40
1.0001959999999981
 50
180.0112199999991
 51
269.98878000000087
  0
ARC
  5
47C9
  8
AM_0
 10
154.9728830873633
 20
536.7050876959413
 30
0.0
 40
0.9998249999999999
 50
359.98994999999883
 51
90.010050000001243
  0
ARC
  5
47CA
  8
AM_0
 10
154.96776308736349
 20
540.70984769594111
 30
0.0
 40
1.0049469
 50
270.28135000000037
 51
359.71866000000068
  0
ARC
  5
47CB
  8
AM_0
 10
154.9728830873633
 20
546.7050876959413
 30
0.0
 40
0.9998210099999999
 50
359.98975000000149
 51
90.010254999998992
  0
ARC
  5
47CC
  8
AM_0
 10
154.96776308736349
 20
550.70984769594122
 30
0.0
 40
1.004939
 50
270.2809100000008
 51
359.71909999999991
  0
ARC
  5
47CD
  8
AM_0
 10
154.9728830873633
 20
556.70508769594107
 30
0.0
 40
0.9998289899999999
 50
359.99019000000038
 51
90.009811000000937
  0
ARC
  5
47CE
  8
AM_0
 10
154.96776308736349
 20
560.70984769594122
 30
0.0
 40
1.004942999999999
 50
270.28111000000013
 51
359.71888999999987
  0
ARC
  5
47CF
  8
AM_0
 10
154.97441308736359
 20
566.4466576959411
 30
0.0
 40
0.9982839799999999
 50
359.90142000000009
 51
90.098576000001358
  0
ARC
  5
47D0
  8
AM_0
 10
154.9703830873635
 20
574.69263769594136
 30
0.0
 40
1.002353
 50
0.1343268199984526
 51
89.865672999999376
  0
ARC
  5
47D1
  8
AM_0
 10
155.26817308736329
 20
570.09949769594152
 30
0.0
 40
0.704566
 50
270.37010000000009
 51
359.62991000000108
  0
ARC
  5
47D2
  8
AM_0
 10
154.9736830873633
 20
579.2059376959412
 30
0.0
 40
0.9990100299999999
 50
359.94319000000121
 51
90.056809000000058
  0
ARC
  5
47D3
  8
AM_0
 10
155.4744130873635
 20
581.80664769594136
 30
0.0
 40
0.4983060100000002
 50
359.80489000000108
 51
90.195107000000036
  0
ARC
  5
47D4
  8
AM_0
 10
155.46812308736369
 20
583.95959769594128
 30
0.0
 40
0.50463498
 50
270.52383000000037
 51
359.47616999999963
  0
ARC
  5
47D5
  8
AM_0
 10
167.51732308736351
 20
498.70496769594109
 30
0.0
 40
1.000013899999999
 50
89.691659999999231
 51
270.30834000000078
  0
ARC
  5
47D6
  8
AM_0
 10
269.7927130873635
 20
568.75000769594112
 30
0.0
 40
1.6750020000000001
 50
269.999989999999
 51
90.000003000000945
  0
ARC
  5
47D7
  8
AM_0
 10
266.31273308736348
 20
568.70496769594115
 30
0.0
 40
1.0
 50
269.999989999999
 51
90.000003000000945
  0
ARC
  5
47D8
  8
AM_0
 10
266.31273308736348
 20
498.70496769594109
 30
0.0
 40
1.0
 50
269.999989999999
 51
90.000003000000945
  0
ARC
  5
47D9
  8
AM_0
 10
269.7927130873635
 20
498.6599176959412
 30
0.0
 40
1.6750020000000001
 50
269.999989999999
 51
90.000003000000945
  0
ARC
  5
47DA
  8
AM_0
 10
154.96934308736351
 20
500.96826769594122
 30
0.0
 40
1.003352
 50
270.19111000000021
 51
359.80890000000107
  0
ARC
  5
47DB
  8
AM_0
 10
154.96776308736349
 20
510.70984769594122
 30
0.0
 40
1.0049469
 50
270.28136999999919
 51
359.71863000000081
  0
ARC
  5
47DC
  8
AM_0
 10
154.9728830873633
 20
506.70508769594107
 30
0.0
 40
0.9998239899999999
 50
359.98991999999851
 51
90.01007700000045
  0
ARC
  5
47DD
  8
AM_0
 10
155.27324308736371
 20
497.31555769594121
 30
0.0
 40
0.6994530000000001
 50
359.95517000000092
 51
90.044829000000746
  0
ARC
  5
47DE
  8
AM_0
 10
153.1757030873635
 20
499.02014769594138
 30
0.0
 40
1.005233
 50
246.98639000000031
 51
269.82924999999938
  0
ARC
  5
47DF
  8
AM_0
 10
153.1132730873633
 20
500.9676576959414
 30
0.0
 40
1.002699
 50
253.75271999999791
 51
270.54064000000108
  0
ARC
  5
47E0
  8
AM_0
 10
151.96910308736349
 20
501.3193476959413
 30
0.0
 40
0.99638802
 50
180.24990999999889
 51
253.29664000000031
  0
ARC
  5
47E1
  8
AM_0
 10
151.9692230873635
 20
499.53345769594119
 30
0.0
 40
0.9965090199999998
 50
179.91374999999979
 51
247.17844999999909
  0
ARC
  5
47E2
  8
AM_0
 10
151.97295308736341
 20
508.70520769594123
 30
0.0
 40
1.0001959999999981
 50
180.01124999999939
 51
269.98875000000061
  0
ARC
  5
47E3
  8
AM_0
 10
151.9678230873634
 20
508.70984769594111
 30
0.0
 40
0.9950849999999999
 50
89.716282999999422
 51
180.28371999999919
  0
ARC
  5
47E4
  8
AM_0
 10
151.97295308736341
 20
518.70520769594123
 30
0.0
 40
1.0001999999999991
 50
180.01145999999861
 51
269.98854000000142
  0
ARC
  5
47E5
  8
AM_0
 10
151.9678230873634
 20
518.70984769594122
 30
0.0
 40
0.9950810099999999
 50
89.716072000000082
 51
180.28392000000119
  0
ARC
  5
47E6
  8
AM_0
 10
151.97295308736341
 20
528.70520769594145
 30
0.0
 40
1.0002040000000001
 50
180.01166000000001
 51
269.98832000000078
  0
ARC
  5
47E7
  8
AM_0
 10
151.9678230873634
 20
528.70984769594122
 30
0.0
 40
0.9950770099999999
 50
89.715859999999481
 51
180.28414000000049
  0
ARC
  5
47E8
  8
AM_0
 10
154.96776308736349
 20
530.70984769594122
 30
0.0
 40
1.004942999999999
 50
270.28113999999943
 51
359.7188700000014
  0
ARC
  5
47E9
  8
AM_0
 10
154.9728830873633
 20
526.70508769594107
 30
0.0
 40
0.9998279799999998
 50
359.99016000000029
 51
90.009838000000187
  0
ARC
  5
47EA
  8
AM_0
 10
154.96776308736349
 20
520.70984769594122
 30
0.0
 40
1.004939
 50
270.2809399999997
 51
359.71907000000078
  0
ARC
  5
47EB
  8
AM_0
 10
154.9728830873633
 20
516.7050876959413
 30
0.0
 40
0.9998210099999999
 50
359.98972000000123
 51
90.010282000001538
  0
ARC
  5
47EC
  8
AM_0
 10
166.64531308736369
 20
568.75000769594112
 30
0.0
 40
1.6750160000000001
 50
89.746145000001235
 51
270.25387000000092
  0
ARC
  5
47ED
  8
AM_0
 10
167.51732308736351
 20
568.70496769594115
 30
0.0
 40
1.000013899999999
 50
89.691659999999231
 51
270.30834000000078
  0
ARC
  5
47EE
  8
AM_0
 10
167.51732308736351
 20
558.70496769594138
 30
0.0
 40
1.000013899999999
 50
89.691659999999231
 51
270.30834000000078
  0
ARC
  5
47EF
  8
AM_0
 10
167.51732308736351
 20
548.70496769594115
 30
0.0
 40
1.000013899999999
 50
89.691659999999231
 51
270.30834000000078
  0
ARC
  5
47F0
  8
AM_0
 10
167.51732308736351
 20
538.70496769594138
 30
0.0
 40
1.000013899999999
 50
89.691659999999231
 51
270.30834000000078
  0
ARC
  5
47F1
  8
AM_0
 10
167.51732308736351
 20
528.70496769594115
 30
0.0
 40
1.000013899999999
 50
89.691659999999231
 51
270.30834000000078
  0
ARC
  5
47F2
  8
AM_0
 10
167.51732308736351
 20
518.70496769594115
 30
0.0
 40
1.000013899999999
 50
89.691659999999231
 51
270.30834000000078
  0
ARC
  5
47F3
  8
AM_0
 10
167.51732308736351
 20
508.70496769594109
 30
0.0
 40
1.000013899999999
 50
89.691659999999231
 51
270.30834000000078
  0
ARC
  5
47F4
  8
AM_0
 10
166.43272308736351
 20
558.7299876959413
 30
0.0
 40
1.465004
 50
90.000003000000945
 51
270.0
  0
ARC
  5
47F5
  8
AM_0
 10
166.3027230873634
 20
548.71497769594112
 30
0.0
 40
1.3300049999999981
 50
90.000003000000945
 51
270.0
  0
ARC
  5
47F6
  8
AM_0
 10
166.23686308736339
 20
538.70996769594126
 30
0.0
 40
1.2650129999999991
 50
89.735578999998495
 51
270.2644099999992
  0
ARC
  5
47F7
  8
AM_0
 10
166.23686308736339
 20
528.70496769594115
 30
0.0
 40
1.2700129999999981
 50
89.736617000001587
 51
270.26336999999921
  0
ARC
  5
47F8
  8
AM_0
 10
166.3027230873634
 20
518.69495769594118
 30
0.0
 40
1.3300049999999981
 50
90.000003000000945
 51
270.0
  0
ARC
  5
47F9
  8
AM_0
 10
166.43272308736351
 20
508.67993769594119
 30
0.0
 40
1.465004
 50
90.000003000000945
 51
270.0
  0
ARC
  5
47FA
  8
AM_0
 10
166.64586308736341
 20
498.6599176959412
 30
0.0
 40
1.675014
 50
89.766499000000024
 51
270.2335099999994
  0
ARC
  5
47FB
  8
AM_0
 10
154.96947308736361
 20
492.73169769594119
 30
0.0
 40
1.0032760000000001
 50
334.19810000000189
 51
359.6181099999983
  0
ARC
  5
47FC
  8
AM_0
 10
151.9711830873635
 20
493.46423769594139
 30
0.0
 40
0.9984580299999999
 50
179.95957999999851
 51
239.38657000000219
  0
ARC
  5
47FD
  8
AM_0
 10
168.17143308736351
 20
587.99084769594117
 30
0.0
 40
1.994108999999999
 50
89.67554799999948
 51
169.18776999999901
  0
ARC
  5
47FE
  8
AM_0
 10
168.22295308736341
 20
590.83972769594152
 30
0.0
 40
1.995282999999997
 50
90.00620400000011
 51
170.90835000000069
  0
ARC
  5
47FF
  8
AM_0
 10
168.2372930873635
 20
592.68823769594121
 30
0.0
 40
1.9967330000000001
 50
89.843966999998912
 51
171.45388000000071
  0
ARC
  5
4800
  8
AM_0
 10
168.2592030873634
 20
593.59936769594117
 30
0.0
 40
1.995633
 50
89.899707999998995
 51
172.06112999999939
  0
ARC
  5
4801
  8
AM_0
 10
265.10283308736348
 20
587.98669769594142
 30
0.0
 40
1.9982919999999991
 50
15.03254799999914
 51
90.002632000001341
  0
ARC
  5
4802
  8
AM_0
 10
272.6259030873635
 20
573.42773769594123
 30
0.0
 40
1.502775999999999
 50
194.75642999999971
 51
269.87757999999872
  0
ARC
  5
4803
  8
AM_0
 10
265.0978830873637
 20
479.42969769594117
 30
0.0
 40
2.0047290000000002
 50
270.13832000000087
 51
344.82649999999882
  0
ARC
  5
4804
  8
AM_0
 10
151.97032308736371
 20
485.68957769594118
 30
0.0
 40
0.9976310099999999
 50
180.2678099999986
 51
240.0792399999994
  0
ARC
  5
4805
  8
AM_0
 10
151.96843308736351
 20
486.73535769594139
 30
0.0
 40
0.9956849800000001
 50
180.02113
 51
243.4091400000006
  0
ARC
  5
4806
  8
AM_0
 10
153.2534030873633
 20
484.9560576959413
 30
0.0
 40
1.001123999999999
 50
239.32781999999969
 51
269.38767999999868
  0
ARC
  5
4807
  8
AM_0
 10
153.21855308736329
 20
486.10425769594121
 30
0.0
 40
0.9993420200000001
 50
242.86200000000079
 51
269.6654599999984
  0
ARC
  5
4808
  8
AM_0
 10
153.2441230873637
 20
487.06860769594141
 30
0.0
 40
1.0037439999999991
 50
239.3711300000019
 51
270.49190000000061
  0
ARC
  5
4809
  8
AM_0
 10
153.2278930873635
 20
488.2055776959412
 30
0.0
 40
1.0006820000000001
 50
241.65062000000049
 51
269.70392999999888
  0
ARC
  5
480A
  8
AM_0
 10
153.26549308736361
 20
491.58545769594122
 30
0.0
 40
1.000521999999999
 50
237.1461799999995
 51
270.41344000000038
  0
ARC
  5
480B
  8
AM_0
 10
153.23607308736351
 20
492.72595769594142
 30
0.0
 40
1.0010449999999991
 50
240.4718699999996
 51
270.37970999999948
  0
ARC
  5
480C
  8
AM_0
 10
151.9711830873635
 20
493.46423769594139
 30
0.0
 40
0.9984580299999999
 50
179.95957999999851
 51
239.38657000000219
  0
ARC
  5
480D
  8
AM_0
 10
151.9717930873633
 20
492.42969769594117
 30
0.0
 40
0.9990889999999998
 50
179.69508999999971
 51
236.66209000000109
  0
ARC
  5
480E
  8
AM_0
 10
151.97044308736329
 20
488.8662176959412
 30
0.0
 40
0.9977070099999998
 50
180.07402000000079
 51
242.04481000000081
  0
ARC
  5
480F
  8
AM_0
 10
151.97148308736351
 20
487.82849769594122
 30
0.0
 40
0.9987969999999998
 50
179.62728000000101
 51
238.70795000000021
  0
ARC
  5
4810
  8
AM_0
 10
154.97026308736329
 20
492.7274276959414
 30
0.0
 40
1.002470999999999
 50
270.14107000000013
 51
359.85892999999987
  0
ARC
  5
4811
  8
AM_0
 10
154.96861308736351
 20
488.20911769594147
 30
0.0
 40
1.004119999999999
 50
270.23460999999998
 51
359.76539000000002
  0
ARC
  5
4812
  8
AM_0
 10
155.46934308736351
 20
485.6084076959412
 30
0.0
 40
0.5033929900000002
 50
270.38491000000062
 51
359.61510000000141
  0
ARC
  5
4813
  8
AM_0
 10
155.47319308736351
 20
483.4554476959413
 30
0.0
 40
0.49952301
 50
359.9452300000014
 51
90.054773999999625
  0
ARC
  5
4814
  8
AM_0
 10
168.17760308736351
 20
479.4241976959413
 30
0.0
 40
1.9992490000000001
 50
190.643100000001
 51
270.14743000000129
  0
ARC
  5
4815
  8
AM_0
 10
168.2289330873636
 20
476.5753276959411
 30
0.0
 40
2.000420099999999
 50
188.9268200000011
 51
269.82270999999929
  0
ARC
  5
4816
  8
AM_0
 10
253.48631308736361
 20
469.70496769594109
 30
0.0
 40
1.5
 50
90.000003000000945
 51
178.50000000000051
  0
ARC
  5
4817
  8
AM_0
 10
264.98894308736362
 20
472.70496769594109
 30
0.0
 40
1.5
 50
269.999989999999
 51
326.99999999999892
  0
ARC
  5
4818
  8
AM_0
 10
167.9593330873634
 20
476.57495769594141
 30
0.0
 40
2.0
 50
188.6296200000007
 51
269.999989999999
  0
ARC
  5
4819
  8
AM_0
 10
167.8789530873635
 20
476.57495769594141
 30
0.0
 40
2.0
 50
187.9504400000001
 51
269.999989999999
  0
ARC
  5
481A
  8
AM_0
 10
190.37083308736339
 20
473.07495769594118
 30
0.0
 40
1.5
 50
1.5000026999989771
 51
90.000003000000945
  0
ARC
  5
481B
  8
AM_0
 10
201.41142308736349
 20
548.70496769594115
 30
0.0
 40
1.0000056999999991
 50
269.999989999999
 51
90.000003000000945
  0
ARC
  5
481C
  8
AM_0
 10
201.41142308736349
 20
538.70496769594138
 30
0.0
 40
1.0000056999999991
 50
269.999989999999
 51
90.000003000000945
  0
ARC
  5
481D
  8
AM_0
 10
201.41142308736349
 20
528.70496769594115
 30
0.0
 40
1.0000056999999991
 50
269.999989999999
 51
90.000003000000945
  0
ARC
  5
481E
  8
AM_0
 10
201.41142308736349
 20
518.70496769594115
 30
0.0
 40
1.0000056999999991
 50
269.999989999999
 51
90.000003000000945
  0
ARC
  5
481F
  8
AM_0
 10
251.9727030873635
 20
501.20496769594138
 30
0.0
 40
1.5
 50
179.999989999999
 51
270.0
  0
ARC
  5
4820
  8
AM_0
 10
233.9727030873637
 20
501.20496769594138
 30
0.0
 40
1.5
 50
269.999989999999
 51
0.0000006832462478
  0
ARC
  5
4821
  8
AM_0
 10
233.9927230873636
 20
501.34497769594111
 30
0.0
 40
1.0
 50
269.999989999999
 51
0.0000006832462478
  0
ARC
  5
4822
  8
AM_0
 10
251.9527430873635
 20
501.34497769594111
 30
0.0
 40
1.0
 50
179.999989999999
 51
270.0
  0
CIRCLE
  5
4823
  8
AM_0
 10
240.4727030873635
 20
562.20496769594115
 30
0.0
 40
1.1000000000000001
  0
CIRCLE
  5
4824
  8
AM_0
 10
240.4727030873635
 20
562.20496769594115
 30
0.0
 40
1.149999999999999
  0
CIRCLE
  5
4825
  8
AM_0
 10
245.4727030873635
 20
562.20496769594115
 30
0.0
 40
1.0
  0
ARC
  5
4826
  8
AM_0
 10
233.9727030873637
 20
561.20496769594115
 30
0.0
 40
1.02
 50
269.999989999999
 51
0.0000006832429909
  0
ARC
  5
4827
  8
AM_0
 10
251.9727030873635
 20
561.20496769594115
 30
0.0
 40
1.02
 50
179.999989999999
 51
270.0
  0
ARC
  5
4828
  8
AM_0
 10
233.9727030873637
 20
561.20496769594115
 30
0.0
 40
1.5
 50
269.999989999999
 51
0.0000006832462478
  0
ARC
  5
4829
  8
AM_0
 10
251.9727030873635
 20
561.20496769594115
 30
0.0
 40
1.5
 50
179.999989999999
 51
270.0
  0
CIRCLE
  5
482A
  8
AM_0
 10
245.4727030873635
 20
505.20496769594138
 30
0.0
 40
1.0
  0
CIRCLE
  5
482B
  8
AM_0
 10
240.4727030873635
 20
505.20496769594138
 30
0.0
 40
1.149999999999999
  0
CIRCLE
  5
482C
  8
AM_0
 10
240.4727030873635
 20
505.20496769594138
 30
0.0
 40
1.1000000000000001
  0
ARC
  5
482D
  8
AM_0
 10
233.9727030873637
 20
506.20496769594109
 30
0.0
 40
1.02
 50
0.0
 51
90.000003000000945
  0
ARC
  5
482E
  8
AM_0
 10
251.9727030873635
 20
506.20496769594109
 30
0.0
 40
1.02
 50
90.000003000000945
 51
180.00001000000091
  0
ARC
  5
482F
  8
AM_0
 10
233.9727030873637
 20
506.20496769594109
 30
0.0
 40
1.5
 50
0.0
 51
90.000003000000945
  0
ARC
  5
4830
  8
AM_0
 10
251.9727030873635
 20
506.20496769594109
 30
0.0
 40
1.5
 50
90.000003000000945
 51
180.00001000000091
  0
ARC
  5
4831
  8
AM_0
 10
202.6376830873636
 20
518.69495769594118
 30
0.0
 40
1.3300148000000001
 50
269.7294199999987
 51
90.270567000000995
  0
ARC
  5
4832
  8
AM_0
 10
202.69963308736359
 20
528.70496769594115
 30
0.0
 40
1.2700266
 50
269.62932000000001
 51
90.370670000001468
  0
ARC
  5
4833
  8
AM_0
 10
202.69963308736359
 20
538.71497769594123
 30
0.0
 40
1.2700266
 50
269.62932000000001
 51
90.370670000001468
  0
ARC
  5
4834
  8
AM_0
 10
202.6376830873636
 20
548.71997769594145
 30
0.0
 40
1.3350147999999991
 50
269.7304299999999
 51
90.269556000001344
  0
ARC
  5
4835
  8
AM_0
 10
266.31267308736358
 20
558.70496769594138
 30
0.0
 40
1.0000255999999981
 50
269.58947000000001
 51
90.410531000001029
  0
ARC
  5
4836
  8
AM_0
 10
270.01268308736348
 20
558.73499769594139
 30
0.0
 40
1.460011199999999
 50
269.77524999999991
 51
90.224750000000114
  0
ARC
  5
4837
  8
AM_0
 10
266.31267308736358
 20
508.70496769594109
 30
0.0
 40
1.0000255999999981
 50
269.58947000000001
 51
90.410531000001029
  0
ARC
  5
4838
  8
AM_0
 10
270.01268308736348
 20
508.6749376959412
 30
0.0
 40
1.460011199999999
 50
269.77524999999991
 51
90.224750000000114
  0
ARC
  5
4839
  8
AM_0
 10
251.9527430873635
 20
566.06494769594121
 30
0.0
 40
1.0
 50
90.000003000000945
 51
180.00001000000091
  0
ARC
  5
483A
  8
AM_0
 10
251.9727030873635
 20
566.20496769594115
 30
0.0
 40
1.5
 50
90.000003000000945
 51
180.00001000000091
  0
ARC
  5
483B
  8
AM_0
 10
233.9727030873637
 20
566.20496769594115
 30
0.0
 40
1.5
 50
0.0
 51
90.000003000000945
  0
ARC
  5
483C
  8
AM_0
 10
233.9927230873636
 20
566.06494769594121
 30
0.0
 40
1.0
 50
0.0
 51
90.000003000000945
  0
ARC
  5
483D
  8
AM_0
 10
296.97270308736341
 20
499.7650176959412
 30
0.0
 40
2.0
 50
0.0
 51
90.000003000000945
  0
ARC
  5
483E
  8
AM_0
 10
296.97270308736341
 20
567.64490769594113
 30
0.0
 40
2.0
 50
270.0
 51
0.0
  0
POLYLINE
  5
483F
  8
AM_0
 66
     1
 10
0.0
 20
0.0
 30
0.0
  0
VERTEX
  5
4840
  8
AM_0
 10
167.33269308736351
 20
533.70496769594138
 30
0.0
 42
0.00039106593
  0
VERTEX
  5
4841
  8
AM_0
 10
167.3303330873635
 20
533.39382769594135
 30
0.0
 42
0.00040574899
  0
VERTEX
  5
4842
  8
AM_0
 10
167.32846308736339
 20
533.08271769594126
 30
0.0
 42
0.0003534546
  0
VERTEX
  5
4843
  8
AM_0
 10
167.3270730873634
 20
532.77161769594125
 30
0.0
 42
0.00034407327
  0
VERTEX
  5
4844
  8
AM_0
 10
167.3260930873634
 20
532.46047769594122
 30
0.0
 42
0.00045699408
  0
VERTEX
  5
4845
  8
AM_0
 10
167.32563308736351
 20
532.14936769594135
 30
0.0
 42
0.00035571853
  0
VERTEX
  5
4846
  8
AM_0
 10
167.3256730873635
 20
531.83826769594123
 30
0.0
 42
0.00038547362
  0
VERTEX
  5
4847
  8
AM_0
 10
167.3261630873634
 20
531.52712769594109
 30
0.0
 42
0.00035501498
  0
VERTEX
  5
4848
  8
AM_0
 10
167.3271230873635
 20
531.21602769594119
 30
0.0
 42
0.00040118614
  0
VERTEX
  5
4849
  8
AM_0
 10
167.32854308736341
 20
530.9047876959412
 30
0.0
 42
0.00038319871
  0
VERTEX
  5
484A
  8
AM_0
 10
167.33045308736351
 20
530.59365769594115
 30
0.0
 42
0.00040742136
  0
VERTEX
  5
484B
  8
AM_0
 10
167.3328530873637
 20
530.28242769594135
 30
0.0
 42
0.0003578071
  0
VERTEX
  5
484C
  8
AM_0
 10
167.3357430873634
 20
529.97131769594125
 30
0.0
  0
SEQEND
  5
484D
  8
AM_0
  0
POLYLINE
  5
484E
  8
AM_0
 66
     1
 10
0.0
 20
0.0
 30
0.0
  0
VERTEX
  5
484F
  8
AM_0
 10
167.37675308736351
 20
527.43457769594124
 30
0.0
 42
0.00076695232
  0
VERTEX
  5
4850
  8
AM_0
 10
167.39155308736341
 20
526.81681769594115
 30
0.0
 42
0.00073263044
  0
VERTEX
  5
4851
  8
AM_0
 10
167.40819308736371
 20
526.19921769594123
 30
0.0
 42
0.0007652599
  0
VERTEX
  5
4852
  8
AM_0
 10
167.4266830873635
 20
525.58154769594125
 30
0.0
 42
0.00075144485
  0
VERTEX
  5
4853
  8
AM_0
 10
167.44705308736371
 20
524.96394769594121
 30
0.0
 42
0.00078594403
  0
VERTEX
  5
4854
  8
AM_0
 10
167.46930308736339
 20
524.3465176959412
 30
0.0
 42
0.00073349202
  0
VERTEX
  5
4855
  8
AM_0
 10
167.49345308736341
 20
523.72913769594118
 30
0.0
 42
0.0007358075
  0
VERTEX
  5
4856
  8
AM_0
 10
167.51939308736351
 20
523.1117376959412
 30
0.0
 42
0.00078592699
  0
VERTEX
  5
4857
  8
AM_0
 10
167.54722308736351
 20
522.4943476959412
 30
0.0
 42
0.00074823144
  0
VERTEX
  5
4858
  8
AM_0
 10
167.57695308736351
 20
521.87695769594143
 30
0.0
 42
0.00074896603
  0
VERTEX
  5
4859
  8
AM_0
 10
167.60851308736341
 20
521.25982769594123
 30
0.0
 42
0.00076039765
  0
VERTEX
  5
485A
  8
AM_0
 10
167.6419330873637
 20
520.64279769594123
 30
0.0
 42
0.00075616128
  0
VERTEX
  5
485B
  8
AM_0
 10
167.6772330873635
 20
520.02576769594123
 30
0.0
  0
SEQEND
  5
485C
  8
AM_0
  0
POLYLINE
  5
485D
  8
AM_0
 66
     1
 10
0.0
 20
0.0
 30
0.0
  0
VERTEX
  5
485E
  8
AM_0
 10
167.8509430873635
 20
517.3643876959411
 30
0.0
 42
0.00073721992
  0
VERTEX
  5
485F
  8
AM_0
 10
167.89509308736351
 20
516.76197769594125
 30
0.0
 42
0.00074398496
  0
VERTEX
  5
4860
  8
AM_0
 10
167.94102308736339
 20
516.15970769594105
 30
0.0
 42
0.00073322625
  0
VERTEX
  5
4861
  8
AM_0
 10
167.98875308736339
 20
515.55737769594123
 30
0.0
 42
0.00073594289
  0
VERTEX
  5
4862
  8
AM_0
 10
168.03823308736341
 20
514.95538769594145
 30
0.0
 42
0.00074742568
  0
VERTEX
  5
4863
  8
AM_0
 10
168.08950308736351
 20
514.35352769594135
 30
0.0
 42
0.00073216749
  0
VERTEX
  5
4864
  8
AM_0
 10
168.14256308736361
 20
513.75171769594135
 30
0.0
 42
0.00074184065
  0
VERTEX
  5
4865
  8
AM_0
 10
168.19738308736339
 20
513.15018769594144
 30
0.0
 42
0.00072077528
  0
VERTEX
  5
4866
  8
AM_0
 10
168.25396308736359
 20
512.54895769594145
 30
0.0
 42
0.00074978179
  0
VERTEX
  5
4867
  8
AM_0
 10
168.3123030873634
 20
511.94775769594111
 30
0.0
 42
0.00074288888
  0
VERTEX
  5
4868
  8
AM_0
 10
168.3724530873634
 20
511.34673769594121
 30
0.0
 42
0.00072503679
  0
VERTEX
  5
4869
  8
AM_0
 10
168.43436308736341
 20
510.74599769594113
 30
0.0
 42
0.00074640584
  0
VERTEX
  5
486A
  8
AM_0
 10
168.49803308736341
 20
510.1453976959412
 30
0.0
  0
SEQEND
  5
486B
  8
AM_0
  0
POLYLINE
  5
486C
  8
AM_0
 66
     1
 10
0.0
 20
0.0
 30
0.0
  0
VERTEX
  5
486D
  8
AM_0
 10
168.83360308736351
 20
507.22192769594142
 30
0.0
 42
0.0006890001
  0
VERTEX
  5
486E
  8
AM_0
 10
168.90448308736339
 20
506.6471776959412
 30
0.0
 42
0.00070644651
  0
VERTEX
  5
486F
  8
AM_0
 10
168.97698308736341
 20
506.07249769594119
 30
0.0
 42
0.0006924559
  0
VERTEX
  5
4870
  8
AM_0
 10
169.05107308736359
 20
505.49817769594108
 30
0.0
 42
0.00069587797
  0
VERTEX
  5
4871
  8
AM_0
 10
169.12675308736351
 20
504.92403769594119
 30
0.0
 42
0.00071687041
  0
VERTEX
  5
4872
  8
AM_0
 10
169.20406308736341
 20
504.35003769594118
 30
0.0
 42
0.00069759113
  0
VERTEX
  5
4873
  8
AM_0
 10
169.28300308736351
 20
503.77624769594138
 30
0.0
 42
0.00071003142
  0
VERTEX
  5
4874
  8
AM_0
 10
169.3635430873635
 20
503.20277769594111
 30
0.0
 42
0.00069954544
  0
VERTEX
  5
4875
  8
AM_0
 10
169.44568308736351
 20
502.6296776959411
 30
0.0
 42
0.0007188852
  0
VERTEX
  5
4876
  8
AM_0
 10
169.52946308736341
 20
502.05664769594108
 30
0.0
 42
0.00071266165
  0
VERTEX
  5
4877
  8
AM_0
 10
169.6148930873635
 20
501.48388769594112
 30
0.0
 42
0.00071614577
  0
VERTEX
  5
4878
  8
AM_0
 10
169.70192308736341
 20
500.91153769594121
 30
0.0
 42
0.00072290806
  0
VERTEX
  5
4879
  8
AM_0
 10
169.7906330873634
 20
500.33923769594111
 30
0.0
  0
SEQEND
  5
487A
  8
AM_0
  0
POLYLINE
  5
487B
  8
AM_0
 66
     1
 10
0.0
 20
0.0
 30
0.0
  0
VERTEX
  5
487C
  8
AM_0
 10
167.33269308736351
 20
533.70496769594138
 30
0.0
 42
-0.00039106653
  0
VERTEX
  5
487D
  8
AM_0
 10
167.3303330873635
 20
534.0160976959412
 30
0.0
 42
-0.00040574511
  0
VERTEX
  5
487E
  8
AM_0
 10
167.32846308736339
 20
534.32720769594141
 30
0.0
 42
-0.00035346331
  0
VERTEX
  5
487F
  8
AM_0
 10
167.3270730873634
 20
534.63831769594117
 30
0.0
 42
-0.00034406545
  0
VERTEX
  5
4880
  8
AM_0
 10
167.3260930873634
 20
534.94945769594142
 30
0.0
 42
-0.00045699059
  0
VERTEX
  5
4881
  8
AM_0
 10
167.32563308736351
 20
535.2605576959412
 30
0.0
 42
-0.00035573431
  0
VERTEX
  5
4882
  8
AM_0
 10
167.3256730873635
 20
535.5716576959411
 30
0.0
 42
-0.00038545888
  0
VERTEX
  5
4883
  8
AM_0
 10
167.3261630873634
 20
535.88279769594124
 30
0.0
 42
-0.00035501203
  0
VERTEX
  5
4884
  8
AM_0
 10
167.3271230873635
 20
536.19390769594122
 30
0.0
 42
-0.00040120778
  0
VERTEX
  5
4885
  8
AM_0
 10
167.32854308736341
 20
536.50513769594124
 30
0.0
 42
-0.00038317821
  0
VERTEX
  5
4886
  8
AM_0
 10
167.33045308736351
 20
536.81626769594118
 30
0.0
 42
-0.00040741862
  0
VERTEX
  5
4887
  8
AM_0
 10
167.3328530873637
 20
537.12749769594109
 30
0.0
 42
-0.00035783324
  0
VERTEX
  5
4888
  8
AM_0
 10
167.3357430873634
 20
537.43860769594141
 30
0.0
  0
SEQEND
  5
4889
  8
AM_0
  0
POLYLINE
  5
488A
  8
AM_0
 66
     1
 10
0.0
 20
0.0
 30
0.0
  0
VERTEX
  5
488B
  8
AM_0
 10
167.37675308736351
 20
539.97534769594108
 30
0.0
 42
-0.00076691987
  0
VERTEX
  5
488C
  8
AM_0
 10
167.39155308736341
 20
540.59310769594117
 30
0.0
 42
-0.00073262795
  0
VERTEX
  5
488D
  8
AM_0
 10
167.40819308736371
 20
541.2107076959411
 30
0.0
 42
-0.0007652954
  0
VERTEX
  5
488E
  8
AM_0
 10
167.4266830873635
 20
541.82837769594119
 30
0.0
 42
-0.00077334627
  0
VERTEX
  5
488F
  8
AM_0
 10
167.4470930873637
 20
542.44597769594122
 30
0.0
 42
-0.00073282897
  0
VERTEX
  5
4890
  8
AM_0
 10
167.4693530873634
 20
543.06339769594138
 30
0.0
 42
-0.0007571179
  0
VERTEX
  5
4891
  8
AM_0
 10
167.49345308736341
 20
543.68091769594116
 30
0.0
 42
-0.00073783152
  0
VERTEX
  5
4892
  8
AM_0
 10
167.51939308736351
 20
544.29830769594116
 30
0.0
 42
-0.0007835518
  0
VERTEX
  5
4893
  8
AM_0
 10
167.54722308736351
 20
544.91557769594135
 30
0.0
 42
-0.00074826133
  0
VERTEX
  5
4894
  8
AM_0
 10
167.57695308736351
 20
545.53296769594135
 30
0.0
 42
-0.00074893555
  0
VERTEX
  5
4895
  8
AM_0
 10
167.60851308736341
 20
546.15009769594121
 30
0.0
 42
-0.00076039841
  0
VERTEX
  5
4896
  8
AM_0
 10
167.6419330873637
 20
546.76712769594121
 30
0.0
 42
-0.00075618789
  0
VERTEX
  5
4897
  8
AM_0
 10
167.6772330873635
 20
547.3841576959411
 30
0.0
  0
SEQEND
  5
4898
  8
AM_0
  0
POLYLINE
  5
4899
  8
AM_0
 66
     1
 10
0.0
 20
0.0
 30
0.0
  0
VERTEX
  5
489A
  8
AM_0
 10
167.8509430873635
 20
550.04553769594145
 30
0.0
 42
-0.0007337051
  0
VERTEX
  5
489B
  8
AM_0
 10
167.89508308736359
 20
550.64794769594118
 30
0.0
 42
-0.00075211323
  0
VERTEX
  5
489C
  8
AM_0
 10
167.94102308736339
 20
551.25034769594129
 30
0.0
 42
-0.0007297491
  0
VERTEX
  5
489D
  8
AM_0
 10
167.98875308736339
 20
551.8525476959411
 30
0.0
 42
-0.00073593041
  0
VERTEX
  5
489E
  8
AM_0
 10
168.03823308736341
 20
552.4545376959411
 30
0.0
 42
-0.00074742739
  0
VERTEX
  5
489F
  8
AM_0
 10
168.08950308736351
 20
553.05639769594109
 30
0.0
 42
-0.00073217363
  0
VERTEX
  5
48A0
  8
AM_0
 10
168.14256308736361
 20
553.65820769594143
 30
0.0
 42
-0.00073754168
  0
VERTEX
  5
48A1
  8
AM_0
 10
168.19738308736339
 20
554.2597476959412
 30
0.0
 42
-0.00073075073
  0
VERTEX
  5
48A2
  8
AM_0
 10
168.25396308736359
 20
554.86109769594123
 30
0.0
 42
-0.00074550816
  0
VERTEX
  5
48A3
  8
AM_0
 10
168.3123030873634
 20
555.46216769594128
 30
0.0
 42
-0.00074288416
  0
VERTEX
  5
48A4
  8
AM_0
 10
168.3724530873634
 20
556.06318769594145
 30
0.0
 42
-0.00072504001
  0
VERTEX
  5
48A5
  8
AM_0
 10
168.43436308736341
 20
556.6639276959412
 30
0.0
 42
-0.00074640667
  0
VERTEX
  5
48A6
  8
AM_0
 10
168.49803308736341
 20
557.26453769594104
 30
0.0
  0
SEQEND
  5
48A7
  8
AM_0
  0
POLYLINE
  5
48A8
  8
AM_0
 66
     1
 10
0.0
 20
0.0
 30
0.0
  0
VERTEX
  5
48A9
  8
AM_0
 10
168.83360308736351
 20
560.18799769594136
 30
0.0
 42
-0.00068898283
  0
VERTEX
  5
48AA
  8
AM_0
 10
168.90448308736339
 20
560.76274769594136
 30
0.0
 42
-0.00070644357
  0
VERTEX
  5
48AB
  8
AM_0
 10
168.97698308736341
 20
561.33743769594139
 30
0.0
 42
-0.00069248074
  0
VERTEX
  5
48AC
  8
AM_0
 10
169.05107308736359
 20
561.91174769594124
 30
0.0
 42
-0.0006958566
  0
VERTEX
  5
48AD
  8
AM_0
 10
169.12675308736351
 20
562.48588769594141
 30
0.0
 42
-0.00071687219
  0
VERTEX
  5
48AE
  8
AM_0
 10
169.20406308736341
 20
563.05988769594126
 30
0.0
 42
-0.00069760022
  0
VERTEX
  5
48AF
  8
AM_0
 10
169.28300308736351
 20
563.6336776959414
 30
0.0
 42
-0.00071002302
  0
VERTEX
  5
48B0
  8
AM_0
 10
169.3635430873635
 20
564.20714769594122
 30
0.0
 42
-0.00069954889
  0
VERTEX
  5
48B1
  8
AM_0
 10
169.44568308736351
 20
564.78024769594117
 30
0.0
 42
-0.00071887947
  0
VERTEX
  5
48B2
  8
AM_0
 10
169.52946308736341
 20
565.35327769594142
 30
0.0
 42
-0.00071266929
  0
VERTEX
  5
48B3
  8
AM_0
 10
169.6148930873635
 20
565.92604769594129
 30
0.0
 42
-0.00071614429
  0
VERTEX
  5
48B4
  8
AM_0
 10
169.70192308736341
 20
566.49838769594112
 30
0.0
 42
-0.00072288978
  0
VERTEX
  5
48B5
  8
AM_0
 10
169.7906330873634
 20
567.07068769594116
 30
0.0
  0
SEQEND
  5
48B6
  8
AM_0
  0
LINE
  5
48B9
  8
ﾁｭｳｼﾝｾﾝ1
 10
344.97270308736358
 20
591.20499769594142
 30
0.0
 11
364.97270308736353
 21
591.20499769594142
 31
0.0
  0
LINE
  5
48BA
  8
ﾁｭｳｼﾝｾﾝ1
 10
354.97270308736358
 20
601.20499769594142
 30
0.0
 11
354.97270308736358
 21
581.20499769594119
 31
0.0
  0
LINE
  5
48BB
  8
ﾁｭｳｼﾝｾﾝ1
 10
344.97270308736358
 20
476.20496769594138
 30
0.0
 11
364.97270308736353
 21
476.20496769594138
 31
0.0
  0
LINE
  5
48BC
  8
ﾁｭｳｼﾝｾﾝ1
 10
354.97270308736358
 20
486.20496769594121
 30
0.0
 11
354.97270308736358
 21
466.20496769594121
 31
0.0
  0
LINE
  5
48BD
  8
ﾁｭｳｼﾝｾﾝ1
 10
281.9727030873637
 20
476.20496769594138
 30
0.0
 11
301.9727030873637
 21
476.20496769594138
 31
0.0
  0
LINE
  5
48BE
  8
ﾁｭｳｼﾝｾﾝ1
 10
291.9727030873637
 20
486.20496769594121
 30
0.0
 11
291.9727030873637
 21
466.20496769594121
 31
0.0
  0
LINE
  5
48BF
  8
ﾁｭｳｼﾝｾﾝ1
 10
281.9727030873637
 20
591.20499769594142
 30
0.0
 11
301.9727030873637
 21
591.20499769594142
 31
0.0
  0
LINE
  5
48C0
  8
ﾁｭｳｼﾝｾﾝ1
 10
291.9727030873637
 20
601.20499769594142
 30
0.0
 11
291.9727030873637
 21
581.20499769594119
 31
0.0
  0
ARC
  5
4913
  8
AM_0
 10
363.97271308736367
 20
512.67844469594115
 30
0.0
 40
1.0000000199999981
 50
90.001718873355244
 51
180.00001000000091
  0
ARC
  5
4914
  8
AM_0
 10
363.97271308736367
 20
554.73151169594121
 30
0.0
 40
1.0000000199999981
 50
179.999989999999
 51
269.99828112664488
  0
LINE
  5
4915
  8
AM_0
 10
366.97268308736358
 20
558.2049976959413
 30
0.0
 11
370.97268308736352
 21
554.20499769594142
 31
0.0
  0
LINE
  5
4916
  8
AM_0
 10
364.47268308736358
 20
558.2049976959413
 30
0.0
 11
366.97268308736358
 21
558.2049976959413
 31
0.0
  0
LINE
  5
4917
  8
AM_0
 10
363.97268308736369
 20
557.7049976959413
 30
0.0
 11
363.97268308736369
 21
509.7049976959413
 31
0.0
  0
LINE
  5
4918
  8
AM_0
 10
370.97268308736352
 20
554.20499769594142
 30
0.0
 11
370.9726830873642
 21
513.2049976959413
 31
0.0
  0
LINE
  5
4919
  8
AM_0
 10
366.97268308736358
 20
509.20499769594142
 30
0.0
 11
370.97268308736352
 21
513.2049976959413
 31
0.0
  0
LINE
  5
491A
  8
AM_0
 10
364.47268308736358
 20
509.20499769594142
 30
0.0
 11
366.97268308736358
 21
509.20499769594142
 31
0.0
  0
LINE
  5
491B
  8
AM_0
 10
363.97268308736369
 20
557.7049976959413
 30
0.0
 11
364.47268308736358
 21
558.2049976959413
 31
0.0
1001
GENIUS_GENFIL_13
1070
     0
1040
0.5
1040
0.5
1040
20.0
1040
0.0
1002
{
1002
}
1001
GENIUS_GENOBJ-N-CHA_13
1002
{
1000
OWNER
1000
GEN
1002
}
1001
GENIUS_GENODEF_13
1002
{
1000
HIER
1070
     0
1002
}
1002
{
1000
MANEDIT
1070
     0
1002
}
1002
{
1000
NOSEL
1070
     0
1002
}
1002
{
1000
BEHIND
1070
     0
1002
}
1002
{
1000
OTHER
1070
     0
1002
}
1002
{
1000
REACTOR
1002
}
  0
LINE
  5
491C
  8
AM_0
 10
363.97268308736369
 20
509.7049976959413
 30
0.0
 11
364.47268308736358
 21
509.20499769594142
 31
0.0
1001
GENIUS_GENFIL_13
1070
     0
1040
0.5
1040
0.5
1040
20.0
1040
0.0
1002
{
1002
}
1001
GENIUS_GENODEF_13
1002
{
1000
HIER
1070
     0
1002
}
1002
{
1000
MANEDIT
1070
     0
1002
}
1002
{
1000
NOSEL
1070
     0
1002
}
1002
{
1000
BEHIND
1070
     0
1002
}
1002
{
1000
OTHER
1070
     0
1002
}
1002
{
1000
REACTOR
1002
}
1001
GENIUS_GENOBJ-N-CHA_13
1002
{
1000
OWNER
1000
GEN
1002
}
  0
LINE
  5
491D
  8
AM_0
 10
366.97268308736358
 20
558.2049976959413
 30
0.0
 11
366.97268308736358
 21
509.20499769594142
 31
0.0
  0
ARC
  5
491E
  8
AM_0
 10
372.97270308736353
 20
533.70496769594138
 30
0.0
 40
3.0
 50
228.18917263315009
 51
270.01398999999998
  0
TEXT
  5
4B49
  8
AM_0
 10
490.78717786413398
 20
542.2489815878223
 30
0.0
 40
10.0
  1
VX01-005MW~VX01-050MW
  0
ENDSEC
  0
EOF
