  0
SECTION
  2
HEADER
  9
$ACADVER
  1
AC1009
  9
$INSBASE
 10
0.0
 20
0.0
 30
0.0
  9
$EXTMIN
 10
126.8867590318978
 20
198.14587094850521
 30
-0.0015258207003583
  9
$EXTMAX
 10
705.32002439771304
 20
627.76688830640433
 30
0.0000000349246037
  9
$LIMMIN
 10
0.0
 20
0.0
  9
$LIMMAX
 10
853.5
 20
555.00000000000011
  9
$ORTHOMODE
 70
     0
  9
$REGENMODE
 70
     1
  9
$FILLMODE
 70
     1
  9
$QTEXTMODE
 70
     0
  9
$MIRRTEXT
 70
     1
  9
$DRAGMODE
 70
     2
  9
$LTSCALE
 40
3.0
  9
$OSMODE
 70
   551
  9
$ATTMODE
 70
     1
  9
$TEXTSIZE
 40
2.5
  9
$TRACEWID
 40
1.0
  9
$TEXTSTYLE
  7
STANDARD
  9
$CLAYER
  8
AM_0
  9
$CELTYPE
  6
BYLAYER
  9
$CECOLOR
 62
   256
  9
$DIMSCALE
 40
3.0
  9
$DIMASZ
 40
2.5
  9
$DIMEXO
 40
1.0
  9
$DIMDLI
 40
8.0
  9
$DIMRND
 40
0.0
  9
$DIMDLE
 40
0.0
  9
$DIMEXE
 40
0.6
  9
$DIMTP
 40
0.1
  9
$DIMTM
 40
0.1
  9
$DIMTXT
 40
2.5
  9
$DIMCEN
 40
0.0
  9
$DIMTSZ
 40
0.0
  9
$DIMTOL
 70
     0
  9
$DIMLIM
 70
     0
  9
$DIMTIH
 70
     0
  9
$DIMTOH
 70
     0
  9
$DIMSE1
 70
     0
  9
$DIMSE2
 70
     0
  9
$DIMTAD
 70
     1
  9
$DIMZIN
 70
     8
  9
$DIMBLK
  1

  9
$DIMASO
 70
     1
  9
$DIMSHO
 70
     1
  9
$DIMPOST
  1

  9
$DIMAPOST
  1
"
  9
$DIMALT
 70
     0
  9
$DIMALTD
 70
     2
  9
$DIMALTF
 40
0.0393701
  9
$DIMLFAC
 40
1.0
  9
$DIMTOFL
 70
     1
  9
$DIMTVP
 40
0.0
  9
$DIMTIX
 70
     0
  9
$DIMSOXD
 70
     0
  9
$DIMSAH
 70
     0
  9
$DIMBLK1
  1

  9
$DIMBLK2
  1

  9
$DIMSTYLE
  2
AM_ISO
  9
$DIMCLRD
 70
   256
  9
$DIMCLRE
 70
   256
  9
$DIMCLRT
 70
     4
  9
$DIMTFAC
 40
0.71
  9
$DIMGAP
 40
0.8
  9
$LUNITS
 70
     2
  9
$LUPREC
 70
     2
  9
$SKETCHINC
 40
1.0
  9
$FILLETRAD
 40
15.0
  9
$AUNITS
 70
     0
  9
$AUPREC
 70
     0
  9
$MENU
  1
.
  9
$ELEVATION
 40
0.0
  9
$PELEVATION
 40
0.0
  9
$THICKNESS
 40
0.0
  9
$LIMCHECK
 70
     0
  9
$BLIPMODE
 70
     0
  9
$CHAMFERA
 40
6.0
  9
$CHAMFERB
 40
3.0
  9
$SKPOLY
 70
     0
  9
$TDCREATE
 40
2452065.6056192131
  9
$TDUPDATE
 40
2458541.5977992481
  9
$TDINDWG
 40
0.3690018403
  9
$TDUSRTIMER
 40
0.3690016319
  9
$USRTIMER
 70
     1
  9
$ANGBASE
 50
0.0
  9
$ANGDIR
 70
     0
  9
$PDMODE
 70
     0
  9
$PDSIZE
 40
0.0
  9
$PLINEWID
 40
0.0
  9
$COORDS
 70
     1
  9
$SPLFRAME
 70
     0
  9
$SPLINETYPE
 70
     6
  9
$SPLINESEGS
 70
     8
  9
$ATTDIA
 70
     1
  9
$ATTREQ
 70
     1
  9
$HANDLING
 70
     1
  9
$HANDSEED
  5
556D
  9
$SURFTAB1
 70
     6
  9
$SURFTAB2
 70
     6
  9
$SURFTYPE
 70
     6
  9
$SURFU
 70
     6
  9
$SURFV
 70
     6
  9
$UCSNAME
  2

  9
$UCSORG
 10
0.0
 20
0.0
 30
0.0
  9
$UCSXDIR
 10
1.0
 20
0.0
 30
0.0
  9
$UCSYDIR
 10
0.0
 20
1.0
 30
0.0
  9
$PUCSNAME
  2

  9
$PUCSORG
 10
0.0
 20
0.0
 30
0.0
  9
$PUCSXDIR
 10
1.0
 20
0.0
 30
0.0
  9
$PUCSYDIR
 10
0.0
 20
1.0
 30
0.0
  9
$USERI1
 70
     0
  9
$USERI2
 70
     0
  9
$USERI3
 70
     0
  9
$USERI4
 70
     0
  9
$USERI5
 70
     0
  9
$USERR1
 40
0.0
  9
$USERR2
 40
0.0
  9
$USERR3
 40
0.0
  9
$USERR4
 40
0.0
  9
$USERR5
 40
0.0
  9
$WORLDVIEW
 70
     1
  9
$SHADEDGE
 70
     3
  9
$SHADEDIF
 70
    70
  9
$TILEMODE
 70
     1
  9
$MAXACTVP
 70
    64
  9
$PLIMCHECK
 70
     0
  9
$PEXTMIN
 10
1.0000000000000000E+020
 20
1.0000000000000000E+020
 30
1.0000000000000000E+020
  9
$PEXTMAX
 10
-1.0000000000000000E+020
 20
-1.0000000000000000E+020
 30
-1.0000000000000000E+020
  9
$PLIMMIN
 10
0.0
 20
0.0
  9
$PLIMMAX
 10
420.0
 20
297.0
  9
$UNITMODE
 70
     0
  9
$VISRETAIN
 70
     1
  9
$PLINEGEN
 70
     0
  9
$PSLTSCALE
 70
     1
  0
ENDSEC
  0
SECTION
  2
TABLES
  0
TABLE
  2
VPORT
 70
     1
  0
VPORT
  2
*ACTIVE
 70
     0
 10
0.0
 20
0.0
 11
1.0
 21
1.0
 12
416.10339171480553
 22
412.95637962745468
 13
0.0
 23
0.0
 14
7.5
 24
7.5
 15
30.0
 25
30.0
 16
0.0
 26
0.0
 36
1.0
 17
0.0
 27
0.0
 37
0.0
 40
432.57036072648879
 41
1.7571592210767459
 42
50.0
 43
0.0
 44
0.0
 50
0.0
 51
0.0
 71
     0
 72
   100
 73
     1
 74
     3
 75
     0
 76
     0
 77
     0
 78
     0
  0
ENDTAB
  0
TABLE
  2
LTYPE
 70
    27
  0
LTYPE
  2
CONTINUOUS
 70
     0
  3
Solid line
 72
    65
 73
     0
 40
0.0
  0
LTYPE
  2
AM_ISO02W050
 70
     0
  3
__ __ __ __ __ __ __ __ __ __ __ __ __ __ __
 72
    65
 73
     2
 40
7.5
 49
6.0
 49
-1.5
  0
LTYPE
  2
AM_ISO08W050
 70
     0
  3
____ . ____ . ____ . ____ . ____ . ____ . ____
 72
    65
 73
     4
 40
18.0
 49
12.0
 49
-1.5
 49
3.0
 49
-1.5
  0
LTYPE
  2
AM_ISO09W050
 70
     0
  3
_____ . . _____ . . _____ . . ____ .. ____
 72
    65
 73
     6
 40
22.5
 49
12.0
 49
-1.5
 49
3.0
 49
-1.5
 49
3.0
 49
-1.5
  0
LTYPE
  2
AMCONSTR
 70
     0
  3
_______________________
 72
    65
 73
     2
 40
9999.0
 49
9999.0
 49
0.0
  0
LTYPE
  2
AM_ISO08W050X2
 70
     0
  3
__ . __ . __ . __ . __ . __
 72
    65
 73
     4
 40
9.0
 49
6.0
 49
-0.75
 49
1.5
 49
-0.75
  0
LTYPE
  2
AM_ISO02W050X2
 70
     0
  3
 _ _ _ _ _ _ _ _ _ _ _ _
 72
    65
 73
     2
 40
3.75
 49
3.0
 49
-0.75
  0
LTYPE
  2
AMZIGZAG
 70
     0
  3
/\/-/\/-/\/-/\/-/\/-/\/
 72
    65
 73
     2
 40
11.0001
 49
0.0001
 49
-11.0
  0
LTYPE
  2
ACISOWELD
 70
     0
  3
_ _ _ _ _
 72
    65
 73
     2
 40
2.0
 49
2.0
 49
-1.0
  0
LTYPE
  2
ACISOTGB
 70
     0
  3
__ . . __ . .
 72
    65
 73
     6
 40
9.0
 49
4.0
 49
-1.0
 49
1.0
 49
-1.0
 49
1.0
 49
-1.0
  0
LTYPE
  2
ACISOTGL
 70
     0
  3
_ _ _ _ _
 72
    65
 73
     2
 40
3.0
 49
2.0
 49
-1.0
  0
LTYPE
  2
CENTER
 70
     0
  3
__ . __
 72
    65
 73
     4
 40
7.0
 49
4.0
 49
-1.0
 49
1.0
 49
-1.0
  0
LTYPE
  2
HIDDEN
 70
     0
  3
Hidden __ __ __ __ __ __ __ __ __ __ __ __ __ _
 72
    65
 73
     2
 40
9.5249999999999986
 49
6.3499999999999979
 49
-3.174999999999998
  0
LTYPE
  2
PHANTOM2
 70
     0
  3
Phantom (.5x) ___ _ _ ___ _ _ ___ _ _ ___ _ _
 72
    65
 73
     6
 40
31.75
 49
15.875
 49
-3.174999999999998
 49
3.174999999999998
 49
-3.174999999999998
 49
3.174999999999998
 49
-3.174999999999998
  0
LTYPE
  2
ACANSTGBM
 70
     0
  3
__ . . __ . .
 72
    65
 73
     6
 40
9.0
 49
4.0
 49
-1.0
 49
1.0
 49
-1.0
 49
1.0
 49
-1.0
  0
LTYPE
  2
ACANSTGLM
 70
     0
  3
_ _ _ _ _
 72
    65
 73
     2
 40
3.0
 49
2.0
 49
-1.0
  0
LTYPE
  2
GEN3B
 70
     0
  3
 - - - - -
 72
    65
 73
     2
 40
1.0
 49
0.5
 49
-0.5
  0
LTYPE
  2
GEN7A
 70
     0
  3
__ . __ . __
 72
    65
 73
     4
 40
7.375
 49
4.75
 49
-0.875
 49
0.875
 49
-0.875
  0
LTYPE
  2
ACJISTGB
 70
     0
  3
__ . . __ . .
 72
    65
 73
     6
 40
9.0
 49
4.0
 49
-1.0
 49
1.0
 49
-1.0
 49
1.0
 49
-1.0
  0
LTYPE
  2
ACJISTGL
 70
     0
  3
_ _ _ _ _
 72
    65
 73
     2
 40
3.0
 49
2.0
 49
-1.0
  0
LTYPE
  2
GEN7
 70
     0
  3
____ . ____ . ____ . ____ . ____ . ____ . ____
 72
    65
 73
     4
 40
14.25
 49
9.75
 49
-1.5
 49
1.5
 49
-1.5
  0
LTYPE
  2
CENTER2
 70
     0
  3
Center (.5x) ___ _ ___ _ ___ _ ___ _ ___ _ ___
 72
    65
 73
     4
 40
1.125
 49
0.75
 49
-0.125
 49
0.125
 49
-0.125
  0
LTYPE
  2
HIDDEN2
 70
     0
  3
Hidden (.5x) _ _ _ _ _ _ _ _ _ _ _ _ _ _ _ _ _
 72
    65
 73
     2
 40
0.1875
 49
0.125
 49
-0.0625
  0
LTYPE
  2
AMZIGZAG2
 70
     0
  3
/\/-/\/-/\/-/\/-/\/-/\/
 72
    65
 73
     2
 40
0.4401
 49
0.0001
 49
-0.4400000000000001
  0
LTYPE
  2
ACANSTGB
 70
     0
  3
__ . . __ . .
 72
    65
 73
     6
 40
0.35433070866
 49
0.15748031496
 49
-0.03937007874
 49
0.03937007874
 49
-0.03937007874
 49
0.03937007874
 49
-0.03937007874
  0
LTYPE
  2
ACANSTGL
 70
     0
  3
_ _ _ _ _
 72
    65
 73
     2
 40
0.11811023622
 49
0.07874015748
 49
-0.03937007874
  0
ENDTAB
  0
TABLE
  2
LAYER
 70
     7
  0
LAYER
  2
0
 70
     0
 62
     7
  6
CONTINUOUS
  0
LAYER
  2
AM_0
 70
     0
 62
     7
  6
CONTINUOUS
  0
LAYER
  2
DEFPOINTS
 70
     0
 62
     7
  6
CONTINUOUS
  0
LAYER
  2
ｶｸﾚｾﾝ2
 70
     0
 62
     3
  6
GEN3B
  0
LAYER
  2
ﾁｭｳｼﾝｾﾝ1
 70
     0
 62
     1
  6
GEN7A
  0
LAYER
  2
AM_0N
 70
     0
 62
     7
  6
CONTINUOUS
  0
LAYER
  2
ﾁｭｳｼﾝｾﾝ
 70
     0
 62
     1
  6
GEN7
  0
ENDTAB
  0
TABLE
  2
STYLE
 70
    10
  0
STYLE
  2
STANDARD
 70
     0
 40
0.0
 41
0.8299999999999999
 50
0.0
 71
     0
 42
2.5
  3
txt.shx
  4
bigfont.shx
  0
STYLE
  2
ANNOTATIVE
 70
     0
 40
0.0
 41
1.0
 50
0.0
 71
     0
 42
0.2
  3
txt
  4

  0
STYLE
  2

 70
     1
 40
0.0
 41
1.0
 50
0.0
 71
     0
 42
2.5
  3
ltypeshp.shx
  4

  0
STYLE
  2
ACISOTS
 70
     0
 40
1.0
 41
1.0
 50
0.0
 71
     0
 42
2.5
  3
isocp.shx
  4
extfont.shx
  0
STYLE
  2
ACISOGDT
 70
     0
 40
0.0
 41
1.0
 50
0.0
 71
     0
 42
2.5
  3
amgdt.shx
  4

  0
STYLE
  2
ACANSTS
 70
     0
 40
1.0
 41
1.0
 50
0.0
 71
     0
 42
2.5
  3
romans.shx
  4
bigfont.shx
  0
STYLE
  2
ACANSGDT
 70
     0
 40
0.0
 41
1.0
 50
0.0
 71
     0
 42
2.5
  3
amgdt.shx
  4

  0
STYLE
  2
ACJISTS
 70
     0
 40
1.0
 41
1.0
 50
0.0
 71
     0
 42
2.5
  3
isocp.shx
  4
bigfont.shx
  0
STYLE
  2
ACJISGDT
 70
     0
 40
0.0
 41
1.0
 50
0.0
 71
     0
 42
2.5
  3
amgdt.shx
  4

  0
STYLE
  2

 70
     1
 40
0.0
 41
1.0
 50
0.0
 71
     0
 42
2.5
  3
genltshp.shx
  4

  0
ENDTAB
  0
TABLE
  2
VIEW
 70
     6
  0
VIEW
  2
AM_VIEW1
 70
     0
 40
277.50000000000011
 10
249.64779005524869
 20
416.25
 41
499.29558011049721
 11
0.0
 21
0.0
 31
1.0
 12
0.0
 22
0.0
 32
0.0
 42
50.0
 43
0.0
 44
0.0
 50
0.0
 71
     0
  0
VIEW
  2
AM_VIEW2
 70
     0
 40
277.50000000000011
 10
603.85220994475117
 20
416.25
 41
499.29558011049721
 11
0.0
 21
0.0
 31
1.0
 12
0.0
 22
0.0
 32
0.0
 42
50.0
 43
0.0
 44
0.0
 50
0.0
 71
     0
  0
VIEW
  2
AM_VIEW3
 70
     0
 40
277.50000000000011
 10
249.64779005524869
 20
138.75
 41
499.29558011049721
 11
0.0
 21
0.0
 31
1.0
 12
0.0
 22
0.0
 32
0.0
 42
50.0
 43
0.0
 44
0.0
 50
0.0
 71
     0
  0
VIEW
  2
AM_VIEW4
 70
     0
 40
277.50000000000011
 10
603.85220994475117
 20
138.75
 41
499.29558011049721
 11
0.0
 21
0.0
 31
1.0
 12
0.0
 22
0.0
 32
0.0
 42
50.0
 43
0.0
 44
0.0
 50
0.0
 71
     0
  0
VIEW
  2
AM_VIEW5
 70
     0
 40
277.50000000000011
 10
426.75
 20
277.50000000000011
 41
499.2955801104971
 11
0.0
 21
0.0
 31
1.0
 12
0.0
 22
0.0
 32
0.0
 42
50.0
 43
0.0
 44
0.0
 50
0.0
 71
     0
  0
VIEW
  2
AM_VIEW6
 70
     0
 40
554.99445000000014
 10
426.75
 20
277.5
 41
998.5811743093924
 11
0.0
 21
0.0
 31
1.0
 12
0.0
 22
0.0
 32
0.0
 42
50.0
 43
0.0
 44
0.0
 50
0.0
 71
     0
  0
ENDTAB
  0
TABLE
  2
UCS
 70
     0
  0
ENDTAB
  0
TABLE
  2
APPID
 70
   101
  0
APPID
  2
ACAD
 70
     0
  0
APPID
  2
ACADANNOTATIVE
 70
     0
  0
APPID
  2
MCAD_NO_VIS
 70
     0
  0
APPID
  2
ACAD_TEMP_GRAPHIC
 70
     0
  0
APPID
  2
ACATTRIBSERVICES
 70
     0
  0
APPID
  2
GENIUS_GENREC_14
 70
     0
  0
APPID
  2
GENIUS_GENOBJ-N-REC_13
 70
     0
  0
APPID
  2
GENIUS_GENODEF_13
 70
     0
  0
APPID
  2
GENIUS_GENOLIS_13
 70
     0
  0
APPID
  2
GENIUS_GENOBJ-N-TIT_13
 70
     0
  0
APPID
  2
GENIUS_GENOENT_13
 70
     0
  0
APPID
  2
GENIUS_GENTITLE_13
 70
     0
  0
APPID
  2
GENIUS_GENOREF_13
 70
     0
  0
APPID
  2
GENIUS_GENSCREG_15
 70
     0
  0
APPID
  2
GENIUS_GENOBJ-N-SDF_13
 70
     0
  0
APPID
  2
GENIUS_GENFIL_13
 70
     0
  0
APPID
  2
GENIUS_GENOBJ-N-CHA_13
 70
     0
  0
APPID
  2
GENIUS_GENDTOL_13
 70
     0
  0
APPID
  2
GENIUS_GENOBJ-N-FIL_13
 70
     0
  0
APPID
  2
AD_DRAW
 70
     0
  0
APPID
  2
DESIGNERASSEMBLIES
 70
     0
  0
APPID
  2
ASURF_PCURVE_APPNAME
 70
     0
  0
APPID
  2
GENIUS_GE3SECT_13
 70
     0
  0
APPID
  2
GENIUS_GENCFG_13
 70
     0
  0
APPID
  2
GENIUS_GE3CFG0_13
 70
     0
  0
APPID
  2
GENIUS_GENCFG0_13
 70
     0
  0
APPID
  2
GENIUS_GENCFG1_13
 70
     0
  0
APPID
  2
GENIUS_GENCFG2_13
 70
     0
  0
APPID
  2
GENIUS_GENCFG3_13
 70
     0
  0
APPID
  2
GENIUS_GENCFG4_13
 70
     0
  0
APPID
  2
GENIUS_GEVCFG0_13
 70
     0
  0
APPID
  2
GENIUS_GENHINW_13
 70
     0
  0
APPID
  2
GENIUS_FIRSTVISTXT_14
 70
     0
  0
APPID
  2
GENIUS_GENOBJ-N-LEADER_13
 70
     0
  0
APPID
  2
GEV_VCCNULL_SWITCH_OFF
 70
     0
  0
APPID
  2
GENIUS_GEFCFG0_13
 70
     0
  0
APPID
  2
GENIUS_GENZVEED_13
 70
     0
  0
APPID
  2
GENIUS_GENSCREG_13
 70
     0
  0
APPID
  2
GENIUS_DUMCFG0_13
 70
     0
  0
APPID
  2
GEVID936201362
 70
     0
  0
APPID
  2
GEVDC
 70
     0
  0
APPID
  2
GEVCON
 70
     0
  0
APPID
  2
VCC
 70
     0
  0
APPID
  2
GEVPT
 70
     0
  0
APPID
  2
GEVIT
 70
     0
  0
APPID
  2
GENBH
 70
     0
  0
APPID
  2
GEVMK
 70
     0
  0
APPID
  2
GENIUS_GENBH_13
 70
     0
  0
APPID
  2
GENIUS_GENOBJ-NBEHI-BHF_13
 70
     0
  0
APPID
  2
GENIUS_GENOBJ-NBEHI-BHB_13
 70
     0
  0
APPID
  2
GENIUS_GENOBJ-F-DESC_13
 70
     0
  0
APPID
  2
GENIUS_GEFDESC_14
 70
     0
  0
APPID
  2
GENIUS_GENOBJ-F-PART_13
 70
     0
  0
APPID
  2
GENIUS_GEFSTDP_13
 70
     0
  0
APPID
  2
GENIUS_GEFPARTINS_13
 70
     0
  0
APPID
  2
GENIUS_GENTRA_14
 70
     0
  0
APPID
  2
GENIUS_GENINF13_13
 70
     0
  0
APPID
  2
GENIUS_GENOBJ-N-INFOPT_13
 70
     0
  0
APPID
  2
GENIUS_GENOBJ-N-RSSYM_13
 70
     0
  0
APPID
  2
GENIUS_GENSYMENT_13
 70
     0
  0
APPID
  2
GENIUS_GENSCSYM_13
 70
     0
  0
APPID
  2
GENIUS_GEFINFNAM_13
 70
     0
  0
APPID
  2
GENIUS_GENOBJ-N-CEN_13
 70
     0
  0
APPID
  2
GENIUS_GENOBJ-N-CRS_13
 70
     0
  0
APPID
  2
GENIUS_GENOBJ-N-CRC_13
 70
     0
  0
APPID
  2
GENIUS_GENCRC_14
 70
     0
  0
APPID
  2
GEVID942827039
 70
     0
  0
APPID
  2
GEVID942827040
 70
     0
  0
APPID
  2
GEVID942827041
 70
     0
  0
APPID
  2
GENIUS_GENOBJ-F-SCPASSM_13
 70
     0
  0
APPID
  2
GENIUS_GENDIMSH_14
 70
     0
  0
APPID
  2
GEVID942827042
 70
     0
  0
APPID
  2
GEVID946020473
 70
     0
  0
APPID
  2
GEVID946020474
 70
     0
  0
APPID
  2
GEVID946020475
 70
     0
  0
APPID
  2
GENIUS_GENOBJ-N-HTC_13
 70
     0
  0
APPID
  2
GENIUS_GENHATCH_13
 70
     0
  0
APPID
  2
GEVID948854295
 70
     0
  0
APPID
  2
GEVID939402019
 70
     0
  0
APPID
  2
GEVID952919491
 70
     0
  0
APPID
  2
GEVID952919492
 70
     0
  0
APPID
  2
GENIUS_GEFWELD_13
 70
     0
  0
APPID
  2
GENIUS_GENOBJ-F-WELS_13
 70
     0
  0
APPID
  2
GEVID952919493
 70
     0
  0
APPID
  2
GENIUS_GENOBJ-N-RSBK_13
 70
     0
  0
APPID
  2
GENIUS_GENOBJ-N-LIB_13
 70
     0
  0
APPID
  2
GENIUS_GENSCALE_13
 70
     0
  0
APPID
  2
GEVID986376691
 70
     0
  0
APPID
  2
DCO15
 70
     0
  0
APPID
  2
GEVID988070561
 70
     0
  0
APPID
  2
GEVID988070562
 70
     0
  0
APPID
  2
GEVID988070563
 70
     0
  0
APPID
  2
ACADM_DIM_EDIT
 70
     0
  0
APPID
  2
AMDT_DM_ADJ
 70
     0
  0
APPID
  2
ACAD_PSEXT
 70
     0
  0
APPID
  2
ACAD_DSTYLE_DIMJAG
 70
     0
  0
APPID
  2
ACAD_DSTYLE_DIMBREAK
 70
     0
  0
APPID
  2
ACAD_NAV_VCDISPLAY
 70
     0
  0
APPID
  2
ACADANNOPO
 70
     0
  0
APPID
  2
ACAD_EXEMPT_FROM_CAD_STANDARDS
 70
     0
  0
APPID
  2
ACAD_MLEADERVER
 70
     0
  0
ENDTAB
  0
TABLE
  2
DIMSTYLE
 70
    23
  0
DIMSTYLE
  2
STANDARD
 70
     0
  3

  4

  5

  6

  7

 40
1.0
 41
0.18
 42
0.0625
 43
0.38
 44
0.18
 45
0.0
 46
0.0
 47
0.0
 48
0.0
140
0.18
141
0.09
142
0.0
143
25.399999999999999
144
1.0
145
0.0
146
1.0
147
0.09
 71
     0
 72
     0
 73
     1
 74
     1
 75
     0
 76
     0
 77
     0
 78
     0
170
     0
171
     2
172
     0
173
     0
174
     0
175
     0
176
     0
177
     0
178
     0
  0
DIMSTYLE
  2
ANNOTATIVE
 70
     0
  3

  4

  5

  6

  7

 40
1.0
 41
0.18
 42
0.0625
 43
0.38
 44
0.18
 45
0.0
 46
0.0
 47
0.0
 48
0.0
140
0.18
141
0.09
142
0.0
143
25.399999999999999
144
1.0
145
0.0
146
1.0
147
0.09
 71
     0
 72
     0
 73
     1
 74
     1
 75
     0
 76
     0
 77
     0
 78
     0
170
     0
171
     2
172
     0
173
     0
174
     0
175
     0
176
     0
177
     0
178
     0
  0
DIMSTYLE
  2
AM_ISO
 70
     0
  3

  4
"
  5

  6

  7

 40
1.0
 41
2.5
 42
1.0
 43
8.0
 44
0.6
 45
0.0
 46
0.0
 47
0.1
 48
0.1
140
2.5
141
0.0
142
0.0
143
0.0393701
144
1.0
145
0.0
146
0.71
147
0.8
 71
     0
 72
     0
 73
     0
 74
     0
 75
     0
 76
     0
 77
     1
 78
     8
170
     0
171
     2
172
     1
173
     0
174
     0
175
     0
176
   256
177
   256
178
     4
  0
DIMSTYLE
  2
AM_ISO$3
 70
     0
  3

  4
"
  5

  6

  7

 40
1.0
 41
2.5
 42
1.0
 43
8.0
 44
0.6
 45
0.0
 46
0.0
 47
0.1
 48
0.1
140
2.5
141
0.0
142
0.0
143
0.0393701
144
1.0
145
0.0
146
0.71
147
0.8
 71
     0
 72
     0
 73
     0
 74
     1
 75
     0
 76
     0
 77
     1
 78
     8
170
     0
171
     2
172
     0
173
     0
174
     0
175
     0
176
   256
177
   256
178
     4
  0
DIMSTYLE
  2
AM_ISO$4
 70
     0
  3

  4
"
  5

  6

  7

 40
1.0
 41
2.5
 42
1.0
 43
8.0
 44
0.6
 45
0.0
 46
0.0
 47
0.1
 48
0.1
140
2.5
141
0.0
142
0.0
143
0.0393701
144
1.0
145
0.0
146
0.71
147
0.8
 71
     0
 72
     0
 73
     0
 74
     1
 75
     0
 76
     0
 77
     1
 78
     8
170
     0
171
     2
172
     0
173
     0
174
     0
175
     0
176
   256
177
   256
178
     4
  0
DIMSTYLE
  2
AM_ISO$6
 70
     0
  3

  4
"
  5

  6

  7

 40
1.0
 41
2.5
 42
1.0
 43
8.0
 44
0.6
 45
0.0
 46
0.0
 47
0.1
 48
0.1
140
2.5
141
0.0
142
0.0
143
0.0393701
144
1.0
145
0.0
146
0.71
147
0.8
 71
     0
 72
     0
 73
     0
 74
     0
 75
     0
 76
     0
 77
     0
 78
     8
170
     0
171
     2
172
     1
173
     0
174
     0
175
     0
176
   256
177
   256
178
     4
  0
DIMSTYLE
  2
AM_ISO$7
 70
     0
  3

  4
"
  5

  6

  7

 40
1.0
 41
2.5
 42
1.0
 43
8.0
 44
0.6
 45
0.0
 46
0.0
 47
0.1
 48
0.1
140
2.5
141
0.0
142
0.0
143
0.0393701
144
1.0
145
0.0
146
0.71
147
0.8
 71
     0
 72
     0
 73
     0
 74
     0
 75
     0
 76
     0
 77
     1
 78
     8
170
     0
171
     2
172
     1
173
     0
174
     0
175
     0
176
   256
177
   256
178
     4
  0
DIMSTYLE
  2
AM_ISO$SF
 70
     0
  3

  4
"
  5

  6

  7

 40
1.0
 41
2.5
 42
1.0
 43
10.0
 44
1.0
 45
0.0
 46
0.0
 47
0.1
 48
0.1
140
3.5
141
0.0
142
0.0
143
0.0393701
144
1.0
145
0.0
146
0.71
147
1.5
 71
     0
 72
     0
 73
     0
 74
     0
 75
     1
 76
     1
 77
     1
 78
     8
170
     0
171
     2
172
     1
173
     0
174
     0
175
     0
176
   256
177
   256
178
     2
  0
DIMSTYLE
  2
AM_ISO$SH
 70
     0
  3

  4
"
  5

  6

  7

 40
1.0
 41
2.5
 42
1.0
 43
10.0
 44
1.0
 45
0.0
 46
0.0
 47
0.1
 48
0.1
140
3.5
141
0.0
142
0.0
143
0.0393701
144
2.0
145
0.0
146
0.71
147
1.5
 71
     0
 72
     0
 73
     0
 74
     0
 75
     1
 76
     1
 77
     1
 78
     8
170
     0
171
     2
172
     1
173
     1
174
     0
175
     0
176
   256
177
   256
178
     2
  0
DIMSTYLE
  2
AM_JIS
 70
     0
  3

  4
"
  5

  6

  7

 40
1.0
 41
2.5
 42
1.0
 43
7.0
 44
1.0
 45
0.0
 46
0.0
 47
0.1
 48
0.1000000001
140
2.5
141
0.0
142
0.0
143
0.0393701
144
1.0
145
0.0
146
0.71
147
1.0
 71
     0
 72
     0
 73
     0
 74
     0
 75
     0
 76
     0
 77
     3
 78
     8
170
     0
171
     2
172
     1
173
     0
174
     0
175
     0
176
   256
177
   256
178
     4
  0
DIMSTYLE
  2
AM_JIS$3
 70
     0
  3

  4
"
  5

  6

  7

 40
1.0
 41
2.5
 42
1.0
 43
7.0
 44
1.0
 45
0.0
 46
0.0
 47
0.1
 48
0.1000000001
140
2.5
141
0.0
142
0.0
143
0.0393701
144
1.0
145
0.0
146
0.71
147
1.0
 71
     0
 72
     0
 73
     0
 74
     1
 75
     0
 76
     0
 77
     3
 78
     8
170
     0
171
     2
172
     0
173
     0
174
     0
175
     0
176
   256
177
   256
178
     4
  0
DIMSTYLE
  2
AM_JIS$4
 70
     0
  3

  4
"
  5

  6

  7

 40
1.0
 41
2.5
 42
1.0
 43
7.0
 44
1.0
 45
0.0
 46
0.0
 47
0.1
 48
0.1000000001
140
2.5
141
0.0
142
0.0
143
0.0393701
144
1.0
145
0.0
146
0.71
147
1.0
 71
     0
 72
     0
 73
     0
 74
     0
 75
     0
 76
     0
 77
     3
 78
     8
170
     0
171
     2
172
     0
173
     0
174
     0
175
     0
176
   256
177
   256
178
     4
  0
DIMSTYLE
  2
AM_JIS$6
 70
     0
  3

  4
"
  5

  6

  7

 40
1.0
 41
2.5
 42
1.0
 43
7.0
 44
1.0
 45
0.0
 46
0.0
 47
0.1
 48
0.1000000001
140
2.5
141
0.0
142
0.0
143
0.0393701
144
1.0
145
0.0
146
0.71
147
1.0
 71
     0
 72
     0
 73
     0
 74
     0
 75
     0
 76
     0
 77
     0
 78
     8
170
     0
171
     2
172
     1
173
     0
174
     0
175
     0
176
   256
177
   256
178
     4
  0
DIMSTYLE
  2
AM_JIS$7
 70
     0
  3

  4
"
  5

  6

  7

 40
1.0
 41
2.5
 42
1.0
 43
7.0
 44
1.0
 45
0.0
 46
0.0
 47
0.1
 48
0.1000000001
140
2.5
141
0.0
142
0.0
143
0.0393701
144
1.0
145
0.0
146
0.71
147
1.0
 71
     0
 72
     0
 73
     0
 74
     0
 75
     0
 76
     0
 77
     3
 78
     8
170
     0
171
     2
172
     1
173
     0
174
     0
175
     0
176
   256
177
   256
178
     4
  0
DIMSTYLE
  2
AM_JIS$SF
 70
     0
  3

  4
"
  5

  6

  7

 40
1.0
 41
2.5
 42
1.0
 43
10.0
 44
1.0
 45
0.0
 46
0.0
 47
0.1
 48
0.1
140
3.5
141
0.0
142
0.0
143
0.0393701
144
1.0
145
0.0
146
0.71
147
1.5
 71
     0
 72
     0
 73
     0
 74
     0
 75
     1
 76
     1
 77
     3
 78
     8
170
     0
171
     2
172
     1
173
     0
174
     0
175
     0
176
   256
177
   256
178
     4
  0
DIMSTYLE
  2
AM_JIS$SH
 70
     0
  3

  4
"
  5

  6

  7

 40
1.0
 41
2.5
 42
1.0
 43
10.0
 44
1.0
 45
0.0
 46
0.0
 47
0.1
 48
0.1
140
3.5
141
0.0
142
0.0
143
0.0393701
144
1.0
145
0.0
146
0.71
147
1.5
 71
     0
 72
     0
 73
     0
 74
     0
 75
     1
 76
     0
 77
     3
 78
     8
170
     0
171
     2
172
     1
173
     1
174
     0
175
     0
176
   256
177
   256
178
     4
  0
DIMSTYLE
  2
AM_ISO$0
 70
     0
  3

  4
"
  5

  6

  7

 40
1.0
 41
2.5
 42
1.0
 43
8.0
 44
0.6
 45
0.0
 46
0.0
 47
0.1
 48
0.1
140
2.5
141
0.0
142
0.0
143
0.0393701
144
1.0
145
0.0
146
0.71
147
0.8
 71
     0
 72
     0
 73
     0
 74
     0
 75
     0
 76
     0
 77
     1
 78
     8
170
     0
171
     2
172
     1
173
     0
174
     0
175
     0
176
   256
177
   256
178
     4
  0
DIMSTYLE
  2
AM_ANSI
 70
     0
  3

  4
mm
  5

  6

  7

 40
1.0
 41
0.12
 42
0.05
 43
0.5
 44
0.1
 45
0.0
 46
0.0
 47
0.1
 48
0.1
140
0.12
141
0.0
142
0.0
143
25.399999999999999
144
1.0
145
0.0
146
0.71
147
0.06
 71
     0
 72
     0
 73
     1
 74
     1
 75
     0
 76
     0
 77
     0
 78
     7
170
     0
171
     2
172
     0
173
     0
174
     0
175
     0
176
   256
177
   256
178
     2
  0
DIMSTYLE
  2
AM_ANSI$3
 70
     0
  3

  4
mm
  5

  6

  7

 40
1.0
 41
0.12
 42
0.05
 43
0.5
 44
0.1
 45
0.0
 46
0.0
 47
0.1
 48
0.1
140
0.12
141
0.0
142
0.0
143
25.399999999999999
144
1.0
145
0.0
146
0.71
147
0.06
 71
     0
 72
     0
 73
     1
 74
     1
 75
     0
 76
     0
 77
     0
 78
     7
170
     0
171
     2
172
     0
173
     0
174
     0
175
     0
176
   256
177
   256
178
     2
  0
DIMSTYLE
  2
AM_ANSI$4
 70
     0
  3

  4
mm
  5

  6

  7

 40
1.0
 41
0.12
 42
0.05
 43
0.5
 44
0.1
 45
0.0
 46
0.0
 47
0.1
 48
0.1
140
0.12
141
0.0
142
0.0
143
25.399999999999999
144
1.0
145
0.0
146
0.71
147
0.06
 71
     0
 72
     0
 73
     1
 74
     1
 75
     0
 76
     0
 77
     0
 78
     7
170
     0
171
     2
172
     0
173
     0
174
     0
175
     0
176
   256
177
   256
178
     2
  0
DIMSTYLE
  2
AM_ANSI$7
 70
     0
  3

  4
mm
  5

  6

  7

 40
1.0
 41
0.12
 42
0.05
 43
0.5
 44
0.1
 45
0.0
 46
0.0
 47
0.1
 48
0.1
140
0.12
141
0.0
142
0.0
143
25.399999999999999
144
1.0
145
0.0
146
0.71
147
0.06
 71
     0
 72
     0
 73
     1
 74
     1
 75
     0
 76
     0
 77
     0
 78
     7
170
     0
171
     2
172
     0
173
     0
174
     0
175
     0
176
   256
177
   256
178
     2
  0
DIMSTYLE
  2
AM_ANSI$SF
 70
     0
  3

  4
mm
  5

  6

  7

 40
1.0
 41
0.12
 42
0.05
 43
0.5
 44
0.1
 45
0.0
 46
0.0
 47
0.1
 48
0.1
140
0.12
141
0.0
142
0.0
143
25.399999999999999
144
1.0
145
0.0
146
0.71
147
0.06
 71
     0
 72
     0
 73
     1
 74
     1
 75
     1
 76
     1
 77
     0
 78
     7
170
     0
171
     2
172
     0
173
     0
174
     0
175
     0
176
   256
177
   256
178
     2
  0
DIMSTYLE
  2
AM_ANSI$SH
 70
     0
  3

  4
mm
  5

  6
GENAXEH
  7

 40
1.0
 41
0.12
 42
0.05
 43
0.5
 44
0.1
 45
0.0
 46
0.0
 47
0.1
 48
0.1
140
0.12
141
0.0
142
0.0
143
25.399999999999999
144
1.0
145
0.0
146
0.71
147
0.06
 71
     0
 72
     0
 73
     1
 74
     1
 75
     1
 76
     1
 77
     0
 78
     7
170
     0
171
     2
172
     0
173
     1
174
     0
175
     0
176
   256
177
   256
178
     2
  0
ENDTAB
  0
ENDSEC
  0
SECTION
  2
BLOCKS
  0
BLOCK
  8
0
  2
$MODEL_SPACE
 70
     0
 10
0.0
 20
0.0
 30
0.0
  3
$MODEL_SPACE
  1

  0
ENDBLK
  5
53E6
  8
0
  0
BLOCK
 67
     1
  8
0
  2
$PAPER_SPACE
 70
     0
 10
0.0
 20
0.0
 30
0.0
  3
$PAPER_SPACE
  1

  0
ENDBLK
  5
53E2
 67
     1
  8
0
  0
BLOCK
  8
0
  2
GENAXEH
 70
     0
 10
0.0
 20
0.0
 30
0.0
  3
GENAXEH
  1

  0
LINE
  5
73
  8
0
 10
-1.0
 20
0.0
 30
0.0
 11
1.0
 21
0.0
 31
0.0
  0
ENDBLK
  5
75
  8
0
  0
BLOCK
  8
0
  2
_OPEN30
 70
     0
 10
0.0
 20
0.0
 30
0.0
  3
_OPEN30
  1

  0
LINE
  5
31A
  8
0
 62
     0
 10
-1.0
 20
0.26794919
 30
0.0
 11
0.0
 21
0.0
 31
0.0
  0
LINE
  5
31B
  8
0
 62
     0
 10
0.0
 20
0.0
 30
0.0
 11
-1.0
 21
-0.26794919
 31
0.0
  0
LINE
  5
31C
  8
0
 62
     0
 10
0.0
 20
0.0
 30
0.0
 11
-1.0
 21
0.0
 31
0.0
  0
ENDBLK
  5
31E
  8
0
  0
BLOCK
  8
0
  2
_NONE
 70
     0
 10
0.0
 20
0.0
 30
0.0
  3
_NONE
  1

  0
ENDBLK
  5
579
  8
0
  0
BLOCK
  8
0
  2
*U5
 70
     1
 10
0.0
 20
0.0
 30
0.0
  3
*U5
  1

  0
TEXT
  5
5373
  8
AM_0
 10
547.24658798069595
 20
543.33071464222166
 30
0.0
 40
10.0
  1
ＶＸ０１－０６０～２００ＭＷ
 41
0.8299999999999999
  0
ENDBLK
  5
5375
  8
0
  0
BLOCK
  8
0
  2
_ACMFILLEDHALF
 70
     0
 10
0.0
 20
0.0
 30
0.0
  3
_ACMFILLEDHALF
  1

  0
TRACE
  5
54E9
  8
AM_0
 62
     0
 10
-0.8
 20
0.0
 30
0.0
 11
-1.0
 21
0.166666666
 31
0.0
 12
0.0
 22
0.0
 32
0.0
 13
0.0
 23
0.0
 33
0.0
  0
LINE
  5
54EA
  8
AM_0
 62
     0
 10
-1.0
 20
0.0
 30
0.0
 11
-0.8
 21
0.0
 31
0.0
  0
ENDBLK
  5
54E8
  8
0
  0
ENDSEC
  0
SECTION
  2
ENTITIES
  0
LINE
  5
1AB5
  8
AM_0
 10
257.30037871952942
 20
239.50016430843559
 30
0.0
 11
260.30037871952931
 21
239.50016430843559
 31
0.0
  0
LINE
  5
1AB7
  8
AM_0
 10
257.30037871952919
 20
315.94626330843562
 30
0.0
 11
260.30037871952931
 21
315.94626330843562
 31
0.0
  0
LINE
  5
1ABA
  8
AM_0
 10
155.5068087195292
 20
221.43999630843561
 30
0.0
 11
252.42654871952931
 21
221.43999630843561
 31
0.0
  0
LINE
  5
1ABB
  8
AM_0
 10
153.9783087195292
 20
241.00016430843559
 30
0.0
 11
161.30037871952919
 21
241.0001643084357
 31
0.0
  0
LINE
  5
1ABC
  8
AM_0
 10
161.30037871952919
 20
243.72324630843559
 30
0.0
 11
154.6657887195291
 21
243.72324630843559
 31
0.0
  0
LINE
  5
1ABD
  8
AM_0
 10
161.30037871952919
 20
241.72324830843559
 30
0.0
 11
154.6657887195291
 21
241.72324830843559
 31
0.0
  0
LINE
  5
1ABE
  8
AM_0
 10
161.30037871952919
 20
313.72326330843561
 30
0.0
 11
154.6657887195291
 21
313.72326330843561
 31
0.0
  0
LINE
  5
1ABF
  8
AM_0
 10
161.30037871952919
 20
311.72325030843569
 30
0.0
 11
154.6657887195291
 21
311.72325030843569
 31
0.0
  0
LINE
  5
1AC0
  8
AM_0
 10
153.97767871952919
 20
314.44626330843562
 30
0.0
 11
161.30037871952919
 21
314.44626330843562
 31
0.0
  0
LINE
  5
1AC1
  8
AM_0
 10
155.5068087195292
 20
334.0065033084357
 30
0.0
 11
252.42654871952931
 21
334.0065033084357
 31
0.0
  0
ARC
  5
1AC3
  8
AM_0
 10
153.97767871952919
 20
312.76835430843562
 30
0.0
 40
1.6779127499999991
 50
90.000003000000945
 51
270.0
  0
ARC
  5
1AC4
  8
AM_0
 10
154.8497487195292
 20
312.7232493084357
 30
0.0
 40
1.0000000199999981
 50
90.000003000000945
 51
270.0
  0
LINE
  5
1AC5
  8
AM_0
 10
140.30037871952919
 20
313.11613230843568
 30
0.0
 11
140.30037871952919
 21
312.05619630843569
 31
0.0
  0
ARC
  5
1AC6
  8
AM_0
 10
139.30038871952911
 20
311.89799130843562
 30
0.0
 40
1.0000000199999981
 50
113.127029999999
 51
180.00001
  0
LINE
  5
1AC7
  8
AM_0
 10
140.11221871952921
 20
313.33216530843572
 30
0.0
 11
138.90762871952921
 21
312.81770130843557
 31
0.0
  0
LINE
  5
1AC8
  8
AM_0
 10
138.3003687195291
 20
325.73961330843582
 30
0.0
 11
138.3003687195291
 21
288.72324830843581
 31
0.0
  0
LINE
  5
1AC9
  8
AM_0
 10
144.3003687195291
 20
330.72324330843571
 30
0.0
 11
144.3003687195291
 21
289.72324830843581
 31
0.0
  0
LINE
  5
1ACA
  8
AM_0
 10
152.30037871952919
 20
330.72324330843571
 30
0.0
 11
152.30037871952919
 21
228.2830143084357
 31
0.0
  0
LINE
  5
1ACB
  8
AM_0
 10
143.30037871952919
 20
327.7232433084356
 30
0.0
 11
143.30037871952919
 21
289.72324830843581
 31
0.0
  0
LINE
  5
1ACC
  8
AM_0
 10
157.66584871952929
 20
241.07197230843579
 30
0.0
 11
152.3004387195291
 21
229.62749730843569
 31
0.0
  0
ARC
  5
1ACD
  8
AM_0
 10
139.30038871952911
 20
229.70684430843559
 30
0.0
 40
1.0000000199999981
 50
179.99999
 51
239.9736099999989
  0
LINE
  5
1ACE
  8
AM_0
 10
140.0869887195291
 20
229.22849430843581
 30
0.0
 11
138.84774871952911
 21
229.8575253084357
 31
0.0
  0
ARC
  5
1ACF
  8
AM_0
 10
189.3003687195291
 20
220.59360630843571
 30
0.0
 40
2.00000007
 50
270.0
 51
0.0
  0
ARC
  5
1AD0
  8
AM_0
 10
189.3003687195291
 20
217.8353073084356
 30
0.0
 40
2.00000007
 50
270.0
 51
0.0
  0
LINE
  5
1AD1
  8
AM_0
 10
191.30037871952919
 20
217.8353073084356
 30
0.0
 11
191.30037871952919
 21
221.43999630843561
 31
0.0
  0
ARC
  5
1AD2
  8
AM_0
 10
189.3003687195291
 20
218.7458283084357
 30
0.0
 40
2.00000007
 50
270.0
 51
0.0
  0
LINE
  5
1AD3
  8
AM_0
 10
152.30037871952919
 20
229.62746730843571
 30
0.0
 11
153.54159871952911
 21
223.06811130843559
 31
0.0
  0
LINE
  5
1AD4
  8
AM_0
 10
152.30037871952919
 20
228.28293930843569
 30
0.0
 11
153.5804787195292
 21
220.2777663084357
 31
0.0
  0
LINE
  5
1AD5
  8
AM_0
 10
152.300318719529
 20
226.93841130843569
 30
0.0
 11
153.5913987195292
 21
218.4452913084356
 31
0.0
  0
ARC
  5
1AD6
  8
AM_0
 10
155.5068087195292
 20
223.4399823084357
 30
0.0
 40
2.00000007
 50
190.71569
 51
270.0
  0
ARC
  5
1AD7
  8
AM_0
 10
155.5553787195293
 20
220.59360630843571
 30
0.0
 40
2.00000007
 50
189.0849700000002
 51
270.0
  0
LINE
  5
1AD8
  8
AM_0
 10
143.30037871952919
 20
227.72326230843569
 30
0.0
 11
144.3003687195291
 21
227.72326230843569
 31
0.0
  0
ARC
  5
1AD9
  8
AM_0
 10
142.8003687195291
 20
227.4738723084356
 30
0.0
 40
0.5000000100000001
 50
0.0
 51
90.000003000000945
  0
ARC
  5
1ADA
  8
AM_0
 10
142.8003687195291
 20
229.6201593084356
 30
0.0
 40
0.5000000100000001
 50
270.0
 51
0.0
  0
LINE
  5
1ADB
  8
AM_0
 10
144.3003687195291
 20
224.72326230843569
 30
0.0
 11
152.30037871952919
 21
224.72326230843569
 31
0.0
  0
ARC
  5
1ADC
  8
AM_0
 10
155.5900587195292
 20
217.8353073084356
 30
0.0
 40
2.00000007
 50
187.94404
 51
270.0
  0
LINE
  5
1ADD
  8
AM_0
 10
152.300318719529
 20
226.93836630843569
 30
0.0
 11
153.60921871952931
 21
217.5589233084356
 31
0.0
  0
ARC
  5
1ADE
  8
AM_0
 10
155.56875871952931
 20
218.7458283084357
 30
0.0
 40
2.00000007
 50
188.6433899999999
 51
270.0
  0
ARC
  5
1ADF
  8
AM_0
 10
140.56857871952911
 20
228.97387230843569
 30
0.0
 40
1.0000000199999981
 50
239.97360000000029
 51
270.0
  0
ARC
  5
1AE0
  8
AM_0
 10
140.53962871952919
 20
230.12015730843561
 30
0.0
 40
1.0000000199999981
 50
243.088740000001
 51
270.0
  0
LINE
  5
1AE1
  8
AM_0
 10
140.30037871952919
 20
228.2270913084358
 30
0.0
 11
140.30037871952919
 21
228.7528653084357
 31
0.0
  0
LINE
  5
1AE2
  8
AM_0
 10
140.06820871952931
 20
228.10805730843569
 30
0.0
 11
138.80001871952911
 21
228.84104430843561
 31
0.0
  0
LINE
  5
1AE3
  8
AM_0
 10
140.56857871952911
 20
227.97385830843561
 30
0.0
 11
142.8003687195291
 21
227.97385830843561
 31
0.0
  0
LINE
  5
1AE4
  8
AM_0
 10
140.53962871952919
 20
229.1201733084356
 30
0.0
 11
142.8003687195291
 21
229.1201733084356
 31
0.0
  0
LINE
  5
1AEA
  8
AM_0
 10
155.5553787195293
 20
218.5936233084357
 30
0.0
 11
189.3003687195291
 21
218.5936233084357
 31
0.0
  0
LINE
  5
1AEB
  8
AM_0
 10
155.56875871952931
 20
216.7458303084357
 30
0.0
 11
189.3003687195291
 21
216.7458303084357
 31
0.0
  0
LINE
  5
1AEC
  8
AM_0
 10
155.5900587195292
 20
215.83532130843571
 30
0.0
 11
189.3003687195291
 21
215.83532130843571
 31
0.0
  0
ARC
  5
1AF5
  8
AM_0
 10
142.30038871952911
 20
310.46635230843572
 30
0.0
 40
1.0000000199999981
 50
0.0
 51
90.000003000000945
  0
LINE
  5
1AF6
  8
AM_0
 10
160.30037871952911
 20
301.72324830843559
 30
0.0
 11
154.6657887195291
 21
301.72324830843559
 31
0.0
  0
LINE
  5
1AF7
  8
AM_0
 10
160.30037871952911
 20
303.72324930843558
 30
0.0
 11
154.6657887195291
 21
303.72324930843558
 31
0.0
  0
ARC
  5
1AF8
  8
AM_0
 10
153.7618587195293
 20
302.7479073084358
 30
0.0
 40
1.461486869999999
 50
90.000003000000945
 51
270.0
  0
ARC
  5
1AF9
  8
AM_0
 10
154.8497487195292
 20
302.72325030843569
 30
0.0
 40
1.0000000199999981
 50
90.000003000000945
 51
270.0
  0
LINE
  5
1AFA
  8
AM_0
 10
153.7618587195293
 20
301.28642130843559
 30
0.0
 11
160.30037871952919
 21
301.28642130843559
 31
0.0
  0
LINE
  5
1AFB
  8
AM_0
 10
153.7618587195293
 20
304.20939330843572
 30
0.0
 11
160.30037871952919
 21
304.20939330843572
 31
0.0
  0
LINE
  5
1AFC
  8
AM_0
 10
160.30037871952919
 20
293.72324730843559
 30
0.0
 11
154.6657887195291
 21
293.72324730843559
 31
0.0
  0
LINE
  5
1AFD
  8
AM_0
 10
160.30037871952919
 20
291.72324930843558
 30
0.0
 11
154.6657887195291
 21
291.72324930843558
 31
0.0
  0
ARC
  5
1AFE
  8
AM_0
 10
153.6312987195291
 20
292.73582130843567
 30
0.0
 40
1.3309326599999991
 50
90.000003000000945
 51
270.0
  0
ARC
  5
1AFF
  8
AM_0
 10
154.8497487195292
 20
292.72324830843559
 30
0.0
 40
1.0000000199999981
 50
90.000003000000945
 51
270.0
  0
LINE
  5
1B00
  8
AM_0
 10
153.6312987195291
 20
294.06675330843558
 30
0.0
 11
160.30037871952919
 21
294.06675330843569
 31
0.0
  0
LINE
  5
1B01
  8
AM_0
 10
153.6312987195291
 20
291.4048893084356
 30
0.0
 11
160.30037871952919
 21
291.4048893084356
 31
0.0
  0
POLYLINE
  5
1B02
  8
AM_0
 66
     1
 10
0.0
 20
0.0
 30
0.0
  0
VERTEX
  5
1B03
  8
AM_0
  6
CONTINUOUS
 10
155.18085871952911
 20
294.06579630843572
 30
0.0
  0
VERTEX
  5
1B04
  8
AM_0
  6
CONTINUOUS
 10
155.82690871952931
 20
301.28671830843558
 30
0.0
 42
-1.0
  0
SEQEND
  5
1B05
  8
AM_0
  0
ARC
  5
1B06
  8
AM_0
 10
142.30038871952911
 20
300.7232493084357
 30
0.0
 40
1.0000000199999981
 50
0.0
 51
90.000003000000945
  0
ARC
  5
1B07
  8
AM_0
 10
142.30038871952911
 20
304.7232483084357
 30
0.0
 40
1.0000000199999981
 50
270.0
 51
0.0
  0
ARC
  5
1B08
  8
AM_0
 10
142.30038871952911
 20
290.7232473084357
 30
0.0
 40
1.0000000199999981
 50
0.0
 51
90.000003000000945
  0
ARC
  5
1B09
  8
AM_0
 10
142.30038871952911
 20
294.72324930843558
 30
0.0
 40
1.0000000199999981
 50
270.0
 51
0.0
  0
POLYLINE
  5
1B0A
  8
AM_0
 66
     1
 10
0.0
 20
0.0
 30
0.0
  0
VERTEX
  5
1B0B
  8
AM_0
  6
CONTINUOUS
 10
156.16260871952929
 20
304.21018530843571
 30
0.0
  0
VERTEX
  5
1B0C
  8
AM_0
  6
CONTINUOUS
 10
157.12308871952931
 20
311.09181930843567
 30
0.0
 42
-1.0
  0
SEQEND
  5
1B0D
  8
AM_0
  0
LINE
  5
1B0F
  8
AM_0
 10
153.97767871952919
 20
311.09043630843581
 30
0.0
 11
161.30037871952919
 21
311.09043630843581
 31
0.0
  0
POLYLINE
  5
1B27
  8
AM_0
 66
     1
 10
0.0
 20
0.0
 30
0.0
  0
VERTEX
  5
1B28
  8
AM_0
  6
CONTINUOUS
 10
155.18085871952911
 20
261.38066130843561
 30
0.0
  0
VERTEX
  5
1B29
  8
AM_0
  6
CONTINUOUS
 10
155.82690871952931
 20
254.1597243084357
 30
0.0
 42
-1.0
  0
SEQEND
  5
1B2A
  8
AM_0
  0
LINE
  5
1B2B
  8
AM_0
 10
160.30037871952919
 20
253.7232483084357
 30
0.0
 11
154.6657887195291
 21
253.7232483084357
 31
0.0
  0
LINE
  5
1B2C
  8
AM_0
 10
160.30037871952919
 20
263.72326230843572
 30
0.0
 11
154.6657887195291
 21
263.72326230843572
 31
0.0
  0
LINE
  5
1B2D
  8
AM_0
 10
160.30037871952919
 20
261.72324630843571
 30
0.0
 11
154.6657887195291
 21
261.72324630843571
 31
0.0
  0
ARC
  5
1B2E
  8
AM_0
 10
153.6312987195291
 20
262.71069030843569
 30
0.0
 40
1.3309326599999991
 50
90.000003000000945
 51
270.0
  0
LINE
  5
1B2F
  8
AM_0
 10
153.76191871952909
 20
254.16003030843569
 30
0.0
 11
160.30037871952919
 21
254.16003030843569
 31
0.0
  0
ARC
  5
1B30
  8
AM_0
 10
154.8497487195292
 20
262.72324830843559
 30
0.0
 40
1.0000000199999981
 50
90.000003000000945
 51
270.0
  0
LINE
  5
1B31
  8
AM_0
 10
153.6312987195291
 20
264.04160730843569
 30
0.0
 11
160.30037871952919
 21
264.04160730843569
 31
0.0
  0
LINE
  5
1B32
  8
AM_0
 10
153.6312987195291
 20
261.3797403084356
 30
0.0
 11
160.30037871952919
 21
261.3797403084356
 31
0.0
  0
ARC
  5
1B33
  8
AM_0
 10
142.30038871952911
 20
254.72326230843569
 30
0.0
 40
1.0000000199999981
 50
270.0
 51
0.0
  0
ARC
  5
1B34
  8
AM_0
 10
142.30038871952911
 20
264.72324630843559
 30
0.0
 40
1.0000000199999981
 50
270.0
 51
0.0
  0
ARC
  5
1B35
  8
AM_0
 10
142.30038871952911
 20
260.72326230843572
 30
0.0
 40
1.0000000199999981
 50
0.0
 51
90.000003000000945
  0
ARC
  5
1B45
  8
AM_0
 10
140.4507087195293
 20
310.46635230843572
 30
0.0
 40
1.0000000199999981
 50
90.000003000000945
 51
107.09763000000019
  0
ARC
  5
1B46
  8
AM_0
 10
139.30038871952911
 20
310.11253230843568
 30
0.0
 40
1.0000000199999981
 50
107.09763000000019
 51
180.00001
  0
LINE
  5
1B47
  8
AM_0
 10
140.15670871952921
 20
311.4221613084357
 30
0.0
 11
139.00638871952921
 21
311.06831130843568
 31
0.0
  0
LINE
  5
1B48
  8
AM_0
 10
140.30037871952919
 20
303.34940730843567
 30
0.0
 11
140.30037871952919
 21
301.9866153084356
 31
0.0
  0
ARC
  5
1B49
  8
AM_0
 10
139.30038871952911
 20
302.72325030843569
 30
0.0
 40
1.0000000199999981
 50
179.99999
 51
270.0
  0
ARC
  5
1B4A
  8
AM_0
 10
139.30038871952911
 20
302.72325030843569
 30
0.0
 40
1.0000000199999981
 50
90.000003000000945
 51
180.00001
  0
LINE
  5
1B4B
  8
AM_0
 10
140.30037871952919
 20
293.33036430843572
 30
0.0
 11
140.30037871952919
 21
292.1189403084357
 31
0.0
  0
LINE
  5
1B4C
  8
AM_0
 10
136.8003687195291
 20
297.72324930843558
 30
0.0
 11
138.3003687195291
 21
297.85447530843561
 31
0.0
  0
LINE
  5
1B4D
  8
AM_0
 10
136.8003687195291
 20
295.00523130843573
 30
0.0
 11
138.3003687195291
 21
295.00523130843573
 31
0.0
  0
ARC
  5
1B4E
  8
AM_0
 10
139.30038871952911
 20
292.72324830843559
 30
0.0
 40
1.0000000199999981
 50
90.000003000000945
 51
180.00001
  0
ARC
  5
1B4F
  8
AM_0
 10
139.30038871952911
 20
292.72324830843559
 30
0.0
 40
1.0000000199999981
 50
179.99999
 51
270.0
  0
LINE
  5
1B56
  8
AM_0
 10
140.30037871952919
 20
262.11614730843559
 30
0.0
 11
140.30037871952919
 21
263.32749630843568
 31
0.0
  0
LINE
  5
1B57
  8
AM_0
 10
136.80042871952921
 20
257.72326230843561
 30
0.0
 11
138.3003687195291
 21
257.59202130843568
 31
0.0
  0
LINE
  5
1B58
  8
AM_0
 10
136.8003687195291
 20
260.4412053084356
 30
0.0
 11
138.3003687195291
 21
260.4412053084356
 31
0.0
  0
ARC
  5
1B59
  8
AM_0
 10
139.30038871952911
 20
262.72324830843559
 30
0.0
 40
1.0000000199999981
 50
179.99999
 51
270.0
  0
ARC
  5
1B5A
  8
AM_0
 10
139.30038871952911
 20
262.72324830843559
 30
0.0
 40
1.0000000199999981
 50
90.000003000000945
 51
180.00001
  0
LINE
  5
1B5B
  8
AM_0
 10
136.8003687195291
 20
262.57322430843573
 30
0.0
 11
140.0940687195291
 21
262.57322430843573
 31
0.0
  0
LINE
  5
1B5C
  8
AM_0
 10
136.8003687195291
 20
257.72326230843561
 30
0.0
 11
136.8003687195291
 21
266.72324830843581
 31
0.0
  0
LINE
  5
1B5D
  8
AM_0
 10
136.8003687195291
 20
297.72324930843558
 30
0.0
 11
136.8003687195291
 21
288.72324830843581
 31
0.0
  0
LINE
  5
1B5E
  8
AM_0
 10
142.30038871952911
 20
301.72324830843559
 30
0.0
 11
139.30038871952911
 21
301.72324830843559
 31
0.0
  0
LINE
  5
1B5F
  8
AM_0
 10
140.4507087195293
 20
311.46635130843561
 30
0.0
 11
142.30038871952911
 21
311.46635130843561
 31
0.0
  0
LINE
  5
1B60
  8
AM_0
 10
142.30038871952911
 20
303.72324930843558
 30
0.0
 11
139.30038871952911
 21
303.72324930843558
 31
0.0
  0
LINE
  5
1B62
  8
AM_0
 10
142.30038871952911
 20
293.72324730843559
 30
0.0
 11
139.30038871952911
 21
293.72324730843559
 31
0.0
  0
LINE
  5
1B63
  8
AM_0
 10
142.30038871952911
 20
291.72324930843558
 30
0.0
 11
139.30038871952911
 21
291.72324930843558
 31
0.0
  0
LINE
  5
1B67
  8
AM_0
 10
142.30038871952911
 20
253.7232483084357
 30
0.0
 11
139.30038871952911
 21
253.7232483084357
 31
0.0
  0
LINE
  5
1B68
  8
AM_0
 10
142.30038871952911
 20
261.72324630843571
 30
0.0
 11
139.30038871952911
 21
261.72324630843571
 31
0.0
  0
LINE
  5
1B69
  8
AM_0
 10
142.30038871952911
 20
263.72326230843572
 30
0.0
 11
139.30038871952911
 21
263.72326230843572
 31
0.0
  0
LINE
  5
1B6A
  8
AM_0
 10
136.8003687195291
 20
292.87327230843562
 30
0.0
 11
141.47787871952909
 21
292.87327230843562
 31
0.0
  0
LINE
  5
1B70
  8
AM_0
 10
160.30037871952919
 20
251.72326230843569
 30
0.0
 11
154.6657887195291
 21
251.72326230843569
 31
0.0
  0
POLYLINE
  5
1B71
  8
AM_0
 66
     1
 10
0.0
 20
0.0
 30
0.0
  0
VERTEX
  5
1B72
  8
AM_0
  6
CONTINUOUS
 10
156.16260871952929
 20
251.2362633084357
 30
0.0
  0
VERTEX
  5
1B73
  8
AM_0
  6
CONTINUOUS
 10
157.12308871952931
 20
244.3546713084356
 30
0.0
 42
-1.0
  0
SEQEND
  5
1B74
  8
AM_0
  0
ARC
  5
1B75
  8
AM_0
 10
153.9783087195292
 20
242.67808230843571
 30
0.0
 40
1.6779175200000001
 50
90.000003000000945
 51
270.0
  0
ARC
  5
1B76
  8
AM_0
 10
154.8497487195292
 20
242.72326230843569
 30
0.0
 40
1.0000000199999981
 50
90.000003000000945
 51
270.0
  0
LINE
  5
1B77
  8
AM_0
 10
153.76191871952909
 20
251.2370403084357
 30
0.0
 11
160.30037871952919
 21
251.2370403084357
 31
0.0
  0
ARC
  5
1B78
  8
AM_0
 10
142.30038871952911
 20
250.7232483084357
 30
0.0
 40
1.0000000199999981
 50
0.0
 51
90.000003000000945
  0
ARC
  5
1B79
  8
AM_0
 10
142.30038871952911
 20
236.7383223084357
 30
0.0
 40
1.0000000199999981
 50
334.63675999999958
 51
0.0
  0
ARC
  5
1B7A
  8
AM_0
 10
142.30038871952911
 20
244.98008430843561
 30
0.0
 40
1.0000000199999981
 50
270.0
 51
0.0
  0
ARC
  5
1B7B
  8
AM_0
 10
142.6003587195292
 20
241.3340403084357
 30
0.0
 40
0.7000000200000001
 50
0.0
 51
90.000003000000945
  0
ARC
  5
1B7C
  8
AM_0
 10
142.30038871952911
 20
232.2216153084357
 30
0.0
 40
1.0000000199999981
 50
270.0
 51
0.0
  0
LINE
  5
1B7D
  8
AM_0
 10
144.9984987195291
 20
234.5317803084356
 30
0.0
 11
151.22829871952931
 21
234.5317803084356
 31
0.0
  0
ARC
  5
1B7E
  8
AM_0
 10
142.30038871952911
 20
236.7383223084357
 30
0.0
 40
1.0000000199999981
 50
270.0
 51
0.0
  0
LINE
  5
1B80
  8
AM_0
 10
153.9783087195292
 20
244.35601530843559
 30
0.0
 11
161.30037871952919
 21
244.35601530843579
 31
0.0
  0
ARC
  5
1B81
  8
AM_0
 10
140.5716687195291
 20
236.7383223084357
 30
0.0
 40
1.0000000199999981
 50
239.64049999999929
 51
270.0
  0
ARC
  5
1B82
  8
AM_0
 10
140.50503871952921
 20
243.03399330843561
 30
0.0
 40
1.0000000199999981
 50
246.87297000000089
 51
270.0
  0
ARC
  5
1B83
  8
AM_0
 10
140.4507087195293
 20
244.98008430843561
 30
0.0
 40
1.0000000199999981
 50
252.90236999999971
 51
270.0
  0
LINE
  5
1B84
  8
AM_0
 10
140.30037871952919
 20
242.33036430843569
 30
0.0
 11
140.30037871952919
 21
243.3903153084357
 31
0.0
  0
ARC
  5
1B85
  8
AM_0
 10
139.30038871952911
 20
237.48301230843569
 30
0.0
 40
1.0000000199999981
 50
179.99999
 51
239.64048999999929
  0
ARC
  5
1B86
  8
AM_0
 10
139.30038871952911
 20
237.48301230843569
 30
0.0
 40
1.0000000199999981
 50
179.99999
 51
239.64048999999929
  0
LINE
  5
1B87
  8
AM_0
 10
138.79494871952929
 20
236.62011330843569
 30
0.0
 11
138.77133871952921
 21
236.63395230843571
 31
0.0
  0
ARC
  5
1B88
  8
AM_0
 10
139.30038871952911
 20
245.33397930843569
 30
0.0
 40
1.0000000199999981
 50
179.99999
 51
252.90236999999971
  0
ARC
  5
1B89
  8
AM_0
 10
139.30038871952911
 20
243.54851730843561
 30
0.0
 40
1.0000000199999981
 50
179.99999
 51
246.87298000000141
  0
LINE
  5
1B8A
  8
AM_0
 10
140.06625871952929
 20
235.87540830843571
 30
0.0
 11
138.79494871952929
 21
236.6200833084356
 31
0.0
  0
LINE
  5
1B8B
  8
AM_0
 10
140.11221871952921
 20
242.11436130843569
 30
0.0
 11
138.907568719529
 21
242.6288553084357
 31
0.0
  0
LINE
  5
1B8C
  8
AM_0
 10
140.15670871952921
 20
244.02430230843561
 30
0.0
 11
139.00638871952921
 21
244.37815530843571
 31
0.0
  0
ARC
  5
1B8D
  8
AM_0
 10
139.30038871952911
 20
252.72324630843571
 30
0.0
 40
1.0000000199999981
 50
179.99999
 51
270.0
  0
ARC
  5
1B8E
  8
AM_0
 10
140.59902871952929
 20
235.59830730843561
 30
0.0
 40
1.0000000199999981
 50
236.74527000000009
 51
270.0
  0
LINE
  5
1B8F
  8
AM_0
 10
140.30037871952919
 20
234.89280330843579
 30
0.0
 11
140.30037871952919
 21
235.36491030843561
 31
0.0
  0
ARC
  5
1B90
  8
AM_0
 10
140.57742871952919
 20
231.08160030843581
 30
0.0
 40
1.0000000199999981
 50
239.0333999999994
 51
270.0
  0
ARC
  5
1B91
  8
AM_0
 10
140.54904871952931
 20
232.2216153084357
 30
0.0
 40
1.0000000199999981
 50
242.07339999999951
 51
270.0
  0
LINE
  5
1B92
  8
AM_0
 10
140.30037871952919
 20
230.3267013084357
 30
0.0
 11
140.30037871952919
 21
230.87272230843561
 31
0.0
  0
ARC
  5
1B93
  8
AM_0
 10
139.30038871952911
 20
230.7491853084357
 30
0.0
 40
1.0000000199999981
 50
179.99999
 51
243.0887500000004
  0
ARC
  5
1B94
  8
AM_0
 10
139.30038871952911
 20
232.88346330843569
 30
0.0
 40
1.0000000199999981
 50
179.99999
 51
242.07341000000051
  0
ARC
  5
1B95
  8
AM_0
 10
139.30038871952911
 20
231.84789630843571
 30
0.0
 40
1.0000000199999981
 50
179.99999
 51
239.0333999999994
  0
LINE
  5
1B96
  8
AM_0
 10
140.062838719529
 20
230.22414630843559
 30
0.0
 11
138.78585871952919
 21
230.99041230843571
 31
0.0
  0
LINE
  5
1B97
  8
AM_0
 10
140.08071871952919
 20
231.3380553084356
 30
0.0
 11
138.83205871952919
 21
231.99991830843581
 31
0.0
  0
ARC
  5
1B98
  8
AM_0
 10
139.30038871952911
 20
236.44988430843571
 30
0.0
 40
1.0000000199999981
 50
179.99999
 51
236.7452799999993
  0
LINE
  5
1B99
  8
AM_0
 10
140.05062871952919
 20
234.76206630843569
 30
0.0
 11
138.75198871952921
 21
235.61362830843569
 31
0.0
  0
LINE
  5
1B9A
  8
AM_0
 10
142.30038871952911
 20
251.72326230843569
 30
0.0
 11
139.30038871952911
 21
251.72326230843569
 31
0.0
  0
LINE
  5
1B9B
  8
AM_0
 10
140.59902871952929
 20
234.59832330843571
 30
0.0
 11
143.30037871952919
 21
234.59832330843571
 31
0.0
  0
LINE
  5
1B9C
  8
AM_0
 10
140.5716687195291
 20
235.73833830843569
 30
0.0
 11
142.30038871952911
 21
235.73833830843569
 31
0.0
  0
LINE
  5
1B9D
  8
AM_0
 10
140.50503871952921
 20
242.0339763084356
 30
0.0
 11
142.6003587195292
 21
242.0339763084356
 31
0.0
  0
LINE
  5
1B9E
  8
AM_0
 10
140.4507087195293
 20
243.98009730843569
 30
0.0
 11
142.30038871952911
 21
243.98009730843569
 31
0.0
  0
LINE
  5
1B9F
  8
AM_0
 10
140.57742871952919
 20
230.08158330843571
 30
0.0
 11
143.30037871952919
 21
230.08158330843571
 31
0.0
  0
LINE
  5
1BA0
  8
AM_0
 10
140.54904871952931
 20
231.22159830843569
 30
0.0
 11
142.30038871952911
 21
231.22159830843569
 31
0.0
  0
ARC
  5
1BA1
  8
AM_0
 10
153.76191871952909
 20
252.6985293084357
 30
0.0
 40
1.4615021100000001
 50
90.000003000000945
 51
270.0
  0
LINE
  5
1BA2
  8
AM_0
 10
140.30037871952919
 20
252.09702630843569
 30
0.0
 11
140.30037871952919
 21
253.45988130843571
 31
0.0
  0
ARC
  5
1BA3
  8
AM_0
 10
154.8497487195292
 20
252.72324630843571
 30
0.0
 40
1.0000000199999981
 50
90.000003000000945
 51
270.0
  0
ARC
  5
1BA5
  8
AM_0
 10
139.30038871952911
 20
252.72324630843571
 30
0.0
 40
1.0000000199999981
 50
90.000003000000945
 51
180.00001
  0
LINE
  5
1BA7
  8
AM_0
 10
138.3003687195291
 20
229.70684430843559
 30
0.0
 11
138.3003687195291
 21
266.72324830843581
 31
0.0
  0
ARC
  5
1BA8
  8
AM_0
 10
189.3003687195291
 20
334.85289330843568
 30
0.0
 40
2.00000007
 50
0.0
 51
90.000003000000945
  0
ARC
  5
1BA9
  8
AM_0
 10
189.3003687195291
 20
336.70059330843571
 30
0.0
 40
2.00000007
 50
0.0
 51
90.000003000000945
  0
ARC
  5
1BAA
  8
AM_0
 10
189.3003687195291
 20
337.61112330843571
 30
0.0
 40
2.00000007
 50
0.0
 51
90.000003000000945
  0
LINE
  5
1BAB
  8
AM_0
 10
191.30037871952919
 20
337.61112330843571
 30
0.0
 11
191.30037871952919
 21
334.0065033084357
 31
0.0
  0
ARC
  5
1BAC
  8
AM_0
 10
155.5068087195292
 20
332.0065233084357
 30
0.0
 40
2.00000007
 50
90.000003000000945
 51
169.28430999999981
  0
ARC
  5
1BAD
  8
AM_0
 10
155.5553787195293
 20
334.85289330843568
 30
0.0
 40
2.00000007
 50
90.000003000000945
 51
170.91502999999969
  0
ARC
  5
1BAE
  8
AM_0
 10
155.56875871952931
 20
336.70059330843571
 30
0.0
 40
2.00000007
 50
90.000003000000945
 51
171.35660999999999
  0
ARC
  5
1BAF
  8
AM_0
 10
155.5900587195292
 20
337.61112330843571
 30
0.0
 40
2.00000007
 50
90.000003000000945
 51
172.05596
  0
LINE
  5
1BB0
  8
AM_0
 10
152.30037871952919
 20
327.16350330843568
 30
0.0
 11
153.58041871952921
 21
335.16864330843572
 31
0.0
  0
LINE
  5
1BB1
  8
AM_0
 10
152.30037871952919
 20
328.50810330843569
 30
0.0
 11
153.5913987195292
 21
337.00116330843559
 31
0.0
  0
LINE
  5
1BB2
  8
AM_0
 10
152.30037871952919
 20
328.50810330843569
 30
0.0
 11
153.60921871952931
 21
337.8875133084357
 31
0.0
  0
LINE
  5
1BB3
  8
AM_0
 10
152.30037871952919
 20
325.8189633084358
 30
0.0
 11
153.54165871952929
 21
332.37837330843558
 31
0.0
  0
LINE
  5
1BB4
  8
AM_0
 10
143.30037871952919
 20
327.7232433084356
 30
0.0
 11
144.3003687195291
 21
327.7232433084356
 31
0.0
  0
ARC
  5
1BB5
  8
AM_0
 10
142.8003687195291
 20
325.82634330843581
 30
0.0
 40
0.5000000100000001
 50
0.0
 51
90.000003000000945
  0
ARC
  5
1BB6
  8
AM_0
 10
142.8003687195291
 20
327.97263330843572
 30
0.0
 40
0.5000000100000001
 50
270.0
 51
0.0
  0
LINE
  5
1BB7
  8
AM_0
 10
144.3003687195291
 20
330.72324330843571
 30
0.0
 11
152.30037871952919
 21
330.72324330843571
 31
0.0
  0
ARC
  5
1BB8
  8
AM_0
 10
140.56857871952911
 20
326.47263330843572
 30
0.0
 40
1.0000000199999981
 50
90.000003000000945
 51
120.0263999999997
  0
ARC
  5
1BB9
  8
AM_0
 10
140.53962871952919
 20
325.32633330843572
 30
0.0
 40
1.0000000199999981
 50
90.000003000000945
 51
116.911259999999
  0
ARC
  5
1BBA
  8
AM_0
 10
140.57742871952919
 20
324.36486330843559
 30
0.0
 40
1.0000000199999981
 50
90.000003000000945
 51
120.9666000000004
  0
ARC
  5
1BBB
  8
AM_0
 10
140.54904871952931
 20
323.2248933084357
 30
0.0
 40
1.0000000199999981
 50
90.000003000000945
 51
117.92660000000041
  0
LINE
  5
1BBC
  8
AM_0
 10
140.30037871952919
 20
325.11978330843567
 30
0.0
 11
140.30037871952919
 21
324.57372330843572
 31
0.0
  0
LINE
  5
1BBD
  8
AM_0
 10
140.30037871952919
 20
327.21939330843571
 30
0.0
 11
140.30037871952919
 21
326.6936433084357
 31
0.0
  0
ARC
  5
1BBE
  8
AM_0
 10
139.30038871952911
 20
325.73961330843582
 30
0.0
 40
1.0000000199999981
 50
120.0263999999997
 51
180.00001
  0
ARC
  5
1BBF
  8
AM_0
 10
139.30038871952911
 20
324.69732330843573
 30
0.0
 40
1.0000000199999981
 50
116.911259999999
 51
180.00001
  0
LINE
  5
1BC0
  8
AM_0
 10
140.06820871952931
 20
327.3383433084357
 30
0.0
 11
138.80001871952911
 21
326.60538330843559
 31
0.0
  0
LINE
  5
1BC1
  8
AM_0
 10
140.062838719529
 20
325.22235330843569
 30
0.0
 11
138.7857987195292
 21
324.45606330843572
 31
0.0
  0
LINE
  5
1BC2
  8
AM_0
 10
140.08704871952929
 20
326.21808330843572
 30
0.0
 11
138.84774871952911
 21
325.58907330843567
 31
0.0
  0
LINE
  5
1BC3
  8
AM_0
 10
140.56857871952911
 20
327.47265330843572
 30
0.0
 11
142.8003687195291
 21
327.47265330843572
 31
0.0
  0
LINE
  5
1BC4
  8
AM_0
 10
140.57742871952919
 20
325.36485330843573
 30
0.0
 11
143.30037871952919
 21
325.36485330843573
 31
0.0
  0
LINE
  5
1BC5
  8
AM_0
 10
140.54904871952931
 20
324.22488330843572
 30
0.0
 11
142.30038871952911
 21
324.22488330843572
 31
0.0
  0
LINE
  5
1BC6
  8
AM_0
 10
140.53962871952919
 20
326.32632330843569
 30
0.0
 11
142.8003687195291
 21
326.32632330843569
 31
0.0
  0
ARC
  5
1BC9
  8
AM_0
 10
142.30038871952911
 20
318.70818330843571
 30
0.0
 40
1.0000000199999981
 50
0.0
 51
90.000003000000945
  0
ARC
  5
1BCA
  8
AM_0
 10
142.6003587195292
 20
314.11248330843569
 30
0.0
 40
0.7000000200000001
 50
270.0
 51
0.0
  0
LINE
  5
1BCB
  8
AM_0
 10
144.9984987195291
 20
320.91465330843562
 30
0.0
 11
151.22829871952931
 21
320.91465330843562
 31
0.0
  0
ARC
  5
1BCC
  8
AM_0
 10
140.59902871952929
 20
319.84812330843567
 30
0.0
 40
1.0000000199999981
 50
90.000003000000945
 51
123.2547299999999
  0
ARC
  5
1BCD
  8
AM_0
 10
140.5716687195291
 20
318.70818330843571
 30
0.0
 40
1.0000000199999981
 50
90.000003000000945
 51
120.35950000000059
  0
LINE
  5
1BCE
  8
AM_0
 10
140.30037871952919
 20
320.55369330843558
 30
0.0
 11
140.30037871952919
 21
320.08152330843558
 31
0.0
  0
ARC
  5
1BCF
  8
AM_0
 10
140.50503871952921
 20
312.41245830843559
 30
0.0
 40
1.0000000199999981
 50
90.000003000000945
 51
113.127029999999
  0
ARC
  5
1BD0
  8
AM_0
 10
139.30038871952911
 20
322.56297330843557
 30
0.0
 40
1.0000000199999981
 50
117.92660000000041
 51
180.00001
  0
ARC
  5
1BD1
  8
AM_0
 10
139.30038871952911
 20
317.9634933084356
 30
0.0
 40
1.0000000199999981
 50
120.35950000000059
 51
180.00001
  0
ARC
  5
1BD2
  8
AM_0
 10
139.30038871952911
 20
318.9965733084357
 30
0.0
 40
1.0000000199999981
 50
123.2547299999999
 51
180.00001
  0
LINE
  5
1BD3
  8
AM_0
 10
140.05062871952919
 20
320.68440330843572
 30
0.0
 11
138.75198871952921
 21
319.83282330843571
 31
0.0
  0
LINE
  5
1BD4
  8
AM_0
 10
140.06625871952929
 20
319.57104330843572
 30
0.0
 11
138.79494871952929
 21
318.82635330843573
 31
0.0
  0
LINE
  5
1BD5
  8
AM_0
 10
140.59902871952929
 20
320.84811330843559
 30
0.0
 11
143.30037871952919
 21
320.84811330843559
 31
0.0
  0
LINE
  5
1BD6
  8
AM_0
 10
140.5716687195291
 20
319.70817330843568
 30
0.0
 11
142.30038871952911
 21
319.70817330843568
 31
0.0
  0
LINE
  5
1BD7
  8
AM_0
 10
140.50503871952921
 20
313.41245730843571
 30
0.0
 11
142.6003587195292
 21
313.41245730843571
 31
0.0
  0
ARC
  5
1BD8
  8
AM_0
 10
142.30038871952911
 20
323.2248933084357
 30
0.0
 40
1.0000000199999981
 50
0.0
 51
90.000003000000945
  0
LINE
  5
1BD9
  8
AM_0
 10
157.6657887195291
 20
314.37444330843579
 30
0.0
 11
152.30037871952919
 21
325.81893330843559
 31
0.0
  0
ARC
  5
1BDA
  8
AM_0
 10
139.30038871952911
 20
323.59854330843558
 30
0.0
 40
1.0000000199999981
 50
120.9666000000004
 51
180.00001
  0
LINE
  5
1BDB
  8
AM_0
 10
140.08071871952919
 20
324.10839330843572
 30
0.0
 11
138.83205871952919
 21
323.44650330843569
 31
0.0
  0
LINE
  5
1BDC
  8
AM_0
 10
155.5553787195293
 20
336.85290330843583
 30
0.0
 11
189.3003687195291
 21
336.85290330843583
 31
0.0
  0
LINE
  5
1BDD
  8
AM_0
 10
155.56875871952931
 20
338.70060330843569
 30
0.0
 11
189.3003687195291
 21
338.70060330843569
 31
0.0
  0
LINE
  5
1BDE
  8
AM_0
 10
155.5900587195292
 20
339.61113330843568
 30
0.0
 11
189.3003687195291
 21
339.61113330843568
 31
0.0
  0
ARC
  5
1BE6
  8
AM_0
 10
257.12247871952928
 20
312.76835430843562
 30
0.0
 40
1.6779127499999991
 50
276.08620038401921
 51
83.913799615980722
  0
LINE
  5
1BE8
  8
ﾁｭｳｼﾝｾﾝ
 10
209.30037871952919
 20
328.72324830843559
 30
0.0
 11
209.30037871952919
 21
226.72324830843559
 31
0.0
  0
LINE
  5
1BEB
  8
AM_0
 10
260.30037871952931
 20
333.72324330843571
 30
0.0
 11
260.30037871952931
 21
221.72326230843569
 31
0.0
  0
LINE
  5
1BF8
  8
AM_0
 10
258.80037871952931
 20
239.50020930843559
 30
0.0
 11
254.35836871952921
 21
222.92234430843561
 31
0.0
  0
LINE
  5
1BF9
  8
AM_0
 10
260.30037871952931
 20
221.72326230843569
 30
0.0
 11
268.30038871952911
 21
221.72326230843569
 31
0.0
  0
LINE
  5
1BFA
  8
AM_0
 10
254.8409187195291
 20
224.72326230843569
 30
0.0
 11
260.30037871952931
 21
224.72326230843569
 31
0.0
  0
ARC
  5
1BFB
  8
AM_0
 10
252.42654871952931
 20
223.4399823084357
 30
0.0
 40
2.00000007
 50
270.0
 51
345.0000000000004
  0
LINE
  5
1C09
  8
AM_0
 10
260.30037871952931
 20
309.66068730843563
 30
0.0
 11
268.30038871952911
 21
309.66068730843563
 31
0.0
  0
LINE
  5
1C0A
  8
AM_0
 10
260.30037871952931
 20
245.7858093084356
 30
0.0
 11
268.30038871952911
 21
245.7858093084356
 31
0.0
  0
LINE
  5
1C0B
  8
AM_0
 10
260.30037871952931
 20
231.72324630843559
 30
0.0
 11
268.30038871952911
 21
231.72324630843559
 31
0.0
  0
ARC
  5
1C15
  8
AM_0
 10
257.12247871952928
 20
242.67808230843571
 30
0.0
 40
1.6779127499999991
 50
276.08620038402319
 51
83.913799615976757
  0
LINE
  5
1C4A
  8
AM_0
 10
260.30037871952931
 20
333.72324330843571
 30
0.0
 11
268.30038871952911
 21
333.72324330843571
 31
0.0
  0
LINE
  5
1C4B
  8
AM_0
 10
260.30037871952931
 20
323.72325330843569
 30
0.0
 11
268.30038871952911
 21
323.72325330843569
 31
0.0
  0
LINE
  5
1C4C
  8
AM_0
 10
254.8409187195291
 20
330.72324330843571
 30
0.0
 11
260.30037871952931
 21
330.72324330843571
 31
0.0
  0
ARC
  5
1C4D
  8
AM_0
 10
252.42654871952931
 20
332.0065233084357
 30
0.0
 40
2.00000007
 50
14.999999999999609
 51
90.000003000000945
  0
ARC
  5
1C4E
  8
AM_0
 10
259.95138871952929
 20
317.44626330843562
 30
0.0
 40
1.5000000299999989
 50
195.0000100000002
 51
270.0
  0
LINE
  5
1C4F
  8
AM_0
 10
258.50253871952918
 20
317.05806330843581
 30
0.0
 11
254.35836871952921
 21
332.52414330843573
 31
0.0
  0
LINE
  5
2376
  8
AM_0
 10
253.30037871952939
 20
231.72324830843559
 30
0.0
 11
165.30037871952919
 21
231.72324830843559
 31
0.0
  0
ARC
  5
2377
  8
AM_0
 10
183.37144653139461
 20
236.72324830843559
 30
0.0
 40
5.0
 50
225.0
 51
270.0
1001
GENIUS_GENOBJ-N-FIL_13
1002
{
1000
OWNER
1000
GEN
1002
}
1001
GENIUS_GENODEF_13
1002
{
1000
HIER
1070
     0
1002
}
1002
{
1000
MANEDIT
1070
     0
1002
}
1002
{
1000
NOSEL
1070
     0
1002
}
1002
{
1000
BEHIND
1070
     0
1002
}
1002
{
1000
OTHER
1070
     0
1002
}
1002
{
1000
REACTOR
1002
}
  0
LINE
  5
2378
  8
AM_0
 10
234.57245665817149
 20
236.72324830843559
 30
0.0
 11
184.02830078088701
 21
236.72324830843559
 31
0.0
  0
ARC
  5
2379
  8
AM_0
 10
234.57245665817149
 20
241.72324830843559
 30
0.0
 40
5.0
 50
270.0
 51
315.0
1001
GENIUS_GENOBJ-N-FIL_13
1002
{
1000
OWNER
1000
GEN
1002
}
1001
GENIUS_GENODEF_13
1002
{
1000
HIER
1070
     0
1002
}
1002
{
1000
MANEDIT
1070
     0
1002
}
1002
{
1000
NOSEL
1070
     0
1002
}
1002
{
1000
BEHIND
1070
     0
1002
}
1002
{
1000
OTHER
1070
     0
1002
}
1002
{
1000
REACTOR
1002
}
  0
ARC
  5
237A
  8
AM_0
 10
253.30037871952939
 20
235.72324830843559
 30
0.0
 40
4.0
 50
270.0
 51
0.0
1001
GENIUS_GENOBJ-N-FIL_13
1002
{
1000
OWNER
1000
GEN
1002
}
1001
GENIUS_GENODEF_13
1002
{
1000
HIER
1070
     0
1002
}
1002
{
1000
MANEDIT
1070
     0
1002
}
1002
{
1000
NOSEL
1070
     0
1002
}
1002
{
1000
BEHIND
1070
     0
1002
}
1002
{
1000
OTHER
1070
     0
1002
}
1002
{
1000
REACTOR
1002
}
  0
LINE
  5
237B
  8
AM_0
 10
253.30037871952911
 20
323.72324830843581
 30
0.0
 11
165.30037871952919
 21
323.72324830843581
 31
0.0
  0
ARC
  5
237C
  8
AM_0
 10
235.22931090766369
 20
318.72324830843581
 30
0.0
 40
5.0
 50
45.0
 51
90.0
1001
GENIUS_GENOBJ-N-FIL_13
1002
{
1000
OWNER
1000
GEN
1002
}
1001
GENIUS_GENODEF_13
1002
{
1000
HIER
1070
     0
1002
}
1002
{
1000
MANEDIT
1070
     0
1002
}
1002
{
1000
NOSEL
1070
     0
1002
}
1002
{
1000
BEHIND
1070
     0
1002
}
1002
{
1000
OTHER
1070
     0
1002
}
1002
{
1000
REACTOR
1002
}
  0
ARC
  5
237D
  8
AM_0
 10
183.37144653139489
 20
318.72324830843581
 30
0.0
 40
5.0
 50
90.0
 51
135.0
1001
GENIUS_GENODEF_13
1002
{
1000
HIER
1070
     0
1002
}
1002
{
1000
MANEDIT
1070
     0
1002
}
1002
{
1000
NOSEL
1070
     0
1002
}
1002
{
1000
BEHIND
1070
     0
1002
}
1002
{
1000
OTHER
1070
     0
1002
}
1002
{
1000
REACTOR
1002
}
1001
GENIUS_GENOBJ-N-FIL_13
1002
{
1000
OWNER
1000
GEN
1002
}
  0
LINE
  5
237E
  8
AM_0
 10
234.57245665817149
 20
318.72324830843581
 30
0.0
 11
184.02830078088709
 21
318.72324830843581
 31
0.0
  0
ARC
  5
237F
  8
AM_0
 10
184.02830078088709
 20
313.72324830843581
 30
0.0
 40
5.0
 50
90.0
 51
135.0
1001
GENIUS_GENODEF_13
1002
{
1000
HIER
1070
     0
1002
}
1002
{
1000
MANEDIT
1070
     0
1002
}
1002
{
1000
NOSEL
1070
     0
1002
}
1002
{
1000
BEHIND
1070
     0
1002
}
1002
{
1000
OTHER
1070
     0
1002
}
1002
{
1000
REACTOR
1002
}
1001
GENIUS_GENOBJ-N-FIL_13
1002
{
1000
OWNER
1000
GEN
1002
}
  0
ARC
  5
2380
  8
AM_0
 10
165.30037871952919
 20
319.72324830843581
 30
0.0
 40
4.0
 50
90.0
 51
180.0
1001
GENIUS_GENODEF_13
1002
{
1000
HIER
1070
     0
1002
}
1002
{
1000
MANEDIT
1070
     0
1002
}
1002
{
1000
NOSEL
1070
     0
1002
}
1002
{
1000
BEHIND
1070
     0
1002
}
1002
{
1000
OTHER
1070
     0
1002
}
1002
{
1000
REACTOR
1002
}
1001
GENIUS_GENOBJ-N-FIL_13
1002
{
1000
OWNER
1000
GEN
1002
}
  0
LINE
  5
2382
  8
AM_0
 10
161.30037871952919
 20
319.72324830843581
 30
0.0
 11
161.30037871952919
 21
235.72324830843559
 31
0.0
  0
ARC
  5
2383
  8
AM_0
 10
166.30037871952919
 20
253.79431612030089
 30
0.0
 40
5.0
 50
180.0
 51
225.0
1001
GENIUS_GENOBJ-N-FIL_13
1002
{
1000
OWNER
1000
GEN
1002
}
1001
GENIUS_GENODEF_13
1002
{
1000
HIER
1070
     0
1002
}
1002
{
1000
MANEDIT
1070
     0
1002
}
1002
{
1000
NOSEL
1070
     0
1002
}
1002
{
1000
BEHIND
1070
     0
1002
}
1002
{
1000
OTHER
1070
     0
1002
}
1002
{
1000
REACTOR
1002
}
  0
ARC
  5
2384
  8
AM_0
 10
166.30037871952919
 20
301.65218049657051
 30
0.0
 40
5.0
 50
135.0
 51
180.0
1001
GENIUS_GENOBJ-N-FIL_13
1002
{
1000
OWNER
1000
GEN
1002
}
1001
GENIUS_GENODEF_13
1002
{
1000
HIER
1070
     0
1002
}
1002
{
1000
MANEDIT
1070
     0
1002
}
1002
{
1000
NOSEL
1070
     0
1002
}
1002
{
1000
BEHIND
1070
     0
1002
}
1002
{
1000
OTHER
1070
     0
1002
}
1002
{
1000
REACTOR
1002
}
  0
LINE
  5
2385
  8
AM_0
 10
166.30037871952919
 20
300.99532624707803
 30
0.0
 11
166.30037871952911
 21
254.45117036979329
 31
0.0
  0
ARC
  5
2386
  8
AM_0
 10
171.30037871952911
 20
254.45117036979329
 30
0.0
 40
5.0
 50
180.0
 51
225.0
1001
GENIUS_GENOBJ-N-FIL_13
1002
{
1000
OWNER
1000
GEN
1002
}
1001
GENIUS_GENODEF_13
1002
{
1000
HIER
1070
     0
1002
}
1002
{
1000
MANEDIT
1070
     0
1002
}
1002
{
1000
NOSEL
1070
     0
1002
}
1002
{
1000
BEHIND
1070
     0
1002
}
1002
{
1000
OTHER
1070
     0
1002
}
1002
{
1000
REACTOR
1002
}
  0
ARC
  5
2387
  8
AM_0
 10
165.30037871952919
 20
235.72324830843559
 30
0.0
 40
4.0
 50
180.0
 51
270.0
1001
GENIUS_GENODEF_13
1002
{
1000
HIER
1070
     0
1002
}
1002
{
1000
MANEDIT
1070
     0
1002
}
1002
{
1000
NOSEL
1070
     0
1002
}
1002
{
1000
BEHIND
1070
     0
1002
}
1002
{
1000
OTHER
1070
     0
1002
}
1002
{
1000
REACTOR
1002
}
1001
GENIUS_GENOBJ-N-FIL_13
1002
{
1000
OWNER
1000
GEN
1002
}
  0
LINE
  5
2388
  8
AM_0
 10
257.30037871952919
 20
319.72324830843581
 30
0.0
 11
257.30037871952942
 21
235.72324830843559
 31
0.0
  0
ARC
  5
2389
  8
AM_0
 10
252.30037871952931
 20
301.65218049657022
 30
0.0
 40
5.0
 50
0.0
 51
45.0
1001
GENIUS_GENOBJ-N-FIL_13
1002
{
1000
OWNER
1000
GEN
1002
}
1001
GENIUS_GENODEF_13
1002
{
1000
HIER
1070
     0
1002
}
1002
{
1000
MANEDIT
1070
     0
1002
}
1002
{
1000
NOSEL
1070
     0
1002
}
1002
{
1000
BEHIND
1070
     0
1002
}
1002
{
1000
OTHER
1070
     0
1002
}
1002
{
1000
REACTOR
1002
}
  0
ARC
  5
238A
  8
AM_0
 10
252.30037871952931
 20
253.79431612030109
 30
0.0
 40
5.0
 50
315.0
 51
0.0
1001
GENIUS_GENOBJ-N-FIL_13
1002
{
1000
OWNER
1000
GEN
1002
}
1001
GENIUS_GENODEF_13
1002
{
1000
HIER
1070
     0
1002
}
1002
{
1000
MANEDIT
1070
     0
1002
}
1002
{
1000
NOSEL
1070
     0
1002
}
1002
{
1000
BEHIND
1070
     0
1002
}
1002
{
1000
OTHER
1070
     0
1002
}
1002
{
1000
REACTOR
1002
}
  0
LINE
  5
238B
  8
AM_0
 10
238.76484481359651
 20
322.25878221436841
 30
0.0
 11
255.83591262546199
 21
305.1877144025031
 31
0.0
  0
LINE
  5
238C
  8
AM_0
 10
238.107990564104
 20
317.25878221436852
 30
0.0
 11
250.8359126254617
 21
304.53086015301091
 31
0.0
  0
ARC
  5
238D
  8
AM_0
 10
234.57245665817149
 20
313.72324830843581
 30
0.0
 40
5.0
 50
45.0
 51
90.0
1001
GENIUS_GENOBJ-N-FIL_13
1002
{
1000
OWNER
1000
GEN
1002
}
1001
GENIUS_GENODEF_13
1002
{
1000
HIER
1070
     0
1002
}
1002
{
1000
MANEDIT
1070
     0
1002
}
1002
{
1000
NOSEL
1070
     0
1002
}
1002
{
1000
BEHIND
1070
     0
1002
}
1002
{
1000
OTHER
1070
     0
1002
}
1002
{
1000
REACTOR
1002
}
  0
LINE
  5
238E
  8
AM_0
 10
252.30037871952911
 20
300.99532624707808
 30
0.0
 11
252.30037871952931
 21
254.45117036979329
 31
0.0
  0
ARC
  5
238F
  8
AM_0
 10
247.30037871952911
 20
300.99532624707808
 30
0.0
 40
5.0
 50
0.0
 51
45.0
1001
GENIUS_GENODEF_13
1002
{
1000
HIER
1070
     0
1002
}
1002
{
1000
MANEDIT
1070
     0
1002
}
1002
{
1000
NOSEL
1070
     0
1002
}
1002
{
1000
BEHIND
1070
     0
1002
}
1002
{
1000
OTHER
1070
     0
1002
}
1002
{
1000
REACTOR
1002
}
1001
GENIUS_GENOBJ-N-FIL_13
1002
{
1000
OWNER
1000
GEN
1002
}
  0
ARC
  5
2390
  8
AM_0
 10
253.30037871952911
 20
319.72324830843581
 30
0.0
 40
4.0
 50
0.0
 51
90.0
1001
GENIUS_GENODEF_13
1002
{
1000
HIER
1070
     0
1002
}
1002
{
1000
MANEDIT
1070
     0
1002
}
1002
{
1000
NOSEL
1070
     0
1002
}
1002
{
1000
BEHIND
1070
     0
1002
}
1002
{
1000
OTHER
1070
     0
1002
}
1002
{
1000
REACTOR
1002
}
1001
GENIUS_GENOBJ-N-FIL_13
1002
{
1000
OWNER
1000
GEN
1002
}
  0
LINE
  5
2392
  8
ﾁｭｳｼﾝｾﾝ1
 10
252.3003787195307
 20
312.72324830843542
 30
0.0
 11
252.30037871953141
 21
324.72324830843542
 31
0.0
  0
LINE
  5
2393
  8
ﾁｭｳｼﾝｾﾝ1
 10
258.30037871953112
 20
318.72324830843507
 30
0.0
 11
246.3003787195311
 21
318.72324830843581
 31
0.0
  0
LINE
  5
2398
  8
AM_0
 10
157.80037871952919
 20
291.22324830843581
 30
0.0
 11
160.30037871952911
 21
291.22324830843593
 31
0.0
  0
LINE
  5
2399
  8
AM_0
 10
160.30037871952919
 20
264.22324830843581
 30
0.0
 11
157.80037871952919
 21
264.22324830843581
 31
0.0
  0
LINE
  5
239A
  8
AM_0
 10
146.9017076231832
 20
267.22324830843581
 30
0.0
 11
146.9017076231832
 21
288.22324830843581
 31
0.0
  0
LINE
  5
239B
  8
AM_0
 10
131.9017076231832
 20
285.75487336245078
 30
0.0
 11
131.9017076231832
 21
269.69162325441988
 31
0.0
  0
LINE
  5
239C
  8
AM_0
 10
144.9017076231832
 20
265.72324830843581
 30
0.0
 11
144.9017076231832
 21
289.72324830843581
 31
0.0
  0
LINE
  5
239D
  8
AM_0
 10
135.4017076231832
 20
277.72324830843581
 30
0.0
 11
135.9017076231832
 21
277.22324830843581
 31
0.0
  0
LINE
  5
239E
  8
AM_0
 10
142.4017076231832
 20
289.42324830843569
 30
0.0
 11
142.4017076231832
 21
266.02324830843588
 31
0.0
  0
LINE
  5
239F
  8
AM_0
 10
152.30037871952919
 20
289.22324830843581
 30
0.0
 11
152.30037871952919
 21
266.22324830843581
 31
0.0
  0
LINE
  5
23A0
  8
AM_0
 10
146.4017076231832
 20
277.02324830843378
 30
0.0
 11
146.4017076231832
 21
278.42324830843683
 31
0.0
  0
LINE
  5
23A1
  8
AM_0
 10
148.50134334975431
 20
268.62324830843568
 30
0.0
 11
147.75134334975519
 21
286.82324830843589
 31
0.0
  0
LINE
  5
23A2
  8
AM_0
 10
147.55037871952919
 20
268.62324830843568
 30
0.0
 11
146.9017076231832
 21
284.36433357975181
 31
0.0
  0
LINE
  5
23A3
  8
AM_0
 10
148.2990713101012
 20
267.90758959607172
 30
0.0
 11
147.55181126669319
 21
287.53562006960283
 31
0.0
  0
LINE
  5
23A4
  8
AM_0
 10
147.74991080259119
 20
267.91087654726778
 30
0.0
 11
147.00134334975519
 21
287.57324830843572
 31
0.0
  0
LINE
  5
23A5
  8
AM_0
 10
144.9017076231832
 20
289.72324830843581
 30
0.0
 11
142.70170762318321
 21
289.72324830843581
 31
0.0
  0
ARC
  5
23A6
  8
AM_0
 10
156.80037871952931
 20
290.22324830843581
 30
0.0
 40
0.5
 50
269.99999999998693
 51
0.0
  0
ARC
  5
23A7
  8
AM_0
 10
157.80037871952931
 20
290.72324830843581
 30
0.0
 40
0.5
 50
90.0
 51
180.0
  0
LINE
  5
23A8
  8
AM_0
 10
157.30037871952919
 20
290.22324830843581
 30
0.0
 11
157.30037871952919
 21
290.72324830843581
 31
0.0
  0
LINE
  5
23A9
  8
AM_0
 10
148.30037871952919
 20
286.82324830843589
 30
0.0
 11
151.80037871952919
 21
286.82324830843572
 31
0.0
  0
LINE
  5
23AA
  8
AM_0
 10
157.30037871952919
 20
288.57931962984281
 30
0.0
 11
157.30037871952919
 21
278.86717698702768
 31
0.0
  0
LINE
  5
23AB
  8
AM_0
 10
152.80037871952919
 20
289.72324830843581
 30
0.0
 11
156.80037871952911
 21
289.72324830843581
 31
0.0
  0
LINE
  5
23AC
  8
AM_0
 10
156.80037871952919
 20
289.07931962984281
 30
0.0
 11
152.30037871952919
 21
289.07931962984281
 31
0.0
  0
ARC
  5
23AD
  8
AM_0
 10
156.80037871952931
 20
288.57931962984281
 30
0.0
 40
0.5
 50
0.0
 51
90.0
  0
ARC
  5
23AE
  8
AM_0
 10
151.80037871952919
 20
287.32324830843572
 30
0.0
 40
0.5
 50
270.0
 51
0.0
  0
ARC
  5
23AF
  8
AM_0
 10
152.80037871952919
 20
289.22324830843581
 30
0.0
 40
0.5
 50
90.0
 51
180.0
  0
LINE
  5
23B0
  8
AM_0
 10
156.80037871952919
 20
278.36717698702768
 30
0.0
 11
152.30037871952919
 21
278.36717698702768
 31
0.0
  0
ARC
  5
23B1
  8
AM_0
 10
156.80037871952919
 20
278.86717698702768
 30
0.0
 40
0.5
 50
270.0
 51
0.0
  0
LINE
  5
23B2
  8
AM_0
 10
146.4017076231832
 20
283.86841906072777
 30
0.0
 11
146.4017076231832
 21
282.69617587429479
 31
0.0
  0
LINE
  5
23B3
  8
AM_0
 10
147.82807577818011
 20
286.82324830843589
 30
0.0
 11
148.30037871952919
 21
286.82324830843589
 31
0.0
  0
LINE
  5
23B4
  8
AM_0
 10
147.7314832836409
 20
286.89736607517239
 30
0.0
 11
147.75134334975519
 21
286.82324830843589
 31
0.0
  0
ARC
  5
23B5
  8
AM_0
 10
147.82807577818031
 20
286.9232483084358
 30
0.0
 40
0.1000000000000346
 50
195.00019500644461
 51
270.0
  0
ARC
  5
23B6
  8
AM_0
 10
146.1017076231833
 20
287.0100812889437
 30
0.0
 40
0.3000000000000043
 50
270.0
 51
0.0
  0
LINE
  5
23B7
  8
AM_0
 10
144.9017076231832
 20
289.12324830843568
 30
0.0
 11
146.1216633263403
 21
289.0419179282249
 31
0.0
  0
LINE
  5
23B8
  8
AM_0
 10
144.9017076231832
 20
287.96699627259568
 30
0.0
 11
146.1017076231833
 21
287.96699627259568
 31
0.0
  0
LINE
  5
23B9
  8
AM_0
 10
146.4017076231832
 20
288.72324830843581
 30
0.0
 11
144.9017076231832
 21
288.72324830843581
 31
0.0
  0
ARC
  5
23BA
  8
AM_0
 10
146.4017076231832
 20
288.22324830843581
 30
0.0
 40
0.5
 50
0.0
 51
90.0
  0
LINE
  5
23BB
  8
AM_0
 10
146.4017076231832
 20
288.74258238086782
 30
0.0
 11
146.4017076231832
 21
288.72324830843581
 31
0.0
  0
LINE
  5
23BC
  8
AM_0
 10
146.4017076231832
 20
289.02324830843571
 30
0.0
 11
146.4017076231832
 21
288.74258238086782
 31
0.0
  0
LINE
  5
23BD
  8
AM_0
 10
146.1216633263403
 20
289.0419179282249
 30
0.0
 11
146.4017076231832
 21
289.02324830843571
 31
0.0
  0
ARC
  5
23BE
  8
AM_0
 10
146.1017076231833
 20
288.74258238086782
 30
0.0
 40
0.3000000000000007
 50
0.0
 51
86.185925165715304
  0
LINE
  5
23BF
  8
AM_0
 10
147.4736462911041
 20
287.57324830843572
 30
0.0
 11
147.55037871953019
 21
287.57324830843572
 31
0.0
  0
LINE
  5
23C0
  8
AM_0
 10
147.55037871953019
 20
287.57324830843572
 30
0.0
 11
147.57023878564331
 21
287.49913054169917
 31
0.0
  0
LINE
  5
23C1
  8
AM_0
 10
146.9814832836411
 20
287.49913054169917
 30
0.0
 11
147.00134334975519
 21
287.57324830843572
 31
0.0
  0
LINE
  5
23C2
  8
AM_0
 10
147.00134334975519
 20
287.57324830843572
 30
0.0
 11
147.07807577818011
 21
287.57324830843572
 31
0.0
  0
LINE
  5
23C3
  8
AM_0
 10
147.57023878564331
 20
287.49913054169917
 30
0.0
 11
147.7314832836409
 21
286.89736607517239
 31
0.0
  0
LINE
  5
23C4
  8
AM_0
 10
147.07807577818011
 20
287.57324830843572
 30
0.0
 11
147.4736462911041
 21
287.57324830843572
 31
0.0
  0
LINE
  5
23C5
  8
AM_0
 10
146.90170762318419
 20
287.20140777687482
 30
0.0
 11
146.9814832836411
 21
287.49913054169917
 31
0.0
  0
ARC
  5
23C6
  8
AM_0
 10
147.47364629110419
 20
287.47324830843581
 30
0.0
 40
0.0999999999999866
 50
15.00019500656942
 51
90.0
  0
ARC
  5
23C7
  8
AM_0
 10
147.07807577818031
 20
287.47324830843581
 30
0.0
 40
0.1000000000000014
 50
90.0
 51
164.99980499343059
  0
LINE
  5
23C8
  8
AM_0
 10
146.4017076231832
 20
287.66699627259572
 30
0.0
 11
146.4017076231832
 21
287.0100812889437
 31
0.0
  0
ARC
  5
23C9
  8
AM_0
 10
146.1017076231833
 20
287.66699627259572
 30
0.0
 40
0.3000000000000007
 50
0.0
 51
90.0
  0
LINE
  5
23CA
  8
AM_0
 10
144.9017076231832
 20
284.16841906072779
 30
0.0
 11
146.1017076231833
 21
284.16841906072779
 31
0.0
  0
LINE
  5
23CB
  8
AM_0
 10
146.1017076231833
 20
286.7100812889438
 30
0.0
 11
144.9017076231832
 21
286.7100812889438
 31
0.0
  0
LINE
  5
23CC
  8
AM_0
 10
147.75134334975519
 20
286.82324830843589
 30
0.0
 11
147.82807577818011
 21
286.82324830843589
 31
0.0
  0
ARC
  5
23CD
  8
AM_0
 10
146.1017076231833
 20
283.86841906072777
 30
0.0
 40
0.3000000000000007
 50
0.0
 51
90.0
  0
LINE
  5
23CE
  8
AM_0
 10
146.1017076231833
 20
282.3961758742949
 30
0.0
 11
144.9017076231832
 21
282.3961758742949
 31
0.0
  0
ARC
  5
23CF
  8
AM_0
 10
146.1017076231833
 20
282.69617587429479
 30
0.0
 40
0.3000000000000043
 50
270.0
 51
0.0
  0
LINE
  5
23D0
  8
AM_0
 10
146.1017076231833
 20
278.72324830843678
 30
0.0
 11
144.9017076231832
 21
278.72324830843678
 31
0.0
  0
ARC
  5
23D1
  8
AM_0
 10
146.1017076231833
 20
278.42324830843683
 30
0.0
 40
0.3000000000000007
 50
0.0
 51
90.0
  0
LINE
  5
23D2
  8
AM_0
 10
135.9017076231832
 20
287.85652813708282
 30
0.0
 11
142.4017076231832
 21
287.85652813708282
 31
0.0
  0
LINE
  5
23D3
  8
AM_0
 10
135.9017076231832
 20
288.35652813708271
 30
0.0
 11
142.4017076231832
 21
288.35652813708271
 31
0.0
  0
LINE
  5
23D4
  8
AM_0
 10
142.4017076231832
 20
278.22324830843581
 30
0.0
 11
135.9017076231832
 21
278.22324830843581
 31
0.0
  0
LINE
  5
23D5
  8
AM_0
 10
135.4017076231832
 20
278.72324830843581
 30
0.0
 11
142.4017076231832
 21
278.72324830843581
 31
0.0
  0
LINE
  5
23D6
  8
AM_0
 10
142.1017076231833
 20
288.72324830843581
 30
0.0
 11
135.2637575583652
 21
288.72324830843581
 31
0.0
  0
LINE
  5
23D7
  8
AM_0
 10
142.4017076231832
 20
279.0699363769769
 30
0.0
 11
135.9017076231832
 21
279.0699363769769
 31
0.0
  0
LINE
  5
23D8
  8
AM_0
 10
142.4017076231832
 20
287.3765602398949
 30
0.0
 11
135.9017076231832
 21
287.3765602398949
 31
0.0
  0
ARC
  5
23D9
  8
AM_0
 10
142.70170762318321
 20
289.42324830843569
 30
0.0
 40
0.2999999999999971
 50
90.0
 51
180.0
  0
ARC
  5
23DA
  8
AM_0
 10
142.1017076231833
 20
289.02324830843571
 30
0.0
 40
0.2999999999999971
 50
270.0
 51
0.0
  0
ARC
  5
23DB
  8
AM_0
 10
144.0267076231832
 20
283.22324830843581
 30
0.0
 40
9.124999999999984
 50
152.92493329272219
 51
207.07506670727781
  0
LINE
  5
23DC
  8
AM_0
 10
134.62357315870071
 20
288.49146958803328
 30
0.0
 11
132.26152322351859
 21
286.52309464204819
 31
0.0
  0
LINE
  5
23DD
  8
AM_0
 10
135.4017076231832
 20
288.1448157249277
 30
0.0
 11
135.9017076231832
 21
288.72324830843581
 31
0.0
  0
ARC
  5
23DE
  8
AM_0
 10
135.2637575583652
 20
287.72324830843581
 30
0.0
 40
1.0
 50
90.0
 51
129.805571092256
  0
LINE
  5
23DF
  8
AM_0
 10
135.9017076231832
 20
288.35652813708271
 30
0.0
 11
135.4017076231832
 21
288.1448157249277
 31
0.0
  0
LINE
  5
23E0
  8
AM_0
 10
135.4017076231832
 20
287.68254045195681
 30
0.0
 11
135.9017076231832
 21
288.35652813708271
 31
0.0
  0
LINE
  5
23E1
  8
AM_0
 10
135.9017076231832
 20
287.85652813708282
 30
0.0
 11
135.4017076231832
 21
287.68254045195681
 31
0.0
  0
LINE
  5
23E2
  8
AM_0
 10
135.4017076231832
 20
287.1448157249277
 30
0.0
 11
135.9017076231832
 21
287.85652813708282
 31
0.0
  0
LINE
  5
23E3
  8
AM_0
 10
135.9017076231832
 20
287.3765602398949
 30
0.0
 11
135.4017076231832
 21
287.1448157249277
 31
0.0
  0
ARC
  5
23E4
  8
AM_0
 10
132.9017076231832
 20
285.75487336245078
 30
0.0
 40
1.0000000000000291
 50
129.80557109226311
 51
180.0
  0
LINE
  5
23E5
  8
AM_0
 10
135.9017076231832
 20
278.22324830843581
 30
0.0
 11
135.4017076231832
 21
277.72324830843581
 31
0.0
  0
LINE
  5
23E6
  8
AM_0
 10
135.4017076231832
 20
278.72324830843581
 30
0.0
 11
135.9017076231832
 21
278.22324830843581
 31
0.0
  0
LINE
  5
23E7
  8
AM_0
 10
135.9017076231832
 20
279.0699363769769
 30
0.0
 11
135.4017076231832
 21
278.72324830843581
 31
0.0
  0
LINE
  5
23E8
  8
AM_0
 10
142.70170762318321
 20
265.72324830843581
 30
0.0
 11
144.9017076231832
 21
265.72324830843581
 31
0.0
  0
ARC
  5
23E9
  8
AM_0
 10
156.80037871952919
 20
265.22324830843581
 30
0.0
 40
0.5
 50
0.0
 51
90.000000000009777
  0
LINE
  5
23EA
  8
AM_0
 10
151.80037871952919
 20
268.62324830843568
 30
0.0
 11
148.57807577818011
 21
268.62324830843568
 31
0.0
  0
LINE
  5
23EB
  8
AM_0
 10
157.30037871952919
 20
276.57931962984281
 30
0.0
 11
157.30037871952919
 21
266.86717698702768
 31
0.0
  0
LINE
  5
23EC
  8
AM_0
 10
152.30037871952919
 20
277.07931962984281
 30
0.0
 11
156.80037871952919
 21
277.07931962984281
 31
0.0
  0
ARC
  5
23ED
  8
AM_0
 10
156.80037871952919
 20
276.57931962984281
 30
0.0
 40
0.5
 50
0.0
 51
90.0
  0
LINE
  5
23EE
  8
AM_0
 10
152.30037871952919
 20
266.36717698702768
 30
0.0
 11
156.80037871952919
 21
266.36717698702768
 31
0.0
  0
LINE
  5
23EF
  8
AM_0
 10
156.80037871952911
 20
265.72324830843581
 30
0.0
 11
152.80037871952919
 21
265.72324830843581
 31
0.0
  0
ARC
  5
23F0
  8
AM_0
 10
156.80037871952919
 20
266.86717698702768
 30
0.0
 40
0.5
 50
270.0
 51
0.0
  0
ARC
  5
23F1
  8
AM_0
 10
151.80037871952919
 20
268.12324830843568
 30
0.0
 40
0.5
 50
0.0
 51
90.0
  0
ARC
  5
23F2
  8
AM_0
 10
152.80037871952919
 20
266.22324830843581
 30
0.0
 40
0.5
 50
180.0
 51
270.0
  0
ARC
  5
23F3
  8
AM_0
 10
146.1017076231833
 20
271.57807755614368
 30
0.0
 40
0.3000000000000114
 50
270.0
 51
0.0
  0
LINE
  5
23F4
  8
AM_0
 10
144.9017076231832
 20
276.72324830843382
 30
0.0
 11
146.1017076231833
 21
276.72324830843382
 31
0.0
  0
ARC
  5
23F5
  8
AM_0
 10
146.1017076231833
 20
277.02324830843372
 30
0.0
 40
0.2999999999999971
 50
270.0
 51
0.0
  0
LINE
  5
23F6
  8
AM_0
 10
144.9017076231832
 20
273.0503207425769
 30
0.0
 11
146.1017076231833
 21
273.0503207425769
 31
0.0
  0
ARC
  5
23F7
  8
AM_0
 10
146.1017076231833
 20
272.75032074257672
 30
0.0
 40
0.3000000000000007
 50
0.0
 51
90.0
  0
LINE
  5
23F8
  8
AM_0
 10
146.4017076231832
 20
272.75032074257689
 30
0.0
 11
146.4017076231832
 21
271.57807755614391
 31
0.0
  0
LINE
  5
23F9
  8
AM_0
 10
147.82807577818011
 20
267.87324830843568
 30
0.0
 11
148.22364629110399
 21
267.87324830843568
 31
0.0
  0
LINE
  5
23FA
  8
AM_0
 10
147.82807577818011
 20
267.87324830843568
 30
0.0
 11
148.22364629110399
 21
267.87324830843568
 31
0.0
  0
LINE
  5
23FB
  8
AM_0
 10
148.32023878564331
 20
267.94736607517228
 30
0.0
 11
148.48148328364121
 21
268.54913054169941
 31
0.0
  0
LINE
  5
23FC
  8
AM_0
 10
148.32023878564331
 20
267.94736607517228
 30
0.0
 11
148.48148328364121
 21
268.54913054169941
 31
0.0
  0
ARC
  5
23FD
  8
AM_0
 10
148.57807577818011
 20
268.52324830843588
 30
0.0
 40
0.0999999999999943
 50
90.0
 51
164.9998049934847
  0
ARC
  5
23FE
  8
AM_0
 10
148.22364629110399
 20
267.97324830843581
 30
0.0
 40
0.0999999999999943
 50
270.0
 51
344.99980499349448
  0
LINE
  5
23FF
  8
AM_0
 10
146.90086103464211
 20
268.24824830843562
 30
0.0
 11
146.9814832836411
 21
268.54913054169941
 31
0.0
  0
LINE
  5
2400
  8
AM_0
 10
147.5530893717353
 20
268.58398377533769
 30
0.0
 11
147.73148328364121
 21
267.94736607517228
 31
0.0
  0
LINE
  5
2401
  8
AM_0
 10
147.57023878564331
 20
268.54913054169941
 30
0.0
 11
147.73148328364121
 21
267.94736607517228
 31
0.0
  0
LINE
  5
2402
  8
AM_0
 10
146.4017076231832
 20
268.4364153279268
 30
0.0
 11
146.4017076231832
 21
267.77950034427568
 31
0.0
  0
LINE
  5
2403
  8
AM_0
 10
146.9017076231832
 20
268.25140777687369
 30
0.0
 11
146.9814832836411
 21
268.54913054169941
 31
0.0
  0
LINE
  5
2404
  8
AM_0
 10
144.9017076231832
 20
268.73641532792681
 30
0.0
 11
146.1017076231833
 21
268.73641532792681
 31
0.0
  0
LINE
  5
2405
  8
AM_0
 10
146.1017076231833
 20
271.27807755614378
 30
0.0
 11
144.9017076231832
 21
271.2780775561427
 31
0.0
  0
LINE
  5
2406
  8
AM_0
 10
147.50627855661909
 20
268.62324830843568
 30
0.0
 11
147.5530893717353
 21
268.58398377533769
 31
0.0
  0
LINE
  5
2407
  8
AM_0
 10
147.07807577818011
 20
268.62324830843568
 30
0.0
 11
147.50627855661909
 21
268.62324830843568
 31
0.0
  0
LINE
  5
2408
  8
AM_0
 10
147.07807577818011
 20
268.62324830843568
 30
0.0
 11
147.4736462911041
 21
268.62324830843568
 31
0.0
  0
ARC
  5
2409
  8
AM_0
 10
147.07807577818011
 20
268.52324830843588
 30
0.0
 40
0.0999999999999943
 50
90.0
 51
164.9998049934847
  0
ARC
  5
240A
  8
AM_0
 10
147.4736462911041
 20
268.52324830843588
 30
0.0
 40
0.0999999999999608
 50
15.00019500651571
 51
90.0
  0
ARC
  5
240B
  8
AM_0
 10
146.1017076231833
 20
268.43641532792668
 30
0.0
 40
0.3000000000000007
 50
0.0
 51
90.0
  0
LINE
  5
240C
  8
AM_0
 10
144.9017076231832
 20
266.72324830843581
 30
0.0
 11
146.4017076231832
 21
266.72324830843581
 31
0.0
  0
LINE
  5
240D
  8
AM_0
 10
146.1017076231833
 20
267.47950034427589
 30
0.0
 11
144.9017076231832
 21
267.47950034427589
 31
0.0
  0
LINE
  5
240E
  8
AM_0
 10
146.1216633263403
 20
266.4045786886457
 30
0.0
 11
144.9017076231832
 21
266.32324830843589
 31
0.0
  0
ARC
  5
240F
  8
AM_0
 10
146.4017076231832
 20
267.22324830843581
 30
0.0
 40
0.5
 50
270.0
 51
0.0
  0
ARC
  5
2410
  8
AM_0
 10
147.82807577818011
 20
267.97324830843581
 30
0.0
 40
0.0999999999999606
 50
195.00019500650541
 51
270.0
  0
ARC
  5
2411
  8
AM_0
 10
146.1017076231833
 20
267.77950034427568
 30
0.0
 40
0.2999999999999971
 50
270.0
 51
0.0
  0
LINE
  5
2412
  8
AM_0
 10
146.4017076231832
 20
266.72324830843581
 30
0.0
 11
146.4017076231832
 21
266.70391423600279
 31
0.0
  0
ARC
  5
2413
  8
AM_0
 10
146.1017076231833
 20
266.70391423600279
 30
0.0
 40
0.3000000000000043
 50
273.81407483428472
 51
0.0
  0
ARC
  5
2414
  8
AM_0
 10
157.80037871952919
 20
264.72324830843581
 30
0.0
 40
0.5
 50
180.0
 51
270.0
  0
LINE
  5
2415
  8
AM_0
 10
157.30037871952919
 20
264.72324830843581
 30
0.0
 11
157.30037871952919
 21
265.22324830843581
 31
0.0
  0
LINE
  5
2416
  8
AM_0
 10
135.9017076231832
 20
268.06993637697678
 30
0.0
 11
142.4017076231832
 21
268.06993637697678
 31
0.0
  0
LINE
  5
2417
  8
AM_0
 10
135.9017076231832
 20
276.37656023989479
 30
0.0
 11
142.4017076231832
 21
276.37656023989479
 31
0.0
  0
LINE
  5
2418
  8
AM_0
 10
135.2637575583652
 20
266.72324830843581
 30
0.0
 11
142.1017076231833
 21
266.72324830843581
 31
0.0
  0
LINE
  5
2419
  8
AM_0
 10
142.4017076231832
 20
276.72324830843581
 30
0.0
 11
135.4017076231832
 21
276.72324830843581
 31
0.0
  0
LINE
  5
241A
  8
AM_0
 10
135.9017076231832
 20
277.22324830843581
 30
0.0
 11
142.4017076231832
 21
277.22324830843581
 31
0.0
  0
LINE
  5
241B
  8
AM_0
 10
142.4017076231832
 20
267.08996847978767
 30
0.0
 11
135.9017076231832
 21
267.08996847978767
 31
0.0
  0
LINE
  5
241C
  8
AM_0
 10
142.4017076231832
 20
267.58996847978767
 30
0.0
 11
135.9017076231832
 21
267.58996847978767
 31
0.0
  0
ARC
  5
241D
  8
AM_0
 10
142.1017076231833
 20
266.4232483084358
 30
0.0
 40
0.3000000000000043
 50
0.0
 51
90.0
  0
ARC
  5
241E
  8
AM_0
 10
142.70170762318321
 20
266.02324830843588
 30
0.0
 40
0.2999999999999971
 50
180.0
 51
270.0
  0
ARC
  5
241F
  8
AM_0
 10
144.0267076231832
 20
272.22324830843581
 30
0.0
 40
9.124999999999984
 50
152.92493329272219
 51
207.07506670727781
  0
LINE
  5
2420
  8
AM_0
 10
135.4017076231832
 20
276.72324830843581
 30
0.0
 11
135.9017076231832
 21
276.37656023989479
 31
0.0
  0
LINE
  5
2421
  8
AM_0
 10
135.9017076231832
 20
277.22324830843581
 30
0.0
 11
135.4017076231832
 21
276.72324830843581
 31
0.0
  0
LINE
  5
2422
  8
AM_0
 10
132.26152322351859
 20
268.9234019748223
 30
0.0
 11
134.62357315870071
 21
266.95502702883829
 31
0.0
  0
LINE
  5
2423
  8
AM_0
 10
135.9017076231832
 20
266.72324830843581
 30
0.0
 11
135.4017076231832
 21
267.30168089194279
 31
0.0
  0
ARC
  5
2424
  8
AM_0
 10
135.2637575583652
 20
267.72324830843581
 30
0.0
 40
1.0000000000000411
 50
230.19442890774391
 51
270.0
  0
LINE
  5
2425
  8
AM_0
 10
135.4017076231832
 20
268.30168089194291
 30
0.0
 11
135.9017076231832
 21
268.06993637697678
 31
0.0
  0
LINE
  5
2426
  8
AM_0
 10
135.9017076231832
 20
267.58996847978767
 30
0.0
 11
135.4017076231832
 21
268.30168089194291
 31
0.0
  0
LINE
  5
2427
  8
AM_0
 10
135.4017076231832
 20
267.76395616491482
 30
0.0
 11
135.9017076231832
 21
267.58996847978767
 31
0.0
  0
LINE
  5
2428
  8
AM_0
 10
135.9017076231832
 20
267.08996847978767
 30
0.0
 11
135.4017076231832
 21
267.76395616491482
 31
0.0
  0
LINE
  5
2429
  8
AM_0
 10
135.4017076231832
 20
267.30168089194279
 30
0.0
 11
135.9017076231832
 21
267.08996847978767
 31
0.0
  0
ARC
  5
242A
  8
AM_0
 10
132.9017076231832
 20
269.69162325441971
 30
0.0
 40
1.0
 50
180.0
 51
230.19442890773689
  0
CIRCLE
  5
242B
  8
AM_0
 10
166.30037871952749
 20
318.72324830843542
 30
0.0
 40
4.0
  0
LINE
  5
242C
  8
AM_0
 10
165.98887871952741
 20
316.44443990271122
 30
0.0
 11
166.61187871952751
 21
316.44443990271122
 31
0.0
  0
LINE
  5
242D
  8
AM_0
 10
165.98887871952741
 20
321.00205671415972
 30
0.0
 11
166.61187871952751
 21
321.00205671415972
 31
0.0
  0
LINE
  5
242E
  8
AM_0
 10
165.98887871952741
 20
316.44443990271122
 30
0.0
 11
165.98887871952741
 21
318.41174830843539
 31
0.0
  0
LINE
  5
242F
  8
AM_0
 10
165.98887871952741
 20
319.03474830843538
 30
0.0
 11
165.98887871952741
 21
321.00205671415972
 31
0.0
  0
LINE
  5
2430
  8
AM_0
 10
165.98887871952741
 20
319.03474830843538
 30
0.0
 11
164.0215703138031
 21
319.03474830843538
 31
0.0
  0
LINE
  5
2431
  8
AM_0
 10
165.98887871952741
 20
318.41174830843539
 30
0.0
 11
164.0215703138031
 21
318.41174830843539
 31
0.0
  0
LINE
  5
2432
  8
AM_0
 10
164.0215703138031
 20
319.03474830843538
 30
0.0
 11
164.0215703138031
 21
318.41174830843539
 31
0.0
  0
LINE
  5
2433
  8
AM_0
 10
166.61187871952751
 20
316.44443990271122
 30
0.0
 11
166.61187871952751
 21
318.41174830843539
 31
0.0
  0
LINE
  5
2434
  8
AM_0
 10
166.61187871952751
 20
319.03474830843538
 30
0.0
 11
166.61187871952751
 21
321.00205671415972
 31
0.0
  0
LINE
  5
2435
  8
AM_0
 10
168.57918712525191
 20
318.41174830843539
 30
0.0
 11
166.61187871952751
 21
318.41174830843539
 31
0.0
  0
LINE
  5
2436
  8
AM_0
 10
168.57918712525191
 20
319.03474830843538
 30
0.0
 11
166.61187871952751
 21
319.03474830843538
 31
0.0
  0
LINE
  5
2437
  8
AM_0
 10
168.57918712525191
 20
319.03474830843538
 30
0.0
 11
168.57918712525191
 21
318.41174830843539
 31
0.0
  0
CIRCLE
  5
2438
  8
AM_0
 10
252.3003787195311
 20
318.72324830843542
 30
0.0
 40
4.0
  0
LINE
  5
2439
  8
AM_0
 10
251.9888787195311
 20
316.444439902711
 30
0.0
 11
252.61187871953109
 21
316.444439902711
 31
0.0
  0
LINE
  5
243A
  8
AM_0
 10
251.9888787195311
 20
321.00205671415972
 30
0.0
 11
252.61187871953109
 21
321.00205671415972
 31
0.0
  0
LINE
  5
243B
  8
AM_0
 10
251.9888787195311
 20
316.444439902711
 30
0.0
 11
251.9888787195311
 21
318.41174830843522
 31
0.0
  0
LINE
  5
243C
  8
AM_0
 10
251.9888787195311
 20
319.03474830843538
 30
0.0
 11
251.9888787195311
 21
321.00205671415972
 31
0.0
  0
LINE
  5
243D
  8
AM_0
 10
251.9888787195311
 20
319.03474830843538
 30
0.0
 11
250.02157031380671
 21
319.03474830843538
 31
0.0
  0
LINE
  5
243E
  8
AM_0
 10
251.9888787195311
 20
318.41174830843522
 30
0.0
 11
250.02157031380671
 21
318.41174830843522
 31
0.0
  0
LINE
  5
243F
  8
AM_0
 10
250.02157031380671
 20
319.03474830843538
 30
0.0
 11
250.02157031380671
 21
318.41174830843522
 31
0.0
  0
LINE
  5
2440
  8
AM_0
 10
252.61187871953109
 20
316.444439902711
 30
0.0
 11
252.61187871953109
 21
318.41174830843522
 31
0.0
  0
LINE
  5
2441
  8
AM_0
 10
252.61187871953109
 20
319.03474830843538
 30
0.0
 11
252.61187871953109
 21
321.00205671415972
 31
0.0
  0
LINE
  5
2442
  8
AM_0
 10
254.5791871252554
 20
318.41174830843522
 30
0.0
 11
252.61187871953109
 21
318.41174830843522
 31
0.0
  0
LINE
  5
2443
  8
AM_0
 10
254.5791871252554
 20
319.03474830843538
 30
0.0
 11
252.61187871953109
 21
319.03474830843538
 31
0.0
  0
LINE
  5
2444
  8
AM_0
 10
254.5791871252554
 20
319.03474830843538
 30
0.0
 11
254.5791871252554
 21
318.41174830843522
 31
0.0
  0
LINE
  5
2445
  8
AM_0
 10
179.83591262546221
 20
322.25878221436858
 30
0.0
 11
162.7648448135964
 21
305.18771440250322
 31
0.0
  0
LINE
  5
2446
  8
AM_0
 10
180.49276687495441
 20
317.25878221436852
 30
0.0
 11
167.76484481359651
 21
304.53086015301068
 31
0.0
  0
ARC
  5
2447
  8
AM_0
 10
171.30037871952919
 20
300.99532624707803
 30
0.0
 40
5.0
 50
135.0
 51
180.0
1001
GENIUS_GENOBJ-N-FIL_13
1002
{
1000
OWNER
1000
GEN
1002
}
1001
GENIUS_GENODEF_13
1002
{
1000
HIER
1070
     0
1002
}
1002
{
1000
MANEDIT
1070
     0
1002
}
1002
{
1000
NOSEL
1070
     0
1002
}
1002
{
1000
BEHIND
1070
     0
1002
}
1002
{
1000
OTHER
1070
     0
1002
}
1002
{
1000
REACTOR
1002
}
  0
LINE
  5
2448
  8
AM_0
 10
238.76484481359651
 20
233.18771440250279
 30
0.0
 11
255.83591262546199
 21
250.2587822143683
 31
0.0
  0
ARC
  5
2449
  8
AM_0
 10
235.2293109076638
 20
236.72324830843559
 30
0.0
 40
5.0
 50
270.0
 51
315.0
1001
GENIUS_GENODEF_13
1002
{
1000
HIER
1070
     0
1002
}
1002
{
1000
MANEDIT
1070
     0
1002
}
1002
{
1000
NOSEL
1070
     0
1002
}
1002
{
1000
BEHIND
1070
     0
1002
}
1002
{
1000
OTHER
1070
     0
1002
}
1002
{
1000
REACTOR
1002
}
1001
GENIUS_GENOBJ-N-FIL_13
1002
{
1000
OWNER
1000
GEN
1002
}
  0
LINE
  5
244A
  8
AM_0
 10
238.10799056410431
 20
238.18771440250291
 30
0.0
 11
250.83591262546199
 21
250.91563646386049
 31
0.0
  0
ARC
  5
244B
  8
AM_0
 10
247.30037871952939
 20
254.45117036979329
 30
0.0
 40
5.0
 50
315.0
 51
0.0
1001
GENIUS_GENOBJ-N-FIL_13
1002
{
1000
OWNER
1000
GEN
1002
}
1001
GENIUS_GENODEF_13
1002
{
1000
HIER
1070
     0
1002
}
1002
{
1000
MANEDIT
1070
     0
1002
}
1002
{
1000
NOSEL
1070
     0
1002
}
1002
{
1000
BEHIND
1070
     0
1002
}
1002
{
1000
OTHER
1070
     0
1002
}
1002
{
1000
REACTOR
1002
}
  0
LINE
  5
244C
  8
AM_0
 10
179.83591262546199
 20
233.18771440250279
 30
0.0
 11
162.7648448135964
 21
250.2587822143681
 31
0.0
  0
LINE
  5
244D
  8
AM_0
 10
180.49276687495421
 20
238.18771440250291
 30
0.0
 11
167.76484481359651
 21
250.91563646386049
 31
0.0
  0
ARC
  5
244E
  8
AM_0
 10
184.02830078088701
 20
241.72324830843559
 30
0.0
 40
5.0
 50
225.0
 51
270.0
1001
GENIUS_GENOBJ-N-FIL_13
1002
{
1000
OWNER
1000
GEN
1002
}
1001
GENIUS_GENODEF_13
1002
{
1000
HIER
1070
     0
1002
}
1002
{
1000
MANEDIT
1070
     0
1002
}
1002
{
1000
NOSEL
1070
     0
1002
}
1002
{
1000
BEHIND
1070
     0
1002
}
1002
{
1000
OTHER
1070
     0
1002
}
1002
{
1000
REACTOR
1002
}
  0
CIRCLE
  5
244F
  8
AM_0
 10
166.3003787195274
 20
236.72324830843601
 30
0.0
 40
4.0
  0
LINE
  5
2450
  8
AM_0
 10
165.98887871952741
 20
239.0020567141604
 30
0.0
 11
166.6118787195274
 21
239.0020567141604
 31
0.0
  0
LINE
  5
2451
  8
AM_0
 10
165.98887871952741
 20
234.44443990271171
 30
0.0
 11
166.6118787195274
 21
234.44443990271171
 31
0.0
  0
LINE
  5
2452
  8
AM_0
 10
165.98887871952741
 20
239.0020567141604
 30
0.0
 11
165.98887871952741
 21
237.03474830843609
 31
0.0
  0
LINE
  5
2453
  8
AM_0
 10
165.98887871952741
 20
236.41174830843599
 30
0.0
 11
165.98887871952741
 21
234.44443990271171
 31
0.0
  0
LINE
  5
2454
  8
AM_0
 10
165.98887871952741
 20
236.41174830843599
 30
0.0
 11
164.02157031380301
 21
236.41174830843599
 31
0.0
  0
LINE
  5
2455
  8
AM_0
 10
165.98887871952741
 20
237.03474830843609
 30
0.0
 11
164.02157031380301
 21
237.03474830843609
 31
0.0
  0
LINE
  5
2456
  8
AM_0
 10
164.02157031380301
 20
236.41174830843599
 30
0.0
 11
164.02157031380301
 21
237.03474830843609
 31
0.0
  0
LINE
  5
2457
  8
AM_0
 10
166.6118787195274
 20
239.0020567141604
 30
0.0
 11
166.6118787195274
 21
237.03474830843609
 31
0.0
  0
LINE
  5
2458
  8
AM_0
 10
166.6118787195274
 20
236.41174830843599
 30
0.0
 11
166.6118787195274
 21
234.44443990271171
 31
0.0
  0
LINE
  5
2459
  8
AM_0
 10
168.57918712525179
 20
237.03474830843609
 30
0.0
 11
166.6118787195274
 21
237.03474830843609
 31
0.0
  0
LINE
  5
245A
  8
AM_0
 10
168.57918712525179
 20
236.41174830843599
 30
0.0
 11
166.6118787195274
 21
236.41174830843599
 31
0.0
  0
LINE
  5
245B
  8
AM_0
 10
168.57918712525179
 20
236.41174830843599
 30
0.0
 11
168.57918712525179
 21
237.03474830843609
 31
0.0
  0
CIRCLE
  5
245C
  8
AM_0
 10
252.3003787195309
 20
236.72324830843581
 30
0.0
 40
4.0
  0
LINE
  5
245D
  8
AM_0
 10
251.9888787195309
 20
239.00205671416029
 30
0.0
 11
252.61187871953101
 21
239.00205671416029
 31
0.0
  0
LINE
  5
245E
  8
AM_0
 10
251.9888787195309
 20
234.44443990271151
 30
0.0
 11
252.61187871953101
 21
234.44443990271151
 31
0.0
  0
LINE
  5
245F
  8
AM_0
 10
251.9888787195309
 20
239.00205671416029
 30
0.0
 11
251.9888787195309
 21
237.03474830843581
 31
0.0
  0
LINE
  5
2460
  8
AM_0
 10
251.9888787195309
 20
236.4117483084357
 30
0.0
 11
251.9888787195309
 21
234.44443990271151
 31
0.0
  0
LINE
  5
2461
  8
AM_0
 10
251.9888787195309
 20
236.4117483084357
 30
0.0
 11
250.02157031380659
 21
236.4117483084357
 31
0.0
  0
LINE
  5
2462
  8
AM_0
 10
251.9888787195309
 20
237.03474830843581
 30
0.0
 11
250.02157031380659
 21
237.03474830843581
 31
0.0
  0
LINE
  5
2463
  8
AM_0
 10
250.02157031380659
 20
236.4117483084357
 30
0.0
 11
250.02157031380659
 21
237.03474830843581
 31
0.0
  0
LINE
  5
2464
  8
AM_0
 10
252.61187871953101
 20
239.00205671416029
 30
0.0
 11
252.61187871953101
 21
237.03474830843581
 31
0.0
  0
LINE
  5
2465
  8
AM_0
 10
252.61187871953101
 20
236.4117483084357
 30
0.0
 11
252.61187871953101
 21
234.44443990271151
 31
0.0
  0
LINE
  5
2466
  8
AM_0
 10
254.57918712525529
 20
237.03474830843581
 30
0.0
 11
252.61187871953101
 21
237.03474830843581
 31
0.0
  0
LINE
  5
2467
  8
AM_0
 10
254.57918712525529
 20
236.4117483084357
 30
0.0
 11
252.61187871953101
 21
236.4117483084357
 31
0.0
  0
LINE
  5
2468
  8
AM_0
 10
254.57918712525529
 20
236.4117483084357
 30
0.0
 11
254.57918712525529
 21
237.03474830843581
 31
0.0
  0
LINE
  5
2469
  8
AM_0
 10
161.30037871952919
 20
246.7232483084357
 30
0.0
 11
160.30037871952919
 21
246.7232483084357
 31
0.0
  0
LINE
  5
246A
  8
AM_0
 10
161.30037871952919
 20
308.72324830843581
 30
0.0
 11
160.30037871952919
 21
308.7232483084357
 31
0.0
  0
LINE
  5
246B
  8
AM_0
 10
160.30037871952919
 20
246.7232483084357
 30
0.0
 11
160.30037871952919
 21
308.7232483084357
 31
0.0
  0
POLYLINE
  5
246C
  8
AM_0
 66
     1
 10
0.0
 20
0.0
 30
0.0
  0
VERTEX
  5
246E
  8
AM_0
 10
154.94005738273381
 20
265.72324830843581
 30
0.0
  0
VERTEX
  5
246F
  8
AM_0
 10
155.0077287195293
 20
264.04386030843568
 30
0.0
 42
-1.0
  0
SEQEND
  5
2470
  8
AM_0
  0
POLYLINE
  5
2471
  8
AM_0
 66
     1
 10
0.0
 20
0.0
 30
0.0
  0
VERTEX
  5
2472
  8
AM_0
 10
154.94005815804209
 20
289.72324830843581
 30
0.0
  0
VERTEX
  5
2473
  8
AM_0
 10
155.0077287195293
 20
291.40261230843572
 30
0.0
 42
-1.0
  0
SEQEND
  5
2474
  8
AM_0
  0
LINE
  5
2475
  8
AM_0
 10
144.3003687195291
 20
265.72324830843581
 30
0.0
 11
144.3003687195291
 21
224.72326230843569
 31
0.0
  0
LINE
  5
2476
  8
AM_0
 10
143.30037871952919
 20
265.72324830843581
 30
0.0
 11
143.30037871952919
 21
226.60001730843581
 31
0.0
  0
LINE
  5
253E
  8
AM_0
 10
557.62119121249043
 20
310.02981108609288
 30
0.0
 11
557.62119121249043
 21
311.22326780843571
 31
0.0
  0
LINE
  5
2541
  8
AM_0
 10
556.62119121249043
 20
311.22326780843571
 30
0.0
 11
557.62119121249043
 21
311.22326780843571
 31
0.0
  0
LINE
  5
25A1
  8
AM_0
 10
518.62119121249009
 20
231.72326780843559
 30
0.0
 11
549.51810870455995
 21
232.80221194218171
 31
0.0
  0
LINE
  5
25A2
  8
AM_0
 10
556.62119121249032
 20
300.49916653590611
 30
0.0
 11
556.62119121249043
 21
320.46490101813521
 31
0.0
  0
LINE
  5
25A4
  8
AM_0
 10
554.69099020589522
 20
322.46368267217338
 30
0.0
 11
518.62119121249043
 21
323.72326780843571
 31
0.0
  0
ARC
  5
25A5
  8
AM_0
 10
554.62119121249054
 20
320.46490101813521
 30
0.0
 40
2.0
 50
0.0
 51
87.999999999999659
1001
GENIUS_GENOBJ-N-FIL_13
1002
{
1000
OWNER
1000
GEN
1002
}
1001
GENIUS_GENODEF_13
1002
{
1000
HIER
1070
     0
1002
}
1002
{
1000
MANEDIT
1070
     0
1002
}
1002
{
1000
NOSEL
1070
     0
1002
}
1002
{
1000
BEHIND
1070
     0
1002
}
1002
{
1000
OTHER
1070
     0
1002
}
1002
{
1000
REACTOR
1002
}
  0
LINE
  5
25A6
  8
AM_0
 10
518.62119121249043
 20
323.72326780843571
 30
0.0
 11
518.62119121249009
 21
231.72326780843539
 31
0.0
  0
LINE
  5
25A7
  8
ﾁｭｳｼﾝｾﾝ1
 10
507.62119121249032
 20
236.7232678084363
 30
0.0
 11
523.44871422502695
 21
236.72326780843611
 31
0.0
  0
LINE
  5
25A9
  8
AM_0
 10
514.62119121249043
 20
323.72326780843571
 30
0.0
 11
514.62119121249043
 21
302.90876290890321
 31
0.0
  0
LINE
  5
25AA
  8
AM_0
 10
514.62119121249032
 20
252.537772707968
 30
0.0
 11
514.62119121249032
 21
231.72326780843639
 31
0.0
  0
LINE
  5
25AB
  8
AM_0
 10
510.62119121249032
 20
317.58748613927492
 30
0.0
 11
510.62119121249032
 21
237.8590494775961
 31
0.0
  0
LINE
  5
25AC
  8
AM_0
 10
512.56225370036225
 20
240.63062278074261
 30
0.0
 11
513.62119121249032
 21
240.72326780843619
 31
0.0
  0
LINE
  5
25AD
  8
AM_0
 10
512.56225370036225
 20
232.8159128361298
 30
0.0
 11
513.62119121249032
 21
232.72326780843611
 31
0.0
  0
ARC
  5
25AE
  8
AM_0
 10
517.02119121249041
 20
236.72326780843611
 30
0.0
 40
6.5
 50
151.82726586813479
 51
208.1727341318651
  0
ARC
  5
25AF
  8
AM_0
 10
512.70170288875875
 20
234.40982435307649
 30
0.0
 40
1.6000000000000001
 50
208.1727341318651
 51
265.00000000000028
  0
LINE
  5
25B0
  8
AM_0
 10
510.94171755106203
 20
239.02326780843609
 30
0.0
 11
513.23127722985748
 21
236.72326780843611
 31
0.0
  0
LINE
  5
25B1
  8
AM_0
 10
512.92119121249004
 20
237.03476780843619
 30
0.0
 11
512.92119121249004
 21
236.41176780843611
 31
0.0
  0
LINE
  5
25B2
  8
AM_0
 10
510.94171755106203
 20
234.42326780843621
 30
0.0
 11
513.23127722985748
 21
236.72326780843611
 31
0.0
  0
LINE
  5
25B3
  8
AM_0
 10
510.52865952215558
 20
237.03476780843619
 30
0.0
 11
512.92119121249004
 21
237.03476780843619
 31
0.0
  0
LINE
  5
25B4
  8
AM_0
 10
510.52865952215558
 20
236.41176780843611
 30
0.0
 11
512.92119121249004
 21
236.41176780843611
 31
0.0
  0
ARC
  5
25B5
  8
AM_0
 10
512.70170288875875
 20
239.03671126379581
 30
0.0
 40
1.6000000000000001
 50
94.99999999999973
 51
151.82726586813479
  0
LINE
  5
25B6
  8
AM_0
 10
514.62119121249043
 20
323.72326780843571
 30
0.0
 11
518.62119121249043
 21
323.72326780843571
 31
0.0
  0
LINE
  5
25B7
  8
AM_0
 10
513.6211912124902
 20
322.72326780843559
 30
0.0
 11
514.62119121249054
 21
323.72326780843571
 31
0.0
  0
LINE
  5
25B8
  8
AM_0
 10
518.62119121249009
 20
231.72326780843539
 30
0.0
 11
514.62119121249032
 21
231.72326780843639
 31
0.0
  0
LINE
  5
25B9
  8
AM_0N
 10
514.62119121249032
 20
240.5232678084362
 30
0.0
 11
513.62119121249032
 21
240.5232678084362
 31
0.0
  0
LINE
  5
25BA
  8
AM_0N
 10
513.62119121249032
 20
236.92326780843621
 30
0.0
 11
514.62119121249032
 21
237.2872380427024
 31
0.0
  0
LINE
  5
25BB
  8
AM_0N
 10
513.62119121249032
 20
236.5232678084362
 30
0.0
 11
514.62119121249032
 21
236.88723804270239
 31
0.0
  0
LINE
  5
25BC
  8
AM_0N
 10
513.62119121249032
 20
232.72326780843611
 30
0.0
 11
513.62119121249032
 21
240.72326780843619
 31
0.0
  0
LINE
  5
25BD
  8
AM_0N
 10
513.62119121249032
 20
232.92326780843621
 30
0.0
 11
514.62119121249032
 21
232.92326780843621
 31
0.0
  0
LINE
  5
25BE
  8
AM_0
 10
510.62119121249032
 20
252.5377727079678
 30
0.0
 11
514.62119121249032
 21
252.537772707968
 31
0.0
  0
LINE
  5
25BF
  8
AM_0
 10
514.62119121249032
 20
250.88091845847541
 30
0.0
 11
510.62119121249032
 21
252.5377727079678
 31
0.0
  0
LINE
  5
25C0
  8
AM_0
 10
510.62119121249032
 20
302.90876290890321
 30
0.0
 11
514.62119121249043
 21
302.90876290890321
 31
0.0
  0
LINE
  5
25C1
  8
AM_0
 10
514.62119121249043
 20
304.5656171583957
 30
0.0
 11
510.62119121249032
 21
302.90876290890321
 31
0.0
  0
LINE
  5
25C6
  8
ﾁｭｳｼﾝｾﾝ1
 10
507.62119121249049
 20
318.7232678084348
 30
0.0
 11
523.44871422502695
 21
318.72326780843508
 31
0.0
  0
LINE
  5
25C7
  8
AM_0
 10
512.56225370036225
 20
314.81591283612852
 30
0.0
 11
513.62119121249032
 21
314.72326780843508
 31
0.0
  0
LINE
  5
25C8
  8
AM_0
 10
512.56225370036225
 20
322.63062278074142
 30
0.0
 11
513.62119121249032
 21
322.72326780843508
 31
0.0
  0
ARC
  5
25C9
  8
AM_0
 10
517.02119121249041
 20
318.72326780843508
 30
0.0
 40
6.5
 50
151.82726586813479
 51
208.1727341318651
  0
ARC
  5
25CA
  8
AM_0
 10
512.70170288875875
 20
321.0367112637947
 30
0.0
 40
1.6000000000000001
 50
94.999999999999758
 51
151.82726586813479
  0
LINE
  5
25CB
  8
AM_0
 10
510.94171755106203
 20
316.42326780843518
 30
0.0
 11
513.23127722985748
 21
318.72326780843508
 31
0.0
  0
LINE
  5
25CC
  8
AM_0
 10
512.92119121249004
 20
318.411767808435
 30
0.0
 11
512.92119121249004
 21
319.03476780843499
 31
0.0
  0
LINE
  5
25CD
  8
AM_0
 10
510.94171755106203
 20
321.02326780843492
 30
0.0
 11
513.23127722985748
 21
318.72326780843508
 31
0.0
  0
LINE
  5
25CE
  8
AM_0
 10
510.52865952215558
 20
318.411767808435
 30
0.0
 11
512.92119121249004
 21
318.411767808435
 31
0.0
  0
LINE
  5
25CF
  8
AM_0
 10
510.52865952215558
 20
319.03476780843499
 30
0.0
 11
512.92119121249004
 21
319.03476780843499
 31
0.0
  0
ARC
  5
25D0
  8
AM_0
 10
512.70170288875875
 20
316.40982435307518
 30
0.0
 40
1.6000000000000001
 50
208.1727341318651
 51
265.00000000000028
  0
LINE
  5
25D1
  8
AM_0N
 10
514.62119121249032
 20
314.92326780843501
 30
0.0
 11
513.62119121249032
 21
314.92326780843501
 31
0.0
  0
LINE
  5
25D2
  8
AM_0N
 10
513.62119121249032
 20
318.52326780843492
 30
0.0
 11
514.62119121249032
 21
318.15929757416882
 31
0.0
  0
LINE
  5
25D3
  8
AM_0N
 10
513.62119121249032
 20
318.92326780843501
 30
0.0
 11
514.62119121249032
 21
318.5592975741688
 31
0.0
  0
LINE
  5
25D4
  8
AM_0N
 10
513.62119121249032
 20
322.72326780843508
 30
0.0
 11
513.62119121249032
 21
314.72326780843508
 31
0.0
  0
LINE
  5
25D5
  8
AM_0N
 10
513.62119121249032
 20
322.52326780843492
 30
0.0
 11
514.62119121249032
 21
322.52326780843492
 31
0.0
  0
LINE
  5
2A93
  8
ﾁｭｳｼﾝｾﾝ1
 10
166.3003787195272
 20
312.72324830843542
 30
0.0
 11
166.30037871952771
 21
324.72324830843542
 31
0.0
  0
LINE
  5
2A94
  8
ﾁｭｳｼﾝｾﾝ1
 10
172.30037871952749
 20
318.72324830843507
 30
0.0
 11
160.30037871952749
 21
318.72324830843581
 31
0.0
  0
LINE
  5
2A95
  8
ﾁｭｳｼﾝｾﾝ1
 10
166.30037871952709
 20
230.72324830843601
 30
0.0
 11
166.30037871952771
 21
242.7232483084361
 31
0.0
  0
LINE
  5
2A96
  8
ﾁｭｳｼﾝｾﾝ1
 10
172.3003787195274
 20
236.72324830843581
 30
0.0
 11
160.3003787195274
 21
236.72324830843641
 31
0.0
  0
LINE
  5
2A97
  8
ﾁｭｳｼﾝｾﾝ1
 10
252.30037871953061
 20
230.72324830843581
 30
0.0
 11
252.30037871953121
 21
242.72324830843581
 31
0.0
  0
LINE
  5
2A98
  8
ﾁｭｳｼﾝｾﾝ1
 10
258.3003787195309
 20
236.72324830843559
 30
0.0
 11
246.3003787195309
 21
236.7232483084363
 31
0.0
  0
LINE
  5
3274
  8
ﾁｭｳｼﾝｾﾝ
 10
577.16548846919386
 20
297.72326880843559
 30
0.0
 11
674.07689395578711
 21
297.72326880843559
 31
0.0
  0
LINE
  5
3277
  8
AM_0
 10
379.30032871952881
 20
309.72325380843552
 30
0.0
 11
413.30037871952879
 21
309.72325380843552
 31
0.0
  0
LINE
  5
3278
  8
AM_0
 10
413.30037871952879
 20
312.72325380843552
 30
0.0
 11
413.30037871952879
 21
285.72326880843559
 31
0.0
  0
LINE
  5
3279
  8
AM_0
 10
379.30032871952881
 20
285.72326880843559
 30
0.0
 11
413.30037871952879
 21
285.72326880843559
 31
0.0
  0
LINE
  5
327B
  8
ﾁｭｳｼﾝｾﾝ
 10
420.27638575591573
 20
297.72326880843559
 30
0.0
 11
289.39965268999782
 21
297.72326880843559
 31
0.0
  0
LINE
  5
327C
  8
ﾁｭｳｼﾝｾﾝ
 10
625.62119121249043
 20
352.78884115253771
 30
0.0
 11
625.62119121249043
 21
198.4889958084355
 31
0.0
  0
LINE
  5
327D
  8
AM_0
 10
381.30033871952912
 20
312.72325380843552
 30
0.0
 11
381.30033871952912
 21
309.72325380843552
 31
0.0
  0
LINE
  5
327E
  8
AM_0
 10
568.06336221249035
 20
316.74316380843572
 30
0.0
 11
572.64376221249051
 21
320.2578738084357
 31
0.0
  0
LINE
  5
327F
  8
AM_0
 10
572.64376221249051
 20
320.2578438084355
 30
0.0
 11
571.8901622124904
 21
325.98196380843558
 31
0.0
  0
LINE
  5
3280
  8
AM_0
 10
571.8901622124904
 20
325.98193380843549
 30
0.0
 11
566.55616221249034
 21
328.19137380843563
 31
0.0
  0
LINE
  5
3281
  8
AM_0
 10
566.5561922124906
 20
328.19137380843563
 30
0.0
 11
561.97573221249036
 21
324.67669380843557
 31
0.0
  0
LINE
  5
3282
  8
AM_0
 10
561.97573221249036
 20
324.67669380843557
 30
0.0
 11
562.72930221249067
 21
318.95257380843549
 31
0.0
  0
LINE
  5
3283
  8
AM_0
 10
562.72930221249067
 20
318.95257380843549
 30
0.0
 11
568.06333221249065
 21
316.74313380843557
 31
0.0
  0
LINE
  5
3284
  8
AM_0
 10
678.59866821249045
 20
320.2577538084355
 30
0.0
 11
683.17909821249043
 21
316.74307380843561
 31
0.0
  0
LINE
  5
3285
  8
AM_0
 10
679.35224121249041
 20
325.98187380843558
 30
0.0
 11
678.59863821249041
 21
320.2577538084355
 31
0.0
  0
LINE
  5
3286
  8
AM_0
 10
684.68628621249024
 20
328.19131380843561
 30
0.0
 11
679.35225621249037
 21
325.9819038084355
 31
0.0
  0
LINE
  5
3287
  8
AM_0
 10
689.26671621249045
 20
324.67660380843557
 30
0.0
 11
684.68628621249024
 21
328.19128380843563
 31
0.0
  0
LINE
  5
3288
  8
AM_0
 10
683.17909821249043
 20
316.74310380843548
 30
0.0
 11
688.51312821249041
 21
318.9525138084357
 31
0.0
  0
LINE
  5
3289
  8
AM_0
 10
649.16802021249043
 20
213.33282480843559
 30
0.0
 11
648.41443521249039
 21
207.60871680843559
 31
0.0
  0
LINE
  5
328A
  8
AM_0
 10
648.41445021249035
 20
207.6087018084356
 30
0.0
 11
652.99487721249034
 21
204.09402480843559
 31
0.0
  0
LINE
  5
328B
  8
AM_0
 10
654.50208021249045
 20
215.54224980843551
 30
0.0
 11
649.16805021249036
 21
213.33282480843559
 31
0.0
  0
LINE
  5
328C
  8
AM_0
 10
659.08249521249024
 20
212.02753980843559
 30
0.0
 11
654.50206521249049
 21
215.54223480843561
 31
0.0
  0
LINE
  5
328D
  8
AM_0
 10
652.99487721249034
 20
204.09403980843561
 30
0.0
 11
658.32890721249044
 21
206.30346480843559
 31
0.0
  0
LINE
  5
328E
  8
AM_0
 10
658.3288772124904
 20
206.3034498084356
 30
0.0
 11
659.08248021249051
 21
212.0275578084356
 31
0.0
  0
LINE
  5
328F
  8
AM_0
 10
602.82794721249081
 20
207.60873180843561
 30
0.0
 11
602.07434421249047
 21
213.33283980843541
 31
0.0
  0
LINE
  5
3290
  8
AM_0
 10
598.24750221249042
 20
204.09403980843561
 30
0.0
 11
602.82794721249081
 21
207.60871680843559
 31
0.0
  0
LINE
  5
3291
  8
AM_0
 10
602.07437421249051
 20
213.3328098084356
 30
0.0
 11
596.74035921249026
 21
215.54223480843561
 31
0.0
  0
LINE
  5
3292
  8
AM_0
 10
596.74032921249045
 20
215.54224980843551
 30
0.0
 11
592.15991421249043
 21
212.0275578084356
 31
0.0
  0
LINE
  5
3293
  8
AM_0
 10
592.91351721249043
 20
206.30343480843561
 30
0.0
 11
598.24753221249046
 21
204.09400680843549
 31
0.0
  0
LINE
  5
3294
  8
AM_0
 10
592.1598842124904
 20
212.02757280843551
 30
0.0
 11
592.91348721249051
 21
206.30346480843559
 31
0.0
  0
LINE
  5
3295
  8
AM_0
 10
629.62117521249047
 20
312.72325380843552
 30
0.0
 11
629.62117521249047
 21
305.72326380843549
 31
0.0
  0
LINE
  5
3296
  8
AM_0
 10
621.62118921249044
 20
312.72325380843552
 30
0.0
 11
621.62118921249044
 21
305.72326380843549
 31
0.0
  0
LINE
  5
3297
  8
AM_0
 10
621.62118921249044
 20
312.72325380843552
 30
0.0
 11
629.62117521249047
 21
312.72325380843552
 31
0.0
  0
LINE
  5
3298
  8
AM_0
 10
621.62118921249044
 20
305.72326380843549
 30
0.0
 11
629.62117521249047
 21
305.72326380843549
 31
0.0
  0
LINE
  5
3299
  8
AM_0
 10
381.30033871952912
 20
312.72325380843552
 30
0.0
 11
413.30037871952879
 21
312.72325380843552
 31
0.0
  0
LINE
  5
32A0
  8
AM_0
 10
318.30033871952912
 20
328.24078380843571
 30
0.0
 11
321.30033871952912
 21
328.24078380843571
 31
0.0
  0
LINE
  5
32A1
  8
AM_0
 10
318.30033871952912
 20
316.69375380843559
 30
0.0
 11
321.30033871952912
 21
316.69375380843559
 31
0.0
  0
LINE
  5
32A2
  8
AM_0
 10
318.30033871952912
 20
319.58050380843571
 30
0.0
 11
321.30033871952912
 21
319.58050380843571
 31
0.0
  0
LINE
  5
32A3
  8
AM_0
 10
318.30033871952912
 20
325.35400380843561
 30
0.0
 11
321.30033871952912
 21
325.35400380843561
 31
0.0
  0
LINE
  5
32A4
  8
AM_0
 10
322.30032871952892
 20
317.69371380843558
 30
0.0
 11
322.30032871952892
 21
327.24076380843559
 31
0.0
  0
LINE
  5
32A5
  8
AM_0
 10
318.30033871952912
 20
329.24077380843562
 30
0.0
 11
318.30033871952912
 21
315.69376380843562
 31
0.0
  0
LINE
  5
32A6
  8
AM_0
 10
689.26665321249038
 20
324.67666380843559
 30
0.0
 11
688.51306821249057
 21
318.95257380843549
 31
0.0
  0
LINE
  5
32A7
  8
AM_0
 10
317.30040871952878
 20
329.24077380843562
 30
0.0
 11
318.30033871952912
 21
329.24077380843562
 31
0.0
  0
LINE
  5
32A8
  8
AM_0
 10
317.30040871952878
 20
315.69376380843562
 30
0.0
 11
318.30033871952912
 21
315.69376380843562
 31
0.0
  0
LINE
  5
32A9
  8
AM_0
 10
294.30033871952912
 20
327.3904338084356
 30
0.0
 11
294.30033871952912
 21
307.75132380843547
 31
0.0
  0
LINE
  5
32AA
  8
ﾁｭｳｼﾝｾﾝ
 10
126.90393858048169
 20
277.72326780843559
 30
0.0
 11
303.72628845075178
 21
277.72326780843559
 31
0.0
  0
LINE
  5
32AB
  8
AM_0
 10
268.30032871952892
 20
333.72328380843561
 30
0.0
 11
294.43125871952918
 21
334.40752380843549
 31
0.0
  0
LINE
  5
32AC
  8
AM_0
 10
268.30038871952911
 20
221.7232818084355
 30
0.0
 11
291.37887871952893
 21
221.11894080843561
 31
0.0
  0
LINE
  5
32AD
  8
AM_0
 10
268.30038871952911
 20
221.72326680843551
 30
0.0
 11
268.30038871952911
 21
333.72328380843561
 31
0.0
  0
LINE
  5
32AE
  8
AM_0
 10
301.30038871952911
 20
348.72328380843561
 30
0.0
 11
306.30033871952912
 21
348.72328380843561
 31
0.0
  0
LINE
  5
32AF
  8
AM_0
 10
299.30040871952878
 20
346.72327380843558
 30
0.0
 11
299.30040871952878
 21
331.39042380843563
 31
0.0
  0
LINE
  5
32B1
  8
AM_0
 10
703.62119121249043
 20
214.72327980843559
 30
0.0
 11
692.85277521249043
 21
317.35345380843557
 31
0.0
  0
LINE
  5
32B2
  8
AM_0
 10
671.62120521249039
 20
205.72327980843559
 30
0.0
 11
667.62119121249043
 21
205.72327980843559
 31
0.0
  0
LINE
  5
32B3
  8
AM_0
 10
672.62119221249066
 20
203.72329680843561
 30
0.0
 11
578.62123221249044
 21
203.72329680843561
 31
0.0
  0
LINE
  5
32B4
  8
AM_0
 10
583.62118821249044
 20
205.72327980843559
 30
0.0
 11
579.62118921249044
 21
205.72327980843559
 31
0.0
  0
LINE
  5
32B5
  8
AM_0
 10
664.62119121249043
 20
214.72327980843559
 30
0.0
 11
664.62119121249043
 21
208.72327980843559
 31
0.0
  0
LINE
  5
32B6
  8
AM_0
 10
673.62119121249043
 20
202.72327980843559
 30
0.0
 11
673.62119121249043
 21
212.72329680843561
 31
0.0
  0
LINE
  5
32B7
  8
ﾁｭｳｼﾝｾﾝ1
 10
560.62120221249052
 20
219.26873580843559
 30
0.0
 11
560.62120221249052
 21
198.17782380843551
 31
0.0
  0
LINE
  5
32B8
  8
ﾁｭｳｼﾝｾﾝ1
 10
690.6212072124905
 20
219.26873580843559
 30
0.0
 11
690.6212072124905
 21
198.17782380843551
 31
0.0
  0
LINE
  5
32B9
  8
AM_0
 10
591.62118921249044
 20
219.72328080843559
 30
0.0
 11
659.62120521249028
 21
219.72328080843559
 31
0.0
  0
LINE
  5
32BA
  8
ﾁｭｳｼﾝｾﾝ1
 10
359.30037871952902
 20
219.26873580843559
 30
0.0
 11
359.30037871952891
 21
199.29036316227121
 31
0.0
  0
LINE
  5
32BB
  8
AM_0
 10
277.30038871952911
 20
202.72327980843559
 30
0.0
 11
302.30040871952889
 21
202.72327980843559
 31
0.0
  0
LINE
  5
32BC
  8
AM_0
 10
279.30033871952912
 20
214.72327980843559
 30
0.0
 11
298.24974871952912
 21
214.72327980843559
 31
0.0
  0
LINE
  5
32BD
  8
AM_0
 10
346.30035871952919
 20
202.72327980843559
 30
0.0
 11
371.30037871952891
 21
202.72327980843559
 31
0.0
  0
LINE
  5
32BE
  8
ﾁｭｳｼﾝｾﾝ1
 10
289.30038871952911
 20
219.26873580843551
 30
0.0
 11
289.30038871952911
 21
199.29036316227121
 31
0.0
  0
LINE
  5
32BF
  8
AM_0
 10
306.30033871952912
 20
348.72328380843561
 30
0.0
 11
306.30033871952912
 21
233.58042780843559
 31
0.0
  0
LINE
  5
32C0
  8
AM_0
 10
306.30039871952908
 20
348.72328380843561
 30
0.0
 11
350.43126871952887
 21
347.56765380843552
 31
0.0
  0
LINE
  5
32C1
  8
AM_0
 10
359.86458871952902
 20
331.46131380843559
 30
0.0
 11
365.56185871952903
 21
330.9628638084356
 31
0.0
  0
LINE
  5
32C2
  8
AM_0
 10
368.30037871952891
 20
327.97426380843569
 30
0.0
 11
368.30037871952891
 21
218.4678348084355
 31
0.0
  0
LINE
  5
32C3
  8
AM_0
 10
277.30038871952911
 20
212.7232668084356
 30
0.0
 11
277.30038871952911
 21
202.72327980843559
 31
0.0
  0
LINE
  5
32C4
  8
AM_0
 10
303.30033871952912
 20
203.72326680843551
 30
0.0
 11
345.30033871952912
 21
203.72326680843551
 31
0.0
  0
LINE
  5
32C5
  8
AM_0
 10
371.30037871952891
 20
212.7232668084356
 30
0.0
 11
371.30037871952891
 21
202.72327980843559
 31
0.0
  0
LINE
  5
32C6
  8
AM_0
 10
309.30033871952912
 20
217.72327980843551
 30
0.0
 11
309.30033871952912
 21
247.72328280843561
 31
0.0
  0
LINE
  5
32C7
  8
ｶｸﾚｾﾝ2
 10
295.30038871952911
 20
214.72327980843559
 30
0.0
 11
295.30038871952911
 21
202.72327980843559
 31
0.0
  0
LINE
  5
32C8
  8
ｶｸﾚｾﾝ2
 10
283.30038871952911
 20
214.72327980843559
 30
0.0
 11
283.30038871952911
 21
202.72327980843559
 31
0.0
  0
LINE
  5
32C9
  8
ｶｸﾚｾﾝ2
 10
566.62123221249044
 20
214.72327980843559
 30
0.0
 11
566.62123221249044
 21
202.72327980843559
 31
0.0
  0
LINE
  5
32CA
  8
ｶｸﾚｾﾝ2
 10
554.62123221249044
 20
214.72327980843559
 30
0.0
 11
554.62123221249044
 21
202.72327980843559
 31
0.0
  0
LINE
  5
32CB
  8
AM_0
 10
547.62118221249045
 20
202.72327980843559
 30
0.0
 11
547.62118221249045
 21
214.72327980843559
 31
0.0
  0
LINE
  5
32CC
  8
AM_0
 10
547.62118221249045
 20
202.72327980843559
 30
0.0
 11
577.62118221249045
 21
202.72327980843559
 31
0.0
  0
LINE
  5
32CD
  8
AM_0
 10
575.62123221249044
 20
214.72327980843559
 30
0.0
 11
549.62119221249031
 21
214.72327980843559
 31
0.0
  0
LINE
  5
32CE
  8
AM_0
 10
309.30033871952912
 20
284.93954580843558
 30
0.0
 11
309.30033871952912
 21
248.24774280843559
 31
0.0
  0
LINE
  5
32CF
  8
AM_0
 10
347.30037871952891
 20
214.72327980843559
 30
0.0
 11
369.30033871952912
 21
214.72327980843559
 31
0.0
  0
LINE
  5
32D0
  8
AM_0
 10
298.24974871952912
 20
214.72327980843559
 30
0.0
 11
306.30033871952912
 21
214.72327980843559
 31
0.0
  0
LINE
  5
32D1
  8
ｶｸﾚｾﾝ2
 10
365.30037871952891
 20
214.72327980843559
 30
0.0
 11
365.30037871952891
 21
202.72327980843559
 31
0.0
  0
LINE
  5
32D2
  8
ｶｸﾚｾﾝ2
 10
684.62119221249066
 20
214.72327980843559
 30
0.0
 11
684.62119221249066
 21
202.72327980843559
 31
0.0
  0
LINE
  5
32D3
  8
AM_0
 10
320.30040871952878
 20
329.25073380843571
 30
0.0
 11
355.30035871952919
 21
329.25073380843571
 31
0.0
  0
LINE
  5
32D4
  8
ｶｸﾚｾﾝ2
 10
353.30037871952891
 20
214.72327980843559
 30
0.0
 11
353.30037871952891
 21
202.72327980843559
 31
0.0
  0
LINE
  5
32D5
  8
AM_0
 10
302.30040871952889
 20
202.72327980843559
 30
0.0
 11
302.30040871952889
 21
202.72327980843559
 31
0.0
  0
LINE
  5
32D6
  8
AM_0
 10
342.30033871952912
 20
307.51408380843571
 30
0.0
 11
342.30033871952912
 21
219.72328080843559
 31
0.0
  0
LINE
  5
32D7
  8
AM_0
 10
547.62118221249045
 20
214.72327980843559
 30
0.0
 11
558.38962221249039
 21
317.35345380843557
 31
0.0
  0
LINE
  5
32D8
  8
AM_0
 10
355.30035871952919
 20
342.56938380843559
 30
0.0
 11
355.30035871952919
 21
233.7640848084356
 31
0.0
  0
LINE
  5
32D9
  8
ｶｸﾚｾﾝ2
 10
696.62120721249039
 20
214.72327980843559
 30
0.0
 11
696.62120721249039
 21
202.72327980843559
 31
0.0
  0
LINE
  5
32DA
  8
AM_0
 10
703.62119121249043
 20
202.72327980843559
 30
0.0
 11
673.62119121249043
 21
202.72327980843559
 31
0.0
  0
LINE
  5
32DB
  8
AM_0
 10
675.62119221249066
 20
214.72327980843559
 30
0.0
 11
701.6212082124905
 21
214.72327980843559
 31
0.0
  0
LINE
  5
32DC
  8
AM_0
 10
342.30033871952912
 20
229.76409780843551
 30
0.0
 11
351.30033871952912
 21
229.76409780843551
 31
0.0
  0
LINE
  5
32DD
  8
AM_0
 10
586.62118821249044
 20
214.72327980843559
 30
0.0
 11
586.62118821249044
 21
208.72327980843559
 31
0.0
  0
LINE
  5
32DE
  8
AM_0
 10
577.62118221249045
 20
202.72327980843559
 30
0.0
 11
577.62118221249045
 21
212.72329680843561
 31
0.0
  0
LINE
  5
32DF
  8
AM_0
 10
678.62119221249066
 20
312.97582380843562
 30
0.0
 11
678.62119221249066
 21
251.72326680843551
 31
0.0
  0
LINE
  5
32E0
  8
AM_0
 10
703.62119121249043
 20
202.72327980843559
 30
0.0
 11
703.62119121249043
 21
214.72327980843559
 31
0.0
  0
LINE
  5
32E1
  8
AM_0
 10
350.30037871952891
 20
315.51406380843548
 30
0.0
 11
355.30035871952919
 21
315.51406380843548
 31
0.0
  0
LINE
  5
32E2
  8
AM_0
 10
572.62123221249044
 20
312.97582380843562
 30
0.0
 11
572.62123221249044
 21
251.72326680843551
 31
0.0
  0
LINE
  5
32E3
  8
AM_0
 10
577.62118221249045
 20
282.72326880843571
 30
0.0
 11
577.62118221249045
 21
219.72328080843559
 31
0.0
  0
LINE
  5
32E4
  8
AM_0
 10
673.62119121249043
 20
282.72326880843571
 30
0.0
 11
673.62119121249043
 21
219.72328080843559
 31
0.0
  0
LINE
  5
32E5
  8
AM_0
 10
346.30035871952919
 20
202.72327980843559
 30
0.0
 11
346.30035871952919
 21
202.72327980843559
 31
0.0
  0
LINE
  5
32E6
  8
AM_0
 10
303.14091871952883
 20
218.68576080843559
 30
0.0
 11
309.19149871952908
 21
247.2102198084356
 31
0.0
  0
LINE
  5
32E7
  8
AM_0
 10
317.30040871952878
 20
334.25005380843561
 30
0.0
 11
317.30040871952878
 21
311.3480238084357
 31
0.0
  0
LINE
  5
32EA
  8
AM_0
 10
320.30040871952878
 20
348.27811380843559
 30
0.0
 11
320.30040871952878
 21
329.25073380843571
 31
0.0
  0
LINE
  5
32EB
  8
AM_0
 10
320.30034871952893
 20
348.27811380843559
 30
0.0
 11
333.88230871952908
 21
329.25073380843571
 31
0.0
  0
LINE
  5
32EC
  8
AM_0
 10
320.30040871952878
 20
311.07199380843559
 30
0.0
 11
320.30040871952878
 21
284.93954580843558
 31
0.0
  0
LINE
  5
32ED
  8
AM_0
 10
333.12999871952911
 20
311.07199380843559
 30
0.0
 11
320.30034871952893
 21
284.93954580843558
 31
0.0
  0
LINE
  5
32EE
  8
AM_0
 10
309.30033871952912
 20
284.93954580843558
 30
0.0
 11
320.30040871952878
 21
284.93954580843558
 31
0.0
  0
LINE
  5
32EF
  8
AM_0
 10
320.30040871952878
 20
311.07199380843559
 30
0.0
 11
343.13508871952888
 21
311.07199380843559
 31
0.0
  0
LINE
  5
32F0
  8
AM_0
 10
296.30040871952878
 20
329.39041380843548
 30
0.0
 11
297.30033871952912
 21
329.39041380843548
 31
0.0
  0
LINE
  5
32F1
  8
AM_0
 10
294.30033871952912
 20
228.5075388084357
 30
0.0
 11
299.30040871952878
 21
228.5075388084357
 31
0.0
  0
LINE
  5
32F2
  8
AM_0
 10
294.30033871952912
 20
305.75131380843561
 30
0.0
 11
299.30040871952878
 21
305.75131380843561
 31
0.0
  0
LINE
  5
32F3
  8
AM_0
 10
296.30040871952878
 20
321.21763380843572
 30
0.0
 11
297.30033871952912
 21
321.21763380843572
 31
0.0
  0
LINE
  5
32F4
  8
AM_0
 10
299.30040871952878
 20
319.21762380843569
 30
0.0
 11
299.30040871952878
 21
214.8531948084356
 31
0.0
  0
LINE
  5
32F5
  8
AM_0
 10
294.30033871952912
 20
226.5075228084356
 30
0.0
 11
294.30033871952912
 21
214.72327980843559
 31
0.0
  0
LINE
  5
32F6
  8
AM_0
 10
268.30038871952911
 20
323.7232638084356
 30
0.0
 11
294.30033871952912
 21
323.7232638084356
 31
0.0
  0
LINE
  5
32F7
  8
AM_0
 10
268.30038871952911
 20
309.66028380843551
 30
0.0
 11
294.30033871952912
 21
309.66028380843551
 31
0.0
  0
LINE
  5
32F8
  8
AM_0
 10
268.30038871952911
 20
245.78625480843559
 30
0.0
 11
299.30040871952878
 21
245.78625480843559
 31
0.0
  0
LINE
  5
32F9
  8
AM_0
 10
268.30038871952911
 20
231.72328080843559
 30
0.0
 11
299.30040871952878
 21
231.72328080843559
 31
0.0
  0
LINE
  5
3314
  8
ﾁｭｳｼﾝｾﾝ
 10
699.79558131041961
 20
277.72326780843559
 30
0.0
 11
507.60645106913751
 21
277.72326780843559
 31
0.0
  0
CIRCLE
  5
33C9
  8
AM_0
 10
567.3097322124903
 20
322.46725380843571
 30
0.0
 40
4.9999998000000003
  0
CIRCLE
  5
33CA
  8
AM_0
 10
683.93266821249051
 20
322.46719380843558
 30
0.0
 40
4.9999998000000003
  0
CIRCLE
  5
33CB
  8
AM_0
 10
653.74843221249046
 20
209.81814480843559
 30
0.0
 40
4.9999998000000003
  0
CIRCLE
  5
33CC
  8
AM_0
 10
597.49389921249042
 20
209.81814480843559
 30
0.0
 40
4.9999998000000003
  0
ARC
  5
33CD
  8
AM_0
 10
625.62119121249043
 20
297.72326880843559
 30
0.0
 40
12.0000003
 50
109.4712199999996
 51
70.528788999999307
  0
ARC
  5
33CF
  8
AM_0
 10
321.30033871952912
 20
320.5804638084357
 30
0.0
 40
1.0000000199999981
 50
270.0
 51
0.0
  0
ARC
  5
33D0
  8
AM_0
 10
321.30033871952912
 20
324.35401380843558
 30
0.0
 40
1.0000000199999981
 50
0.0
 51
90.00000299999769
  0
ARC
  5
33D1
  8
AM_0
 10
321.30033871952912
 20
326.35399380843569
 30
0.0
 40
1.0000000199999981
 50
270.0
 51
0.0
  0
ARC
  5
33D2
  8
AM_0
 10
321.30033871952912
 20
318.58051380843563
 30
0.0
 40
1.0000000199999981
 50
0.0
 51
90.00000299999769
  0
ARC
  5
33D3
  8
AM_0
 10
321.30033871952912
 20
317.69371380843558
 30
0.0
 40
1.0000000199999981
 50
270.0
 51
0.0
  0
ARC
  5
33D4
  8
AM_0
 10
321.30033871952912
 20
327.24076380843559
 30
0.0
 40
1.0000000199999981
 50
0.0
 51
90.00000299999769
  0
CIRCLE
  5
33D7
  8
AM_0
 62
     2
 10
625.62119121249043
 20
297.72326880843559
 30
0.0
 40
4.0000001999999979
  0
CIRCLE
  5
33D8
  8
AM_0
 10
625.62119121249043
 20
297.72326880843559
 30
0.0
 40
3.0
  0
ARC
  5
33D9
  8
AM_0
 10
294.30033871952912
 20
339.40582380843563
 30
0.0
 40
5.0000001000000003
 50
271.50000000000267
 51
0.0
  0
ARC
  5
33DA
  8
AM_0
 10
301.30038871952911
 20
346.72327380843558
 30
0.0
 40
2.00000007
 50
90.00000299999769
 51
180.00001000000091
  0
ARC
  5
33DB
  8
AM_0
 10
291.30033871952912
 20
218.1199638084355
 30
0.0
 40
3.0
 50
0.0
 51
88.499997000000647
  0
ARC
  5
33DC
  8
AM_0
 10
686.20932621249051
 20
308.59525380843559
 30
0.0
 40
3.0
 50
27.00057300000061
 51
84.294261000001953
  0
ARC
  5
33DD
  8
AM_0
 10
365.30037871952891
 20
327.97426380843569
 30
0.0
 40
3.0
 50
0.0
 51
84.999996999998885
  0
ARC
  5
33DE
  8
AM_0
 10
360.30033871952912
 20
336.44227380843552
 30
0.0
 40
5.0000001000000003
 50
179.999989999999
 51
265.0
  0
ARC
  5
33DF
  8
AM_0
 10
565.03306221249045
 20
308.59525380843559
 30
0.0
 40
3.0
 50
95.705737999999187
 51
152.99941999999919
  0
ARC
  5
33E0
  8
AM_0
 10
572.62123221249044
 20
219.72328080843559
 30
0.0
 40
5.0000001000000003
 50
270.0
 51
0.0
  0
ARC
  5
33E1
  8
AM_0
 10
577.62118221249045
 20
312.97582380843562
 30
0.0
 40
5.0000001000000003
 50
138.71941000000029
 51
180.00001000000091
  0
ARC
  5
33E2
  8
AM_0
 10
580.11975321249042
 20
328.25662380843562
 30
0.0
 40
3.0
 50
132.0006499999993
 51
189.2943400000016
  0
ARC
  5
33E3
  8
AM_0
 10
673.62119121249043
 20
312.97582380843562
 30
0.0
 40
5.0000001000000003
 50
0.0
 51
41.280591000000221
  0
ARC
  5
33E4
  8
AM_0
 10
672.62119221249066
 20
202.72327980843559
 30
0.0
 40
1.0000000199999981
 50
0.0
 51
90.00000299999769
  0
ARC
  5
33E5
  8
AM_0
 10
578.62123221249044
 20
202.72327980843559
 30
0.0
 40
1.0000000199999981
 50
90.00000299999769
 51
180.00001000000091
  0
ARC
  5
33E6
  8
AM_0
 10
583.62118821249044
 20
208.72327980843559
 30
0.0
 40
3.0
 50
270.0
 51
0.0
  0
ARC
  5
33E7
  8
AM_0
 10
579.62118921249044
 20
203.72329680843561
 30
0.0
 40
2.00000007
 50
90.00000299999769
 51
180.00001000000091
  0
ARC
  5
33E8
  8
AM_0
 10
670.68843621249027
 20
333.55969380843561
 30
0.0
 40
5.0000001000000003
 50
334.93703000000249
 51
64.582444000001288
  0
ARC
  5
33E9
  8
AM_0
 10
318.30033871952912
 20
334.25005380843561
 30
0.0
 40
1.0000000199999981
 50
90.00000299999769
 51
180.00001000000091
  0
ARC
  5
33EA
  8
AM_0
 10
345.30033871952912
 20
202.72327980843559
 30
0.0
 40
1.0000000199999981
 50
0.0
 51
90.00000299999769
  0
ARC
  5
33EB
  8
AM_0
 10
304.30038871952911
 20
248.24774280843559
 30
0.0
 40
5.0000001000000003
 50
348.0238700000001
 51
0.0
  0
ARC
  5
33ED
  8
AM_0
 10
625.62119121249043
 20
277.72326780843559
 30
0.0
 40
71.000000999999983
 50
5.9898141999996781
 51
27.00057300000061
  0
ARC
  5
33EE
  8
AM_0
 10
549.62119221249031
 20
212.72329680843561
 30
0.0
 40
2.00000007
 50
90.00000299999769
 51
180.00001000000091
  0
ARC
  5
33EF
  8
AM_0
 10
306.30033871952912
 20
217.72327980843551
 30
0.0
 40
3.0
 50
270.0
 51
0.0
  0
ARC
  5
33F0
  8
AM_0
 10
625.62119121249043
 20
282.72326880843571
 30
0.0
 40
48.0
 50
0.0
 51
77.663515021264985
  0
ARC
  5
33F1
  8
AM_0
 10
351.30033871952912
 20
233.7640848084356
 30
0.0
 40
4.0000001999999979
 50
270.0
 51
0.0
  0
ARC
  5
33F2
  8
AM_0
 10
563.34292221249029
 20
325.51102380843548
 30
0.0
 40
13.9999986
 50
266.80063999999879
 51
25.062969000000368
  0
ARC
  5
33F3
  8
AM_0
 10
678.62119221249066
 20
219.72328080843559
 30
0.0
 40
5.0000001000000003
 50
179.999989999999
 51
270.0
  0
ARC
  5
33F4
  8
AM_0
 10
667.62119121249043
 20
208.72327980843559
 30
0.0
 40
3.0
 50
179.999989999999
 51
270.0
  0
ARC
  5
33F5
  8
AM_0
 10
350.30037871952891
 20
342.56938380843559
 30
0.0
 40
5.0000001000000003
 50
0.0
 51
88.499997000000647
  0
ARC
  5
33F6
  8
AM_0
 10
373.30035871952919
 20
218.4678348084355
 30
0.0
 40
5.0000001000000003
 50
179.999989999999
 51
235.15011000000041
  0
ARC
  5
33F7
  8
AM_0
 10
369.30033871952912
 20
212.7232668084356
 30
0.0
 40
2.00000007
 50
0.0
 51
90.00000299999769
  0
ARC
  5
33F8
  8
AM_0
 10
279.30033871952912
 20
212.7232668084356
 30
0.0
 40
2.00000007
 50
90.00000299999769
 51
180.00001000000091
  0
ARC
  5
33F9
  8
AM_0
 10
303.30033871952912
 20
202.72327980843559
 30
0.0
 40
1.0000000199999981
 50
90.00000299999769
 51
180.00001000000091
  0
ARC
  5
33FA
  8
AM_0
 10
575.62123221249044
 20
212.72329680843561
 30
0.0
 40
2.00000007
 50
0.0
 51
90.00000299999769
  0
ARC
  5
33FB
  8
AM_0
 10
687.89946621249021
 20
325.51102380843548
 30
0.0
 40
13.9999986
 50
154.9370400000038
 51
273.19937000000078
  0
ARC
  5
33FC
  8
AM_0
 10
347.30037871952891
 20
219.72328080843559
 30
0.0
 40
5.0000001000000003
 50
180.00001000000091
 51
270.0
  0
ARC
  5
33FE
  8
AM_0
 10
701.6212082124905
 20
212.72329680843561
 30
0.0
 40
2.00000007
 50
0.0
 51
90.00000299999769
  0
ARC
  5
33FF
  8
AM_0
 10
591.62118921249044
 20
214.72327980843559
 30
0.0
 40
5.0000001000000003
 50
90.00000299999769
 51
180.00001000000091
  0
ARC
  5
3400
  8
AM_0
 10
625.62119121249043
 20
277.72326780843559
 30
0.0
 40
71.000000999999983
 50
47.999359000001277
 51
132.0006499999993
  0
ARC
  5
3401
  8
AM_0
 10
675.62119221249066
 20
212.72329680843561
 30
0.0
 40
2.00000007
 50
90.00000299999769
 51
180.00001000000091
  0
ARC
  5
3402
  8
AM_0
 10
659.62120521249028
 20
214.72327980843559
 30
0.0
 40
5.0000001000000003
 50
0.0
 51
90.00000299999769
  0
ARC
  5
3403
  8
AM_0
 10
625.62119121249043
 20
277.72326780843559
 30
0.0
 40
71.000000999999983
 50
152.99941999999919
 51
174.01019000000019
  0
ARC
  5
3404
  8
AM_0
 10
350.30037871952891
 20
307.51408380843571
 30
0.0
 40
8.0000000999999976
 50
90.00000299999769
 51
180.00001000000091
  0
ARC
  5
3405
  8
AM_0
 10
298.24974871952912
 20
219.72328080843559
 30
0.0
 40
5.0000001000000003
 50
270.0
 51
348.0238700000001
  0
ARC
  5
3406
  8
AM_0
 10
606.62118921249044
 20
251.72326680843551
 30
0.0
 40
34.000002000000002
 50
179.999989999999
 51
211.4669699999979
  0
ARC
  5
3407
  8
AM_0
 10
688.95986121249018
 20
306.54061380843569
 30
0.0
 40
5.0000001000000003
 50
5.9898155000032931
 51
93.199358999997614
  0
ARC
  5
3408
  8
AM_0
 10
671.62120521249039
 20
203.72329680843561
 30
0.0
 40
2.00000007
 50
0.0
 51
90.00000299999769
  0
ARC
  5
3409
  8
AM_0
 10
644.62120521249051
 20
251.72326680843551
 30
0.0
 40
34.000002000000002
 50
328.53301999999962
 51
0.0
  0
ARC
  5
340B
  8
AM_0
 10
370.30035871952919
 20
327.11002380843553
 30
0.0
 40
2.00000007
 50
179.999989999999
 51
240.00000999999969
  0
ARC
  5
340C
  8
AM_0
 10
370.30035871952919
 20
268.33651680843559
 30
0.0
 40
2.00000007
 50
120.0000000000005
 51
180.00001000000091
  0
ARC
  5
340E
  8
AM_0
 10
578.28043221249038
 20
315.26641380843557
 30
0.0
 40
20.000000700000001
 50
121.73616999999869
 51
174.01019000000019
  0
ARC
  5
340F
  8
AM_0
 10
672.96196521249044
 20
315.26641380843557
 30
0.0
 40
20.000000700000001
 50
5.9898155000032931
 51
58.263836000000381
  0
ARC
  5
3410
  8
AM_0
 10
580.55395821249044
 20
333.55969380843561
 30
0.0
 40
5.0000001000000003
 50
115.41755999999791
 51
205.06296999999751
  0
ARC
  5
3411
  8
AM_0
 10
625.62119121249043
 20
238.72328280843561
 30
0.0
 40
110.000004
 50
58.263836000000381
 51
121.73616999999869
  0
ARC
  5
3412
  8
AM_0
 10
671.12265621249026
 20
328.25662380843562
 30
0.0
 40
3.0
 50
350.70566999999772
 51
47.999359000001277
  0
ARC
  5
3413
  8
AM_0
 10
562.28254221249017
 20
306.54061380843569
 30
0.0
 40
5.0000001000000003
 50
86.800639000002093
 51
174.01019000000019
  0
ARC
  5
3414
  8
AM_0
 10
318.30033871952912
 20
311.3480238084357
 30
0.0
 40
1.0000000199999981
 50
179.999989999999
 51
270.0
  0
ARC
  5
3415
  8
AM_0
 10
318.30033871952912
 20
308.34802380843558
 30
0.0
 40
2.00000007
 50
0.0
 51
90.00000299999769
  0
ARC
  5
3416
  8
AM_0
 10
318.30033871952912
 20
337.25005380843561
 30
0.0
 40
2.00000007
 50
270.0
 51
0.0
  0
ARC
  5
3417
  8
AM_0
 10
296.30040871952878
 20
327.3904338084356
 30
0.0
 40
2.00000007
 50
90.00000299999769
 51
180.00001000000091
  0
ARC
  5
3418
  8
AM_0
 10
297.30033871952912
 20
331.39042380843563
 30
0.0
 40
2.00000007
 50
270.0
 51
0.0
  0
ARC
  5
3419
  8
AM_0
 10
296.30040871952878
 20
323.21761380843571
 30
0.0
 40
2.00000007
 50
179.999989999999
 51
270.0
  0
ARC
  5
341A
  8
AM_0
 10
297.30033871952912
 20
319.21762380843569
 30
0.0
 40
2.00000007
 50
0.0
 51
90.00000299999769
  0
ARC
  5
341B
  8
AM_0
 10
292.30038871952911
 20
307.75132380843547
 30
0.0
 40
2.00000007
 50
270.0
 51
0.0
  0
ARC
  5
341C
  8
AM_0
 10
292.30038871952911
 20
226.5075228084356
 30
0.0
 40
2.00000007
 50
0.0
 51
90.00000299999769
  0
LINE
  5
3917
  8
AM_0
 10
374.30032871952881
 20
331.22326580843571
 30
0.0
 11
379.30032871952881
 21
326.22326580843571
 31
0.0
  0
LINE
  5
3918
  8
AM_0
 10
369.80032871952892
 20
331.22326580843571
 30
0.0
 11
374.30032871952892
 21
331.22326580843571
 31
0.0
  0
LINE
  5
3919
  8
AM_0
 10
369.30032871952892
 20
330.72326580843571
 30
0.0
 11
369.30032871952841
 21
264.72326580843611
 31
0.0
  0
LINE
  5
391A
  8
AM_0
 10
379.30032871952881
 20
326.22326580843571
 30
0.0
 11
379.30032871952892
 21
269.2232658084356
 31
0.0
  0
LINE
  5
391B
  8
AM_0
 10
369.80032871952892
 20
264.2232658084356
 30
0.0
 11
374.30032871952881
 21
264.2232658084356
 31
0.0
  0
LINE
  5
391C
  8
AM_0
 10
374.30032871952881
 20
264.2232658084356
 30
0.0
 11
379.30032871952881
 21
269.2232658084356
 31
0.0
  0
LINE
  5
391D
  8
AM_0
 10
369.80032871952892
 20
331.22326580843571
 30
0.0
 11
369.30032871952892
 21
330.72326580843571
 31
0.0
1001
GENIUS_GENFIL_13
1070
     0
1040
0.5
1040
0.5
1040
20.0
1040
0.0
1002
{
1002
}
1001
GENIUS_GENOBJ-N-CHA_13
1002
{
1000
OWNER
1000
GEN
1002
}
1001
GENIUS_GENODEF_13
1002
{
1000
HIER
1070
     0
1002
}
1002
{
1000
MANEDIT
1070
     0
1002
}
1002
{
1000
NOSEL
1070
     0
1002
}
1002
{
1000
BEHIND
1070
     0
1002
}
1002
{
1000
OTHER
1070
     0
1002
}
1002
{
1000
REACTOR
1002
}
  0
LINE
  5
391E
  8
AM_0
 10
369.30032871952892
 20
264.7232658084356
 30
0.0
 11
369.80032871952892
 21
264.2232658084356
 31
0.0
1001
GENIUS_GENFIL_13
1070
     0
1040
0.5
1040
0.5
1040
20.0
1040
0.0
1002
{
1002
}
1001
GENIUS_GENOBJ-N-CHA_13
1002
{
1000
OWNER
1000
GEN
1002
}
1001
GENIUS_GENODEF_13
1002
{
1000
HIER
1070
     0
1002
}
1002
{
1000
MANEDIT
1070
     0
1002
}
1002
{
1000
NOSEL
1070
     0
1002
}
1002
{
1000
BEHIND
1070
     0
1002
}
1002
{
1000
OTHER
1070
     0
1002
}
1002
{
1000
REACTOR
1002
}
  0
LINE
  5
3927
  8
AM_0
 10
374.30032871952892
 20
331.22326580843571
 30
0.0
 11
374.30032871952881
 21
264.2232658084356
 31
0.0
  0
CIRCLE
  5
3928
  8
AM_0
 10
625.62119121249043
 20
297.72326880843559
 30
0.0
 40
33.499999999999893
  0
CIRCLE
  5
3929
  8
AM_0
 10
625.62119121249043
 20
297.72326880843559
 30
0.0
 40
28.49999999999994
  0
ARC
  5
392A
  8
AM_0
 10
625.62119121249043
 20
282.72326880843571
 30
0.0
 40
48.0
 50
102.336484978735
 51
180.00001000000091
  0
LINE
  5
4B7F
  8
ﾁｭｳｼﾝｾﾝ
 10
132.9508887195289
 20
549.75967465099325
 30
0.0
 11
415.49147871952903
 21
549.75967465099325
 31
0.0
  0
LINE
  5
4B80
  8
AM_0
 10
317.30037871952891
 20
499.6924446509932
 30
0.0
 11
317.30037871952891
 21
479.04772465099347
 31
0.0
  0
LINE
  5
4B81
  8
AM_0
 10
318.30037871952908
 20
498.22173465099343
 30
0.0
 11
318.30037871952908
 21
484.67468465099341
 31
0.0
  0
LINE
  5
4B82
  8
AM_0
 10
317.30037871952891
 20
484.67468465099341
 30
0.0
 11
318.30037871952908
 21
484.67468465099341
 31
0.0
  0
LINE
  5
4B83
  8
AM_0
 10
317.30037871952891
 20
498.22173465099343
 30
0.0
 11
318.30037871952908
 21
498.22173465099343
 31
0.0
  0
LINE
  5
4B84
  8
AM_0
 10
322.30034871952893
 20
486.67468465099341
 30
0.0
 11
322.30034871952893
 21
496.2217046509935
 31
0.0
  0
LINE
  5
4B85
  8
AM_0
 10
318.30037871952908
 20
494.33495465099321
 30
0.0
 11
321.30037871952891
 21
494.33495465099321
 31
0.0
  0
LINE
  5
4B86
  8
AM_0
 10
318.30037871952908
 20
488.5614546509932
 30
0.0
 11
321.30037871952891
 21
488.5614546509932
 31
0.0
  0
LINE
  5
4B87
  8
AM_0
 10
318.30037871952908
 20
485.67468465099341
 30
0.0
 11
321.30037871952891
 21
485.67468465099341
 31
0.0
  0
LINE
  5
4B88
  8
AM_0
 10
318.30037871952908
 20
497.2217346509932
 30
0.0
 11
321.30037871952891
 21
497.2217346509932
 31
0.0
  0
LINE
  5
4B8B
  8
AM_0
 10
413.30037871952879
 20
561.75967465099325
 30
0.0
 11
413.30037871952879
 21
537.75967465099347
 31
0.0
  0
LINE
  5
4B8D
  8
AM_0
 10
379.30032871952881
 20
561.75967465099325
 30
0.0
 11
413.30037871952879
 21
561.75967465099325
 31
0.0
  0
LINE
  5
4B8E
  8
AM_0
 10
379.30032871952881
 20
537.75967465099325
 30
0.0
 11
413.30037871952879
 21
537.75967465099347
 31
0.0
  0
LINE
  5
4B8F
  8
AM_0
 10
381.30037871952891
 20
553.75964465099355
 30
0.0
 11
381.30037871952891
 21
545.75967465099325
 31
0.0
  0
LINE
  5
4B90
  8
AM_0
 10
277.30037871952891
 20
624.97341465099339
 30
0.0
 11
277.30037871952891
 21
605.99535465099348
 31
0.0
  0
LINE
  5
4B93
  8
AM_0
 10
371.30037871952891
 20
624.18783465099352
 30
0.0
 11
371.30037871952891
 21
601.33150465099345
 31
0.0
  0
LINE
  5
4B94
  8
AM_0
 10
309.30040871952912
 20
627.75967465099325
 30
0.0
 11
369.35273871952899
 21
626.18713465099324
 31
0.0
  0
LINE
  5
4B95
  8
AM_0
 10
279.24803871952889
 20
626.97274465099349
 30
0.0
 11
309.30037871952919
 21
627.75970465099317
 31
0.0
  0
LINE
  5
4B96
  8
AM_0
 10
306.30037871952891
 20
620.75967465099347
 30
0.0
 11
306.30037871952891
 21
478.75967465099342
 31
0.0
  0
LINE
  5
4B98
  8
AM_0
 10
368.30037871952891
 20
599.30462465099345
 30
0.0
 11
368.30037871952891
 21
500.21471465099341
 31
0.0
  0
LINE
  5
4B9D
  8
AM_0
 10
368.30040871952889
 20
599.30462465099345
 30
0.0
 11
369.35273871952899
 21
599.33218465099355
 31
0.0
  0
LINE
  5
4B9F
  8
AM_0
 10
371.30037871952891
 20
475.33150465099328
 30
0.0
 11
371.30037871952891
 21
498.18783465099358
 31
0.0
  0
LINE
  5
4BA0
  8
AM_0
 10
277.30037871952891
 20
474.54595465099351
 30
0.0
 11
277.30037871952891
 21
493.5239846509935
 31
0.0
  0
LINE
  5
4BA1
  8
AM_0
 10
309.30040871952912
 20
471.75967465099347
 30
0.0
 11
369.35273871952899
 21
473.33218465099333
 31
0.0
  0
LINE
  5
4BA2
  8
AM_0
 10
279.24803871952889
 20
472.54662465099352
 30
0.0
 11
309.30037871952919
 21
471.75967465099347
 31
0.0
  0
LINE
  5
4BA4
  8
AM_0
 10
309.30037871952919
 20
623.90371465099315
 30
0.0
 11
302.30037871952891
 21
627.57638465099353
 31
0.0
  0
LINE
  5
4BA5
  8
AM_0
 10
306.70338871952907
 20
620.74914465099323
 30
0.0
 11
302.30040871952889
 21
623.05923465099352
 31
0.0
  0
LINE
  5
4BA6
  8
AM_0
 10
302.30037871952891
 20
627.57635465099361
 30
0.0
 11
302.30037871952891
 21
623.05926465099355
 31
0.0
  0
LINE
  5
4BA7
  8
AM_0
 10
369.35270871952889
 20
500.18713465099341
 30
0.0
 11
368.30037871952891
 21
500.21468465099332
 31
0.0
  0
LINE
  5
4BA8
  8
AM_0
 10
381.30037871952891
 20
545.75967465099325
 30
0.0
 11
413.30037871952879
 21
545.75967465099325
 31
0.0
  0
LINE
  5
4BA9
  8
AM_0
 10
381.30037871952891
 20
553.75964465099355
 30
0.0
 11
413.30037871952879
 21
553.75964465099355
 31
0.0
  0
LINE
  5
4BAA
  8
AM_0
 10
355.30040871952889
 20
499.50866465099352
 30
0.0
 11
355.30040871952889
 21
600.01067465099345
 31
0.0
  0
LINE
  5
4BAB
  8
AM_0
 10
363.73616871952891
 20
598.15899465099335
 30
0.0
 11
359.03865871952911
 21
598.56997465099346
 31
0.0
  0
LINE
  5
4BAC
  8
AM_0
 10
363.73616871952891
 20
501.36037465099321
 30
0.0
 11
359.03865871952911
 21
500.9493946509935
 31
0.0
  0
LINE
  5
4BAD
  8
AM_0
 10
352.56187871952892
 20
496.52007465099342
 30
0.0
 11
346.86458871952891
 21
496.02163465099352
 31
0.0
  0
LINE
  5
4BAE
  8
AM_0
 10
342.30037871952891
 20
477.75646465099351
 30
0.0
 11
342.30037871952891
 21
491.04064465099327
 31
0.0
  0
LINE
  5
4BAF
  8
AM_0
 10
309.30037871952919
 20
620.68111465099355
 30
0.0
 11
309.30037871952919
 21
623.90368465099323
 31
0.0
  0
LINE
  5
4BB0
  8
AM_0
 10
302.30037871952891
 20
471.94299465099328
 30
0.0
 11
302.30037871952891
 21
476.46008465099328
 31
0.0
  0
LINE
  5
4BB1
  8
AM_0
 10
306.70338871952907
 20
478.7702346509933
 30
0.0
 11
302.30037871952891
 21
476.46011465099321
 31
0.0
  0
LINE
  5
4BB2
  8
AM_0
 10
309.30037871952919
 20
475.61565465099341
 30
0.0
 11
302.30037871952891
 21
471.94299465099328
 31
0.0
  0
LINE
  5
4BB3
  8
AM_0
 10
309.30037871952919
 20
478.83822465099308
 30
0.0
 11
309.30037871952919
 21
475.61565465099341
 31
0.0
  0
LINE
  5
4C6F
  8
AM_0
 10
319.036248719529
 20
479.09316465099329
 30
0.0
 11
306.30040871952889
 21
478.75967465099342
 31
0.0
  0
LINE
  5
4C70
  8
AM_0
 10
319.0362187195289
 20
620.42617465099318
 30
0.0
 11
306.30040871952889
 21
620.75967465099347
 31
0.0
  0
LINE
  5
4C73
  8
AM_0
 10
317.30037871952891
 20
499.6924446509932
 30
0.0
 11
320.30037871952891
 21
499.6924446509932
 31
0.0
  0
LINE
  5
4C74
  8
AM_0
 10
320.300408719529
 20
499.6924446509932
 30
0.0
 11
320.300408719529
 21
599.82690465099336
 31
0.0
  0
LINE
  5
4C75
  8
AM_0
 10
320.300408719529
 20
499.69241465099321
 30
0.0
 11
333.8823787195289
 21
502.2507946509935
 31
0.0
  0
LINE
  5
4C76
  8
AM_0
 10
321.39680871952908
 20
479.7564046509932
 30
0.0
 11
332.03358871952912
 21
485.86962465099327
 31
0.0
  0
LINE
  5
4C77
  8
AM_0
 10
342.30037871952891
 20
608.47866465099355
 30
0.0
 11
342.30037871952891
 21
621.76287465099335
 31
0.0
  0
LINE
  5
4C78
  8
AM_0
 10
352.3789587195289
 20
502.7351346509933
 30
0.0
 11
333.8823787195289
 21
502.2507946509935
 31
0.0
  0
LINE
  5
4C79
  8
AM_0
 10
339.37892871952891
 20
486.66338465099358
 30
0.0
 11
334.39418871952893
 21
486.53283465099349
 31
0.0
  0
LINE
  5
4C7A
  8
AM_0
 10
352.56187871952892
 20
602.99923465099323
 30
0.0
 11
346.86461871952889
 21
603.49770465099346
 31
0.0
  0
LINE
  5
4C7B
  8
AM_0
 10
321.39680871952908
 20
619.76290465099316
 30
0.0
 11
332.03355871952908
 21
613.64971465099347
 31
0.0
  0
LINE
  5
4C7C
  8
AM_0
 10
320.300408719529
 20
599.82690465099336
 30
0.0
 11
333.8823787195289
 21
597.26852465099353
 31
0.0
  0
LINE
  5
4C7D
  8
AM_0
 10
352.3789587195289
 20
596.78417465099335
 30
0.0
 11
333.88234871952892
 21
597.26855465099345
 31
0.0
  0
LINE
  5
4C7E
  8
AM_0
 10
339.37889871952888
 20
612.85595465099345
 30
0.0
 11
334.39415871952889
 21
612.98647465099339
 31
0.0
  0
LINE
  5
4C7F
  8
AM_0
 10
318.30037871952908
 20
602.29763465099325
 30
0.0
 11
321.30037871952891
 21
602.29763465099325
 31
0.0
  0
LINE
  5
4C80
  8
AM_0
 10
318.30037871952908
 20
613.84463465099316
 30
0.0
 11
321.30037871952891
 21
613.84463465099316
 31
0.0
  0
LINE
  5
4C81
  8
AM_0
 10
318.30037871952908
 20
610.95788465099338
 30
0.0
 11
321.30037871952891
 21
610.95788465099338
 31
0.0
  0
LINE
  5
4C82
  8
AM_0
 10
318.30037871952908
 20
605.18438465099337
 30
0.0
 11
321.30037871952891
 21
605.18438465099337
 31
0.0
  0
LINE
  5
4C83
  8
AM_0
 10
322.30034871952893
 20
612.84466465099365
 30
0.0
 11
322.30034871952893
 21
603.29763465099325
 31
0.0
  0
LINE
  5
4C84
  8
AM_0
 10
317.30037871952891
 20
601.29760465099355
 30
0.0
 11
318.30037871952908
 21
601.29760465099355
 31
0.0
  0
LINE
  5
4C85
  8
AM_0
 10
317.30037871952891
 20
614.84466465099354
 30
0.0
 11
318.30037871952908
 21
614.84466465099354
 31
0.0
  0
LINE
  5
4C86
  8
AM_0
 10
318.30037871952908
 20
601.29760465099355
 30
0.0
 11
318.30037871952908
 21
614.84466465099354
 31
0.0
  0
LINE
  5
4C87
  8
AM_0
 10
317.30037871952891
 20
599.82690465099336
 30
0.0
 11
317.30037871952891
 21
620.4716146509935
 31
0.0
  0
LINE
  5
4C88
  8
AM_0
 10
317.30037871952891
 20
599.82690465099336
 30
0.0
 11
320.30037871952891
 21
599.82690465099336
 31
0.0
  0
LINE
  5
4C89
  8
AM_0
 10
306.30040871952889
 20
478.75967465099342
 30
0.0
 11
301.24803871952901
 21
478.89196465099349
 31
0.0
  0
LINE
  5
4C8A
  8
AM_0
 10
306.30037871952891
 20
620.75967465099347
 30
0.0
 11
301.24806871952887
 21
620.62734465099322
 31
0.0
  0
LINE
  5
4C8B
  8
AM_0
 10
299.300408719529
 20
480.8912946509933
 30
0.0
 11
299.300408719529
 21
618.62804465099327
 31
0.0
  0
LINE
  5
4C8C
  8
AM_0
 10
268.300408719529
 20
493.7596746509933
 30
0.0
 11
268.300408719529
 21
605.75967465099336
 31
0.0
  0
LINE
  5
4C8D
  8
AM_0
 10
294.30037871952891
 20
493.07885465099332
 30
0.0
 11
268.30043871952893
 21
493.7596746509933
 31
0.0
  0
LINE
  5
4C8E
  8
AM_0
 10
268.300408719529
 20
503.75936465099352
 30
0.0
 11
299.300408719529
 21
503.75936465099352
 31
0.0
  0
LINE
  5
4C8F
  8
AM_0
 10
296.30037871952891
 20
484.5483946509932
 30
0.0
 11
297.300408719529
 21
484.5483946509932
 31
0.0
  0
LINE
  5
4C90
  8
AM_0
 10
294.30037871952891
 20
486.5483946509932
 30
0.0
 11
294.30037871952891
 21
501.75936465099358
 31
0.0
  0
LINE
  5
4C91
  8
AM_0
 10
294.30037871952891
 20
612.9709746509933
 30
0.0
 11
294.30037871952891
 21
597.75997465099351
 31
0.0
  0
LINE
  5
4C92
  8
AM_0
 10
294.30040871952889
 20
606.44051465099335
 30
0.0
 11
268.30043871952893
 21
605.75967465099336
 31
0.0
  0
LINE
  5
4C93
  8
AM_0
 10
268.300408719529
 20
595.75997465099329
 30
0.0
 11
299.300408719529
 21
595.75997465099329
 31
0.0
  0
LINE
  5
4C94
  8
AM_0
 10
296.30037871952891
 20
614.97097465099353
 30
0.0
 11
297.300408719529
 21
614.97097465099353
 31
0.0
  0
LINE
  5
4C95
  8
AM_0
 10
268.300408719529
 20
517.8197346509935
 30
0.0
 11
299.300408719529
 21
517.8197346509935
 31
0.0
  0
LINE
  5
4C96
  8
AM_0
 10
268.300408719529
 20
581.69961465099345
 30
0.0
 11
299.300408719529
 21
581.69961465099345
 31
0.0
  0
ARC
  5
4C97
  8
AM_0
 10
321.30037871952891
 20
496.2217046509935
 30
0.0
 40
1.0
 50
0.0
 51
90.000003000000945
  0
ARC
  5
4C98
  8
AM_0
 10
321.30037871952891
 20
493.33495465099332
 30
0.0
 40
1.0
 50
0.0
 51
90.000003000000945
  0
ARC
  5
4C99
  8
AM_0
 10
321.30037871952891
 20
487.56145465099343
 30
0.0
 40
1.0
 50
0.0
 51
90.000003000000945
  0
ARC
  5
4C9A
  8
AM_0
 10
321.30037871952891
 20
486.67468465099341
 30
0.0
 40
1.0
 50
269.999989999999
 51
0.0000006832495047
  0
ARC
  5
4C9B
  8
AM_0
 10
321.30037871952891
 20
489.56142465099322
 30
0.0
 40
1.0
 50
269.999989999999
 51
0.0000006832495047
  0
ARC
  5
4C9C
  8
AM_0
 10
321.30037871952891
 20
495.3349546509935
 30
0.0
 40
1.0
 50
269.999989999999
 51
0.0000006832495047
  0
ARC
  5
4C9D
  8
AM_0
 10
369.30037871952891
 20
624.18783465099352
 30
0.0
 40
2.0
 50
0.0
 51
88.499997000000647
  0
ARC
  5
4C9E
  8
AM_0
 10
279.30037871952891
 20
624.97341465099339
 30
0.0
 40
2.0
 50
91.500001000001546
 51
180.00001000000091
  0
ARC
  5
4C9F
  8
AM_0
 10
369.30037871952891
 20
601.33150465099345
 30
0.0
 40
2.0
 50
271.49999999999937
 51
0.0
  0
ARC
  5
4CA0
  8
AM_0
 10
289.30037871952908
 20
614.75967465099325
 30
0.0
 40
6.0
 50
359.45747999999497
 51
326.44272000000183
  0
CIRCLE
  5
4CA1
  8
AM_0
 10
359.30037871952891
 20
614.75967465099325
 30
0.0
 40
6.0
  0
ARC
  5
4CA6
  8
AM_0
 10
369.30037871952891
 20
475.33150465099328
 30
0.0
 40
2.0
 50
271.49999999999937
 51
0.0
  0
ARC
  5
4CA7
  8
AM_0
 10
279.30037871952891
 20
474.54595465099351
 30
0.0
 40
2.0
 50
180.00001000000091
 51
268.50000000000063
  0
ARC
  5
4CA8
  8
AM_0
 10
369.30037871952891
 20
498.18783465099358
 30
0.0
 40
2.0
 50
0.0
 51
88.499997000000647
  0
ARC
  5
4CA9
  8
AM_0
 10
289.30037871952908
 20
484.75967465099342
 30
0.0
 40
6.0
 50
33.557299999995493
 51
0.5425182800043322
  0
CIRCLE
  5
4CAA
  8
AM_0
 10
359.30037871952891
 20
484.75967465099342
 30
0.0
 40
6.0
  0
ARC
  5
4CAB
  8
AM_0
 10
381.30037871952891
 20
549.75964465099366
 30
0.0
 40
3.9999962
 50
90.000003000000945
 51
120.0008584236222
  0
ARC
  5
4CAC
  8
AM_0
 10
363.30037871952891
 20
593.17800465099344
 30
0.0
 40
5.0
 50
0.0
 51
85.000004000000885
  0
ARC
  5
4CAD
  8
AM_0
 10
363.30037871952891
 20
506.34130465099332
 30
0.0
 40
5.0
 50
275.0
 51
0.0
  0
ARC
  5
4CAE
  8
AM_0
 10
347.30037871952891
 20
491.04064465099327
 30
0.0
 40
5.0
 50
95.00000199999856
 51
180.00001000000091
  0
ARC
  5
4CAF
  8
AM_0
 10
347.30037871952891
 20
608.47866465099355
 30
0.0
 40
5.0
 50
180.00001000000091
 51
265.00001000000037
  0
ARC
  5
4D43
  8
AM_0
 10
347.30037871952891
 20
477.75646465099351
 30
0.0
 40
5.0
 50
180.00001000000091
 51
271.49999999999937
  0
ARC
  5
4D44
  8
AM_0
 10
347.30037871952891
 20
621.76287465099335
 30
0.0
 40
5.0
 50
88.499997000000647
 51
180.00001000000091
  0
ARC
  5
4D45
  8
AM_0
 10
339.30037871952908
 20
489.66235465099351
 30
0.0
 40
3.0
 50
271.49999999999937
 51
0.0
  0
ARC
  5
4D46
  8
AM_0
 10
318.90535871952892
 20
484.09145465099328
 30
0.0
 40
5.0
 50
271.49999999999937
 51
299.88701999999751
  0
ARC
  5
4D47
  8
AM_0
 10
334.52504871952891
 20
481.53457465099342
 30
0.0
 40
5.0
 50
91.500001000001546
 51
119.88701999999751
  0
ARC
  5
4D48
  8
AM_0
 10
352.30040871952889
 20
505.73412465099358
 30
0.0
 40
3.0
 50
271.49999999999937
 51
0.0
  0
ARC
  5
4D49
  8
AM_0
 10
352.30040871952889
 20
499.50866465099352
 30
0.0
 40
3.0
 50
275.0
 51
0.0
  0
ARC
  5
4D4A
  8
AM_0
 10
359.4744187195289
 20
495.9683846509933
 30
0.0
 40
5.0
 50
95.00000199999856
 51
153.73432999999969
  0
ARC
  5
4D4B
  8
AM_0
 10
359.4744187195289
 20
603.55093465099355
 30
0.0
 40
5.0
 50
206.2656700000002
 51
265.00001000000037
  0
ARC
  5
4D4C
  8
AM_0
 10
352.30040871952889
 20
593.78521465099357
 30
0.0
 40
3.0
 50
0.0
 51
88.499997000000647
  0
ARC
  5
4D4D
  8
AM_0
 10
318.90535871952892
 20
615.42788465099318
 30
0.0
 40
5.0
 50
60.11298000000248
 51
88.499997000000647
  0
ARC
  5
4D4E
  8
AM_0
 10
352.30040871952889
 20
600.01067465099345
 30
0.0
 40
3.0
 50
0.0
 51
85.000004000000885
  0
ARC
  5
4D4F
  8
AM_0
 10
334.52504871952891
 20
617.9847646509935
 30
0.0
 40
5.0
 50
240.11298000000241
 51
268.50000000000063
  0
ARC
  5
4D50
  8
AM_0
 10
339.30037871952908
 20
609.85699465099356
 30
0.0
 40
3.0
 50
0.0
 51
88.499997000000647
  0
ARC
  5
4D51
  8
AM_0
 10
321.30037871952891
 20
604.18438465099348
 30
0.0
 40
1.0
 50
0.0
 51
90.000003000000945
  0
ARC
  5
4D52
  8
AM_0
 10
321.30037871952891
 20
609.95791465099353
 30
0.0
 40
1.0
 50
0.0
 51
90.000003000000945
  0
ARC
  5
4D53
  8
AM_0
 10
321.30037871952891
 20
612.84466465099365
 30
0.0
 40
1.0
 50
0.0
 51
90.000003000000945
  0
ARC
  5
4D54
  8
AM_0
 10
321.30037871952891
 20
611.95788465099326
 30
0.0
 40
1.0
 50
269.999989999999
 51
0.0000006832495047
  0
ARC
  5
4D55
  8
AM_0
 10
321.30037871952891
 20
606.18438465099325
 30
0.0
 40
1.0
 50
269.999989999999
 51
0.0000006832495047
  0
ARC
  5
4D56
  8
AM_0
 10
321.30037871952891
 20
603.29763465099325
 30
0.0
 40
1.0
 50
269.999989999999
 51
0.0000006832495047
  0
ARC
  5
4D57
  8
AM_0
 10
421.7891187195288
 20
549.75967465099325
 30
0.0
 40
101.4887199999999
 50
151.89333000000309
 51
208.10666999999691
  0
ARC
  5
4D58
  8
AM_0
 10
301.30040871952912
 20
480.8912946509933
 30
0.0
 40
2.0
 50
180.00001000000091
 51
268.50000000000063
  0
ARC
  5
4D59
  8
AM_0
 10
301.30040871952912
 20
618.62804465099327
 30
0.0
 40
2.0
 50
91.500001000001546
 51
180.00001000000091
  0
ARC
  5
4D5A
  8
AM_0
 10
296.30037871952891
 20
486.5483946509932
 30
0.0
 40
2.0
 50
180.00001000000091
 51
270.0
  0
ARC
  5
4D5B
  8
AM_0
 10
292.30037871952891
 20
501.75936465099358
 30
0.0
 40
2.0
 50
0.0
 51
90.000003000000945
  0
ARC
  5
4D5C
  8
AM_0
 10
297.300408719529
 20
482.54839465099309
 30
0.0
 40
2.0
 50
0.0
 51
90.000003000000945
  0
ARC
  5
4D5D
  8
AM_0
 10
297.300408719529
 20
616.9709746509933
 30
0.0
 40
2.0
 50
270.0
 51
0.0
  0
ARC
  5
4D5E
  8
AM_0
 10
296.30037871952891
 20
612.9709746509933
 30
0.0
 40
2.0
 50
90.000003000000945
 51
180.00001000000091
  0
ARC
  5
4D5F
  8
AM_0
 10
292.30037871952891
 20
597.75997465099351
 30
0.0
 40
2.0
 50
270.0
 51
0.0
  0
LINE
  5
505D
  8
AM_0
 10
239.32659856856941
 20
483.75967465099347
 30
0.0
 11
239.5811478425922
 21
493.47964465099329
 31
0.0
  0
LINE
  5
505E
  8
AM_0
 10
179.27416657332881
 20
483.75967465099347
 30
0.0
 11
179.0196845321901
 21
493.47964465099329
 31
0.0
  0
LINE
  5
505F
  8
AM_0
 10
175.80040871952889
 20
481.75967465099342
 30
0.0
 11
242.80040871952889
 21
481.75967465099342
 31
0.0
  0
LINE
  5
5060
  8
AM_0
 10
175.80040871952889
 20
480.75967465099342
 30
0.0
 11
175.80040871952889
 21
481.75967465099342
 31
0.0
  0
LINE
  5
5061
  8
AM_0
 10
242.80040871952889
 20
480.75967465099342
 30
0.0
 11
242.80040871952889
 21
481.75967465099342
 31
0.0
  0
LINE
  5
5062
  8
AM_0
 10
161.3004087195288
 20
442.75967465099342
 30
0.0
 11
162.55999385579119
 21
478.82947364439832
 31
0.0
  0
LINE
  5
5063
  8
AM_0
 10
164.55877550982939
 20
480.75967465099342
 30
0.0
 11
254.0420419292285
 21
480.75967465099342
 31
0.0
  0
ARC
  5
5064
  8
AM_0
 10
164.5587755098295
 20
478.75967465099342
 30
0.0
 40
2.0
 50
90.0
 51
178.0000000000029
1001
GENIUS_GENODEF_13
1002
{
1000
HIER
1070
     0
1002
}
1002
{
1000
MANEDIT
1070
     0
1002
}
1002
{
1000
NOSEL
1070
     0
1002
}
1002
{
1000
BEHIND
1070
     0
1002
}
1002
{
1000
OTHER
1070
     0
1002
}
1002
{
1000
REACTOR
1002
}
1001
GENIUS_GENOBJ-N-FIL_13
1002
{
1000
OWNER
1000
GEN
1002
}
  0
LINE
  5
5065
  8
AM_0
 10
256.04082358326667
 20
478.82947364439832
 30
0.0
 11
257.300408719529
 21
442.75967465099347
 31
0.0
  0
ARC
  5
5066
  8
AM_0
 10
254.0420419292285
 20
478.75967465099342
 30
0.0
 40
2.0
 50
1.9999999999971021
 51
90.0
1001
GENIUS_GENOBJ-N-FIL_13
1002
{
1000
OWNER
1000
GEN
1002
}
1001
GENIUS_GENODEF_13
1002
{
1000
HIER
1070
     0
1002
}
1002
{
1000
MANEDIT
1070
     0
1002
}
1002
{
1000
NOSEL
1070
     0
1002
}
1002
{
1000
BEHIND
1070
     0
1002
}
1002
{
1000
OTHER
1070
     0
1002
}
1002
{
1000
REACTOR
1002
}
  0
LINE
  5
5067
  8
AM_0
 10
257.300408719529
 20
442.75967465099347
 30
0.0
 11
161.3004087195286
 21
442.75967465099342
 31
0.0
  0
LINE
  5
5068
  8
AM_0
 10
161.4051710280041
 20
445.7596746509933
 30
0.0
 11
160.3004087195288
 21
445.7596746509933
 31
0.0
  0
LINE
  5
5069
  8
AM_0
 10
162.52263565173999
 20
477.75967465099319
 30
0.0
 11
160.30040871952869
 21
477.75967465099319
 31
0.0
  0
LINE
  5
506A
  8
ﾁｭｳｼﾝｾﾝ1
 10
166.3004087195296
 20
432.49496715099338
 30
0.0
 11
166.3004087195296
 21
445.49496715099332
 31
0.0
  0
LINE
  5
506B
  8
ﾁｭｳｼﾝｾﾝ
 10
209.30040871952889
 20
488.0517053242225
 30
0.0
 11
209.30040871952889
 21
430.30915201018399
 31
0.0
  0
LINE
  5
506C
  8
AM_0
 10
157.8004087195288
 20
448.2596746509933
 30
0.0
 11
160.30040871952869
 21
448.25967465099302
 31
0.0
  0
LINE
  5
506D
  8
AM_0
 10
160.30040871952869
 20
475.25967465099291
 30
0.0
 11
157.8004087195288
 21
475.2596746509933
 31
0.0
  0
LINE
  5
506E
  8
AM_0
 10
146.9017376231829
 20
472.25967465099342
 30
0.0
 11
146.9017376231829
 21
451.25967465099342
 31
0.0
  0
LINE
  5
506F
  8
AM_0
 10
131.9017376231829
 20
453.72804959697788
 30
0.0
 11
131.9017376231829
 21
469.79129970500912
 31
0.0
  0
LINE
  5
5070
  8
AM_0
 10
144.9017376231829
 20
473.75967465099319
 30
0.0
 11
144.9017376231829
 21
449.7596746509933
 31
0.0
  0
LINE
  5
5071
  8
AM_0
 10
135.4017376231829
 20
461.75967465099308
 30
0.0
 11
135.9017376231829
 21
462.2596746509933
 31
0.0
  0
LINE
  5
5072
  8
AM_0
 10
142.4017376231829
 20
450.05967465099309
 30
0.0
 11
142.4017376231829
 21
473.45967465099312
 31
0.0
  0
LINE
  5
5073
  8
AM_0
 10
152.3004087195288
 20
450.2596746509933
 30
0.0
 11
152.3004087195288
 21
473.2596746509933
 31
0.0
  0
LINE
  5
5074
  8
AM_0
 10
146.4017376231829
 20
462.45967465099523
 30
0.0
 11
146.4017376231829
 21
461.05967465099201
 31
0.0
  0
LINE
  5
5075
  8
AM_0
 10
148.50137334975381
 20
470.85967465099321
 30
0.0
 11
147.7513733497548
 21
452.659674650993
 31
0.0
  0
LINE
  5
5076
  8
AM_0
 10
147.5504087195288
 20
470.85967465099321
 30
0.0
 11
146.9017376231829
 21
455.11858937967708
 31
0.0
  0
LINE
  5
5077
  8
AM_0
 10
148.29910131010081
 20
471.57533336335712
 30
0.0
 11
147.55184126669289
 21
451.94730288982618
 31
0.0
  0
LINE
  5
5078
  8
AM_0
 10
147.7499408025908
 20
471.57204641216111
 30
0.0
 11
147.0013733497548
 21
451.90967465099311
 31
0.0
  0
LINE
  5
5079
  8
AM_0
 10
144.9017376231829
 20
449.7596746509933
 30
0.0
 11
142.70173762318279
 21
449.7596746509933
 31
0.0
  0
ARC
  5
507A
  8
AM_0
 10
156.8004087195288
 20
449.25967465099308
 30
0.0
 40
0.5
 50
0.0
 51
90.000000000013017
  0
ARC
  5
507B
  8
AM_0
 10
157.8004087195288
 20
448.75967465099319
 30
0.0
 40
0.5
 50
180.0
 51
270.0
  0
LINE
  5
507C
  8
AM_0
 10
157.3004087195288
 20
449.25967465099308
 30
0.0
 11
157.3004087195288
 21
448.75967465099319
 31
0.0
  0
LINE
  5
507D
  8
AM_0
 10
148.3004087195288
 20
452.659674650993
 30
0.0
 11
151.8004087195288
 21
452.659674650993
 31
0.0
  0
LINE
  5
507E
  8
AM_0
 10
157.3004087195288
 20
450.9036033295863
 30
0.0
 11
157.3004087195288
 21
460.6157459724011
 31
0.0
  0
LINE
  5
507F
  8
AM_0
 10
152.8004087195288
 20
449.7596746509933
 30
0.0
 11
156.8004087195288
 21
449.7596746509933
 31
0.0
  0
LINE
  5
5080
  8
AM_0
 10
156.8004087195288
 20
450.4036033295863
 30
0.0
 11
152.3004087195288
 21
450.4036033295863
 31
0.0
  0
ARC
  5
5081
  8
AM_0
 10
156.8004087195288
 20
450.9036033295863
 30
0.0
 40
0.5
 50
270.0
 51
0.0
  0
ARC
  5
5082
  8
AM_0
 10
151.8004087195288
 20
452.15967465099328
 30
0.0
 40
0.5
 50
0.0
 51
90.0
  0
ARC
  5
5083
  8
AM_0
 10
152.8004087195288
 20
450.2596746509933
 30
0.0
 40
0.5
 50
180.0
 51
270.0
  0
LINE
  5
5084
  8
AM_0
 10
156.8004087195288
 20
461.1157459724011
 30
0.0
 11
152.3004087195288
 21
461.1157459724011
 31
0.0
  0
ARC
  5
5085
  8
AM_0
 10
156.8004087195288
 20
460.61574597240133
 30
0.0
 40
0.5
 50
0.0
 51
90.0
  0
LINE
  5
5086
  8
AM_0
 10
146.4017376231829
 20
455.61450389870089
 30
0.0
 11
146.4017376231829
 21
456.78674708513392
 31
0.0
  0
LINE
  5
5087
  8
AM_0
 10
147.8281057781798
 20
452.659674650993
 30
0.0
 11
148.3004087195288
 21
452.659674650993
 31
0.0
  0
LINE
  5
5088
  8
AM_0
 10
147.7315132836406
 20
452.5855568842565
 30
0.0
 11
147.7513733497548
 21
452.659674650993
 31
0.0
  0
ARC
  5
5089
  8
AM_0
 10
147.8281057781798
 20
452.5596746509932
 30
0.0
 40
0.1000000000000346
 50
90.0
 51
164.99980499355539
  0
ARC
  5
508A
  8
AM_0
 10
146.1017376231828
 20
452.47284167048508
 30
0.0
 40
0.3000000000000043
 50
0.0
 51
90.0
  0
LINE
  5
508B
  8
AM_0
 10
144.9017376231829
 20
450.35967465099321
 30
0.0
 11
146.12169332633999
 21
450.44100503120421
 31
0.0
  0
LINE
  5
508C
  8
AM_0
 10
144.9017376231829
 20
451.51592668683321
 30
0.0
 11
146.1017376231828
 21
451.51592668683321
 31
0.0
  0
LINE
  5
508D
  8
AM_0
 10
146.4017376231829
 20
450.7596746509933
 30
0.0
 11
144.9017376231829
 21
450.7596746509933
 31
0.0
  0
ARC
  5
508E
  8
AM_0
 10
146.4017376231829
 20
451.25967465099342
 30
0.0
 40
0.5
 50
270.0
 51
0.0
  0
LINE
  5
508F
  8
AM_0
 10
146.4017376231829
 20
450.7403405785613
 30
0.0
 11
146.4017376231829
 21
450.7596746509933
 31
0.0
  0
LINE
  5
5090
  8
AM_0
 10
146.4017376231829
 20
450.45967465099329
 30
0.0
 11
146.4017376231829
 21
450.7403405785613
 31
0.0
  0
LINE
  5
5091
  8
AM_0
 10
146.12169332633999
 20
450.44100503120421
 30
0.0
 11
146.4017376231829
 21
450.45967465099329
 31
0.0
  0
ARC
  5
5092
  8
AM_0
 10
146.1017376231828
 20
450.7403405785613
 30
0.0
 40
0.3000000000000007
 50
273.81407483428171
 51
0.0
  0
LINE
  5
5093
  8
AM_0
 10
147.4736762911038
 20
451.90967465099311
 30
0.0
 11
147.5504087195298
 21
451.90967465099311
 31
0.0
  0
LINE
  5
5094
  8
AM_0
 10
147.5504087195298
 20
451.90967465099311
 30
0.0
 11
147.5702687856429
 21
451.9837924177296
 31
0.0
  0
LINE
  5
5095
  8
AM_0
 10
146.98151328364071
 20
451.9837924177296
 30
0.0
 11
147.0013733497548
 21
451.90967465099311
 31
0.0
  0
LINE
  5
5096
  8
AM_0
 10
147.0013733497548
 20
451.90967465099311
 30
0.0
 11
147.0781057781798
 21
451.90967465099311
 31
0.0
  0
LINE
  5
5097
  8
AM_0
 10
147.5702687856429
 20
451.9837924177296
 30
0.0
 11
147.7315132836406
 21
452.5855568842565
 31
0.0
  0
LINE
  5
5098
  8
AM_0
 10
147.0781057781798
 20
451.90967465099311
 30
0.0
 11
147.4736762911038
 21
451.90967465099311
 31
0.0
  0
LINE
  5
5099
  8
AM_0
 10
146.90173762318381
 20
452.28151518255407
 30
0.0
 11
146.98151328364071
 21
451.9837924177296
 31
0.0
  0
ARC
  5
509A
  8
AM_0
 10
147.4736762911038
 20
452.0096746509933
 30
0.0
 40
0.0999999999999866
 50
270.0
 51
344.99980499343371
  0
ARC
  5
509B
  8
AM_0
 10
147.0781057781798
 20
452.0096746509933
 30
0.0
 40
0.1000000000000014
 50
195.00019500656629
 51
270.0
  0
LINE
  5
509C
  8
AM_0
 10
146.4017376231829
 20
451.815926686833
 30
0.0
 11
146.4017376231829
 21
452.47284167048508
 31
0.0
  0
ARC
  5
509D
  8
AM_0
 10
146.1017376231828
 20
451.81592668683328
 30
0.0
 40
0.3000000000000007
 50
270.0
 51
0.0
  0
LINE
  5
509E
  8
AM_0
 10
144.9017376231829
 20
455.31450389870099
 30
0.0
 11
146.1017376231828
 21
455.31450389870099
 31
0.0
  0
LINE
  5
509F
  8
AM_0
 10
146.1017376231828
 20
452.77284167048509
 30
0.0
 11
144.9017376231829
 21
452.77284167048509
 31
0.0
  0
LINE
  5
50A0
  8
AM_0
 10
147.7513733497548
 20
452.659674650993
 30
0.0
 11
147.8281057781798
 21
452.659674650993
 31
0.0
  0
ARC
  5
50A1
  8
AM_0
 10
146.1017376231828
 20
455.61450389870117
 30
0.0
 40
0.3000000000000007
 50
270.0
 51
0.0
  0
LINE
  5
50A2
  8
AM_0
 10
146.1017376231828
 20
457.08674708513422
 30
0.0
 11
144.9017376231829
 21
457.08674708513422
 31
0.0
  0
ARC
  5
50A3
  8
AM_0
 10
146.1017376231828
 20
456.78674708513421
 30
0.0
 40
0.3000000000000043
 50
0.0
 51
90.0
  0
LINE
  5
50A4
  8
AM_0
 10
146.1017376231828
 20
460.759674650992
 30
0.0
 11
144.9017376231829
 21
460.759674650992
 31
0.0
  0
ARC
  5
50A5
  8
AM_0
 10
146.1017376231828
 20
461.05967465099229
 30
0.0
 40
0.3000000000000007
 50
270.0
 51
0.0
  0
LINE
  5
50A6
  8
AM_0
 10
135.9017376231829
 20
451.62639482234601
 30
0.0
 11
142.4017376231829
 21
451.62639482234601
 31
0.0
  0
LINE
  5
50A7
  8
AM_0
 10
135.9017376231829
 20
451.12639482234601
 30
0.0
 11
142.4017376231829
 21
451.12639482234601
 31
0.0
  0
LINE
  5
50A8
  8
AM_0
 10
142.4017376231829
 20
461.25967465099319
 30
0.0
 11
135.9017376231829
 21
461.25967465099319
 31
0.0
  0
LINE
  5
50A9
  8
AM_0
 10
135.4017376231829
 20
460.7596746509933
 30
0.0
 11
142.4017376231829
 21
460.7596746509933
 31
0.0
  0
LINE
  5
50AA
  8
AM_0
 10
142.1017376231828
 20
450.7596746509933
 30
0.0
 11
135.2637875583649
 21
450.7596746509933
 31
0.0
  0
LINE
  5
50AB
  8
AM_0
 10
142.4017376231829
 20
460.41298658245188
 30
0.0
 11
135.9017376231829
 21
460.41298658245188
 31
0.0
  0
LINE
  5
50AC
  8
AM_0
 10
142.4017376231829
 20
452.10636271953422
 30
0.0
 11
135.9017376231829
 21
452.10636271953422
 31
0.0
  0
ARC
  5
50AD
  8
AM_0
 10
142.70173762318291
 20
450.05967465099309
 30
0.0
 40
0.2999999999999971
 50
180.0
 51
270.0
  0
ARC
  5
50AE
  8
AM_0
 10
142.1017376231828
 20
450.45967465099329
 30
0.0
 40
0.2999999999999971
 50
0.0
 51
90.0
  0
ARC
  5
50AF
  8
AM_0
 10
144.0267376231829
 20
456.2596746509933
 30
0.0
 40
9.124999999999984
 50
152.92493329271929
 51
207.07506670728071
  0
LINE
  5
50B0
  8
AM_0
 10
134.6236031587004
 20
450.99145337139572
 30
0.0
 11
132.26155322351821
 21
452.9598283173807
 31
0.0
  0
LINE
  5
50B1
  8
AM_0
 10
135.4017376231829
 20
451.33810723450108
 30
0.0
 11
135.9017376231829
 21
450.7596746509933
 31
0.0
  0
ARC
  5
50B2
  8
AM_0
 10
135.26378755836481
 20
451.75967465099342
 30
0.0
 40
1.0
 50
230.19442890774391
 51
270.0
  0
LINE
  5
50B3
  8
AM_0
 10
135.9017376231829
 20
451.12639482234601
 30
0.0
 11
135.4017376231829
 21
451.33810723450108
 31
0.0
  0
LINE
  5
50B4
  8
AM_0
 10
135.4017376231829
 20
451.80038250747231
 30
0.0
 11
135.9017376231829
 21
451.12639482234601
 31
0.0
  0
LINE
  5
50B5
  8
AM_0
 10
135.9017376231829
 20
451.62639482234601
 30
0.0
 11
135.4017376231829
 21
451.80038250747231
 31
0.0
  0
LINE
  5
50B6
  8
AM_0
 10
135.4017376231829
 20
452.33810723450119
 30
0.0
 11
135.9017376231829
 21
451.62639482234601
 31
0.0
  0
LINE
  5
50B7
  8
AM_0
 10
135.9017376231829
 20
452.10636271953422
 30
0.0
 11
135.4017376231829
 21
452.33810723450119
 31
0.0
  0
ARC
  5
50B8
  8
AM_0
 10
132.9017376231829
 20
453.72804959697822
 30
0.0
 40
1.0000000000000291
 50
180.0
 51
230.19442890773479
  0
LINE
  5
50B9
  8
AM_0
 10
135.9017376231829
 20
461.25967465099319
 30
0.0
 11
135.4017376231829
 21
461.75967465099308
 31
0.0
  0
LINE
  5
50BA
  8
AM_0
 10
135.4017376231829
 20
460.7596746509933
 30
0.0
 11
135.9017376231829
 21
461.25967465099319
 31
0.0
  0
LINE
  5
50BB
  8
AM_0
 10
135.9017376231829
 20
460.41298658245188
 30
0.0
 11
135.4017376231829
 21
460.7596746509933
 31
0.0
  0
LINE
  5
50BC
  8
AM_0
 10
142.70173762318279
 20
473.75967465099319
 30
0.0
 11
144.9017376231829
 21
473.75967465099319
 31
0.0
  0
ARC
  5
50BD
  8
AM_0
 10
156.8004087195288
 20
474.25967465099308
 30
0.0
 40
0.5
 50
269.99999999998693
 51
0.0
  0
LINE
  5
50BE
  8
AM_0
 10
151.8004087195288
 20
470.85967465099321
 30
0.0
 11
148.5781057781798
 21
470.85967465099321
 31
0.0
  0
LINE
  5
50BF
  8
AM_0
 10
157.3004087195288
 20
462.9036033295863
 30
0.0
 11
157.3004087195288
 21
472.61574597240133
 31
0.0
  0
LINE
  5
50C0
  8
AM_0
 10
152.3004087195288
 20
462.40360332958642
 30
0.0
 11
156.8004087195288
 21
462.40360332958642
 31
0.0
  0
ARC
  5
50C1
  8
AM_0
 10
156.8004087195288
 20
462.9036033295863
 30
0.0
 40
0.5
 50
270.0
 51
0.0
  0
LINE
  5
50C2
  8
AM_0
 10
152.3004087195288
 20
473.11574597240133
 30
0.0
 11
156.8004087195288
 21
473.11574597240133
 31
0.0
  0
LINE
  5
50C3
  8
AM_0
 10
156.8004087195288
 20
473.75967465099319
 30
0.0
 11
152.8004087195288
 21
473.75967465099319
 31
0.0
  0
ARC
  5
50C4
  8
AM_0
 10
156.8004087195288
 20
472.61574597240133
 30
0.0
 40
0.5
 50
0.0
 51
90.0
  0
ARC
  5
50C5
  8
AM_0
 10
151.8004087195288
 20
471.3596746509931
 30
0.0
 40
0.5
 50
270.0
 51
0.0
  0
ARC
  5
50C6
  8
AM_0
 10
152.8004087195288
 20
473.2596746509933
 30
0.0
 40
0.5
 50
90.0
 51
180.0
  0
ARC
  5
50C7
  8
AM_0
 10
146.1017376231828
 20
467.90484540328521
 30
0.0
 40
0.3000000000000114
 50
0.0
 51
90.0
  0
LINE
  5
50C8
  8
AM_0
 10
144.9017376231829
 20
462.75967465099512
 30
0.0
 11
146.1017376231828
 21
462.75967465099512
 31
0.0
  0
ARC
  5
50C9
  8
AM_0
 10
146.1017376231828
 20
462.45967465099523
 30
0.0
 40
0.2999999999999971
 50
0.0
 51
90.0
  0
LINE
  5
50CA
  8
AM_0
 10
144.9017376231829
 20
466.4326022168521
 30
0.0
 11
146.1017376231828
 21
466.4326022168521
 31
0.0
  0
ARC
  5
50CB
  8
AM_0
 10
146.1017376231828
 20
466.73260221685229
 30
0.0
 40
0.3000000000000007
 50
270.0
 51
0.0
  0
LINE
  5
50CC
  8
AM_0
 10
146.4017376231829
 20
466.73260221685229
 30
0.0
 11
146.4017376231829
 21
467.90484540328521
 31
0.0
  0
LINE
  5
50CD
  8
AM_0
 10
147.8281057781798
 20
471.60967465099321
 30
0.0
 11
148.2236762911038
 21
471.60967465099321
 31
0.0
  0
LINE
  5
50CE
  8
AM_0
 10
147.8281057781798
 20
471.60967465099321
 30
0.0
 11
148.2236762911038
 21
471.60967465099321
 31
0.0
  0
LINE
  5
50CF
  8
AM_0
 10
148.3202687856429
 20
471.53555688425672
 30
0.0
 11
148.48151328364071
 21
470.93379241772971
 31
0.0
  0
LINE
  5
50D0
  8
AM_0
 10
148.3202687856429
 20
471.53555688425672
 30
0.0
 11
148.48151328364071
 21
470.93379241772971
 31
0.0
  0
ARC
  5
50D1
  8
AM_0
 10
148.5781057781798
 20
470.95967465099329
 30
0.0
 40
0.0999999999999943
 50
195.00019500651879
 51
270.0
  0
ARC
  5
50D2
  8
AM_0
 10
148.2236762911038
 20
471.50967465099319
 30
0.0
 40
0.0999999999999943
 50
15.000195006505431
 51
90.0
  0
LINE
  5
50D3
  8
AM_0
 10
146.9008910346418
 20
471.23467465099333
 30
0.0
 11
146.98151328364071
 21
470.93379241772971
 31
0.0
  0
LINE
  5
50D4
  8
AM_0
 10
147.55311937173479
 20
470.8989391840912
 30
0.0
 11
147.73151328364071
 21
471.53555688425672
 31
0.0
  0
LINE
  5
50D5
  8
AM_0
 10
147.5702687856429
 20
470.93379241772971
 30
0.0
 11
147.73151328364071
 21
471.53555688425672
 31
0.0
  0
LINE
  5
50D6
  8
AM_0
 10
146.4017376231829
 20
471.0465076315021
 30
0.0
 11
146.4017376231829
 21
471.70342261515322
 31
0.0
  0
LINE
  5
50D7
  8
AM_0
 10
146.9017376231829
 20
471.23151518255509
 30
0.0
 11
146.98151328364071
 21
470.93379241772971
 31
0.0
  0
LINE
  5
50D8
  8
AM_0
 10
144.9017376231829
 20
470.74650763150231
 30
0.0
 11
146.1017376231828
 21
470.74650763150231
 31
0.0
  0
LINE
  5
50D9
  8
AM_0
 10
146.1017376231828
 20
468.20484540328522
 30
0.0
 11
144.9017376231829
 21
468.20484540328607
 31
0.0
  0
LINE
  5
50DA
  8
AM_0
 10
147.5063085566189
 20
470.85967465099321
 30
0.0
 11
147.55311937173479
 21
470.8989391840912
 31
0.0
  0
LINE
  5
50DB
  8
AM_0
 10
147.0781057781798
 20
470.85967465099321
 30
0.0
 11
147.5063085566189
 21
470.85967465099321
 31
0.0
  0
LINE
  5
50DC
  8
AM_0
 10
147.0781057781798
 20
470.85967465099321
 30
0.0
 11
147.4736762911038
 21
470.85967465099321
 31
0.0
  0
ARC
  5
50DD
  8
AM_0
 10
147.0781057781798
 20
470.95967465099329
 30
0.0
 40
0.0999999999999943
 50
195.00019500651879
 51
270.0
  0
ARC
  5
50DE
  8
AM_0
 10
147.4736762911038
 20
470.95967465099329
 30
0.0
 40
0.0999999999999608
 50
270.0
 51
344.99980499348112
  0
ARC
  5
50DF
  8
AM_0
 10
146.1017376231828
 20
471.0465076315021
 30
0.0
 40
0.3000000000000007
 50
270.0
 51
0.0
  0
LINE
  5
50E0
  8
AM_0
 10
144.9017376231829
 20
472.75967465099342
 30
0.0
 11
146.4017376231829
 21
472.75967465099342
 31
0.0
  0
LINE
  5
50E1
  8
AM_0
 10
146.1017376231828
 20
472.00342261515323
 30
0.0
 11
144.9017376231829
 21
472.00342261515323
 31
0.0
  0
LINE
  5
50E2
  8
AM_0
 10
146.12169332633999
 20
473.07834427078308
 30
0.0
 11
144.9017376231829
 21
473.159674650993
 31
0.0
  0
ARC
  5
50E3
  8
AM_0
 10
146.4017376231829
 20
472.25967465099342
 30
0.0
 40
0.5
 50
0.0
 51
90.0
  0
ARC
  5
50E4
  8
AM_0
 10
147.8281057781798
 20
471.50967465099319
 30
0.0
 40
0.0999999999999606
 50
90.0
 51
164.99980499349451
  0
ARC
  5
50E5
  8
AM_0
 10
146.1017376231828
 20
471.70342261515322
 30
0.0
 40
0.2999999999999971
 50
0.0
 51
90.0
  0
LINE
  5
50E6
  8
AM_0
 10
146.4017376231829
 20
472.75967465099342
 30
0.0
 11
146.4017376231829
 21
472.77900872342627
 31
0.0
  0
ARC
  5
50E7
  8
AM_0
 10
146.1017376231828
 20
472.77900872342627
 30
0.0
 40
0.3000000000000043
 50
0.0
 51
86.185925165718274
  0
ARC
  5
50E8
  8
AM_0
 10
157.8004087195288
 20
474.7596746509933
 30
0.0
 40
0.5
 50
90.0
 51
180.0
  0
LINE
  5
50E9
  8
AM_0
 10
157.3004087195288
 20
474.7596746509933
 30
0.0
 11
157.3004087195288
 21
474.25967465099308
 31
0.0
  0
LINE
  5
50EA
  8
AM_0
 10
135.9017376231829
 20
471.41298658245211
 30
0.0
 11
142.4017376231829
 21
471.41298658245211
 31
0.0
  0
LINE
  5
50EB
  8
AM_0
 10
135.9017376231829
 20
463.10636271953422
 30
0.0
 11
142.4017376231829
 21
463.10636271953422
 31
0.0
  0
LINE
  5
50EC
  8
AM_0
 10
135.2637875583649
 20
472.75967465099342
 30
0.0
 11
142.1017376231828
 21
472.75967465099342
 31
0.0
  0
LINE
  5
50ED
  8
AM_0
 10
142.4017376231829
 20
462.7596746509933
 30
0.0
 11
135.4017376231829
 21
462.7596746509933
 31
0.0
  0
LINE
  5
50EE
  8
AM_0
 10
135.9017376231829
 20
462.2596746509933
 30
0.0
 11
142.4017376231829
 21
462.2596746509933
 31
0.0
  0
LINE
  5
50EF
  8
AM_0
 10
142.4017376231829
 20
472.39295447964111
 30
0.0
 11
135.9017376231829
 21
472.39295447964111
 31
0.0
  0
LINE
  5
50F0
  8
AM_0
 10
142.4017376231829
 20
471.89295447964088
 30
0.0
 11
135.9017376231829
 21
471.89295447964088
 31
0.0
  0
ARC
  5
50F1
  8
AM_0
 10
142.1017376231828
 20
473.0596746509932
 30
0.0
 40
0.3000000000000043
 50
270.0
 51
0.0
  0
ARC
  5
50F2
  8
AM_0
 10
142.70173762318291
 20
473.45967465099318
 30
0.0
 40
0.2999999999999971
 50
90.0
 51
180.0
  0
ARC
  5
50F3
  8
AM_0
 10
144.0267376231829
 20
467.2596746509933
 30
0.0
 40
9.124999999999984
 50
152.92493329271929
 51
207.07506670728071
  0
LINE
  5
50F4
  8
AM_0
 10
135.4017376231829
 20
462.7596746509933
 30
0.0
 11
135.9017376231829
 21
463.10636271953422
 31
0.0
  0
LINE
  5
50F5
  8
AM_0
 10
135.9017376231829
 20
462.2596746509933
 30
0.0
 11
135.4017376231829
 21
462.7596746509933
 31
0.0
  0
LINE
  5
50F6
  8
AM_0
 10
132.26155322351821
 20
470.55952098460642
 30
0.0
 11
134.6236031587004
 21
472.52789593059072
 31
0.0
  0
LINE
  5
50F7
  8
AM_0
 10
135.9017376231829
 20
472.75967465099342
 30
0.0
 11
135.4017376231829
 21
472.18124206748621
 31
0.0
  0
ARC
  5
50F8
  8
AM_0
 10
135.26378755836481
 20
471.7596746509933
 30
0.0
 40
1.0000000000000411
 50
90.0
 51
129.805571092256
  0
LINE
  5
50F9
  8
AM_0
 10
135.4017376231829
 20
471.18124206748632
 30
0.0
 11
135.9017376231829
 21
471.41298658245211
 31
0.0
  0
LINE
  5
50FA
  8
AM_0
 10
135.9017376231829
 20
471.89295447964088
 30
0.0
 11
135.4017376231829
 21
471.18124206748632
 31
0.0
  0
LINE
  5
50FB
  8
AM_0
 10
135.4017376231829
 20
471.7189667945143
 30
0.0
 11
135.9017376231829
 21
471.89295447964088
 31
0.0
  0
LINE
  5
50FC
  8
AM_0
 10
135.9017376231829
 20
472.39295447964111
 30
0.0
 11
135.4017376231829
 21
471.7189667945143
 31
0.0
  0
LINE
  5
50FD
  8
AM_0
 10
135.4017376231829
 20
472.18124206748621
 30
0.0
 11
135.9017376231829
 21
472.39295447964111
 31
0.0
  0
ARC
  5
50FE
  8
AM_0
 10
132.9017376231829
 20
469.79129970500912
 30
0.0
 40
1.0
 50
129.80557109226521
 51
180.0
  0
LINE
  5
50FF
  8
AM_0
 10
257.30040871952889
 20
438.75967465099347
 30
0.0
 11
236.48590381999651
 21
438.75967465099347
 31
0.0
  0
LINE
  5
5100
  8
AM_0
 10
182.11491361906121
 20
438.75967465099347
 30
0.0
 11
161.30040871952951
 21
438.75967465099347
 31
0.0
  0
LINE
  5
5101
  8
AM_0
 10
251.1646270503679
 20
434.75967465099342
 30
0.0
 11
167.43619038868979
 21
434.75967465099342
 31
0.0
  0
LINE
  5
5102
  8
AM_0
 10
170.20776369183591
 20
436.70073713886558
 30
0.0
 11
170.3004087195294
 21
437.75967465099347
 31
0.0
  0
LINE
  5
5103
  8
AM_0
 10
162.39305374722289
 20
436.70073713886558
 30
0.0
 11
162.3004087195296
 21
437.75967465099347
 31
0.0
  0
ARC
  5
5104
  8
AM_0
 10
166.30040871952951
 20
441.15967465099351
 30
0.0
 40
6.5
 50
241.82726586813479
 51
298.17273413186518
  0
ARC
  5
5105
  8
AM_0
 10
163.98696526416981
 20
436.84018632726202
 30
0.0
 40
1.6000000000000001
 50
184.99999999999969
 51
241.82726586813479
  0
LINE
  5
5106
  8
AM_0
 10
168.60040871952941
 20
435.08020098956518
 30
0.0
 11
166.3004087195294
 21
437.3697606683607
 31
0.0
  0
LINE
  5
5107
  8
AM_0
 10
166.61190871952951
 20
437.05967465099332
 30
0.0
 11
165.98890871952941
 21
437.05967465099332
 31
0.0
  0
LINE
  5
5108
  8
AM_0
 10
164.0004087195295
 20
435.08020098956518
 30
0.0
 11
166.3004087195294
 21
437.3697606683607
 31
0.0
  0
LINE
  5
5109
  8
AM_0
 10
166.61190871952951
 20
434.66714296065879
 30
0.0
 11
166.61190871952951
 21
437.05967465099332
 31
0.0
  0
LINE
  5
510A
  8
AM_0
 10
165.98890871952941
 20
434.66714296065879
 30
0.0
 11
165.98890871952941
 21
437.05967465099332
 31
0.0
  0
ARC
  5
510B
  8
AM_0
 10
168.61385217488919
 20
436.84018632726202
 30
0.0
 40
1.6000000000000001
 50
298.17273413186518
 51
355.00000000000023
  0
LINE
  5
510C
  8
AM_0
 10
257.300408719529
 20
438.75967465099347
 30
0.0
 11
257.300408719529
 21
442.75967465099347
 31
0.0
  0
LINE
  5
510D
  8
AM_0
 10
161.3004087195286
 20
442.75967465099342
 30
0.0
 11
161.30040871952971
 21
438.75967465099347
 31
0.0
  0
LINE
  5
510E
  8
AM_0N
 10
170.1004087195295
 20
438.75967465099347
 30
0.0
 11
170.1004087195295
 21
437.75967465099347
 31
0.0
  0
LINE
  5
510F
  8
AM_0N
 10
166.5004087195295
 20
437.75967465099347
 30
0.0
 11
166.86437895379561
 21
438.75967465099347
 31
0.0
  0
LINE
  5
5110
  8
AM_0N
 10
166.1004087195295
 20
437.75967465099347
 30
0.0
 11
166.46437895379569
 21
438.75967465099347
 31
0.0
  0
LINE
  5
5111
  8
AM_0N
 10
162.3004087195294
 20
437.75967465099347
 30
0.0
 11
170.3004087195294
 21
437.75967465099347
 31
0.0
  0
LINE
  5
5112
  8
AM_0N
 10
162.5004087195295
 20
437.75967465099347
 30
0.0
 11
162.5004087195295
 21
438.75967465099347
 31
0.0
  0
LINE
  5
5113
  8
AM_0
 10
182.1149136190611
 20
434.75967465099342
 30
0.0
 11
182.1149136190611
 21
438.75967465099347
 31
0.0
  0
LINE
  5
5114
  8
AM_0
 10
180.45805936956859
 20
438.75967465099347
 30
0.0
 11
182.1149136190611
 21
434.75967465099342
 31
0.0
  0
LINE
  5
5115
  8
AM_0
 10
236.48590381999651
 20
434.75967465099342
 30
0.0
 11
236.48590381999651
 21
438.75967465099347
 31
0.0
  0
LINE
  5
5116
  8
AM_0
 10
238.14275806948899
 20
438.75967465099347
 30
0.0
 11
236.48590381999651
 21
434.75967465099342
 31
0.0
  0
LINE
  5
5117
  8
AM_0
 10
175.80040871952889
 20
483.75967465099347
 30
0.0
 11
242.80040871952889
 21
483.75967465099347
 31
0.0
  0
LINE
  5
5118
  8
AM_0
 10
175.80040871952889
 20
483.75967465099347
 30
0.0
 11
175.80040871952889
 21
481.75967465099342
 31
0.0
  0
LINE
  5
5119
  8
AM_0
 10
242.80040871952889
 20
483.75967465099347
 30
0.0
 11
242.80040871952889
 21
481.75967465099342
 31
0.0
  0
LINE
  5
511A
  8
ﾁｭｳｼﾝｾﾝ1
 10
252.30040871952821
 20
432.49496715099338
 30
0.0
 11
252.30040871952821
 21
445.49496715099332
 31
0.0
  0
LINE
  5
511B
  8
AM_0
 10
248.39305374722181
 20
436.70073713886558
 30
0.0
 11
248.30040871952829
 21
437.75967465099347
 31
0.0
  0
LINE
  5
511C
  8
AM_0
 10
256.20776369183483
 20
436.70073713886558
 30
0.0
 11
256.30040871952821
 21
437.75967465099347
 31
0.0
  0
ARC
  5
511D
  8
AM_0
 10
252.30040871952849
 20
441.15967465099328
 30
0.0
 40
6.5
 50
241.82726586813479
 51
298.17273413186518
  0
ARC
  5
511E
  8
AM_0
 10
254.61385217488819
 20
436.84018632726168
 30
0.0
 40
1.6000000000000001
 50
298.17273413186518
 51
355.00000000000023
  0
LINE
  5
511F
  8
AM_0
 10
250.00040871952831
 20
435.08020098956518
 30
0.0
 11
252.30040871952829
 21
437.3697606683607
 31
0.0
  0
LINE
  5
5120
  8
AM_0
 10
251.9889087195283
 20
437.05967465099332
 30
0.0
 11
252.61190871952829
 21
437.05967465099332
 31
0.0
  0
LINE
  5
5121
  8
AM_0
 10
254.6004087195283
 20
435.08020098956518
 30
0.0
 11
252.30040871952829
 21
437.3697606683607
 31
0.0
  0
LINE
  5
5122
  8
AM_0
 10
251.9889087195283
 20
434.66714296065879
 30
0.0
 11
251.9889087195283
 21
437.05967465099332
 31
0.0
  0
LINE
  5
5123
  8
AM_0
 10
252.61190871952829
 20
434.66714296065879
 30
0.0
 11
252.61190871952829
 21
437.05967465099332
 31
0.0
  0
ARC
  5
5124
  8
AM_0
 10
249.98696526416879
 20
436.84018632726168
 30
0.0
 40
1.6000000000000001
 50
184.99999999999969
 51
241.82726586813479
  0
LINE
  5
5125
  8
AM_0N
 10
248.5004087195282
 20
438.75967465099347
 30
0.0
 11
248.5004087195282
 21
437.75967465099347
 31
0.0
  0
LINE
  5
5126
  8
AM_0N
 10
252.1004087195283
 20
437.75967465099347
 30
0.0
 11
251.73643848526211
 21
438.75967465099347
 31
0.0
  0
LINE
  5
5127
  8
AM_0N
 10
252.50040871952831
 20
437.75967465099347
 30
0.0
 11
252.13643848526209
 21
438.75967465099347
 31
0.0
  0
LINE
  5
5128
  8
AM_0N
 10
256.30040871952832
 20
437.75967465099347
 30
0.0
 11
248.30040871952829
 21
437.75967465099347
 31
0.0
  0
LINE
  5
5129
  8
AM_0N
 10
256.10040871952828
 20
437.75967465099347
 30
0.0
 11
256.10040871952828
 21
438.75967465099347
 31
0.0
  0
LINE
  5
512A
  8
AM_0
 10
160.3004087195288
 20
445.7596746509933
 30
0.0
 11
160.30040871952869
 21
477.75967465099319
 31
0.0
  0
LINE
  5
512B
  8
AM_0
 10
258.50615871952903
 20
594.6885646509935
 30
0.0
 11
254.3604387195291
 21
610.16967465099322
 31
0.0
  0
LINE
  5
512C
  8
AM_0
 10
258.5061287195291
 20
593.77856465099353
 30
0.0
 11
254.360408719529
 21
609.25967465099347
 31
0.0
  0
LINE
  5
512D
  8
AM_0
 10
258.5061287195291
 20
591.92858465099334
 30
0.0
 11
254.360408719529
 21
607.40972465099355
 31
0.0
  0
LINE
  5
512E
  8
AM_0
 10
260.300408719529
 20
605.75967465099336
 30
0.0
 11
260.300408719529
 21
493.75967465099319
 31
0.0
  0
LINE
  5
512F
  8
AM_0
 10
138.30040871952909
 20
597.77969465099341
 30
0.0
 11
138.30040871952909
 21
554.75967465099347
 31
0.0
  0
LINE
  5
5130
  8
AM_0
 10
140.57042871952899
 20
599.50967465099336
 30
0.0
 11
142.800408719529
 21
599.50967465099336
 31
0.0
  0
LINE
  5
5131
  8
AM_0
 10
140.5004187195288
 20
585.44961465099345
 30
0.0
 11
142.60039871952901
 21
585.44961465099345
 31
0.0
  0
LINE
  5
5132
  8
AM_0
 10
140.07042871952899
 20
599.37963465099347
 30
0.0
 11
138.80046871952899
 21
598.63964465099355
 31
0.0
  0
LINE
  5
5133
  8
AM_0
 10
140.06035871952901
 20
597.25973465099355
 30
0.0
 11
138.78038871952899
 21
596.48971465099351
 31
0.0
  0
LINE
  5
5134
  8
AM_0
 10
140.05034871952921
 20
592.71969465099335
 30
0.0
 11
138.750358719529
 21
591.86971465099327
 31
0.0
  0
LINE
  5
5135
  8
AM_0
 10
140.110408719529
 20
585.36968465099335
 30
0.0
 11
138.9104587195292
 21
584.8596746509935
 31
0.0
  0
LINE
  5
5136
  8
AM_0
 10
140.58043871952901
 20
597.39968465099355
 30
0.0
 11
143.3004087195292
 21
597.39968465099355
 31
0.0
  0
LINE
  5
5137
  8
AM_0
 10
140.600458719529
 20
592.88967465099336
 30
0.0
 11
143.3004087195292
 21
592.88967465099336
 31
0.0
  0
LINE
  5
5138
  8
AM_0
 10
140.45043871952899
 20
583.49966465099328
 30
0.0
 11
142.3004087195292
 21
583.49966465099328
 31
0.0
  0
LINE
  5
5139
  8
AM_0
 10
140.57042871952899
 20
591.74966465099351
 30
0.0
 11
142.3004087195292
 21
591.74966465099351
 31
0.0
  0
LINE
  5
513A
  8
AM_0
 10
140.550408719529
 20
596.25967465099347
 30
0.0
 11
142.3004087195292
 21
596.25967465099347
 31
0.0
  0
LINE
  5
513B
  8
AM_0
 10
140.54039871952921
 20
598.35964465099346
 30
0.0
 11
142.800408719529
 21
598.35964465099346
 31
0.0
  0
LINE
  5
513C
  8
AM_0
 10
140.0703687195292
 20
591.60970465099365
 30
0.0
 11
138.79039871952921
 21
590.85970465099354
 31
0.0
  0
LINE
  5
513D
  8
AM_0
 10
140.16039871952921
 20
583.45971465099353
 30
0.0
 11
139.0104287195291
 21
583.10970465099365
 31
0.0
  0
LINE
  5
513E
  8
AM_0
 10
140.0903887195291
 20
598.25967465099325
 30
0.0
 11
138.85039871952921
 21
597.62966465099328
 31
0.0
  0
LINE
  5
513F
  8
AM_0
 10
140.08043871952901
 20
596.14971465099325
 30
0.0
 11
138.83043871952901
 21
595.47970465099354
 31
0.0
  0
LINE
  5
5140
  8
AM_0
 10
142.3004087195292
 20
575.75967465099347
 30
0.0
 11
139.3004087195292
 21
575.75967465099347
 31
0.0
  0
LINE
  5
5141
  8
AM_0
 10
142.3004087195292
 20
573.75967465099325
 30
0.0
 11
139.3004087195292
 21
573.75967465099325
 31
0.0
  0
LINE
  5
5142
  8
AM_0
 10
142.3004087195292
 20
565.75967465099325
 30
0.0
 11
139.3004087195292
 21
565.75967465099325
 31
0.0
  0
LINE
  5
5143
  8
AM_0
 10
142.3004087195292
 20
563.75967465099347
 30
0.0
 11
139.3004087195292
 21
563.75967465099347
 31
0.0
  0
LINE
  5
5144
  8
AM_0
 10
142.3004087195292
 20
555.75967465099336
 30
0.0
 11
139.3004087195292
 21
555.75967465099336
 31
0.0
  0
LINE
  5
5145
  8
AM_0
 10
142.3004087195292
 20
553.75967465099325
 30
0.0
 11
139.3004087195292
 21
553.75967465099325
 31
0.0
  0
LINE
  5
5146
  8
AM_0
 10
140.3004087195292
 20
565.36965465099354
 30
0.0
 11
140.3004087195292
 21
564.1596946509934
 31
0.0
  0
LINE
  5
5147
  8
AM_0
 10
140.3004087195292
 20
555.36965465099343
 30
0.0
 11
140.3004087195292
 21
554.20962465099342
 31
0.0
  0
LINE
  5
5148
  8
AM_0
 10
140.3004087195292
 20
575.38967465099336
 30
0.0
 11
140.3004087195292
 21
574.01968465099355
 31
0.0
  0
LINE
  5
5149
  8
AM_0
 10
140.3004087195292
 20
585.14968465099355
 30
0.0
 11
140.3004087195292
 21
584.08962465099341
 31
0.0
  0
LINE
  5
514A
  8
AM_0
 10
140.3004087195292
 20
592.58962465099341
 30
0.0
 11
140.3004087195292
 21
592.11965465099354
 31
0.0
  0
LINE
  5
514B
  8
AM_0
 10
140.3004087195292
 20
597.15969465099352
 30
0.0
 11
140.3004087195292
 21
596.60964465099346
 31
0.0
  0
LINE
  5
514C
  8
AM_0
 10
140.3004087195292
 20
599.25967465099325
 30
0.0
 11
140.3004087195292
 21
598.72964465099335
 31
0.0
  0
LINE
  5
514D
  8
AM_0
 10
136.80040871952909
 20
569.75967465099325
 30
0.0
 11
136.80040871952909
 21
549.75967465099325
 31
0.0
  0
LINE
  5
514E
  8
AM_0
 10
136.80040871952909
 20
569.75964465099355
 30
0.0
 11
138.30040871952909
 21
569.88964465099355
 31
0.0
  0
LINE
  5
514F
  8
AM_0
 10
136.80040871952909
 20
564.9096946509934
 30
0.0
 11
138.30040871952909
 21
564.9096946509934
 31
0.0
  0
LINE
  5
5150
  8
AM_0
 10
136.80040871952909
 20
567.03970465099337
 30
0.0
 11
138.30040871952909
 21
567.03970465099337
 31
0.0
  0
LINE
  5
5151
  8
AM_0
 10
253.64043871952899
 20
585.75967465099325
 30
0.0
 11
154.6603987195291
 21
585.75967465099325
 31
0.0
  0
LINE
  5
5152
  8
AM_0
 10
253.64043871952899
 20
583.75967465099347
 30
0.0
 11
154.6603987195291
 21
583.75967465099347
 31
0.0
  0
LINE
  5
5153
  8
AM_0
 10
221.3004087195292
 20
575.75967465099347
 30
0.0
 11
154.6603987195291
 21
575.75967465099347
 31
0.0
  0
LINE
  5
5154
  8
AM_0
 10
253.6332387195292
 20
573.75967465099325
 30
0.0
 11
154.6603987195291
 21
573.75967465099325
 31
0.0
  0
LINE
  5
5155
  8
AM_0
 10
188.73912871952891
 20
565.75967465099325
 30
0.0
 11
154.6603987195291
 21
565.75967465099325
 31
0.0
  0
LINE
  5
5156
  8
AM_0
 10
188.73912871952891
 20
563.75967465099347
 30
0.0
 11
154.6603987195291
 21
563.75967465099347
 31
0.0
  0
LINE
  5
5157
  8
AM_0
 10
188.73912871952891
 20
555.75967465099336
 30
0.0
 11
154.6603987195291
 21
555.75967465099336
 31
0.0
  0
LINE
  5
5158
  8
AM_0
 10
188.73912871952891
 20
553.75967465099325
 30
0.0
 11
154.6603987195291
 21
553.75967465099325
 31
0.0
  0
LINE
  5
5159
  8
AM_0
 10
153.98039871952909
 20
586.47964465099335
 30
0.0
 11
257.12041871952903
 21
586.47964465099335
 31
0.0
  0
LINE
  5
515A
  8
AM_0
 10
153.98039871952909
 20
583.1296646509935
 30
0.0
 11
221.32042871952919
 21
583.1296646509935
 31
0.0
  0
LINE
  5
515B
  8
AM_0
 10
153.76042871952899
 20
576.2496646509934
 30
0.0
 11
221.3004087195292
 21
576.2496646509934
 31
0.0
  0
LINE
  5
515C
  8
AM_0
 10
153.76042871952899
 20
573.31972465099329
 30
0.0
 11
257.33464871952913
 21
573.31972465099329
 31
0.0
  0
LINE
  5
515D
  8
AM_0
 10
153.63042871952899
 20
566.09963465099349
 30
0.0
 11
189.95909871952901
 21
566.09963465099349
 31
0.0
  0
LINE
  5
515E
  8
AM_0
 10
153.63042871952899
 20
563.43972465099353
 30
0.0
 11
189.95909871952901
 21
563.43972465099353
 31
0.0
  0
LINE
  5
515F
  8
AM_0
 10
153.57042871952899
 20
556.02969465099341
 30
0.0
 11
190.01909871952901
 21
556.02969465099341
 31
0.0
  0
LINE
  5
5160
  8
AM_0
 10
153.57042871952899
 20
553.4996646509934
 30
0.0
 11
190.01909871952901
 21
553.4996646509934
 31
0.0
  0
LINE
  5
5161
  8
AM_0
 10
153.57042871952899
 20
546.02969465099341
 30
0.0
 11
190.01909871952901
 21
546.02969465099341
 31
0.0
  0
LINE
  5
5162
  8
AM_0
 10
188.73912871952891
 20
545.75967465099325
 30
0.0
 11
154.6603987195291
 21
545.75967465099325
 31
0.0
  0
LINE
  5
5163
  8
AM_0
 10
188.73912871952891
 20
543.75967465099325
 30
0.0
 11
154.6603987195291
 21
543.75967465099325
 31
0.0
  0
LINE
  5
5164
  8
AM_0
 10
153.57042871952899
 20
543.48965465099366
 30
0.0
 11
190.01909871952901
 21
543.48965465099366
 31
0.0
  0
LINE
  5
5165
  8
AM_0
 10
153.63042871952899
 20
536.07961465099345
 30
0.0
 11
189.95909871952901
 21
536.07961465099345
 31
0.0
  0
LINE
  5
5166
  8
AM_0
 10
188.73912871952891
 20
535.75967465099325
 30
0.0
 11
154.6603987195291
 21
535.75967465099325
 31
0.0
  0
LINE
  5
5167
  8
AM_0
 10
188.73912871952891
 20
533.75967465099347
 30
0.0
 11
154.6603987195291
 21
533.75967465099347
 31
0.0
  0
LINE
  5
5168
  8
AM_0
 10
153.63042871952899
 20
533.41970465099348
 30
0.0
 11
189.971678719529
 21
533.41970465099348
 31
0.0
  0
LINE
  5
5169
  8
AM_0
 10
253.6332387195292
 20
525.75967465099347
 30
0.0
 11
154.6603987195291
 21
525.75967465099347
 31
0.0
  0
LINE
  5
516A
  8
AM_0
 10
153.76042871952899
 20
526.19961465099345
 30
0.0
 11
257.33464871952913
 21
526.19961465099345
 31
0.0
  0
LINE
  5
516B
  8
AM_0
 10
221.3004087195292
 20
523.75967465099325
 30
0.0
 11
154.6603987195291
 21
523.75967465099325
 31
0.0
  0
LINE
  5
516C
  8
AM_0
 10
153.76042871952899
 20
523.26968465099344
 30
0.0
 11
221.3004087195292
 21
523.26968465099344
 31
0.0
  0
LINE
  5
516D
  8
AM_0
 10
253.64043871952899
 20
515.75967465099325
 30
0.0
 11
209.300408719529
 21
515.75967465099325
 31
0.0
  0
LINE
  5
516E
  8
AM_0
 10
253.64043871952899
 20
513.75967465099336
 30
0.0
 11
209.300408719529
 21
513.75967465099336
 31
0.0
  0
LINE
  5
516F
  8
AM_0
 10
153.98039871952909
 20
513.03970465099337
 30
0.0
 11
209.300408719529
 21
513.03970465099337
 31
0.0
  0
LINE
  5
5170
  8
AM_0
 10
257.12041871952903
 20
516.38967465099336
 30
0.0
 11
239.28044871952901
 21
516.38967465099336
 31
0.0
  0
LINE
  5
5171
  8
AM_0
 10
140.5004187195288
 20
514.06972465099341
 30
0.0
 11
142.60039871952901
 21
514.06972465099341
 31
0.0
  0
LINE
  5
5172
  8
AM_0
 10
140.1104687195288
 20
514.14971465099347
 30
0.0
 11
138.9104587195292
 21
514.66973465099341
 31
0.0
  0
LINE
  5
5173
  8
AM_0
 10
140.45043871952899
 20
516.01968465099321
 30
0.0
 11
142.3004087195292
 21
516.01968465099321
 31
0.0
  0
LINE
  5
5174
  8
AM_0
 10
140.16039871952921
 20
516.05965465099325
 30
0.0
 11
139.0104287195291
 21
516.41967465099356
 31
0.0
  0
LINE
  5
5175
  8
AM_0
 10
142.3004087195292
 20
523.75967465099325
 30
0.0
 11
139.3004087195292
 21
523.75967465099325
 31
0.0
  0
LINE
  5
5176
  8
AM_0
 10
142.3004087195292
 20
525.75967465099347
 30
0.0
 11
139.3004087195292
 21
525.75967465099347
 31
0.0
  0
LINE
  5
5177
  8
AM_0
 10
142.3004087195292
 20
533.75967465099347
 30
0.0
 11
139.3004087195292
 21
533.75967465099347
 31
0.0
  0
LINE
  5
5178
  8
AM_0
 10
142.3004087195292
 20
535.75967465099325
 30
0.0
 11
139.3004087195292
 21
535.75967465099325
 31
0.0
  0
LINE
  5
5179
  8
AM_0
 10
142.3004087195292
 20
543.75967465099325
 30
0.0
 11
139.3004087195292
 21
543.75967465099325
 31
0.0
  0
LINE
  5
517A
  8
AM_0
 10
142.3004087195292
 20
545.75967465099325
 30
0.0
 11
139.3004087195292
 21
545.75967465099325
 31
0.0
  0
LINE
  5
517B
  8
AM_0
 10
140.3004087195292
 20
534.14968465099366
 30
0.0
 11
140.3004087195292
 21
535.36965465099343
 31
0.0
  0
LINE
  5
517C
  8
AM_0
 10
140.3004087195292
 20
544.14968465099355
 30
0.0
 11
140.3004087195292
 21
545.30971465099367
 31
0.0
  0
LINE
  5
517D
  8
AM_0
 10
140.3004087195292
 20
524.1296646509935
 30
0.0
 11
140.3004087195292
 21
525.49966465099351
 31
0.0
  0
LINE
  5
517E
  8
AM_0
 10
140.3004087195292
 20
514.36965465099331
 30
0.0
 11
140.3004087195292
 21
515.42971465099345
 31
0.0
  0
LINE
  5
517F
  8
AM_0
 10
136.80040871952909
 20
529.75967465099347
 30
0.0
 11
136.80040871952909
 21
549.75967465099325
 31
0.0
  0
LINE
  5
5180
  8
AM_0
 10
136.80040871952909
 20
529.75964465099355
 30
0.0
 11
138.30040871952909
 21
529.62963465099335
 31
0.0
  0
LINE
  5
5181
  8
AM_0
 10
136.80040871952909
 20
534.60964465099335
 30
0.0
 11
138.30040871952909
 21
534.60964465099335
 31
0.0
  0
LINE
  5
5182
  8
AM_0
 10
136.80040871952909
 20
532.47964465099335
 30
0.0
 11
138.30040871952909
 21
532.47964465099335
 31
0.0
  0
LINE
  5
5183
  8
AM_0
 10
153.98039871952909
 20
516.38967465099336
 30
0.0
 11
221.32042871952919
 21
516.38967465099336
 31
0.0
  0
LINE
  5
5184
  8
AM_0
 10
209.300408719529
 20
515.75967465099325
 30
0.0
 11
154.6603987195291
 21
515.75967465099325
 31
0.0
  0
LINE
  5
5185
  8
AM_0
 10
209.300408719529
 20
513.75967465099336
 30
0.0
 11
154.6603987195291
 21
513.75967465099336
 31
0.0
  0
LINE
  5
5186
  8
AM_0
 10
209.300408719529
 20
513.03970465099337
 30
0.0
 11
257.12041871952903
 21
513.03970465099337
 31
0.0
  0
LINE
  5
5187
  8
AM_0
 10
144.3004087195292
 20
602.75967465099325
 30
0.0
 11
144.3004087195292
 21
496.75967465099347
 31
0.0
  0
LINE
  5
5188
  8
AM_0
 10
152.300408719529
 20
602.75967465099325
 30
0.0
 11
152.300408719529
 21
496.75967465099347
 31
0.0
  0
LINE
  5
5189
  8
AM_0
 10
138.79039871952921
 20
508.65966465099319
 30
0.0
 11
138.77037871952899
 21
508.66964465099318
 31
0.0
  0
LINE
  5
518A
  8
AM_0
 10
143.3004087195292
 20
599.75967465099325
 30
0.0
 11
143.3004087195292
 21
499.75967465099308
 31
0.0
  0
LINE
  5
518B
  8
AM_0
 10
143.3004087195292
 20
599.75967465099325
 30
0.0
 11
144.3004087195292
 21
599.75967465099325
 31
0.0
  0
LINE
  5
518C
  8
AM_0
 10
144.3004087195292
 20
602.75967465099325
 30
0.0
 11
152.300408719529
 21
602.75967465099325
 31
0.0
  0
LINE
  5
518D
  8
AM_0
 10
145.0004187195288
 20
592.94961465099345
 30
0.0
 11
151.23039871952921
 21
592.94961465099345
 31
0.0
  0
LINE
  5
518E
  8
AM_0
 10
260.300408719529
 20
595.75967465099325
 30
0.0
 11
268.300408719529
 21
595.75967465099325
 31
0.0
  0
LINE
  5
518F
  8
AM_0
 10
260.300408719529
 20
581.69961465099345
 30
0.0
 11
268.300408719529
 21
581.69961465099345
 31
0.0
  0
LINE
  5
5190
  8
AM_0
 10
260.300408719529
 20
605.75967465099336
 30
0.0
 11
268.300408719529
 21
605.75967465099336
 31
0.0
  0
LINE
  5
5191
  8
AM_0
 10
155.5104287195289
 20
606.0397046509936
 30
0.0
 11
252.430418719529
 21
606.0397046509936
 31
0.0
  0
LINE
  5
5192
  8
AM_0
 10
152.300408719529
 20
597.85973465099346
 30
0.0
 11
153.54039871952909
 21
604.41973465099352
 31
0.0
  0
LINE
  5
5193
  8
AM_0
 10
157.660458719529
 20
586.4096946509934
 30
0.0
 11
152.30046871952899
 21
597.85967465099338
 31
0.0
  0
LINE
  5
5194
  8
AM_0
 10
157.6603987195291
 20
513.10964465099346
 30
0.0
 11
152.30046871952899
 21
501.66973465099341
 31
0.0
  0
LINE
  5
5195
  8
AM_0
 10
155.550408719529
 20
608.88967465099336
 30
0.0
 11
252.430418719529
 21
608.88967465099336
 31
0.0
  0
LINE
  5
5196
  8
AM_0
 10
155.57042871952899
 20
610.73965465099354
 30
0.0
 11
252.430418719529
 21
610.73965465099354
 31
0.0
  0
LINE
  5
5197
  8
AM_0
 10
155.59044871952901
 20
611.64968465099355
 30
0.0
 11
252.43047871952911
 21
611.64968465099355
 31
0.0
  0
LINE
  5
5198
  8
AM_0
 10
152.30046871952899
 20
599.19970465099345
 30
0.0
 11
153.58043871952901
 21
607.20965465099368
 31
0.0
  0
LINE
  5
5199
  8
AM_0
 10
152.30046871952899
 20
600.54964465099317
 30
0.0
 11
153.59044871952909
 21
609.0397346509933
 31
0.0
  0
LINE
  5
519A
  8
AM_0
 10
152.300408719529
 20
600.54967465099355
 30
0.0
 11
153.610408719529
 21
609.92971465099345
 31
0.0
  0
LINE
  5
519B
  8
AM_0
 10
258.50047871952921
 20
589.09963465099327
 30
0.0
 11
254.360468719529
 21
604.55965465099325
 31
0.0
  0
LINE
  5
519C
  8
AM_0
 10
254.84044871952909
 20
602.75967465099325
 30
0.0
 11
260.300408719529
 21
602.75967465099325
 31
0.0
  0
LINE
  5
519D
  8
AM_0
 10
138.30040871952909
 20
501.73965465099337
 30
0.0
 11
138.30040871952909
 21
544.75967465099325
 31
0.0
  0
LINE
  5
519E
  8
AM_0
 10
140.57042871952899
 20
500.00967465099319
 30
0.0
 11
142.800408719529
 21
500.00967465099319
 31
0.0
  0
LINE
  5
519F
  8
AM_0
 10
140.07042871952899
 20
500.14968465099321
 30
0.0
 11
138.80046871952899
 21
500.87966465099328
 31
0.0
  0
LINE
  5
51A0
  8
AM_0
 10
140.0604787195289
 20
502.25967465099319
 30
0.0
 11
138.7804487195292
 21
503.02969465099341
 31
0.0
  0
LINE
  5
51A1
  8
AM_0
 10
140.05034871952921
 20
506.79964465099317
 30
0.0
 11
138.750358719529
 21
507.64965465099323
 31
0.0
  0
LINE
  5
51A2
  8
AM_0
 10
140.58043871952901
 20
502.11965465099331
 30
0.0
 11
143.3004087195292
 21
502.11965465099331
 31
0.0
  0
LINE
  5
51A3
  8
AM_0
 10
140.600458719529
 20
506.6396746509933
 30
0.0
 11
143.3004087195292
 21
506.6396746509933
 31
0.0
  0
LINE
  5
51A4
  8
AM_0
 10
140.57042871952899
 20
507.77969465099318
 30
0.0
 11
142.3004087195292
 21
507.77969465099318
 31
0.0
  0
LINE
  5
51A5
  8
AM_0
 10
140.550408719529
 20
503.25967465099308
 30
0.0
 11
142.3004087195292
 21
503.25967465099308
 31
0.0
  0
LINE
  5
51A6
  8
AM_0
 10
140.54039871952921
 20
501.15969465099329
 30
0.0
 11
142.800408719529
 21
501.15969465099329
 31
0.0
  0
LINE
  5
51A7
  8
AM_0
 10
140.07042871952899
 20
507.90972465099333
 30
0.0
 11
138.79045871952911
 21
508.65969465099329
 31
0.0
  0
LINE
  5
51A8
  8
AM_0
 10
140.0903887195291
 20
501.26965465099329
 30
0.0
 11
138.85039871952921
 21
501.89965465099323
 31
0.0
  0
LINE
  5
51A9
  8
AM_0
 10
140.08043871952901
 20
503.3796646509935
 30
0.0
 11
138.83043871952901
 21
504.0396646509933
 31
0.0
  0
LINE
  5
51AA
  8
AM_0
 10
140.3004087195292
 20
506.92971465099328
 30
0.0
 11
140.3004087195292
 21
507.39968465099349
 31
0.0
  0
LINE
  5
51AB
  8
AM_0
 10
140.3004087195292
 20
502.35964465099329
 30
0.0
 11
140.3004087195292
 21
502.90969465099329
 31
0.0
  0
LINE
  5
51AC
  8
AM_0
 10
140.3004087195292
 20
500.25967465099308
 30
0.0
 11
140.3004087195292
 21
500.78970465099349
 31
0.0
  0
LINE
  5
51AD
  8
AM_0
 10
143.3004087195292
 20
499.75967465099308
 30
0.0
 11
144.3004087195292
 21
499.75967465099308
 31
0.0
  0
LINE
  5
51AE
  8
AM_0
 10
144.3004087195292
 20
496.75967465099347
 30
0.0
 11
152.300408719529
 21
496.75967465099347
 31
0.0
  0
LINE
  5
51AF
  8
AM_0
 10
145.0004187195288
 20
506.56972465099341
 30
0.0
 11
151.23039871952921
 21
506.56972465099341
 31
0.0
  0
LINE
  5
51B0
  8
AM_0
 10
260.300408719529
 20
503.75967465099308
 30
0.0
 11
268.300408719529
 21
503.75967465099308
 31
0.0
  0
LINE
  5
51B1
  8
AM_0
 10
260.300408719529
 20
493.75967465099319
 30
0.0
 11
268.300408719529
 21
493.75967465099319
 31
0.0
  0
LINE
  5
51B2
  8
AM_0
 10
155.5104287195289
 20
493.47964465099329
 30
0.0
 11
252.430418719529
 21
493.47964465099329
 31
0.0
  0
LINE
  5
51B3
  8
AM_0
 10
152.300408719529
 20
501.66964465099329
 30
0.0
 11
153.540458719529
 21
495.10964465099329
 31
0.0
  0
LINE
  5
51B4
  8
AM_0
 10
155.206658719529
 20
490.6296646509935
 30
0.0
 11
177.69853871952901
 21
490.6296646509935
 31
0.0
  0
LINE
  5
51B5
  8
AM_0
 10
152.300408719529
 20
500.31963465099341
 30
0.0
 11
153.58043871952901
 21
492.31972465099341
 31
0.0
  0
LINE
  5
51B6
  8
AM_0
 10
152.300408719529
 20
498.97973465099329
 30
0.0
 11
153.30968871952899
 21
492.3295546509932
 31
0.0
  0
LINE
  5
51B7
  8
AM_0
 10
152.30046871952899
 20
498.97970465099331
 30
0.0
 11
153.225888719529
 21
492.35311465099318
 31
0.0
  0
LINE
  5
51B8
  8
AM_0
 10
258.5061287195291
 20
510.44082465099319
 30
0.0
 11
254.360408719529
 21
494.95968465099321
 31
0.0
  0
LINE
  5
51B9
  8
AM_0
 10
254.84245871952891
 20
496.75967465099347
 30
0.0
 11
260.300408719529
 21
496.75967465099347
 31
0.0
  0
LINE
  5
51BA
  8
AM_0
 10
260.300408719529
 20
517.81972465099341
 30
0.0
 11
268.300408719529
 21
517.81972465099341
 31
0.0
  0
LINE
  5
51BB
  8
AM_0
 10
259.300408719529
 20
496.75967465099347
 30
0.0
 11
253.574668719529
 21
487.9427746509935
 31
0.0
  0
LINE
  5
51BC
  8
AM_0
 10
240.81401871952909
 20
487.2596746509933
 30
0.0
 11
252.3166487195291
 21
487.2596746509933
 31
0.0
  0
LINE
  5
51BD
  8
AM_0
 10
238.28044871952901
 20
577.25967465099325
 30
0.0
 11
238.28044871952901
 21
582.11965465099354
 31
0.0
  0
LINE
  5
51BE
  8
AM_0
 10
222.3204287195291
 20
577.25967465099325
 30
0.0
 11
222.3204287195291
 21
582.11965465099354
 31
0.0
  0
LINE
  5
51BF
  8
AM_0
 10
237.8004087195292
 20
577.25967465099325
 30
0.0
 11
237.8004087195292
 21
582.25967465099325
 31
0.0
  0
LINE
  5
51C0
  8
AM_0
 10
222.800408719529
 20
577.25967465099325
 30
0.0
 11
222.800408719529
 21
582.25967465099325
 31
0.0
  0
LINE
  5
51C1
  8
AM_0
 10
194.300408719529
 20
562.75967465099347
 30
0.0
 11
257.300408719529
 21
562.75967465099347
 31
0.0
  0
LINE
  5
51C2
  8
AM_0
 10
194.300408719529
 20
529.25967465099347
 30
0.0
 11
257.300408719529
 21
529.25967465099347
 31
0.0
  0
LINE
  5
51C3
  8
AM_0
 10
194.300408719529
 20
570.25967465099325
 30
0.0
 11
257.300408719529
 21
570.25967465099325
 31
0.0
  0
LINE
  5
51C4
  8
AM_0
 10
257.300408719529
 20
570.25967465099325
 30
0.0
 11
257.300408719529
 21
529.25967465099347
 31
0.0
  0
LINE
  5
51C5
  8
AM_0
 10
194.300408719529
 20
570.25967465099325
 30
0.0
 11
194.300408719529
 21
529.25967465099347
 31
0.0
  0
LINE
  5
51C6
  8
AM_0
 10
239.300408719529
 20
576.2496646509934
 30
0.0
 11
257.34612871952902
 21
576.2496646509934
 31
0.0
  0
LINE
  5
51C7
  8
AM_0
 10
239.300408719529
 20
523.27969465099329
 30
0.0
 11
257.33464871952913
 21
523.27969465099329
 31
0.0
  0
LINE
  5
51C8
  8
AM_0
 10
238.28044871952901
 20
522.25967465099336
 30
0.0
 11
238.28044871952901
 21
517.39968465099355
 31
0.0
  0
LINE
  5
51C9
  8
AM_0
 10
222.3204287195291
 20
522.25967465099336
 30
0.0
 11
222.3204287195291
 21
517.39968465099355
 31
0.0
  0
LINE
  5
51CA
  8
AM_0
 10
237.8004087195292
 20
522.25967465099336
 30
0.0
 11
237.8004087195292
 21
517.25967465099347
 31
0.0
  0
LINE
  5
51CB
  8
AM_0
 10
222.800408719529
 20
522.25967465099336
 30
0.0
 11
222.800408719529
 21
517.25967465099347
 31
0.0
  0
LINE
  5
51CC
  8
AM_0
 10
253.6332387195292
 20
523.75967465099325
 30
0.0
 11
239.300408719529
 21
523.75967465099325
 31
0.0
  0
LINE
  5
51CD
  8
AM_0
 10
253.64757871952921
 20
575.75967465099347
 30
0.0
 11
239.300408719529
 21
575.75967465099347
 31
0.0
  0
LINE
  5
51CE
  8
AM_0
 10
239.28044871952901
 20
583.11965465099354
 30
0.0
 11
257.12041871952903
 21
583.11965465099354
 31
0.0
  0
ARC
  5
51CF
  8
AM_0
 10
259.95360871952897
 20
595.09243465099348
 30
0.0
 40
1.502775999999999
 50
194.75642999999971
 51
269.87757999999872
  0
ARC
  5
51D0
  8
AM_0
 10
259.95360871952897
 20
594.18240465099348
 30
0.0
 40
1.502775999999999
 50
194.75642999999971
 51
269.87757999999872
  0
ARC
  5
51D1
  8
AM_0
 10
259.95360871952897
 20
592.33242465099352
 30
0.0
 40
1.502775999999999
 50
194.75642999999971
 51
269.87757999999872
  0
ARC
  5
51D2
  8
AM_0
 10
252.4255887195292
 20
609.64492465099329
 30
0.0
 40
2.0047290000000002
 50
15.173495999996319
 51
89.861678000000197
  0
ARC
  5
51D3
  8
AM_0
 10
252.4255887195292
 20
608.73489465099328
 30
0.0
 40
2.0047290000000002
 50
15.173495999996319
 51
89.861678000000197
  0
ARC
  5
51D4
  8
AM_0
 10
252.4255887195292
 20
606.88491465099355
 30
0.0
 40
2.0047290000000002
 50
15.173495999996319
 51
89.861678000000197
  0
ARC
  5
51D5
  8
AM_0
 10
259.95360871952897
 20
510.0368946509933
 30
0.0
 40
1.502775999999999
 50
90.122413000001615
 51
165.2435700000002
  0
ARC
  5
51D6
  8
AM_0
 10
139.2936387195289
 20
597.77761465099354
 30
0.0
 40
0.99319202
 50
119.77338
 51
179.87958999999799
  0
ARC
  5
51D7
  8
AM_0
 10
139.2960187195292
 20
596.73940465099349
 30
0.0
 40
0.995579
 50
116.5870900000007
 51
179.98263999999989
  0
ARC
  5
51D8
  8
AM_0
 10
140.56243871952901
 20
598.51382465099346
 30
0.0
 40
0.9959030199999999
 50
89.541266999999124
 51
119.6071699999994
  0
ARC
  5
51D9
  8
AM_0
 10
140.52519871952899
 20
597.36562465099325
 30
0.0
 40
0.99411702
 50
89.122643999998516
 51
115.93498000000019
  0
ARC
  5
51DA
  8
AM_0
 10
140.56926871952879
 20
596.4054246509935
 30
0.0
 40
0.99427301
 50
89.356066000000013
 51
120.7809100000017
  0
ARC
  5
51DB
  8
AM_0
 10
140.53551871952899
 20
595.26430465099327
 30
0.0
 40
0.99545902
 50
89.141290999999924
 51
117.2038199999995
  0
ARC
  5
51DC
  8
AM_0
 10
140.60704871952899
 20
591.89345465099348
 30
0.0
 40
0.99617702
 50
90.381317999999226
 51
123.9704899999999
  0
ARC
  5
51DD
  8
AM_0
 10
140.57982871952899
 20
590.75320465099367
 30
0.0
 40
0.99648702
 50
90.540720999998626
 51
120.74377000000059
  0
ARC
  5
51DE
  8
AM_0
 10
139.294488719529
 20
590.00283465099335
 30
0.0
 40
0.99404597
 50
120.46820000000049
 51
180.18564000000021
  0
ARC
  5
51DF
  8
AM_0
 10
139.2952187195288
 20
591.0372546509933
 30
0.0
 40
0.9948369899999999
 50
123.2049600000028
 51
180.43785999999801
  0
ARC
  5
51E0
  8
AM_0
 10
139.2936387195289
 20
594.60110465099353
 30
0.0
 40
0.9932109699999999
 50
117.7993199999991
 51
180.08187000000001
  0
ARC
  5
51E1
  8
AM_0
 10
139.2948587195288
 20
595.6386946509931
 30
0.0
 40
0.9944329899999999
 50
121.1521299999998
 51
179.94050999999911
  0
ARC
  5
51E2
  8
AM_0
 10
140.50139871952939
 20
584.45425465099345
 30
0.0
 40
0.9954450099999999
 50
90.056904999999645
 51
113.12745
  0
ARC
  5
51E3
  8
AM_0
 10
140.43956871952901
 20
582.50698465099345
 30
0.0
 40
0.9927430199999999
 50
89.374554999998736
 51
106.33207000000171
  0
ARC
  5
51E4
  8
AM_0
 10
139.29668871952919
 20
582.15542465099338
 30
0.0
 40
0.9962710099999999
 50
106.6979199999999
 51
180.33004999999989
  0
ARC
  5
51E5
  8
AM_0
 10
139.29680871952911
 20
583.94118465099348
 30
0.0
 40
0.9963999999999998
 50
112.8173600000008
 51
180.0904199999996
  0
ARC
  5
51E6
  8
AM_0
 10
139.29552871952899
 20
574.76455465099355
 30
0.0
 40
0.99507803
 50
89.715887000001331
 51
180.28410999999991
  0
ARC
  5
51E7
  8
AM_0
 10
139.300658719529
 20
574.75991465099355
 30
0.0
 40
1.000203
 50
180.01164999999551
 51
269.98835000000122
  0
ARC
  5
51E8
  8
AM_0
 10
139.29552871952899
 20
564.76455465099355
 30
0.0
 40
0.99508202
 50
89.716099000001435
 51
180.2839099999978
  0
ARC
  5
51E9
  8
AM_0
 10
139.300658719529
 20
564.75991465099366
 30
0.0
 40
1.0001999999999991
 50
180.01143000000161
 51
269.98856999999839
  0
ARC
  5
51EA
  8
AM_0
 10
139.29552871952899
 20
554.76455465099343
 30
0.0
 40
0.9950849999999999
 50
89.716311000000914
 51
180.28368999999961
  0
ARC
  5
51EB
  8
AM_0
 10
139.300658719529
 20
554.75991465099355
 30
0.0
 40
1.0001959999999981
 50
180.0112199999958
 51
269.98878000000087
  0
ARC
  5
51EC
  8
AM_0
 10
142.3005887195288
 20
552.7597946509934
 30
0.0
 40
0.9998249999999999
 50
359.98994999999883
 51
90.010050000001243
  0
ARC
  5
51ED
  8
AM_0
 10
142.29546871952911
 20
556.76455465099343
 30
0.0
 40
1.0049469
 50
270.28135000000037
 51
359.71866000000068
  0
ARC
  5
51EE
  8
AM_0
 10
142.3005887195288
 20
562.7597946509934
 30
0.0
 40
0.9998210099999999
 50
359.98975000000149
 51
90.010254999998992
  0
ARC
  5
51EF
  8
AM_0
 10
142.29546871952911
 20
566.76455465099355
 30
0.0
 40
1.004939
 50
270.2809100000008
 51
359.71909999999991
  0
ARC
  5
51F0
  8
AM_0
 10
142.3005887195288
 20
572.75979465099317
 30
0.0
 40
0.9998289899999999
 50
359.99019000000038
 51
90.009811000000937
  0
ARC
  5
51F1
  8
AM_0
 10
142.29546871952911
 20
576.76455465099355
 30
0.0
 40
1.004942999999999
 50
270.28111000000013
 51
359.71888999999987
  0
ARC
  5
51F2
  8
AM_0
 10
142.3021187195292
 20
582.50136465099354
 30
0.0
 40
0.9982839799999999
 50
359.90142000000009
 51
90.098576000001358
  0
ARC
  5
51F3
  8
AM_0
 10
142.29808871952901
 20
590.74734465099345
 30
0.0
 40
1.002353
 50
0.1343268199984526
 51
89.865672999999347
  0
ARC
  5
51F4
  8
AM_0
 10
142.5958787195288
 20
586.15420465099351
 30
0.0
 40
0.704566
 50
270.37010000000009
 51
359.62990999999778
  0
ARC
  5
51F5
  8
AM_0
 10
142.3013887195288
 20
595.26064465099353
 30
0.0
 40
0.9990100299999999
 50
359.94319000000121
 51
90.056809000000058
  0
ARC
  5
51F6
  8
AM_0
 10
142.80211871952901
 20
597.86135465099335
 30
0.0
 40
0.4983060100000002
 50
359.80488999999778
 51
90.195107000000036
  0
ARC
  5
51F7
  8
AM_0
 10
142.7958287195292
 20
600.01430465099338
 30
0.0
 40
0.50463498
 50
270.52383000000037
 51
359.47616999999963
  0
ARC
  5
51F8
  8
AM_0
 10
154.84502871952901
 20
514.75967465099325
 30
0.0
 40
1.000013899999999
 50
89.691659999999231
 51
270.30834000000078
  0
ARC
  5
51F9
  8
AM_0
 10
257.12041871952903
 20
584.80471465099322
 30
0.0
 40
1.6750020000000001
 50
269.999989999999
 51
90.000003000000945
  0
ARC
  5
51FA
  8
AM_0
 10
253.64043871952899
 20
584.75967465099336
 30
0.0
 40
1.0
 50
269.999989999999
 51
90.000003000000945
  0
ARC
  5
51FB
  8
AM_0
 10
253.64043871952899
 20
514.75967465099325
 30
0.0
 40
1.0
 50
269.999989999999
 51
90.000003000000945
  0
ARC
  5
51FC
  8
AM_0
 10
257.12041871952903
 20
514.71462465099341
 30
0.0
 40
1.6750020000000001
 50
269.999989999999
 51
90.000003000000945
  0
ARC
  5
51FD
  8
AM_0
 10
142.29704871952899
 20
517.02297465099355
 30
0.0
 40
1.003352
 50
270.19111000000021
 51
359.80890000000107
  0
ARC
  5
51FE
  8
AM_0
 10
142.29546871952911
 20
526.7645546509932
 30
0.0
 40
1.0049469
 50
270.2813699999993
 51
359.71863000000081
  0
ARC
  5
51FF
  8
AM_0
 10
142.3005887195288
 20
522.75979465099317
 30
0.0
 40
0.9998239899999999
 50
359.98991999999532
 51
90.01007700000045
  0
ARC
  5
5200
  8
AM_0
 10
142.60094871952921
 20
513.37026465099336
 30
0.0
 40
0.6994530000000001
 50
359.95517000000092
 51
90.044829000000746
  0
ARC
  5
5201
  8
AM_0
 10
140.50340871952901
 20
515.07485465099353
 30
0.0
 40
1.005233
 50
246.98639000000031
 51
269.82924999999938
  0
ARC
  5
5202
  8
AM_0
 10
140.4409787195288
 20
517.0223646509935
 30
0.0
 40
1.002699
 50
253.7527199999989
 51
270.54064000000108
  0
ARC
  5
5203
  8
AM_0
 10
139.29680871952911
 20
517.37405465099312
 30
0.0
 40
0.99638802
 50
180.24990999999889
 51
253.29664000000031
  0
ARC
  5
5204
  8
AM_0
 10
139.29692871952921
 20
515.58816465099335
 30
0.0
 40
0.9965090199999998
 50
179.9137499999965
 51
247.1784500000004
  0
ARC
  5
5205
  8
AM_0
 10
139.300658719529
 20
524.75991465099332
 30
0.0
 40
1.0001959999999981
 50
180.01124999999939
 51
269.98875000000061
  0
ARC
  5
5206
  8
AM_0
 10
139.29552871952899
 20
524.76455465099298
 30
0.0
 40
0.9950849999999999
 50
89.716282999999393
 51
180.28371999999919
  0
ARC
  5
5207
  8
AM_0
 10
139.300658719529
 20
534.75991465099344
 30
0.0
 40
1.0001999999999991
 50
180.01145999999861
 51
269.98854000000142
  0
ARC
  5
5208
  8
AM_0
 10
139.29552871952899
 20
534.76455465099343
 30
0.0
 40
0.9950810099999999
 50
89.716072000000096
 51
180.2839200000044
  0
ARC
  5
5209
  8
AM_0
 10
139.300658719529
 20
544.75991465099355
 30
0.0
 40
1.0002040000000001
 50
180.01165999999679
 51
269.98832000000078
  0
ARC
  5
520A
  8
AM_0
 10
139.29552871952899
 20
544.76455465099343
 30
0.0
 40
0.9950770099999999
 50
89.715859999999481
 51
180.28414000000049
  0
ARC
  5
520B
  8
AM_0
 10
142.29546871952911
 20
546.76455465099343
 30
0.0
 40
1.004942999999999
 50
270.28113999999943
 51
359.71886999999822
  0
ARC
  5
520C
  8
AM_0
 10
142.3005887195288
 20
542.75979465099329
 30
0.0
 40
0.9998279799999998
 50
359.99015999999688
 51
90.009838000000187
  0
ARC
  5
520D
  8
AM_0
 10
142.29546871952911
 20
536.76455465099343
 30
0.0
 40
1.004939
 50
270.2809399999997
 51
359.71907000000078
  0
ARC
  5
520E
  8
AM_0
 10
142.3005887195288
 20
532.7597946509934
 30
0.0
 40
0.9998210099999999
 50
359.98971999999799
 51
90.010282000001538
  0
ARC
  5
520F
  8
AM_0
 10
153.97301871952919
 20
584.80471465099322
 30
0.0
 40
1.6750160000000001
 50
89.746145000001221
 51
270.25387000000092
  0
ARC
  5
5210
  8
AM_0
 10
154.84502871952901
 20
584.75967465099336
 30
0.0
 40
1.000013899999999
 50
89.691659999999231
 51
270.30834000000078
  0
ARC
  5
5211
  8
AM_0
 10
154.84502871952901
 20
574.75967465099325
 30
0.0
 40
1.000013899999999
 50
89.691659999999231
 51
270.30834000000078
  0
ARC
  5
5212
  8
AM_0
 10
154.84502871952901
 20
564.75967465099325
 30
0.0
 40
1.000013899999999
 50
89.691659999999231
 51
270.30834000000078
  0
ARC
  5
5213
  8
AM_0
 10
154.84502871952901
 20
554.75967465099347
 30
0.0
 40
1.000013899999999
 50
89.691659999999231
 51
270.30834000000078
  0
ARC
  5
5214
  8
AM_0
 10
154.84502871952901
 20
544.75967465099325
 30
0.0
 40
1.000013899999999
 50
89.691659999999231
 51
270.30834000000078
  0
ARC
  5
5215
  8
AM_0
 10
154.84502871952901
 20
534.75967465099336
 30
0.0
 40
1.000013899999999
 50
89.691659999999231
 51
270.30834000000078
  0
ARC
  5
5216
  8
AM_0
 10
154.84502871952901
 20
524.75967465099325
 30
0.0
 40
1.000013899999999
 50
89.691659999999231
 51
270.30834000000078
  0
ARC
  5
5217
  8
AM_0
 10
153.76042871952899
 20
574.7846946509934
 30
0.0
 40
1.465004
 50
90.000003000000945
 51
270.0
  0
ARC
  5
5218
  8
AM_0
 10
153.63042871952899
 20
564.76968465099355
 30
0.0
 40
1.3300049999999981
 50
90.000003000000945
 51
270.0
  0
ARC
  5
5219
  8
AM_0
 10
153.56456871952901
 20
554.76467465099336
 30
0.0
 40
1.2650129999999991
 50
89.735578999998495
 51
270.2644099999992
  0
ARC
  5
521A
  8
AM_0
 10
153.56456871952901
 20
544.75967465099325
 30
0.0
 40
1.2700129999999981
 50
89.736617000001615
 51
270.2633699999991
  0
ARC
  5
521B
  8
AM_0
 10
153.63042871952899
 20
534.7496646509934
 30
0.0
 40
1.3300049999999981
 50
90.000003000000945
 51
270.0
  0
ARC
  5
521C
  8
AM_0
 10
153.76042871952899
 20
524.73464465099346
 30
0.0
 40
1.465004
 50
90.000003000000945
 51
270.0
  0
ARC
  5
521D
  8
AM_0
 10
153.973568719529
 20
514.71462465099341
 30
0.0
 40
1.675014
 50
89.766499000000024
 51
270.2335099999994
  0
ARC
  5
521E
  8
AM_0
 10
142.29717871952909
 20
508.78640465099329
 30
0.0
 40
1.0032760000000001
 50
334.19810000000479
 51
359.6181099999983
  0
ARC
  5
521F
  8
AM_0
 10
139.298888719529
 20
509.51894465099349
 30
0.0
 40
0.9984580299999999
 50
179.95957999999851
 51
239.38657000000219
  0
ARC
  5
5220
  8
AM_0
 10
155.49913871952899
 20
604.04555465099327
 30
0.0
 40
1.994108999999999
 50
89.67554799999948
 51
169.18776999999901
  0
ARC
  5
5221
  8
AM_0
 10
155.550658719529
 20
606.8944346509935
 30
0.0
 40
1.995282999999997
 50
90.00620400000011
 51
170.90835000000069
  0
ARC
  5
5222
  8
AM_0
 10
155.564998719529
 20
608.74294465099354
 30
0.0
 40
1.9967330000000001
 50
89.843966999998912
 51
171.45388000000381
  0
ARC
  5
5223
  8
AM_0
 10
155.58690871952899
 20
609.65407465099327
 30
0.0
 40
1.995633
 50
89.899707999999052
 51
172.06112999999939
  0
ARC
  5
5224
  8
AM_0
 10
252.43053871952901
 20
604.04140465099351
 30
0.0
 40
1.9982919999999991
 50
15.032547999996
 51
90.002632000001341
  0
ARC
  5
5225
  8
AM_0
 10
259.95360871952897
 20
589.4824446509931
 30
0.0
 40
1.502775999999999
 50
194.75642999999971
 51
269.87757999999872
  0
ARC
  5
5226
  8
AM_0
 10
252.4255887195292
 20
495.48440465099333
 30
0.0
 40
2.0047290000000002
 50
270.13832000000087
 51
344.82650000000189
  0
ARC
  5
5227
  8
AM_0
 10
139.29802871952921
 20
501.74428465099328
 30
0.0
 40
0.9976310099999999
 50
180.2678099999986
 51
240.07924000000099
  0
ARC
  5
5228
  8
AM_0
 10
139.29613871952901
 20
502.79006465099349
 30
0.0
 40
0.9956849800000001
 50
180.02113
 51
243.4091400000006
  0
ARC
  5
5229
  8
AM_0
 10
140.5811087195288
 20
501.01076465099351
 30
0.0
 40
1.001123999999999
 50
239.3278200000014
 51
269.38767999999868
  0
ARC
  5
522A
  8
AM_0
 10
140.54625871952879
 20
502.1589646509932
 30
0.0
 40
0.9993420200000001
 50
242.86200000000241
 51
269.6654599999984
  0
ARC
  5
522B
  8
AM_0
 10
140.57182871952921
 20
503.12331465099351
 30
0.0
 40
1.0037439999999991
 50
239.37113000000019
 51
270.49190000000061
  0
ARC
  5
522C
  8
AM_0
 10
140.555598719529
 20
504.26028465099341
 30
0.0
 40
1.0006820000000001
 50
241.65062000000191
 51
269.70392999999888
  0
ARC
  5
522D
  8
AM_0
 10
140.59319871952911
 20
507.64016465099348
 30
0.0
 40
1.000521999999999
 50
237.1461799999995
 51
270.41344000000032
  0
ARC
  5
522E
  8
AM_0
 10
140.56377871952901
 20
508.7806646509934
 30
0.0
 40
1.0010449999999991
 50
240.4718700000011
 51
270.37970999999948
  0
ARC
  5
522F
  8
AM_0
 10
139.298888719529
 20
509.51894465099349
 30
0.0
 40
0.9984580299999999
 50
179.95957999999851
 51
239.38657000000219
  0
ARC
  5
5230
  8
AM_0
 10
139.2994987195288
 20
508.48440465099333
 30
0.0
 40
0.9990889999999998
 50
179.6950899999965
 51
236.66209000000279
  0
ARC
  5
5231
  8
AM_0
 10
139.2981487195288
 20
504.9209246509933
 30
0.0
 40
0.9977070099999998
 50
180.074020000004
 51
242.04481000000081
  0
ARC
  5
5232
  8
AM_0
 10
139.29918871952901
 20
503.88320465099338
 30
0.0
 40
0.9987969999999998
 50
179.62728000000101
 51
238.70795000000021
  0
ARC
  5
5233
  8
AM_0
 10
142.2979687195288
 20
508.7821346509935
 30
0.0
 40
1.002470999999999
 50
270.14107000000013
 51
359.85892999999987
  0
ARC
  5
5234
  8
AM_0
 10
142.29631871952901
 20
504.26382465099329
 30
0.0
 40
1.004119999999999
 50
270.23460999999998
 51
359.76539000000002
  0
ARC
  5
5235
  8
AM_0
 10
142.79704871952899
 20
501.66311465099341
 30
0.0
 40
0.5033929900000002
 50
270.38491000000062
 51
359.61509999999811
  0
ARC
  5
5236
  8
AM_0
 10
142.8008987195291
 20
499.51015465099329
 30
0.0
 40
0.49952301
 50
359.9452300000014
 51
90.054773999999597
  0
ARC
  5
5237
  8
AM_0
 10
155.50530871952901
 20
495.47890465099329
 30
0.0
 40
1.9992490000000001
 50
190.643100000001
 51
270.14743000000129
  0
ARC
  5
5238
  8
AM_0
 10
155.5566387195291
 20
492.6300346509932
 30
0.0
 40
2.000420099999999
 50
188.9268200000011
 51
269.82270999999929
  0
ARC
  5
5239
  8
AM_0
 10
240.81401871952909
 20
485.7596746509933
 30
0.0
 40
1.5
 50
90.000003000000945
 51
178.4999999999973
  0
ARC
  5
523A
  8
AM_0
 10
252.3166487195291
 20
488.75967465099342
 30
0.0
 40
1.5
 50
269.999989999999
 51
326.99999999999892
  0
ARC
  5
523B
  8
AM_0
 10
155.28703871952899
 20
492.6296646509935
 30
0.0
 40
2.0
 50
188.62961999999749
 51
269.999989999999
  0
ARC
  5
523C
  8
AM_0
 10
155.206658719529
 20
492.6296646509935
 30
0.0
 40
2.0
 50
187.95044000000351
 51
269.999989999999
  0
ARC
  5
523D
  8
AM_0
 10
177.69853871952901
 20
489.1296646509935
 30
0.0
 40
1.5
 50
1.5000027000022329
 51
90.000003000000945
  0
ARC
  5
523E
  8
AM_0
 10
188.73912871952891
 20
564.75967465099325
 30
0.0
 40
1.0000056999999991
 50
269.999989999999
 51
90.000003000000945
  0
ARC
  5
523F
  8
AM_0
 10
188.73912871952891
 20
554.75967465099347
 30
0.0
 40
1.0000056999999991
 50
269.999989999999
 51
90.000003000000945
  0
ARC
  5
5240
  8
AM_0
 10
188.73912871952891
 20
544.75967465099325
 30
0.0
 40
1.0000056999999991
 50
269.999989999999
 51
90.000003000000945
  0
ARC
  5
5241
  8
AM_0
 10
188.73912871952891
 20
534.75967465099336
 30
0.0
 40
1.0000056999999991
 50
269.999989999999
 51
90.000003000000945
  0
ARC
  5
5242
  8
AM_0
 10
239.300408719529
 20
517.25967465099347
 30
0.0
 40
1.5
 50
179.999989999999
 51
270.0
  0
ARC
  5
5243
  8
AM_0
 10
221.3004087195292
 20
517.25967465099347
 30
0.0
 40
1.5
 50
269.999989999999
 51
0.0000006832495047
  0
ARC
  5
5244
  8
AM_0
 10
221.32042871952919
 20
517.39968465099355
 30
0.0
 40
1.0
 50
269.999989999999
 51
0.0000006832495047
  0
ARC
  5
5245
  8
AM_0
 10
239.28044871952901
 20
517.39968465099355
 30
0.0
 40
1.0
 50
179.999989999999
 51
270.0
  0
CIRCLE
  5
5246
  8
AM_0
 10
227.800408719529
 20
578.25967465099325
 30
0.0
 40
1.1000000000000001
  0
CIRCLE
  5
5247
  8
AM_0
 10
227.800408719529
 20
578.25967465099325
 30
0.0
 40
1.149999999999999
  0
CIRCLE
  5
5248
  8
AM_0
 10
232.800408719529
 20
578.25967465099325
 30
0.0
 40
1.0
  0
ARC
  5
5249
  8
AM_0
 10
221.3004087195292
 20
577.25967465099325
 30
0.0
 40
1.02
 50
269.999989999999
 51
0.0000006832429909
  0
ARC
  5
524A
  8
AM_0
 10
239.300408719529
 20
577.25967465099325
 30
0.0
 40
1.02
 50
179.999989999999
 51
270.0
  0
ARC
  5
524B
  8
AM_0
 10
221.3004087195292
 20
577.25967465099325
 30
0.0
 40
1.5
 50
269.999989999999
 51
0.0000006832495047
  0
ARC
  5
524C
  8
AM_0
 10
239.300408719529
 20
577.25967465099325
 30
0.0
 40
1.5
 50
179.999989999999
 51
270.0
  0
CIRCLE
  5
524D
  8
AM_0
 10
232.800408719529
 20
521.25967465099347
 30
0.0
 40
1.0
  0
CIRCLE
  5
524E
  8
AM_0
 10
227.800408719529
 20
521.25967465099347
 30
0.0
 40
1.149999999999999
  0
CIRCLE
  5
524F
  8
AM_0
 10
227.800408719529
 20
521.25967465099347
 30
0.0
 40
1.1000000000000001
  0
ARC
  5
5250
  8
AM_0
 10
221.3004087195292
 20
522.25967465099336
 30
0.0
 40
1.02
 50
0.0
 51
90.000003000000945
  0
ARC
  5
5251
  8
AM_0
 10
239.300408719529
 20
522.25967465099336
 30
0.0
 40
1.02
 50
90.000003000000945
 51
180.00001000000091
  0
ARC
  5
5252
  8
AM_0
 10
221.3004087195292
 20
522.25967465099336
 30
0.0
 40
1.5
 50
0.0
 51
90.000003000000945
  0
ARC
  5
5253
  8
AM_0
 10
239.300408719529
 20
522.25967465099336
 30
0.0
 40
1.5
 50
90.000003000000945
 51
180.00001000000091
  0
ARC
  5
5254
  8
AM_0
 10
189.9653887195291
 20
534.7496646509934
 30
0.0
 40
1.3300148000000001
 50
269.7294199999987
 51
90.270567000000995
  0
ARC
  5
5255
  8
AM_0
 10
190.02733871952901
 20
544.75967465099325
 30
0.0
 40
1.2700266
 50
269.62931999999989
 51
90.370670000001468
  0
ARC
  5
5256
  8
AM_0
 10
190.02733871952901
 20
554.76968465099344
 30
0.0
 40
1.2700266
 50
269.62931999999989
 51
90.370670000001468
  0
ARC
  5
5257
  8
AM_0
 10
189.9653887195291
 20
564.77468465099355
 30
0.0
 40
1.3350147999999991
 50
269.7304299999999
 51
90.269556000001344
  0
ARC
  5
5258
  8
AM_0
 10
253.64037871952911
 20
574.75967465099325
 30
0.0
 40
1.0000255999999981
 50
269.58947000000001
 51
90.410531000001029
  0
ARC
  5
5259
  8
AM_0
 10
257.34038871952902
 20
574.78970465099326
 30
0.0
 40
1.460011199999999
 50
269.77524999999991
 51
90.224750000000085
  0
ARC
  5
525A
  8
AM_0
 10
253.64037871952911
 20
524.75967465099325
 30
0.0
 40
1.0000255999999981
 50
269.58947000000001
 51
90.410531000001029
  0
ARC
  5
525B
  8
AM_0
 10
257.34038871952902
 20
524.72964465099335
 30
0.0
 40
1.460011199999999
 50
269.77524999999991
 51
90.224750000000085
  0
ARC
  5
525C
  8
AM_0
 10
239.28044871952901
 20
582.11965465099354
 30
0.0
 40
1.0
 50
90.000003000000945
 51
180.00001000000091
  0
ARC
  5
525D
  8
AM_0
 10
239.300408719529
 20
582.25967465099325
 30
0.0
 40
1.5
 50
90.000003000000945
 51
180.00001000000091
  0
ARC
  5
525E
  8
AM_0
 10
221.3004087195292
 20
582.25967465099325
 30
0.0
 40
1.5
 50
0.0
 51
90.000003000000945
  0
ARC
  5
525F
  8
AM_0
 10
221.32042871952919
 20
582.11965465099354
 30
0.0
 40
1.0
 50
0.0
 51
90.000003000000945
  0
POLYLINE
  5
5260
  8
AM_0
 66
     1
 10
0.0
 20
0.0
 30
0.0
  0
VERTEX
  5
5261
  8
AM_0
 10
154.6603987195291
 20
549.75967465099325
 30
0.0
 42
0.00039106593
  0
VERTEX
  5
5262
  8
AM_0
 10
154.658038719529
 20
549.44853465099345
 30
0.0
 42
0.00040574899
  0
VERTEX
  5
5263
  8
AM_0
 10
154.65616871952901
 20
549.13742465099335
 30
0.0
 42
0.0003534546
  0
VERTEX
  5
5264
  8
AM_0
 10
154.65477871952911
 20
548.82632465099346
 30
0.0
 42
0.00034407327
  0
VERTEX
  5
5265
  8
AM_0
 10
154.65379871952899
 20
548.51518465099343
 30
0.0
 42
0.00045699408
  0
VERTEX
  5
5266
  8
AM_0
 10
154.6533387195291
 20
548.20407465099368
 30
0.0
 42
0.00035571853
  0
VERTEX
  5
5267
  8
AM_0
 10
154.65337871952909
 20
547.89297465099344
 30
0.0
 42
0.00038547362
  0
VERTEX
  5
5268
  8
AM_0
 10
154.65386871952899
 20
547.5818346509933
 30
0.0
 42
0.00035501498
  0
VERTEX
  5
5269
  8
AM_0
 10
154.65482871952901
 20
547.27073465099329
 30
0.0
 42
0.00040118614
  0
VERTEX
  5
526A
  8
AM_0
 10
154.656248719529
 20
546.95949465099341
 30
0.0
 42
0.00038319871
  0
VERTEX
  5
526B
  8
AM_0
 10
154.6581587195291
 20
546.64836465099324
 30
0.0
 42
0.00040742136
  0
VERTEX
  5
526C
  8
AM_0
 10
154.66055871952909
 20
546.33713465099345
 30
0.0
 42
0.0003578071
  0
VERTEX
  5
526D
  8
AM_0
 10
154.66344871952899
 20
546.02602465099335
 30
0.0
  0
SEQEND
  5
526E
  8
AM_0
  0
POLYLINE
  5
526F
  8
AM_0
 66
     1
 10
0.0
 20
0.0
 30
0.0
  0
VERTEX
  5
5270
  8
AM_0
 10
154.70445871952899
 20
543.48928465099345
 30
0.0
 42
0.00076695232
  0
VERTEX
  5
5271
  8
AM_0
 10
154.71925871952891
 20
542.87152465099325
 30
0.0
 42
0.00073263044
  0
VERTEX
  5
5272
  8
AM_0
 10
154.73589871952919
 20
542.25392465099344
 30
0.0
 42
0.0007652599
  0
VERTEX
  5
5273
  8
AM_0
 10
154.754388719529
 20
541.63625465099335
 30
0.0
 42
0.00075144485
  0
VERTEX
  5
5274
  8
AM_0
 10
154.77475871952919
 20
541.01865465099343
 30
0.0
 42
0.00078594403
  0
VERTEX
  5
5275
  8
AM_0
 10
154.797008719529
 20
540.40122465099341
 30
0.0
 42
0.00073349202
  0
VERTEX
  5
5276
  8
AM_0
 10
154.82115871952891
 20
539.78384465099327
 30
0.0
 42
0.0007358075
  0
VERTEX
  5
5277
  8
AM_0
 10
154.8470987195291
 20
539.16644465099341
 30
0.0
 42
0.00078592699
  0
VERTEX
  5
5278
  8
AM_0
 10
154.87492871952901
 20
538.54905465099341
 30
0.0
 42
0.00074823144
  0
VERTEX
  5
5279
  8
AM_0
 10
154.90465871952901
 20
537.93166465099353
 30
0.0
 42
0.00074896603
  0
VERTEX
  5
527A
  8
AM_0
 10
154.93621871952899
 20
537.31453465099344
 30
0.0
 42
0.00076039765
  0
VERTEX
  5
527B
  8
AM_0
 10
154.9696387195292
 20
536.69750465099344
 30
0.0
 42
0.00075616128
  0
VERTEX
  5
527C
  8
AM_0
 10
155.00493871952901
 20
536.08047465099344
 30
0.0
  0
SEQEND
  5
527D
  8
AM_0
  0
POLYLINE
  5
527E
  8
AM_0
 66
     1
 10
0.0
 20
0.0
 30
0.0
  0
VERTEX
  5
527F
  8
AM_0
 10
155.17864871952901
 20
533.41909465099332
 30
0.0
 42
0.00073721992
  0
VERTEX
  5
5280
  8
AM_0
 10
155.22279871952901
 20
532.81668465099335
 30
0.0
 42
0.00074398496
  0
VERTEX
  5
5281
  8
AM_0
 10
155.26872871952901
 20
532.21441465099315
 30
0.0
 42
0.00073322625
  0
VERTEX
  5
5282
  8
AM_0
 10
155.31645871952901
 20
531.61208465099344
 30
0.0
 42
0.00073594289
  0
VERTEX
  5
5283
  8
AM_0
 10
155.365938719529
 20
531.01009465099355
 30
0.0
 42
0.00074742568
  0
VERTEX
  5
5284
  8
AM_0
 10
155.41720871952899
 20
530.40823465099345
 30
0.0
 42
0.00073216749
  0
VERTEX
  5
5285
  8
AM_0
 10
155.47026871952909
 20
529.80642465099345
 30
0.0
 42
0.00074184065
  0
VERTEX
  5
5286
  8
AM_0
 10
155.52508871952901
 20
529.20489465099365
 30
0.0
 42
0.00072077528
  0
VERTEX
  5
5287
  8
AM_0
 10
155.5816687195292
 20
528.60366465099355
 30
0.0
 42
0.00074978179
  0
VERTEX
  5
5288
  8
AM_0
 10
155.64000871952891
 20
528.00246465099315
 30
0.0
 42
0.00074288888
  0
VERTEX
  5
5289
  8
AM_0
 10
155.70015871952901
 20
527.40144465099331
 30
0.0
 42
0.00072503679
  0
VERTEX
  5
528A
  8
AM_0
 10
155.762068719529
 20
526.80070465099323
 30
0.0
 42
0.00074640584
  0
VERTEX
  5
528B
  8
AM_0
 10
155.825738719529
 20
526.20010465099335
 30
0.0
  0
SEQEND
  5
528C
  8
AM_0
  0
POLYLINE
  5
528D
  8
AM_0
 66
     1
 10
0.0
 20
0.0
 30
0.0
  0
VERTEX
  5
528E
  8
AM_0
 10
156.16130871952899
 20
523.27663465099363
 30
0.0
 42
0.0006890001
  0
VERTEX
  5
528F
  8
AM_0
 10
156.23218871952881
 20
522.70188465099341
 30
0.0
 42
0.00070644651
  0
VERTEX
  5
5290
  8
AM_0
 10
156.304688719529
 20
522.12720465099335
 30
0.0
 42
0.0006924559
  0
VERTEX
  5
5291
  8
AM_0
 10
156.37877871952909
 20
521.55288465099341
 30
0.0
 42
0.00069587797
  0
VERTEX
  5
5292
  8
AM_0
 10
156.45445871952899
 20
520.97874465099335
 30
0.0
 42
0.00071687041
  0
VERTEX
  5
5293
  8
AM_0
 10
156.53176871952891
 20
520.40474465099328
 30
0.0
 42
0.00069759113
  0
VERTEX
  5
5294
  8
AM_0
 10
156.6107087195289
 20
519.83095465099348
 30
0.0
 42
0.00071003142
  0
VERTEX
  5
5295
  8
AM_0
 10
156.69124871952911
 20
519.25748465099332
 30
0.0
 42
0.00069954544
  0
VERTEX
  5
5296
  8
AM_0
 10
156.77338871952901
 20
518.68438465099325
 30
0.0
 42
0.0007188852
  0
VERTEX
  5
5297
  8
AM_0
 10
156.857168719529
 20
518.11135465099335
 30
0.0
 42
0.00071266165
  0
VERTEX
  5
5298
  8
AM_0
 10
156.94259871952909
 20
517.53859465099322
 30
0.0
 42
0.00071614577
  0
VERTEX
  5
5299
  8
AM_0
 10
157.029628719529
 20
516.96624465099342
 30
0.0
 42
0.00072290806
  0
VERTEX
  5
529A
  8
AM_0
 10
157.11833871952899
 20
516.39394465099326
 30
0.0
  0
SEQEND
  5
529B
  8
AM_0
  0
POLYLINE
  5
529C
  8
AM_0
 66
     1
 10
0.0
 20
0.0
 30
0.0
  0
VERTEX
  5
529D
  8
AM_0
 10
154.6603987195291
 20
549.75967465099325
 30
0.0
 42
-0.00039106653
  0
VERTEX
  5
529E
  8
AM_0
 10
154.658038719529
 20
550.07080465099341
 30
0.0
 42
-0.00040574511
  0
VERTEX
  5
529F
  8
AM_0
 10
154.65616871952901
 20
550.38191465099328
 30
0.0
 42
-0.00035346331
  0
VERTEX
  5
52A0
  8
AM_0
 10
154.65477871952911
 20
550.69302465099327
 30
0.0
 42
-0.00034406545
  0
VERTEX
  5
52A1
  8
AM_0
 10
154.65379871952899
 20
551.00416465099352
 30
0.0
 42
-0.00045699059
  0
VERTEX
  5
52A2
  8
AM_0
 10
154.6533387195291
 20
551.31526465099341
 30
0.0
 42
-0.00035573431
  0
VERTEX
  5
52A3
  8
AM_0
 10
154.65337871952909
 20
551.62636465099331
 30
0.0
 42
-0.00038545888
  0
VERTEX
  5
52A4
  8
AM_0
 10
154.65386871952899
 20
551.93750465099322
 30
0.0
 42
-0.00035501203
  0
VERTEX
  5
52A5
  8
AM_0
 10
154.65482871952901
 20
552.24861465099343
 30
0.0
 42
-0.00040120778
  0
VERTEX
  5
52A6
  8
AM_0
 10
154.656248719529
 20
552.55984465099345
 30
0.0
 42
-0.00038317821
  0
VERTEX
  5
52A7
  8
AM_0
 10
154.6581587195291
 20
552.87097465099328
 30
0.0
 42
-0.00040741862
  0
VERTEX
  5
52A8
  8
AM_0
 10
154.66055871952909
 20
553.18220465099341
 30
0.0
 42
-0.00035783324
  0
VERTEX
  5
52A9
  8
AM_0
 10
154.66344871952899
 20
553.49331465099351
 30
0.0
  0
SEQEND
  5
52AA
  8
AM_0
  0
POLYLINE
  5
52AB
  8
AM_0
 66
     1
 10
0.0
 20
0.0
 30
0.0
  0
VERTEX
  5
52AC
  8
AM_0
 10
154.70445871952899
 20
556.03005465099329
 30
0.0
 42
-0.00076691987
  0
VERTEX
  5
52AD
  8
AM_0
 10
154.71925871952891
 20
556.64781465099327
 30
0.0
 42
-0.00073262795
  0
VERTEX
  5
52AE
  8
AM_0
 10
154.73589871952919
 20
557.26541465099331
 30
0.0
 42
-0.0007652954
  0
VERTEX
  5
52AF
  8
AM_0
 10
154.754388719529
 20
557.8830846509934
 30
0.0
 42
-0.00077334627
  0
VERTEX
  5
52B0
  8
AM_0
 10
154.7747987195292
 20
558.50068465099343
 30
0.0
 42
-0.00073282897
  0
VERTEX
  5
52B1
  8
AM_0
 10
154.79705871952899
 20
559.11810465099347
 30
0.0
 42
-0.0007571179
  0
VERTEX
  5
52B2
  8
AM_0
 10
154.82115871952891
 20
559.73562465099326
 30
0.0
 42
-0.00073783152
  0
VERTEX
  5
52B3
  8
AM_0
 10
154.8470987195291
 20
560.35301465099337
 30
0.0
 42
-0.0007835518
  0
VERTEX
  5
52B4
  8
AM_0
 10
154.87492871952901
 20
560.97028465099345
 30
0.0
 42
-0.00074826133
  0
VERTEX
  5
52B5
  8
AM_0
 10
154.90465871952901
 20
561.58767465099345
 30
0.0
 42
-0.00074893555
  0
VERTEX
  5
52B6
  8
AM_0
 10
154.93621871952899
 20
562.20480465099342
 30
0.0
 42
-0.00076039841
  0
VERTEX
  5
52B7
  8
AM_0
 10
154.9696387195292
 20
562.82183465099342
 30
0.0
 42
-0.00075618789
  0
VERTEX
  5
52B8
  8
AM_0
 10
155.00493871952901
 20
563.43886465099331
 30
0.0
  0
SEQEND
  5
52B9
  8
AM_0
  0
POLYLINE
  5
52BA
  8
AM_0
 66
     1
 10
0.0
 20
0.0
 30
0.0
  0
VERTEX
  5
52BB
  8
AM_0
 10
155.17864871952901
 20
566.10024465099355
 30
0.0
 42
-0.0007337051
  0
VERTEX
  5
52BC
  8
AM_0
 10
155.22278871952909
 20
566.7026546509934
 30
0.0
 42
-0.00075211323
  0
VERTEX
  5
52BD
  8
AM_0
 10
155.26872871952901
 20
567.3050546509935
 30
0.0
 42
-0.0007297491
  0
VERTEX
  5
52BE
  8
AM_0
 10
155.31645871952901
 20
567.90725465099354
 30
0.0
 42
-0.00073593041
  0
VERTEX
  5
52BF
  8
AM_0
 10
155.365938719529
 20
568.50924465099331
 30
0.0
 42
-0.00074742739
  0
VERTEX
  5
52C0
  8
AM_0
 10
155.41720871952899
 20
569.1111046509933
 30
0.0
 42
-0.00073217363
  0
VERTEX
  5
52C1
  8
AM_0
 10
155.47026871952909
 20
569.71291465099353
 30
0.0
 42
-0.00073754168
  0
VERTEX
  5
52C2
  8
AM_0
 10
155.52508871952901
 20
570.31445465099353
 30
0.0
 42
-0.00073075073
  0
VERTEX
  5
52C3
  8
AM_0
 10
155.5816687195292
 20
570.91580465099355
 30
0.0
 42
-0.00074550816
  0
VERTEX
  5
52C4
  8
AM_0
 10
155.64000871952891
 20
571.51687465099349
 30
0.0
 42
-0.00074288416
  0
VERTEX
  5
52C5
  8
AM_0
 10
155.70015871952901
 20
572.11789465099355
 30
0.0
 42
-0.00072504001
  0
VERTEX
  5
52C6
  8
AM_0
 10
155.762068719529
 20
572.71863465099352
 30
0.0
 42
-0.00074640667
  0
VERTEX
  5
52C7
  8
AM_0
 10
155.825738719529
 20
573.31924465099326
 30
0.0
  0
SEQEND
  5
52C8
  8
AM_0
  0
POLYLINE
  5
52C9
  8
AM_0
 66
     1
 10
0.0
 20
0.0
 30
0.0
  0
VERTEX
  5
52CA
  8
AM_0
 10
156.16130871952899
 20
576.24270465099357
 30
0.0
 42
-0.00068898283
  0
VERTEX
  5
52CB
  8
AM_0
 10
156.23218871952881
 20
576.81745465099357
 30
0.0
 42
-0.00070644357
  0
VERTEX
  5
52CC
  8
AM_0
 10
156.304688719529
 20
577.39214465099349
 30
0.0
 42
-0.00069248074
  0
VERTEX
  5
52CD
  8
AM_0
 10
156.37877871952909
 20
577.96645465099346
 30
0.0
 42
-0.0006958566
  0
VERTEX
  5
52CE
  8
AM_0
 10
156.45445871952899
 20
578.54059465099351
 30
0.0
 42
-0.00071687219
  0
VERTEX
  5
52CF
  8
AM_0
 10
156.53176871952891
 20
579.11459465099335
 30
0.0
 42
-0.00069760022
  0
VERTEX
  5
52D0
  8
AM_0
 10
156.6107087195289
 20
579.6883846509935
 30
0.0
 42
-0.00071002302
  0
VERTEX
  5
52D1
  8
AM_0
 10
156.69124871952911
 20
580.26185465099354
 30
0.0
 42
-0.00069954889
  0
VERTEX
  5
52D2
  8
AM_0
 10
156.77338871952901
 20
580.83495465099327
 30
0.0
 42
-0.00071887947
  0
VERTEX
  5
52D3
  8
AM_0
 10
156.857168719529
 20
581.40798465099351
 30
0.0
 42
-0.00071266929
  0
VERTEX
  5
52D4
  8
AM_0
 10
156.94259871952909
 20
581.98075465099328
 30
0.0
 42
-0.00071614429
  0
VERTEX
  5
52D5
  8
AM_0
 10
157.029628719529
 20
582.55309465099322
 30
0.0
 42
-0.00072288978
  0
VERTEX
  5
52D6
  8
AM_0
 10
157.11833871952899
 20
583.12539465099326
 30
0.0
  0
SEQEND
  5
52D7
  8
AM_0
  0
LINE
  5
52D8
  8
ﾁｭｳｼﾝｾﾝ1
 10
349.30037871952891
 20
614.75967465099325
 30
0.0
 11
369.30037871952891
 21
614.75967465099325
 31
0.0
  0
LINE
  5
52D9
  8
ﾁｭｳｼﾝｾﾝ1
 10
359.30037871952891
 20
624.75967465099325
 30
0.0
 11
359.30037871952891
 21
604.75967465099347
 31
0.0
  0
LINE
  5
52DB
  8
ﾁｭｳｼﾝｾﾝ1
 10
349.30037871952891
 20
484.75967465099342
 30
0.0
 11
369.30037871952891
 21
484.75967465099342
 31
0.0
  0
LINE
  5
52DC
  8
ﾁｭｳｼﾝｾﾝ1
 10
359.30037871952891
 20
494.75967465099342
 30
0.0
 11
359.30037871952891
 21
474.75967465099342
 31
0.0
  0
LINE
  5
52DD
  8
ﾁｭｳｼﾝｾﾝ1
 10
279.30037871952908
 20
484.75967465099342
 30
0.0
 11
299.30037871952908
 21
484.75967465099342
 31
0.0
  0
LINE
  5
52DE
  8
ﾁｭｳｼﾝｾﾝ1
 10
289.30037871952908
 20
494.75967465099342
 30
0.0
 11
289.30037871952908
 21
474.75967465099342
 31
0.0
  0
LINE
  5
52DF
  8
ﾁｭｳｼﾝｾﾝ1
 10
279.30037871952908
 20
614.75967465099325
 30
0.0
 11
299.30037871952908
 21
614.75967465099325
 31
0.0
  0
LINE
  5
52E0
  8
ﾁｭｳｼﾝｾﾝ1
 10
289.30037871952908
 20
624.75967465099325
 30
0.0
 11
289.30037871952908
 21
604.75967465099347
 31
0.0
  0
ARC
  5
52E2
  8
AM_0
 10
370.30035871952919
 20
579.14642965099335
 30
0.0
 40
2.00000007
 50
179.999989999999
 51
240.00000999999969
  0
ARC
  5
52E3
  8
AM_0
 10
370.30035871952919
 20
520.37292265099325
 30
0.0
 40
2.00000007
 50
120.0000000000005
 51
180.00001000000091
  0
LINE
  5
52E4
  8
AM_0
 10
374.30032871952881
 20
583.25967165099325
 30
0.0
 11
379.30032871952881
 21
578.25967165099337
 31
0.0
  0
LINE
  5
52E5
  8
AM_0
 10
369.80032871952892
 20
583.25967165099325
 30
0.0
 11
374.30032871952892
 21
583.25967165099325
 31
0.0
  0
LINE
  5
52E6
  8
AM_0
 10
369.30032871952892
 20
582.75967165099325
 30
0.0
 11
369.30032871952841
 21
516.75967165099394
 31
0.0
  0
LINE
  5
52E7
  8
AM_0
 10
379.30032871952881
 20
578.25967165099337
 30
0.0
 11
379.30032871952892
 21
521.2596716509936
 31
0.0
  0
LINE
  5
52E8
  8
AM_0
 10
369.80032871952892
 20
516.25967165099325
 30
0.0
 11
374.30032871952881
 21
516.25967165099325
 31
0.0
  0
LINE
  5
52E9
  8
AM_0
 10
374.30032871952881
 20
516.25967165099325
 30
0.0
 11
379.30032871952881
 21
521.2596716509936
 31
0.0
  0
LINE
  5
52EA
  8
AM_0
 10
369.80032871952892
 20
583.25967165099325
 30
0.0
 11
369.30032871952892
 21
582.75967165099325
 31
0.0
1001
GENIUS_GENFIL_13
1070
     0
1040
0.5
1040
0.5
1040
20.0
1040
0.0
1002
{
1002
}
1001
GENIUS_GENOBJ-N-CHA_13
1002
{
1000
OWNER
1000
GEN
1002
}
1001
GENIUS_GENODEF_13
1002
{
1000
HIER
1070
     0
1002
}
1002
{
1000
MANEDIT
1070
     0
1002
}
1002
{
1000
NOSEL
1070
     0
1002
}
1002
{
1000
BEHIND
1070
     0
1002
}
1002
{
1000
OTHER
1070
     0
1002
}
1002
{
1000
REACTOR
1002
}
  0
LINE
  5
52EB
  8
AM_0
 10
369.30032871952892
 20
516.75967165099325
 30
0.0
 11
369.80032871952892
 21
516.25967165099325
 31
0.0
1001
GENIUS_GENFIL_13
1070
     0
1040
0.5
1040
0.5
1040
20.0
1040
0.0
1002
{
1002
}
1001
GENIUS_GENOBJ-N-CHA_13
1002
{
1000
OWNER
1000
GEN
1002
}
1001
GENIUS_GENODEF_13
1002
{
1000
HIER
1070
     0
1002
}
1002
{
1000
MANEDIT
1070
     0
1002
}
1002
{
1000
NOSEL
1070
     0
1002
}
1002
{
1000
BEHIND
1070
     0
1002
}
1002
{
1000
OTHER
1070
     0
1002
}
1002
{
1000
REACTOR
1002
}
  0
LINE
  5
52EC
  8
AM_0
 10
374.30032871952892
 20
583.25967165099325
 30
0.0
 11
374.30032871952881
 21
516.25967165099325
 31
0.0
  0
ARC
  5
52ED
  8
AM_0
 10
381.30037871952891
 20
549.75964465099366
 30
0.0
 40
3.9999962
 50
239.99914157637781
 51
270.0
  0
TEXT
  5
550E
  8
AM_0
 10
501.9747964137195
 20
551.06623743932914
 30
0.0
 40
10.0
  1
VX01-060MW~VX01-200MW
  0
ENDSEC
  0
EOF
