  0
SECTION
  2
HEADER
  9
$ACADVER
  1
AC1009
  9
$INSBASE
 10
0.0
 20
0.0
 30
0.0
  9
$EXTMIN
 10
142.57992769030369
 20
206.38250712923201
 30
-0.0015258207003583
  9
$EXTMAX
 10
697.11529721530985
 20
612.82118698499653
 30
0.0000000349246037
  9
$LIMMIN
 10
0.0
 20
0.0
  9
$LIMMAX
 10
853.5
 20
555.00000000000011
  9
$ORTHOMODE
 70
     0
  9
$REGENMODE
 70
     1
  9
$FILLMODE
 70
     1
  9
$QTEXTMODE
 70
     0
  9
$MIRRTEXT
 70
     1
  9
$DRAGMODE
 70
     2
  9
$LTSCALE
 40
3.0
  9
$OSMODE
 70
   551
  9
$ATTMODE
 70
     1
  9
$TEXTSIZE
 40
2.5
  9
$TRACEWID
 40
1.0
  9
$TEXTSTYLE
  7
STANDARD
  9
$CLAYER
  8
AM_0
  9
$CELTYPE
  6
BYLAYER
  9
$CECOLOR
 62
   256
  9
$DIMSCALE
 40
3.0
  9
$DIMASZ
 40
2.5
  9
$DIMEXO
 40
1.0
  9
$DIMDLI
 40
8.0
  9
$DIMRND
 40
0.0
  9
$DIMDLE
 40
0.0
  9
$DIMEXE
 40
0.6
  9
$DIMTP
 40
0.1
  9
$DIMTM
 40
0.1
  9
$DIMTXT
 40
2.5
  9
$DIMCEN
 40
0.0
  9
$DIMTSZ
 40
0.0
  9
$DIMTOL
 70
     0
  9
$DIMLIM
 70
     0
  9
$DIMTIH
 70
     0
  9
$DIMTOH
 70
     0
  9
$DIMSE1
 70
     0
  9
$DIMSE2
 70
     0
  9
$DIMTAD
 70
     1
  9
$DIMZIN
 70
     8
  9
$DIMBLK
  1

  9
$DIMASO
 70
     1
  9
$DIMSHO
 70
     1
  9
$DIMPOST
  1

  9
$DIMAPOST
  1
"
  9
$DIMALT
 70
     0
  9
$DIMALTD
 70
     2
  9
$DIMALTF
 40
0.0393701
  9
$DIMLFAC
 40
1.0
  9
$DIMTOFL
 70
     1
  9
$DIMTVP
 40
0.0
  9
$DIMTIX
 70
     0
  9
$DIMSOXD
 70
     0
  9
$DIMSAH
 70
     0
  9
$DIMBLK1
  1

  9
$DIMBLK2
  1

  9
$DIMSTYLE
  2
AM_ISO
  9
$DIMCLRD
 70
   256
  9
$DIMCLRE
 70
   256
  9
$DIMCLRT
 70
     4
  9
$DIMTFAC
 40
0.71
  9
$DIMGAP
 40
0.8
  9
$LUNITS
 70
     2
  9
$LUPREC
 70
     2
  9
$SKETCHINC
 40
1.0
  9
$FILLETRAD
 40
15.0
  9
$AUNITS
 70
     0
  9
$AUPREC
 70
     0
  9
$MENU
  1
.
  9
$ELEVATION
 40
0.0
  9
$PELEVATION
 40
0.0
  9
$THICKNESS
 40
0.0
  9
$LIMCHECK
 70
     0
  9
$BLIPMODE
 70
     0
  9
$CHAMFERA
 40
6.0
  9
$CHAMFERB
 40
3.0
  9
$SKPOLY
 70
     0
  9
$TDCREATE
 40
2452065.6056192131
  9
$TDUPDATE
 40
2458541.5981746991
  9
$TDINDWG
 40
0.3111691435
  9
$TDUSRTIMER
 40
0.3111689352
  9
$USRTIMER
 70
     1
  9
$ANGBASE
 50
0.0
  9
$ANGDIR
 70
     0
  9
$PDMODE
 70
     0
  9
$PDSIZE
 40
0.0
  9
$PLINEWID
 40
0.0
  9
$COORDS
 70
     1
  9
$SPLFRAME
 70
     0
  9
$SPLINETYPE
 70
     6
  9
$SPLINESEGS
 70
     8
  9
$ATTDIA
 70
     1
  9
$ATTREQ
 70
     1
  9
$HANDLING
 70
     1
  9
$HANDSEED
  5
5D1D
  9
$SURFTAB1
 70
     6
  9
$SURFTAB2
 70
     6
  9
$SURFTYPE
 70
     6
  9
$SURFU
 70
     6
  9
$SURFV
 70
     6
  9
$UCSNAME
  2

  9
$UCSORG
 10
0.0
 20
0.0
 30
0.0
  9
$UCSXDIR
 10
1.0
 20
0.0
 30
0.0
  9
$UCSYDIR
 10
0.0
 20
1.0
 30
0.0
  9
$PUCSNAME
  2

  9
$PUCSORG
 10
0.0
 20
0.0
 30
0.0
  9
$PUCSXDIR
 10
1.0
 20
0.0
 30
0.0
  9
$PUCSYDIR
 10
0.0
 20
1.0
 30
0.0
  9
$USERI1
 70
     0
  9
$USERI2
 70
     0
  9
$USERI3
 70
     0
  9
$USERI4
 70
     0
  9
$USERI5
 70
     0
  9
$USERR1
 40
0.0
  9
$USERR2
 40
0.0
  9
$USERR3
 40
0.0
  9
$USERR4
 40
0.0
  9
$USERR5
 40
0.0
  9
$WORLDVIEW
 70
     1
  9
$SHADEDGE
 70
     3
  9
$SHADEDIF
 70
    70
  9
$TILEMODE
 70
     1
  9
$MAXACTVP
 70
    64
  9
$PLIMCHECK
 70
     0
  9
$PEXTMIN
 10
1.0000000000000000E+020
 20
1.0000000000000000E+020
 30
1.0000000000000000E+020
  9
$PEXTMAX
 10
-1.0000000000000000E+020
 20
-1.0000000000000000E+020
 30
-1.0000000000000000E+020
  9
$PLIMMIN
 10
0.0
 20
0.0
  9
$PLIMMAX
 10
420.0
 20
297.0
  9
$UNITMODE
 70
     0
  9
$VISRETAIN
 70
     1
  9
$PLINEGEN
 70
     0
  9
$PSLTSCALE
 70
     1
  0
ENDSEC
  0
SECTION
  2
TABLES
  0
TABLE
  2
VPORT
 70
     1
  0
VPORT
  2
*ACTIVE
 70
     0
 10
0.0
 20
0.0
 11
1.0
 21
1.0
 12
419.84761245280691
 22
409.60184705711418
 13
0.0
 23
0.0
 14
7.5
 24
7.5
 15
30.0
 25
30.0
 16
0.0
 26
0.0
 36
1.0
 17
0.0
 27
0.0
 37
0.0
 40
409.22887674264609
 41
1.7571592210767459
 42
50.0
 43
0.0
 44
0.0
 50
0.0
 51
0.0
 71
     0
 72
   100
 73
     1
 74
     3
 75
     0
 76
     0
 77
     0
 78
     0
  0
ENDTAB
  0
TABLE
  2
LTYPE
 70
    27
  0
LTYPE
  2
CONTINUOUS
 70
     0
  3
Solid line
 72
    65
 73
     0
 40
0.0
  0
LTYPE
  2
AM_ISO02W050
 70
     0
  3
__ __ __ __ __ __ __ __ __ __ __ __ __ __ __
 72
    65
 73
     2
 40
7.5
 49
6.0
 49
-1.5
  0
LTYPE
  2
AM_ISO08W050
 70
     0
  3
____ . ____ . ____ . ____ . ____ . ____ . ____
 72
    65
 73
     4
 40
18.0
 49
12.0
 49
-1.5
 49
3.0
 49
-1.5
  0
LTYPE
  2
AM_ISO09W050
 70
     0
  3
_____ . . _____ . . _____ . . ____ .. ____
 72
    65
 73
     6
 40
22.5
 49
12.0
 49
-1.5
 49
3.0
 49
-1.5
 49
3.0
 49
-1.5
  0
LTYPE
  2
AMCONSTR
 70
     0
  3
_______________________
 72
    65
 73
     2
 40
9999.0
 49
9999.0
 49
0.0
  0
LTYPE
  2
AM_ISO08W050X2
 70
     0
  3
__ . __ . __ . __ . __ . __
 72
    65
 73
     4
 40
9.0
 49
6.0
 49
-0.75
 49
1.5
 49
-0.75
  0
LTYPE
  2
AM_ISO02W050X2
 70
     0
  3
 _ _ _ _ _ _ _ _ _ _ _ _
 72
    65
 73
     2
 40
3.75
 49
3.0
 49
-0.75
  0
LTYPE
  2
AMZIGZAG
 70
     0
  3
/\/-/\/-/\/-/\/-/\/-/\/
 72
    65
 73
     2
 40
11.0001
 49
0.0001
 49
-11.0
  0
LTYPE
  2
ACISOWELD
 70
     0
  3
_ _ _ _ _
 72
    65
 73
     2
 40
2.0
 49
2.0
 49
-1.0
  0
LTYPE
  2
ACISOTGB
 70
     0
  3
__ . . __ . .
 72
    65
 73
     6
 40
9.0
 49
4.0
 49
-1.0
 49
1.0
 49
-1.0
 49
1.0
 49
-1.0
  0
LTYPE
  2
ACISOTGL
 70
     0
  3
_ _ _ _ _
 72
    65
 73
     2
 40
3.0
 49
2.0
 49
-1.0
  0
LTYPE
  2
CENTER
 70
     0
  3
__ . __
 72
    65
 73
     4
 40
7.0
 49
4.0
 49
-1.0
 49
1.0
 49
-1.0
  0
LTYPE
  2
HIDDEN
 70
     0
  3
Hidden __ __ __ __ __ __ __ __ __ __ __ __ __ _
 72
    65
 73
     2
 40
9.5249999999999986
 49
6.3499999999999979
 49
-3.174999999999998
  0
LTYPE
  2
PHANTOM2
 70
     0
  3
Phantom (.5x) ___ _ _ ___ _ _ ___ _ _ ___ _ _
 72
    65
 73
     6
 40
31.75
 49
15.875
 49
-3.174999999999998
 49
3.174999999999998
 49
-3.174999999999998
 49
3.174999999999998
 49
-3.174999999999998
  0
LTYPE
  2
ACANSTGBM
 70
     0
  3
__ . . __ . .
 72
    65
 73
     6
 40
9.0
 49
4.0
 49
-1.0
 49
1.0
 49
-1.0
 49
1.0
 49
-1.0
  0
LTYPE
  2
ACANSTGLM
 70
     0
  3
_ _ _ _ _
 72
    65
 73
     2
 40
3.0
 49
2.0
 49
-1.0
  0
LTYPE
  2
GEN3B
 70
     0
  3
 - - - - -
 72
    65
 73
     2
 40
1.0
 49
0.5
 49
-0.5
  0
LTYPE
  2
GEN7A
 70
     0
  3
__ . __ . __
 72
    65
 73
     4
 40
7.375
 49
4.75
 49
-0.875
 49
0.875
 49
-0.875
  0
LTYPE
  2
ACJISTGB
 70
     0
  3
__ . . __ . .
 72
    65
 73
     6
 40
9.0
 49
4.0
 49
-1.0
 49
1.0
 49
-1.0
 49
1.0
 49
-1.0
  0
LTYPE
  2
ACJISTGL
 70
     0
  3
_ _ _ _ _
 72
    65
 73
     2
 40
3.0
 49
2.0
 49
-1.0
  0
LTYPE
  2
GEN7
 70
     0
  3
____ . ____ . ____ . ____ . ____ . ____ . ____
 72
    65
 73
     4
 40
14.25
 49
9.75
 49
-1.5
 49
1.5
 49
-1.5
  0
LTYPE
  2
CENTER2
 70
     0
  3
Center (.5x) ___ _ ___ _ ___ _ ___ _ ___ _ ___
 72
    65
 73
     4
 40
1.125
 49
0.75
 49
-0.125
 49
0.125
 49
-0.125
  0
LTYPE
  2
HIDDEN2
 70
     0
  3
Hidden (.5x) _ _ _ _ _ _ _ _ _ _ _ _ _ _ _ _ _
 72
    65
 73
     2
 40
0.1875
 49
0.125
 49
-0.0625
  0
LTYPE
  2
AMZIGZAG2
 70
     0
  3
/\/-/\/-/\/-/\/-/\/-/\/
 72
    65
 73
     2
 40
0.4401
 49
0.0001
 49
-0.4400000000000001
  0
LTYPE
  2
ACANSTGB
 70
     0
  3
__ . . __ . .
 72
    65
 73
     6
 40
0.35433070866
 49
0.15748031496
 49
-0.03937007874
 49
0.03937007874
 49
-0.03937007874
 49
0.03937007874
 49
-0.03937007874
  0
LTYPE
  2
ACANSTGL
 70
     0
  3
_ _ _ _ _
 72
    65
 73
     2
 40
0.11811023622
 49
0.07874015748
 49
-0.03937007874
  0
ENDTAB
  0
TABLE
  2
LAYER
 70
     8
  0
LAYER
  2
0
 70
     0
 62
     7
  6
CONTINUOUS
  0
LAYER
  2
AM_0
 70
     0
 62
     7
  6
CONTINUOUS
  0
LAYER
  2
DEFPOINTS
 70
     0
 62
     7
  6
CONTINUOUS
  0
LAYER
  2
ｶｸﾚｾﾝ2
 70
     0
 62
     3
  6
GEN3B
  0
LAYER
  2
ﾁｭｳｼﾝｾﾝ1
 70
     0
 62
     1
  6
GEN7A
  0
LAYER
  2
AM_0N
 70
     0
 62
     7
  6
CONTINUOUS
  0
LAYER
  2
AM_4
 70
     0
 62
     2
  6
CONTINUOUS
  0
LAYER
  2
ﾁｭｳｼﾝｾﾝ
 70
     0
 62
     1
  6
GEN7
  0
ENDTAB
  0
TABLE
  2
STYLE
 70
    10
  0
STYLE
  2
STANDARD
 70
     0
 40
0.0
 41
0.8299999999999999
 50
0.0
 71
     0
 42
2.5
  3
txt.shx
  4
bigfont.shx
  0
STYLE
  2
ANNOTATIVE
 70
     0
 40
0.0
 41
1.0
 50
0.0
 71
     0
 42
0.2
  3
txt
  4

  0
STYLE
  2

 70
     1
 40
0.0
 41
1.0
 50
0.0
 71
     0
 42
2.5
  3
ltypeshp.shx
  4

  0
STYLE
  2
ACISOTS
 70
     0
 40
1.0
 41
1.0
 50
0.0
 71
     0
 42
2.5
  3
isocp.shx
  4
extfont.shx
  0
STYLE
  2
ACISOGDT
 70
     0
 40
0.0
 41
1.0
 50
0.0
 71
     0
 42
2.5
  3
amgdt.shx
  4

  0
STYLE
  2
ACANSTS
 70
     0
 40
1.0
 41
1.0
 50
0.0
 71
     0
 42
2.5
  3
romans.shx
  4
bigfont.shx
  0
STYLE
  2
ACANSGDT
 70
     0
 40
0.0
 41
1.0
 50
0.0
 71
     0
 42
2.5
  3
amgdt.shx
  4

  0
STYLE
  2
ACJISTS
 70
     0
 40
1.0
 41
1.0
 50
0.0
 71
     0
 42
2.5
  3
isocp.shx
  4
bigfont.shx
  0
STYLE
  2
ACJISGDT
 70
     0
 40
0.0
 41
1.0
 50
0.0
 71
     0
 42
2.5
  3
amgdt.shx
  4

  0
STYLE
  2

 70
     1
 40
0.0
 41
1.0
 50
0.0
 71
     0
 42
2.5
  3
genltshp.shx
  4

  0
ENDTAB
  0
TABLE
  2
VIEW
 70
     6
  0
VIEW
  2
AM_VIEW1
 70
     0
 40
277.50000000000011
 10
249.64779005524869
 20
416.25
 41
499.29558011049721
 11
0.0
 21
0.0
 31
1.0
 12
0.0
 22
0.0
 32
0.0
 42
50.0
 43
0.0
 44
0.0
 50
0.0
 71
     0
  0
VIEW
  2
AM_VIEW2
 70
     0
 40
277.50000000000011
 10
603.85220994475117
 20
416.25
 41
499.29558011049721
 11
0.0
 21
0.0
 31
1.0
 12
0.0
 22
0.0
 32
0.0
 42
50.0
 43
0.0
 44
0.0
 50
0.0
 71
     0
  0
VIEW
  2
AM_VIEW3
 70
     0
 40
277.50000000000011
 10
249.64779005524869
 20
138.75
 41
499.29558011049721
 11
0.0
 21
0.0
 31
1.0
 12
0.0
 22
0.0
 32
0.0
 42
50.0
 43
0.0
 44
0.0
 50
0.0
 71
     0
  0
VIEW
  2
AM_VIEW4
 70
     0
 40
277.50000000000011
 10
603.85220994475117
 20
138.75
 41
499.29558011049721
 11
0.0
 21
0.0
 31
1.0
 12
0.0
 22
0.0
 32
0.0
 42
50.0
 43
0.0
 44
0.0
 50
0.0
 71
     0
  0
VIEW
  2
AM_VIEW5
 70
     0
 40
277.50000000000011
 10
426.75
 20
277.50000000000011
 41
499.2955801104971
 11
0.0
 21
0.0
 31
1.0
 12
0.0
 22
0.0
 32
0.0
 42
50.0
 43
0.0
 44
0.0
 50
0.0
 71
     0
  0
VIEW
  2
AM_VIEW6
 70
     0
 40
554.99445000000014
 10
426.75
 20
277.5
 41
998.5811743093924
 11
0.0
 21
0.0
 31
1.0
 12
0.0
 22
0.0
 32
0.0
 42
50.0
 43
0.0
 44
0.0
 50
0.0
 71
     0
  0
ENDTAB
  0
TABLE
  2
UCS
 70
     0
  0
ENDTAB
  0
TABLE
  2
APPID
 70
   101
  0
APPID
  2
ACAD
 70
     0
  0
APPID
  2
ACADANNOTATIVE
 70
     0
  0
APPID
  2
MCAD_NO_VIS
 70
     0
  0
APPID
  2
ACAD_TEMP_GRAPHIC
 70
     0
  0
APPID
  2
ACATTRIBSERVICES
 70
     0
  0
APPID
  2
GENIUS_GENREC_14
 70
     0
  0
APPID
  2
GENIUS_GENOBJ-N-REC_13
 70
     0
  0
APPID
  2
GENIUS_GENODEF_13
 70
     0
  0
APPID
  2
GENIUS_GENOLIS_13
 70
     0
  0
APPID
  2
GENIUS_GENOBJ-N-TIT_13
 70
     0
  0
APPID
  2
GENIUS_GENOENT_13
 70
     0
  0
APPID
  2
GENIUS_GENTITLE_13
 70
     0
  0
APPID
  2
GENIUS_GENOREF_13
 70
     0
  0
APPID
  2
GENIUS_GENSCREG_15
 70
     0
  0
APPID
  2
GENIUS_GENOBJ-N-SDF_13
 70
     0
  0
APPID
  2
GENIUS_GENFIL_13
 70
     0
  0
APPID
  2
GENIUS_GENOBJ-N-CHA_13
 70
     0
  0
APPID
  2
GENIUS_GENDTOL_13
 70
     0
  0
APPID
  2
GENIUS_GENOBJ-N-FIL_13
 70
     0
  0
APPID
  2
AD_DRAW
 70
     0
  0
APPID
  2
DESIGNERASSEMBLIES
 70
     0
  0
APPID
  2
ASURF_PCURVE_APPNAME
 70
     0
  0
APPID
  2
GENIUS_GE3SECT_13
 70
     0
  0
APPID
  2
GENIUS_GENCFG_13
 70
     0
  0
APPID
  2
GENIUS_GE3CFG0_13
 70
     0
  0
APPID
  2
GENIUS_GENCFG0_13
 70
     0
  0
APPID
  2
GENIUS_GENCFG1_13
 70
     0
  0
APPID
  2
GENIUS_GENCFG2_13
 70
     0
  0
APPID
  2
GENIUS_GENCFG3_13
 70
     0
  0
APPID
  2
GENIUS_GENCFG4_13
 70
     0
  0
APPID
  2
GENIUS_GEVCFG0_13
 70
     0
  0
APPID
  2
GENIUS_GENHINW_13
 70
     0
  0
APPID
  2
GENIUS_FIRSTVISTXT_14
 70
     0
  0
APPID
  2
GENIUS_GENOBJ-N-LEADER_13
 70
     0
  0
APPID
  2
GEV_VCCNULL_SWITCH_OFF
 70
     0
  0
APPID
  2
GENIUS_GEFCFG0_13
 70
     0
  0
APPID
  2
GENIUS_GENZVEED_13
 70
     0
  0
APPID
  2
GENIUS_GENSCREG_13
 70
     0
  0
APPID
  2
GENIUS_DUMCFG0_13
 70
     0
  0
APPID
  2
GEVID936201362
 70
     0
  0
APPID
  2
GEVDC
 70
     0
  0
APPID
  2
GEVCON
 70
     0
  0
APPID
  2
VCC
 70
     0
  0
APPID
  2
GEVPT
 70
     0
  0
APPID
  2
GEVIT
 70
     0
  0
APPID
  2
GENBH
 70
     0
  0
APPID
  2
GEVMK
 70
     0
  0
APPID
  2
GENIUS_GENBH_13
 70
     0
  0
APPID
  2
GENIUS_GENOBJ-NBEHI-BHF_13
 70
     0
  0
APPID
  2
GENIUS_GENOBJ-NBEHI-BHB_13
 70
     0
  0
APPID
  2
GENIUS_GENOBJ-F-DESC_13
 70
     0
  0
APPID
  2
GENIUS_GEFDESC_14
 70
     0
  0
APPID
  2
GENIUS_GENOBJ-F-PART_13
 70
     0
  0
APPID
  2
GENIUS_GEFSTDP_13
 70
     0
  0
APPID
  2
GENIUS_GEFPARTINS_13
 70
     0
  0
APPID
  2
GENIUS_GENTRA_14
 70
     0
  0
APPID
  2
GENIUS_GENINF13_13
 70
     0
  0
APPID
  2
GENIUS_GENOBJ-N-INFOPT_13
 70
     0
  0
APPID
  2
GENIUS_GENOBJ-N-RSSYM_13
 70
     0
  0
APPID
  2
GENIUS_GENSYMENT_13
 70
     0
  0
APPID
  2
GENIUS_GENSCSYM_13
 70
     0
  0
APPID
  2
GENIUS_GEFINFNAM_13
 70
     0
  0
APPID
  2
GENIUS_GENOBJ-N-CEN_13
 70
     0
  0
APPID
  2
GENIUS_GENOBJ-N-CRS_13
 70
     0
  0
APPID
  2
GENIUS_GENOBJ-N-CRC_13
 70
     0
  0
APPID
  2
GENIUS_GENCRC_14
 70
     0
  0
APPID
  2
GEVID942827039
 70
     0
  0
APPID
  2
GEVID942827040
 70
     0
  0
APPID
  2
GEVID942827041
 70
     0
  0
APPID
  2
GENIUS_GENOBJ-F-SCPASSM_13
 70
     0
  0
APPID
  2
GENIUS_GENDIMSH_14
 70
     0
  0
APPID
  2
GEVID942827042
 70
     0
  0
APPID
  2
GEVID946020473
 70
     0
  0
APPID
  2
GEVID946020474
 70
     0
  0
APPID
  2
GEVID946020475
 70
     0
  0
APPID
  2
GENIUS_GENOBJ-N-HTC_13
 70
     0
  0
APPID
  2
GENIUS_GENHATCH_13
 70
     0
  0
APPID
  2
GEVID948854295
 70
     0
  0
APPID
  2
GEVID939402019
 70
     0
  0
APPID
  2
GEVID952919491
 70
     0
  0
APPID
  2
GEVID952919492
 70
     0
  0
APPID
  2
GENIUS_GEFWELD_13
 70
     0
  0
APPID
  2
GENIUS_GENOBJ-F-WELS_13
 70
     0
  0
APPID
  2
GEVID952919493
 70
     0
  0
APPID
  2
GENIUS_GENOBJ-N-RSBK_13
 70
     0
  0
APPID
  2
GENIUS_GENOBJ-N-LIB_13
 70
     0
  0
APPID
  2
GENIUS_GENSCALE_13
 70
     0
  0
APPID
  2
GEVID986376691
 70
     0
  0
APPID
  2
DCO15
 70
     0
  0
APPID
  2
GEVID988070561
 70
     0
  0
APPID
  2
GEVID988070562
 70
     0
  0
APPID
  2
GEVID988070563
 70
     0
  0
APPID
  2
ACADM_DIM_EDIT
 70
     0
  0
APPID
  2
AMDT_DM_ADJ
 70
     0
  0
APPID
  2
ACAD_PSEXT
 70
     0
  0
APPID
  2
ACAD_DSTYLE_DIMJAG
 70
     0
  0
APPID
  2
ACAD_DSTYLE_DIMBREAK
 70
     0
  0
APPID
  2
ACAD_NAV_VCDISPLAY
 70
     0
  0
APPID
  2
ACADANNOPO
 70
     0
  0
APPID
  2
ACAD_EXEMPT_FROM_CAD_STANDARDS
 70
     0
  0
APPID
  2
ACAD_MLEADERVER
 70
     0
  0
ENDTAB
  0
TABLE
  2
DIMSTYLE
 70
    23
  0
DIMSTYLE
  2
STANDARD
 70
     0
  3

  4

  5

  6

  7

 40
1.0
 41
0.18
 42
0.0625
 43
0.38
 44
0.18
 45
0.0
 46
0.0
 47
0.0
 48
0.0
140
0.18
141
0.09
142
0.0
143
25.399999999999999
144
1.0
145
0.0
146
1.0
147
0.09
 71
     0
 72
     0
 73
     1
 74
     1
 75
     0
 76
     0
 77
     0
 78
     0
170
     0
171
     2
172
     0
173
     0
174
     0
175
     0
176
     0
177
     0
178
     0
  0
DIMSTYLE
  2
ANNOTATIVE
 70
     0
  3

  4

  5

  6

  7

 40
1.0
 41
0.18
 42
0.0625
 43
0.38
 44
0.18
 45
0.0
 46
0.0
 47
0.0
 48
0.0
140
0.18
141
0.09
142
0.0
143
25.399999999999999
144
1.0
145
0.0
146
1.0
147
0.09
 71
     0
 72
     0
 73
     1
 74
     1
 75
     0
 76
     0
 77
     0
 78
     0
170
     0
171
     2
172
     0
173
     0
174
     0
175
     0
176
     0
177
     0
178
     0
  0
DIMSTYLE
  2
AM_ISO
 70
     0
  3

  4
"
  5

  6

  7

 40
1.0
 41
2.5
 42
1.0
 43
8.0
 44
0.6
 45
0.0
 46
0.0
 47
0.1
 48
0.1
140
2.5
141
0.0
142
0.0
143
0.0393701
144
1.0
145
0.0
146
0.71
147
0.8
 71
     0
 72
     0
 73
     0
 74
     0
 75
     0
 76
     0
 77
     1
 78
     8
170
     0
171
     2
172
     1
173
     0
174
     0
175
     0
176
   256
177
   256
178
     4
  0
DIMSTYLE
  2
AM_ISO$3
 70
     0
  3

  4
"
  5

  6

  7

 40
1.0
 41
2.5
 42
1.0
 43
8.0
 44
0.6
 45
0.0
 46
0.0
 47
0.1
 48
0.1
140
2.5
141
0.0
142
0.0
143
0.0393701
144
1.0
145
0.0
146
0.71
147
0.8
 71
     0
 72
     0
 73
     0
 74
     1
 75
     0
 76
     0
 77
     1
 78
     8
170
     0
171
     2
172
     0
173
     0
174
     0
175
     0
176
   256
177
   256
178
     4
  0
DIMSTYLE
  2
AM_ISO$4
 70
     0
  3

  4
"
  5

  6

  7

 40
1.0
 41
2.5
 42
1.0
 43
8.0
 44
0.6
 45
0.0
 46
0.0
 47
0.1
 48
0.1
140
2.5
141
0.0
142
0.0
143
0.0393701
144
1.0
145
0.0
146
0.71
147
0.8
 71
     0
 72
     0
 73
     0
 74
     1
 75
     0
 76
     0
 77
     1
 78
     8
170
     0
171
     2
172
     0
173
     0
174
     0
175
     0
176
   256
177
   256
178
     4
  0
DIMSTYLE
  2
AM_ISO$6
 70
     0
  3

  4
"
  5

  6

  7

 40
1.0
 41
2.5
 42
1.0
 43
8.0
 44
0.6
 45
0.0
 46
0.0
 47
0.1
 48
0.1
140
2.5
141
0.0
142
0.0
143
0.0393701
144
1.0
145
0.0
146
0.71
147
0.8
 71
     0
 72
     0
 73
     0
 74
     0
 75
     0
 76
     0
 77
     0
 78
     8
170
     0
171
     2
172
     1
173
     0
174
     0
175
     0
176
   256
177
   256
178
     4
  0
DIMSTYLE
  2
AM_ISO$7
 70
     0
  3

  4
"
  5

  6

  7

 40
1.0
 41
2.5
 42
1.0
 43
8.0
 44
0.6
 45
0.0
 46
0.0
 47
0.1
 48
0.1
140
2.5
141
0.0
142
0.0
143
0.0393701
144
1.0
145
0.0
146
0.71
147
0.8
 71
     0
 72
     0
 73
     0
 74
     0
 75
     0
 76
     0
 77
     1
 78
     8
170
     0
171
     2
172
     1
173
     0
174
     0
175
     0
176
   256
177
   256
178
     4
  0
DIMSTYLE
  2
AM_ISO$SF
 70
     0
  3

  4
"
  5

  6

  7

 40
1.0
 41
2.5
 42
1.0
 43
10.0
 44
1.0
 45
0.0
 46
0.0
 47
0.1
 48
0.1
140
3.5
141
0.0
142
0.0
143
0.0393701
144
1.0
145
0.0
146
0.71
147
1.5
 71
     0
 72
     0
 73
     0
 74
     0
 75
     1
 76
     1
 77
     1
 78
     8
170
     0
171
     2
172
     1
173
     0
174
     0
175
     0
176
   256
177
   256
178
     2
  0
DIMSTYLE
  2
AM_ISO$SH
 70
     0
  3

  4
"
  5

  6

  7

 40
1.0
 41
2.5
 42
1.0
 43
10.0
 44
1.0
 45
0.0
 46
0.0
 47
0.1
 48
0.1
140
3.5
141
0.0
142
0.0
143
0.0393701
144
2.0
145
0.0
146
0.71
147
1.5
 71
     0
 72
     0
 73
     0
 74
     0
 75
     1
 76
     1
 77
     1
 78
     8
170
     0
171
     2
172
     1
173
     1
174
     0
175
     0
176
   256
177
   256
178
     2
  0
DIMSTYLE
  2
AM_JIS
 70
     0
  3

  4
"
  5

  6

  7

 40
1.0
 41
2.5
 42
1.0
 43
7.0
 44
1.0
 45
0.0
 46
0.0
 47
0.1
 48
0.1000000001
140
2.5
141
0.0
142
0.0
143
0.0393701
144
1.0
145
0.0
146
0.71
147
1.0
 71
     0
 72
     0
 73
     0
 74
     0
 75
     0
 76
     0
 77
     3
 78
     8
170
     0
171
     2
172
     1
173
     0
174
     0
175
     0
176
   256
177
   256
178
     4
  0
DIMSTYLE
  2
AM_JIS$3
 70
     0
  3

  4
"
  5

  6

  7

 40
1.0
 41
2.5
 42
1.0
 43
7.0
 44
1.0
 45
0.0
 46
0.0
 47
0.1
 48
0.1000000001
140
2.5
141
0.0
142
0.0
143
0.0393701
144
1.0
145
0.0
146
0.71
147
1.0
 71
     0
 72
     0
 73
     0
 74
     1
 75
     0
 76
     0
 77
     3
 78
     8
170
     0
171
     2
172
     0
173
     0
174
     0
175
     0
176
   256
177
   256
178
     4
  0
DIMSTYLE
  2
AM_JIS$4
 70
     0
  3

  4
"
  5

  6

  7

 40
1.0
 41
2.5
 42
1.0
 43
7.0
 44
1.0
 45
0.0
 46
0.0
 47
0.1
 48
0.1000000001
140
2.5
141
0.0
142
0.0
143
0.0393701
144
1.0
145
0.0
146
0.71
147
1.0
 71
     0
 72
     0
 73
     0
 74
     0
 75
     0
 76
     0
 77
     3
 78
     8
170
     0
171
     2
172
     0
173
     0
174
     0
175
     0
176
   256
177
   256
178
     4
  0
DIMSTYLE
  2
AM_JIS$6
 70
     0
  3

  4
"
  5

  6

  7

 40
1.0
 41
2.5
 42
1.0
 43
7.0
 44
1.0
 45
0.0
 46
0.0
 47
0.1
 48
0.1000000001
140
2.5
141
0.0
142
0.0
143
0.0393701
144
1.0
145
0.0
146
0.71
147
1.0
 71
     0
 72
     0
 73
     0
 74
     0
 75
     0
 76
     0
 77
     0
 78
     8
170
     0
171
     2
172
     1
173
     0
174
     0
175
     0
176
   256
177
   256
178
     4
  0
DIMSTYLE
  2
AM_JIS$7
 70
     0
  3

  4
"
  5

  6

  7

 40
1.0
 41
2.5
 42
1.0
 43
7.0
 44
1.0
 45
0.0
 46
0.0
 47
0.1
 48
0.1000000001
140
2.5
141
0.0
142
0.0
143
0.0393701
144
1.0
145
0.0
146
0.71
147
1.0
 71
     0
 72
     0
 73
     0
 74
     0
 75
     0
 76
     0
 77
     3
 78
     8
170
     0
171
     2
172
     1
173
     0
174
     0
175
     0
176
   256
177
   256
178
     4
  0
DIMSTYLE
  2
AM_JIS$SF
 70
     0
  3

  4
"
  5

  6

  7

 40
1.0
 41
2.5
 42
1.0
 43
10.0
 44
1.0
 45
0.0
 46
0.0
 47
0.1
 48
0.1
140
3.5
141
0.0
142
0.0
143
0.0393701
144
1.0
145
0.0
146
0.71
147
1.5
 71
     0
 72
     0
 73
     0
 74
     0
 75
     1
 76
     1
 77
     3
 78
     8
170
     0
171
     2
172
     1
173
     0
174
     0
175
     0
176
   256
177
   256
178
     4
  0
DIMSTYLE
  2
AM_JIS$SH
 70
     0
  3

  4
"
  5

  6

  7

 40
1.0
 41
2.5
 42
1.0
 43
10.0
 44
1.0
 45
0.0
 46
0.0
 47
0.1
 48
0.1
140
3.5
141
0.0
142
0.0
143
0.0393701
144
1.0
145
0.0
146
0.71
147
1.5
 71
     0
 72
     0
 73
     0
 74
     0
 75
     1
 76
     0
 77
     3
 78
     8
170
     0
171
     2
172
     1
173
     1
174
     0
175
     0
176
   256
177
   256
178
     4
  0
DIMSTYLE
  2
AM_ISO$0
 70
     0
  3

  4
"
  5

  6

  7

 40
1.0
 41
2.5
 42
1.0
 43
8.0
 44
0.6
 45
0.0
 46
0.0
 47
0.1
 48
0.1
140
2.5
141
0.0
142
0.0
143
0.0393701
144
1.0
145
0.0
146
0.71
147
0.8
 71
     0
 72
     0
 73
     0
 74
     0
 75
     0
 76
     0
 77
     1
 78
     8
170
     0
171
     2
172
     1
173
     0
174
     0
175
     0
176
   256
177
   256
178
     4
  0
DIMSTYLE
  2
AM_ANSI
 70
     0
  3

  4
mm
  5

  6

  7

 40
1.0
 41
0.12
 42
0.05
 43
0.5
 44
0.1
 45
0.0
 46
0.0
 47
0.1
 48
0.1
140
0.12
141
0.0
142
0.0
143
25.399999999999999
144
1.0
145
0.0
146
0.71
147
0.06
 71
     0
 72
     0
 73
     1
 74
     1
 75
     0
 76
     0
 77
     0
 78
     7
170
     0
171
     2
172
     0
173
     0
174
     0
175
     0
176
   256
177
   256
178
     2
  0
DIMSTYLE
  2
AM_ANSI$3
 70
     0
  3

  4
mm
  5

  6

  7

 40
1.0
 41
0.12
 42
0.05
 43
0.5
 44
0.1
 45
0.0
 46
0.0
 47
0.1
 48
0.1
140
0.12
141
0.0
142
0.0
143
25.399999999999999
144
1.0
145
0.0
146
0.71
147
0.06
 71
     0
 72
     0
 73
     1
 74
     1
 75
     0
 76
     0
 77
     0
 78
     7
170
     0
171
     2
172
     0
173
     0
174
     0
175
     0
176
   256
177
   256
178
     2
  0
DIMSTYLE
  2
AM_ANSI$4
 70
     0
  3

  4
mm
  5

  6

  7

 40
1.0
 41
0.12
 42
0.05
 43
0.5
 44
0.1
 45
0.0
 46
0.0
 47
0.1
 48
0.1
140
0.12
141
0.0
142
0.0
143
25.399999999999999
144
1.0
145
0.0
146
0.71
147
0.06
 71
     0
 72
     0
 73
     1
 74
     1
 75
     0
 76
     0
 77
     0
 78
     7
170
     0
171
     2
172
     0
173
     0
174
     0
175
     0
176
   256
177
   256
178
     2
  0
DIMSTYLE
  2
AM_ANSI$7
 70
     0
  3

  4
mm
  5

  6

  7

 40
1.0
 41
0.12
 42
0.05
 43
0.5
 44
0.1
 45
0.0
 46
0.0
 47
0.1
 48
0.1
140
0.12
141
0.0
142
0.0
143
25.399999999999999
144
1.0
145
0.0
146
0.71
147
0.06
 71
     0
 72
     0
 73
     1
 74
     1
 75
     0
 76
     0
 77
     0
 78
     7
170
     0
171
     2
172
     0
173
     0
174
     0
175
     0
176
   256
177
   256
178
     2
  0
DIMSTYLE
  2
AM_ANSI$SF
 70
     0
  3

  4
mm
  5

  6

  7

 40
1.0
 41
0.12
 42
0.05
 43
0.5
 44
0.1
 45
0.0
 46
0.0
 47
0.1
 48
0.1
140
0.12
141
0.0
142
0.0
143
25.399999999999999
144
1.0
145
0.0
146
0.71
147
0.06
 71
     0
 72
     0
 73
     1
 74
     1
 75
     1
 76
     1
 77
     0
 78
     7
170
     0
171
     2
172
     0
173
     0
174
     0
175
     0
176
   256
177
   256
178
     2
  0
DIMSTYLE
  2
AM_ANSI$SH
 70
     0
  3

  4
mm
  5

  6
GENAXEH
  7

 40
1.0
 41
0.12
 42
0.05
 43
0.5
 44
0.1
 45
0.0
 46
0.0
 47
0.1
 48
0.1
140
0.12
141
0.0
142
0.0
143
25.399999999999999
144
1.0
145
0.0
146
0.71
147
0.06
 71
     0
 72
     0
 73
     1
 74
     1
 75
     1
 76
     1
 77
     0
 78
     7
170
     0
171
     2
172
     0
173
     1
174
     0
175
     0
176
   256
177
   256
178
     2
  0
ENDTAB
  0
ENDSEC
  0
SECTION
  2
BLOCKS
  0
BLOCK
  8
0
  2
$MODEL_SPACE
 70
     0
 10
0.0
 20
0.0
 30
0.0
  3
$MODEL_SPACE
  1

  0
ENDBLK
  5
5B93
  8
0
  0
BLOCK
 67
     1
  8
0
  2
$PAPER_SPACE
 70
     0
 10
0.0
 20
0.0
 30
0.0
  3
$PAPER_SPACE
  1

  0
ENDBLK
  5
5B8F
 67
     1
  8
0
  0
BLOCK
  8
0
  2
GENAXEH
 70
     0
 10
0.0
 20
0.0
 30
0.0
  3
GENAXEH
  1

  0
LINE
  5
73
  8
0
 10
-1.0
 20
0.0
 30
0.0
 11
1.0
 21
0.0
 31
0.0
  0
ENDBLK
  5
75
  8
0
  0
BLOCK
  8
0
  2
_OPEN30
 70
     0
 10
0.0
 20
0.0
 30
0.0
  3
_OPEN30
  1

  0
LINE
  5
31A
  8
0
 62
     0
 10
-1.0
 20
0.26794919
 30
0.0
 11
0.0
 21
0.0
 31
0.0
  0
LINE
  5
31B
  8
0
 62
     0
 10
0.0
 20
0.0
 30
0.0
 11
-1.0
 21
-0.26794919
 31
0.0
  0
LINE
  5
31C
  8
0
 62
     0
 10
0.0
 20
0.0
 30
0.0
 11
-1.0
 21
0.0
 31
0.0
  0
ENDBLK
  5
31E
  8
0
  0
BLOCK
  8
0
  2
_NONE
 70
     0
 10
0.0
 20
0.0
 30
0.0
  3
_NONE
  1

  0
ENDBLK
  5
579
  8
0
  0
BLOCK
  8
0
  2
*U5
 70
     1
 10
0.0
 20
0.0
 30
0.0
  3
*U5
  1

  0
TEXT
  5
5B20
  8
AM_0
 10
531.96438024753365
 20
536.373159156047
 30
0.0
 40
10.0
  1
ＶＸ０２－００５～０３０ＭＷ
 41
0.8299999999999999
  0
ENDBLK
  5
5B22
  8
0
  0
BLOCK
  8
0
  2
_ACMFILLEDHALF
 70
     0
 10
0.0
 20
0.0
 30
0.0
  3
_ACMFILLEDHALF
  1

  0
TRACE
  5
5C97
  8
AM_0
 62
     0
 10
-0.8
 20
0.0
 30
0.0
 11
-1.0
 21
0.166666666
 31
0.0
 12
0.0
 22
0.0
 32
0.0
 13
0.0
 23
0.0
 33
0.0
  0
LINE
  5
5C98
  8
AM_0
 62
     0
 10
-1.0
 20
0.0
 30
0.0
 11
-0.8
 21
0.0
 31
0.0
  0
ENDBLK
  5
5C96
  8
0
  0
ENDSEC
  0
SECTION
  2
ENTITIES
  0
LINE
  5
54A8
  8
AM_0
 10
269.97269308736372
 20
241.17291283041629
 30
0.0
 11
272.97269308736361
 21
241.17291283041629
 31
0.0
  0
LINE
  5
54A9
  8
AM_0
 10
269.97269308736361
 20
317.6190118304163
 30
0.0
 11
272.97269308736361
 21
317.6190118304163
 31
0.0
  0
LINE
  5
54AA
  8
ﾁｭｳｼﾝｾﾝ
 10
142.5865368942641
 20
279.39599683041632
 30
0.0
 11
302.93627308736347
 21
279.39599683041638
 31
0.0
  0
LINE
  5
54AB
  8
AM_0
 10
168.17912308736351
 20
223.1127448304164
 30
0.0
 11
265.09886308736361
 21
223.1127448304164
 31
0.0
  0
LINE
  5
54AC
  8
AM_0
 10
166.6506230873635
 20
242.67291283041641
 30
0.0
 11
173.97269308736361
 21
242.67291283041641
 31
0.0
  0
LINE
  5
54AD
  8
AM_0
 10
173.97269308736361
 20
245.3959948304163
 30
0.0
 11
167.33810308736349
 21
245.3959948304163
 31
0.0
  0
LINE
  5
54AE
  8
AM_0
 10
173.97269308736361
 20
243.39599683041629
 30
0.0
 11
167.33810308736349
 21
243.39599683041629
 31
0.0
  0
LINE
  5
54AF
  8
AM_0
 10
173.97269308736361
 20
315.39601183041628
 30
0.0
 11
167.33810308736349
 21
315.39601183041628
 31
0.0
  0
LINE
  5
54B0
  8
AM_0
 10
173.97269308736361
 20
313.39599883041637
 30
0.0
 11
167.33810308736349
 21
313.39599883041637
 31
0.0
  0
LINE
  5
54B1
  8
AM_0
 10
166.6499930873635
 20
316.11901183041641
 30
0.0
 11
173.97269308736361
 21
316.11901183041641
 31
0.0
  0
LINE
  5
54B2
  8
AM_0
 10
168.17912308736351
 20
335.67925183041638
 30
0.0
 11
265.09886308736361
 21
335.67925183041638
 31
0.0
  0
ARC
  5
54B3
  8
AM_0
 10
166.6499930873635
 20
314.44110283041641
 30
0.0
 40
1.6779127499999991
 50
90.00000299999769
 51
270.0
  0
ARC
  5
54B4
  8
AM_0
 10
167.52206308736351
 20
314.39599783041638
 30
0.0
 40
1.0000000199999981
 50
90.00000299999769
 51
270.0
  0
LINE
  5
54B5
  8
AM_0
 10
152.97269308736361
 20
314.78888083041642
 30
0.0
 11
152.97269308736361
 21
313.72894483041642
 31
0.0
  0
ARC
  5
54B6
  8
AM_0
 10
151.97270308736341
 20
313.5707398304163
 30
0.0
 40
1.0000000199999981
 50
113.12703000000219
 51
180.00001000000091
  0
LINE
  5
54B7
  8
AM_0
 10
152.78453308736351
 20
315.0049138304164
 30
0.0
 11
151.57994308736349
 21
314.49044983041631
 31
0.0
  0
LINE
  5
54B8
  8
AM_0
 10
150.97268308736341
 20
327.41236183041639
 30
0.0
 11
150.97268308736341
 21
290.39599683041649
 31
0.0
  0
LINE
  5
54B9
  8
AM_0
 10
156.97268308736341
 20
332.39599183041639
 30
0.0
 11
156.97268308736341
 21
291.39599683041649
 31
0.0
  0
LINE
  5
54BA
  8
AM_0
 10
156.97268308736341
 20
267.39599683041661
 30
0.0
 11
156.97268308736341
 21
226.39601083041629
 31
0.0
  0
LINE
  5
54BB
  8
AM_0
 10
164.97269308736361
 20
332.39599183041639
 30
0.0
 11
164.97269308736361
 21
229.9557628304164
 31
0.0
  0
LINE
  5
54BC
  8
AM_0
 10
155.97269308736361
 20
329.39599183041639
 30
0.0
 11
155.97269308736361
 21
291.39599683041649
 31
0.0
  0
LINE
  5
54BD
  8
AM_0
 10
155.97269308736361
 20
267.39599683041638
 30
0.0
 11
155.97269308736361
 21
228.2727658304164
 31
0.0
  0
LINE
  5
54BE
  8
AM_0
 10
170.33816308736371
 20
242.74472083041641
 30
0.0
 11
164.9727530873634
 21
231.3002458304164
 31
0.0
  0
ARC
  5
54BF
  8
AM_0
 10
151.97270308736341
 20
231.37959283041641
 30
0.0
 40
1.0000000199999981
 50
179.999989999999
 51
239.9736100000018
  0
LINE
  5
54C0
  8
AM_0
 10
152.75930308736341
 20
230.90124283041641
 30
0.0
 11
151.5200630873635
 21
231.53027383041641
 31
0.0
  0
ARC
  5
54C1
  8
AM_0
 10
201.97268308736349
 20
222.2663548304163
 30
0.0
 40
2.00000007
 50
270.0
 51
0.0
  0
ARC
  5
54C2
  8
AM_0
 10
201.97268308736349
 20
219.5080558304164
 30
0.0
 40
2.00000007
 50
270.0
 51
0.0
  0
LINE
  5
54C3
  8
AM_0
 10
203.97269308736361
 20
219.5080558304164
 30
0.0
 11
203.97269308736361
 21
223.1127448304164
 31
0.0
  0
ARC
  5
54C4
  8
AM_0
 10
201.97268308736349
 20
220.41857683041641
 30
0.0
 40
2.00000007
 50
270.0
 51
0.0
  0
LINE
  5
54C5
  8
AM_0
 10
164.97269308736361
 20
231.30021583041639
 30
0.0
 11
166.21391308736341
 21
224.74085983041641
 31
0.0
  0
LINE
  5
54C6
  8
AM_0
 10
164.97269308736361
 20
229.95568783041631
 30
0.0
 11
166.2527930873635
 21
221.9505148304163
 31
0.0
  0
LINE
  5
54C7
  8
AM_0
 10
164.97263308736339
 20
228.6111598304164
 30
0.0
 11
166.26371308736361
 21
220.11803983041639
 31
0.0
  0
ARC
  5
54C8
  8
AM_0
 10
168.17912308736351
 20
225.1127308304163
 30
0.0
 40
2.00000007
 50
190.71568999999951
 51
270.0
  0
ARC
  5
54C9
  8
AM_0
 10
168.22769308736369
 20
222.2663548304163
 30
0.0
 40
2.00000007
 50
189.08497000000031
 51
270.0
  0
LINE
  5
54CA
  8
AM_0
 10
155.97269308736361
 20
229.3960108304164
 30
0.0
 11
156.97268308736341
 21
229.3960108304164
 31
0.0
  0
ARC
  5
54CB
  8
AM_0
 10
155.47268308736341
 20
229.1466208304164
 30
0.0
 40
0.5000000100000001
 50
0.0
 51
90.00000299999769
  0
ARC
  5
54CC
  8
AM_0
 10
155.47268308736341
 20
231.2929078304164
 30
0.0
 40
0.5000000100000001
 50
270.0
 51
0.0
  0
LINE
  5
54CD
  8
AM_0
 10
156.97268308736341
 20
226.39601083041629
 30
0.0
 11
164.97269308736361
 21
226.39601083041629
 31
0.0
  0
ARC
  5
54CE
  8
AM_0
 10
168.2623730873635
 20
219.5080558304164
 30
0.0
 40
2.00000007
 50
187.94403999999901
 51
270.0
  0
LINE
  5
54CF
  8
AM_0
 10
164.97263308736339
 20
228.6111148304164
 30
0.0
 11
166.28153308736361
 21
219.23167183041639
 31
0.0
  0
ARC
  5
54D0
  8
AM_0
 10
168.24107308736359
 20
220.41857683041641
 30
0.0
 40
2.00000007
 50
188.6433899999989
 51
270.0
  0
ARC
  5
54D1
  8
AM_0
 10
153.2408930873635
 20
230.6466208304164
 30
0.0
 40
1.0000000199999981
 50
239.97359999999699
 51
270.0
  0
ARC
  5
54D2
  8
AM_0
 10
153.21194308736361
 20
231.7929058304164
 30
0.0
 40
1.0000000199999981
 50
243.08873999999739
 51
270.0
  0
LINE
  5
54D3
  8
AM_0
 10
152.97269308736361
 20
229.8998398304164
 30
0.0
 11
152.97269308736361
 21
230.42561383041641
 31
0.0
  0
LINE
  5
54D4
  8
AM_0
 10
152.74052308736361
 20
229.7808058304164
 30
0.0
 11
151.47233308736349
 21
230.51379283041629
 31
0.0
  0
LINE
  5
54D5
  8
AM_0
 10
153.2408930873635
 20
229.6466068304164
 30
0.0
 11
155.47268308736341
 21
229.6466068304164
 31
0.0
  0
LINE
  5
54D6
  8
AM_0
 10
153.21194308736361
 20
230.7929218304163
 30
0.0
 11
155.47268308736341
 21
230.7929218304163
 31
0.0
  0
LINE
  5
54D7
  8
AM_0
 10
168.22769308736369
 20
220.26637183041629
 30
0.0
 11
201.97268308736349
 21
220.26637183041629
 31
0.0
  0
LINE
  5
54D8
  8
AM_0
 10
168.24107308736359
 20
218.41857883041641
 30
0.0
 11
201.97268308736349
 21
218.41857883041641
 31
0.0
  0
LINE
  5
54D9
  8
AM_0
 10
168.2623730873635
 20
217.50806983041639
 30
0.0
 11
201.97268308736349
 21
217.50806983041639
 31
0.0
  0
ARC
  5
54DA
  8
AM_0
 10
154.9727030873635
 20
312.1391008304164
 30
0.0
 40
1.0000000199999981
 50
0.0
 51
90.00000299999769
  0
LINE
  5
54DB
  8
AM_0
 10
172.9726930873635
 20
303.39599683041638
 30
0.0
 11
167.33810308736349
 21
303.39599683041638
 31
0.0
  0
LINE
  5
54DC
  8
AM_0
 10
172.9726930873635
 20
305.39599783041638
 30
0.0
 11
167.33810308736349
 21
305.39599783041638
 31
0.0
  0
ARC
  5
54DD
  8
AM_0
 10
166.43417308736349
 20
304.42065583041642
 30
0.0
 40
1.461486869999999
 50
90.00000299999769
 51
270.0
  0
ARC
  5
54DE
  8
AM_0
 10
167.52206308736351
 20
304.39599883041637
 30
0.0
 40
1.0000000199999981
 50
90.00000299999769
 51
270.0
  0
LINE
  5
54DF
  8
AM_0
 10
166.43417308736349
 20
302.95916983041639
 30
0.0
 11
172.97269308736361
 21
302.95916983041639
 31
0.0
  0
LINE
  5
54E0
  8
AM_0
 10
166.43417308736349
 20
305.88214183041629
 30
0.0
 11
172.97269308736361
 21
305.88214183041629
 31
0.0
  0
LINE
  5
54E1
  8
AM_0
 10
172.97269308736361
 20
295.39599583041638
 30
0.0
 11
167.33810308736349
 21
295.39599583041638
 31
0.0
  0
LINE
  5
54E2
  8
AM_0
 10
172.97269308736361
 20
293.39599783041638
 30
0.0
 11
167.33810308736349
 21
293.39599783041638
 31
0.0
  0
ARC
  5
54E3
  8
AM_0
 10
166.3036130873634
 20
294.40856983041641
 30
0.0
 40
1.3309326599999991
 50
90.00000299999769
 51
270.0
  0
ARC
  5
54E4
  8
AM_0
 10
167.52206308736351
 20
294.39599683041638
 30
0.0
 40
1.0000000199999981
 50
90.00000299999769
 51
270.0
  0
LINE
  5
54E5
  8
AM_0
 10
166.3036130873634
 20
295.73950183041637
 30
0.0
 11
172.97269308736361
 21
295.73950183041637
 31
0.0
  0
LINE
  5
54E6
  8
AM_0
 10
166.3036130873634
 20
293.07763783041639
 30
0.0
 11
172.97269308736361
 21
293.07763783041651
 31
0.0
  0
POLYLINE
  5
54E7
  8
AM_0
 66
     1
 10
0.0
 20
0.0
 30
0.0
  0
VERTEX
  5
54E8
  8
AM_0
  6
CONTINUOUS
 10
167.8531730873635
 20
295.73854483041629
 30
0.0
  0
VERTEX
  5
54E9
  8
AM_0
  6
CONTINUOUS
 10
168.49922308736359
 20
302.95946683041632
 30
0.0
 42
-1.0
  0
SEQEND
  5
54EA
  8
AM_0
  0
ARC
  5
54EB
  8
AM_0
 10
154.9727030873635
 20
302.39599783041638
 30
0.0
 40
1.0000000199999981
 50
0.0
 51
90.00000299999769
  0
ARC
  5
54EC
  8
AM_0
 10
154.9727030873635
 20
306.39599683041638
 30
0.0
 40
1.0000000199999981
 50
270.0
 51
0.0
  0
ARC
  5
54ED
  8
AM_0
 10
154.9727030873635
 20
292.39599583041638
 30
0.0
 40
1.0000000199999981
 50
0.0
 51
90.00000299999769
  0
ARC
  5
54EE
  8
AM_0
 10
154.9727030873635
 20
296.39599783041638
 30
0.0
 40
1.0000000199999981
 50
270.0
 51
0.0
  0
POLYLINE
  5
54EF
  8
AM_0
 66
     1
 10
0.0
 20
0.0
 30
0.0
  0
VERTEX
  5
54F0
  8
AM_0
  6
CONTINUOUS
 10
168.83492308736371
 20
305.88293383041639
 30
0.0
  0
VERTEX
  5
54F1
  8
AM_0
  6
CONTINUOUS
 10
169.79540308736361
 20
312.76456783041641
 30
0.0
 42
-1.0
  0
SEQEND
  5
54F2
  8
AM_0
  0
LINE
  5
54F3
  8
AM_0
 10
166.6499930873635
 20
312.76318483041638
 30
0.0
 11
173.97269308736361
 21
312.76318483041638
 31
0.0
  0
POLYLINE
  5
54F4
  8
AM_0
 66
     1
 10
0.0
 20
0.0
 30
0.0
  0
VERTEX
  5
54F5
  8
AM_0
  6
CONTINUOUS
 10
167.8531730873635
 20
263.0534098304164
 30
0.0
  0
VERTEX
  5
54F6
  8
AM_0
  6
CONTINUOUS
 10
168.49922308736359
 20
255.83247283041629
 30
0.0
 42
-1.0
  0
SEQEND
  5
54F7
  8
AM_0
  0
LINE
  5
54F8
  8
AM_0
 10
172.97269308736361
 20
255.39599683041641
 30
0.0
 11
167.33810308736349
 21
255.39599683041641
 31
0.0
  0
LINE
  5
54F9
  8
AM_0
 10
172.97269308736361
 20
265.39601083041629
 30
0.0
 11
167.33810308736349
 21
265.39601083041629
 31
0.0
  0
LINE
  5
54FA
  8
AM_0
 10
172.97269308736361
 20
263.39599483041638
 30
0.0
 11
167.33810308736349
 21
263.39599483041638
 31
0.0
  0
ARC
  5
54FB
  8
AM_0
 10
166.3036130873634
 20
264.38343883041631
 30
0.0
 40
1.3309326599999991
 50
90.00000299999769
 51
270.0
  0
LINE
  5
54FC
  8
AM_0
 10
166.43423308736351
 20
255.8327788304164
 30
0.0
 11
172.97269308736361
 21
255.8327788304164
 31
0.0
  0
ARC
  5
54FD
  8
AM_0
 10
167.52206308736351
 20
264.39599683041649
 30
0.0
 40
1.0000000199999981
 50
90.00000299999769
 51
270.0
  0
LINE
  5
54FE
  8
AM_0
 10
166.3036130873634
 20
265.71435583041642
 30
0.0
 11
172.97269308736361
 21
265.71435583041642
 31
0.0
  0
LINE
  5
54FF
  8
AM_0
 10
166.3036130873634
 20
263.05248883041628
 30
0.0
 11
172.97269308736361
 21
263.05248883041628
 31
0.0
  0
ARC
  5
5500
  8
AM_0
 10
154.9727030873635
 20
256.3960108304164
 30
0.0
 40
1.0000000199999981
 50
270.0
 51
0.0
  0
ARC
  5
5501
  8
AM_0
 10
154.9727030873635
 20
266.39599483041638
 30
0.0
 40
1.0000000199999981
 50
270.0
 51
0.0
  0
ARC
  5
5502
  8
AM_0
 10
154.9727030873635
 20
262.3960108304164
 30
0.0
 40
1.0000000199999981
 50
0.0
 51
90.00000299999769
  0
POLYLINE
  5
5503
  8
AM_0
 66
     1
 10
0.0
 20
0.0
 30
0.0
  0
VERTEX
  5
5504
  8
AM_0
 10
167.6123717505682
 20
267.39599683041638
 30
0.0
  0
VERTEX
  5
5505
  8
AM_0
 10
167.6800430873636
 20
265.71660883041642
 30
0.0
 42
-1.0
  0
SEQEND
  5
5506
  8
AM_0
  0
POLYLINE
  5
5507
  8
AM_0
 66
     1
 10
0.0
 20
0.0
 30
0.0
  0
VERTEX
  5
5508
  8
AM_0
 10
167.61237252587651
 20
291.39599683041649
 30
0.0
  0
VERTEX
  5
5509
  8
AM_0
 10
167.6800430873636
 20
293.0753608304164
 30
0.0
 42
-1.0
  0
SEQEND
  5
550A
  8
AM_0
  0
ARC
  5
550B
  8
AM_0
 10
153.12302308736361
 20
312.1391008304164
 30
0.0
 40
1.0000000199999981
 50
90.00000299999769
 51
107.0976299999969
  0
ARC
  5
550C
  8
AM_0
 10
151.97270308736341
 20
311.78528083041641
 30
0.0
 40
1.0000000199999981
 50
107.0976299999969
 51
180.00001000000091
  0
LINE
  5
550D
  8
AM_0
 10
152.82902308736351
 20
313.09490983041638
 30
0.0
 11
151.67870308736349
 21
312.74105983041642
 31
0.0
  0
LINE
  5
550E
  8
AM_0
 10
152.97269308736361
 20
305.0221558304163
 30
0.0
 11
152.97269308736361
 21
303.6593638304164
 31
0.0
  0
ARC
  5
550F
  8
AM_0
 10
151.97270308736341
 20
304.39599883041637
 30
0.0
 40
1.0000000199999981
 50
179.999989999999
 51
270.0
  0
ARC
  5
5510
  8
AM_0
 10
151.97270308736341
 20
304.39599883041637
 30
0.0
 40
1.0000000199999981
 50
90.00000299999769
 51
180.00001000000091
  0
LINE
  5
5511
  8
AM_0
 10
152.97269308736361
 20
295.0031128304164
 30
0.0
 11
152.97269308736361
 21
293.79168883041632
 31
0.0
  0
LINE
  5
5512
  8
AM_0
 10
149.47268308736341
 20
299.39599783041638
 30
0.0
 11
150.97268308736341
 21
299.52722383041629
 31
0.0
  0
LINE
  5
5513
  8
AM_0
 10
149.47268308736341
 20
296.67797983041629
 30
0.0
 11
150.97268308736341
 21
296.67797983041629
 31
0.0
  0
ARC
  5
5514
  8
AM_0
 10
151.97270308736341
 20
294.39599683041638
 30
0.0
 40
1.0000000199999981
 50
90.00000299999769
 51
180.00001000000091
  0
ARC
  5
5515
  8
AM_0
 10
151.97270308736341
 20
294.39599683041638
 30
0.0
 40
1.0000000199999981
 50
179.999989999999
 51
270.0
  0
LINE
  5
5516
  8
AM_0
 10
152.97269308736361
 20
263.78889583041632
 30
0.0
 11
152.97269308736361
 21
265.00024483041642
 31
0.0
  0
LINE
  5
5517
  8
AM_0
 10
149.4727430873636
 20
259.39601083041629
 30
0.0
 11
150.97268308736341
 21
259.26476983041641
 31
0.0
  0
LINE
  5
5518
  8
AM_0
 10
149.47268308736341
 20
262.11395383041628
 30
0.0
 11
150.97268308736341
 21
262.11395383041628
 31
0.0
  0
ARC
  5
5519
  8
AM_0
 10
151.97270308736341
 20
264.39599683041649
 30
0.0
 40
1.0000000199999981
 50
179.999989999999
 51
270.0
  0
ARC
  5
551A
  8
AM_0
 10
151.97270308736341
 20
264.39599683041649
 30
0.0
 40
1.0000000199999981
 50
90.00000299999769
 51
180.00001000000091
  0
LINE
  5
551B
  8
AM_0
 10
149.47268308736341
 20
264.24597283041641
 30
0.0
 11
152.76638308736349
 21
264.24597283041641
 31
0.0
  0
LINE
  5
551C
  8
AM_0
 10
149.47268308736341
 20
259.39601083041629
 30
0.0
 11
149.47268308736341
 21
268.39599683041649
 31
0.0
  0
LINE
  5
551D
  8
AM_0
 10
149.47268308736341
 20
299.39599783041638
 30
0.0
 11
149.47268308736341
 21
290.39599683041638
 31
0.0
  0
LINE
  5
551E
  8
AM_0
 10
154.9727030873635
 20
303.39599683041638
 30
0.0
 11
151.97270308736341
 21
303.39599683041638
 31
0.0
  0
LINE
  5
551F
  8
AM_0
 10
153.12302308736361
 20
313.1390998304164
 30
0.0
 11
154.9727030873635
 21
313.1390998304164
 31
0.0
  0
LINE
  5
5520
  8
AM_0
 10
154.9727030873635
 20
305.39599783041638
 30
0.0
 11
151.97270308736341
 21
305.39599783041638
 31
0.0
  0
LINE
  5
5521
  8
AM_0
 10
154.9727030873635
 20
295.39599583041638
 30
0.0
 11
151.97270308736341
 21
295.39599583041638
 31
0.0
  0
LINE
  5
5522
  8
AM_0
 10
154.9727030873635
 20
293.39599783041638
 30
0.0
 11
151.97270308736341
 21
293.39599783041638
 31
0.0
  0
LINE
  5
5523
  8
AM_0
 10
154.9727030873635
 20
255.39599683041641
 30
0.0
 11
151.97270308736341
 21
255.39599683041641
 31
0.0
  0
LINE
  5
5524
  8
AM_0
 10
154.9727030873635
 20
263.39599483041638
 30
0.0
 11
151.97270308736341
 21
263.39599483041638
 31
0.0
  0
LINE
  5
5525
  8
AM_0
 10
154.9727030873635
 20
265.39601083041629
 30
0.0
 11
151.97270308736341
 21
265.39601083041629
 31
0.0
  0
LINE
  5
5526
  8
AM_0
 10
149.47268308736341
 20
294.5460208304163
 30
0.0
 11
154.1501930873635
 21
294.5460208304163
 31
0.0
  0
LINE
  5
5527
  8
AM_0
 10
172.97269308736361
 20
253.39601083041629
 30
0.0
 11
167.33810308736349
 21
253.39601083041629
 31
0.0
  0
POLYLINE
  5
5528
  8
AM_0
 66
     1
 10
0.0
 20
0.0
 30
0.0
  0
VERTEX
  5
5529
  8
AM_0
  6
CONTINUOUS
 10
168.83492308736371
 20
252.9090118304164
 30
0.0
  0
VERTEX
  5
552A
  8
AM_0
  6
CONTINUOUS
 10
169.79540308736361
 20
246.02741983041639
 30
0.0
 42
-1.0
  0
SEQEND
  5
552B
  8
AM_0
  0
ARC
  5
552C
  8
AM_0
 10
166.6506230873635
 20
244.3508308304163
 30
0.0
 40
1.6779175200000001
 50
90.00000299999769
 51
270.0
  0
ARC
  5
552D
  8
AM_0
 10
167.52206308736351
 20
244.39601083041629
 30
0.0
 40
1.0000000199999981
 50
90.00000299999769
 51
270.0
  0
LINE
  5
552E
  8
AM_0
 10
166.43423308736351
 20
252.9097888304164
 30
0.0
 11
172.97269308736361
 21
252.9097888304164
 31
0.0
  0
ARC
  5
552F
  8
AM_0
 10
154.9727030873635
 20
252.39599683041641
 30
0.0
 40
1.0000000199999981
 50
0.0
 51
90.00000299999769
  0
ARC
  5
5530
  8
AM_0
 10
154.9727030873635
 20
238.41107083041629
 30
0.0
 40
1.0000000199999981
 50
334.63675999999958
 51
0.0
  0
ARC
  5
5531
  8
AM_0
 10
154.9727030873635
 20
246.6528328304164
 30
0.0
 40
1.0000000199999981
 50
270.0
 51
0.0
  0
ARC
  5
5532
  8
AM_0
 10
155.27267308736359
 20
243.00678883041641
 30
0.0
 40
0.7000000200000001
 50
0.0
 51
90.00000299999769
  0
ARC
  5
5533
  8
AM_0
 10
154.9727030873635
 20
233.89436383041641
 30
0.0
 40
1.0000000199999981
 50
270.0
 51
0.0
  0
LINE
  5
5534
  8
AM_0
 10
157.67081308736351
 20
236.20452883041631
 30
0.0
 11
163.90061308736369
 21
236.20452883041631
 31
0.0
  0
ARC
  5
5535
  8
AM_0
 10
154.9727030873635
 20
238.41107083041629
 30
0.0
 40
1.0000000199999981
 50
270.0
 51
0.0
  0
LINE
  5
5536
  8
AM_0
 10
166.6506230873635
 20
246.02876383041641
 30
0.0
 11
173.97269308736361
 21
246.02876383041641
 31
0.0
  0
ARC
  5
5537
  8
AM_0
 10
153.2439830873634
 20
238.41107083041629
 30
0.0
 40
1.0000000199999981
 50
239.64050000000299
 51
270.0
  0
ARC
  5
5538
  8
AM_0
 10
153.1773530873636
 20
244.70674183041629
 30
0.0
 40
1.0000000199999981
 50
246.87296999999771
 51
270.0
  0
ARC
  5
5539
  8
AM_0
 10
153.12302308736361
 20
246.6528328304164
 30
0.0
 40
1.0000000199999981
 50
252.90236999999641
 51
270.0
  0
LINE
  5
553A
  8
AM_0
 10
152.97269308736361
 20
244.0031128304164
 30
0.0
 11
152.97269308736361
 21
245.06306383041641
 31
0.0
  0
ARC
  5
553B
  8
AM_0
 10
151.97270308736341
 20
239.1557608304164
 30
0.0
 40
1.0000000199999981
 50
179.999989999999
 51
239.64048999999909
  0
ARC
  5
553C
  8
AM_0
 10
151.97270308736341
 20
239.1557608304164
 30
0.0
 40
1.0000000199999981
 50
179.999989999999
 51
239.64048999999909
  0
LINE
  5
553D
  8
AM_0
 10
151.4672630873637
 20
238.2928618304164
 30
0.0
 11
151.4436530873636
 21
238.30670083041639
 31
0.0
  0
ARC
  5
553E
  8
AM_0
 10
151.97270308736341
 20
247.00672783041631
 30
0.0
 40
1.0000000199999981
 50
179.999989999999
 51
252.90236999999641
  0
ARC
  5
553F
  8
AM_0
 10
151.97270308736341
 20
245.2212658304164
 30
0.0
 40
1.0000000199999981
 50
179.999989999999
 51
246.87297999999811
  0
LINE
  5
5540
  8
AM_0
 10
152.73857308736359
 20
237.54815683041639
 30
0.0
 11
151.4672630873637
 21
238.2928318304163
 31
0.0
  0
LINE
  5
5541
  8
AM_0
 10
152.78453308736351
 20
243.78710983041631
 30
0.0
 11
151.57988308736341
 21
244.3016038304163
 31
0.0
  0
LINE
  5
5542
  8
AM_0
 10
152.82902308736351
 20
245.69705083041629
 30
0.0
 11
151.67870308736349
 21
246.05090383041639
 31
0.0
  0
ARC
  5
5543
  8
AM_0
 10
151.97270308736341
 20
254.39599483041641
 30
0.0
 40
1.0000000199999981
 50
179.999989999999
 51
270.0
  0
ARC
  5
5544
  8
AM_0
 10
153.27134308736359
 20
237.27105583041629
 30
0.0
 40
1.0000000199999981
 50
236.7452700000002
 51
270.0
  0
LINE
  5
5545
  8
AM_0
 10
152.97269308736361
 20
236.56555183041641
 30
0.0
 11
152.97269308736361
 21
237.03765883041629
 31
0.0
  0
ARC
  5
5546
  8
AM_0
 10
153.24974308736361
 20
232.7543488304164
 30
0.0
 40
1.0000000199999981
 50
239.0333999999996
 51
270.0
  0
ARC
  5
5547
  8
AM_0
 10
153.22136308736361
 20
233.89436383041641
 30
0.0
 40
1.0000000199999981
 50
242.07340000000289
 51
270.0
  0
LINE
  5
5548
  8
AM_0
 10
152.97269308736361
 20
231.9994498304163
 30
0.0
 11
152.97269308736361
 21
232.54547083041641
 31
0.0
  0
ARC
  5
5549
  8
AM_0
 10
151.97270308736341
 20
232.42193383041641
 30
0.0
 40
1.0000000199999981
 50
179.999989999999
 51
243.08874999999691
  0
ARC
  5
554A
  8
AM_0
 10
151.97270308736341
 20
234.5562118304164
 30
0.0
 40
1.0000000199999981
 50
179.999989999999
 51
242.07341000000091
  0
ARC
  5
554B
  8
AM_0
 10
151.97270308736341
 20
233.5206448304163
 30
0.0
 40
1.0000000199999981
 50
179.999989999999
 51
239.0333999999996
  0
LINE
  5
554C
  8
AM_0
 10
152.73515308736339
 20
231.89689483041639
 30
0.0
 11
151.45817308736341
 21
232.6631608304163
 31
0.0
  0
LINE
  5
554D
  8
AM_0
 10
152.7530330873636
 20
233.01080383041639
 30
0.0
 11
151.5043730873634
 21
233.6726668304164
 31
0.0
  0
ARC
  5
554E
  8
AM_0
 10
151.97270308736341
 20
238.12263283041631
 30
0.0
 40
1.0000000199999981
 50
179.999989999999
 51
236.74528000000319
  0
LINE
  5
554F
  8
AM_0
 10
152.7229430873634
 20
236.4348148304164
 30
0.0
 11
151.42430308736351
 21
237.2863768304164
 31
0.0
  0
LINE
  5
5550
  8
AM_0
 10
154.9727030873635
 20
253.39601083041629
 30
0.0
 11
151.97270308736341
 21
253.39601083041629
 31
0.0
  0
LINE
  5
5551
  8
AM_0
 10
153.27134308736359
 20
236.27107183041639
 30
0.0
 11
155.97269308736361
 21
236.27107183041639
 31
0.0
  0
LINE
  5
5552
  8
AM_0
 10
153.2439830873634
 20
237.41108683041639
 30
0.0
 11
154.9727030873635
 21
237.41108683041639
 31
0.0
  0
LINE
  5
5553
  8
AM_0
 10
153.1773530873636
 20
243.70672483041639
 30
0.0
 11
155.27267308736359
 21
243.70672483041639
 31
0.0
  0
LINE
  5
5554
  8
AM_0
 10
153.12302308736361
 20
245.65284583041631
 30
0.0
 11
154.9727030873635
 21
245.65284583041631
 31
0.0
  0
LINE
  5
5555
  8
AM_0
 10
153.24974308736361
 20
231.75433183041639
 30
0.0
 11
155.97269308736361
 21
231.75433183041639
 31
0.0
  0
LINE
  5
5556
  8
AM_0
 10
153.22136308736361
 20
232.8943468304164
 30
0.0
 11
154.9727030873635
 21
232.8943468304164
 31
0.0
  0
ARC
  5
5557
  8
AM_0
 10
166.43423308736351
 20
254.3712778304164
 30
0.0
 40
1.4615021100000001
 50
90.00000299999769
 51
270.0
  0
LINE
  5
5558
  8
AM_0
 10
152.97269308736361
 20
253.7697748304164
 30
0.0
 11
152.97269308736361
 21
255.13262983041639
 31
0.0
  0
ARC
  5
5559
  8
AM_0
 10
167.52206308736351
 20
254.39599483041641
 30
0.0
 40
1.0000000199999981
 50
90.00000299999769
 51
270.0
  0
ARC
  5
555A
  8
AM_0
 10
151.97270308736341
 20
254.39599483041641
 30
0.0
 40
1.0000000199999981
 50
90.00000299999769
 51
180.00001000000091
  0
LINE
  5
555B
  8
AM_0
 10
150.97268308736341
 20
231.37959283041641
 30
0.0
 11
150.97268308736341
 21
268.39599683041649
 31
0.0
  0
ARC
  5
555C
  8
AM_0
 10
201.97268308736349
 20
336.52564183041642
 30
0.0
 40
2.00000007
 50
0.0
 51
90.00000299999769
  0
ARC
  5
555D
  8
AM_0
 10
201.97268308736349
 20
338.37334183041639
 30
0.0
 40
2.00000007
 50
0.0
 51
90.00000299999769
  0
ARC
  5
555E
  8
AM_0
 10
201.97268308736349
 20
339.28387183041639
 30
0.0
 40
2.00000007
 50
0.0
 51
90.00000299999769
  0
LINE
  5
555F
  8
AM_0
 10
203.97269308736361
 20
339.28387183041639
 30
0.0
 11
203.97269308736361
 21
335.67925183041638
 31
0.0
  0
ARC
  5
5560
  8
AM_0
 10
168.17912308736351
 20
333.67927183041638
 30
0.0
 40
2.00000007
 50
90.00000299999769
 51
169.2843100000004
  0
ARC
  5
5561
  8
AM_0
 10
168.22769308736369
 20
336.52564183041642
 30
0.0
 40
2.00000007
 50
90.00000299999769
 51
170.9150299999996
  0
ARC
  5
5562
  8
AM_0
 10
168.24107308736359
 20
338.37334183041639
 30
0.0
 40
2.00000007
 50
90.00000299999769
 51
171.35661000000101
  0
ARC
  5
5563
  8
AM_0
 10
168.2623730873635
 20
339.28387183041639
 30
0.0
 40
2.00000007
 50
90.00000299999769
 51
172.05596000000091
  0
LINE
  5
5564
  8
AM_0
 10
164.97269308736361
 20
328.83625183041642
 30
0.0
 11
166.25273308736359
 21
336.8413918304164
 31
0.0
  0
LINE
  5
5565
  8
AM_0
 10
164.97269308736361
 20
330.18085183041637
 30
0.0
 11
166.26371308736361
 21
338.67391183041639
 31
0.0
  0
LINE
  5
5566
  8
AM_0
 10
164.97269308736361
 20
330.18085183041637
 30
0.0
 11
166.28153308736361
 21
339.56026183041638
 31
0.0
  0
LINE
  5
5567
  8
AM_0
 10
164.97269308736361
 20
327.49171183041642
 30
0.0
 11
166.21397308736371
 21
334.05112183041632
 31
0.0
  0
LINE
  5
5568
  8
AM_0
 10
155.97269308736361
 20
329.39599183041639
 30
0.0
 11
156.97268308736341
 21
329.39599183041639
 31
0.0
  0
ARC
  5
5569
  8
AM_0
 10
155.47268308736341
 20
327.49909183041638
 30
0.0
 40
0.5000000100000001
 50
0.0
 51
90.00000299999769
  0
ARC
  5
556A
  8
AM_0
 10
155.47268308736341
 20
329.6453818304164
 30
0.0
 40
0.5000000100000001
 50
270.0
 51
0.0
  0
LINE
  5
556B
  8
AM_0
 10
156.97268308736341
 20
332.39599183041639
 30
0.0
 11
164.97269308736361
 21
332.39599183041639
 31
0.0
  0
ARC
  5
556C
  8
AM_0
 10
153.2408930873635
 20
328.14538183041628
 30
0.0
 40
1.0000000199999981
 50
90.00000299999769
 51
120.02640000000299
  0
ARC
  5
556D
  8
AM_0
 10
153.21194308736361
 20
326.99908183041629
 30
0.0
 40
1.0000000199999981
 50
90.00000299999769
 51
116.9112600000025
  0
ARC
  5
556E
  8
AM_0
 10
153.24974308736361
 20
326.03761183041638
 30
0.0
 40
1.0000000199999981
 50
90.00000299999769
 51
120.9666000000004
  0
ARC
  5
556F
  8
AM_0
 10
153.22136308736361
 20
324.89764183041632
 30
0.0
 40
1.0000000199999981
 50
90.00000299999769
 51
117.92659999999709
  0
LINE
  5
5570
  8
AM_0
 10
152.97269308736361
 20
326.79253183041618
 30
0.0
 11
152.97269308736361
 21
326.24647183041628
 31
0.0
  0
LINE
  5
5571
  8
AM_0
 10
152.97269308736361
 20
328.89214183041628
 30
0.0
 11
152.97269308736361
 21
328.36639183041632
 31
0.0
  0
ARC
  5
5572
  8
AM_0
 10
151.97270308736341
 20
327.41236183041639
 30
0.0
 40
1.0000000199999981
 50
120.02640000000299
 51
180.00001000000091
  0
ARC
  5
5573
  8
AM_0
 10
151.97270308736341
 20
326.37007183041641
 30
0.0
 40
1.0000000199999981
 50
116.9112600000025
 51
180.00001000000091
  0
LINE
  5
5574
  8
AM_0
 10
152.74052308736361
 20
329.01109183041638
 30
0.0
 11
151.47233308736349
 21
328.27813183041638
 31
0.0
  0
LINE
  5
5575
  8
AM_0
 10
152.73515308736339
 20
326.89510183041642
 30
0.0
 11
151.45811308736361
 21
326.12881183041628
 31
0.0
  0
LINE
  5
5576
  8
AM_0
 10
152.75936308736371
 20
327.89083183041618
 30
0.0
 11
151.5200630873635
 21
327.26182183041641
 31
0.0
  0
LINE
  5
5577
  8
AM_0
 10
153.2408930873635
 20
329.14540183041629
 30
0.0
 11
155.47268308736341
 21
329.14540183041629
 31
0.0
  0
LINE
  5
5578
  8
AM_0
 10
153.24974308736361
 20
327.03760183041641
 30
0.0
 11
155.97269308736361
 21
327.03760183041641
 31
0.0
  0
LINE
  5
5579
  8
AM_0
 10
153.22136308736361
 20
325.8976318304164
 30
0.0
 11
154.9727030873635
 21
325.8976318304164
 31
0.0
  0
LINE
  5
557A
  8
AM_0
 10
153.21194308736361
 20
327.99907183041643
 30
0.0
 11
155.47268308736341
 21
327.99907183041643
 31
0.0
  0
ARC
  5
557B
  8
AM_0
 10
154.9727030873635
 20
320.38093183041627
 30
0.0
 40
1.0000000199999981
 50
0.0
 51
90.00000299999769
  0
ARC
  5
557C
  8
AM_0
 10
155.27267308736359
 20
315.78523183041642
 30
0.0
 40
0.7000000200000001
 50
270.0
 51
0.0
  0
LINE
  5
557D
  8
AM_0
 10
157.67081308736351
 20
322.58740183041641
 30
0.0
 11
163.90061308736369
 21
322.58740183041641
 31
0.0
  0
ARC
  5
557E
  8
AM_0
 10
153.27134308736359
 20
321.52087183041641
 30
0.0
 40
1.0000000199999981
 50
90.00000299999769
 51
123.2547299999998
  0
ARC
  5
557F
  8
AM_0
 10
153.2439830873634
 20
320.38093183041627
 30
0.0
 40
1.0000000199999981
 50
90.00000299999769
 51
120.359499999997
  0
LINE
  5
5580
  8
AM_0
 10
152.97269308736361
 20
322.22644183041632
 30
0.0
 11
152.97269308736361
 21
321.75427183041643
 31
0.0
  0
ARC
  5
5581
  8
AM_0
 10
153.1773530873636
 20
314.08520683041638
 30
0.0
 40
1.0000000199999981
 50
90.00000299999769
 51
113.12703000000219
  0
ARC
  5
5582
  8
AM_0
 10
151.97270308736341
 20
324.23572183041631
 30
0.0
 40
1.0000000199999981
 50
117.92659999999709
 51
180.00001000000091
  0
ARC
  5
5583
  8
AM_0
 10
151.97270308736341
 20
319.63624183041628
 30
0.0
 40
1.0000000199999981
 50
120.359499999997
 51
180.00001000000091
  0
ARC
  5
5584
  8
AM_0
 10
151.97270308736341
 20
320.66932183041632
 30
0.0
 40
1.0000000199999981
 50
123.2547299999998
 51
180.00001000000091
  0
LINE
  5
5585
  8
AM_0
 10
152.7229430873634
 20
322.3571518304164
 30
0.0
 11
151.42430308736351
 21
321.50557183041627
 31
0.0
  0
LINE
  5
5586
  8
AM_0
 10
152.73857308736359
 20
321.24379183041628
 30
0.0
 11
151.4672630873637
 21
320.49910183041641
 31
0.0
  0
LINE
  5
5587
  8
AM_0
 10
153.27134308736359
 20
322.52086183041638
 30
0.0
 11
155.97269308736361
 21
322.52086183041638
 31
0.0
  0
LINE
  5
5588
  8
AM_0
 10
153.2439830873634
 20
321.3809218304163
 30
0.0
 11
154.9727030873635
 21
321.3809218304163
 31
0.0
  0
LINE
  5
5589
  8
AM_0
 10
153.1773530873636
 20
315.08520583041638
 30
0.0
 11
155.27267308736359
 21
315.08520583041638
 31
0.0
  0
ARC
  5
558A
  8
AM_0
 10
154.9727030873635
 20
324.89764183041632
 30
0.0
 40
1.0000000199999981
 50
0.0
 51
90.00000299999769
  0
LINE
  5
558B
  8
AM_0
 10
170.33810308736341
 20
316.04719183041641
 30
0.0
 11
164.97269308736361
 21
327.49168183041638
 31
0.0
  0
ARC
  5
558C
  8
AM_0
 10
151.97270308736341
 20
325.27129183041632
 30
0.0
 40
1.0000000199999981
 50
120.9666000000004
 51
180.00001000000091
  0
LINE
  5
558D
  8
AM_0
 10
152.7530330873636
 20
325.78114183041617
 30
0.0
 11
151.5043730873634
 21
325.11925183041637
 31
0.0
  0
LINE
  5
558E
  8
AM_0
 10
168.22769308736369
 20
338.52565183041639
 30
0.0
 11
201.97268308736349
 21
338.52565183041639
 31
0.0
  0
LINE
  5
558F
  8
AM_0
 10
168.24107308736359
 20
340.37335183041642
 30
0.0
 11
201.97268308736349
 21
340.37335183041642
 31
0.0
  0
LINE
  5
5590
  8
AM_0
 10
168.2623730873635
 20
341.28388183041642
 30
0.0
 11
201.97268308736349
 21
341.28388183041642
 31
0.0
  0
LINE
  5
5591
  8
AM_0
 10
362.97266308736369
 20
324.39601183041628
 30
0.0
 11
362.97266308736369
 21
224.5863928304164
 31
0.0
  0
ARC
  5
5592
  8
AM_0
 10
319.97270308736353
 20
313.86120883041627
 30
0.0
 40
1.0000000199999981
 50
0.0
 51
90.00000299999769
  0
LINE
  5
5593
  8
AM_0
 10
320.97266308736369
 20
312.97445983041638
 30
0.0
 11
320.97266308736369
 21
322.52149183041638
 31
0.0
  0
LINE
  5
5594
  8
AM_0
 10
316.97270308736353
 20
324.02146183041629
 30
0.0
 11
316.97270308736353
 21
311.47445683041639
 31
0.0
  0
LINE
  5
5595
  8
AM_0
 10
289.97270308736353
 20
323.39599183041639
 30
0.0
 11
289.97270308736353
 21
305.17871083041632
 31
0.0
  0
LINE
  5
5596
  8
AM_0
 10
298.97270308736341
 20
319.2696118304163
 30
0.0
 11
298.97270308736341
 21
279.39599683041638
 31
0.0
  0
ARC
  5
5597
  8
AM_0
 10
269.79479308736359
 20
314.44110283041641
 30
0.0
 40
1.6779127499999991
 50
276.08620038401648
 51
83.913799615983422
  0
LINE
  5
5598
  8
ﾁｭｳｼﾝｾﾝ
 10
221.97269308736361
 20
330.39599683041638
 30
0.0
 11
221.97269308736361
 21
228.39599683041629
 31
0.0
  0
LINE
  5
5599
  8
AM_0
 10
315.97271308736367
 20
327.6179518304163
 30
0.0
 11
315.97271308736367
 21
308.2342228304164
 31
0.0
  0
LINE
  5
559A
  8
AM_0
 10
352.97270308736358
 20
333.26830183041642
 30
0.0
 11
352.97270308736358
 21
248.1634198304163
 31
0.0
  0
LINE
  5
559B
  8
AM_0
 10
272.97269308736361
 20
335.39599183041639
 30
0.0
 11
272.97269308736361
 21
223.3960108304164
 31
0.0
  0
LINE
  5
559C
  8
AM_0
 10
280.97270308736353
 20
335.39602183041632
 30
0.0
 11
280.97270308736353
 21
223.3960108304164
 31
0.0
  0
LINE
  5
559D
  8
AM_0
 10
304.97270308736353
 20
339.3960118304164
 30
0.0
 11
304.97270308736353
 21
229.3960108304164
 31
0.0
  0
ARC
  5
559E
  8
AM_0
 10
344.97266308736369
 20
304.31341783041643
 30
0.0
 40
5.0000001000000003
 50
90.00000299999769
 51
180.00001000000091
  0
LINE
  5
559F
  8
AM_0
 10
347.97266308736369
 20
243.16340683041631
 30
0.0
 11
339.97271308736367
 21
243.16340683041631
 31
0.0
  0
ARC
  5
55A0
  8
AM_0
 10
344.97266308736369
 20
226.39598083041639
 30
0.0
 40
5.0000001000000003
 50
180.00001000000091
 51
270.0
  0
ARC
  5
55A1
  8
AM_0
 10
343.97270308736358
 20
211.39598083041631
 30
0.0
 40
1.0000000199999981
 50
0.0
 51
90.00000299999769
  0
LINE
  5
55A2
  8
ﾁｭｳｼﾝｾﾝ
 10
293.62328308736352
 20
296.39599783041638
 30
0.0
 11
400.9036743175435
 21
296.39599783041638
 31
0.0
  0
LINE
  5
55A3
  8
AM_0
 10
329.75840308736349
 20
303.73532383041629
 30
0.0
 11
317.97269308736361
 21
221.3959648304164
 31
0.0
  0
LINE
  5
55A4
  8
AM_0
 10
317.97266308736369
 20
308.02685683041631
 30
0.0
 11
317.97266308736369
 21
221.39599483041641
 31
0.0
  0
LINE
  5
55A5
  8
AM_0
 10
298.97270308736341
 20
221.39599483041641
 30
0.0
 11
298.97270308736341
 21
279.39599683041638
 31
0.0
  0
LINE
  5
55A6
  8
AM_0
 10
339.97271308736367
 20
226.39598083041639
 30
0.0
 11
339.97271308736367
 21
304.31341783041643
 31
0.0
  0
LINE
  5
55A7
  8
AM_0
 10
307.95218308736338
 20
255.22131283041639
 30
0.0
 11
304.28447308736361
 21
224.0454388304164
 31
0.0
  0
LINE
  5
55A8
  8
AM_0
 10
271.47269308736361
 20
241.17295783041629
 30
0.0
 11
267.03068308736363
 21
224.59509283041641
 31
0.0
  0
LINE
  5
55A9
  8
AM_0
 10
272.97269308736361
 20
223.3960108304164
 30
0.0
 11
280.97270308736353
 21
223.3960108304164
 31
0.0
  0
LINE
  5
55AA
  8
AM_0
 10
267.51323308736357
 20
226.39601083041629
 30
0.0
 11
272.97269308736361
 21
226.39601083041629
 31
0.0
  0
ARC
  5
55AB
  8
AM_0
 10
265.09886308736361
 20
225.1127308304163
 30
0.0
 40
2.00000007
 50
270.0
 51
344.99999999999932
  0
ARC
  5
55AC
  8
AM_0
 10
297.47270308736353
 20
221.46342283041639
 30
0.0
 40
1.5000000299999989
 50
0.0
 51
88.499997000000747
  0
ARC
  5
55AD
  8
AM_0
 10
301.30496308736349
 20
224.3959948304163
 30
0.0
 40
3.0
 50
270.0
 51
353.29015999999717
  0
ARC
  5
55AE
  8
AM_0
 10
283.47269308736361
 20
219.89599483041641
 30
0.0
 40
1.5000000299999989
 50
90.00000299999769
 51
180.00001000000091
  0
LINE
  5
55AF
  8
AM_0
 10
280.97270308736353
 20
223.39598083041639
 30
0.0
 11
297.5120030873635
 21
222.9628888304164
 31
0.0
  0
LINE
  5
55B0
  8
AM_0
 10
301.30496308736349
 20
221.39599483041641
 30
0.0
 11
283.47269308736361
 21
221.39599483041641
 31
0.0
  0
LINE
  5
55B1
  8
AM_0
 10
301.97270308736353
 20
211.39598083041631
 30
0.0
 11
301.97270308736353
 21
211.39598083041631
 31
0.0
  0
ARC
  5
55B2
  8
AM_0
 10
302.97269308736361
 20
211.39598083041631
 30
0.0
 40
1.0000000199999981
 50
90.00000299999769
 51
180.00001000000091
  0
LINE
  5
55B3
  8
AM_0
 10
281.97269308736361
 20
211.39598083041631
 30
0.0
 11
301.97270308736353
 21
211.39598083041631
 31
0.0
  0
LINE
  5
55B4
  8
ｶｸﾚｾﾝ2
 10
296.97269308736361
 20
211.39598083041631
 30
0.0
 11
296.97269308736361
 21
221.39599483041641
 31
0.0
  0
LINE
  5
55B5
  8
ｶｸﾚｾﾝ2
 10
286.97270308736353
 20
211.39598083041631
 30
0.0
 11
286.97270308736353
 21
221.39599483041641
 31
0.0
  0
LINE
  5
55B6
  8
AM_0
 10
281.97269308736361
 20
211.39598083041631
 30
0.0
 11
281.97269308736361
 21
219.89599483041641
 31
0.0
  0
LINE
  5
55B7
  8
AM_0
 10
302.97269308736361
 20
212.39599483041641
 30
0.0
 11
343.97270308736358
 21
212.39599483041641
 31
0.0
  0
LINE
  5
55B8
  8
AM_0
 10
272.97269308736361
 20
311.33343583041642
 30
0.0
 11
280.97270308736353
 21
311.33343583041642
 31
0.0
  0
LINE
  5
55B9
  8
AM_0
 10
272.97269308736361
 20
247.45855783041631
 30
0.0
 11
280.97270308736353
 21
247.45855783041631
 31
0.0
  0
LINE
  5
55BA
  8
AM_0
 10
272.97269308736361
 20
233.3959948304163
 30
0.0
 11
280.97270308736353
 21
233.3959948304163
 31
0.0
  0
ARC
  5
55BB
  8
AM_0
 10
269.79479308736359
 20
244.3508308304163
 30
0.0
 40
1.6779127499999991
 50
276.08620038402319
 51
83.913799615976814
  0
ARC
  5
55BC
  8
AM_0
 10
319.97270308736353
 20
312.97445983041638
 30
0.0
 40
1.0000000199999981
 50
270.0
 51
0.0
  0
ARC
  5
55BD
  8
AM_0
 10
334.70795308736359
 20
303.02685583041642
 30
0.0
 40
5.0000001000000003
 50
90.00000299999769
 51
171.85423999999659
  0
LINE
  5
55BE
  8
AM_0
 10
315.97271308736367
 20
311.47445683041639
 30
0.0
 11
316.97270308736353
 21
311.47445683041639
 31
0.0
  0
ARC
  5
55BF
  8
AM_0
 10
316.97270308736353
 20
308.2342228304164
 30
0.0
 40
1.0000000199999981
 50
179.999989999999
 51
270.0
  0
LINE
  5
55C0
  8
AM_0
 10
280.97270308736353
 20
311.33343583041642
 30
0.0
 11
289.97270308736353
 21
311.33343583041642
 31
0.0
  0
LINE
  5
55C1
  8
AM_0
 10
289.97270308736353
 20
305.17871083041632
 30
0.0
 11
298.97270308736341
 21
305.17871083041632
 31
0.0
  0
ARC
  5
55C2
  8
AM_0
 10
304.97270308736353
 20
255.5718538304163
 30
0.0
 40
3.0
 50
353.29015999999717
 51
0.0
  0
LINE
  5
55C3
  8
AM_0
 10
307.97270308736353
 20
284.1468208304164
 30
0.0
 11
307.97270308736353
 21
255.5718538304163
 31
0.0
  0
ARC
  5
55C4
  8
AM_0
 10
316.97270308736353
 20
306.23422483041639
 30
0.0
 40
1.0000000199999981
 50
0.0
 51
90.00000299999769
  0
LINE
  5
55C5
  8
AM_0
 10
316.97270308736353
 20
311.9744278304164
 30
0.0
 11
319.97270308736353
 21
311.9744278304164
 31
0.0
  0
LINE
  5
55C6
  8
AM_0
 10
317.97266308736369
 20
308.02685683041631
 30
0.0
 11
341.6244830873635
 21
308.02685683041631
 31
0.0
  0
LINE
  5
55C7
  8
AM_0
 10
280.97270308736353
 20
247.45855783041631
 30
0.0
 11
298.97270308736341
 21
247.45855783041631
 31
0.0
  0
LINE
  5
55C8
  8
AM_0
 10
280.97270308736353
 20
233.3959948304163
 30
0.0
 11
298.97270308736341
 21
233.3959948304163
 31
0.0
  0
ARC
  5
55C9
  8
AM_0
 10
363.47270308736353
 20
219.89599483041641
 30
0.0
 40
1.5000000299999989
 50
0.0
 51
90.00000299999769
  0
ARC
  5
55CA
  8
AM_0
 10
367.97270308736353
 20
224.5863928304164
 30
0.0
 40
5.0000001000000003
 50
179.999989999999
 51
226.18693000000411
  0
LINE
  5
55CB
  8
AM_0
 10
364.97270308736353
 20
211.39598083041631
 30
0.0
 11
364.97270308736353
 21
219.89599483041641
 31
0.0
  0
LINE
  5
55CC
  8
ｶｸﾚｾﾝ2
 10
359.97266308736369
 20
211.39598083041631
 30
0.0
 11
359.97266308736369
 21
221.39599483041641
 31
0.0
  0
LINE
  5
55CD
  8
AM_0
 10
344.97266308736369
 20
211.39598083041631
 30
0.0
 11
344.97266308736369
 21
211.39598083041631
 31
0.0
  0
LINE
  5
55CE
  8
ｶｸﾚｾﾝ2
 10
349.97270308736358
 20
211.39598083041631
 30
0.0
 11
349.97270308736358
 21
221.39599483041641
 31
0.0
  0
LINE
  5
55CF
  8
AM_0
 10
344.97266308736369
 20
211.39598083041631
 30
0.0
 11
364.97270308736353
 21
211.39598083041631
 31
0.0
  0
LINE
  5
55D0
  8
AM_0
 10
363.47270308736353
 20
221.39599483041641
 30
0.0
 11
344.97266308736369
 21
221.39599483041641
 31
0.0
  0
LINE
  5
55D1
  8
AM_0
 10
372.97268308736358
 20
305.89599883041637
 30
0.0
 11
372.97268308736358
 21
308.39599683041638
 31
0.0
  0
LINE
  5
55D2
  8
AM_0
 10
370.97268308736358
 20
305.89599883041632
 30
0.0
 11
394.97270308736353
 21
305.89599883041637
 31
0.0
  0
LINE
  5
55D3
  8
AM_0
 10
372.97268308736358
 20
308.39599683041638
 30
0.0
 11
394.97270308736353
 21
308.39599683041638
 31
0.0
  0
ARC
  5
55D4
  8
AM_0
 10
363.97271308736367
 20
275.36944483041628
 30
0.0
 40
1.0000000199999981
 50
90.001718873355244
 51
180.00001000000091
  0
LINE
  5
55D5
  8
AM_0
 10
370.97268308736398
 20
286.89599683041632
 30
0.0
 11
394.97270308736353
 21
286.89599683041638
 31
0.0
  0
LINE
  5
55D6
  8
AM_0
 10
394.97270308736353
 20
286.89599683041638
 30
0.0
 11
394.97270308736353
 21
308.39599683041638
 31
0.0
  0
LINE
  5
55D7
  8
AM_0
 10
352.97270308736358
 20
309.31341583041637
 30
0.0
 11
344.97266308736369
 21
309.31341583041637
 31
0.0
  0
ARC
  5
55D8
  8
AM_0
 10
347.97266308736369
 20
248.1634198304163
 30
0.0
 40
5.0000001000000003
 50
270.0
 51
0.0
  0
LINE
  5
55D9
  8
AM_0
 10
304.97270308736353
 20
339.3959818304163
 30
0.0
 11
348.10358308736369
 21
338.26654183041637
 31
0.0
  0
LINE
  5
55DA
  8
AM_0
 10
320.97266308736369
 20
322.91740183041628
 30
0.0
 11
347.97266308736369
 21
322.91740183041628
 31
0.0
  0
LINE
  5
55DB
  8
AM_0
 10
272.97269308736361
 20
335.39599183041639
 30
0.0
 11
280.97270308736353
 21
335.39599183041639
 31
0.0
  0
LINE
  5
55DC
  8
AM_0
 10
272.97269308736361
 20
325.39600183041642
 30
0.0
 11
280.97270308736353
 21
325.39600183041642
 31
0.0
  0
LINE
  5
55DD
  8
AM_0
 10
267.51323308736357
 20
332.39599183041639
 30
0.0
 11
272.97269308736361
 21
332.39599183041639
 31
0.0
  0
ARC
  5
55DE
  8
AM_0
 10
265.09886308736361
 20
333.67927183041638
 30
0.0
 40
2.00000007
 50
15.000000000000741
 51
90.00000299999769
  0
ARC
  5
55DF
  8
AM_0
 10
272.62370308736371
 20
319.1190118304163
 30
0.0
 40
1.5000000299999989
 50
195.00001000000131
 51
270.0
  0
LINE
  5
55E0
  8
AM_0
 10
271.17485308736349
 20
318.73081183041643
 30
0.0
 11
267.03068308736363
 21
334.19689183041618
 31
0.0
  0
ARC
  5
55E1
  8
AM_0
 10
316.97270308736353
 20
327.6179518304163
 30
0.0
 40
1.0000000199999981
 50
90.00000299999769
 51
180.00001000000091
  0
ARC
  5
55E2
  8
AM_0
 10
297.47270308736353
 20
337.32859183041643
 30
0.0
 40
1.5000000299999989
 50
271.49999999999608
 51
0.0
  0
ARC
  5
55E3
  8
AM_0
 10
300.47270308736353
 20
337.77766183041638
 30
0.0
 40
1.5000000299999989
 50
91.500001000001546
 51
180.00001000000091
  0
LINE
  5
55E4
  8
AM_0
 10
300.43346308736358
 20
339.27715183041641
 30
0.0
 11
304.97270308736353
 21
339.39604183041638
 31
0.0
  0
LINE
  5
55E5
  8
AM_0
 10
280.97270308736353
 20
335.39599183041639
 30
0.0
 11
297.51194308736359
 21
335.82910183041628
 31
0.0
  0
LINE
  5
55E6
  8
AM_0
 10
280.97270308736353
 20
325.39600183041642
 30
0.0
 11
298.97270308736341
 21
325.39600183041642
 31
0.0
  0
ARC
  5
55E7
  8
AM_0
 10
316.97270308736353
 20
329.61799183041637
 30
0.0
 40
1.0000000199999981
 50
270.0
 51
0.0
  0
ARC
  5
55E8
  8
AM_0
 10
319.97270308736353
 20
322.52149183041638
 30
0.0
 40
1.0000000199999981
 50
0.0
 51
90.00000299999769
  0
ARC
  5
55E9
  8
AM_0
 10
319.97270308736353
 20
319.63471183041639
 30
0.0
 40
1.0000000199999981
 50
0.0
 51
90.00000299999769
  0
ARC
  5
55EA
  8
AM_0
 10
319.97270308736353
 20
321.63469183041639
 30
0.0
 40
1.0000000199999981
 50
270.0
 51
0.0
  0
ARC
  5
55EB
  8
AM_0
 10
319.97270308736353
 20
315.8612218304163
 30
0.0
 40
1.0000000199999981
 50
270.0
 51
0.0
  0
LINE
  5
55EC
  8
AM_0
 10
315.97271308736367
 20
324.02146183041629
 30
0.0
 11
316.97270308736353
 21
324.02146183041629
 31
0.0
  0
LINE
  5
55ED
  8
AM_0
 10
289.97270308736353
 20
323.39599183041639
 30
0.0
 11
298.97270308736341
 21
323.39599183041639
 31
0.0
  0
LINE
  5
55EE
  8
AM_0
 10
289.97270308736353
 20
322.00285183041638
 30
0.0
 11
315.97271308736367
 21
322.00285183041638
 31
0.0
  0
LINE
  5
55EF
  8
AM_0
 10
316.97270308736353
 20
320.63470183041642
 30
0.0
 11
319.97270308736353
 21
320.63470183041642
 31
0.0
  0
LINE
  5
55F0
  8
AM_0
 10
316.97270308736353
 20
314.86117783041641
 30
0.0
 11
319.97270308736353
 21
314.86117783041641
 31
0.0
  0
LINE
  5
55F1
  8
AM_0
 10
316.97270308736353
 20
323.52145183041642
 30
0.0
 11
319.97270308736353
 21
323.52145183041642
 31
0.0
  0
LINE
  5
55F2
  8
AM_0
 10
330.37271308736348
 20
322.91740183041628
 30
0.0
 11
317.97275308736351
 21
339.0555718304164
 31
0.0
  0
LINE
  5
55F3
  8
AM_0
 10
317.97266308736369
 20
338.95084183041638
 30
0.0
 11
317.97266308736369
 21
323.52145183041642
 31
0.0
  0
LINE
  5
55F4
  8
AM_0
 10
298.97270308736341
 20
337.77766183041638
 30
0.0
 11
298.97270308736341
 21
323.39599183041639
 31
0.0
  0
ARC
  5
55F5
  8
AM_0
 10
363.97271308736367
 20
317.4225118304164
 30
0.0
 40
1.0000000199999981
 50
179.999989999999
 51
269.99828112664488
  0
ARC
  5
55F6
  8
AM_0
 10
360.97271308736367
 20
324.39601183041628
 30
0.0
 40
2.00000007
 50
0.0
 51
90.00000299999769
  0
ARC
  5
55F7
  8
AM_0
 10
347.97266308736369
 20
333.26830183041642
 30
0.0
 40
5.0000001000000003
 50
0.0
 51
88.499997000000747
  0
ARC
  5
55F8
  8
AM_0
 10
347.97266308736369
 20
317.91739183041642
 30
0.0
 40
5.0000001000000003
 50
0.0
 51
90.00000299999769
  0
ARC
  5
55F9
  8
AM_0
 10
357.97271308736367
 20
331.39597183041627
 30
0.0
 40
5.0000001000000003
 50
180.00001000000091
 51
270.0
  0
LINE
  5
55FA
  8
AM_0
 10
357.97271308736367
 20
326.39599183041639
 30
0.0
 11
360.97271308736367
 21
326.39599183041639
 31
0.0
  0
LINE
  5
55FB
  8
AM_0
 10
658.30981263677143
 20
314.86120783041639
 30
0.0
 11
663.3098136367712
 21
311.97445783041638
 31
0.0
  0
CIRCLE
  5
55FC
  8
AM_0
 10
663.3098136367712
 20
317.7479518304163
 30
0.0
 40
4.9999998000000003
  0
LINE
  5
55FD
  8
AM_0
 10
663.30982863677127
 20
311.97445783041638
 30
0.0
 11
668.30982963677116
 21
314.86120783041639
 31
0.0
  0
ARC
  5
55FE
  8
AM_0
 10
664.89652863677145
 20
318.96547183041628
 30
0.0
 40
11.000000399999999
 50
149.8422100000013
 51
285.1636500000003
  0
LINE
  5
55FF
  8
AM_0
 10
558.34730163677125
 20
314.86120783041639
 30
0.0
 11
563.34729963677125
 21
311.97445783041638
 31
0.0
  0
LINE
  5
5600
  8
AM_0
 10
563.34729963677125
 20
311.97448783041642
 30
0.0
 11
568.34730063677125
 21
314.86123783041643
 31
0.0
  0
CIRCLE
  5
5601
  8
AM_0
 10
563.34729963677125
 20
317.7479518304163
 30
0.0
 40
4.9999998000000003
  0
ARC
  5
5602
  8
AM_0
 10
561.76059963677119
 20
318.96547183041628
 30
0.0
 40
11.000000399999999
 50
254.8363599999997
 51
30.157795000006761
  0
ARC
  5
5603
  8
AM_0
 10
653.32856463677138
 20
309.39599683041638
 30
0.0
 40
20.000000700000001
 50
6.4023797999986547
 51
61.92751500000066
  0
ARC
  5
5604
  8
AM_0
 10
613.32856563677126
 20
283.89599683041638
 30
0.0
 40
42.500000999999997
 50
0.0
 51
180.00001000000091
  0
LINE
  5
5605
  8
ﾁｭｳｼﾝｾﾝ
 10
613.32856563677126
 20
208.3253210197739
 30
0.0
 11
613.32856563677126
 21
345.7597801976159
 31
0.0
  0
LINE
  5
5606
  8
AM_0
 10
547.32856563677126
 20
257.04341277626452
 30
0.0
 11
547.32856563677126
 21
309.39599683041632
 31
0.0
  0
ARC
  5
5607
  8
AM_0
 10
573.32856363677115
 20
309.39599683041638
 30
0.0
 40
20.000000700000001
 50
118.0724799999965
 51
173.59761999999901
  0
LINE
  5
5608
  8
AM_0
 10
643.32856563677149
 20
230.89598083041639
 30
0.0
 11
583.32856263677115
 21
230.89598083041639
 31
0.0
  0
LINE
  5
5609
  8
AM_0
 10
652.32856563677149
 20
212.39599483041641
 30
0.0
 11
613.32856563677126
 21
212.39599483041641
 31
0.0
  0
LINE
  5
560A
  8
ﾁｭｳｼﾝｾﾝ
 10
679.57188517316513
 20
279.39599683041638
 30
0.0
 11
496.15980697763058
 21
279.39599683041638
 31
0.0
  0
ARC
  5
560B
  8
AM_0
 10
622.31466363677134
 20
227.89598083041639
 30
0.0
 40
3.0
 50
90.00000299999769
 51
183.18473999999989
  0
ARC
  5
560C
  8
AM_0
 10
604.34244963677122
 20
227.89598083041639
 30
0.0
 40
3.0
 50
356.81526000000008
 51
90.00000299999769
  0
ARC
  5
560D
  8
AM_0
 10
613.32856563677126
 20
227.3959948304163
 30
0.0
 40
6.0000002999999991
 50
176.81527000000079
 51
3.184735999998189
  0
ARC
  5
560E
  8
AM_0
 10
583.32856263677115
 20
225.8959948304163
 30
0.0
 40
5.0000001000000003
 50
90.00000299999769
 51
180.00001000000091
  0
LINE
  5
560F
  8
AM_0
 10
570.82856463677138
 20
283.89599683041638
 30
0.0
 11
570.82856463677138
 21
224.3959948304163
 31
0.0
  0
LINE
  5
5610
  8
AM_0
 10
543.32856663677148
 20
221.39597983041639
 30
0.0
 11
553.45329663677148
 21
311.62616083041632
 31
0.0
  0
LINE
  5
5611
  8
AM_0
 10
543.32859663677141
 20
221.3959648304164
 30
0.0
 11
554.0762466367712
 21
288.83843983041641
 31
0.0
  0
ARC
  5
5612
  8
AM_0
 10
575.32856463677138
 20
216.89599483041641
 30
0.0
 40
3.0
 50
270.0
 51
0.0
  0
LINE
  5
5613
  8
AM_0
 10
574.32856263677115
 20
212.39599483041641
 30
0.0
 11
613.32856563677126
 21
212.39599483041641
 31
0.0
  0
ARC
  5
5614
  8
AM_0
 10
567.82856163677138
 20
224.3959948304163
 30
0.0
 40
3.0
 50
270.0
 51
0.0
  0
LINE
  5
5615
  8
AM_0
 10
544.82886663682973
 20
221.39599483041641
 30
0.0
 11
571.32856263677127
 21
221.39599483041641
 31
0.0
  0
ARC
  5
5616
  8
AM_0
 10
574.32856263677115
 20
212.89598083041639
 30
0.0
 40
1.0000000199999981
 50
90.00000299999769
 51
180.00001000000091
  0
ARC
  5
5617
  8
AM_0
 10
574.32856263677115
 20
211.39598083041631
 30
0.0
 40
1.0000000199999981
 50
90.00000299999769
 51
180.00001000000091
  0
LINE
  5
5618
  8
AM_0
 10
573.32856363677115
 20
219.3959938304163
 30
0.0
 11
573.32856363677115
 21
211.39598083041631
 31
0.0
  0
LINE
  5
5619
  8
AM_0
 10
574.32856263677115
 20
213.89599483041641
 30
0.0
 11
575.32856463677138
 21
213.89599483041641
 31
0.0
  0
ARC
  5
561A
  8
AM_0
 10
571.32856263677127
 20
219.3959938304163
 30
0.0
 40
2.00000007
 50
0.0
 51
90.00000299999769
  0
LINE
  5
561B
  8
ｶｸﾚｾﾝ2
 10
560.82856263677115
 20
221.39599483041641
 30
0.0
 11
560.82856263677115
 21
211.39598083041631
 31
0.0
  0
ARC
  5
561C
  8
AM_0
 10
544.82856663677148
 20
219.89599483041641
 30
0.0
 40
1.5000000299999989
 50
90.00000299999769
 51
180.00001000000091
  0
LINE
  5
561D
  8
ｶｸﾚｾﾝ2
 10
550.82856663677126
 20
221.39599483041641
 30
0.0
 11
550.82856663677126
 21
211.39598083041631
 31
0.0
  0
LINE
  5
561E
  8
AM_0
 10
543.32856663677148
 20
221.39599483041641
 30
0.0
 11
543.32856663677148
 21
211.39598083041631
 31
0.0
  0
LINE
  5
561F
  8
AM_0
 10
543.32856663677148
 20
211.39598083041631
 30
0.0
 11
573.32856363677115
 21
211.39598083041631
 31
0.0
  0
LINE
  5
5620
  8
AM_0
 10
642.43761963677116
 20
224.0783218304164
 30
0.0
 11
637.43761863677128
 21
226.96507183041629
 31
0.0
  0
LINE
  5
5621
  8
AM_0
 10
637.43761863677128
 20
215.41807483041629
 30
0.0
 11
642.43763463677135
 21
218.30482483041641
 31
0.0
  0
LINE
  5
5622
  8
AM_0
 10
642.43761963677116
 20
218.30482483041641
 30
0.0
 11
642.43761963677116
 21
224.07835183041641
 31
0.0
  0
LINE
  5
5623
  8
AM_0
 10
632.4376056367712
 20
224.07835183041641
 30
0.0
 11
632.4376056367712
 21
218.30482483041641
 31
0.0
  0
LINE
  5
5624
  8
AM_0
 10
594.21949263677118
 20
224.0783218304164
 30
0.0
 11
589.21949463677129
 21
226.96507183041629
 31
0.0
  0
LINE
  5
5625
  8
AM_0
 10
589.21952463677121
 20
226.96507183041629
 30
0.0
 11
584.21952363677144
 21
224.0783218304164
 31
0.0
  0
LINE
  5
5626
  8
AM_0
 10
589.21952463677121
 20
215.41807483041629
 30
0.0
 11
594.21952563677144
 21
218.30482483041641
 31
0.0
  0
LINE
  5
5627
  8
AM_0
 10
584.21949363677129
 20
218.30482483041641
 30
0.0
 11
589.21949463677129
 21
215.41807483041629
 31
0.0
  0
LINE
  5
5628
  8
AM_0
 10
594.21949263677118
 20
218.30482483041641
 30
0.0
 11
594.21949263677118
 21
224.07835183041641
 31
0.0
  0
LINE
  5
5629
  8
AM_0
 10
578.32856463677138
 20
225.8959948304163
 30
0.0
 11
578.32856463677138
 21
216.89599483041641
 31
0.0
  0
LINE
  5
562A
  8
AM_0
 10
584.21952363677144
 20
224.07835183041641
 30
0.0
 11
584.21952363677144
 21
218.30482483041641
 31
0.0
  0
CIRCLE
  5
562B
  8
AM_0
 10
589.21949463677129
 20
221.1916048304164
 30
0.0
 40
4.9999998000000003
  0
CIRCLE
  5
562C
  8
AM_0
 10
637.43761863677128
 20
221.1916048304164
 30
0.0
 40
4.9999998000000003
  0
LINE
  5
562D
  8
AM_0
 10
632.43762063677138
 20
218.30482483041641
 30
0.0
 11
637.43761863677128
 21
215.41807483041629
 31
0.0
  0
LINE
  5
562E
  8
AM_0
 10
637.43763363677135
 20
226.9650868304164
 30
0.0
 11
632.43762063677138
 21
224.07833683041639
 31
0.0
  0
ARC
  5
562F
  8
AM_0
 10
562.3926186367712
 20
304.97973883041641
 30
0.0
 40
3.0
 50
92.587449000000944
 51
153.3308500000023
  0
ARC
  5
5630
  8
AM_0
 10
566.32856163677138
 20
303.63140983041637
 30
0.0
 40
5.0000001000000003
 50
106.5886100000033
 51
180.00001000000091
  0
LINE
  5
5631
  8
AM_0
 10
561.32856363677115
 20
303.63140983041637
 30
0.0
 11
561.32856363677115
 21
261.39599683041638
 31
0.0
  0
ARC
  5
5632
  8
AM_0
 10
593.32856463677115
 20
261.39599683041638
 30
0.0
 40
32.000000999999997
 50
179.999989999999
 51
225.32174000000001
  0
LINE
  5
5633
  8
AM_0
 10
553.20303663677134
 20
309.39599683041638
 30
0.0
 11
545.32856563677149
 21
309.39599683041638
 31
0.0
  0
ARC
  5
5634
  8
AM_0
 10
613.32856563677126
 20
279.39599683041638
 30
0.0
 40
60.000002999999992
 50
171.12479000000289
 51
172.44926000000231
  0
ARC
  5
5635
  8
AM_0
 10
557.57538963677121
 20
303.52255483041642
 30
0.0
 40
5.0000001000000003
 50
74.836353999996945
 51
173.59761999999901
  0
ARC
  5
5636
  8
AM_0
 10
613.32856563677126
 20
279.39599683041638
 30
0.0
 40
60.000002999999992
 50
153.3308500000023
 51
170.94546000000039
  0
LINE
  5
5637
  8
AM_0
 10
616.32856563677137
 20
302.39599783041638
 30
0.0
 11
616.32856563677137
 21
308.39599783041638
 31
0.0
  0
CIRCLE
  5
5638
  8
AM_0
 10
613.32856563677126
 20
296.39599783041638
 30
0.0
 40
2.4999998400000001
  0
LINE
  5
5639
  8
AM_0
 10
610.32856563677149
 20
308.39599783041638
 30
0.0
 11
610.32856563677149
 21
302.39599783041638
 31
0.0
  0
LINE
  5
563A
  8
AM_0
 10
610.32856563677149
 20
302.39599783041638
 30
0.0
 11
616.32856563677137
 21
302.39599783041638
 31
0.0
  0
LINE
  5
563B
  8
AM_0
 10
616.32856563677137
 20
308.39599783041638
 30
0.0
 11
610.32856563677149
 21
308.39599783041638
 31
0.0
  0
CIRCLE
  5
563C
  8
AM_4
 10
613.32856563677126
 20
296.39599783041638
 30
0.0
 40
3.0
  0
ARC
  5
563D
  8
AM_0
 10
613.32856563677126
 20
296.39599783041638
 30
0.0
 40
9.5000003999999993
 50
108.40848
 51
71.591512000000776
  0
LINE
  5
563E
  8
ﾁｭｳｼﾝｾﾝ
 10
570.35174968641377
 20
296.39599783041638
 30
0.0
 11
656.30538158712932
 21
296.39599783041638
 31
0.0
  0
ARC
  5
563F
  8
AM_0
 10
643.32856563677149
 20
225.8959948304163
 30
0.0
 40
5.0000001000000003
 50
0.0
 51
90.00000299999769
  0
LINE
  5
5640
  8
AM_0
 10
683.32855263677129
 20
221.39597983041639
 30
0.0
 11
673.20382563677128
 21
311.62619083041642
 31
0.0
  0
LINE
  5
5641
  8
AM_0
 10
683.32856763677125
 20
221.3959648304164
 30
0.0
 11
672.58089963677116
 21
288.83843983041641
 31
0.0
  0
LINE
  5
5642
  8
AM_0
 10
655.82855163677118
 20
283.89599683041638
 30
0.0
 11
655.82855163677118
 21
224.3959948304163
 31
0.0
  0
ARC
  5
5643
  8
AM_0
 10
681.82856763677137
 20
219.89599483041641
 30
0.0
 40
1.5000000299999989
 50
0.0
 51
90.00000299999769
  0
LINE
  5
5644
  8
AM_0
 10
683.32856763677125
 20
221.39599483041641
 30
0.0
 11
683.32856763677125
 21
211.39598083041631
 31
0.0
  0
ARC
  5
5645
  8
AM_0
 10
658.82855163677118
 20
224.3959948304163
 30
0.0
 40
3.0
 50
179.999989999999
 51
270.0
  0
LINE
  5
5646
  8
AM_0
 10
681.8282676367686
 20
221.39599483041641
 30
0.0
 11
655.32856563677126
 21
221.39599483041641
 31
0.0
  0
ARC
  5
5647
  8
AM_0
 10
652.32856563677149
 20
212.89598083041639
 30
0.0
 40
1.0000000199999981
 50
0.0
 51
90.00000299999769
  0
ARC
  5
5648
  8
AM_0
 10
652.32856563677149
 20
211.39598083041631
 30
0.0
 40
1.0000000199999981
 50
0.0
 51
90.00000299999769
  0
LINE
  5
5649
  8
AM_0
 10
652.32856563677149
 20
213.89599483041641
 30
0.0
 11
651.32855163677118
 21
213.89599483041641
 31
0.0
  0
LINE
  5
564A
  8
AM_0
 10
653.32856463677138
 20
211.39598083041631
 30
0.0
 11
653.32856463677138
 21
219.3959938304163
 31
0.0
  0
ARC
  5
564B
  8
AM_0
 10
651.32855163677118
 20
216.89599483041641
 30
0.0
 40
3.0
 50
179.999989999999
 51
270.0
  0
LINE
  5
564C
  8
ﾁｭｳｼﾝｾﾝ1
 10
670.82855163677129
 20
226.39599483041641
 30
0.0
 11
670.82855163677129
 21
206.39598083041639
 31
0.0
  0
LINE
  5
564D
  8
ｶｸﾚｾﾝ2
 10
665.82856563677115
 20
221.39599483041641
 30
0.0
 11
665.82856563677115
 21
211.39598083041631
 31
0.0
  0
LINE
  5
564E
  8
ｶｸﾚｾﾝ2
 10
675.82856763677125
 20
221.39599483041641
 30
0.0
 11
675.82856763677125
 21
211.39598083041631
 31
0.0
  0
ARC
  5
564F
  8
AM_0
 10
655.32856563677126
 20
219.3959938304163
 30
0.0
 40
2.00000007
 50
90.00000299999769
 51
180.00001000000091
  0
LINE
  5
5650
  8
AM_0
 10
648.32855163677129
 20
225.8959948304163
 30
0.0
 11
648.32855163677129
 21
216.89599483041641
 31
0.0
  0
LINE
  5
5651
  8
AM_0
 10
683.32856763677125
 20
211.39598083041631
 30
0.0
 11
653.32856463677138
 21
211.39598083041631
 31
0.0
  0
ARC
  5
5652
  8
AM_0
 10
669.0817566367715
 20
303.52255483041642
 30
0.0
 40
5.0000001000000003
 50
6.4023797999986547
 51
105.1636400000003
  0
ARC
  5
5653
  8
AM_0
 10
660.32855163677118
 20
303.63140983041637
 30
0.0
 40
5.0000001000000003
 50
0.0
 51
73.411385000001786
  0
ARC
  5
5654
  8
AM_0
 10
664.26452463677117
 20
304.97973883041641
 30
0.0
 40
3.0
 50
26.66915700000234
 51
87.412549000002571
  0
LINE
  5
5655
  8
AM_0
 10
665.32856463677115
 20
303.63140983041637
 30
0.0
 11
665.32856463677115
 21
261.39599683041638
 31
0.0
  0
ARC
  5
5656
  8
AM_0
 10
613.32856563677126
 20
279.39599683041638
 30
0.0
 40
60.000002999999992
 50
9.0545419000017677
 51
26.66915700000234
  0
ARC
  5
5657
  8
AM_0
 10
633.32854863677142
 20
261.39599683041638
 30
0.0
 40
32.000000999999997
 50
314.67826000000002
 51
0.0
  0
ARC
  5
5658
  8
AM_0
 10
613.32856563677126
 20
234.3959938304163
 30
0.0
 40
105.00000300000001
 50
61.92751500000066
 51
118.0724799999965
  0
ARC
  5
5659
  8
AM_0
 10
613.32856563677126
 20
279.39599683041638
 30
0.0
 40
60.000002999999992
 50
48.330844999997282
 51
131.66915000000401
  0
ARC
  5
565A
  8
AM_0
 10
575.43336063677145
 20
321.97477183041627
 30
0.0
 40
3.0
 50
131.66915000000401
 51
192.4125499999968
  0
LINE
  5
565B
  8
AM_0
 10
568.34730063677125
 20
314.86120783041639
 30
0.0
 11
568.34730063677125
 21
320.63470183041642
 31
0.0
  0
LINE
  5
565C
  8
AM_0
 10
558.34730163677125
 20
320.63470183041642
 30
0.0
 11
558.34730163677125
 21
314.86120783041639
 31
0.0
  0
LINE
  5
565D
  8
AM_0
 10
563.34729963677125
 20
323.52148183041641
 30
0.0
 11
558.34730163677125
 21
320.63473183041629
 31
0.0
  0
LINE
  5
565E
  8
AM_0
 10
568.34727063677144
 20
320.63470183041642
 30
0.0
 11
563.34729963677125
 21
323.52145183041642
 31
0.0
  0
ARC
  5
565F
  8
AM_0
 10
575.59491963677146
 20
327.00364183041631
 30
0.0
 40
5.0000001000000003
 50
112.1688000000035
 51
210.1577899999985
  0
LINE
  5
5660
  8
AM_0
 10
637.82858163677145
 20
336.49765183041637
 30
0.0
 11
637.82858163677145
 21
338.46394183041639
 31
0.0
  0
LINE
  5
5661
  8
AM_0
 10
627.82856463677115
 20
338.38996183041638
 30
0.0
 11
627.82856463677115
 21
340.44502183041618
 31
0.0
  0
LINE
  5
5662
  8
AM_0
 10
617.82856563677126
 20
339.22702183041628
 30
0.0
 11
617.82856563677126
 21
341.39599183041639
 31
0.0
  0
LINE
  5
5663
  8
AM_0
 10
608.82856563677126
 20
339.22702183041628
 30
0.0
 11
608.82856563677126
 21
341.39599183041639
 31
0.0
  0
LINE
  5
5664
  8
AM_0
 10
598.82856363677115
 20
338.38996183041638
 30
0.0
 11
598.82856363677115
 21
340.44502183041618
 31
0.0
  0
LINE
  5
5665
  8
AM_0
 10
588.82856463677115
 20
336.49765183041637
 30
0.0
 11
588.82856463677115
 21
338.46394183041639
 31
0.0
  0
LINE
  5
5666
  8
AM_0
 10
578.82856263677115
 20
333.56629183041639
 30
0.0
 11
578.82856263677115
 21
335.38789183041638
 31
0.0
  0
LINE
  5
5667
  8
AM_0
 10
647.82856563677149
 20
333.56629183041639
 30
0.0
 11
647.82856563677149
 21
335.38789183041638
 31
0.0
  0
LINE
  5
5668
  8
AM_0
 10
668.30982963677116
 20
314.86120783041639
 30
0.0
 11
668.30982963677116
 21
320.63470183041642
 31
0.0
  0
LINE
  5
5669
  8
AM_0
 10
663.30982863677127
 20
323.52145183041642
 30
0.0
 11
658.30982763677127
 21
320.63470183041642
 31
0.0
  0
LINE
  5
566A
  8
AM_0
 10
658.30981263677143
 20
320.63470183041642
 30
0.0
 11
658.30981263677143
 21
314.86120783041639
 31
0.0
  0
LINE
  5
566B
  8
AM_0
 10
668.3098116367712
 20
320.63470183041642
 30
0.0
 11
663.3098136367712
 21
323.52145183041642
 31
0.0
  0
ARC
  5
566C
  8
AM_0
 10
651.22376763677141
 20
321.97477183041627
 30
0.0
 40
3.0
 50
347.58745000000312
 51
48.330844999997282
  0
ARC
  5
566D
  8
AM_0
 10
651.0622086367714
 20
327.00364183041631
 30
0.0
 40
5.0000001000000003
 50
329.84219999999971
 51
67.831202999997402
  0
LINE
  5
566E
  8
AM_0
 10
265.97269308736372
 20
233.39599683041629
 30
0.0
 11
177.97269308736361
 21
233.39599683041629
 31
0.0
  0
ARC
  5
566F
  8
AM_0
 10
196.043760899229
 20
238.39599683041629
 30
0.0
 40
5.0
 50
225.0
 51
270.0
1001
GENIUS_GENOBJ-N-FIL_13
1002
{
1000
OWNER
1000
GEN
1002
}
1001
GENIUS_GENODEF_13
1002
{
1000
HIER
1070
     0
1002
}
1002
{
1000
MANEDIT
1070
     0
1002
}
1002
{
1000
NOSEL
1070
     0
1002
}
1002
{
1000
BEHIND
1070
     0
1002
}
1002
{
1000
OTHER
1070
     0
1002
}
1002
{
1000
REACTOR
1002
}
  0
LINE
  5
5670
  8
AM_0
 10
247.24477102600591
 20
238.39599683041629
 30
0.0
 11
196.70061514872131
 21
238.39599683041629
 31
0.0
  0
ARC
  5
5671
  8
AM_0
 10
247.24477102600591
 20
243.39599683041629
 30
0.0
 40
5.0
 50
270.0
 51
315.0
1001
GENIUS_GENOBJ-N-FIL_13
1002
{
1000
OWNER
1000
GEN
1002
}
1001
GENIUS_GENODEF_13
1002
{
1000
HIER
1070
     0
1002
}
1002
{
1000
MANEDIT
1070
     0
1002
}
1002
{
1000
NOSEL
1070
     0
1002
}
1002
{
1000
BEHIND
1070
     0
1002
}
1002
{
1000
OTHER
1070
     0
1002
}
1002
{
1000
REACTOR
1002
}
  0
ARC
  5
5672
  8
AM_0
 10
265.97269308736372
 20
237.39599683041629
 30
0.0
 40
4.0
 50
270.0
 51
0.0
1001
GENIUS_GENOBJ-N-FIL_13
1002
{
1000
OWNER
1000
GEN
1002
}
1001
GENIUS_GENODEF_13
1002
{
1000
HIER
1070
     0
1002
}
1002
{
1000
MANEDIT
1070
     0
1002
}
1002
{
1000
NOSEL
1070
     0
1002
}
1002
{
1000
BEHIND
1070
     0
1002
}
1002
{
1000
OTHER
1070
     0
1002
}
1002
{
1000
REACTOR
1002
}
  0
LINE
  5
5673
  8
AM_0
 10
265.9726930873635
 20
325.39599683041649
 30
0.0
 11
177.97269308736361
 21
325.39599683041638
 31
0.0
  0
ARC
  5
5674
  8
AM_0
 10
247.90162527549811
 20
320.39599683041649
 30
0.0
 40
5.0
 50
45.0
 51
90.0
1001
GENIUS_GENOBJ-N-FIL_13
1002
{
1000
OWNER
1000
GEN
1002
}
1001
GENIUS_GENODEF_13
1002
{
1000
HIER
1070
     0
1002
}
1002
{
1000
MANEDIT
1070
     0
1002
}
1002
{
1000
NOSEL
1070
     0
1002
}
1002
{
1000
BEHIND
1070
     0
1002
}
1002
{
1000
OTHER
1070
     0
1002
}
1002
{
1000
REACTOR
1002
}
  0
ARC
  5
5675
  8
AM_0
 10
196.0437608992292
 20
320.39599683041649
 30
0.0
 40
5.0
 50
90.0
 51
135.0
1001
GENIUS_GENODEF_13
1002
{
1000
HIER
1070
     0
1002
}
1002
{
1000
MANEDIT
1070
     0
1002
}
1002
{
1000
NOSEL
1070
     0
1002
}
1002
{
1000
BEHIND
1070
     0
1002
}
1002
{
1000
OTHER
1070
     0
1002
}
1002
{
1000
REACTOR
1002
}
1001
GENIUS_GENOBJ-N-FIL_13
1002
{
1000
OWNER
1000
GEN
1002
}
  0
LINE
  5
5676
  8
AM_0
 10
247.24477102600571
 20
320.39599683041649
 30
0.0
 11
196.7006151487214
 21
320.39599683041649
 31
0.0
  0
ARC
  5
5677
  8
AM_0
 10
196.7006151487214
 20
315.39599683041649
 30
0.0
 40
5.0
 50
90.0
 51
135.0
1001
GENIUS_GENODEF_13
1002
{
1000
HIER
1070
     0
1002
}
1002
{
1000
MANEDIT
1070
     0
1002
}
1002
{
1000
NOSEL
1070
     0
1002
}
1002
{
1000
BEHIND
1070
     0
1002
}
1002
{
1000
OTHER
1070
     0
1002
}
1002
{
1000
REACTOR
1002
}
1001
GENIUS_GENOBJ-N-FIL_13
1002
{
1000
OWNER
1000
GEN
1002
}
  0
ARC
  5
5678
  8
AM_0
 10
177.97269308736361
 20
321.39599683041638
 30
0.0
 40
4.0
 50
90.0
 51
180.0
1001
GENIUS_GENODEF_13
1002
{
1000
HIER
1070
     0
1002
}
1002
{
1000
MANEDIT
1070
     0
1002
}
1002
{
1000
NOSEL
1070
     0
1002
}
1002
{
1000
BEHIND
1070
     0
1002
}
1002
{
1000
OTHER
1070
     0
1002
}
1002
{
1000
REACTOR
1002
}
1001
GENIUS_GENOBJ-N-FIL_13
1002
{
1000
OWNER
1000
GEN
1002
}
  0
LINE
  5
5679
  8
AM_0
 10
173.97269308736361
 20
321.39599683041638
 30
0.0
 11
173.97269308736361
 21
237.39599683041629
 31
0.0
  0
ARC
  5
567A
  8
AM_0
 10
178.97269308736361
 20
255.4670646422816
 30
0.0
 40
5.0
 50
180.0
 51
225.0
1001
GENIUS_GENOBJ-N-FIL_13
1002
{
1000
OWNER
1000
GEN
1002
}
1001
GENIUS_GENODEF_13
1002
{
1000
HIER
1070
     0
1002
}
1002
{
1000
MANEDIT
1070
     0
1002
}
1002
{
1000
NOSEL
1070
     0
1002
}
1002
{
1000
BEHIND
1070
     0
1002
}
1002
{
1000
OTHER
1070
     0
1002
}
1002
{
1000
REACTOR
1002
}
  0
ARC
  5
567B
  8
AM_0
 10
178.97269308736361
 20
303.32492901855119
 30
0.0
 40
5.0
 50
135.0
 51
180.0
1001
GENIUS_GENOBJ-N-FIL_13
1002
{
1000
OWNER
1000
GEN
1002
}
1001
GENIUS_GENODEF_13
1002
{
1000
HIER
1070
     0
1002
}
1002
{
1000
MANEDIT
1070
     0
1002
}
1002
{
1000
NOSEL
1070
     0
1002
}
1002
{
1000
BEHIND
1070
     0
1002
}
1002
{
1000
OTHER
1070
     0
1002
}
1002
{
1000
REACTOR
1002
}
  0
LINE
  5
567C
  8
AM_0
 10
178.97269308736361
 20
302.66807476905859
 30
0.0
 11
178.9726930873635
 21
256.123918891774
 31
0.0
  0
ARC
  5
567D
  8
AM_0
 10
183.9726930873635
 20
256.123918891774
 30
0.0
 40
5.0
 50
180.0
 51
225.0
1001
GENIUS_GENOBJ-N-FIL_13
1002
{
1000
OWNER
1000
GEN
1002
}
1001
GENIUS_GENODEF_13
1002
{
1000
HIER
1070
     0
1002
}
1002
{
1000
MANEDIT
1070
     0
1002
}
1002
{
1000
NOSEL
1070
     0
1002
}
1002
{
1000
BEHIND
1070
     0
1002
}
1002
{
1000
OTHER
1070
     0
1002
}
1002
{
1000
REACTOR
1002
}
  0
ARC
  5
567E
  8
AM_0
 10
177.97269308736361
 20
237.39599683041629
 30
0.0
 40
4.0
 50
180.0
 51
270.0
1001
GENIUS_GENODEF_13
1002
{
1000
HIER
1070
     0
1002
}
1002
{
1000
MANEDIT
1070
     0
1002
}
1002
{
1000
NOSEL
1070
     0
1002
}
1002
{
1000
BEHIND
1070
     0
1002
}
1002
{
1000
OTHER
1070
     0
1002
}
1002
{
1000
REACTOR
1002
}
1001
GENIUS_GENOBJ-N-FIL_13
1002
{
1000
OWNER
1000
GEN
1002
}
  0
LINE
  5
567F
  8
AM_0
 10
269.97269308736361
 20
321.39599683041649
 30
0.0
 11
269.97269308736372
 21
237.39599683041629
 31
0.0
  0
ARC
  5
5680
  8
AM_0
 10
264.97269308736372
 20
303.32492901855107
 30
0.0
 40
5.0
 50
0.0
 51
45.0
1001
GENIUS_GENOBJ-N-FIL_13
1002
{
1000
OWNER
1000
GEN
1002
}
1001
GENIUS_GENODEF_13
1002
{
1000
HIER
1070
     0
1002
}
1002
{
1000
MANEDIT
1070
     0
1002
}
1002
{
1000
NOSEL
1070
     0
1002
}
1002
{
1000
BEHIND
1070
     0
1002
}
1002
{
1000
OTHER
1070
     0
1002
}
1002
{
1000
REACTOR
1002
}
  0
ARC
  5
5681
  8
AM_0
 10
264.97269308736372
 20
255.46706464228171
 30
0.0
 40
5.0
 50
315.0
 51
0.0
1001
GENIUS_GENOBJ-N-FIL_13
1002
{
1000
OWNER
1000
GEN
1002
}
1001
GENIUS_GENODEF_13
1002
{
1000
HIER
1070
     0
1002
}
1002
{
1000
MANEDIT
1070
     0
1002
}
1002
{
1000
NOSEL
1070
     0
1002
}
1002
{
1000
BEHIND
1070
     0
1002
}
1002
{
1000
OTHER
1070
     0
1002
}
1002
{
1000
REACTOR
1002
}
  0
LINE
  5
5682
  8
AM_0
 10
251.43715918143079
 20
323.9315307363492
 30
0.0
 11
268.50822699329638
 21
306.86046292448378
 31
0.0
  0
LINE
  5
5683
  8
AM_0
 10
250.78030493193839
 20
318.9315307363492
 30
0.0
 11
263.50822699329609
 21
306.20360867499147
 31
0.0
  0
ARC
  5
5684
  8
AM_0
 10
247.24477102600571
 20
315.39599683041638
 30
0.0
 40
5.0
 50
45.0
 51
90.0
1001
GENIUS_GENOBJ-N-FIL_13
1002
{
1000
OWNER
1000
GEN
1002
}
1001
GENIUS_GENODEF_13
1002
{
1000
HIER
1070
     0
1002
}
1002
{
1000
MANEDIT
1070
     0
1002
}
1002
{
1000
NOSEL
1070
     0
1002
}
1002
{
1000
BEHIND
1070
     0
1002
}
1002
{
1000
OTHER
1070
     0
1002
}
1002
{
1000
REACTOR
1002
}
  0
LINE
  5
5685
  8
AM_0
 10
264.9726930873635
 20
302.66807476905871
 30
0.0
 11
264.97269308736372
 21
256.123918891774
 31
0.0
  0
ARC
  5
5686
  8
AM_0
 10
259.9726930873635
 20
302.66807476905871
 30
0.0
 40
5.0
 50
0.0
 51
45.0
1001
GENIUS_GENODEF_13
1002
{
1000
HIER
1070
     0
1002
}
1002
{
1000
MANEDIT
1070
     0
1002
}
1002
{
1000
NOSEL
1070
     0
1002
}
1002
{
1000
BEHIND
1070
     0
1002
}
1002
{
1000
OTHER
1070
     0
1002
}
1002
{
1000
REACTOR
1002
}
1001
GENIUS_GENOBJ-N-FIL_13
1002
{
1000
OWNER
1000
GEN
1002
}
  0
ARC
  5
5687
  8
AM_0
 10
265.9726930873635
 20
321.39599683041649
 30
0.0
 40
4.0
 50
0.0
 51
90.0
1001
GENIUS_GENODEF_13
1002
{
1000
HIER
1070
     0
1002
}
1002
{
1000
MANEDIT
1070
     0
1002
}
1002
{
1000
NOSEL
1070
     0
1002
}
1002
{
1000
BEHIND
1070
     0
1002
}
1002
{
1000
OTHER
1070
     0
1002
}
1002
{
1000
REACTOR
1002
}
1001
GENIUS_GENOBJ-N-FIL_13
1002
{
1000
OWNER
1000
GEN
1002
}
  0
LINE
  5
5688
  8
ﾁｭｳｼﾝｾﾝ1
 10
264.97269308736509
 20
314.3959968304161
 30
0.0
 11
264.97269308736583
 21
326.39599683041598
 31
0.0
  0
LINE
  5
5689
  8
ﾁｭｳｼﾝｾﾝ1
 10
270.97269308736543
 20
320.39599683041581
 30
0.0
 11
258.97269308736543
 21
320.39599683041649
 31
0.0
  0
LINE
  5
568A
  8
AM_0
 10
170.47269308736361
 20
292.89599683041638
 30
0.0
 11
172.9726930873635
 21
292.89599683041661
 31
0.0
  0
LINE
  5
568B
  8
AM_0
 10
172.97269308736361
 20
265.89599683041661
 30
0.0
 11
170.47269308736361
 21
265.89599683041638
 31
0.0
  0
LINE
  5
568C
  8
AM_0
 10
159.57402199101759
 20
268.89599683041638
 30
0.0
 11
159.57402199101759
 21
289.89599683041649
 31
0.0
  0
LINE
  5
568D
  8
AM_0
 10
144.57402199101759
 20
287.42762188443152
 30
0.0
 11
144.57402199101759
 21
271.3643717764005
 31
0.0
  0
LINE
  5
568E
  8
AM_0
 10
157.57402199101759
 20
267.39599683041638
 30
0.0
 11
157.57402199101759
 21
291.39599683041649
 31
0.0
  0
LINE
  5
568F
  8
AM_0
 10
148.07402199101759
 20
279.39599683041638
 30
0.0
 11
148.57402199101759
 21
278.89599683041649
 31
0.0
  0
LINE
  5
5690
  8
AM_0
 10
155.07402199101759
 20
291.09599683041642
 30
0.0
 11
155.07402199101759
 21
267.69599683041639
 31
0.0
  0
LINE
  5
5691
  8
AM_0
 10
164.97269308736361
 20
290.89599683041638
 30
0.0
 11
164.97269308736361
 21
267.89599683041638
 31
0.0
  0
LINE
  5
5692
  8
AM_0
 10
159.07402199101759
 20
278.69599683041451
 30
0.0
 11
159.07402199101759
 21
280.09599683041739
 31
0.0
  0
LINE
  5
5693
  8
AM_0
 10
161.17365771758861
 20
270.29599683041653
 30
0.0
 11
160.42365771758941
 21
288.49599683041652
 31
0.0
  0
LINE
  5
5694
  8
AM_0
 10
160.22269308736361
 20
270.29599683041653
 30
0.0
 11
159.57402199101759
 21
286.03708210173249
 31
0.0
  0
LINE
  5
5695
  8
AM_0
 10
160.97138567793559
 20
269.58033811805251
 30
0.0
 11
160.22412563452761
 21
289.20836859158351
 31
0.0
  0
LINE
  5
5696
  8
AM_0
 10
160.42222517042541
 20
269.5836250692484
 30
0.0
 11
159.67365771758941
 21
289.2459968304164
 31
0.0
  0
LINE
  5
5697
  8
AM_0
 10
157.57402199101759
 20
291.39599683041649
 30
0.0
 11
155.37402199101751
 21
291.39599683041649
 31
0.0
  0
ARC
  5
5698
  8
AM_0
 10
169.47269308736369
 20
291.89599683041638
 30
0.0
 40
0.5
 50
269.99999999998693
 51
0.0
  0
ARC
  5
5699
  8
AM_0
 10
170.47269308736369
 20
292.39599683041638
 30
0.0
 40
0.5
 50
90.0
 51
180.0
  0
LINE
  5
569A
  8
AM_0
 10
169.97269308736361
 20
291.89599683041638
 30
0.0
 11
169.97269308736361
 21
292.39599683041638
 31
0.0
  0
LINE
  5
569B
  8
AM_0
 10
160.97269308736361
 20
288.49599683041652
 30
0.0
 11
164.47269308736361
 21
288.49599683041652
 31
0.0
  0
LINE
  5
569C
  8
AM_0
 10
169.97269308736361
 20
290.25206815182338
 30
0.0
 11
169.97269308736361
 21
280.53992550900853
 31
0.0
  0
LINE
  5
569D
  8
AM_0
 10
165.47269308736361
 20
291.39599683041649
 30
0.0
 11
169.4726930873635
 21
291.39599683041649
 31
0.0
  0
LINE
  5
569E
  8
AM_0
 10
169.47269308736361
 20
290.75206815182349
 30
0.0
 11
164.97269308736361
 21
290.75206815182349
 31
0.0
  0
ARC
  5
569F
  8
AM_0
 10
169.47269308736369
 20
290.25206815182338
 30
0.0
 40
0.5
 50
0.0
 51
90.0
  0
ARC
  5
56A0
  8
AM_0
 10
164.47269308736361
 20
288.9959968304164
 30
0.0
 40
0.5
 50
270.0
 51
0.0
  0
ARC
  5
56A1
  8
AM_0
 10
165.47269308736361
 20
290.89599683041638
 30
0.0
 40
0.5
 50
90.0
 51
180.0
  0
LINE
  5
56A2
  8
AM_0
 10
169.47269308736361
 20
280.03992550900853
 30
0.0
 11
164.97269308736361
 21
280.03992550900853
 31
0.0
  0
ARC
  5
56A3
  8
AM_0
 10
169.47269308736361
 20
280.53992550900841
 30
0.0
 40
0.5
 50
270.0
 51
0.0
  0
LINE
  5
56A4
  8
AM_0
 10
159.07402199101759
 20
285.54116758270851
 30
0.0
 11
159.07402199101759
 21
284.36892439627547
 31
0.0
  0
LINE
  5
56A5
  8
AM_0
 10
160.5003901460145
 20
288.49599683041652
 30
0.0
 11
160.97269308736361
 21
288.49599683041652
 31
0.0
  0
LINE
  5
56A6
  8
AM_0
 10
160.40379765147529
 20
288.57011459715301
 30
0.0
 11
160.42365771758941
 21
288.49599683041652
 31
0.0
  0
ARC
  5
56A7
  8
AM_0
 10
160.50039014601461
 20
288.59599683041642
 30
0.0
 40
0.1000000000000346
 50
195.00019500644541
 51
270.0
  0
ARC
  5
56A8
  8
AM_0
 10
158.77402199101749
 20
288.68282981092437
 30
0.0
 40
0.3000000000000043
 50
270.0
 51
0.0
  0
LINE
  5
56A9
  8
AM_0
 10
157.57402199101759
 20
290.79599683041653
 30
0.0
 11
158.79397769417471
 21
290.71466645020558
 31
0.0
  0
LINE
  5
56AA
  8
AM_0
 10
157.57402199101759
 20
289.63974479457647
 30
0.0
 11
158.77402199101749
 21
289.63974479457647
 31
0.0
  0
LINE
  5
56AB
  8
AM_0
 10
159.07402199101759
 20
290.39599683041638
 30
0.0
 11
157.57402199101759
 21
290.39599683041638
 31
0.0
  0
ARC
  5
56AC
  8
AM_0
 10
159.07402199101759
 20
289.89599683041649
 30
0.0
 40
0.5
 50
0.0
 51
90.0
  0
LINE
  5
56AD
  8
AM_0
 10
159.07402199101759
 20
290.4153309028485
 30
0.0
 11
159.07402199101759
 21
290.39599683041638
 31
0.0
  0
LINE
  5
56AE
  8
AM_0
 10
159.07402199101759
 20
290.69599683041639
 30
0.0
 11
159.07402199101759
 21
290.4153309028485
 31
0.0
  0
LINE
  5
56AF
  8
AM_0
 10
158.79397769417471
 20
290.71466645020558
 30
0.0
 11
159.07402199101759
 21
290.69599683041639
 31
0.0
  0
ARC
  5
56B0
  8
AM_0
 10
158.77402199101749
 20
290.4153309028485
 30
0.0
 40
0.3000000000000007
 50
0.0
 51
86.185925165718416
  0
LINE
  5
56B1
  8
AM_0
 10
160.14596065893841
 20
289.2459968304164
 30
0.0
 11
160.2226930873646
 21
289.2459968304164
 31
0.0
  0
LINE
  5
56B2
  8
AM_0
 10
160.2226930873646
 20
289.2459968304164
 30
0.0
 11
160.2425531534777
 21
289.17187906368008
 31
0.0
  0
LINE
  5
56B3
  8
AM_0
 10
159.6537976514754
 20
289.17187906368008
 30
0.0
 11
159.67365771758941
 21
289.2459968304164
 31
0.0
  0
LINE
  5
56B4
  8
AM_0
 10
159.67365771758941
 20
289.2459968304164
 30
0.0
 11
159.7503901460145
 21
289.2459968304164
 31
0.0
  0
LINE
  5
56B5
  8
AM_0
 10
160.2425531534777
 20
289.17187906368008
 30
0.0
 11
160.40379765147529
 21
288.57011459715301
 31
0.0
  0
LINE
  5
56B6
  8
AM_0
 10
159.7503901460145
 20
289.2459968304164
 30
0.0
 11
160.14596065893841
 21
289.2459968304164
 31
0.0
  0
LINE
  5
56B7
  8
AM_0
 10
159.5740219910185
 20
288.8741562988555
 30
0.0
 11
159.6537976514754
 21
289.17187906368008
 31
0.0
  0
ARC
  5
56B8
  8
AM_0
 10
160.14596065893861
 20
289.14599683041649
 30
0.0
 40
0.0999999999999866
 50
15.00019500657341
 51
90.0
  0
ARC
  5
56B9
  8
AM_0
 10
159.75039014601461
 20
289.14599683041649
 30
0.0
 40
0.1000000000000014
 50
90.0
 51
164.99980499342661
  0
LINE
  5
56BA
  8
AM_0
 10
159.07402199101759
 20
289.33974479457652
 30
0.0
 11
159.07402199101759
 21
288.68282981092437
 31
0.0
  0
ARC
  5
56BB
  8
AM_0
 10
158.77402199101749
 20
289.3397447945764
 30
0.0
 40
0.3000000000000007
 50
0.0
 51
90.0
  0
LINE
  5
56BC
  8
AM_0
 10
157.57402199101759
 20
285.84116758270852
 30
0.0
 11
158.77402199101749
 21
285.84116758270852
 31
0.0
  0
LINE
  5
56BD
  8
AM_0
 10
158.77402199101749
 20
288.38282981092448
 30
0.0
 11
157.57402199101759
 21
288.38282981092448
 31
0.0
  0
LINE
  5
56BE
  8
AM_0
 10
160.42365771758941
 20
288.49599683041652
 30
0.0
 11
160.5003901460145
 21
288.49599683041652
 31
0.0
  0
ARC
  5
56BF
  8
AM_0
 10
158.77402199101749
 20
285.54116758270851
 30
0.0
 40
0.3000000000000007
 50
0.0
 51
90.0
  0
LINE
  5
56C0
  8
AM_0
 10
158.77402199101749
 20
284.06892439627552
 30
0.0
 11
157.57402199101759
 21
284.06892439627552
 31
0.0
  0
ARC
  5
56C1
  8
AM_0
 10
158.77402199101749
 20
284.36892439627547
 30
0.0
 40
0.3000000000000043
 50
270.0
 51
0.0
  0
LINE
  5
56C2
  8
AM_0
 10
158.77402199101749
 20
280.39599683041752
 30
0.0
 11
157.57402199101759
 21
280.39599683041752
 31
0.0
  0
ARC
  5
56C3
  8
AM_0
 10
158.77402199101749
 20
280.09599683041739
 30
0.0
 40
0.3000000000000007
 50
0.0
 51
90.0
  0
LINE
  5
56C4
  8
AM_0
 10
148.57402199101759
 20
289.52927665906338
 30
0.0
 11
155.07402199101759
 21
289.52927665906338
 31
0.0
  0
LINE
  5
56C5
  8
AM_0
 10
148.57402199101759
 20
290.02927665906338
 30
0.0
 11
155.07402199101759
 21
290.02927665906338
 31
0.0
  0
LINE
  5
56C6
  8
AM_0
 10
155.07402199101759
 20
279.89599683041638
 30
0.0
 11
148.57402199101759
 21
279.89599683041638
 31
0.0
  0
LINE
  5
56C7
  8
AM_0
 10
148.07402199101759
 20
280.39599683041638
 30
0.0
 11
155.07402199101759
 21
280.39599683041638
 31
0.0
  0
LINE
  5
56C8
  8
AM_0
 10
154.77402199101749
 20
290.39599683041638
 30
0.0
 11
147.93607192619959
 21
290.39599683041638
 31
0.0
  0
LINE
  5
56C9
  8
AM_0
 10
155.07402199101759
 20
280.74268489895752
 30
0.0
 11
148.57402199101759
 21
280.74268489895752
 31
0.0
  0
LINE
  5
56CA
  8
AM_0
 10
155.07402199101759
 20
289.04930876187552
 30
0.0
 11
148.57402199101759
 21
289.04930876187552
 31
0.0
  0
ARC
  5
56CB
  8
AM_0
 10
155.37402199101751
 20
291.09599683041642
 30
0.0
 40
0.2999999999999971
 50
90.0
 51
180.0
  0
ARC
  5
56CC
  8
AM_0
 10
154.77402199101749
 20
290.69599683041639
 30
0.0
 40
0.2999999999999971
 50
270.0
 51
0.0
  0
ARC
  5
56CD
  8
AM_0
 10
156.69902199101759
 20
284.89599683041638
 30
0.0
 40
9.124999999999984
 50
152.92493329271929
 51
207.07506670728071
  0
LINE
  5
56CE
  8
AM_0
 10
147.2958875265351
 20
290.16421811001402
 30
0.0
 11
144.93383759135301
 21
288.19584316402887
 31
0.0
  0
LINE
  5
56CF
  8
AM_0
 10
148.07402199101759
 20
289.81756424690838
 30
0.0
 11
148.57402199101759
 21
290.39599683041638
 31
0.0
  0
ARC
  5
56D0
  8
AM_0
 10
147.93607192619959
 20
289.39599683041638
 30
0.0
 40
1.0
 50
90.0
 51
129.805571092256
  0
LINE
  5
56D1
  8
AM_0
 10
148.57402199101759
 20
290.02927665906338
 30
0.0
 11
148.07402199101759
 21
289.81756424690838
 31
0.0
  0
LINE
  5
56D2
  8
AM_0
 10
148.07402199101759
 20
289.35528897393738
 30
0.0
 11
148.57402199101759
 21
290.02927665906338
 31
0.0
  0
LINE
  5
56D3
  8
AM_0
 10
148.57402199101759
 20
289.52927665906338
 30
0.0
 11
148.07402199101759
 21
289.35528897393738
 31
0.0
  0
LINE
  5
56D4
  8
AM_0
 10
148.07402199101759
 20
288.81756424690838
 30
0.0
 11
148.57402199101759
 21
289.52927665906338
 31
0.0
  0
LINE
  5
56D5
  8
AM_0
 10
148.57402199101759
 20
289.04930876187552
 30
0.0
 11
148.07402199101759
 21
288.81756424690838
 31
0.0
  0
ARC
  5
56D6
  8
AM_0
 10
145.57402199101759
 20
287.42762188443152
 30
0.0
 40
1.0000000000000291
 50
129.8055710922641
 51
180.0
  0
LINE
  5
56D7
  8
AM_0
 10
148.57402199101759
 20
279.89599683041638
 30
0.0
 11
148.07402199101759
 21
279.39599683041638
 31
0.0
  0
LINE
  5
56D8
  8
AM_0
 10
148.07402199101759
 20
280.39599683041638
 30
0.0
 11
148.57402199101759
 21
279.89599683041638
 31
0.0
  0
LINE
  5
56D9
  8
AM_0
 10
148.57402199101759
 20
280.74268489895752
 30
0.0
 11
148.07402199101759
 21
280.39599683041638
 31
0.0
  0
LINE
  5
56DA
  8
AM_0
 10
155.37402199101751
 20
267.39599683041638
 30
0.0
 11
157.57402199101759
 21
267.39599683041638
 31
0.0
  0
ARC
  5
56DB
  8
AM_0
 10
169.47269308736361
 20
266.89599683041638
 30
0.0
 40
0.5
 50
0.0
 51
90.000000000006537
  0
LINE
  5
56DC
  8
AM_0
 10
164.47269308736361
 20
270.29599683041653
 30
0.0
 11
161.2503901460145
 21
270.29599683041653
 31
0.0
  0
LINE
  5
56DD
  8
AM_0
 10
169.97269308736361
 20
278.25206815182349
 30
0.0
 11
169.97269308736361
 21
268.53992550900841
 31
0.0
  0
LINE
  5
56DE
  8
AM_0
 10
164.97269308736361
 20
278.75206815182338
 30
0.0
 11
169.47269308736361
 21
278.75206815182338
 31
0.0
  0
ARC
  5
56DF
  8
AM_0
 10
169.47269308736361
 20
278.25206815182349
 30
0.0
 40
0.5
 50
0.0
 51
90.0
  0
LINE
  5
56E0
  8
AM_0
 10
164.97269308736361
 20
268.03992550900841
 30
0.0
 11
169.47269308736361
 21
268.03992550900841
 31
0.0
  0
LINE
  5
56E1
  8
AM_0
 10
169.4726930873635
 20
267.39599683041638
 30
0.0
 11
165.47269308736361
 21
267.39599683041638
 31
0.0
  0
ARC
  5
56E2
  8
AM_0
 10
169.47269308736361
 20
268.53992550900841
 30
0.0
 40
0.5
 50
270.0
 51
0.0
  0
ARC
  5
56E3
  8
AM_0
 10
164.47269308736361
 20
269.79599683041653
 30
0.0
 40
0.5
 50
0.0
 51
90.0
  0
ARC
  5
56E4
  8
AM_0
 10
165.47269308736361
 20
267.89599683041638
 30
0.0
 40
0.5
 50
180.0
 51
270.0
  0
ARC
  5
56E5
  8
AM_0
 10
158.77402199101749
 20
273.25082607812442
 30
0.0
 40
0.3000000000000114
 50
270.0
 51
0.0
  0
LINE
  5
56E6
  8
AM_0
 10
157.57402199101759
 20
278.3959968304145
 30
0.0
 11
158.77402199101749
 21
278.3959968304145
 31
0.0
  0
ARC
  5
56E7
  8
AM_0
 10
158.77402199101749
 20
278.6959968304144
 30
0.0
 40
0.2999999999999971
 50
270.0
 51
0.0
  0
LINE
  5
56E8
  8
AM_0
 10
157.57402199101759
 20
274.72306926455752
 30
0.0
 11
158.77402199101749
 21
274.72306926455752
 31
0.0
  0
ARC
  5
56E9
  8
AM_0
 10
158.77402199101749
 20
274.4230692645574
 30
0.0
 40
0.3000000000000007
 50
0.0
 51
90.0
  0
LINE
  5
56EA
  8
AM_0
 10
159.07402199101759
 20
274.42306926455751
 30
0.0
 11
159.07402199101759
 21
273.25082607812448
 31
0.0
  0
LINE
  5
56EB
  8
AM_0
 10
160.5003901460145
 20
269.54599683041653
 30
0.0
 11
160.89596065893841
 21
269.54599683041653
 31
0.0
  0
LINE
  5
56EC
  8
AM_0
 10
160.5003901460145
 20
269.54599683041653
 30
0.0
 11
160.89596065893841
 21
269.54599683041653
 31
0.0
  0
LINE
  5
56ED
  8
AM_0
 10
160.9925531534777
 20
269.62011459715302
 30
0.0
 11
161.1537976514754
 21
270.22187906367998
 31
0.0
  0
LINE
  5
56EE
  8
AM_0
 10
160.9925531534777
 20
269.62011459715302
 30
0.0
 11
161.1537976514754
 21
270.22187906367998
 31
0.0
  0
ARC
  5
56EF
  8
AM_0
 10
161.2503901460145
 20
270.19599683041639
 30
0.0
 40
0.0999999999999943
 50
90.0
 51
164.99980499348811
  0
ARC
  5
56F0
  8
AM_0
 10
160.89596065893841
 20
269.64599683041638
 30
0.0
 40
0.0999999999999943
 50
270.0
 51
344.99980499349448
  0
LINE
  5
56F1
  8
AM_0
 10
159.57317540247641
 20
269.92099683041607
 30
0.0
 11
159.6537976514754
 21
270.22187906367998
 31
0.0
  0
LINE
  5
56F2
  8
AM_0
 10
160.2254037395696
 20
270.25673229731842
 30
0.0
 11
160.4037976514754
 21
269.62011459715302
 31
0.0
  0
LINE
  5
56F3
  8
AM_0
 10
160.2425531534777
 20
270.22187906367998
 30
0.0
 11
160.4037976514754
 21
269.62011459715302
 31
0.0
  0
LINE
  5
56F4
  8
AM_0
 10
159.07402199101759
 20
270.10916384990747
 30
0.0
 11
159.07402199101759
 21
269.45224886625653
 31
0.0
  0
LINE
  5
56F5
  8
AM_0
 10
159.57402199101759
 20
269.92415629885443
 30
0.0
 11
159.6537976514754
 21
270.22187906367998
 31
0.0
  0
LINE
  5
56F6
  8
AM_0
 10
157.57402199101759
 20
270.40916384990737
 30
0.0
 11
158.77402199101749
 21
270.40916384990737
 31
0.0
  0
LINE
  5
56F7
  8
AM_0
 10
158.77402199101749
 20
272.95082607812452
 30
0.0
 11
157.57402199101759
 21
272.95082607812338
 31
0.0
  0
LINE
  5
56F8
  8
AM_0
 10
160.1785929244536
 20
270.29599683041653
 30
0.0
 11
160.2254037395696
 21
270.25673229731842
 31
0.0
  0
LINE
  5
56F9
  8
AM_0
 10
159.7503901460145
 20
270.29599683041653
 30
0.0
 11
160.1785929244536
 21
270.29599683041653
 31
0.0
  0
LINE
  5
56FA
  8
AM_0
 10
159.7503901460145
 20
270.29599683041653
 30
0.0
 11
160.14596065893841
 21
270.29599683041653
 31
0.0
  0
ARC
  5
56FB
  8
AM_0
 10
159.7503901460145
 20
270.19599683041639
 30
0.0
 40
0.0999999999999943
 50
90.0
 51
164.99980499348811
  0
ARC
  5
56FC
  8
AM_0
 10
160.14596065893841
 20
270.19599683041639
 30
0.0
 40
0.0999999999999608
 50
15.00019500651173
 51
90.0
  0
ARC
  5
56FD
  8
AM_0
 10
158.77402199101749
 20
270.10916384990747
 30
0.0
 40
0.3000000000000007
 50
0.0
 51
90.0
  0
LINE
  5
56FE
  8
AM_0
 10
157.57402199101759
 20
268.39599683041649
 30
0.0
 11
159.07402199101759
 21
268.39599683041649
 31
0.0
  0
LINE
  5
56FF
  8
AM_0
 10
158.77402199101749
 20
269.15224886625651
 30
0.0
 11
157.57402199101759
 21
269.15224886625651
 31
0.0
  0
LINE
  5
5700
  8
AM_0
 10
158.79397769417471
 20
268.07732721062638
 30
0.0
 11
157.57402199101759
 21
267.99599683041652
 31
0.0
  0
ARC
  5
5701
  8
AM_0
 10
159.07402199101759
 20
268.89599683041638
 30
0.0
 40
0.5
 50
270.0
 51
0.0
  0
ARC
  5
5702
  8
AM_0
 10
160.5003901460145
 20
269.64599683041638
 30
0.0
 40
0.0999999999999606
 50
195.00019500650541
 51
270.0
  0
ARC
  5
5703
  8
AM_0
 10
158.77402199101749
 20
269.45224886625653
 30
0.0
 40
0.2999999999999971
 50
270.0
 51
0.0
  0
LINE
  5
5704
  8
AM_0
 10
159.07402199101759
 20
268.39599683041649
 30
0.0
 11
159.07402199101759
 21
268.37666275798352
 31
0.0
  0
ARC
  5
5705
  8
AM_0
 10
158.77402199101749
 20
268.37666275798352
 30
0.0
 40
0.3000000000000043
 50
273.8140748342816
 51
0.0
  0
ARC
  5
5706
  8
AM_0
 10
170.47269308736361
 20
266.39599683041649
 30
0.0
 40
0.5
 50
180.0
 51
270.0
  0
LINE
  5
5707
  8
AM_0
 10
169.97269308736361
 20
266.39599683041649
 30
0.0
 11
169.97269308736361
 21
266.89599683041638
 31
0.0
  0
LINE
  5
5708
  8
AM_0
 10
148.57402199101759
 20
269.74268489895752
 30
0.0
 11
155.07402199101759
 21
269.74268489895752
 31
0.0
  0
LINE
  5
5709
  8
AM_0
 10
148.57402199101759
 20
278.04930876187552
 30
0.0
 11
155.07402199101759
 21
278.04930876187552
 31
0.0
  0
LINE
  5
570A
  8
AM_0
 10
147.93607192619959
 20
268.39599683041649
 30
0.0
 11
154.77402199101749
 21
268.39599683041649
 31
0.0
  0
LINE
  5
570B
  8
AM_0
 10
155.07402199101759
 20
278.39599683041638
 30
0.0
 11
148.07402199101759
 21
278.39599683041638
 31
0.0
  0
LINE
  5
570C
  8
AM_0
 10
148.57402199101759
 20
278.89599683041649
 30
0.0
 11
155.07402199101759
 21
278.89599683041649
 31
0.0
  0
LINE
  5
570D
  8
AM_0
 10
155.07402199101759
 20
268.76271700176852
 30
0.0
 11
148.57402199101759
 21
268.76271700176852
 31
0.0
  0
LINE
  5
570E
  8
AM_0
 10
155.07402199101759
 20
269.26271700176852
 30
0.0
 11
148.57402199101759
 21
269.26271700176852
 31
0.0
  0
ARC
  5
570F
  8
AM_0
 10
154.77402199101749
 20
268.09599683041642
 30
0.0
 40
0.3000000000000043
 50
0.0
 51
90.0
  0
ARC
  5
5710
  8
AM_0
 10
155.37402199101751
 20
267.69599683041639
 30
0.0
 40
0.2999999999999971
 50
180.0
 51
270.0
  0
ARC
  5
5711
  8
AM_0
 10
156.69902199101759
 20
273.89599683041638
 30
0.0
 40
9.124999999999984
 50
152.92493329271929
 51
207.07506670728071
  0
LINE
  5
5712
  8
AM_0
 10
148.07402199101759
 20
278.39599683041638
 30
0.0
 11
148.57402199101759
 21
278.04930876187552
 31
0.0
  0
LINE
  5
5713
  8
AM_0
 10
148.57402199101759
 20
278.89599683041649
 30
0.0
 11
148.07402199101759
 21
278.39599683041638
 31
0.0
  0
LINE
  5
5714
  8
AM_0
 10
144.93383759135301
 20
270.59615049680298
 30
0.0
 11
147.2958875265351
 21
268.62777555081902
 31
0.0
  0
LINE
  5
5715
  8
AM_0
 10
148.57402199101759
 20
268.39599683041649
 30
0.0
 11
148.07402199101759
 21
268.97442941392347
 31
0.0
  0
ARC
  5
5716
  8
AM_0
 10
147.93607192619959
 20
269.39599683041638
 30
0.0
 40
1.0000000000000411
 50
230.19442890774391
 51
270.0
  0
LINE
  5
5717
  8
AM_0
 10
148.07402199101759
 20
269.97442941392359
 30
0.0
 11
148.57402199101759
 21
269.74268489895752
 31
0.0
  0
LINE
  5
5718
  8
AM_0
 10
148.57402199101759
 20
269.26271700176852
 30
0.0
 11
148.07402199101759
 21
269.97442941392359
 31
0.0
  0
LINE
  5
5719
  8
AM_0
 10
148.07402199101759
 20
269.4367046868955
 30
0.0
 11
148.57402199101759
 21
269.26271700176852
 31
0.0
  0
LINE
  5
571A
  8
AM_0
 10
148.57402199101759
 20
268.76271700176852
 30
0.0
 11
148.07402199101759
 21
269.4367046868955
 31
0.0
  0
LINE
  5
571B
  8
AM_0
 10
148.07402199101759
 20
268.97442941392347
 30
0.0
 11
148.57402199101759
 21
268.76271700176852
 31
0.0
  0
ARC
  5
571C
  8
AM_0
 10
145.57402199101759
 20
271.36437177640039
 30
0.0
 40
1.0
 50
180.0
 51
230.19442890773581
  0
CIRCLE
  5
571D
  8
AM_0
 10
178.9726930873619
 20
320.3959968304161
 30
0.0
 40
4.0
  0
LINE
  5
571E
  8
AM_0
 10
178.6611930873618
 20
318.11718842469168
 30
0.0
 11
179.2841930873619
 21
318.11718842469168
 31
0.0
  0
LINE
  5
571F
  8
AM_0
 10
178.6611930873618
 20
322.67480523614051
 30
0.0
 11
179.2841930873619
 21
322.67480523614051
 31
0.0
  0
LINE
  5
5720
  8
AM_0
 10
178.6611930873618
 20
318.11718842469168
 30
0.0
 11
178.6611930873618
 21
320.08449683041607
 31
0.0
  0
LINE
  5
5721
  8
AM_0
 10
178.6611930873618
 20
320.70749683041612
 30
0.0
 11
178.6611930873618
 21
322.67480523614051
 31
0.0
  0
LINE
  5
5722
  8
AM_0
 10
178.6611930873618
 20
320.70749683041612
 30
0.0
 11
176.69388468163751
 21
320.70749683041612
 31
0.0
  0
LINE
  5
5723
  8
AM_0
 10
178.6611930873618
 20
320.08449683041607
 30
0.0
 11
176.69388468163751
 21
320.08449683041607
 31
0.0
  0
LINE
  5
5724
  8
AM_0
 10
176.69388468163751
 20
320.70749683041612
 30
0.0
 11
176.69388468163751
 21
320.08449683041607
 31
0.0
  0
LINE
  5
5725
  8
AM_0
 10
179.2841930873619
 20
318.11718842469168
 30
0.0
 11
179.2841930873619
 21
320.08449683041607
 31
0.0
  0
LINE
  5
5726
  8
AM_0
 10
179.2841930873619
 20
320.70749683041612
 30
0.0
 11
179.2841930873619
 21
322.67480523614051
 31
0.0
  0
LINE
  5
5727
  8
AM_0
 10
181.25150149308621
 20
320.08449683041607
 30
0.0
 11
179.2841930873619
 21
320.08449683041607
 31
0.0
  0
LINE
  5
5728
  8
AM_0
 10
181.25150149308621
 20
320.70749683041612
 30
0.0
 11
179.2841930873619
 21
320.70749683041612
 31
0.0
  0
LINE
  5
5729
  8
AM_0
 10
181.25150149308621
 20
320.70749683041612
 30
0.0
 11
181.25150149308621
 21
320.08449683041607
 31
0.0
  0
CIRCLE
  5
572A
  8
AM_0
 10
264.97269308736543
 20
320.3959968304161
 30
0.0
 40
4.0
  0
LINE
  5
572B
  8
AM_0
 10
264.66119308736552
 20
318.11718842469168
 30
0.0
 11
265.28419308736551
 21
318.11718842469168
 31
0.0
  0
LINE
  5
572C
  8
AM_0
 10
264.66119308736552
 20
322.67480523614029
 30
0.0
 11
265.28419308736551
 21
322.67480523614029
 31
0.0
  0
LINE
  5
572D
  8
AM_0
 10
264.66119308736552
 20
318.11718842469168
 30
0.0
 11
264.66119308736552
 21
320.08449683041607
 31
0.0
  0
LINE
  5
572E
  8
AM_0
 10
264.66119308736552
 20
320.70749683041612
 30
0.0
 11
264.66119308736552
 21
322.67480523614029
 31
0.0
  0
LINE
  5
572F
  8
AM_0
 10
264.66119308736552
 20
320.70749683041612
 30
0.0
 11
262.69388468164112
 21
320.70749683041612
 31
0.0
  0
LINE
  5
5730
  8
AM_0
 10
264.66119308736552
 20
320.08449683041607
 30
0.0
 11
262.69388468164112
 21
320.08449683041607
 31
0.0
  0
LINE
  5
5731
  8
AM_0
 10
262.69388468164112
 20
320.70749683041612
 30
0.0
 11
262.69388468164112
 21
320.08449683041607
 31
0.0
  0
LINE
  5
5732
  8
AM_0
 10
265.28419308736551
 20
318.11718842469168
 30
0.0
 11
265.28419308736551
 21
320.08449683041607
 31
0.0
  0
LINE
  5
5733
  8
AM_0
 10
265.28419308736551
 20
320.70749683041612
 30
0.0
 11
265.28419308736551
 21
322.67480523614029
 31
0.0
  0
LINE
  5
5734
  8
AM_0
 10
267.25150149308979
 20
320.08449683041607
 30
0.0
 11
265.28419308736551
 21
320.08449683041607
 31
0.0
  0
LINE
  5
5735
  8
AM_0
 10
267.25150149308979
 20
320.70749683041612
 30
0.0
 11
265.28419308736551
 21
320.70749683041612
 31
0.0
  0
LINE
  5
5736
  8
AM_0
 10
267.25150149308979
 20
320.70749683041612
 30
0.0
 11
267.25150149308979
 21
320.08449683041607
 31
0.0
  0
LINE
  5
5737
  8
AM_0
 10
192.5082269932966
 20
323.93153073634932
 30
0.0
 11
175.43715918143079
 21
306.8604629244839
 31
0.0
  0
LINE
  5
5738
  8
AM_0
 10
193.1650812427888
 20
318.9315307363492
 30
0.0
 11
180.43715918143079
 21
306.2036086749913
 31
0.0
  0
ARC
  5
5739
  8
AM_0
 10
183.97269308736361
 20
302.66807476905859
 30
0.0
 40
5.0
 50
135.0
 51
180.0
1001
GENIUS_GENOBJ-N-FIL_13
1002
{
1000
OWNER
1000
GEN
1002
}
1001
GENIUS_GENODEF_13
1002
{
1000
HIER
1070
     0
1002
}
1002
{
1000
MANEDIT
1070
     0
1002
}
1002
{
1000
NOSEL
1070
     0
1002
}
1002
{
1000
BEHIND
1070
     0
1002
}
1002
{
1000
OTHER
1070
     0
1002
}
1002
{
1000
REACTOR
1002
}
  0
LINE
  5
573A
  8
AM_0
 10
251.43715918143079
 20
234.86046292448361
 30
0.0
 11
268.50822699329638
 21
251.931530736349
 31
0.0
  0
ARC
  5
573B
  8
AM_0
 10
247.90162527549811
 20
238.39599683041629
 30
0.0
 40
5.0
 50
270.0
 51
315.0
1001
GENIUS_GENODEF_13
1002
{
1000
HIER
1070
     0
1002
}
1002
{
1000
MANEDIT
1070
     0
1002
}
1002
{
1000
NOSEL
1070
     0
1002
}
1002
{
1000
BEHIND
1070
     0
1002
}
1002
{
1000
OTHER
1070
     0
1002
}
1002
{
1000
REACTOR
1002
}
1001
GENIUS_GENOBJ-N-FIL_13
1002
{
1000
OWNER
1000
GEN
1002
}
  0
LINE
  5
573C
  8
AM_0
 10
250.7803049319385
 20
239.8604629244835
 30
0.0
 11
263.50822699329638
 21
252.5883849858412
 31
0.0
  0
ARC
  5
573D
  8
AM_0
 10
259.97269308736372
 20
256.123918891774
 30
0.0
 40
5.0
 50
315.0
 51
0.0
1001
GENIUS_GENOBJ-N-FIL_13
1002
{
1000
OWNER
1000
GEN
1002
}
1001
GENIUS_GENODEF_13
1002
{
1000
HIER
1070
     0
1002
}
1002
{
1000
MANEDIT
1070
     0
1002
}
1002
{
1000
NOSEL
1070
     0
1002
}
1002
{
1000
BEHIND
1070
     0
1002
}
1002
{
1000
OTHER
1070
     0
1002
}
1002
{
1000
REACTOR
1002
}
  0
LINE
  5
573E
  8
AM_0
 10
192.50822699329629
 20
234.86046292448361
 30
0.0
 11
175.43715918143079
 21
251.9315307363488
 31
0.0
  0
LINE
  5
573F
  8
AM_0
 10
193.1650812427884
 20
239.86046292448361
 30
0.0
 11
180.43715918143079
 21
252.5883849858412
 31
0.0
  0
ARC
  5
5740
  8
AM_0
 10
196.70061514872131
 20
243.39599683041629
 30
0.0
 40
5.0
 50
225.0
 51
270.0
1001
GENIUS_GENOBJ-N-FIL_13
1002
{
1000
OWNER
1000
GEN
1002
}
1001
GENIUS_GENODEF_13
1002
{
1000
HIER
1070
     0
1002
}
1002
{
1000
MANEDIT
1070
     0
1002
}
1002
{
1000
NOSEL
1070
     0
1002
}
1002
{
1000
BEHIND
1070
     0
1002
}
1002
{
1000
OTHER
1070
     0
1002
}
1002
{
1000
REACTOR
1002
}
  0
CIRCLE
  5
5741
  8
AM_0
 10
178.97269308736179
 20
238.39599683041669
 30
0.0
 40
4.0
  0
LINE
  5
5742
  8
AM_0
 10
178.6611930873618
 20
240.67480523614111
 30
0.0
 11
179.28419308736181
 21
240.67480523614111
 31
0.0
  0
LINE
  5
5743
  8
AM_0
 10
178.6611930873618
 20
236.11718842469239
 30
0.0
 11
179.28419308736181
 21
236.11718842469239
 31
0.0
  0
LINE
  5
5744
  8
AM_0
 10
178.6611930873618
 20
240.67480523614111
 30
0.0
 11
178.6611930873618
 21
238.70749683041669
 31
0.0
  0
LINE
  5
5745
  8
AM_0
 10
178.6611930873618
 20
238.0844968304167
 30
0.0
 11
178.6611930873618
 21
236.11718842469239
 31
0.0
  0
LINE
  5
5746
  8
AM_0
 10
178.6611930873618
 20
238.0844968304167
 30
0.0
 11
176.6938846816374
 21
238.0844968304167
 31
0.0
  0
LINE
  5
5747
  8
AM_0
 10
178.6611930873618
 20
238.70749683041669
 30
0.0
 11
176.6938846816374
 21
238.70749683041669
 31
0.0
  0
LINE
  5
5748
  8
AM_0
 10
176.6938846816374
 20
238.0844968304167
 30
0.0
 11
176.6938846816374
 21
238.70749683041669
 31
0.0
  0
LINE
  5
5749
  8
AM_0
 10
179.28419308736181
 20
240.67480523614111
 30
0.0
 11
179.28419308736181
 21
238.70749683041669
 31
0.0
  0
LINE
  5
574A
  8
AM_0
 10
179.28419308736181
 20
238.0844968304167
 30
0.0
 11
179.28419308736181
 21
236.11718842469239
 31
0.0
  0
LINE
  5
574B
  8
AM_0
 10
181.2515014930861
 20
238.70749683041669
 30
0.0
 11
179.28419308736181
 21
238.70749683041669
 31
0.0
  0
LINE
  5
574C
  8
AM_0
 10
181.2515014930861
 20
238.0844968304167
 30
0.0
 11
179.28419308736181
 21
238.0844968304167
 31
0.0
  0
LINE
  5
574D
  8
AM_0
 10
181.2515014930861
 20
238.0844968304167
 30
0.0
 11
181.2515014930861
 21
238.70749683041669
 31
0.0
  0
CIRCLE
  5
574E
  8
AM_0
 10
264.97269308736531
 20
238.39599683041661
 30
0.0
 40
4.0
  0
LINE
  5
574F
  8
AM_0
 10
264.66119308736529
 20
240.6748052361408
 30
0.0
 11
265.28419308736528
 21
240.6748052361408
 31
0.0
  0
LINE
  5
5750
  8
AM_0
 10
264.66119308736529
 20
236.11718842469219
 30
0.0
 11
265.28419308736528
 21
236.11718842469219
 31
0.0
  0
LINE
  5
5751
  8
AM_0
 10
264.66119308736529
 20
240.6748052361408
 30
0.0
 11
264.66119308736529
 21
238.7074968304164
 31
0.0
  0
LINE
  5
5752
  8
AM_0
 10
264.66119308736529
 20
238.0844968304165
 30
0.0
 11
264.66119308736529
 21
236.11718842469219
 31
0.0
  0
LINE
  5
5753
  8
AM_0
 10
264.66119308736529
 20
238.0844968304165
 30
0.0
 11
262.6938846816409
 21
238.0844968304165
 31
0.0
  0
LINE
  5
5754
  8
AM_0
 10
264.66119308736529
 20
238.7074968304164
 30
0.0
 11
262.6938846816409
 21
238.7074968304164
 31
0.0
  0
LINE
  5
5755
  8
AM_0
 10
262.6938846816409
 20
238.0844968304165
 30
0.0
 11
262.6938846816409
 21
238.7074968304164
 31
0.0
  0
LINE
  5
5756
  8
AM_0
 10
265.28419308736528
 20
240.6748052361408
 30
0.0
 11
265.28419308736528
 21
238.7074968304164
 31
0.0
  0
LINE
  5
5757
  8
AM_0
 10
265.28419308736528
 20
238.0844968304165
 30
0.0
 11
265.28419308736528
 21
236.11718842469219
 31
0.0
  0
LINE
  5
5758
  8
AM_0
 10
267.25150149308968
 20
238.7074968304164
 30
0.0
 11
265.28419308736528
 21
238.7074968304164
 31
0.0
  0
LINE
  5
5759
  8
AM_0
 10
267.25150149308968
 20
238.0844968304165
 30
0.0
 11
265.28419308736528
 21
238.0844968304165
 31
0.0
  0
LINE
  5
575A
  8
AM_0
 10
267.25150149308968
 20
238.0844968304165
 30
0.0
 11
267.25150149308968
 21
238.7074968304164
 31
0.0
  0
LINE
  5
575B
  8
AM_0
 10
173.97269308736361
 20
248.39599683041641
 30
0.0
 11
172.97269308736361
 21
248.39599683041641
 31
0.0
  0
LINE
  5
575C
  8
AM_0
 10
173.97269308736361
 20
310.39599683041638
 30
0.0
 11
172.97269308736361
 21
310.39599683041638
 31
0.0
  0
LINE
  5
575D
  8
AM_0
 10
172.97269308736361
 20
248.39599683041641
 30
0.0
 11
172.97269308736361
 21
310.39599683041638
 31
0.0
  0
LINE
  5
575E
  8
AM_0
 10
545.32856563677149
 20
245.89599683041641
 30
0.0
 11
545.32856563677149
 21
312.89599683041638
 31
0.0
  0
LINE
  5
575F
  8
AM_0
 10
544.32856563677149
 20
245.89599683041629
 30
0.0
 11
545.32856563677149
 21
245.89599683041641
 31
0.0
  0
LINE
  5
5760
  8
AM_0
 10
544.32856563677149
 20
312.89599683041638
 30
0.0
 11
545.32856563677149
 21
312.89599683041638
 31
0.0
  0
LINE
  5
5761
  8
AM_0
 10
506.3285656367712
 20
233.39599683041641
 30
0.0
 11
542.39836463017616
 21
234.65558196667871
 31
0.0
  0
LINE
  5
5762
  8
AM_0
 10
544.32856563677149
 20
236.65436362071679
 30
0.0
 11
544.32856563677149
 21
322.13763004011588
 31
0.0
  0
ARC
  5
5763
  8
AM_0
 10
542.32856563677126
 20
236.65436362071679
 30
0.0
 40
2.0
 50
271.9999999999971
 51
0.0
1001
GENIUS_GENODEF_13
1002
{
1000
HIER
1070
     0
1002
}
1002
{
1000
MANEDIT
1070
     0
1002
}
1002
{
1000
NOSEL
1070
     0
1002
}
1002
{
1000
BEHIND
1070
     0
1002
}
1002
{
1000
OTHER
1070
     0
1002
}
1002
{
1000
REACTOR
1002
}
1001
GENIUS_GENOBJ-N-FIL_13
1002
{
1000
OWNER
1000
GEN
1002
}
  0
LINE
  5
5764
  8
AM_0
 10
542.39836463017616
 20
324.13641169415422
 30
0.0
 11
506.32856563677149
 21
325.39599683041649
 31
0.0
  0
ARC
  5
5765
  8
AM_0
 10
542.3285656367716
 20
322.13763004011588
 30
0.0
 40
2.0
 50
0.0
 51
88.000000000002842
1001
GENIUS_GENOBJ-N-FIL_13
1002
{
1000
OWNER
1000
GEN
1002
}
1001
GENIUS_GENODEF_13
1002
{
1000
HIER
1070
     0
1002
}
1002
{
1000
MANEDIT
1070
     0
1002
}
1002
{
1000
NOSEL
1070
     0
1002
}
1002
{
1000
BEHIND
1070
     0
1002
}
1002
{
1000
OTHER
1070
     0
1002
}
1002
{
1000
REACTOR
1002
}
  0
LINE
  5
5766
  8
AM_0
 10
506.32856563677149
 20
325.39599683041649
 30
0.0
 11
506.3285656367712
 21
233.3959968304161
 31
0.0
  0
LINE
  5
5767
  8
ﾁｭｳｼﾝｾﾝ1
 10
495.32856563677137
 20
238.39599683041709
 30
0.0
 11
511.15608864930812
 21
238.395996830417
 31
0.0
  0
LINE
  5
5768
  8
AM_0
 10
502.32856563677149
 20
325.39599683041638
 30
0.0
 11
502.32856563677149
 21
304.581491930884
 31
0.0
  0
LINE
  5
5769
  8
AM_0
 10
502.3285656367712
 20
254.2105017299487
 30
0.0
 11
502.3285656367712
 21
233.39599683041709
 31
0.0
  0
LINE
  5
576A
  8
AM_0
 10
498.32856563677149
 20
319.26021516125581
 30
0.0
 11
498.3285656367712
 21
239.531778499577
 31
0.0
  0
LINE
  5
576B
  8
AM_0
 10
500.26962812464342
 20
242.30335180272351
 30
0.0
 11
501.3285656367712
 21
242.395996830417
 31
0.0
  0
LINE
  5
576C
  8
AM_0
 10
500.26962812464342
 20
234.4886418581105
 30
0.0
 11
501.3285656367712
 21
234.395996830417
 31
0.0
  0
ARC
  5
576D
  8
AM_0
 10
504.72856563677141
 20
238.395996830417
 30
0.0
 40
6.5
 50
151.82726586813479
 51
208.1727341318651
  0
ARC
  5
576E
  8
AM_0
 10
500.40907731303992
 20
236.0825533750573
 30
0.0
 40
1.6000000000000001
 50
208.1727341318651
 51
265.00000000000028
  0
LINE
  5
576F
  8
AM_0
 10
498.64909197534303
 20
240.6959968304169
 30
0.0
 11
500.9386516541386
 21
238.395996830417
 31
0.0
  0
LINE
  5
5770
  8
AM_0
 10
500.62856563677121
 20
238.707496830417
 30
0.0
 11
500.62856563677121
 21
238.0844968304169
 31
0.0
  0
LINE
  5
5771
  8
AM_0
 10
498.64909197534303
 20
236.09599683041699
 30
0.0
 11
500.9386516541386
 21
238.395996830417
 31
0.0
  0
LINE
  5
5772
  8
AM_0
 10
498.23603394643641
 20
238.707496830417
 30
0.0
 11
500.62856563677121
 21
238.707496830417
 31
0.0
  0
LINE
  5
5773
  8
AM_0
 10
498.23603394643641
 20
238.0844968304169
 30
0.0
 11
500.62856563677121
 21
238.0844968304169
 31
0.0
  0
ARC
  5
5774
  8
AM_0
 10
500.40907731303992
 20
240.70944028577659
 30
0.0
 40
1.6000000000000001
 50
94.99999999999973
 51
151.82726586813479
  0
LINE
  5
5775
  8
AM_0
 10
502.32856563677149
 20
325.39599683041649
 30
0.0
 11
506.32856563677149
 21
325.39599683041649
 31
0.0
  0
LINE
  5
5776
  8
AM_0
 10
501.32856563677109
 20
324.39599683041632
 30
0.0
 11
502.3285656367716
 21
325.39599683041649
 31
0.0
  0
LINE
  5
5777
  8
AM_0
 10
506.3285656367712
 20
233.3959968304161
 30
0.0
 11
502.3285656367712
 21
233.3959968304172
 31
0.0
  0
LINE
  5
5778
  8
AM_0N
 10
502.3285656367712
 20
242.19599683041699
 30
0.0
 11
501.3285656367712
 21
242.19599683041699
 31
0.0
  0
LINE
  5
5779
  8
AM_0N
 10
501.3285656367712
 20
238.59599683041699
 30
0.0
 11
502.3285656367712
 21
238.95996706468301
 31
0.0
  0
LINE
  5
577A
  8
AM_0N
 10
501.3285656367712
 20
238.19599683041699
 30
0.0
 11
502.3285656367712
 21
238.55996706468321
 31
0.0
  0
LINE
  5
577B
  8
AM_0N
 10
501.3285656367712
 20
234.395996830417
 30
0.0
 11
501.3285656367712
 21
242.395996830417
 31
0.0
  0
LINE
  5
577C
  8
AM_0N
 10
501.3285656367712
 20
234.59599683041699
 30
0.0
 11
502.3285656367712
 21
234.59599683041699
 31
0.0
  0
LINE
  5
577D
  8
AM_0
 10
498.3285656367712
 20
254.2105017299487
 30
0.0
 11
502.3285656367712
 21
254.2105017299487
 31
0.0
  0
LINE
  5
577E
  8
AM_0
 10
502.3285656367712
 20
252.55364748045619
 30
0.0
 11
498.3285656367712
 21
254.2105017299487
 31
0.0
  0
LINE
  5
577F
  8
AM_0
 10
498.32856563677149
 20
304.581491930884
 30
0.0
 11
502.32856563677149
 21
304.581491930884
 31
0.0
  0
LINE
  5
5780
  8
AM_0
 10
502.32856563677149
 20
306.23834618037648
 30
0.0
 11
498.32856563677149
 21
304.581491930884
 31
0.0
  0
LINE
  5
5781
  8
ﾁｭｳｼﾝｾﾝ1
 10
495.32856563677149
 20
320.3959968304157
 30
0.0
 11
511.15608864930812
 21
320.3959968304157
 31
0.0
  0
LINE
  5
5782
  8
AM_0
 10
500.26962812464342
 20
316.4886418581093
 30
0.0
 11
501.3285656367712
 21
316.39599683041581
 31
0.0
  0
LINE
  5
5783
  8
AM_0
 10
500.26962812464342
 20
324.3033518027222
 30
0.0
 11
501.3285656367712
 21
324.39599683041581
 31
0.0
  0
ARC
  5
5784
  8
AM_0
 10
504.72856563677141
 20
320.39599683041581
 30
0.0
 40
6.5
 50
151.82726586813479
 51
208.1727341318651
  0
ARC
  5
5785
  8
AM_0
 10
500.40907731303992
 20
322.70944028577549
 30
0.0
 40
1.6000000000000001
 50
94.99999999999973
 51
151.82726586813479
  0
LINE
  5
5786
  8
AM_0
 10
498.64909197534303
 20
318.09599683041603
 30
0.0
 11
500.9386516541386
 21
320.39599683041581
 31
0.0
  0
LINE
  5
5787
  8
AM_0
 10
500.62856563677121
 20
320.08449683041579
 30
0.0
 11
500.62856563677121
 21
320.70749683041589
 31
0.0
  0
LINE
  5
5788
  8
AM_0
 10
498.64909197534303
 20
322.69599683041582
 30
0.0
 11
500.9386516541386
 21
320.39599683041581
 31
0.0
  0
LINE
  5
5789
  8
AM_0
 10
498.23603394643641
 20
320.08449683041579
 30
0.0
 11
500.62856563677121
 21
320.08449683041579
 31
0.0
  0
LINE
  5
578A
  8
AM_0
 10
498.23603394643641
 20
320.70749683041589
 30
0.0
 11
500.62856563677121
 21
320.70749683041589
 31
0.0
  0
ARC
  5
578B
  8
AM_0
 10
500.40907731303992
 20
318.08255337505608
 30
0.0
 40
1.6000000000000001
 50
208.1727341318651
 51
265.00000000000028
  0
LINE
  5
578C
  8
AM_0N
 10
502.3285656367712
 20
316.5959968304158
 30
0.0
 11
501.3285656367712
 21
316.5959968304158
 31
0.0
  0
LINE
  5
578D
  8
AM_0N
 10
501.3285656367712
 20
320.19599683041582
 30
0.0
 11
502.3285656367712
 21
319.83202659614972
 31
0.0
  0
LINE
  5
578E
  8
AM_0N
 10
501.3285656367712
 20
320.59599683041569
 30
0.0
 11
502.3285656367712
 21
320.23202659614969
 31
0.0
  0
LINE
  5
578F
  8
AM_0N
 10
501.3285656367712
 20
324.39599683041581
 30
0.0
 11
501.3285656367712
 21
316.39599683041581
 31
0.0
  0
LINE
  5
5790
  8
AM_0N
 10
501.3285656367712
 20
324.19599683041582
 30
0.0
 11
502.3285656367712
 21
324.19599683041582
 31
0.0
  0
LINE
  5
5791
  8
AM_0
 10
546.4704489756798
 20
249.39599683041641
 30
0.0
 11
545.32856563677149
 21
249.39599683041641
 31
0.0
  0
LINE
  5
5792
  8
ﾁｭｳｼﾝｾﾝ1
 10
555.82857663677134
 20
226.39599483041641
 30
0.0
 11
555.82857663677134
 21
206.39598083041639
 31
0.0
  0
LINE
  5
5793
  8
ﾁｭｳｼﾝｾﾝ1
 10
354.97268308736358
 20
226.39599483041641
 30
0.0
 11
354.97268308736358
 21
206.39598083041639
 31
0.0
  0
LINE
  5
5794
  8
ﾁｭｳｼﾝｾﾝ1
 10
291.97271308736367
 20
226.39599483041641
 30
0.0
 11
291.97271308736367
 21
206.39598083041639
 31
0.0
  0
LINE
  5
5795
  8
AM_0
 10
366.97268308736358
 20
320.89599783041638
 30
0.0
 11
370.97268308736352
 21
316.89599783041672
 31
0.0
  0
LINE
  5
5796
  8
AM_0
 10
364.47268308736358
 20
320.89599783041638
 30
0.0
 11
366.97268308736358
 21
320.89599783041638
 31
0.0
  0
LINE
  5
5797
  8
AM_0
 10
363.97268308736369
 20
320.39599783041649
 30
0.0
 11
363.97268308736369
 21
272.39599783041649
 31
0.0
  0
LINE
  5
5798
  8
AM_0
 10
370.97268308736352
 20
316.89599783041672
 30
0.0
 11
370.9726830873642
 21
275.89599783041632
 31
0.0
  0
LINE
  5
5799
  8
AM_0
 10
366.97268308736358
 20
271.89599783041638
 30
0.0
 11
370.97268308736352
 21
275.89599783041632
 31
0.0
  0
LINE
  5
579A
  8
AM_0
 10
364.47268308736358
 20
271.89599783041638
 30
0.0
 11
366.97268308736358
 21
271.89599783041638
 31
0.0
  0
LINE
  5
579B
  8
AM_0
 10
363.97268308736369
 20
320.39599783041649
 30
0.0
 11
364.47268308736358
 21
320.89599783041638
 31
0.0
1001
GENIUS_GENFIL_13
1070
     0
1040
0.5
1040
0.5
1040
20.0
1040
0.0
1002
{
1002
}
1001
GENIUS_GENOBJ-N-CHA_13
1002
{
1000
OWNER
1000
GEN
1002
}
1001
GENIUS_GENODEF_13
1002
{
1000
HIER
1070
     0
1002
}
1002
{
1000
MANEDIT
1070
     0
1002
}
1002
{
1000
NOSEL
1070
     0
1002
}
1002
{
1000
BEHIND
1070
     0
1002
}
1002
{
1000
OTHER
1070
     0
1002
}
1002
{
1000
REACTOR
1002
}
  0
LINE
  5
579C
  8
AM_0
 10
363.97268308736369
 20
272.39599783041649
 30
0.0
 11
364.47268308736358
 21
271.89599783041638
 31
0.0
1001
GENIUS_GENFIL_13
1070
     0
1040
0.5
1040
0.5
1040
20.0
1040
0.0
1002
{
1002
}
1001
GENIUS_GENODEF_13
1002
{
1000
HIER
1070
     0
1002
}
1002
{
1000
MANEDIT
1070
     0
1002
}
1002
{
1000
NOSEL
1070
     0
1002
}
1002
{
1000
BEHIND
1070
     0
1002
}
1002
{
1000
OTHER
1070
     0
1002
}
1002
{
1000
REACTOR
1002
}
1001
GENIUS_GENOBJ-N-CHA_13
1002
{
1000
OWNER
1000
GEN
1002
}
  0
CIRCLE
  5
579D
  8
AM_0
 10
613.32856563677126
 20
296.39599783041638
 30
0.0
 40
24.49999999999989
  0
CIRCLE
  5
579E
  8
AM_0
 10
613.32856563677126
 20
296.39599783041638
 30
0.0
 40
20.50000000000011
  0
LINE
  5
579F
  8
AM_0
 10
366.97268308736358
 20
320.89599783041638
 30
0.0
 11
366.97268308736358
 21
271.89599783041638
 31
0.0
  0
LINE
  5
57A0
  8
ﾁｭｳｼﾝｾﾝ1
 10
178.97269308736151
 20
314.3959968304161
 30
0.0
 11
178.9726930873621
 21
326.3959968304161
 31
0.0
  0
LINE
  5
57A1
  8
ﾁｭｳｼﾝｾﾝ1
 10
184.9726930873619
 20
320.39599683041598
 30
0.0
 11
172.9726930873619
 21
320.39599683041649
 31
0.0
  0
LINE
  5
57A2
  8
ﾁｭｳｼﾝｾﾝ1
 10
178.97269308736139
 20
232.39599683041669
 30
0.0
 11
178.9726930873621
 21
244.39599683041669
 31
0.0
  0
LINE
  5
57A3
  8
ﾁｭｳｼﾝｾﾝ1
 10
184.97269308736171
 20
238.39599683041641
 30
0.0
 11
172.97269308736179
 21
238.39599683041709
 31
0.0
  0
LINE
  5
57A4
  8
ﾁｭｳｼﾝｾﾝ1
 10
264.97269308736497
 20
232.39599683041661
 30
0.0
 11
264.97269308736543
 21
244.39599683041661
 31
0.0
  0
LINE
  5
57A5
  8
ﾁｭｳｼﾝｾﾝ1
 10
270.97269308736531
 20
238.39599683041629
 30
0.0
 11
258.97269308736531
 21
238.395996830417
 31
0.0
  0
LINE
  5
57A6
  8
AM_0
 10
251.99889293640391
 20
476.80211916481858
 30
0.0
 11
252.2534422104267
 21
486.52208916481851
 31
0.0
  0
LINE
  5
57A7
  8
AM_0
 10
191.9464609411632
 20
476.80211916481858
 30
0.0
 11
191.6919789000244
 21
486.52208916481851
 31
0.0
  0
LINE
  5
57A8
  8
AM_0
 10
188.4727030873633
 20
474.80211916481852
 30
0.0
 11
255.47270308736341
 21
474.80211916481852
 31
0.0
  0
LINE
  5
57A9
  8
AM_0
 10
188.4727030873633
 20
473.80211916481858
 30
0.0
 11
188.4727030873633
 21
474.80211916481852
 31
0.0
  0
LINE
  5
57AA
  8
AM_0
 10
255.47270308736341
 20
473.80211916481858
 30
0.0
 11
255.47270308736341
 21
474.80211916481852
 31
0.0
  0
LINE
  5
57AB
  8
AM_0
 10
173.9727030873633
 20
435.80211916481852
 30
0.0
 11
175.23228822362569
 21
471.87191815822342
 31
0.0
  0
LINE
  5
57AC
  8
AM_0
 10
177.23106987766391
 20
473.80211916481858
 30
0.0
 11
266.7143362970628
 21
473.80211916481858
 31
0.0
  0
ARC
  5
57AD
  8
AM_0
 10
177.23106987766391
 20
471.80211916481852
 30
0.0
 40
2.0
 50
90.0
 51
178.00000000000259
1001
GENIUS_GENODEF_13
1002
{
1000
HIER
1070
     0
1002
}
1002
{
1000
MANEDIT
1070
     0
1002
}
1002
{
1000
NOSEL
1070
     0
1002
}
1002
{
1000
BEHIND
1070
     0
1002
}
1002
{
1000
OTHER
1070
     0
1002
}
1002
{
1000
REACTOR
1002
}
1001
GENIUS_GENOBJ-N-FIL_13
1002
{
1000
OWNER
1000
GEN
1002
}
  0
LINE
  5
57AE
  8
AM_0
 10
268.71311795110108
 20
471.87191815822342
 30
0.0
 11
269.97270308736353
 21
435.80211916481858
 31
0.0
  0
ARC
  5
57AF
  8
AM_0
 10
266.71433629706303
 20
471.80211916481852
 30
0.0
 40
2.0
 50
1.9999999999972149
 51
90.0
1001
GENIUS_GENOBJ-N-FIL_13
1002
{
1000
OWNER
1000
GEN
1002
}
1001
GENIUS_GENODEF_13
1002
{
1000
HIER
1070
     0
1002
}
1002
{
1000
MANEDIT
1070
     0
1002
}
1002
{
1000
NOSEL
1070
     0
1002
}
1002
{
1000
BEHIND
1070
     0
1002
}
1002
{
1000
OTHER
1070
     0
1002
}
1002
{
1000
REACTOR
1002
}
  0
LINE
  5
57B0
  8
AM_0
 10
269.97270308736353
 20
435.80211916481858
 30
0.0
 11
173.9727030873631
 21
435.80211916481852
 31
0.0
  0
LINE
  5
57B1
  8
AM_0
 10
174.0774653958384
 20
438.80211916481829
 30
0.0
 11
172.9727030873633
 21
438.80211916481829
 31
0.0
  0
LINE
  5
57B2
  8
AM_0
 10
175.19493001957451
 20
470.80211916481841
 30
0.0
 11
172.97270308736319
 21
470.80211916481841
 31
0.0
  0
LINE
  5
57B3
  8
ﾁｭｳｼﾝｾﾝ1
 10
178.97270308736401
 20
425.53741166481848
 30
0.0
 11
178.97270308736401
 21
438.53741166481842
 31
0.0
  0
LINE
  5
57B4
  8
ﾁｭｳｼﾝｾﾝ
 10
221.97270308736341
 20
481.09414983804771
 30
0.0
 11
221.97270308736341
 21
423.3515965240091
 31
0.0
  0
LINE
  5
57B5
  8
AM_0
 10
170.4727030873633
 20
441.30211916481829
 30
0.0
 11
172.97270308736319
 21
441.30211916481818
 31
0.0
  0
LINE
  5
57B6
  8
AM_0
 10
172.97270308736319
 20
468.30211916481801
 30
0.0
 11
170.4727030873633
 21
468.30211916481829
 31
0.0
  0
LINE
  5
57B7
  8
AM_0
 10
159.57403199101731
 20
465.30211916481829
 30
0.0
 11
159.57403199101731
 21
444.30211916481829
 31
0.0
  0
LINE
  5
57B8
  8
AM_0
 10
144.57403199101731
 20
446.7704941108031
 30
0.0
 11
144.57403199101731
 21
462.83374421883423
 31
0.0
  0
LINE
  5
57B9
  8
AM_0
 10
157.57403199101731
 20
466.80211916481829
 30
0.0
 11
157.57403199101731
 21
442.80211916481829
 31
0.0
  0
LINE
  5
57BA
  8
AM_0
 10
148.07403199101731
 20
454.80211916481829
 30
0.0
 11
148.57403199101731
 21
455.30211916481829
 31
0.0
  0
LINE
  5
57BB
  8
AM_0
 10
155.07403199101731
 20
443.1021191648183
 30
0.0
 11
155.07403199101731
 21
466.50211916481823
 31
0.0
  0
LINE
  5
57BC
  8
AM_0
 10
164.9727030873633
 20
443.30211916481829
 30
0.0
 11
164.9727030873633
 21
466.30211916481829
 31
0.0
  0
LINE
  5
57BD
  8
AM_0
 10
159.07403199101731
 20
455.50211916482027
 30
0.0
 11
159.07403199101731
 21
454.10211916481722
 31
0.0
  0
LINE
  5
57BE
  8
AM_0
 10
161.17366771758819
 20
463.90211916481832
 30
0.0
 11
160.4236677175893
 21
445.70211916481821
 31
0.0
  0
LINE
  5
57BF
  8
AM_0
 10
160.2227030873633
 20
463.90211916481832
 30
0.0
 11
159.57403199101731
 21
448.16103389350229
 31
0.0
  0
LINE
  5
57C0
  8
AM_0
 10
160.97139567793531
 20
464.61777787718228
 30
0.0
 11
160.2241356345273
 21
444.98974740365128
 31
0.0
  0
LINE
  5
57C1
  8
AM_0
 10
160.4222351704253
 20
464.61449092598627
 30
0.0
 11
159.6736677175893
 21
444.95211916481821
 31
0.0
  0
LINE
  5
57C2
  8
AM_0
 10
157.57403199101731
 20
442.80211916481829
 30
0.0
 11
155.37403199101729
 21
442.80211916481829
 31
0.0
  0
ARC
  5
57C3
  8
AM_0
 10
169.47270308736341
 20
442.30211916481829
 30
0.0
 40
0.5
 50
0.0
 51
90.000000000013017
  0
ARC
  5
57C4
  8
AM_0
 10
170.47270308736341
 20
441.80211916481829
 30
0.0
 40
0.5
 50
180.0
 51
270.0
  0
LINE
  5
57C5
  8
AM_0
 10
169.9727030873633
 20
442.30211916481829
 30
0.0
 11
169.9727030873633
 21
441.80211916481829
 31
0.0
  0
LINE
  5
57C6
  8
AM_0
 10
160.9727030873633
 20
445.70211916481821
 30
0.0
 11
164.4727030873633
 21
445.70211916481821
 31
0.0
  0
LINE
  5
57C7
  8
AM_0
 10
169.9727030873633
 20
443.94604784341141
 30
0.0
 11
169.9727030873633
 21
453.6581904862262
 31
0.0
  0
LINE
  5
57C8
  8
AM_0
 10
165.4727030873633
 20
442.80211916481829
 30
0.0
 11
169.47270308736319
 21
442.80211916481829
 31
0.0
  0
LINE
  5
57C9
  8
AM_0
 10
169.4727030873633
 20
443.44604784341152
 30
0.0
 11
164.9727030873633
 21
443.44604784341152
 31
0.0
  0
ARC
  5
57CA
  8
AM_0
 10
169.47270308736341
 20
443.94604784341141
 30
0.0
 40
0.5
 50
270.0
 51
0.0
  0
ARC
  5
57CB
  8
AM_0
 10
164.47270308736319
 20
445.20211916481833
 30
0.0
 40
0.5
 50
0.0
 51
90.0
  0
ARC
  5
57CC
  8
AM_0
 10
165.47270308736319
 20
443.30211916481829
 30
0.0
 40
0.5
 50
180.0
 51
270.0
  0
LINE
  5
57CD
  8
AM_0
 10
169.4727030873633
 20
454.1581904862262
 30
0.0
 11
164.9727030873633
 21
454.1581904862262
 31
0.0
  0
ARC
  5
57CE
  8
AM_0
 10
169.47270308736319
 20
453.65819048622649
 30
0.0
 40
0.5
 50
0.0
 51
90.0
  0
LINE
  5
57CF
  8
AM_0
 10
159.07403199101731
 20
448.65694841252611
 30
0.0
 11
159.07403199101731
 21
449.82919159895908
 31
0.0
  0
LINE
  5
57D0
  8
AM_0
 10
160.5004001460143
 20
445.70211916481821
 30
0.0
 11
160.9727030873633
 21
445.70211916481821
 31
0.0
  0
LINE
  5
57D1
  8
AM_0
 10
160.40380765147489
 20
445.62800139808161
 30
0.0
 11
160.4236677175893
 21
445.70211916481821
 31
0.0
  0
ARC
  5
57D2
  8
AM_0
 10
160.5004001460143
 20
445.6021191648183
 30
0.0
 40
0.1000000000000346
 50
90.0
 51
164.99980499355451
  0
ARC
  5
57D3
  8
AM_0
 10
158.77403199101741
 20
445.51528618431018
 30
0.0
 40
0.3000000000000043
 50
0.0
 51
90.0
  0
LINE
  5
57D4
  8
AM_0
 10
157.57403199101731
 20
443.40211916481832
 30
0.0
 11
158.7939876941744
 21
443.48344954502909
 31
0.0
  0
LINE
  5
57D5
  8
AM_0
 10
157.57403199101731
 20
444.55837120065831
 30
0.0
 11
158.7740319910173
 21
444.55837120065831
 31
0.0
  0
LINE
  5
57D6
  8
AM_0
 10
159.07403199101731
 20
443.80211916481829
 30
0.0
 11
157.57403199101731
 21
443.80211916481829
 31
0.0
  0
ARC
  5
57D7
  8
AM_0
 10
159.07403199101731
 20
444.30211916481829
 30
0.0
 40
0.5
 50
270.0
 51
0.0
  0
LINE
  5
57D8
  8
AM_0
 10
159.07403199101731
 20
443.7827850923864
 30
0.0
 11
159.07403199101731
 21
443.80211916481829
 31
0.0
  0
LINE
  5
57D9
  8
AM_0
 10
159.07403199101731
 20
443.50211916481828
 30
0.0
 11
159.07403199101731
 21
443.7827850923864
 31
0.0
  0
LINE
  5
57DA
  8
AM_0
 10
158.7939876941744
 20
443.48344954502909
 30
0.0
 11
159.07403199101731
 21
443.50211916481828
 31
0.0
  0
ARC
  5
57DB
  8
AM_0
 10
158.77403199101741
 20
443.7827850923864
 30
0.0
 40
0.3000000000000007
 50
273.8140748342816
 51
0.0
  0
LINE
  5
57DC
  8
AM_0
 10
160.14597065893821
 20
444.95211916481821
 30
0.0
 11
160.22270308736421
 21
444.95211916481821
 31
0.0
  0
LINE
  5
57DD
  8
AM_0
 10
160.22270308736421
 20
444.95211916481821
 30
0.0
 11
160.24256315347731
 21
445.02623693155471
 31
0.0
  0
LINE
  5
57DE
  8
AM_0
 10
159.6538076514752
 20
445.02623693155471
 30
0.0
 11
159.6736677175893
 21
444.95211916481821
 31
0.0
  0
LINE
  5
57DF
  8
AM_0
 10
159.6736677175893
 20
444.95211916481821
 30
0.0
 11
159.75040014601419
 21
444.95211916481821
 31
0.0
  0
LINE
  5
57E0
  8
AM_0
 10
160.24256315347731
 20
445.02623693155471
 30
0.0
 11
160.40380765147489
 21
445.62800139808161
 31
0.0
  0
LINE
  5
57E1
  8
AM_0
 10
159.75040014601419
 20
444.95211916481821
 30
0.0
 11
160.14597065893821
 21
444.95211916481821
 31
0.0
  0
LINE
  5
57E2
  8
AM_0
 10
159.57403199101819
 20
445.32395969637918
 30
0.0
 11
159.6538076514752
 21
445.02623693155471
 31
0.0
  0
ARC
  5
57E3
  8
AM_0
 10
160.14597065893821
 20
445.05211916481829
 30
0.0
 40
0.0999999999999866
 50
270.0
 51
344.99980499343292
  0
ARC
  5
57E4
  8
AM_0
 10
159.75040014601419
 20
445.05211916481829
 30
0.0
 40
0.1000000000000014
 50
195.000195006567
 51
270.0
  0
LINE
  5
57E5
  8
AM_0
 10
159.07403199101731
 20
444.85837120065821
 30
0.0
 11
159.07403199101731
 21
445.51528618431018
 31
0.0
  0
ARC
  5
57E6
  8
AM_0
 10
158.77403199101741
 20
444.8583712006585
 30
0.0
 40
0.3000000000000007
 50
270.0
 51
0.0
  0
LINE
  5
57E7
  8
AM_0
 10
157.57403199101731
 20
448.35694841252621
 30
0.0
 11
158.7740319910173
 21
448.35694841252621
 31
0.0
  0
LINE
  5
57E8
  8
AM_0
 10
158.7740319910173
 20
445.81528618431008
 30
0.0
 11
157.57403199101731
 21
445.81528618431008
 31
0.0
  0
LINE
  5
57E9
  8
AM_0
 10
160.4236677175893
 20
445.70211916481821
 30
0.0
 11
160.5004001460143
 21
445.70211916481821
 31
0.0
  0
ARC
  5
57EA
  8
AM_0
 10
158.77403199101741
 20
448.65694841252628
 30
0.0
 40
0.3000000000000007
 50
270.0
 51
0.0
  0
LINE
  5
57EB
  8
AM_0
 10
158.7740319910173
 20
450.12919159895921
 30
0.0
 11
157.57403199101731
 21
450.12919159895921
 31
0.0
  0
ARC
  5
57EC
  8
AM_0
 10
158.77403199101741
 20
449.82919159895931
 30
0.0
 40
0.3000000000000043
 50
0.0
 51
90.0
  0
LINE
  5
57ED
  8
AM_0
 10
158.7740319910173
 20
453.80211916481721
 30
0.0
 11
157.57403199101731
 21
453.80211916481721
 31
0.0
  0
ARC
  5
57EE
  8
AM_0
 10
158.77403199101741
 20
454.10211916481728
 30
0.0
 40
0.3000000000000007
 50
270.0
 51
0.0
  0
LINE
  5
57EF
  8
AM_0
 10
148.57403199101731
 20
444.66883933617117
 30
0.0
 11
155.07403199101731
 21
444.66883933617117
 31
0.0
  0
LINE
  5
57F0
  8
AM_0
 10
148.57403199101731
 20
444.16883933617129
 30
0.0
 11
155.07403199101731
 21
444.16883933617129
 31
0.0
  0
LINE
  5
57F1
  8
AM_0
 10
155.07403199101731
 20
454.30211916481829
 30
0.0
 11
148.57403199101731
 21
454.30211916481829
 31
0.0
  0
LINE
  5
57F2
  8
AM_0
 10
148.07403199101731
 20
453.80211916481829
 30
0.0
 11
155.07403199101731
 21
453.80211916481829
 31
0.0
  0
LINE
  5
57F3
  8
AM_0
 10
154.7740319910173
 20
443.80211916481829
 30
0.0
 11
147.93608192619931
 21
443.80211916481829
 31
0.0
  0
LINE
  5
57F4
  8
AM_0
 10
155.07403199101731
 20
453.4554310962771
 30
0.0
 11
148.57403199101731
 21
453.4554310962771
 31
0.0
  0
LINE
  5
57F5
  8
AM_0
 10
155.07403199101731
 20
445.14880723335909
 30
0.0
 11
148.57403199101731
 21
445.14880723335909
 31
0.0
  0
ARC
  5
57F6
  8
AM_0
 10
155.37403199101729
 20
443.1021191648183
 30
0.0
 40
0.2999999999999971
 50
180.0
 51
270.0
  0
ARC
  5
57F7
  8
AM_0
 10
154.77403199101741
 20
443.50211916481828
 30
0.0
 40
0.2999999999999971
 50
0.0
 51
90.0
  0
ARC
  5
57F8
  8
AM_0
 10
156.69903199101731
 20
449.30211916481829
 30
0.0
 40
9.124999999999984
 50
152.92493329271929
 51
207.07506670728071
  0
LINE
  5
57F9
  8
AM_0
 10
147.29589752653479
 20
444.03389788522071
 30
0.0
 11
144.93384759135279
 21
446.00227283120591
 31
0.0
  0
LINE
  5
57FA
  8
AM_0
 10
148.07403199101731
 20
444.3805517483263
 30
0.0
 11
148.57403199101731
 21
443.80211916481829
 31
0.0
  0
ARC
  5
57FB
  8
AM_0
 10
147.93608192619919
 20
444.80211916481829
 30
0.0
 40
1.0
 50
230.19442890774391
 51
270.0
  0
LINE
  5
57FC
  8
AM_0
 10
148.57403199101731
 20
444.16883933617129
 30
0.0
 11
148.07403199101731
 21
444.3805517483263
 31
0.0
  0
LINE
  5
57FD
  8
AM_0
 10
148.07403199101731
 20
444.84282702129741
 30
0.0
 11
148.57403199101731
 21
444.16883933617129
 31
0.0
  0
LINE
  5
57FE
  8
AM_0
 10
148.57403199101731
 20
444.66883933617117
 30
0.0
 11
148.07403199101731
 21
444.84282702129741
 31
0.0
  0
LINE
  5
57FF
  8
AM_0
 10
148.07403199101731
 20
445.3805517483263
 30
0.0
 11
148.57403199101731
 21
444.66883933617117
 31
0.0
  0
LINE
  5
5800
  8
AM_0
 10
148.57403199101731
 20
445.14880723335909
 30
0.0
 11
148.07403199101731
 21
445.3805517483263
 31
0.0
  0
ARC
  5
5801
  8
AM_0
 10
145.57403199101731
 20
446.77049411080333
 30
0.0
 40
1.0000000000000291
 50
180.0
 51
230.19442890773581
  0
LINE
  5
5802
  8
AM_0
 10
148.57403199101731
 20
454.30211916481829
 30
0.0
 11
148.07403199101731
 21
454.80211916481829
 31
0.0
  0
LINE
  5
5803
  8
AM_0
 10
148.07403199101731
 20
453.80211916481829
 30
0.0
 11
148.57403199101731
 21
454.30211916481829
 31
0.0
  0
LINE
  5
5804
  8
AM_0
 10
148.57403199101731
 20
453.4554310962771
 30
0.0
 11
148.07403199101731
 21
453.80211916481829
 31
0.0
  0
LINE
  5
5805
  8
AM_0
 10
155.37403199101729
 20
466.80211916481829
 30
0.0
 11
157.57403199101731
 21
466.80211916481829
 31
0.0
  0
ARC
  5
5806
  8
AM_0
 10
169.47270308736319
 20
467.30211916481829
 30
0.0
 40
0.5
 50
269.99999999998693
 51
0.0
  0
LINE
  5
5807
  8
AM_0
 10
164.4727030873633
 20
463.90211916481832
 30
0.0
 11
161.2504001460143
 21
463.90211916481832
 31
0.0
  0
LINE
  5
5808
  8
AM_0
 10
169.9727030873633
 20
455.94604784341152
 30
0.0
 11
169.9727030873633
 21
465.65819048622649
 31
0.0
  0
LINE
  5
5809
  8
AM_0
 10
164.9727030873633
 20
455.44604784341152
 30
0.0
 11
169.4727030873633
 21
455.44604784341152
 31
0.0
  0
ARC
  5
580A
  8
AM_0
 10
169.47270308736319
 20
455.94604784341152
 30
0.0
 40
0.5
 50
270.0
 51
0.0
  0
LINE
  5
580B
  8
AM_0
 10
164.9727030873633
 20
466.15819048622649
 30
0.0
 11
169.4727030873633
 21
466.15819048622649
 31
0.0
  0
LINE
  5
580C
  8
AM_0
 10
169.47270308736319
 20
466.80211916481829
 30
0.0
 11
165.4727030873633
 21
466.80211916481829
 31
0.0
  0
ARC
  5
580D
  8
AM_0
 10
169.47270308736319
 20
465.65819048622649
 30
0.0
 40
0.5
 50
0.0
 51
90.0
  0
ARC
  5
580E
  8
AM_0
 10
164.47270308736319
 20
464.40211916481832
 30
0.0
 40
0.5
 50
270.0
 51
0.0
  0
ARC
  5
580F
  8
AM_0
 10
165.47270308736319
 20
466.30211916481829
 30
0.0
 40
0.5
 50
90.0
 51
180.0
  0
ARC
  5
5810
  8
AM_0
 10
158.77403199101741
 20
460.94728991711042
 30
0.0
 40
0.3000000000000114
 50
0.0
 51
90.0
  0
LINE
  5
5811
  8
AM_0
 10
157.57403199101731
 20
455.80211916482011
 30
0.0
 11
158.7740319910173
 21
455.80211916482011
 31
0.0
  0
ARC
  5
5812
  8
AM_0
 10
158.77403199101741
 20
455.50211916482027
 30
0.0
 40
0.2999999999999971
 50
0.0
 51
90.0
  0
LINE
  5
5813
  8
AM_0
 10
157.57403199101731
 20
459.47504673067721
 30
0.0
 11
158.7740319910173
 21
459.47504673067721
 31
0.0
  0
ARC
  5
5814
  8
AM_0
 10
158.77403199101741
 20
459.77504673067727
 30
0.0
 40
0.3000000000000007
 50
270.0
 51
0.0
  0
LINE
  5
5815
  8
AM_0
 10
159.07403199101731
 20
459.77504673067727
 30
0.0
 11
159.07403199101731
 21
460.94728991711042
 31
0.0
  0
LINE
  5
5816
  8
AM_0
 10
160.5004001460143
 20
464.65211916481832
 30
0.0
 11
160.8959706589383
 21
464.65211916481832
 31
0.0
  0
LINE
  5
5817
  8
AM_0
 10
160.5004001460143
 20
464.65211916481832
 30
0.0
 11
160.8959706589383
 21
464.65211916481832
 31
0.0
  0
LINE
  5
5818
  8
AM_0
 10
160.99256315347731
 20
464.57800139808171
 30
0.0
 11
161.1538076514752
 21
463.97623693155458
 31
0.0
  0
LINE
  5
5819
  8
AM_0
 10
160.99256315347731
 20
464.57800139808171
 30
0.0
 11
161.1538076514752
 21
463.97623693155458
 31
0.0
  0
ARC
  5
581A
  8
AM_0
 10
161.2504001460143
 20
464.00211916481828
 30
0.0
 40
0.0999999999999943
 50
195.00019500651641
 51
270.0
  0
ARC
  5
581B
  8
AM_0
 10
160.8959706589383
 20
464.55211916481841
 30
0.0
 40
0.0999999999999943
 50
15.000195006505431
 51
90.0
  0
LINE
  5
581C
  8
AM_0
 10
159.5731854024761
 20
464.27711916481849
 30
0.0
 11
159.6538076514752
 21
463.97623693155458
 31
0.0
  0
LINE
  5
581D
  8
AM_0
 10
160.22541373956921
 20
463.94138369791631
 30
0.0
 11
160.40380765147509
 21
464.57800139808171
 31
0.0
  0
LINE
  5
581E
  8
AM_0
 10
160.24256315347731
 20
463.97623693155458
 30
0.0
 11
160.40380765147509
 21
464.57800139808171
 31
0.0
  0
LINE
  5
581F
  8
AM_0
 10
159.07403199101731
 20
464.0889521453272
 30
0.0
 11
159.07403199101731
 21
464.74586712897838
 31
0.0
  0
LINE
  5
5820
  8
AM_0
 10
159.57403199101731
 20
464.27395969638008
 30
0.0
 11
159.6538076514752
 21
463.97623693155458
 31
0.0
  0
LINE
  5
5821
  8
AM_0
 10
157.57403199101731
 20
463.78895214532719
 30
0.0
 11
158.7740319910173
 21
463.78895214532719
 31
0.0
  0
LINE
  5
5822
  8
AM_0
 10
158.7740319910173
 20
461.24728991711021
 30
0.0
 11
157.57403199101731
 21
461.24728991711117
 31
0.0
  0
LINE
  5
5823
  8
AM_0
 10
160.17860292445329
 20
463.90211916481832
 30
0.0
 11
160.22541373956921
 21
463.94138369791631
 31
0.0
  0
LINE
  5
5824
  8
AM_0
 10
159.75040014601419
 20
463.90211916481832
 30
0.0
 11
160.17860292445329
 21
463.90211916481832
 31
0.0
  0
LINE
  5
5825
  8
AM_0
 10
159.75040014601419
 20
463.90211916481832
 30
0.0
 11
160.14597065893821
 21
463.90211916481832
 31
0.0
  0
ARC
  5
5826
  8
AM_0
 10
159.75040014601419
 20
464.00211916481828
 30
0.0
 40
0.0999999999999943
 50
195.00019500651641
 51
270.0
  0
ARC
  5
5827
  8
AM_0
 10
160.14597065893821
 20
464.00211916481828
 30
0.0
 40
0.0999999999999608
 50
270.0
 51
344.99980499348368
  0
ARC
  5
5828
  8
AM_0
 10
158.77403199101741
 20
464.0889521453272
 30
0.0
 40
0.3000000000000007
 50
270.0
 51
0.0
  0
LINE
  5
5829
  8
AM_0
 10
157.57403199101731
 20
465.80211916481829
 30
0.0
 11
159.07403199101731
 21
465.80211916481829
 31
0.0
  0
LINE
  5
582A
  8
AM_0
 10
158.7740319910173
 20
465.04586712897822
 30
0.0
 11
157.57403199101731
 21
465.04586712897822
 31
0.0
  0
LINE
  5
582B
  8
AM_0
 10
158.7939876941744
 20
466.12078878460818
 30
0.0
 11
157.57403199101731
 21
466.20211916481821
 31
0.0
  0
ARC
  5
582C
  8
AM_0
 10
159.07403199101731
 20
465.30211916481829
 30
0.0
 40
0.5
 50
0.0
 51
90.0
  0
ARC
  5
582D
  8
AM_0
 10
160.5004001460143
 20
464.55211916481841
 30
0.0
 40
0.0999999999999606
 50
90.0
 51
164.99980499349451
  0
ARC
  5
582E
  8
AM_0
 10
158.77403199101741
 20
464.74586712897838
 30
0.0
 40
0.2999999999999971
 50
0.0
 51
90.0
  0
LINE
  5
582F
  8
AM_0
 10
159.07403199101731
 20
465.80211916481829
 30
0.0
 11
159.07403199101731
 21
465.82145323725121
 31
0.0
  0
ARC
  5
5830
  8
AM_0
 10
158.77403199101741
 20
465.82145323725121
 30
0.0
 40
0.3000000000000043
 50
0.0
 51
86.185925165718416
  0
ARC
  5
5831
  8
AM_0
 10
170.47270308736319
 20
467.80211916481829
 30
0.0
 40
0.5
 50
90.0
 51
180.0
  0
LINE
  5
5832
  8
AM_0
 10
169.9727030873633
 20
467.80211916481829
 30
0.0
 11
169.9727030873633
 21
467.30211916481829
 31
0.0
  0
LINE
  5
5833
  8
AM_0
 10
148.57403199101731
 20
464.4554310962771
 30
0.0
 11
155.07403199101731
 21
464.4554310962771
 31
0.0
  0
LINE
  5
5834
  8
AM_0
 10
148.57403199101731
 20
456.14880723335921
 30
0.0
 11
155.07403199101731
 21
456.14880723335921
 31
0.0
  0
LINE
  5
5835
  8
AM_0
 10
147.93608192619931
 20
465.80211916481829
 30
0.0
 11
154.7740319910173
 21
465.80211916481829
 31
0.0
  0
LINE
  5
5836
  8
AM_0
 10
155.07403199101731
 20
455.80211916481829
 30
0.0
 11
148.07403199101731
 21
455.80211916481829
 31
0.0
  0
LINE
  5
5837
  8
AM_0
 10
148.57403199101731
 20
455.30211916481829
 30
0.0
 11
155.07403199101731
 21
455.30211916481829
 31
0.0
  0
LINE
  5
5838
  8
AM_0
 10
155.07403199101731
 20
465.43539899346598
 30
0.0
 11
148.57403199101731
 21
465.43539899346598
 31
0.0
  0
LINE
  5
5839
  8
AM_0
 10
155.07403199101731
 20
464.93539899346598
 30
0.0
 11
148.57403199101731
 21
464.93539899346598
 31
0.0
  0
ARC
  5
583A
  8
AM_0
 10
154.77403199101741
 20
466.1021191648183
 30
0.0
 40
0.3000000000000043
 50
270.0
 51
0.0
  0
ARC
  5
583B
  8
AM_0
 10
155.37403199101729
 20
466.50211916481828
 30
0.0
 40
0.2999999999999971
 50
90.0
 51
180.0
  0
ARC
  5
583C
  8
AM_0
 10
156.69903199101731
 20
460.30211916481829
 30
0.0
 40
9.124999999999984
 50
152.92493329271929
 51
207.07506670728071
  0
LINE
  5
583D
  8
AM_0
 10
148.07403199101731
 20
455.80211916481829
 30
0.0
 11
148.57403199101731
 21
456.14880723335921
 31
0.0
  0
LINE
  5
583E
  8
AM_0
 10
148.57403199101731
 20
455.30211916481829
 30
0.0
 11
148.07403199101731
 21
455.80211916481829
 31
0.0
  0
LINE
  5
583F
  8
AM_0
 10
144.93384759135279
 20
463.60196549843158
 30
0.0
 11
147.29589752653479
 21
465.57034044441582
 31
0.0
  0
LINE
  5
5840
  8
AM_0
 10
148.57403199101731
 20
465.80211916481829
 30
0.0
 11
148.07403199101731
 21
465.22368658131131
 31
0.0
  0
ARC
  5
5841
  8
AM_0
 10
147.93608192619919
 20
464.80211916481829
 30
0.0
 40
1.0000000000000411
 50
90.0
 51
129.805571092256
  0
LINE
  5
5842
  8
AM_0
 10
148.07403199101731
 20
464.22368658131131
 30
0.0
 11
148.57403199101731
 21
464.4554310962771
 31
0.0
  0
LINE
  5
5843
  8
AM_0
 10
148.57403199101731
 20
464.93539899346598
 30
0.0
 11
148.07403199101731
 21
464.22368658131131
 31
0.0
  0
LINE
  5
5844
  8
AM_0
 10
148.07403199101731
 20
464.7614113083394
 30
0.0
 11
148.57403199101731
 21
464.93539899346598
 31
0.0
  0
LINE
  5
5845
  8
AM_0
 10
148.57403199101731
 20
465.43539899346598
 30
0.0
 11
148.07403199101731
 21
464.7614113083394
 31
0.0
  0
LINE
  5
5846
  8
AM_0
 10
148.07403199101731
 20
465.22368658131131
 30
0.0
 11
148.57403199101731
 21
465.43539899346598
 31
0.0
  0
ARC
  5
5847
  8
AM_0
 10
145.57403199101731
 20
462.83374421883423
 30
0.0
 40
1.0
 50
129.8055710922641
 51
180.0
  0
LINE
  5
5848
  8
AM_0
 10
269.97270308736341
 20
431.80211916481858
 30
0.0
 11
249.158198187831
 21
431.80211916481858
 31
0.0
  0
LINE
  5
5849
  8
AM_0
 10
194.78720798689571
 20
431.80211916481858
 30
0.0
 11
173.97270308736401
 21
431.80211916481858
 31
0.0
  0
LINE
  5
584A
  8
AM_0
 10
263.83692141820239
 20
427.80211916481858
 30
0.0
 11
180.10848475652421
 21
427.80211916481858
 31
0.0
  0
LINE
  5
584B
  8
AM_0
 10
182.8800580596704
 20
429.74318165269062
 30
0.0
 11
182.9727030873639
 21
430.80211916481858
 31
0.0
  0
LINE
  5
584C
  8
AM_0
 10
175.06534811505739
 20
429.74318165269062
 30
0.0
 11
174.97270308736401
 21
430.80211916481858
 31
0.0
  0
ARC
  5
584D
  8
AM_0
 10
178.97270308736401
 20
434.2021191648185
 30
0.0
 40
6.5
 50
241.82726586813479
 51
298.17273413186518
  0
ARC
  5
584E
  8
AM_0
 10
176.65925963200431
 20
429.88263084108712
 30
0.0
 40
1.6000000000000001
 50
185.0
 51
241.82726586813479
  0
LINE
  5
584F
  8
AM_0
 10
181.27270308736371
 20
428.12264550339029
 30
0.0
 11
178.9727030873639
 21
430.4122051821858
 31
0.0
  0
LINE
  5
5850
  8
AM_0
 10
179.28420308736389
 20
430.10211916481842
 30
0.0
 11
178.6612030873639
 21
430.10211916481842
 31
0.0
  0
LINE
  5
5851
  8
AM_0
 10
176.672703087364
 20
428.12264550339029
 30
0.0
 11
178.9727030873639
 21
430.4122051821858
 31
0.0
  0
LINE
  5
5852
  8
AM_0
 10
179.28420308736389
 20
427.7095874744839
 30
0.0
 11
179.28420308736389
 21
430.10211916481842
 31
0.0
  0
LINE
  5
5853
  8
AM_0
 10
178.6612030873639
 20
427.7095874744839
 30
0.0
 11
178.6612030873639
 21
430.10211916481842
 31
0.0
  0
ARC
  5
5854
  8
AM_0
 10
181.28614654272349
 20
429.88263084108712
 30
0.0
 40
1.6000000000000001
 50
298.17273413186518
 51
354.99999999999977
  0
LINE
  5
5855
  8
AM_0
 10
269.97270308736353
 20
431.80211916481858
 30
0.0
 11
269.97270308736353
 21
435.80211916481858
 31
0.0
  0
LINE
  5
5856
  8
AM_0
 10
173.9727030873631
 20
435.80211916481852
 30
0.0
 11
173.9727030873641
 21
431.80211916481858
 31
0.0
  0
LINE
  5
5857
  8
AM_0N
 10
182.77270308736399
 20
431.80211916481858
 30
0.0
 11
182.77270308736399
 21
430.80211916481858
 31
0.0
  0
LINE
  5
5858
  8
AM_0N
 10
179.17270308736391
 20
430.80211916481858
 30
0.0
 11
179.5366733216301
 21
431.80211916481858
 31
0.0
  0
LINE
  5
5859
  8
AM_0N
 10
178.77270308736399
 20
430.80211916481858
 30
0.0
 11
179.1366733216301
 21
431.80211916481858
 31
0.0
  0
LINE
  5
585A
  8
AM_0N
 10
174.9727030873639
 20
430.80211916481858
 30
0.0
 11
182.9727030873639
 21
430.80211916481858
 31
0.0
  0
LINE
  5
585B
  8
AM_0N
 10
175.17270308736391
 20
430.80211916481858
 30
0.0
 11
175.17270308736391
 21
431.80211916481858
 31
0.0
  0
LINE
  5
585C
  8
AM_0
 10
194.7872079868956
 20
427.80211916481858
 30
0.0
 11
194.7872079868956
 21
431.80211916481858
 31
0.0
  0
LINE
  5
585D
  8
AM_0
 10
193.13035373740311
 20
431.80211916481858
 30
0.0
 11
194.7872079868956
 21
427.80211916481858
 31
0.0
  0
LINE
  5
585E
  8
AM_0
 10
249.158198187831
 20
427.80211916481858
 30
0.0
 11
249.158198187831
 21
431.80211916481858
 31
0.0
  0
LINE
  5
585F
  8
AM_0
 10
250.81505243732349
 20
431.80211916481858
 30
0.0
 11
249.158198187831
 21
427.80211916481858
 31
0.0
  0
LINE
  5
5860
  8
AM_0
 10
188.4727030873633
 20
476.80211916481858
 30
0.0
 11
255.47270308736341
 21
476.80211916481858
 31
0.0
  0
LINE
  5
5861
  8
AM_0
 10
188.4727030873633
 20
476.80211916481858
 30
0.0
 11
188.4727030873633
 21
474.80211916481852
 31
0.0
  0
LINE
  5
5862
  8
AM_0
 10
255.47270308736341
 20
476.80211916481858
 30
0.0
 11
255.47270308736341
 21
474.80211916481852
 31
0.0
  0
LINE
  5
5863
  8
ﾁｭｳｼﾝｾﾝ1
 10
264.97270308736267
 20
425.53741166481848
 30
0.0
 11
264.97270308736267
 21
438.53741166481842
 31
0.0
  0
LINE
  5
5864
  8
AM_0
 10
261.06534811505628
 20
429.74318165269062
 30
0.0
 11
260.97270308736279
 21
430.80211916481858
 31
0.0
  0
LINE
  5
5865
  8
AM_0
 10
268.8800580596693
 20
429.74318165269062
 30
0.0
 11
268.97270308736267
 21
430.80211916481858
 31
0.0
  0
ARC
  5
5866
  8
AM_0
 10
264.97270308736302
 20
434.2021191648185
 30
0.0
 40
6.5
 50
241.82726586813479
 51
298.17273413186518
  0
ARC
  5
5867
  8
AM_0
 10
267.28614654272258
 20
429.88263084108689
 30
0.0
 40
1.6000000000000001
 50
298.17273413186518
 51
354.99999999999977
  0
LINE
  5
5868
  8
AM_0
 10
262.67270308736278
 20
428.12264550339029
 30
0.0
 11
264.97270308736279
 21
430.4122051821858
 31
0.0
  0
LINE
  5
5869
  8
AM_0
 10
264.66120308736282
 20
430.10211916481842
 30
0.0
 11
265.28420308736281
 21
430.10211916481842
 31
0.0
  0
LINE
  5
586A
  8
AM_0
 10
267.27270308736269
 20
428.12264550339029
 30
0.0
 11
264.97270308736279
 21
430.4122051821858
 31
0.0
  0
LINE
  5
586B
  8
AM_0
 10
264.66120308736282
 20
427.7095874744839
 30
0.0
 11
264.66120308736282
 21
430.10211916481842
 31
0.0
  0
LINE
  5
586C
  8
AM_0
 10
265.28420308736281
 20
427.7095874744839
 30
0.0
 11
265.28420308736281
 21
430.10211916481842
 31
0.0
  0
ARC
  5
586D
  8
AM_0
 10
262.65925963200328
 20
429.88263084108689
 30
0.0
 40
1.6000000000000001
 50
185.0
 51
241.82726586813479
  0
LINE
  5
586E
  8
AM_0N
 10
261.17270308736272
 20
431.80211916481858
 30
0.0
 11
261.17270308736272
 21
430.80211916481858
 31
0.0
  0
LINE
  5
586F
  8
AM_0N
 10
264.77270308736269
 20
430.80211916481858
 30
0.0
 11
264.40873285309658
 21
431.80211916481858
 31
0.0
  0
LINE
  5
5870
  8
AM_0N
 10
265.17270308736272
 20
430.80211916481858
 30
0.0
 11
264.80873285309661
 21
431.80211916481858
 31
0.0
  0
LINE
  5
5871
  8
AM_0N
 10
268.97270308736279
 20
430.80211916481858
 30
0.0
 11
260.97270308736279
 21
430.80211916481858
 31
0.0
  0
LINE
  5
5872
  8
AM_0N
 10
268.77270308736269
 20
430.80211916481858
 30
0.0
 11
268.77270308736269
 21
431.80211916481858
 31
0.0
  0
LINE
  5
5873
  8
AM_0
 10
172.9727030873633
 20
438.80211916481829
 30
0.0
 11
172.97270308736319
 21
470.80211916481841
 31
0.0
  0
LINE
  5
5874
  8
ﾁｭｳｼﾝｾﾝ
 10
145.38927308736351
 20
542.80211916481835
 30
0.0
 11
400.33650308736333
 21
542.80211916481835
 31
0.0
  0
LINE
  5
5875
  8
AM_0
 10
372.97270308736353
 20
539.80211916481858
 30
0.0
 11
372.97270308736353
 21
545.80211916481835
 31
0.0
  0
LINE
  5
5876
  8
AM_0
 10
370.97268308736398
 20
533.30214916481827
 30
0.0
 11
394.97270308736353
 21
533.30214916481827
 31
0.0
  0
LINE
  5
5877
  8
AM_0
 10
370.97268308736358
 20
552.30214916481839
 30
0.0
 11
394.97270308736353
 21
552.3021491648185
 31
0.0
  0
LINE
  5
5878
  8
AM_0
 10
394.97270308736353
 20
533.30214916481827
 30
0.0
 11
394.97270308736353
 21
552.3021491648185
 31
0.0
  0
LINE
  5
5879
  8
AM_0
 10
372.97270308736353
 20
539.80211916481858
 30
0.0
 11
394.97270308736353
 21
539.80211916481858
 31
0.0
  0
LINE
  5
587A
  8
AM_0
 10
372.97270308736353
 20
545.80211916481835
 30
0.0
 11
394.97270308736353
 21
545.80211916481835
 31
0.0
  0
LINE
  5
587B
  8
AM_0
 10
339.97270308736353
 20
476.79820916481839
 30
0.0
 11
339.97270308736353
 21
485.9313591648185
 31
0.0
  0
LINE
  5
587C
  8
AM_0
 10
349.97270308736358
 20
493.98646916481829
 30
0.0
 11
349.97270308736358
 21
591.61778916481853
 31
0.0
  0
LINE
  5
587D
  8
AM_0
 10
344.84181308736368
 20
490.92961916481852
 30
0.0
 11
347.05125308736348
 21
490.9874791648183
 31
0.0
  0
LINE
  5
587E
  8
AM_0
 10
306.9465530873635
 20
476.7518191648183
 30
0.0
 11
304.99889308736351
 21
476.8028491648185
 31
0.0
  0
LINE
  5
587F
  8
AM_0
 10
307.97270308736353
 20
474.82902916481851
 30
0.0
 11
307.97270308736353
 21
480.82762916481829
 31
0.0
  0
LINE
  5
5880
  8
AM_0
 10
303.97270308736353
 20
473.80247916481829
 30
0.0
 11
303.97270308736353
 21
475.80314916481848
 31
0.0
  0
LINE
  5
5881
  8
AM_0
 10
360.10362308736359
 20
474.2457791648186
 30
0.0
 11
304.97273308736351
 21
472.80211916481858
 31
0.0
  0
LINE
  5
5882
  8
AM_0
 10
304.9727030873637
 20
472.8021491648185
 30
0.0
 11
286.84184308736349
 21
473.27690916481868
 31
0.0
  0
LINE
  5
5883
  8
AM_0
 10
362.97270308736353
 20
582.03923916481847
 30
0.0
 11
362.97270308736353
 21
500.36021916481849
 31
0.0
  0
LINE
  5
5884
  8
AM_0
 10
304.9727030873637
 20
482.80211916481829
 30
0.0
 11
304.9727030873637
 21
602.8021491648185
 31
0.0
  0
LINE
  5
5885
  8
AM_0
 10
354.84184308736349
 20
500.4296491648185
 30
0.0
 11
360.05125308736348
 21
500.56605916481851
 31
0.0
  0
LINE
  5
5886
  8
AM_0
 10
364.97270308736353
 20
479.24406916481843
 30
0.0
 11
364.97270308736353
 21
496.3602191648186
 31
0.0
  0
LINE
  5
5887
  8
AM_0
 10
281.97270308736341
 20
478.27519916481828
 30
0.0
 11
281.97270308736341
 21
486.27592916481848
 31
0.0
  0
LINE
  5
5888
  8
AM_0
 10
304.9727030873637
 20
482.80214916481827
 30
0.0
 11
313.43391308736369
 21
483.02369916481848
 31
0.0
  0
LINE
  5
5889
  8
AM_0
 10
339.97270308736353
 20
608.80604916481855
 30
0.0
 11
339.97270308736353
 21
599.67289916481855
 31
0.0
  0
LINE
  5
588A
  8
AM_0
 10
344.84184308736349
 20
594.67463916481847
 30
0.0
 11
347.05125308736348
 21
594.61677916481847
 31
0.0
  0
LINE
  5
588B
  8
AM_0
 10
306.9465530873635
 20
608.85243916481852
 30
0.0
 11
304.99892308736349
 21
608.80143916481848
 31
0.0
  0
LINE
  5
588C
  8
AM_0
 10
307.97270308736353
 20
610.77525916481852
 30
0.0
 11
307.97270308736353
 21
604.77662916481836
 31
0.0
  0
LINE
  5
588D
  8
AM_0
 10
303.97270308736353
 20
611.80180916481845
 30
0.0
 11
303.97270308736353
 21
609.80110916481851
 31
0.0
  0
LINE
  5
588E
  8
AM_0
 10
360.10359308736349
 20
611.35850916481854
 30
0.0
 11
304.97273308736351
 21
612.80214916481839
 31
0.0
  0
LINE
  5
588F
  8
AM_0
 10
304.97273308736351
 20
612.80211916481835
 30
0.0
 11
286.84184308736349
 21
612.32734916481866
 31
0.0
  0
LINE
  5
5890
  8
AM_0
 10
354.84184308736349
 20
585.17463916481836
 30
0.0
 11
360.05125308736348
 21
585.03822916481852
 31
0.0
  0
LINE
  5
5891
  8
AM_0
 10
364.97270308736353
 20
606.36018916481828
 30
0.0
 11
364.97270308736353
 21
589.24406916481826
 31
0.0
  0
LINE
  5
5892
  8
AM_0
 10
281.97270308736341
 20
607.32908916481836
 30
0.0
 11
281.97270308736341
 21
599.32832916481846
 31
0.0
  0
LINE
  5
5893
  8
AM_0
 10
304.97273308736351
 20
602.8021491648185
 30
0.0
 11
313.43394308736362
 21
602.58058916481821
 31
0.0
  0
LINE
  5
5894
  8
AM_0
 10
315.97270308736353
 20
585.53578916481854
 30
0.0
 11
315.97270308736353
 21
602.18382916481835
 31
0.0
  0
LINE
  5
5895
  8
AM_0
 10
317.97270308736353
 20
500.0684991648186
 30
0.0
 11
317.97270308736353
 21
585.53578916481854
 31
0.0
  0
LINE
  5
5896
  8
AM_0
 10
304.9727030873637
 20
598.32847916481865
 30
0.0
 11
315.97270308736353
 21
598.32847916481865
 31
0.0
  0
LINE
  5
5897
  8
AM_0
 10
304.9727030873637
 20
487.27580916481861
 30
0.0
 11
315.97270308736353
 21
487.27580916481861
 31
0.0
  0
LINE
  5
5898
  8
AM_0
 10
324.93574308736362
 20
597.33928916481852
 30
0.0
 11
318.17213308736359
 21
601.2442491648186
 31
0.0
  0
LINE
  5
5899
  8
AM_0
 10
315.97270308736353
 20
585.53578916481854
 30
0.0
 11
317.97270308736353
 21
585.53578916481854
 31
0.0
  0
LINE
  5
589A
  8
AM_0
 10
341.96168308736361
 20
595.6812091648186
 30
0.0
 11
329.67396308736357
 21
596.00297916481838
 31
0.0
  0
LINE
  5
589B
  8
AM_0
 10
329.47081308736358
 20
584.12397916481848
 30
0.0
 11
317.97270308736353
 21
585.53578916481854
 31
0.0
  0
LINE
  5
589C
  8
AM_0
 10
349.97270308736358
 20
583.40803916481832
 30
0.0
 11
329.47084308736362
 21
584.12397916481848
 31
0.0
  0
LINE
  5
589D
  8
AM_0
 10
324.93574308736362
 20
488.2649791648185
 30
0.0
 11
318.17216308736357
 21
484.36003916481872
 31
0.0
  0
LINE
  5
589E
  8
AM_0
 10
315.97270308736353
 20
500.0684991648186
 30
0.0
 11
315.97270308736353
 21
483.42045916481862
 31
0.0
  0
LINE
  5
589F
  8
AM_0
 10
349.97270308736358
 20
502.1962191648185
 30
0.0
 11
329.47081308736358
 21
501.48027916481851
 31
0.0
  0
LINE
  5
58A0
  8
AM_0
 10
329.47081308736358
 20
501.48030916481849
 30
0.0
 11
317.97270308736353
 21
500.0684991648186
 31
0.0
  0
LINE
  5
58A1
  8
AM_0
 10
315.97270308736353
 20
500.0684991648186
 30
0.0
 11
317.97270308736353
 21
500.0684991648186
 31
0.0
  0
LINE
  5
58A2
  8
AM_0
 10
341.96168308736361
 20
489.92308916481852
 30
0.0
 11
329.67396308736357
 21
489.60130916481842
 31
0.0
  0
LINE
  5
58A3
  8
AM_0
 10
316.9727030873637
 20
498.59440916481839
 30
0.0
 11
319.97270308736353
 21
498.59440916481839
 31
0.0
  0
LINE
  5
58A4
  8
AM_0
 10
316.9727030873637
 20
487.0473591648186
 30
0.0
 11
319.97270308736353
 21
487.0473591648186
 31
0.0
  0
LINE
  5
58A5
  8
AM_0
 10
316.9727030873637
 20
495.70762916481851
 30
0.0
 11
319.97270308736353
 21
495.70762916481851
 31
0.0
  0
LINE
  5
58A6
  8
AM_0
 10
320.9727030873637
 20
488.04738916481841
 30
0.0
 11
320.9727030873637
 21
497.59440916481861
 31
0.0
  0
LINE
  5
58A7
  8
AM_0
 10
316.9727030873637
 20
489.9341291648185
 30
0.0
 11
319.97270308736353
 21
489.9341291648185
 31
0.0
  0
LINE
  5
58A8
  8
AM_0
 10
315.97270308736353
 20
486.5473891648183
 30
0.0
 11
316.9727030873637
 21
486.5473891648183
 31
0.0
  0
LINE
  5
58A9
  8
AM_0
 10
315.97270308736353
 20
499.09437916481841
 30
0.0
 11
316.9727030873637
 21
499.09437916481841
 31
0.0
  0
LINE
  5
58AA
  8
AM_0
 10
316.9727030873637
 20
499.09437916481841
 30
0.0
 11
316.9727030873637
 21
486.5473891648183
 31
0.0
  0
LINE
  5
58AB
  8
AM_0
 10
316.9727030873637
 20
586.50987916481836
 30
0.0
 11
316.9727030873637
 21
599.05690916481853
 31
0.0
  0
LINE
  5
58AC
  8
AM_0
 10
315.97270308736353
 20
586.50987916481836
 30
0.0
 11
316.9727030873637
 21
586.50987916481836
 31
0.0
  0
LINE
  5
58AD
  8
AM_0
 10
315.97270308736353
 20
599.05690916481853
 30
0.0
 11
316.9727030873637
 21
599.05690916481853
 31
0.0
  0
LINE
  5
58AE
  8
AM_0
 10
316.9727030873637
 20
595.67015916481853
 30
0.0
 11
319.97270308736353
 21
595.67015916481853
 31
0.0
  0
LINE
  5
58AF
  8
AM_0
 10
320.9727030873637
 20
597.55690916481853
 30
0.0
 11
320.9727030873637
 21
588.00987916481836
 31
0.0
  0
LINE
  5
58B0
  8
AM_0
 10
316.9727030873637
 20
589.89662916481848
 30
0.0
 11
319.97270308736353
 21
589.89662916481848
 31
0.0
  0
LINE
  5
58B1
  8
AM_0
 10
316.9727030873637
 20
598.55690916481853
 30
0.0
 11
319.97270308736353
 21
598.55690916481853
 31
0.0
  0
LINE
  5
58B2
  8
AM_0
 10
316.9727030873637
 20
587.00987916481836
 30
0.0
 11
319.97270308736353
 21
587.00987916481836
 31
0.0
  0
LINE
  5
58B3
  8
AM_0
 10
298.97270308736341
 20
484.90757916481863
 30
0.0
 11
298.97270308736341
 21
600.69670916481834
 31
0.0
  0
LINE
  5
58B4
  8
AM_0
 10
304.97273308736351
 20
482.80211916481829
 30
0.0
 11
300.92039308736349
 21
482.90825916481862
 31
0.0
  0
LINE
  5
58B5
  8
AM_0
 10
300.92036308736363
 20
602.69603916481833
 30
0.0
 11
304.9727030873637
 21
602.8021491648185
 31
0.0
  0
LINE
  5
58B6
  8
AM_0
 10
280.97270308736353
 20
486.30211916481852
 30
0.0
 11
280.97270308736353
 21
599.30214916481839
 31
0.0
  0
LINE
  5
58B7
  8
AM_0
 10
280.97273308736362
 20
599.30214916481839
 30
0.0
 11
290.96706308736361
 21
599.56382916481834
 31
0.0
  0
LINE
  5
58B8
  8
AM_0
 10
289.97270308736353
 20
590.98643916481865
 30
0.0
 11
289.97270308736353
 21
597.83506916481826
 31
0.0
  0
LINE
  5
58B9
  8
AM_0
 10
291.92036308736351
 20
599.83439916481848
 30
0.0
 11
297.6013930873637
 21
599.98317916481835
 31
0.0
  0
LINE
  5
58BA
  8
AM_0
 10
280.97270308736353
 20
588.80244916481865
 30
0.0
 11
297.02507308736358
 21
589.22276916481849
 31
0.0
  0
LINE
  5
58BB
  8
AM_0
 10
291.92036308736351
 20
485.76988916481821
 30
0.0
 11
297.60136308736361
 21
485.62111916481859
 31
0.0
  0
LINE
  5
58BC
  8
AM_0
 10
280.97273308736362
 20
486.30214916481827
 30
0.0
 11
290.96706308736361
 21
486.04042916481831
 31
0.0
  0
LINE
  5
58BD
  8
AM_0
 10
289.97270308736353
 20
494.61784916481849
 30
0.0
 11
289.97270308736353
 21
487.76918916481827
 31
0.0
  0
LINE
  5
58BE
  8
AM_0
 10
280.97273308736362
 20
496.80183916481832
 30
0.0
 11
297.02507308736358
 21
496.38148916481828
 31
0.0
  0
LINE
  5
58BF
  8
AM_0
 10
271.17845308736349
 20
587.7310091648186
 30
0.0
 11
267.03273308736362
 21
603.21211916481832
 31
0.0
  0
LINE
  5
58C0
  8
AM_0
 10
271.17842308736363
 20
586.82100916481852
 30
0.0
 11
267.03270308736347
 21
602.30211916481835
 31
0.0
  0
LINE
  5
58C1
  8
AM_0
 10
271.17842308736363
 20
584.97102916481845
 30
0.0
 11
267.03270308736347
 21
600.45216916481854
 31
0.0
  0
LINE
  5
58C2
  8
AM_0
 10
272.97270308736353
 20
598.80211916481846
 30
0.0
 11
272.97270308736353
 21
486.80211916481829
 31
0.0
  0
LINE
  5
58C3
  8
AM_0
 10
150.97270308736361
 20
590.82213916481851
 30
0.0
 11
150.97270308736361
 21
547.80211916481858
 31
0.0
  0
LINE
  5
58C4
  8
AM_0
 10
153.2427230873634
 20
592.55211916481846
 30
0.0
 11
155.47270308736341
 21
592.55211916481846
 31
0.0
  0
LINE
  5
58C5
  8
AM_0
 10
153.17271308736309
 20
578.49205916481844
 30
0.0
 11
155.27269308736339
 21
578.49205916481844
 31
0.0
  0
LINE
  5
58C6
  8
AM_0
 10
152.7427230873634
 20
592.42207916481846
 30
0.0
 11
151.4727630873634
 21
591.68208916481854
 31
0.0
  0
LINE
  5
58C7
  8
AM_0
 10
152.73265308736359
 20
590.30217916481854
 30
0.0
 11
151.45268308736351
 21
589.53215916481838
 31
0.0
  0
LINE
  5
58C8
  8
AM_0
 10
152.72264308736359
 20
585.76213916481845
 30
0.0
 11
151.42265308736339
 21
584.91215916481838
 31
0.0
  0
LINE
  5
58C9
  8
AM_0
 10
152.78270308736339
 20
578.41212916481845
 30
0.0
 11
151.58275308736361
 21
577.9021191648186
 31
0.0
  0
LINE
  5
58CA
  8
AM_0
 10
153.25273308736359
 20
590.44212916481865
 30
0.0
 11
155.97270308736361
 21
590.44212916481865
 31
0.0
  0
LINE
  5
58CB
  8
AM_0
 10
153.2727530873635
 20
585.93211916481835
 30
0.0
 11
155.97270308736361
 21
585.93211916481835
 31
0.0
  0
LINE
  5
58CC
  8
AM_0
 10
153.12273308736351
 20
576.54210916481838
 30
0.0
 11
154.9727030873637
 21
576.54210916481838
 31
0.0
  0
LINE
  5
58CD
  8
AM_0
 10
153.2427230873634
 20
584.7921091648185
 30
0.0
 11
154.9727030873637
 21
584.7921091648185
 31
0.0
  0
LINE
  5
58CE
  8
AM_0
 10
153.22270308736341
 20
589.30211916481835
 30
0.0
 11
154.9727030873637
 21
589.30211916481835
 31
0.0
  0
LINE
  5
58CF
  8
AM_0
 10
153.21269308736359
 20
591.40208916481845
 30
0.0
 11
155.47270308736341
 21
591.40208916481845
 31
0.0
  0
LINE
  5
58D0
  8
AM_0
 10
152.74266308736381
 20
584.65214916481852
 30
0.0
 11
151.4626930873637
 21
583.90214916481852
 31
0.0
  0
LINE
  5
58D1
  8
AM_0
 10
152.83269308736359
 20
576.50215916481852
 30
0.0
 11
151.6827230873636
 21
576.15214916481852
 31
0.0
  0
LINE
  5
58D2
  8
AM_0
 10
152.76268308736351
 20
591.30211916481835
 30
0.0
 11
151.52269308736371
 21
590.67210916481838
 31
0.0
  0
LINE
  5
58D3
  8
AM_0
 10
152.75273308736359
 20
589.19215916481835
 30
0.0
 11
151.50273308736359
 21
588.52214916481853
 31
0.0
  0
LINE
  5
58D4
  8
AM_0
 10
154.9727030873637
 20
568.80211916481835
 30
0.0
 11
151.9727030873637
 21
568.80211916481835
 31
0.0
  0
LINE
  5
58D5
  8
AM_0
 10
154.9727030873637
 20
566.80211916481835
 30
0.0
 11
151.9727030873637
 21
566.80211916481835
 31
0.0
  0
LINE
  5
58D6
  8
AM_0
 10
154.9727030873637
 20
558.80211916481835
 30
0.0
 11
151.9727030873637
 21
558.80211916481835
 31
0.0
  0
LINE
  5
58D7
  8
AM_0
 10
154.9727030873637
 20
556.80211916481858
 30
0.0
 11
151.9727030873637
 21
556.80211916481858
 31
0.0
  0
LINE
  5
58D8
  8
AM_0
 10
154.9727030873637
 20
548.80211916481858
 30
0.0
 11
151.9727030873637
 21
548.80211916481858
 31
0.0
  0
LINE
  5
58D9
  8
AM_0
 10
154.9727030873637
 20
546.80211916481835
 30
0.0
 11
151.9727030873637
 21
546.80211916481835
 31
0.0
  0
LINE
  5
58DA
  8
AM_0
 10
152.9727030873637
 20
558.41209916481853
 30
0.0
 11
152.9727030873637
 21
557.2021391648185
 31
0.0
  0
LINE
  5
58DB
  8
AM_0
 10
152.9727030873637
 20
548.41209916481853
 30
0.0
 11
152.9727030873637
 21
547.25206916481852
 31
0.0
  0
LINE
  5
58DC
  8
AM_0
 10
152.9727030873637
 20
568.43211916481846
 30
0.0
 11
152.9727030873637
 21
567.06212916481854
 31
0.0
  0
LINE
  5
58DD
  8
AM_0
 10
152.9727030873637
 20
578.19212916481854
 30
0.0
 11
152.9727030873637
 21
577.13206916481852
 31
0.0
  0
LINE
  5
58DE
  8
AM_0
 10
152.9727030873637
 20
585.63206916481852
 30
0.0
 11
152.9727030873637
 21
585.16209916481853
 31
0.0
  0
LINE
  5
58DF
  8
AM_0
 10
152.9727030873637
 20
590.2021391648185
 30
0.0
 11
152.9727030873637
 21
589.65208916481845
 31
0.0
  0
LINE
  5
58E0
  8
AM_0
 10
152.9727030873637
 20
592.30211916481835
 30
0.0
 11
152.9727030873637
 21
591.77208916481845
 31
0.0
  0
LINE
  5
58E1
  8
AM_0
 10
149.47270308736361
 20
562.80211916481835
 30
0.0
 11
149.47270308736361
 21
542.80211916481835
 31
0.0
  0
LINE
  5
58E2
  8
AM_0
 10
149.47270308736361
 20
562.80208916481865
 30
0.0
 11
150.97270308736361
 21
562.93208916481854
 31
0.0
  0
LINE
  5
58E3
  8
AM_0
 10
149.47270308736361
 20
557.95213916481828
 30
0.0
 11
150.97270308736361
 21
557.95213916481828
 31
0.0
  0
LINE
  5
58E4
  8
AM_0
 10
149.47270308736361
 20
560.08214916481847
 30
0.0
 11
150.97270308736361
 21
560.08214916481847
 31
0.0
  0
LINE
  5
58E5
  8
AM_0
 10
266.31273308736348
 20
578.80211916481835
 30
0.0
 11
167.33269308736359
 21
578.80211916481835
 31
0.0
  0
LINE
  5
58E6
  8
AM_0
 10
266.31273308736348
 20
576.80211916481835
 30
0.0
 11
167.33269308736359
 21
576.80211916481835
 31
0.0
  0
LINE
  5
58E7
  8
AM_0
 10
233.9727030873637
 20
568.80211916481835
 30
0.0
 11
167.33269308736359
 21
568.80211916481835
 31
0.0
  0
LINE
  5
58E8
  8
AM_0
 10
266.3055330873637
 20
566.80211916481835
 30
0.0
 11
167.33269308736359
 21
566.80211916481835
 31
0.0
  0
LINE
  5
58E9
  8
AM_0
 10
201.41142308736349
 20
558.80211916481835
 30
0.0
 11
167.33269308736359
 21
558.80211916481835
 31
0.0
  0
LINE
  5
58EA
  8
AM_0
 10
201.41142308736349
 20
556.80211916481858
 30
0.0
 11
167.33269308736359
 21
556.80211916481858
 31
0.0
  0
LINE
  5
58EB
  8
AM_0
 10
201.41142308736349
 20
548.80211916481858
 30
0.0
 11
167.33269308736359
 21
548.80211916481858
 31
0.0
  0
LINE
  5
58EC
  8
AM_0
 10
201.41142308736349
 20
546.80211916481835
 30
0.0
 11
167.33269308736359
 21
546.80211916481835
 31
0.0
  0
LINE
  5
58ED
  8
AM_0
 10
166.65269308736379
 20
579.52208916481845
 30
0.0
 11
269.7927130873635
 21
579.52208916481845
 31
0.0
  0
LINE
  5
58EE
  8
AM_0
 10
166.65269308736379
 20
576.17210916481838
 30
0.0
 11
233.9927230873636
 21
576.17210916481838
 31
0.0
  0
LINE
  5
58EF
  8
AM_0
 10
166.4327230873634
 20
569.2921091648185
 30
0.0
 11
233.9727030873637
 21
569.2921091648185
 31
0.0
  0
LINE
  5
58F0
  8
AM_0
 10
166.4327230873634
 20
566.3621691648184
 30
0.0
 11
270.00694308736348
 21
566.3621691648184
 31
0.0
  0
LINE
  5
58F1
  8
AM_0
 10
166.3027230873636
 20
559.1420791648186
 30
0.0
 11
202.63139308736359
 21
559.1420791648186
 31
0.0
  0
LINE
  5
58F2
  8
AM_0
 10
166.3027230873636
 20
556.48216916481852
 30
0.0
 11
202.63139308736359
 21
556.48216916481852
 31
0.0
  0
LINE
  5
58F3
  8
AM_0
 10
166.2427230873634
 20
549.07213916481851
 30
0.0
 11
202.69139308736351
 21
549.07213916481851
 31
0.0
  0
LINE
  5
58F4
  8
AM_0
 10
166.2427230873634
 20
546.54210916481861
 30
0.0
 11
202.69139308736351
 21
546.54210916481861
 31
0.0
  0
LINE
  5
58F5
  8
AM_0
 10
166.2427230873634
 20
539.07213916481851
 30
0.0
 11
202.69139308736351
 21
539.07213916481851
 31
0.0
  0
LINE
  5
58F6
  8
AM_0
 10
201.41142308736349
 20
538.80211916481835
 30
0.0
 11
167.33269308736359
 21
538.80211916481835
 31
0.0
  0
LINE
  5
58F7
  8
AM_0
 10
201.41142308736349
 20
536.80211916481846
 30
0.0
 11
167.33269308736359
 21
536.80211916481846
 31
0.0
  0
LINE
  5
58F8
  8
AM_0
 10
166.2427230873634
 20
536.53209916481865
 30
0.0
 11
202.69139308736351
 21
536.53209916481865
 31
0.0
  0
LINE
  5
58F9
  8
AM_0
 10
166.3027230873636
 20
529.12205916481855
 30
0.0
 11
202.63139308736359
 21
529.12205916481855
 31
0.0
  0
LINE
  5
58FA
  8
AM_0
 10
201.41142308736349
 20
528.80211916481835
 30
0.0
 11
167.33269308736359
 21
528.80211916481835
 31
0.0
  0
LINE
  5
58FB
  8
AM_0
 10
201.41142308736349
 20
526.80211916481858
 30
0.0
 11
167.33269308736359
 21
526.80211916481858
 31
0.0
  0
LINE
  5
58FC
  8
AM_0
 10
166.3027230873636
 20
526.46214916481858
 30
0.0
 11
202.64397308736349
 21
526.46214916481858
 31
0.0
  0
LINE
  5
58FD
  8
AM_0
 10
266.3055330873637
 20
518.80211916481858
 30
0.0
 11
167.33269308736359
 21
518.80211916481858
 31
0.0
  0
LINE
  5
58FE
  8
AM_0
 10
166.4327230873634
 20
519.24205916481856
 30
0.0
 11
270.00694308736348
 21
519.24205916481856
 31
0.0
  0
LINE
  5
58FF
  8
AM_0
 10
233.9727030873637
 20
516.80211916481835
 30
0.0
 11
167.33269308736359
 21
516.80211916481835
 31
0.0
  0
LINE
  5
5900
  8
AM_0
 10
166.4327230873634
 20
516.31212916481854
 30
0.0
 11
233.9727030873637
 21
516.31212916481854
 31
0.0
  0
LINE
  5
5901
  8
AM_0
 10
266.31273308736348
 20
508.80211916481829
 30
0.0
 11
221.97270308736341
 21
508.80211916481829
 31
0.0
  0
LINE
  5
5902
  8
AM_0
 10
266.31273308736348
 20
506.80211916481829
 30
0.0
 11
221.97270308736341
 21
506.80211916481829
 31
0.0
  0
LINE
  5
5903
  8
AM_0
 10
166.65269308736379
 20
506.0821491648183
 30
0.0
 11
221.97270308736341
 21
506.0821491648183
 31
0.0
  0
LINE
  5
5904
  8
AM_0
 10
269.7927130873635
 20
509.43211916481852
 30
0.0
 11
251.9527430873635
 21
509.43211916481852
 31
0.0
  0
LINE
  5
5905
  8
AM_0
 10
153.17271308736309
 20
507.11216916481851
 30
0.0
 11
155.27269308736339
 21
507.11216916481851
 31
0.0
  0
LINE
  5
5906
  8
AM_0
 10
152.78276308736321
 20
507.19215916481852
 30
0.0
 11
151.58275308736361
 21
507.71217916481851
 31
0.0
  0
LINE
  5
5907
  8
AM_0
 10
153.12273308736351
 20
509.06212916481832
 30
0.0
 11
154.9727030873637
 21
509.06212916481832
 31
0.0
  0
LINE
  5
5908
  8
AM_0
 10
152.83269308736359
 20
509.1020991648183
 30
0.0
 11
151.6827230873636
 21
509.4621191648186
 31
0.0
  0
LINE
  5
5909
  8
AM_0
 10
154.9727030873637
 20
516.80211916481835
 30
0.0
 11
151.9727030873637
 21
516.80211916481835
 31
0.0
  0
LINE
  5
590A
  8
AM_0
 10
154.9727030873637
 20
518.80211916481858
 30
0.0
 11
151.9727030873637
 21
518.80211916481858
 31
0.0
  0
LINE
  5
590B
  8
AM_0
 10
154.9727030873637
 20
526.80211916481858
 30
0.0
 11
151.9727030873637
 21
526.80211916481858
 31
0.0
  0
LINE
  5
590C
  8
AM_0
 10
154.9727030873637
 20
528.80211916481835
 30
0.0
 11
151.9727030873637
 21
528.80211916481835
 31
0.0
  0
LINE
  5
590D
  8
AM_0
 10
154.9727030873637
 20
536.80211916481846
 30
0.0
 11
151.9727030873637
 21
536.80211916481846
 31
0.0
  0
LINE
  5
590E
  8
AM_0
 10
154.9727030873637
 20
538.80211916481835
 30
0.0
 11
151.9727030873637
 21
538.80211916481835
 31
0.0
  0
LINE
  5
590F
  8
AM_0
 10
152.9727030873637
 20
527.19212916481865
 30
0.0
 11
152.9727030873637
 21
528.41209916481853
 31
0.0
  0
LINE
  5
5910
  8
AM_0
 10
152.9727030873637
 20
537.19212916481865
 30
0.0
 11
152.9727030873637
 21
538.35215916481854
 31
0.0
  0
LINE
  5
5911
  8
AM_0
 10
152.9727030873637
 20
517.17210916481861
 30
0.0
 11
152.9727030873637
 21
518.54210916481861
 31
0.0
  0
LINE
  5
5912
  8
AM_0
 10
152.9727030873637
 20
507.4120991648183
 30
0.0
 11
152.9727030873637
 21
508.47215916481849
 31
0.0
  0
LINE
  5
5913
  8
AM_0
 10
149.47270308736361
 20
522.80211916481858
 30
0.0
 11
149.47270308736361
 21
542.80211916481835
 31
0.0
  0
LINE
  5
5914
  8
AM_0
 10
149.47270308736361
 20
522.80208916481865
 30
0.0
 11
150.97270308736361
 21
522.67207916481846
 31
0.0
  0
LINE
  5
5915
  8
AM_0
 10
149.47270308736361
 20
527.65208916481856
 30
0.0
 11
150.97270308736361
 21
527.65208916481856
 31
0.0
  0
LINE
  5
5916
  8
AM_0
 10
149.47270308736361
 20
525.52208916481845
 30
0.0
 11
150.97270308736361
 21
525.52208916481845
 31
0.0
  0
LINE
  5
5917
  8
AM_0
 10
166.65269308736379
 20
509.43211916481852
 30
0.0
 11
233.9927230873636
 21
509.43211916481852
 31
0.0
  0
LINE
  5
5918
  8
AM_0
 10
221.97270308736341
 20
508.80211916481829
 30
0.0
 11
167.33269308736359
 21
508.80211916481829
 31
0.0
  0
LINE
  5
5919
  8
AM_0
 10
221.97270308736341
 20
506.80211916481829
 30
0.0
 11
167.33269308736359
 21
506.80211916481829
 31
0.0
  0
LINE
  5
591A
  8
AM_0
 10
221.97270308736341
 20
506.0821491648183
 30
0.0
 11
269.7927130873635
 21
506.0821491648183
 31
0.0
  0
LINE
  5
591B
  8
AM_0
 10
156.97270308736361
 20
595.80211916481835
 30
0.0
 11
156.97270308736361
 21
489.80211916481858
 31
0.0
  0
LINE
  5
591C
  8
AM_0
 10
164.97270308736341
 20
595.80211916481835
 30
0.0
 11
164.97270308736341
 21
489.80211916481858
 31
0.0
  0
LINE
  5
591D
  8
AM_0
 10
151.4626930873637
 20
501.7021091648183
 30
0.0
 11
151.4426730873634
 21
501.71208916481828
 31
0.0
  0
LINE
  5
591E
  8
AM_0
 10
155.97270308736361
 20
592.80211916481835
 30
0.0
 11
155.97270308736361
 21
492.80211916481829
 31
0.0
  0
LINE
  5
591F
  8
AM_0
 10
155.97270308736361
 20
592.80211916481835
 30
0.0
 11
156.97270308736361
 21
592.80211916481835
 31
0.0
  0
LINE
  5
5920
  8
AM_0
 10
156.97270308736361
 20
595.80211916481835
 30
0.0
 11
164.97270308736341
 21
595.80211916481835
 31
0.0
  0
LINE
  5
5921
  8
AM_0
 10
157.67271308736321
 20
585.99205916481844
 30
0.0
 11
163.90269308736379
 21
585.99205916481844
 31
0.0
  0
LINE
  5
5922
  8
AM_0
 10
272.97270308736353
 20
588.80211916481835
 30
0.0
 11
280.97270308736353
 21
588.80211916481835
 31
0.0
  0
LINE
  5
5923
  8
AM_0
 10
272.97270308736353
 20
574.74205916481844
 30
0.0
 11
280.97270308736353
 21
574.74205916481844
 31
0.0
  0
LINE
  5
5924
  8
AM_0
 10
272.97270308736353
 20
598.80211916481846
 30
0.0
 11
280.97270308736353
 21
598.80211916481846
 31
0.0
  0
LINE
  5
5925
  8
AM_0
 10
168.1827230873634
 20
599.0821491648187
 30
0.0
 11
265.1027130873635
 21
599.0821491648187
 31
0.0
  0
LINE
  5
5926
  8
AM_0
 10
164.97270308736341
 20
590.90217916481845
 30
0.0
 11
166.2126930873635
 21
597.46217916481851
 31
0.0
  0
LINE
  5
5927
  8
AM_0
 10
170.33275308736339
 20
579.4521391648185
 30
0.0
 11
164.9727630873634
 21
590.90211916481849
 31
0.0
  0
LINE
  5
5928
  8
AM_0
 10
170.33269308736359
 20
506.15208916481851
 30
0.0
 11
164.9727630873634
 21
494.71217916481851
 31
0.0
  0
LINE
  5
5929
  8
AM_0
 10
168.22270308736341
 20
601.93211916481846
 30
0.0
 11
265.1027130873635
 21
601.93211916481846
 31
0.0
  0
LINE
  5
592A
  8
AM_0
 10
168.2427230873634
 20
603.78209916481865
 30
0.0
 11
265.1027130873635
 21
603.78209916481865
 31
0.0
  0
LINE
  5
592B
  8
AM_0
 10
168.2627430873635
 20
604.69212916481865
 30
0.0
 11
265.10277308736357
 21
604.69212916481865
 31
0.0
  0
LINE
  5
592C
  8
AM_0
 10
164.9727630873634
 20
592.24214916481844
 30
0.0
 11
166.25273308736359
 21
600.25209916481867
 31
0.0
  0
LINE
  5
592D
  8
AM_0
 10
164.9727630873634
 20
593.59208916481839
 30
0.0
 11
166.2627430873635
 21
602.0821791648184
 31
0.0
  0
LINE
  5
592E
  8
AM_0
 10
164.97270308736341
 20
593.59211916481854
 30
0.0
 11
166.28270308736339
 21
602.97215916481855
 31
0.0
  0
LINE
  5
592F
  8
AM_0
 10
271.17277308736362
 20
582.14207916481848
 30
0.0
 11
267.03276308736349
 21
597.60209916481847
 31
0.0
  0
LINE
  5
5930
  8
AM_0
 10
267.51274308736362
 20
595.80211916481835
 30
0.0
 11
272.97270308736353
 21
595.80211916481835
 31
0.0
  0
LINE
  5
5931
  8
AM_0
 10
150.97270308736361
 20
494.78209916481848
 30
0.0
 11
150.97270308736361
 21
537.80211916481835
 31
0.0
  0
LINE
  5
5932
  8
AM_0
 10
153.2427230873634
 20
493.05211916481829
 30
0.0
 11
155.47270308736341
 21
493.05211916481829
 31
0.0
  0
LINE
  5
5933
  8
AM_0
 10
152.7427230873634
 20
493.19212916481831
 30
0.0
 11
151.4727630873634
 21
493.92210916481838
 31
0.0
  0
LINE
  5
5934
  8
AM_0
 10
152.73277308736351
 20
495.30211916481829
 30
0.0
 11
151.45274308736359
 21
496.07213916481851
 31
0.0
  0
LINE
  5
5935
  8
AM_0
 10
152.72264308736359
 20
499.84208916481828
 30
0.0
 11
151.42265308736339
 21
500.69209916481827
 31
0.0
  0
LINE
  5
5936
  8
AM_0
 10
153.25273308736359
 20
495.1620991648183
 30
0.0
 11
155.97270308736361
 21
495.1620991648183
 31
0.0
  0
LINE
  5
5937
  8
AM_0
 10
153.2727530873635
 20
499.68211916481852
 30
0.0
 11
155.97270308736361
 21
499.68211916481852
 31
0.0
  0
LINE
  5
5938
  8
AM_0
 10
153.2427230873634
 20
500.8221391648184
 30
0.0
 11
154.9727030873637
 21
500.8221391648184
 31
0.0
  0
LINE
  5
5939
  8
AM_0
 10
153.22270308736341
 20
496.30211916481829
 30
0.0
 11
154.9727030873637
 21
496.30211916481829
 31
0.0
  0
LINE
  5
593A
  8
AM_0
 10
153.21269308736359
 20
494.2021391648185
 30
0.0
 11
155.47270308736341
 21
494.2021391648185
 31
0.0
  0
LINE
  5
593B
  8
AM_0
 10
152.7427230873634
 20
500.95216916481871
 30
0.0
 11
151.46275308736361
 21
501.70213916481828
 31
0.0
  0
LINE
  5
593C
  8
AM_0
 10
152.76268308736351
 20
494.31209916481851
 30
0.0
 11
151.52269308736371
 21
494.94209916481827
 31
0.0
  0
LINE
  5
593D
  8
AM_0
 10
152.75273308736359
 20
496.42210916481849
 30
0.0
 11
151.50273308736359
 21
497.08210916481829
 31
0.0
  0
LINE
  5
593E
  8
AM_0
 10
152.9727030873637
 20
499.97215916481849
 30
0.0
 11
152.9727030873637
 21
500.4421291648186
 31
0.0
  0
LINE
  5
593F
  8
AM_0
 10
152.9727030873637
 20
495.40208916481851
 30
0.0
 11
152.9727030873637
 21
495.9521391648185
 31
0.0
  0
LINE
  5
5940
  8
AM_0
 10
152.9727030873637
 20
493.30211916481829
 30
0.0
 11
152.9727030873637
 21
493.83214916481859
 31
0.0
  0
LINE
  5
5941
  8
AM_0
 10
155.97270308736361
 20
492.80211916481829
 30
0.0
 11
156.97270308736361
 21
492.80211916481829
 31
0.0
  0
LINE
  5
5942
  8
AM_0
 10
156.97270308736361
 20
489.80211916481858
 30
0.0
 11
164.97270308736341
 21
489.80211916481858
 31
0.0
  0
LINE
  5
5943
  8
AM_0
 10
157.67271308736321
 20
499.61216916481851
 30
0.0
 11
163.90269308736379
 21
499.61216916481851
 31
0.0
  0
LINE
  5
5944
  8
AM_0
 10
272.97270308736353
 20
496.80211916481829
 30
0.0
 11
280.97270308736353
 21
496.80211916481829
 31
0.0
  0
LINE
  5
5945
  8
AM_0
 10
272.97270308736353
 20
486.80211916481829
 30
0.0
 11
280.97270308736353
 21
486.80211916481829
 31
0.0
  0
LINE
  5
5946
  8
AM_0
 10
168.1827230873634
 20
486.52208916481851
 30
0.0
 11
265.1027130873635
 21
486.52208916481851
 31
0.0
  0
LINE
  5
5947
  8
AM_0
 10
164.97270308736341
 20
494.71208916481851
 30
0.0
 11
166.21275308736361
 21
488.15208916481851
 31
0.0
  0
LINE
  5
5948
  8
AM_0
 10
167.87895308736341
 20
483.67210916481838
 30
0.0
 11
190.37083308736339
 21
483.67210916481838
 31
0.0
  0
LINE
  5
5949
  8
AM_0
 10
164.97270308736341
 20
493.36207916481851
 30
0.0
 11
166.25273308736359
 21
485.36216916481851
 31
0.0
  0
LINE
  5
594A
  8
AM_0
 10
164.97270308736341
 20
492.02217916481828
 30
0.0
 11
165.9819830873634
 21
485.37199916481831
 31
0.0
  0
LINE
  5
594B
  8
AM_0
 10
164.9727630873634
 20
492.02214916481847
 30
0.0
 11
165.89818308736341
 21
485.39555916481851
 31
0.0
  0
LINE
  5
594C
  8
AM_0
 10
271.17842308736363
 20
503.4832691648183
 30
0.0
 11
267.03270308736347
 21
488.00212916481843
 31
0.0
  0
LINE
  5
594D
  8
AM_0
 10
267.51475308736349
 20
489.80211916481858
 30
0.0
 11
272.97270308736353
 21
489.80211916481858
 31
0.0
  0
LINE
  5
594E
  8
AM_0
 10
272.97270308736353
 20
510.86216916481851
 30
0.0
 11
280.97270308736353
 21
510.86216916481851
 31
0.0
  0
LINE
  5
594F
  8
AM_0
 10
271.97270308736341
 20
489.80211916481858
 30
0.0
 11
266.2469630873635
 21
480.9852191648186
 31
0.0
  0
LINE
  5
5950
  8
AM_0
 10
253.48631308736361
 20
480.30211916481829
 30
0.0
 11
264.98894308736362
 21
480.30211916481829
 31
0.0
  0
LINE
  5
5951
  8
AM_0
 10
250.9527430873635
 20
570.30211916481835
 30
0.0
 11
250.9527430873635
 21
575.16209916481853
 31
0.0
  0
LINE
  5
5952
  8
AM_0
 10
234.9927230873634
 20
570.30211916481835
 30
0.0
 11
234.9927230873634
 21
575.16209916481853
 31
0.0
  0
LINE
  5
5953
  8
AM_0
 10
250.47270308736361
 20
570.30211916481835
 30
0.0
 11
250.47270308736361
 21
575.30211916481835
 31
0.0
  0
LINE
  5
5954
  8
AM_0
 10
235.4727030873635
 20
570.30211916481835
 30
0.0
 11
235.4727030873635
 21
575.30211916481835
 31
0.0
  0
LINE
  5
5955
  8
AM_0
 10
206.9727030873635
 20
555.80211916481858
 30
0.0
 11
269.97270308736353
 21
555.80211916481858
 31
0.0
  0
LINE
  5
5956
  8
AM_0
 10
206.9727030873635
 20
522.30211916481835
 30
0.0
 11
269.97270308736353
 21
522.30211916481835
 31
0.0
  0
LINE
  5
5957
  8
AM_0
 10
206.9727030873635
 20
563.30211916481835
 30
0.0
 11
269.97270308736353
 21
563.30211916481835
 31
0.0
  0
LINE
  5
5958
  8
AM_0
 10
269.97270308736353
 20
563.30211916481835
 30
0.0
 11
269.97270308736353
 21
522.30211916481835
 31
0.0
  0
LINE
  5
5959
  8
AM_0
 10
206.9727030873635
 20
563.30211916481835
 30
0.0
 11
206.9727030873635
 21
522.30211916481835
 31
0.0
  0
LINE
  5
595A
  8
AM_0
 10
251.9727030873635
 20
569.2921091648185
 30
0.0
 11
270.01842308736349
 21
569.2921091648185
 31
0.0
  0
LINE
  5
595B
  8
AM_0
 10
251.9727030873635
 20
516.32213916481851
 30
0.0
 11
270.00694308736348
 21
516.32213916481851
 31
0.0
  0
LINE
  5
595C
  8
AM_0
 10
250.9527430873635
 20
515.30211916481846
 30
0.0
 11
250.9527430873635
 21
510.44212916481848
 31
0.0
  0
LINE
  5
595D
  8
AM_0
 10
234.9927230873634
 20
515.30211916481846
 30
0.0
 11
234.9927230873634
 21
510.44212916481848
 31
0.0
  0
LINE
  5
595E
  8
AM_0
 10
250.47270308736361
 20
515.30211916481846
 30
0.0
 11
250.47270308736361
 21
510.30211916481858
 31
0.0
  0
LINE
  5
595F
  8
AM_0
 10
235.4727030873635
 20
515.30211916481846
 30
0.0
 11
235.4727030873635
 21
510.30211916481858
 31
0.0
  0
LINE
  5
5960
  8
AM_0
 10
266.3055330873637
 20
516.80211916481835
 30
0.0
 11
251.9727030873635
 21
516.80211916481835
 31
0.0
  0
LINE
  5
5961
  8
AM_0
 10
266.3198730873637
 20
568.80211916481835
 30
0.0
 11
251.9727030873635
 21
568.80211916481835
 31
0.0
  0
LINE
  5
5962
  8
AM_0
 10
251.9527430873635
 20
576.16209916481853
 30
0.0
 11
269.7927130873635
 21
576.16209916481853
 31
0.0
  0
LINE
  5
5963
  8
AM_0
 10
280.97270308736353
 20
510.86216916481851
 30
0.0
 11
296.97270308736341
 21
510.86216916481851
 31
0.0
  0
LINE
  5
5964
  8
AM_0
 10
280.97270308736353
 20
574.74205916481844
 30
0.0
 11
296.97270308736341
 21
574.74205916481844
 31
0.0
  0
ARC
  5
5965
  8
AM_0
 10
372.97270308736353
 20
542.80211916481835
 30
0.0
 40
3.0
 50
89.986014000002498
 51
131.81082736685559
  0
ARC
  5
5966
  8
AM_0
 10
372.97270308736353
 20
542.80211916481835
 30
0.0
 40
3.0
 50
228.18917263315251
 51
270.01399000000328
  0
ARC
  5
5967
  8
AM_0
 10
304.9727030873637
 20
473.80247916481829
 30
0.0
 40
1.0
 50
180.00001000000091
 51
268.49999999999721
  0
ARC
  5
5968
  8
AM_0
 10
359.97270308736358
 20
503.56501916481852
 30
0.0
 40
3.0
 50
271.50000000000267
 51
0.0
  0
ARC
  5
5969
  8
AM_0
 10
305.97270308736353
 20
474.82902916481851
 30
0.0
 40
2.0
 50
271.50000000000267
 51
0.0
  0
ARC
  5
596A
  8
AM_0
 10
305.97270308736353
 20
480.82762916481829
 30
0.0
 40
2.0
 50
0.0
 51
91.500001000001546
  0
ARC
  5
596B
  8
AM_0
 10
346.97270308736358
 20
493.98646916481829
 30
0.0
 40
3.0
 50
271.50000000000267
 51
0.0
  0
ARC
  5
596C
  8
AM_0
 10
342.97270308736353
 20
476.79820916481839
 30
0.0
 40
3.0
 50
180.00001000000091
 51
271.50000000000267
  0
ARC
  5
596D
  8
AM_0
 10
344.97270308736358
 20
485.9313591648185
 30
0.0
 40
5.0
 50
91.500001000001546
 51
180.00001000000091
  0
ARC
  5
596E
  8
AM_0
 10
354.97270308736358
 20
495.4313591648185
 30
0.0
 40
5.0
 50
91.500001000001546
 51
180.00001000000091
  0
ARC
  5
596F
  8
AM_0
 10
306.97270308736353
 20
477.75148916481851
 30
0.0
 40
1.0
 50
268.49999999999721
 51
0.0000006832462478
  0
ARC
  5
5970
  8
AM_0
 10
304.9727030873637
 20
475.80314916481848
 30
0.0
 40
1.0
 50
88.499997000000747
 51
180.00001000000091
  0
CIRCLE
  5
5971
  8
AM_0
 10
354.97270308736358
 20
485.30211916481858
 30
0.0
 40
5.0
  0
ARC
  5
5972
  8
AM_0
 10
286.97270308736353
 20
478.27519916481828
 30
0.0
 40
5.0
 50
180.00001000000091
 51
268.49999999999721
  0
ARC
  5
5973
  8
AM_0
 10
359.97270308736358
 20
496.3602191648186
 30
0.0
 40
5.0
 50
0.0
 51
70.485339000001346
  0
ARC
  5
5974
  8
AM_0
 10
359.97270308736358
 20
479.24406916481843
 30
0.0
 40
5.0
 50
271.50000000000267
 51
0.0
  0
ARC
  5
5975
  8
AM_0
 10
304.9727030873637
 20
611.80180916481845
 30
0.0
 40
1.0
 50
91.500001000001546
 51
180.00001000000091
  0
ARC
  5
5976
  8
AM_0
 10
359.97270308736358
 20
582.03923916481847
 30
0.0
 40
3.0
 50
0.0
 51
88.499997000000747
  0
ARC
  5
5977
  8
AM_0
 10
305.97270308736353
 20
610.77525916481852
 30
0.0
 40
2.0
 50
0.0
 51
88.499997000000747
  0
ARC
  5
5978
  8
AM_0
 10
305.97270308736353
 20
604.77662916481836
 30
0.0
 40
2.0
 50
268.49999999999721
 51
0.0000006832462478
  0
ARC
  5
5979
  8
AM_0
 10
346.97270308736358
 20
591.61778916481853
 30
0.0
 40
3.0
 50
0.0
 51
88.499997000000747
  0
ARC
  5
597A
  8
AM_0
 10
342.97270308736353
 20
608.80604916481855
 30
0.0
 40
3.0
 50
88.499997000000747
 51
180.00001000000091
  0
ARC
  5
597B
  8
AM_0
 10
344.97270308736358
 20
599.67289916481855
 30
0.0
 40
5.0
 50
180.00001000000091
 51
268.49999999999721
  0
ARC
  5
597C
  8
AM_0
 10
354.97270308736358
 20
590.17289916481832
 30
0.0
 40
5.0
 50
180.00001000000091
 51
268.49999999999721
  0
ARC
  5
597D
  8
AM_0
 10
306.97270308736353
 20
607.8528091648185
 30
0.0
 40
1.0
 50
0.0
 51
91.500001000001546
  0
ARC
  5
597E
  8
AM_0
 10
304.9727030873637
 20
609.80110916481851
 30
0.0
 40
1.0
 50
180.00001000000091
 51
271.50000000000267
  0
CIRCLE
  5
597F
  8
AM_0
 10
354.97270308736358
 20
600.30214916481839
 30
0.0
 40
5.0
  0
ARC
  5
5980
  8
AM_0
 10
286.97270308736353
 20
607.32908916481836
 30
0.0
 40
5.0
 50
91.500001000001546
 51
180.00001000000091
  0
ARC
  5
5981
  8
AM_0
 10
359.97270308736358
 20
589.24406916481826
 30
0.0
 40
5.0
 50
289.51467000000258
 51
0.0
  0
ARC
  5
5982
  8
AM_0
 10
359.97270308736358
 20
606.36018916481828
 30
0.0
 40
5.0
 50
0.0
 51
88.499997000000747
  0
ARC
  5
5983
  8
AM_0
 10
397.97270308736353
 20
542.80211916481835
 30
0.0
 40
80.0
 50
148.90067999999891
 51
211.0992999999975
  0
ARC
  5
5984
  8
AM_0
 10
319.97270308736353
 20
496.70762916481851
 30
0.0
 40
1.0
 50
269.999989999999
 51
0.0000006832462478
  0
ARC
  5
5985
  8
AM_0
 10
319.97270308736353
 20
490.93412916481861
 30
0.0
 40
1.0
 50
269.999989999999
 51
0.0000006832462478
  0
ARC
  5
5986
  8
AM_0
 10
319.97270308736353
 20
488.04738916481841
 30
0.0
 40
1.0
 50
269.999989999999
 51
0.0000006832462478
  0
ARC
  5
5987
  8
AM_0
 10
319.97270308736353
 20
494.70762916481851
 30
0.0
 40
1.0
 50
0.0
 51
90.00000299999769
  0
ARC
  5
5988
  8
AM_0
 10
319.97270308736353
 20
497.59440916481861
 30
0.0
 40
1.0
 50
0.0
 51
90.00000299999769
  0
ARC
  5
5989
  8
AM_0
 10
319.97270308736353
 20
488.9341291648185
 30
0.0
 40
1.0
 50
0.0
 51
90.00000299999769
  0
ARC
  5
598A
  8
AM_0
 10
319.97270308736353
 20
596.67015916481853
 30
0.0
 40
1.0
 50
269.999989999999
 51
0.0000006832462478
  0
ARC
  5
598B
  8
AM_0
 10
319.97270308736353
 20
588.00987916481836
 30
0.0
 40
1.0
 50
269.999989999999
 51
0.0000006832462478
  0
ARC
  5
598C
  8
AM_0
 10
319.97270308736353
 20
590.89665916481829
 30
0.0
 40
1.0
 50
269.999989999999
 51
0.0000006832462478
  0
ARC
  5
598D
  8
AM_0
 10
319.97270308736353
 20
597.55690916481853
 30
0.0
 40
1.0
 50
0.0
 51
90.00000299999769
  0
ARC
  5
598E
  8
AM_0
 10
319.97270308736353
 20
594.67015916481853
 30
0.0
 40
1.0
 50
0.0
 51
90.00000299999769
  0
ARC
  5
598F
  8
AM_0
 10
319.97270308736353
 20
588.89665916481852
 30
0.0
 40
1.0
 50
0.0
 51
90.00000299999769
  0
ARC
  5
5990
  8
AM_0
 10
300.9727030873637
 20
600.69670916481834
 30
0.0
 40
2.0
 50
91.500001000001546
 51
180.00001000000091
  0
ARC
  5
5991
  8
AM_0
 10
300.9727030873637
 20
484.90757916481863
 30
0.0
 40
2.0
 50
180.00001000000091
 51
268.49999999999721
  0
ARC
  5
5992
  8
AM_0
 10
297.5621230873636
 20
601.48265916481853
 30
0.0
 40
1.5
 50
271.50000000000267
 51
347.02334999999908
  0
ARC
  5
5993
  8
AM_0
 10
291.9727030873637
 20
597.83506916481826
 30
0.0
 40
2.0
 50
91.500001000001546
 51
180.00001000000091
  0
ARC
  5
5994
  8
AM_0
 10
296.97270308736341
 20
591.2220991648187
 30
0.0
 40
2.0
 50
271.50000000000267
 51
0.0
  0
ARC
  5
5995
  8
AM_0
 10
287.97270308736358
 20
590.98643916481865
 30
0.0
 40
2.0
 50
271.50000000000267
 51
0.0
  0
ARC
  5
5996
  8
AM_0
 10
287.97270308736358
 20
494.61784916481849
 30
0.0
 40
2.0
 50
0.0
 51
88.499997000000747
  0
ARC
  5
5997
  8
AM_0
 10
291.9727030873637
 20
487.76918916481827
 30
0.0
 40
2.0
 50
180.00001000000091
 51
268.49999999999721
  0
ARC
  5
5998
  8
AM_0
 10
297.5621230873636
 20
484.1216291648185
 30
0.0
 40
1.5
 50
12.97665300000153
 51
88.499997000000747
  0
ARC
  5
5999
  8
AM_0
 10
296.97270308736341
 20
494.3821891648185
 30
0.0
 40
2.0
 50
0.0
 51
88.499997000000747
  0
ARC
  5
599A
  8
AM_0
 10
291.9727030873637
 20
485.30211916481858
 30
0.0
 40
5.0
 50
170.3165899999986
 51
3.8501329999993601
  0
ARC
  5
599B
  8
AM_0
 10
291.9727030873637
 20
600.30214916481839
 30
0.0
 40
5.0
 50
356.1498700000015
 51
189.68341000000129
  0
ARC
  5
599C
  8
AM_0
 10
329.93571308736369
 20
479.60472916481859
 30
0.0
 40
10.0
 50
91.500001000001546
 51
120.0000000000005
  0
ARC
  5
599D
  8
AM_0
 10
329.93571308736369
 20
605.99955916481849
 30
0.0
 40
10.0
 50
239.99999999999949
 51
268.49999999999721
  0
ARC
  5
599E
  8
AM_0
 10
313.17216308736351
 20
592.58400916481855
 30
0.0
 40
10.0
 50
60.000002000001302
 51
88.499997000000747
  0
ARC
  5
599F
  8
AM_0
 10
313.17216308736351
 20
493.0202591648183
 30
0.0
 40
10.0
 50
271.50000000000267
 51
300.00001000000083
  0
ARC
  5
59A0
  8
AM_0
 10
272.6259030873635
 20
588.13487916481847
 30
0.0
 40
1.502775999999999
 50
194.75642999999889
 51
269.87757999999872
  0
ARC
  5
59A1
  8
AM_0
 10
272.6259030873635
 20
587.22484916481847
 30
0.0
 40
1.502775999999999
 50
194.75642999999889
 51
269.87757999999872
  0
ARC
  5
59A2
  8
AM_0
 10
272.6259030873635
 20
585.37486916481851
 30
0.0
 40
1.502775999999999
 50
194.75642999999889
 51
269.87757999999872
  0
ARC
  5
59A3
  8
AM_0
 10
265.0978830873637
 20
602.68736916481839
 30
0.0
 40
2.0047290000000002
 50
15.173495999999471
 51
89.861678000000197
  0
ARC
  5
59A4
  8
AM_0
 10
265.0978830873637
 20
601.77733916481839
 30
0.0
 40
2.0047290000000002
 50
15.173495999999471
 51
89.861678000000197
  0
ARC
  5
59A5
  8
AM_0
 10
265.0978830873637
 20
599.92735916481854
 30
0.0
 40
2.0047290000000002
 50
15.173495999999471
 51
89.861678000000197
  0
ARC
  5
59A6
  8
AM_0
 10
272.6259030873635
 20
503.07933916481852
 30
0.0
 40
1.502775999999999
 50
90.122413000001615
 51
165.24357000000111
  0
ARC
  5
59A7
  8
AM_0
 10
151.96593308736351
 20
590.82005916481853
 30
0.0
 40
0.99319202
 50
119.7733800000053
 51
179.87959000000129
  0
ARC
  5
59A8
  8
AM_0
 10
151.96831308736361
 20
589.7818491648186
 30
0.0
 40
0.995579
 50
116.5870899999978
 51
179.98263999999989
  0
ARC
  5
59A9
  8
AM_0
 10
153.23473308736351
 20
591.55626916481845
 30
0.0
 40
0.9959030199999999
 50
89.541266999999124
 51
119.6071699999965
  0
ARC
  5
59AA
  8
AM_0
 10
153.1974930873634
 20
590.40806916481824
 30
0.0
 40
0.99411702
 50
89.122643999998544
 51
115.93497999999509
  0
ARC
  5
59AB
  8
AM_0
 10
153.2415630873634
 20
589.4478691648186
 30
0.0
 40
0.99427301
 50
89.356065999996787
 51
120.7809099999981
  0
ARC
  5
59AC
  8
AM_0
 10
153.20781308736341
 20
588.30674916481837
 30
0.0
 40
0.99545902
 50
89.141290999999967
 51
117.20382000000021
  0
ARC
  5
59AD
  8
AM_0
 10
153.27934308736349
 20
584.93589916481835
 30
0.0
 40
0.99617702
 50
90.381317999995943
 51
123.97049000000079
  0
ARC
  5
59AE
  8
AM_0
 10
153.2521230873634
 20
583.79564916481866
 30
0.0
 40
0.99648702
 50
90.540721000001867
 51
120.7437700000016
  0
ARC
  5
59AF
  8
AM_0
 10
151.96678308736341
 20
583.04527916481845
 30
0.0
 40
0.99404597
 50
120.4681999999988
 51
180.18564000000021
  0
ARC
  5
59B0
  8
AM_0
 10
151.96751308736339
 20
584.07969916481829
 30
0.0
 40
0.9948369899999999
 50
123.2049599999974
 51
180.43786000000131
  0
ARC
  5
59B1
  8
AM_0
 10
151.96593308736351
 20
587.64354916481852
 30
0.0
 40
0.9932109699999999
 50
117.7993200000042
 51
180.08187000000001
  0
ARC
  5
59B2
  8
AM_0
 10
151.96715308736341
 20
588.68113916481832
 30
0.0
 40
0.9944329899999999
 50
121.15212999999621
 51
179.94050999999911
  0
ARC
  5
59B3
  8
AM_0
 10
153.1736930873638
 20
577.49669916481855
 30
0.0
 40
0.9954450099999999
 50
90.056904999996419
 51
113.1274500000043
  0
ARC
  5
59B4
  8
AM_0
 10
153.11186308736339
 20
575.54942916481855
 30
0.0
 40
0.9927430199999999
 50
89.374555000002005
 51
106.3320700000012
  0
ARC
  5
59B5
  8
AM_0
 10
151.96898308736371
 20
575.19786916481848
 30
0.0
 40
0.9962710099999999
 50
106.6979199999999
 51
180.33004999999989
  0
ARC
  5
59B6
  8
AM_0
 10
151.96910308736369
 20
576.98362916481835
 30
0.0
 40
0.9963999999999998
 50
112.8173600000008
 51
180.0904199999996
  0
ARC
  5
59B7
  8
AM_0
 10
151.96782308736351
 20
567.80699916481854
 30
0.0
 40
0.99507803
 50
89.715886999998034
 51
180.28410999999991
  0
ARC
  5
59B8
  8
AM_0
 10
151.97295308736341
 20
567.80235916481854
 30
0.0
 40
1.000203
 50
180.01164999999889
 51
269.9883500000044
  0
ARC
  5
59B9
  8
AM_0
 10
151.96782308736351
 20
557.80699916481854
 30
0.0
 40
0.99508202
 50
89.716099000001435
 51
180.2839100000011
  0
ARC
  5
59BA
  8
AM_0
 10
151.97295308736341
 20
557.80235916481865
 30
0.0
 40
1.0001999999999991
 50
180.01142999999831
 51
269.98856999999839
  0
ARC
  5
59BB
  8
AM_0
 10
151.96782308736351
 20
547.80699916481854
 30
0.0
 40
0.9950849999999999
 50
89.716311000000914
 51
180.28368999999961
  0
ARC
  5
59BC
  8
AM_0
 10
151.97295308736341
 20
547.80235916481865
 30
0.0
 40
1.0001959999999981
 50
180.0112199999991
 51
269.98877999999758
  0
ARC
  5
59BD
  8
AM_0
 10
154.97288308736319
 20
545.80223916481827
 30
0.0
 40
0.9998249999999999
 50
359.98994999999883
 51
90.010050000001243
  0
ARC
  5
59BE
  8
AM_0
 10
154.96776308736349
 20
549.80699916481854
 30
0.0
 40
1.0049469
 50
270.28134999999719
 51
359.71866000000068
  0
ARC
  5
59BF
  8
AM_0
 10
154.97288308736319
 20
555.8022391648185
 30
0.0
 40
0.9998210099999999
 50
359.98975000000149
 51
90.010254999998992
  0
ARC
  5
59C0
  8
AM_0
 10
154.96776308736349
 20
559.80699916481854
 30
0.0
 40
1.004939
 50
270.28091000000421
 51
359.71909999999991
  0
ARC
  5
59C1
  8
AM_0
 10
154.97288308736319
 20
565.80223916481827
 30
0.0
 40
0.9998289899999999
 50
359.99019000000038
 51
90.009811000000937
  0
ARC
  5
59C2
  8
AM_0
 10
154.96776308736349
 20
569.80699916481854
 30
0.0
 40
1.004942999999999
 50
270.28111000000013
 51
359.71888999999987
  0
ARC
  5
59C3
  8
AM_0
 10
154.9744130873637
 20
575.54380916481853
 30
0.0
 40
0.9982839799999999
 50
359.90142000000009
 51
90.098576000001358
  0
ARC
  5
59C4
  8
AM_0
 10
154.97038308736339
 20
583.78978916481833
 30
0.0
 40
1.002353
 50
0.1343268199984526
 51
89.865672999999376
  0
ARC
  5
59C5
  8
AM_0
 10
155.26817308736321
 20
579.19664916481838
 30
0.0
 40
0.704566
 50
270.3700999999968
 51
359.62991000000108
  0
ARC
  5
59C6
  8
AM_0
 10
154.9736830873633
 20
588.30308916481852
 30
0.0
 40
0.9990100299999999
 50
359.94319000000121
 51
90.056808999996804
  0
ARC
  5
59C7
  8
AM_0
 10
155.47441308736339
 20
590.90379916481845
 30
0.0
 40
0.4983060100000002
 50
359.80489000000108
 51
90.195107000000036
  0
ARC
  5
59C8
  8
AM_0
 10
155.46812308736361
 20
593.05674916481848
 30
0.0
 40
0.50463498
 50
270.52383000000037
 51
359.47616999999963
  0
ARC
  5
59C9
  8
AM_0
 10
167.51732308736359
 20
507.80211916481829
 30
0.0
 40
1.000013899999999
 50
89.69165999999926
 51
270.30834000000078
  0
ARC
  5
59CA
  8
AM_0
 10
269.7927130873635
 20
577.84715916481832
 30
0.0
 40
1.6750020000000001
 50
269.999989999999
 51
90.00000299999769
  0
ARC
  5
59CB
  8
AM_0
 10
266.31273308736348
 20
577.80211916481846
 30
0.0
 40
1.0
 50
269.999989999999
 51
90.00000299999769
  0
ARC
  5
59CC
  8
AM_0
 10
266.31273308736348
 20
507.80211916481829
 30
0.0
 40
1.0
 50
269.999989999999
 51
90.00000299999769
  0
ARC
  5
59CD
  8
AM_0
 10
269.7927130873635
 20
507.75706916481852
 30
0.0
 40
1.6750020000000001
 50
269.999989999999
 51
90.00000299999769
  0
ARC
  5
59CE
  8
AM_0
 10
154.96934308736351
 20
510.06541916481842
 30
0.0
 40
1.003352
 50
270.19110999999691
 51
359.80890000000107
  0
ARC
  5
59CF
  8
AM_0
 10
154.96776308736349
 20
519.80699916481831
 30
0.0
 40
1.0049469
 50
270.28136999999919
 51
359.7186300000007
  0
ARC
  5
59D0
  8
AM_0
 10
154.97288308736319
 20
515.80223916481827
 30
0.0
 40
0.9998239899999999
 50
359.98991999999851
 51
90.01007700000045
  0
ARC
  5
59D1
  8
AM_0
 10
155.2732430873636
 20
506.41270916481852
 30
0.0
 40
0.6994530000000001
 50
359.95517000000092
 51
90.044828999997534
  0
ARC
  5
59D2
  8
AM_0
 10
153.17570308736339
 20
508.11729916481858
 30
0.0
 40
1.005233
 50
246.9863899999973
 51
269.82924999999938
  0
ARC
  5
59D3
  8
AM_0
 10
153.11327308736321
 20
510.0648091648186
 30
0.0
 40
1.002699
 50
253.75271999999481
 51
270.54064000000108
  0
ARC
  5
59D4
  8
AM_0
 10
151.96910308736369
 20
510.41649916481828
 30
0.0
 40
0.99638802
 50
180.24990999999889
 51
253.29664000000031
  0
ARC
  5
59D5
  8
AM_0
 10
151.9692230873635
 20
508.63060916481851
 30
0.0
 40
0.9965090199999998
 50
179.91374999999979
 51
247.17844999999551
  0
ARC
  5
59D6
  8
AM_0
 10
151.97295308736341
 20
517.80235916481831
 30
0.0
 40
1.0001959999999981
 50
180.01124999999951
 51
269.98875000000061
  0
ARC
  5
59D7
  8
AM_0
 10
151.96782308736351
 20
517.80699916481819
 30
0.0
 40
0.9950849999999999
 50
89.716283000002676
 51
180.28371999999919
  0
ARC
  5
59D8
  8
AM_0
 10
151.97295308736341
 20
527.80235916481854
 30
0.0
 40
1.0001999999999991
 50
180.01145999999861
 51
269.98854000000142
  0
ARC
  5
59D9
  8
AM_0
 10
151.96782308736351
 20
527.80699916481854
 30
0.0
 40
0.9950810099999999
 50
89.716071999996828
 51
180.28392000000119
  0
ARC
  5
59DA
  8
AM_0
 10
151.97295308736341
 20
537.80235916481865
 30
0.0
 40
1.0002040000000001
 50
180.01166000000001
 51
269.98832000000078
  0
ARC
  5
59DB
  8
AM_0
 10
151.96782308736351
 20
537.80699916481854
 30
0.0
 40
0.9950770099999999
 50
89.715859999999481
 51
180.28414000000049
  0
ARC
  5
59DC
  8
AM_0
 10
154.96776308736349
 20
539.80699916481854
 30
0.0
 40
1.004942999999999
 50
270.28113999999943
 51
359.7188700000014
  0
ARC
  5
59DD
  8
AM_0
 10
154.97288308736319
 20
535.8022391648185
 30
0.0
 40
0.9998279799999998
 50
359.99016000000029
 51
90.009838000000187
  0
ARC
  5
59DE
  8
AM_0
 10
154.96776308736349
 20
529.80699916481854
 30
0.0
 40
1.004939
 50
270.280940000003
 51
359.71907000000078
  0
ARC
  5
59DF
  8
AM_0
 10
154.97288308736319
 20
525.8022391648185
 30
0.0
 40
0.9998210099999999
 50
359.98972000000123
 51
90.010282000004793
  0
ARC
  5
59E0
  8
AM_0
 10
166.6453130873638
 20
577.84715916481832
 30
0.0
 40
1.6750160000000001
 50
89.746145000004447
 51
270.25387000000092
  0
ARC
  5
59E1
  8
AM_0
 10
167.51732308736359
 20
577.80211916481846
 30
0.0
 40
1.000013899999999
 50
89.69165999999926
 51
270.30834000000078
  0
ARC
  5
59E2
  8
AM_0
 10
167.51732308736359
 20
567.80211916481835
 30
0.0
 40
1.000013899999999
 50
89.69165999999926
 51
270.30834000000078
  0
ARC
  5
59E3
  8
AM_0
 10
167.51732308736359
 20
557.80211916481835
 30
0.0
 40
1.000013899999999
 50
89.69165999999926
 51
270.30834000000078
  0
ARC
  5
59E4
  8
AM_0
 10
167.51732308736359
 20
547.80211916481858
 30
0.0
 40
1.000013899999999
 50
89.69165999999926
 51
270.30834000000078
  0
ARC
  5
59E5
  8
AM_0
 10
167.51732308736359
 20
537.80211916481835
 30
0.0
 40
1.000013899999999
 50
89.69165999999926
 51
270.30834000000078
  0
ARC
  5
59E6
  8
AM_0
 10
167.51732308736359
 20
527.80211916481858
 30
0.0
 40
1.000013899999999
 50
89.69165999999926
 51
270.30834000000078
  0
ARC
  5
59E7
  8
AM_0
 10
167.51732308736359
 20
517.80211916481835
 30
0.0
 40
1.000013899999999
 50
89.69165999999926
 51
270.30834000000078
  0
ARC
  5
59E8
  8
AM_0
 10
166.4327230873634
 20
567.8271391648185
 30
0.0
 40
1.465004
 50
90.00000299999769
 51
270.0
  0
ARC
  5
59E9
  8
AM_0
 10
166.3027230873636
 20
557.81212916481854
 30
0.0
 40
1.3300049999999981
 50
90.00000299999769
 51
270.0
  0
ARC
  5
59EA
  8
AM_0
 10
166.23686308736339
 20
547.80711916481835
 30
0.0
 40
1.2650129999999991
 50
89.735579000001735
 51
270.2644100000025
  0
ARC
  5
59EB
  8
AM_0
 10
166.23686308736339
 20
537.80211916481835
 30
0.0
 40
1.2700129999999981
 50
89.736617000001587
 51
270.26336999999921
  0
ARC
  5
59EC
  8
AM_0
 10
166.3027230873636
 20
527.79210916481861
 30
0.0
 40
1.3300049999999981
 50
90.00000299999769
 51
270.0
  0
ARC
  5
59ED
  8
AM_0
 10
166.4327230873634
 20
517.77708916481856
 30
0.0
 40
1.465004
 50
90.00000299999769
 51
270.0
  0
ARC
  5
59EE
  8
AM_0
 10
166.64586308736341
 20
507.75706916481852
 30
0.0
 40
1.675014
 50
89.766498999996756
 51
270.2335099999994
  0
ARC
  5
59EF
  8
AM_0
 10
154.96947308736361
 20
501.82884916481851
 30
0.0
 40
1.0032760000000001
 50
334.19810000000189
 51
359.61810999999818
  0
ARC
  5
59F0
  8
AM_0
 10
151.97118308736341
 20
502.56138916481859
 30
0.0
 40
0.9984580299999999
 50
179.95957999999851
 51
239.38657000000219
  0
ARC
  5
59F1
  8
AM_0
 10
168.17143308736351
 20
597.08799916481837
 30
0.0
 40
1.994108999999999
 50
89.675548000002749
 51
169.18776999999841
  0
ARC
  5
59F2
  8
AM_0
 10
168.22295308736341
 20
599.93687916481838
 30
0.0
 40
1.995282999999997
 50
90.006203999996856
 51
170.90835000000069
  0
ARC
  5
59F3
  8
AM_0
 10
168.2372930873635
 20
601.78538916481853
 30
0.0
 40
1.9967330000000001
 50
89.843966999998912
 51
171.4538800000002
  0
ARC
  5
59F4
  8
AM_0
 10
168.2592030873634
 20
602.69651916481848
 30
0.0
 40
1.995633
 50
89.899707999995783
 51
172.06112999999991
  0
ARC
  5
59F5
  8
AM_0
 10
265.10283308736348
 20
597.08384916481839
 30
0.0
 40
1.9982919999999991
 50
15.03254799999914
 51
90.002632000001341
  0
ARC
  5
59F6
  8
AM_0
 10
272.6259030873635
 20
582.52488916481832
 30
0.0
 40
1.502775999999999
 50
194.75642999999889
 51
269.87757999999872
  0
ARC
  5
59F7
  8
AM_0
 10
265.0978830873637
 20
488.52684916481849
 30
0.0
 40
2.0047290000000002
 50
270.13832000000423
 51
344.82649999999882
  0
ARC
  5
59F8
  8
AM_0
 10
151.97032308736379
 20
494.78672916481861
 30
0.0
 40
0.9976310099999999
 50
180.2678099999986
 51
240.0792399999965
  0
ARC
  5
59F9
  8
AM_0
 10
151.96843308736351
 20
495.83250916481859
 30
0.0
 40
0.9956849800000001
 50
180.02113
 51
243.4091400000006
  0
ARC
  5
59FA
  8
AM_0
 10
153.25340308736321
 20
494.0532091648185
 30
0.0
 40
1.001123999999999
 50
239.32782000000049
 51
269.38768000000198
  0
ARC
  5
59FB
  8
AM_0
 10
153.21855308736329
 20
495.20140916481847
 30
0.0
 40
0.9993420200000001
 50
242.86200000000159
 51
269.6654599999984
  0
ARC
  5
59FC
  8
AM_0
 10
153.2441230873637
 20
496.1657591648185
 30
0.0
 40
1.0037439999999991
 50
239.3711300000019
 51
270.49190000000061
  0
ARC
  5
59FD
  8
AM_0
 10
153.2278930873635
 20
497.30272916481852
 30
0.0
 40
1.0006820000000001
 50
241.65062000000049
 51
269.70392999999558
  0
ARC
  5
59FE
  8
AM_0
 10
153.26549308736361
 20
500.68260916481859
 30
0.0
 40
1.000521999999999
 50
237.14618000000311
 51
270.41344000000362
  0
ARC
  5
59FF
  8
AM_0
 10
153.23607308736359
 20
501.82310916481862
 30
0.0
 40
1.0010449999999991
 50
240.4718699999957
 51
270.37970999999948
  0
ARC
  5
5A00
  8
AM_0
 10
151.97118308736341
 20
502.56138916481859
 30
0.0
 40
0.9984580299999999
 50
179.95957999999851
 51
239.38657000000219
  0
ARC
  5
5A01
  8
AM_0
 10
151.97179308736321
 20
501.5268491648186
 30
0.0
 40
0.9990889999999998
 50
179.69508999999971
 51
236.66209000000109
  0
ARC
  5
5A02
  8
AM_0
 10
151.97044308736321
 20
497.96336916481852
 30
0.0
 40
0.9977070099999998
 50
180.07402000000079
 51
242.04481000000081
  0
ARC
  5
5A03
  8
AM_0
 10
151.97148308736359
 20
496.92564916481842
 30
0.0
 40
0.9987969999999998
 50
179.62728000000101
 51
238.7079499999964
  0
ARC
  5
5A04
  8
AM_0
 10
154.97026308736321
 20
501.8245791648186
 30
0.0
 40
1.002470999999999
 50
270.14107000000013
 51
359.85892999999987
  0
ARC
  5
5A05
  8
AM_0
 10
154.96861308736351
 20
497.3062691648185
 30
0.0
 40
1.004119999999999
 50
270.23460999999998
 51
359.76539000000002
  0
ARC
  5
5A06
  8
AM_0
 10
155.46934308736351
 20
494.70555916481851
 30
0.0
 40
0.5033929900000002
 50
270.38491000000062
 51
359.61510000000141
  0
ARC
  5
5A07
  8
AM_0
 10
155.4731930873636
 20
492.5525991648185
 30
0.0
 40
0.49952301
 50
359.9452300000014
 51
90.054773999999625
  0
ARC
  5
5A08
  8
AM_0
 10
168.17760308736339
 20
488.5213491648185
 30
0.0
 40
1.9992490000000001
 50
190.643100000001
 51
270.14743000000129
  0
ARC
  5
5A09
  8
AM_0
 10
168.2289330873636
 20
485.6724791648183
 30
0.0
 40
2.000420099999999
 50
188.92682000000181
 51
269.82270999999599
  0
ARC
  5
5A0A
  8
AM_0
 10
253.48631308736361
 20
478.80211916481829
 30
0.0
 40
1.5
 50
90.00000299999769
 51
178.5000000000006
  0
ARC
  5
5A0B
  8
AM_0
 10
264.98894308736362
 20
481.80211916481829
 30
0.0
 40
1.5
 50
269.999989999999
 51
326.99999999999892
  0
ARC
  5
5A0C
  8
AM_0
 10
167.9593330873634
 20
485.67210916481849
 30
0.0
 40
2.0
 50
188.62962000000121
 51
269.999989999999
  0
ARC
  5
5A0D
  8
AM_0
 10
167.87895308736341
 20
485.67210916481849
 30
0.0
 40
2.0
 50
187.9504400000001
 51
269.999989999999
  0
ARC
  5
5A0E
  8
AM_0
 10
190.37083308736339
 20
482.17210916481849
 30
0.0
 40
1.5
 50
1.5000026999989771
 51
90.00000299999769
  0
ARC
  5
5A0F
  8
AM_0
 10
201.41142308736349
 20
557.80211916481835
 30
0.0
 40
1.0000056999999991
 50
269.999989999999
 51
90.00000299999769
  0
ARC
  5
5A10
  8
AM_0
 10
201.41142308736349
 20
547.80211916481858
 30
0.0
 40
1.0000056999999991
 50
269.999989999999
 51
90.00000299999769
  0
ARC
  5
5A11
  8
AM_0
 10
201.41142308736349
 20
537.80211916481835
 30
0.0
 40
1.0000056999999991
 50
269.999989999999
 51
90.00000299999769
  0
ARC
  5
5A12
  8
AM_0
 10
201.41142308736349
 20
527.80211916481858
 30
0.0
 40
1.0000056999999991
 50
269.999989999999
 51
90.00000299999769
  0
ARC
  5
5A13
  8
AM_0
 10
251.9727030873635
 20
510.30211916481858
 30
0.0
 40
1.5
 50
179.999989999999
 51
270.0
  0
ARC
  5
5A14
  8
AM_0
 10
233.9727030873637
 20
510.30211916481858
 30
0.0
 40
1.5
 50
269.999989999999
 51
0.0000006832462478
  0
ARC
  5
5A15
  8
AM_0
 10
233.9927230873636
 20
510.44212916481848
 30
0.0
 40
1.0
 50
269.999989999999
 51
0.0000006832462478
  0
ARC
  5
5A16
  8
AM_0
 10
251.9527430873635
 20
510.44212916481848
 30
0.0
 40
1.0
 50
179.999989999999
 51
270.0
  0
CIRCLE
  5
5A17
  8
AM_0
 10
240.4727030873635
 20
571.30211916481835
 30
0.0
 40
1.1000000000000001
  0
CIRCLE
  5
5A18
  8
AM_0
 10
240.4727030873635
 20
571.30211916481835
 30
0.0
 40
1.149999999999999
  0
CIRCLE
  5
5A19
  8
AM_0
 10
245.4727030873635
 20
571.30211916481835
 30
0.0
 40
1.0
  0
ARC
  5
5A1A
  8
AM_0
 10
233.9727030873637
 20
570.30211916481835
 30
0.0
 40
1.02
 50
269.999989999999
 51
0.0000006832429909
  0
ARC
  5
5A1B
  8
AM_0
 10
251.9727030873635
 20
570.30211916481835
 30
0.0
 40
1.02
 50
179.999989999999
 51
270.0
  0
ARC
  5
5A1C
  8
AM_0
 10
233.9727030873637
 20
570.30211916481835
 30
0.0
 40
1.5
 50
269.999989999999
 51
0.0000006832462478
  0
ARC
  5
5A1D
  8
AM_0
 10
251.9727030873635
 20
570.30211916481835
 30
0.0
 40
1.5
 50
179.999989999999
 51
270.0
  0
CIRCLE
  5
5A1E
  8
AM_0
 10
245.4727030873635
 20
514.30211916481858
 30
0.0
 40
1.0
  0
CIRCLE
  5
5A1F
  8
AM_0
 10
240.4727030873635
 20
514.30211916481858
 30
0.0
 40
1.149999999999999
  0
CIRCLE
  5
5A20
  8
AM_0
 10
240.4727030873635
 20
514.30211916481858
 30
0.0
 40
1.1000000000000001
  0
ARC
  5
5A21
  8
AM_0
 10
233.9727030873637
 20
515.30211916481846
 30
0.0
 40
1.02
 50
0.0
 51
90.00000299999769
  0
ARC
  5
5A22
  8
AM_0
 10
251.9727030873635
 20
515.30211916481846
 30
0.0
 40
1.02
 50
90.00000299999769
 51
180.00001000000091
  0
ARC
  5
5A23
  8
AM_0
 10
233.9727030873637
 20
515.30211916481846
 30
0.0
 40
1.5
 50
0.0
 51
90.00000299999769
  0
ARC
  5
5A24
  8
AM_0
 10
251.9727030873635
 20
515.30211916481846
 30
0.0
 40
1.5
 50
90.00000299999769
 51
180.00001000000091
  0
ARC
  5
5A25
  8
AM_0
 10
202.6376830873636
 20
527.79210916481861
 30
0.0
 40
1.3300148000000001
 50
269.7294199999987
 51
90.270567000000995
  0
ARC
  5
5A26
  8
AM_0
 10
202.69963308736359
 20
537.80211916481835
 30
0.0
 40
1.2700266
 50
269.62932000000001
 51
90.370669999998213
  0
ARC
  5
5A27
  8
AM_0
 10
202.69963308736359
 20
547.81212916481854
 30
0.0
 40
1.2700266
 50
269.62932000000001
 51
90.370669999998213
  0
ARC
  5
5A28
  8
AM_0
 10
202.6376830873636
 20
557.81712916481865
 30
0.0
 40
1.3350147999999991
 50
269.7304299999999
 51
90.269556000001344
  0
ARC
  5
5A29
  8
AM_0
 10
266.31267308736358
 20
567.80211916481835
 30
0.0
 40
1.0000255999999981
 50
269.5894700000033
 51
90.410530999997775
  0
ARC
  5
5A2A
  8
AM_0
 10
270.01268308736348
 20
567.83214916481836
 30
0.0
 40
1.460011199999999
 50
269.77524999999667
 51
90.224750000003354
  0
ARC
  5
5A2B
  8
AM_0
 10
266.31267308736358
 20
517.80211916481835
 30
0.0
 40
1.0000255999999981
 50
269.5894700000033
 51
90.410530999997775
  0
ARC
  5
5A2C
  8
AM_0
 10
270.01268308736348
 20
517.77208916481845
 30
0.0
 40
1.460011199999999
 50
269.77524999999667
 51
90.224750000003354
  0
ARC
  5
5A2D
  8
AM_0
 10
251.9527430873635
 20
575.16209916481853
 30
0.0
 40
1.0
 50
90.00000299999769
 51
180.00001000000091
  0
ARC
  5
5A2E
  8
AM_0
 10
251.9727030873635
 20
575.30211916481835
 30
0.0
 40
1.5
 50
90.00000299999769
 51
180.00001000000091
  0
ARC
  5
5A2F
  8
AM_0
 10
233.9727030873637
 20
575.30211916481835
 30
0.0
 40
1.5
 50
0.0
 51
90.00000299999769
  0
ARC
  5
5A30
  8
AM_0
 10
233.9927230873636
 20
575.16209916481853
 30
0.0
 40
1.0
 50
0.0
 51
90.00000299999769
  0
ARC
  5
5A31
  8
AM_0
 10
296.97270308736341
 20
508.86216916481828
 30
0.0
 40
2.0
 50
0.0
 51
90.00000299999769
  0
ARC
  5
5A32
  8
AM_0
 10
296.97270308736341
 20
576.74205916481833
 30
0.0
 40
2.0
 50
270.0
 51
0.0
  0
POLYLINE
  5
5A33
  8
AM_0
 66
     1
 10
0.0
 20
0.0
 30
0.0
  0
VERTEX
  5
5A34
  8
AM_0
 10
167.33269308736359
 20
542.80211916481835
 30
0.0
 42
0.00039106593
  0
VERTEX
  5
5A35
  8
AM_0
 10
167.33033308736341
 20
542.49097916481855
 30
0.0
 42
0.00040574899
  0
VERTEX
  5
5A36
  8
AM_0
 10
167.32846308736339
 20
542.17986916481846
 30
0.0
 42
0.0003534546
  0
VERTEX
  5
5A37
  8
AM_0
 10
167.3270730873634
 20
541.86876916481856
 30
0.0
 42
0.00034407327
  0
VERTEX
  5
5A38
  8
AM_0
 10
167.3260930873634
 20
541.55762916481854
 30
0.0
 42
0.00045699408
  0
VERTEX
  5
5A39
  8
AM_0
 10
167.32563308736351
 20
541.24651916481866
 30
0.0
 42
0.00035571853
  0
VERTEX
  5
5A3A
  8
AM_0
 10
167.32567308736361
 20
540.93541916481854
 30
0.0
 42
0.00038547362
  0
VERTEX
  5
5A3B
  8
AM_0
 10
167.32616308736351
 20
540.62427916481829
 30
0.0
 42
0.00035501498
  0
VERTEX
  5
5A3C
  8
AM_0
 10
167.32712308736359
 20
540.31317916481851
 30
0.0
 42
0.00040118614
  0
VERTEX
  5
5A3D
  8
AM_0
 10
167.32854308736341
 20
540.00193916481851
 30
0.0
 42
0.00038319871
  0
VERTEX
  5
5A3E
  8
AM_0
 10
167.33045308736359
 20
539.69080916481835
 30
0.0
 42
0.00040742136
  0
VERTEX
  5
5A3F
  8
AM_0
 10
167.3328530873637
 20
539.37957916481855
 30
0.0
 42
0.0003578071
  0
VERTEX
  5
5A40
  8
AM_0
 10
167.3357430873634
 20
539.06846916481845
 30
0.0
  0
SEQEND
  5
5A41
  8
AM_0
  0
POLYLINE
  5
5A42
  8
AM_0
 66
     1
 10
0.0
 20
0.0
 30
0.0
  0
VERTEX
  5
5A43
  8
AM_0
 10
167.37675308736351
 20
536.53172916481844
 30
0.0
 42
0.00076695232
  0
VERTEX
  5
5A44
  8
AM_0
 10
167.39155308736341
 20
535.91396916481835
 30
0.0
 42
0.00073263044
  0
VERTEX
  5
5A45
  8
AM_0
 10
167.40819308736371
 20
535.29636916481854
 30
0.0
 42
0.0007652599
  0
VERTEX
  5
5A46
  8
AM_0
 10
167.4266830873635
 20
534.67869916481845
 30
0.0
 42
0.00075144485
  0
VERTEX
  5
5A47
  8
AM_0
 10
167.4470530873636
 20
534.06109916481853
 30
0.0
 42
0.00078594403
  0
VERTEX
  5
5A48
  8
AM_0
 10
167.46930308736339
 20
533.44366916481852
 30
0.0
 42
0.00073349202
  0
VERTEX
  5
5A49
  8
AM_0
 10
167.49345308736341
 20
532.82628916481838
 30
0.0
 42
0.0007358075
  0
VERTEX
  5
5A4A
  8
AM_0
 10
167.5193930873636
 20
532.20888916481852
 30
0.0
 42
0.00078592699
  0
VERTEX
  5
5A4B
  8
AM_0
 10
167.54722308736359
 20
531.59149916481852
 30
0.0
 42
0.00074823144
  0
VERTEX
  5
5A4C
  8
AM_0
 10
167.57695308736351
 20
530.97410916481863
 30
0.0
 42
0.00074896603
  0
VERTEX
  5
5A4D
  8
AM_0
 10
167.60851308736341
 20
530.35697916481854
 30
0.0
 42
0.00076039765
  0
VERTEX
  5
5A4E
  8
AM_0
 10
167.6419330873637
 20
529.73994916481854
 30
0.0
 42
0.00075616128
  0
VERTEX
  5
5A4F
  8
AM_0
 10
167.67723308736339
 20
529.12291916481854
 30
0.0
  0
SEQEND
  5
5A50
  8
AM_0
  0
POLYLINE
  5
5A51
  8
AM_0
 66
     1
 10
0.0
 20
0.0
 30
0.0
  0
VERTEX
  5
5A52
  8
AM_0
 10
167.8509430873635
 20
526.46153916481853
 30
0.0
 42
0.00073721992
  0
VERTEX
  5
5A53
  8
AM_0
 10
167.89509308736339
 20
525.85912916481846
 30
0.0
 42
0.00074398496
  0
VERTEX
  5
5A54
  8
AM_0
 10
167.94102308736339
 20
525.25685916481825
 30
0.0
 42
0.00073322625
  0
VERTEX
  5
5A55
  8
AM_0
 10
167.98875308736339
 20
524.65452916481854
 30
0.0
 42
0.00073594289
  0
VERTEX
  5
5A56
  8
AM_0
 10
168.03823308736341
 20
524.05253916481865
 30
0.0
 42
0.00074742568
  0
VERTEX
  5
5A57
  8
AM_0
 10
168.0895030873634
 20
523.45067916481855
 30
0.0
 42
0.00073216749
  0
VERTEX
  5
5A58
  8
AM_0
 10
168.1425630873637
 20
522.84886916481855
 30
0.0
 42
0.00074184065
  0
VERTEX
  5
5A59
  8
AM_0
 10
168.19738308736351
 20
522.24733916481853
 30
0.0
 42
0.00072077528
  0
VERTEX
  5
5A5A
  8
AM_0
 10
168.25396308736359
 20
521.64610916481865
 30
0.0
 42
0.00074978179
  0
VERTEX
  5
5A5B
  8
AM_0
 10
168.3123030873634
 20
521.04490916481825
 30
0.0
 42
0.00074288888
  0
VERTEX
  5
5A5C
  8
AM_0
 10
168.37245308736351
 20
520.4438891648183
 30
0.0
 42
0.00072503679
  0
VERTEX
  5
5A5D
  8
AM_0
 10
168.43436308736341
 20
519.84314916481833
 30
0.0
 42
0.00074640584
  0
VERTEX
  5
5A5E
  8
AM_0
 10
168.49803308736341
 20
519.24254916481846
 30
0.0
  0
SEQEND
  5
5A5F
  8
AM_0
  0
POLYLINE
  5
5A60
  8
AM_0
 66
     1
 10
0.0
 20
0.0
 30
0.0
  0
VERTEX
  5
5A61
  8
AM_0
 10
168.8336030873636
 20
516.31907916481873
 30
0.0
 42
0.0006890001
  0
VERTEX
  5
5A62
  8
AM_0
 10
168.9044830873633
 20
515.74432916481851
 30
0.0
 42
0.00070644651
  0
VERTEX
  5
5A63
  8
AM_0
 10
168.97698308736341
 20
515.16964916481845
 30
0.0
 42
0.0006924559
  0
VERTEX
  5
5A64
  8
AM_0
 10
169.05107308736359
 20
514.59532916481851
 30
0.0
 42
0.00069587797
  0
VERTEX
  5
5A65
  8
AM_0
 10
169.1267530873636
 20
514.02118916481845
 30
0.0
 42
0.00071687041
  0
VERTEX
  5
5A66
  8
AM_0
 10
169.20406308736341
 20
513.44718916481838
 30
0.0
 42
0.00069759113
  0
VERTEX
  5
5A67
  8
AM_0
 10
169.28300308736351
 20
512.87339916481858
 30
0.0
 42
0.00071003142
  0
VERTEX
  5
5A68
  8
AM_0
 10
169.3635430873635
 20
512.29992916481831
 30
0.0
 42
0.00069954544
  0
VERTEX
  5
5A69
  8
AM_0
 10
169.44568308736339
 20
511.72682916481841
 30
0.0
 42
0.0007188852
  0
VERTEX
  5
5A6A
  8
AM_0
 10
169.52946308736341
 20
511.15379916481851
 30
0.0
 42
0.00071266165
  0
VERTEX
  5
5A6B
  8
AM_0
 10
169.6148930873635
 20
510.58103916481832
 30
0.0
 42
0.00071614577
  0
VERTEX
  5
5A6C
  8
AM_0
 10
169.70192308736341
 20
510.00868916481852
 30
0.0
 42
0.00072290806
  0
VERTEX
  5
5A6D
  8
AM_0
 10
169.7906330873634
 20
509.43638916481848
 30
0.0
  0
SEQEND
  5
5A6E
  8
AM_0
  0
POLYLINE
  5
5A6F
  8
AM_0
 66
     1
 10
0.0
 20
0.0
 30
0.0
  0
VERTEX
  5
5A70
  8
AM_0
 10
167.33269308736359
 20
542.80211916481835
 30
0.0
 42
-0.00039106653
  0
VERTEX
  5
5A71
  8
AM_0
 10
167.33033308736341
 20
543.11324916481851
 30
0.0
 42
-0.00040574511
  0
VERTEX
  5
5A72
  8
AM_0
 10
167.32846308736339
 20
543.4243591648185
 30
0.0
 42
-0.00035346331
  0
VERTEX
  5
5A73
  8
AM_0
 10
167.3270730873634
 20
543.73546916481837
 30
0.0
 42
-0.00034406545
  0
VERTEX
  5
5A74
  8
AM_0
 10
167.3260930873634
 20
544.04660916481862
 30
0.0
 42
-0.00045699059
  0
VERTEX
  5
5A75
  8
AM_0
 10
167.32563308736351
 20
544.35770916481852
 30
0.0
 42
-0.00035573431
  0
VERTEX
  5
5A76
  8
AM_0
 10
167.32567308736361
 20
544.66880916481853
 30
0.0
 42
-0.00038545888
  0
VERTEX
  5
5A77
  8
AM_0
 10
167.32616308736351
 20
544.97994916481832
 30
0.0
 42
-0.00035501203
  0
VERTEX
  5
5A78
  8
AM_0
 10
167.32712308736359
 20
545.29105916481853
 30
0.0
 42
-0.00040120778
  0
VERTEX
  5
5A79
  8
AM_0
 10
167.32854308736341
 20
545.60228916481833
 30
0.0
 42
-0.00038317821
  0
VERTEX
  5
5A7A
  8
AM_0
 10
167.33045308736359
 20
545.91341916481849
 30
0.0
 42
-0.00040741862
  0
VERTEX
  5
5A7B
  8
AM_0
 10
167.3328530873637
 20
546.22464916481852
 30
0.0
 42
-0.00035783324
  0
VERTEX
  5
5A7C
  8
AM_0
 10
167.3357430873634
 20
546.53575916481861
 30
0.0
  0
SEQEND
  5
5A7D
  8
AM_0
  0
POLYLINE
  5
5A7E
  8
AM_0
 66
     1
 10
0.0
 20
0.0
 30
0.0
  0
VERTEX
  5
5A7F
  8
AM_0
 10
167.37675308736351
 20
549.07249916481851
 30
0.0
 42
-0.00076691987
  0
VERTEX
  5
5A80
  8
AM_0
 10
167.39155308736341
 20
549.69025916481849
 30
0.0
 42
-0.00073262795
  0
VERTEX
  5
5A81
  8
AM_0
 10
167.40819308736371
 20
550.30785916481852
 30
0.0
 42
-0.0007652954
  0
VERTEX
  5
5A82
  8
AM_0
 10
167.4266830873635
 20
550.92552916481861
 30
0.0
 42
-0.00077334627
  0
VERTEX
  5
5A83
  8
AM_0
 10
167.44709308736381
 20
551.54312916481854
 30
0.0
 42
-0.00073282897
  0
VERTEX
  5
5A84
  8
AM_0
 10
167.4693530873634
 20
552.16054916481858
 30
0.0
 42
-0.0007571179
  0
VERTEX
  5
5A85
  8
AM_0
 10
167.49345308736341
 20
552.77806916481836
 30
0.0
 42
-0.00073783152
  0
VERTEX
  5
5A86
  8
AM_0
 10
167.5193930873636
 20
553.39545916481848
 30
0.0
 42
-0.0007835518
  0
VERTEX
  5
5A87
  8
AM_0
 10
167.54722308736359
 20
554.01272916481855
 30
0.0
 42
-0.00074826133
  0
VERTEX
  5
5A88
  8
AM_0
 10
167.57695308736351
 20
554.63011916481855
 30
0.0
 42
-0.00074893555
  0
VERTEX
  5
5A89
  8
AM_0
 10
167.60851308736341
 20
555.24724916481853
 30
0.0
 42
-0.00076039841
  0
VERTEX
  5
5A8A
  8
AM_0
 10
167.6419330873637
 20
555.86427916481853
 30
0.0
 42
-0.00075618789
  0
VERTEX
  5
5A8B
  8
AM_0
 10
167.67723308736339
 20
556.48130916481853
 30
0.0
  0
SEQEND
  5
5A8C
  8
AM_0
  0
POLYLINE
  5
5A8D
  8
AM_0
 66
     1
 10
0.0
 20
0.0
 30
0.0
  0
VERTEX
  5
5A8E
  8
AM_0
 10
167.8509430873635
 20
559.14268916481865
 30
0.0
 42
-0.0007337051
  0
VERTEX
  5
5A8F
  8
AM_0
 10
167.89508308736359
 20
559.7450991648185
 30
0.0
 42
-0.00075211323
  0
VERTEX
  5
5A90
  8
AM_0
 10
167.94102308736339
 20
560.3474991648186
 30
0.0
 42
-0.0007297491
  0
VERTEX
  5
5A91
  8
AM_0
 10
167.98875308736339
 20
560.9496991648183
 30
0.0
 42
-0.00073593041
  0
VERTEX
  5
5A92
  8
AM_0
 10
168.03823308736341
 20
561.55168916481853
 30
0.0
 42
-0.00074742739
  0
VERTEX
  5
5A93
  8
AM_0
 10
168.0895030873634
 20
562.15354916481851
 30
0.0
 42
-0.00073217363
  0
VERTEX
  5
5A94
  8
AM_0
 10
168.1425630873637
 20
562.75535916481863
 30
0.0
 42
-0.00073754168
  0
VERTEX
  5
5A95
  8
AM_0
 10
168.19738308736351
 20
563.35689916481851
 30
0.0
 42
-0.00073075073
  0
VERTEX
  5
5A96
  8
AM_0
 10
168.25396308736359
 20
563.95824916481854
 30
0.0
 42
-0.00074550816
  0
VERTEX
  5
5A97
  8
AM_0
 10
168.3123030873634
 20
564.55931916481848
 30
0.0
 42
-0.00074288416
  0
VERTEX
  5
5A98
  8
AM_0
 10
168.37245308736351
 20
565.16033916481865
 30
0.0
 42
-0.00072504001
  0
VERTEX
  5
5A99
  8
AM_0
 10
168.43436308736341
 20
565.76107916481851
 30
0.0
 42
-0.00074640667
  0
VERTEX
  5
5A9A
  8
AM_0
 10
168.49803308736341
 20
566.36168916481824
 30
0.0
  0
SEQEND
  5
5A9B
  8
AM_0
  0
POLYLINE
  5
5A9C
  8
AM_0
 66
     1
 10
0.0
 20
0.0
 30
0.0
  0
VERTEX
  5
5A9D
  8
AM_0
 10
168.8336030873636
 20
569.28514916481868
 30
0.0
 42
-0.00068898283
  0
VERTEX
  5
5A9E
  8
AM_0
 10
168.9044830873633
 20
569.85989916481867
 30
0.0
 42
-0.00070644357
  0
VERTEX
  5
5A9F
  8
AM_0
 10
168.97698308736341
 20
570.43458916481836
 30
0.0
 42
-0.00069248074
  0
VERTEX
  5
5AA0
  8
AM_0
 10
169.05107308736359
 20
571.00889916481833
 30
0.0
 42
-0.0006958566
  0
VERTEX
  5
5AA1
  8
AM_0
 10
169.1267530873636
 20
571.5830391648185
 30
0.0
 42
-0.00071687219
  0
VERTEX
  5
5AA2
  8
AM_0
 10
169.20406308736341
 20
572.15703916481846
 30
0.0
 42
-0.00069760022
  0
VERTEX
  5
5AA3
  8
AM_0
 10
169.28300308736351
 20
572.7308291648186
 30
0.0
 42
-0.00071002302
  0
VERTEX
  5
5AA4
  8
AM_0
 10
169.3635430873635
 20
573.30429916481853
 30
0.0
 42
-0.00069954889
  0
VERTEX
  5
5AA5
  8
AM_0
 10
169.44568308736339
 20
573.87739916481848
 30
0.0
 42
-0.00071887947
  0
VERTEX
  5
5AA6
  8
AM_0
 10
169.52946308736341
 20
574.45042916481839
 30
0.0
 42
-0.00071266929
  0
VERTEX
  5
5AA7
  8
AM_0
 10
169.6148930873635
 20
575.02319916481838
 30
0.0
 42
-0.00071614429
  0
VERTEX
  5
5AA8
  8
AM_0
 10
169.70192308736341
 20
575.59553916481832
 30
0.0
 42
-0.00072288978
  0
VERTEX
  5
5AA9
  8
AM_0
 10
169.7906330873634
 20
576.16783916481836
 30
0.0
  0
SEQEND
  5
5AAA
  8
AM_0
  0
LINE
  5
5AAB
  8
ﾁｭｳｼﾝｾﾝ1
 10
344.97270308736358
 20
600.30214916481839
 30
0.0
 11
364.97270308736353
 21
600.30214916481839
 31
0.0
  0
LINE
  5
5AAC
  8
ﾁｭｳｼﾝｾﾝ1
 10
354.97270308736358
 20
610.3021491648185
 30
0.0
 11
354.97270308736358
 21
590.3021491648185
 31
0.0
  0
LINE
  5
5AAD
  8
ﾁｭｳｼﾝｾﾝ1
 10
344.97270308736358
 20
485.30211916481858
 30
0.0
 11
364.97270308736353
 21
485.30211916481858
 31
0.0
  0
LINE
  5
5AAE
  8
ﾁｭｳｼﾝｾﾝ1
 10
354.97270308736358
 20
495.30211916481841
 30
0.0
 11
354.97270308736358
 21
475.30211916481852
 31
0.0
  0
LINE
  5
5AAF
  8
ﾁｭｳｼﾝｾﾝ1
 10
281.9727030873637
 20
485.30211916481858
 30
0.0
 11
301.9727030873637
 21
485.30211916481858
 31
0.0
  0
LINE
  5
5AB0
  8
ﾁｭｳｼﾝｾﾝ1
 10
291.9727030873637
 20
495.30211916481841
 30
0.0
 11
291.9727030873637
 21
475.30211916481852
 31
0.0
  0
LINE
  5
5AB1
  8
ﾁｭｳｼﾝｾﾝ1
 10
281.9727030873637
 20
600.30214916481839
 30
0.0
 11
301.9727030873637
 21
600.30214916481839
 31
0.0
  0
LINE
  5
5AB2
  8
ﾁｭｳｼﾝｾﾝ1
 10
291.9727030873637
 20
610.3021491648185
 30
0.0
 11
291.9727030873637
 21
590.3021491648185
 31
0.0
  0
ARC
  5
5AB3
  8
AM_0
 10
363.97271308736367
 20
521.77559616481835
 30
0.0
 40
1.0000000199999981
 50
90.001718873355244
 51
180.00001000000091
  0
ARC
  5
5AB4
  8
AM_0
 10
363.97271308736367
 20
563.82866316481829
 30
0.0
 40
1.0000000199999981
 50
179.999989999999
 51
269.99828112664488
  0
LINE
  5
5AB5
  8
AM_0
 10
366.97268308736358
 20
567.30214916481827
 30
0.0
 11
370.97268308736352
 21
563.30214916481873
 31
0.0
  0
LINE
  5
5AB6
  8
AM_0
 10
364.47268308736358
 20
567.30214916481827
 30
0.0
 11
366.97268308736358
 21
567.30214916481827
 31
0.0
  0
LINE
  5
5AB7
  8
AM_0
 10
363.97268308736369
 20
566.80214916481827
 30
0.0
 11
363.97268308736369
 21
518.8021491648185
 31
0.0
  0
LINE
  5
5AB8
  8
AM_0
 10
370.97268308736352
 20
563.30214916481873
 30
0.0
 11
370.9726830873642
 21
522.3021491648185
 31
0.0
  0
LINE
  5
5AB9
  8
AM_0
 10
366.97268308736358
 20
518.3021491648185
 30
0.0
 11
370.97268308736352
 21
522.3021491648185
 31
0.0
  0
LINE
  5
5ABA
  8
AM_0
 10
364.47268308736358
 20
518.3021491648185
 30
0.0
 11
366.97268308736358
 21
518.30214916481862
 31
0.0
  0
LINE
  5
5ABB
  8
AM_0
 10
363.97268308736369
 20
566.80214916481827
 30
0.0
 11
364.47268308736358
 21
567.30214916481827
 31
0.0
1001
GENIUS_GENFIL_13
1070
     0
1040
0.5
1040
0.5
1040
20.0
1040
0.0
1002
{
1002
}
1001
GENIUS_GENOBJ-N-CHA_13
1002
{
1000
OWNER
1000
GEN
1002
}
1001
GENIUS_GENODEF_13
1002
{
1000
HIER
1070
     0
1002
}
1002
{
1000
MANEDIT
1070
     0
1002
}
1002
{
1000
NOSEL
1070
     0
1002
}
1002
{
1000
BEHIND
1070
     0
1002
}
1002
{
1000
OTHER
1070
     0
1002
}
1002
{
1000
REACTOR
1002
}
  0
LINE
  5
5ABC
  8
AM_0
 10
363.97268308736369
 20
518.8021491648185
 30
0.0
 11
364.47268308736358
 21
518.3021491648185
 31
0.0
1001
GENIUS_GENFIL_13
1070
     0
1040
0.5
1040
0.5
1040
20.0
1040
0.0
1002
{
1002
}
1001
GENIUS_GENODEF_13
1002
{
1000
HIER
1070
     0
1002
}
1002
{
1000
MANEDIT
1070
     0
1002
}
1002
{
1000
NOSEL
1070
     0
1002
}
1002
{
1000
BEHIND
1070
     0
1002
}
1002
{
1000
OTHER
1070
     0
1002
}
1002
{
1000
REACTOR
1002
}
1001
GENIUS_GENOBJ-N-CHA_13
1002
{
1000
OWNER
1000
GEN
1002
}
  0
LINE
  5
5ABD
  8
AM_0
 10
366.97268308736358
 20
567.30214916481827
 30
0.0
 11
366.97268308736358
 21
518.30214916481862
 31
0.0
  0
TEXT
  5
5CBC
  8
AM_0
 10
487.06876082292541
 20
546.71317975515854
 30
0.0
 40
10.0
  1
VX02-005MW~VX02-030MW
  0
ENDSEC
  0
EOF
