  0
SECTION
  2
HEADER
  9
$ACADVER
  1
AC1009
  9
$INSBASE
 10
0.0
 20
0.0
 30
0.0
  9
$EXTMIN
 10
126.8867590318978
 20
199.13457224567691
 30
-0.0015258207003583
  9
$EXTMAX
 10
711.96194640251576
 20
628.77127014718815
 30
0.0000000349246037
  9
$LIMMIN
 10
0.0
 20
0.0
  9
$LIMMAX
 10
853.5
 20
555.00000000000011
  9
$ORTHOMODE
 70
     0
  9
$REGENMODE
 70
     1
  9
$FILLMODE
 70
     1
  9
$QTEXTMODE
 70
     0
  9
$MIRRTEXT
 70
     1
  9
$DRAGMODE
 70
     2
  9
$LTSCALE
 40
3.0
  9
$OSMODE
 70
   551
  9
$ATTMODE
 70
     1
  9
$TEXTSIZE
 40
2.5
  9
$TRACEWID
 40
1.0
  9
$TEXTSTYLE
  7
STANDARD
  9
$CLAYER
  8
AM_0
  9
$CELTYPE
  6
BYLAYER
  9
$CECOLOR
 62
   256
  9
$DIMSCALE
 40
3.0
  9
$DIMASZ
 40
2.5
  9
$DIMEXO
 40
1.0
  9
$DIMDLI
 40
8.0
  9
$DIMRND
 40
0.0
  9
$DIMDLE
 40
0.0
  9
$DIMEXE
 40
0.6
  9
$DIMTP
 40
0.1
  9
$DIMTM
 40
0.1
  9
$DIMTXT
 40
2.5
  9
$DIMCEN
 40
0.0
  9
$DIMTSZ
 40
0.0
  9
$DIMTOL
 70
     0
  9
$DIMLIM
 70
     0
  9
$DIMTIH
 70
     0
  9
$DIMTOH
 70
     0
  9
$DIMSE1
 70
     0
  9
$DIMSE2
 70
     0
  9
$DIMTAD
 70
     1
  9
$DIMZIN
 70
     8
  9
$DIMBLK
  1

  9
$DIMASO
 70
     1
  9
$DIMSHO
 70
     1
  9
$DIMPOST
  1

  9
$DIMAPOST
  1
"
  9
$DIMALT
 70
     0
  9
$DIMALTD
 70
     2
  9
$DIMALTF
 40
0.0393701
  9
$DIMLFAC
 40
1.0
  9
$DIMTOFL
 70
     1
  9
$DIMTVP
 40
0.0
  9
$DIMTIX
 70
     0
  9
$DIMSOXD
 70
     0
  9
$DIMSAH
 70
     0
  9
$DIMBLK1
  1

  9
$DIMBLK2
  1

  9
$DIMSTYLE
  2
AM_ISO
  9
$DIMCLRD
 70
   256
  9
$DIMCLRE
 70
   256
  9
$DIMCLRT
 70
     4
  9
$DIMTFAC
 40
0.71
  9
$DIMGAP
 40
0.8
  9
$LUNITS
 70
     2
  9
$LUPREC
 70
     2
  9
$SKETCHINC
 40
1.0
  9
$FILLETRAD
 40
15.0
  9
$AUNITS
 70
     0
  9
$AUPREC
 70
     0
  9
$MENU
  1
.
  9
$ELEVATION
 40
0.0
  9
$PELEVATION
 40
0.0
  9
$THICKNESS
 40
0.0
  9
$LIMCHECK
 70
     0
  9
$BLIPMODE
 70
     0
  9
$CHAMFERA
 40
6.0
  9
$CHAMFERB
 40
3.0
  9
$SKPOLY
 70
     0
  9
$TDCREATE
 40
2452065.6056192131
  9
$TDUPDATE
 40
2458541.598486146
  9
$TDINDWG
 40
0.3446231829
  9
$TDUSRTIMER
 40
0.3446229861
  9
$USRTIMER
 70
     1
  9
$ANGBASE
 50
0.0
  9
$ANGDIR
 70
     0
  9
$PDMODE
 70
     0
  9
$PDSIZE
 40
0.0
  9
$PLINEWID
 40
0.0
  9
$COORDS
 70
     1
  9
$SPLFRAME
 70
     0
  9
$SPLINETYPE
 70
     6
  9
$SPLINESEGS
 70
     8
  9
$ATTDIA
 70
     1
  9
$ATTREQ
 70
     1
  9
$HANDLING
 70
     1
  9
$HANDSEED
  5
607C
  9
$SURFTAB1
 70
     6
  9
$SURFTAB2
 70
     6
  9
$SURFTYPE
 70
     6
  9
$SURFU
 70
     6
  9
$SURFV
 70
     6
  9
$UCSNAME
  2

  9
$UCSORG
 10
0.0
 20
0.0
 30
0.0
  9
$UCSXDIR
 10
1.0
 20
0.0
 30
0.0
  9
$UCSYDIR
 10
0.0
 20
1.0
 30
0.0
  9
$PUCSNAME
  2

  9
$PUCSORG
 10
0.0
 20
0.0
 30
0.0
  9
$PUCSXDIR
 10
1.0
 20
0.0
 30
0.0
  9
$PUCSYDIR
 10
0.0
 20
1.0
 30
0.0
  9
$USERI1
 70
     0
  9
$USERI2
 70
     0
  9
$USERI3
 70
     0
  9
$USERI4
 70
     0
  9
$USERI5
 70
     0
  9
$USERR1
 40
0.0
  9
$USERR2
 40
0.0
  9
$USERR3
 40
0.0
  9
$USERR4
 40
0.0
  9
$USERR5
 40
0.0
  9
$WORLDVIEW
 70
     1
  9
$SHADEDGE
 70
     3
  9
$SHADEDIF
 70
    70
  9
$TILEMODE
 70
     1
  9
$MAXACTVP
 70
    64
  9
$PLIMCHECK
 70
     0
  9
$PEXTMIN
 10
1.0000000000000000E+020
 20
1.0000000000000000E+020
 30
1.0000000000000000E+020
  9
$PEXTMAX
 10
-1.0000000000000000E+020
 20
-1.0000000000000000E+020
 30
-1.0000000000000000E+020
  9
$PLIMMIN
 10
0.0
 20
0.0
  9
$PLIMMAX
 10
420.0
 20
297.0
  9
$UNITMODE
 70
     0
  9
$VISRETAIN
 70
     1
  9
$PLINEGEN
 70
     0
  9
$PSLTSCALE
 70
     1
  0
ENDSEC
  0
SECTION
  2
TABLES
  0
TABLE
  2
VPORT
 70
     1
  0
VPORT
  2
*ACTIVE
 70
     0
 10
0.0
 20
0.0
 11
1.0
 21
1.0
 12
419.42435271720672
 22
413.95292119643261
 13
0.0
 23
0.0
 14
7.5
 24
7.5
 15
30.0
 25
30.0
 16
0.0
 26
0.0
 36
1.0
 17
0.0
 27
0.0
 37
0.0
 40
432.58614891685352
 41
1.7571592210767459
 42
50.0
 43
0.0
 44
0.0
 50
0.0
 51
0.0
 71
     0
 72
   100
 73
     1
 74
     3
 75
     0
 76
     0
 77
     0
 78
     0
  0
ENDTAB
  0
TABLE
  2
LTYPE
 70
    27
  0
LTYPE
  2
CONTINUOUS
 70
     0
  3
Solid line
 72
    65
 73
     0
 40
0.0
  0
LTYPE
  2
AM_ISO02W050
 70
     0
  3
__ __ __ __ __ __ __ __ __ __ __ __ __ __ __
 72
    65
 73
     2
 40
7.5
 49
6.0
 49
-1.5
  0
LTYPE
  2
AM_ISO08W050
 70
     0
  3
____ . ____ . ____ . ____ . ____ . ____ . ____
 72
    65
 73
     4
 40
18.0
 49
12.0
 49
-1.5
 49
3.0
 49
-1.5
  0
LTYPE
  2
AM_ISO09W050
 70
     0
  3
_____ . . _____ . . _____ . . ____ .. ____
 72
    65
 73
     6
 40
22.5
 49
12.0
 49
-1.5
 49
3.0
 49
-1.5
 49
3.0
 49
-1.5
  0
LTYPE
  2
AMCONSTR
 70
     0
  3
_______________________
 72
    65
 73
     2
 40
9999.0
 49
9999.0
 49
0.0
  0
LTYPE
  2
AM_ISO08W050X2
 70
     0
  3
__ . __ . __ . __ . __ . __
 72
    65
 73
     4
 40
9.0
 49
6.0
 49
-0.75
 49
1.5
 49
-0.75
  0
LTYPE
  2
AM_ISO02W050X2
 70
     0
  3
 _ _ _ _ _ _ _ _ _ _ _ _
 72
    65
 73
     2
 40
3.75
 49
3.0
 49
-0.75
  0
LTYPE
  2
AMZIGZAG
 70
     0
  3
/\/-/\/-/\/-/\/-/\/-/\/
 72
    65
 73
     2
 40
11.0001
 49
0.0001
 49
-11.0
  0
LTYPE
  2
ACISOWELD
 70
     0
  3
_ _ _ _ _
 72
    65
 73
     2
 40
2.0
 49
2.0
 49
-1.0
  0
LTYPE
  2
ACISOTGB
 70
     0
  3
__ . . __ . .
 72
    65
 73
     6
 40
9.0
 49
4.0
 49
-1.0
 49
1.0
 49
-1.0
 49
1.0
 49
-1.0
  0
LTYPE
  2
ACISOTGL
 70
     0
  3
_ _ _ _ _
 72
    65
 73
     2
 40
3.0
 49
2.0
 49
-1.0
  0
LTYPE
  2
CENTER
 70
     0
  3
__ . __
 72
    65
 73
     4
 40
7.0
 49
4.0
 49
-1.0
 49
1.0
 49
-1.0
  0
LTYPE
  2
HIDDEN
 70
     0
  3
Hidden __ __ __ __ __ __ __ __ __ __ __ __ __ _
 72
    65
 73
     2
 40
9.5249999999999986
 49
6.3499999999999979
 49
-3.174999999999998
  0
LTYPE
  2
PHANTOM2
 70
     0
  3
Phantom (.5x) ___ _ _ ___ _ _ ___ _ _ ___ _ _
 72
    65
 73
     6
 40
31.75
 49
15.875
 49
-3.174999999999998
 49
3.174999999999998
 49
-3.174999999999998
 49
3.174999999999998
 49
-3.174999999999998
  0
LTYPE
  2
ACANSTGBM
 70
     0
  3
__ . . __ . .
 72
    65
 73
     6
 40
9.0
 49
4.0
 49
-1.0
 49
1.0
 49
-1.0
 49
1.0
 49
-1.0
  0
LTYPE
  2
ACANSTGLM
 70
     0
  3
_ _ _ _ _
 72
    65
 73
     2
 40
3.0
 49
2.0
 49
-1.0
  0
LTYPE
  2
GEN3B
 70
     0
  3
 - - - - -
 72
    65
 73
     2
 40
1.0
 49
0.5
 49
-0.5
  0
LTYPE
  2
GEN7A
 70
     0
  3
__ . __ . __
 72
    65
 73
     4
 40
7.375
 49
4.75
 49
-0.875
 49
0.875
 49
-0.875
  0
LTYPE
  2
ACJISTGB
 70
     0
  3
__ . . __ . .
 72
    65
 73
     6
 40
9.0
 49
4.0
 49
-1.0
 49
1.0
 49
-1.0
 49
1.0
 49
-1.0
  0
LTYPE
  2
ACJISTGL
 70
     0
  3
_ _ _ _ _
 72
    65
 73
     2
 40
3.0
 49
2.0
 49
-1.0
  0
LTYPE
  2
GEN7
 70
     0
  3
____ . ____ . ____ . ____ . ____ . ____ . ____
 72
    65
 73
     4
 40
14.25
 49
9.75
 49
-1.5
 49
1.5
 49
-1.5
  0
LTYPE
  2
CENTER2
 70
     0
  3
Center (.5x) ___ _ ___ _ ___ _ ___ _ ___ _ ___
 72
    65
 73
     4
 40
1.125
 49
0.75
 49
-0.125
 49
0.125
 49
-0.125
  0
LTYPE
  2
HIDDEN2
 70
     0
  3
Hidden (.5x) _ _ _ _ _ _ _ _ _ _ _ _ _ _ _ _ _
 72
    65
 73
     2
 40
0.1875
 49
0.125
 49
-0.0625
  0
LTYPE
  2
AMZIGZAG2
 70
     0
  3
/\/-/\/-/\/-/\/-/\/-/\/
 72
    65
 73
     2
 40
0.4401
 49
0.0001
 49
-0.4400000000000001
  0
LTYPE
  2
ACANSTGB
 70
     0
  3
__ . . __ . .
 72
    65
 73
     6
 40
0.35433070866
 49
0.15748031496
 49
-0.03937007874
 49
0.03937007874
 49
-0.03937007874
 49
0.03937007874
 49
-0.03937007874
  0
LTYPE
  2
ACANSTGL
 70
     0
  3
_ _ _ _ _
 72
    65
 73
     2
 40
0.11811023622
 49
0.07874015748
 49
-0.03937007874
  0
ENDTAB
  0
TABLE
  2
LAYER
 70
     7
  0
LAYER
  2
0
 70
     0
 62
     7
  6
CONTINUOUS
  0
LAYER
  2
AM_0
 70
     0
 62
     7
  6
CONTINUOUS
  0
LAYER
  2
DEFPOINTS
 70
     0
 62
     7
  6
CONTINUOUS
  0
LAYER
  2
ｶｸﾚｾﾝ2
 70
     0
 62
     3
  6
GEN3B
  0
LAYER
  2
ﾁｭｳｼﾝｾﾝ1
 70
     0
 62
     1
  6
GEN7A
  0
LAYER
  2
AM_0N
 70
     0
 62
     7
  6
CONTINUOUS
  0
LAYER
  2
ﾁｭｳｼﾝｾﾝ
 70
     0
 62
     1
  6
GEN7
  0
ENDTAB
  0
TABLE
  2
STYLE
 70
    10
  0
STYLE
  2
STANDARD
 70
     0
 40
0.0
 41
0.8299999999999999
 50
0.0
 71
     0
 42
2.5
  3
txt.shx
  4
bigfont.shx
  0
STYLE
  2
ANNOTATIVE
 70
     0
 40
0.0
 41
1.0
 50
0.0
 71
     0
 42
0.2
  3
txt
  4

  0
STYLE
  2

 70
     1
 40
0.0
 41
1.0
 50
0.0
 71
     0
 42
2.5
  3
ltypeshp.shx
  4

  0
STYLE
  2
ACISOTS
 70
     0
 40
1.0
 41
1.0
 50
0.0
 71
     0
 42
2.5
  3
isocp.shx
  4
extfont.shx
  0
STYLE
  2
ACISOGDT
 70
     0
 40
0.0
 41
1.0
 50
0.0
 71
     0
 42
2.5
  3
amgdt.shx
  4

  0
STYLE
  2
ACANSTS
 70
     0
 40
1.0
 41
1.0
 50
0.0
 71
     0
 42
2.5
  3
romans.shx
  4
bigfont.shx
  0
STYLE
  2
ACANSGDT
 70
     0
 40
0.0
 41
1.0
 50
0.0
 71
     0
 42
2.5
  3
amgdt.shx
  4

  0
STYLE
  2
ACJISTS
 70
     0
 40
1.0
 41
1.0
 50
0.0
 71
     0
 42
2.5
  3
isocp.shx
  4
bigfont.shx
  0
STYLE
  2
ACJISGDT
 70
     0
 40
0.0
 41
1.0
 50
0.0
 71
     0
 42
2.5
  3
amgdt.shx
  4

  0
STYLE
  2

 70
     1
 40
0.0
 41
1.0
 50
0.0
 71
     0
 42
2.5
  3
genltshp.shx
  4

  0
ENDTAB
  0
TABLE
  2
VIEW
 70
     6
  0
VIEW
  2
AM_VIEW1
 70
     0
 40
277.50000000000011
 10
249.64779005524869
 20
416.25
 41
499.29558011049721
 11
0.0
 21
0.0
 31
1.0
 12
0.0
 22
0.0
 32
0.0
 42
50.0
 43
0.0
 44
0.0
 50
0.0
 71
     0
  0
VIEW
  2
AM_VIEW2
 70
     0
 40
277.50000000000011
 10
603.85220994475117
 20
416.25
 41
499.29558011049721
 11
0.0
 21
0.0
 31
1.0
 12
0.0
 22
0.0
 32
0.0
 42
50.0
 43
0.0
 44
0.0
 50
0.0
 71
     0
  0
VIEW
  2
AM_VIEW3
 70
     0
 40
277.50000000000011
 10
249.64779005524869
 20
138.75
 41
499.29558011049721
 11
0.0
 21
0.0
 31
1.0
 12
0.0
 22
0.0
 32
0.0
 42
50.0
 43
0.0
 44
0.0
 50
0.0
 71
     0
  0
VIEW
  2
AM_VIEW4
 70
     0
 40
277.50000000000011
 10
603.85220994475117
 20
138.75
 41
499.29558011049721
 11
0.0
 21
0.0
 31
1.0
 12
0.0
 22
0.0
 32
0.0
 42
50.0
 43
0.0
 44
0.0
 50
0.0
 71
     0
  0
VIEW
  2
AM_VIEW5
 70
     0
 40
277.50000000000011
 10
426.75
 20
277.50000000000011
 41
499.2955801104971
 11
0.0
 21
0.0
 31
1.0
 12
0.0
 22
0.0
 32
0.0
 42
50.0
 43
0.0
 44
0.0
 50
0.0
 71
     0
  0
VIEW
  2
AM_VIEW6
 70
     0
 40
554.99445000000014
 10
426.75
 20
277.5
 41
998.5811743093924
 11
0.0
 21
0.0
 31
1.0
 12
0.0
 22
0.0
 32
0.0
 42
50.0
 43
0.0
 44
0.0
 50
0.0
 71
     0
  0
ENDTAB
  0
TABLE
  2
UCS
 70
     0
  0
ENDTAB
  0
TABLE
  2
APPID
 70
   101
  0
APPID
  2
ACAD
 70
     0
  0
APPID
  2
ACADANNOTATIVE
 70
     0
  0
APPID
  2
MCAD_NO_VIS
 70
     0
  0
APPID
  2
ACAD_TEMP_GRAPHIC
 70
     0
  0
APPID
  2
ACATTRIBSERVICES
 70
     0
  0
APPID
  2
GENIUS_GENREC_14
 70
     0
  0
APPID
  2
GENIUS_GENOBJ-N-REC_13
 70
     0
  0
APPID
  2
GENIUS_GENODEF_13
 70
     0
  0
APPID
  2
GENIUS_GENOLIS_13
 70
     0
  0
APPID
  2
GENIUS_GENOBJ-N-TIT_13
 70
     0
  0
APPID
  2
GENIUS_GENOENT_13
 70
     0
  0
APPID
  2
GENIUS_GENTITLE_13
 70
     0
  0
APPID
  2
GENIUS_GENOREF_13
 70
     0
  0
APPID
  2
GENIUS_GENSCREG_15
 70
     0
  0
APPID
  2
GENIUS_GENOBJ-N-SDF_13
 70
     0
  0
APPID
  2
GENIUS_GENFIL_13
 70
     0
  0
APPID
  2
GENIUS_GENOBJ-N-CHA_13
 70
     0
  0
APPID
  2
GENIUS_GENDTOL_13
 70
     0
  0
APPID
  2
GENIUS_GENOBJ-N-FIL_13
 70
     0
  0
APPID
  2
AD_DRAW
 70
     0
  0
APPID
  2
DESIGNERASSEMBLIES
 70
     0
  0
APPID
  2
ASURF_PCURVE_APPNAME
 70
     0
  0
APPID
  2
GENIUS_GE3SECT_13
 70
     0
  0
APPID
  2
GENIUS_GENCFG_13
 70
     0
  0
APPID
  2
GENIUS_GE3CFG0_13
 70
     0
  0
APPID
  2
GENIUS_GENCFG0_13
 70
     0
  0
APPID
  2
GENIUS_GENCFG1_13
 70
     0
  0
APPID
  2
GENIUS_GENCFG2_13
 70
     0
  0
APPID
  2
GENIUS_GENCFG3_13
 70
     0
  0
APPID
  2
GENIUS_GENCFG4_13
 70
     0
  0
APPID
  2
GENIUS_GEVCFG0_13
 70
     0
  0
APPID
  2
GENIUS_GENHINW_13
 70
     0
  0
APPID
  2
GENIUS_FIRSTVISTXT_14
 70
     0
  0
APPID
  2
GENIUS_GENOBJ-N-LEADER_13
 70
     0
  0
APPID
  2
GEV_VCCNULL_SWITCH_OFF
 70
     0
  0
APPID
  2
GENIUS_GEFCFG0_13
 70
     0
  0
APPID
  2
GENIUS_GENZVEED_13
 70
     0
  0
APPID
  2
GENIUS_GENSCREG_13
 70
     0
  0
APPID
  2
GENIUS_DUMCFG0_13
 70
     0
  0
APPID
  2
GEVID936201362
 70
     0
  0
APPID
  2
GEVDC
 70
     0
  0
APPID
  2
GEVCON
 70
     0
  0
APPID
  2
VCC
 70
     0
  0
APPID
  2
GEVPT
 70
     0
  0
APPID
  2
GEVIT
 70
     0
  0
APPID
  2
GENBH
 70
     0
  0
APPID
  2
GEVMK
 70
     0
  0
APPID
  2
GENIUS_GENBH_13
 70
     0
  0
APPID
  2
GENIUS_GENOBJ-NBEHI-BHF_13
 70
     0
  0
APPID
  2
GENIUS_GENOBJ-NBEHI-BHB_13
 70
     0
  0
APPID
  2
GENIUS_GENOBJ-F-DESC_13
 70
     0
  0
APPID
  2
GENIUS_GEFDESC_14
 70
     0
  0
APPID
  2
GENIUS_GENOBJ-F-PART_13
 70
     0
  0
APPID
  2
GENIUS_GEFSTDP_13
 70
     0
  0
APPID
  2
GENIUS_GEFPARTINS_13
 70
     0
  0
APPID
  2
GENIUS_GENTRA_14
 70
     0
  0
APPID
  2
GENIUS_GENINF13_13
 70
     0
  0
APPID
  2
GENIUS_GENOBJ-N-INFOPT_13
 70
     0
  0
APPID
  2
GENIUS_GENOBJ-N-RSSYM_13
 70
     0
  0
APPID
  2
GENIUS_GENSYMENT_13
 70
     0
  0
APPID
  2
GENIUS_GENSCSYM_13
 70
     0
  0
APPID
  2
GENIUS_GEFINFNAM_13
 70
     0
  0
APPID
  2
GENIUS_GENOBJ-N-CEN_13
 70
     0
  0
APPID
  2
GENIUS_GENOBJ-N-CRS_13
 70
     0
  0
APPID
  2
GENIUS_GENOBJ-N-CRC_13
 70
     0
  0
APPID
  2
GENIUS_GENCRC_14
 70
     0
  0
APPID
  2
GEVID942827039
 70
     0
  0
APPID
  2
GEVID942827040
 70
     0
  0
APPID
  2
GEVID942827041
 70
     0
  0
APPID
  2
GENIUS_GENOBJ-F-SCPASSM_13
 70
     0
  0
APPID
  2
GENIUS_GENDIMSH_14
 70
     0
  0
APPID
  2
GEVID942827042
 70
     0
  0
APPID
  2
GEVID946020473
 70
     0
  0
APPID
  2
GEVID946020474
 70
     0
  0
APPID
  2
GEVID946020475
 70
     0
  0
APPID
  2
GENIUS_GENOBJ-N-HTC_13
 70
     0
  0
APPID
  2
GENIUS_GENHATCH_13
 70
     0
  0
APPID
  2
GEVID948854295
 70
     0
  0
APPID
  2
GEVID939402019
 70
     0
  0
APPID
  2
GEVID952919491
 70
     0
  0
APPID
  2
GEVID952919492
 70
     0
  0
APPID
  2
GENIUS_GEFWELD_13
 70
     0
  0
APPID
  2
GENIUS_GENOBJ-F-WELS_13
 70
     0
  0
APPID
  2
GEVID952919493
 70
     0
  0
APPID
  2
GENIUS_GENOBJ-N-RSBK_13
 70
     0
  0
APPID
  2
GENIUS_GENOBJ-N-LIB_13
 70
     0
  0
APPID
  2
GENIUS_GENSCALE_13
 70
     0
  0
APPID
  2
GEVID986376691
 70
     0
  0
APPID
  2
DCO15
 70
     0
  0
APPID
  2
GEVID988070561
 70
     0
  0
APPID
  2
GEVID988070562
 70
     0
  0
APPID
  2
GEVID988070563
 70
     0
  0
APPID
  2
ACADM_DIM_EDIT
 70
     0
  0
APPID
  2
AMDT_DM_ADJ
 70
     0
  0
APPID
  2
ACAD_PSEXT
 70
     0
  0
APPID
  2
ACAD_DSTYLE_DIMJAG
 70
     0
  0
APPID
  2
ACAD_DSTYLE_DIMBREAK
 70
     0
  0
APPID
  2
ACAD_NAV_VCDISPLAY
 70
     0
  0
APPID
  2
ACADANNOPO
 70
     0
  0
APPID
  2
ACAD_EXEMPT_FROM_CAD_STANDARDS
 70
     0
  0
APPID
  2
ACAD_MLEADERVER
 70
     0
  0
ENDTAB
  0
TABLE
  2
DIMSTYLE
 70
    23
  0
DIMSTYLE
  2
STANDARD
 70
     0
  3

  4

  5

  6

  7

 40
1.0
 41
0.18
 42
0.0625
 43
0.38
 44
0.18
 45
0.0
 46
0.0
 47
0.0
 48
0.0
140
0.18
141
0.09
142
0.0
143
25.399999999999999
144
1.0
145
0.0
146
1.0
147
0.09
 71
     0
 72
     0
 73
     1
 74
     1
 75
     0
 76
     0
 77
     0
 78
     0
170
     0
171
     2
172
     0
173
     0
174
     0
175
     0
176
     0
177
     0
178
     0
  0
DIMSTYLE
  2
ANNOTATIVE
 70
     0
  3

  4

  5

  6

  7

 40
1.0
 41
0.18
 42
0.0625
 43
0.38
 44
0.18
 45
0.0
 46
0.0
 47
0.0
 48
0.0
140
0.18
141
0.09
142
0.0
143
25.399999999999999
144
1.0
145
0.0
146
1.0
147
0.09
 71
     0
 72
     0
 73
     1
 74
     1
 75
     0
 76
     0
 77
     0
 78
     0
170
     0
171
     2
172
     0
173
     0
174
     0
175
     0
176
     0
177
     0
178
     0
  0
DIMSTYLE
  2
AM_ISO
 70
     0
  3

  4
"
  5

  6

  7

 40
1.0
 41
2.5
 42
1.0
 43
8.0
 44
0.6
 45
0.0
 46
0.0
 47
0.1
 48
0.1
140
2.5
141
0.0
142
0.0
143
0.0393701
144
1.0
145
0.0
146
0.71
147
0.8
 71
     0
 72
     0
 73
     0
 74
     0
 75
     0
 76
     0
 77
     1
 78
     8
170
     0
171
     2
172
     1
173
     0
174
     0
175
     0
176
   256
177
   256
178
     4
  0
DIMSTYLE
  2
AM_ISO$3
 70
     0
  3

  4
"
  5

  6

  7

 40
1.0
 41
2.5
 42
1.0
 43
8.0
 44
0.6
 45
0.0
 46
0.0
 47
0.1
 48
0.1
140
2.5
141
0.0
142
0.0
143
0.0393701
144
1.0
145
0.0
146
0.71
147
0.8
 71
     0
 72
     0
 73
     0
 74
     1
 75
     0
 76
     0
 77
     1
 78
     8
170
     0
171
     2
172
     0
173
     0
174
     0
175
     0
176
   256
177
   256
178
     4
  0
DIMSTYLE
  2
AM_ISO$4
 70
     0
  3

  4
"
  5

  6

  7

 40
1.0
 41
2.5
 42
1.0
 43
8.0
 44
0.6
 45
0.0
 46
0.0
 47
0.1
 48
0.1
140
2.5
141
0.0
142
0.0
143
0.0393701
144
1.0
145
0.0
146
0.71
147
0.8
 71
     0
 72
     0
 73
     0
 74
     1
 75
     0
 76
     0
 77
     1
 78
     8
170
     0
171
     2
172
     0
173
     0
174
     0
175
     0
176
   256
177
   256
178
     4
  0
DIMSTYLE
  2
AM_ISO$6
 70
     0
  3

  4
"
  5

  6

  7

 40
1.0
 41
2.5
 42
1.0
 43
8.0
 44
0.6
 45
0.0
 46
0.0
 47
0.1
 48
0.1
140
2.5
141
0.0
142
0.0
143
0.0393701
144
1.0
145
0.0
146
0.71
147
0.8
 71
     0
 72
     0
 73
     0
 74
     0
 75
     0
 76
     0
 77
     0
 78
     8
170
     0
171
     2
172
     1
173
     0
174
     0
175
     0
176
   256
177
   256
178
     4
  0
DIMSTYLE
  2
AM_ISO$7
 70
     0
  3

  4
"
  5

  6

  7

 40
1.0
 41
2.5
 42
1.0
 43
8.0
 44
0.6
 45
0.0
 46
0.0
 47
0.1
 48
0.1
140
2.5
141
0.0
142
0.0
143
0.0393701
144
1.0
145
0.0
146
0.71
147
0.8
 71
     0
 72
     0
 73
     0
 74
     0
 75
     0
 76
     0
 77
     1
 78
     8
170
     0
171
     2
172
     1
173
     0
174
     0
175
     0
176
   256
177
   256
178
     4
  0
DIMSTYLE
  2
AM_ISO$SF
 70
     0
  3

  4
"
  5

  6

  7

 40
1.0
 41
2.5
 42
1.0
 43
10.0
 44
1.0
 45
0.0
 46
0.0
 47
0.1
 48
0.1
140
3.5
141
0.0
142
0.0
143
0.0393701
144
1.0
145
0.0
146
0.71
147
1.5
 71
     0
 72
     0
 73
     0
 74
     0
 75
     1
 76
     1
 77
     1
 78
     8
170
     0
171
     2
172
     1
173
     0
174
     0
175
     0
176
   256
177
   256
178
     2
  0
DIMSTYLE
  2
AM_ISO$SH
 70
     0
  3

  4
"
  5

  6

  7

 40
1.0
 41
2.5
 42
1.0
 43
10.0
 44
1.0
 45
0.0
 46
0.0
 47
0.1
 48
0.1
140
3.5
141
0.0
142
0.0
143
0.0393701
144
2.0
145
0.0
146
0.71
147
1.5
 71
     0
 72
     0
 73
     0
 74
     0
 75
     1
 76
     1
 77
     1
 78
     8
170
     0
171
     2
172
     1
173
     1
174
     0
175
     0
176
   256
177
   256
178
     2
  0
DIMSTYLE
  2
AM_JIS
 70
     0
  3

  4
"
  5

  6

  7

 40
1.0
 41
2.5
 42
1.0
 43
7.0
 44
1.0
 45
0.0
 46
0.0
 47
0.1
 48
0.1000000001
140
2.5
141
0.0
142
0.0
143
0.0393701
144
1.0
145
0.0
146
0.71
147
1.0
 71
     0
 72
     0
 73
     0
 74
     0
 75
     0
 76
     0
 77
     3
 78
     8
170
     0
171
     2
172
     1
173
     0
174
     0
175
     0
176
   256
177
   256
178
     4
  0
DIMSTYLE
  2
AM_JIS$3
 70
     0
  3

  4
"
  5

  6

  7

 40
1.0
 41
2.5
 42
1.0
 43
7.0
 44
1.0
 45
0.0
 46
0.0
 47
0.1
 48
0.1000000001
140
2.5
141
0.0
142
0.0
143
0.0393701
144
1.0
145
0.0
146
0.71
147
1.0
 71
     0
 72
     0
 73
     0
 74
     1
 75
     0
 76
     0
 77
     3
 78
     8
170
     0
171
     2
172
     0
173
     0
174
     0
175
     0
176
   256
177
   256
178
     4
  0
DIMSTYLE
  2
AM_JIS$4
 70
     0
  3

  4
"
  5

  6

  7

 40
1.0
 41
2.5
 42
1.0
 43
7.0
 44
1.0
 45
0.0
 46
0.0
 47
0.1
 48
0.1000000001
140
2.5
141
0.0
142
0.0
143
0.0393701
144
1.0
145
0.0
146
0.71
147
1.0
 71
     0
 72
     0
 73
     0
 74
     0
 75
     0
 76
     0
 77
     3
 78
     8
170
     0
171
     2
172
     0
173
     0
174
     0
175
     0
176
   256
177
   256
178
     4
  0
DIMSTYLE
  2
AM_JIS$6
 70
     0
  3

  4
"
  5

  6

  7

 40
1.0
 41
2.5
 42
1.0
 43
7.0
 44
1.0
 45
0.0
 46
0.0
 47
0.1
 48
0.1000000001
140
2.5
141
0.0
142
0.0
143
0.0393701
144
1.0
145
0.0
146
0.71
147
1.0
 71
     0
 72
     0
 73
     0
 74
     0
 75
     0
 76
     0
 77
     0
 78
     8
170
     0
171
     2
172
     1
173
     0
174
     0
175
     0
176
   256
177
   256
178
     4
  0
DIMSTYLE
  2
AM_JIS$7
 70
     0
  3

  4
"
  5

  6

  7

 40
1.0
 41
2.5
 42
1.0
 43
7.0
 44
1.0
 45
0.0
 46
0.0
 47
0.1
 48
0.1000000001
140
2.5
141
0.0
142
0.0
143
0.0393701
144
1.0
145
0.0
146
0.71
147
1.0
 71
     0
 72
     0
 73
     0
 74
     0
 75
     0
 76
     0
 77
     3
 78
     8
170
     0
171
     2
172
     1
173
     0
174
     0
175
     0
176
   256
177
   256
178
     4
  0
DIMSTYLE
  2
AM_JIS$SF
 70
     0
  3

  4
"
  5

  6

  7

 40
1.0
 41
2.5
 42
1.0
 43
10.0
 44
1.0
 45
0.0
 46
0.0
 47
0.1
 48
0.1
140
3.5
141
0.0
142
0.0
143
0.0393701
144
1.0
145
0.0
146
0.71
147
1.5
 71
     0
 72
     0
 73
     0
 74
     0
 75
     1
 76
     1
 77
     3
 78
     8
170
     0
171
     2
172
     1
173
     0
174
     0
175
     0
176
   256
177
   256
178
     4
  0
DIMSTYLE
  2
AM_JIS$SH
 70
     0
  3

  4
"
  5

  6

  7

 40
1.0
 41
2.5
 42
1.0
 43
10.0
 44
1.0
 45
0.0
 46
0.0
 47
0.1
 48
0.1
140
3.5
141
0.0
142
0.0
143
0.0393701
144
1.0
145
0.0
146
0.71
147
1.5
 71
     0
 72
     0
 73
     0
 74
     0
 75
     1
 76
     0
 77
     3
 78
     8
170
     0
171
     2
172
     1
173
     1
174
     0
175
     0
176
   256
177
   256
178
     4
  0
DIMSTYLE
  2
AM_ISO$0
 70
     0
  3

  4
"
  5

  6

  7

 40
1.0
 41
2.5
 42
1.0
 43
8.0
 44
0.6
 45
0.0
 46
0.0
 47
0.1
 48
0.1
140
2.5
141
0.0
142
0.0
143
0.0393701
144
1.0
145
0.0
146
0.71
147
0.8
 71
     0
 72
     0
 73
     0
 74
     0
 75
     0
 76
     0
 77
     1
 78
     8
170
     0
171
     2
172
     1
173
     0
174
     0
175
     0
176
   256
177
   256
178
     4
  0
DIMSTYLE
  2
AM_ANSI
 70
     0
  3

  4
mm
  5

  6

  7

 40
1.0
 41
0.12
 42
0.05
 43
0.5
 44
0.1
 45
0.0
 46
0.0
 47
0.1
 48
0.1
140
0.12
141
0.0
142
0.0
143
25.399999999999999
144
1.0
145
0.0
146
0.71
147
0.06
 71
     0
 72
     0
 73
     1
 74
     1
 75
     0
 76
     0
 77
     0
 78
     7
170
     0
171
     2
172
     0
173
     0
174
     0
175
     0
176
   256
177
   256
178
     2
  0
DIMSTYLE
  2
AM_ANSI$3
 70
     0
  3

  4
mm
  5

  6

  7

 40
1.0
 41
0.12
 42
0.05
 43
0.5
 44
0.1
 45
0.0
 46
0.0
 47
0.1
 48
0.1
140
0.12
141
0.0
142
0.0
143
25.399999999999999
144
1.0
145
0.0
146
0.71
147
0.06
 71
     0
 72
     0
 73
     1
 74
     1
 75
     0
 76
     0
 77
     0
 78
     7
170
     0
171
     2
172
     0
173
     0
174
     0
175
     0
176
   256
177
   256
178
     2
  0
DIMSTYLE
  2
AM_ANSI$4
 70
     0
  3

  4
mm
  5

  6

  7

 40
1.0
 41
0.12
 42
0.05
 43
0.5
 44
0.1
 45
0.0
 46
0.0
 47
0.1
 48
0.1
140
0.12
141
0.0
142
0.0
143
25.399999999999999
144
1.0
145
0.0
146
0.71
147
0.06
 71
     0
 72
     0
 73
     1
 74
     1
 75
     0
 76
     0
 77
     0
 78
     7
170
     0
171
     2
172
     0
173
     0
174
     0
175
     0
176
   256
177
   256
178
     2
  0
DIMSTYLE
  2
AM_ANSI$7
 70
     0
  3

  4
mm
  5

  6

  7

 40
1.0
 41
0.12
 42
0.05
 43
0.5
 44
0.1
 45
0.0
 46
0.0
 47
0.1
 48
0.1
140
0.12
141
0.0
142
0.0
143
25.399999999999999
144
1.0
145
0.0
146
0.71
147
0.06
 71
     0
 72
     0
 73
     1
 74
     1
 75
     0
 76
     0
 77
     0
 78
     7
170
     0
171
     2
172
     0
173
     0
174
     0
175
     0
176
   256
177
   256
178
     2
  0
DIMSTYLE
  2
AM_ANSI$SF
 70
     0
  3

  4
mm
  5

  6

  7

 40
1.0
 41
0.12
 42
0.05
 43
0.5
 44
0.1
 45
0.0
 46
0.0
 47
0.1
 48
0.1
140
0.12
141
0.0
142
0.0
143
25.399999999999999
144
1.0
145
0.0
146
0.71
147
0.06
 71
     0
 72
     0
 73
     1
 74
     1
 75
     1
 76
     1
 77
     0
 78
     7
170
     0
171
     2
172
     0
173
     0
174
     0
175
     0
176
   256
177
   256
178
     2
  0
DIMSTYLE
  2
AM_ANSI$SH
 70
     0
  3

  4
mm
  5

  6
GENAXEH
  7

 40
1.0
 41
0.12
 42
0.05
 43
0.5
 44
0.1
 45
0.0
 46
0.0
 47
0.1
 48
0.1
140
0.12
141
0.0
142
0.0
143
25.399999999999999
144
1.0
145
0.0
146
0.71
147
0.06
 71
     0
 72
     0
 73
     1
 74
     1
 75
     1
 76
     1
 77
     0
 78
     7
170
     0
171
     2
172
     0
173
     1
174
     0
175
     0
176
   256
177
   256
178
     2
  0
ENDTAB
  0
ENDSEC
  0
SECTION
  2
BLOCKS
  0
BLOCK
  8
0
  2
$MODEL_SPACE
 70
     0
 10
0.0
 20
0.0
 30
0.0
  3
$MODEL_SPACE
  1

  0
ENDBLK
  5
5EF5
  8
0
  0
BLOCK
 67
     1
  8
0
  2
$PAPER_SPACE
 70
     0
 10
0.0
 20
0.0
 30
0.0
  3
$PAPER_SPACE
  1

  0
ENDBLK
  5
5EF1
 67
     1
  8
0
  0
BLOCK
  8
0
  2
GENAXEH
 70
     0
 10
0.0
 20
0.0
 30
0.0
  3
GENAXEH
  1

  0
LINE
  5
73
  8
0
 10
-1.0
 20
0.0
 30
0.0
 11
1.0
 21
0.0
 31
0.0
  0
ENDBLK
  5
75
  8
0
  0
BLOCK
  8
0
  2
_OPEN30
 70
     0
 10
0.0
 20
0.0
 30
0.0
  3
_OPEN30
  1

  0
LINE
  5
31A
  8
0
 62
     0
 10
-1.0
 20
0.26794919
 30
0.0
 11
0.0
 21
0.0
 31
0.0
  0
LINE
  5
31B
  8
0
 62
     0
 10
0.0
 20
0.0
 30
0.0
 11
-1.0
 21
-0.26794919
 31
0.0
  0
LINE
  5
31C
  8
0
 62
     0
 10
0.0
 20
0.0
 30
0.0
 11
-1.0
 21
0.0
 31
0.0
  0
ENDBLK
  5
31E
  8
0
  0
BLOCK
  8
0
  2
_NONE
 70
     0
 10
0.0
 20
0.0
 30
0.0
  3
_NONE
  1

  0
ENDBLK
  5
579
  8
0
  0
BLOCK
  8
0
  2
*U5
 70
     1
 10
0.0
 20
0.0
 30
0.0
  3
*U5
  1

  0
TEXT
  5
5E82
  8
AM_0
 10
547.24658798069595
 20
544.3352191008405
 30
0.0
 40
10.0
  1
ＶＸ０２－０４０～０６０ＭＷ
 41
0.8299999999999999
  0
ENDBLK
  5
5E84
  8
0
  0
BLOCK
  8
0
  2
_ACMFILLEDHALF
 70
     0
 10
0.0
 20
0.0
 30
0.0
  3
_ACMFILLEDHALF
  1

  0
TRACE
  5
5FF8
  8
AM_0
 62
     0
 10
-0.8
 20
0.0
 30
0.0
 11
-1.0
 21
0.166666666
 31
0.0
 12
0.0
 22
0.0
 32
0.0
 13
0.0
 23
0.0
 33
0.0
  0
LINE
  5
5FF9
  8
AM_0
 62
     0
 10
-1.0
 20
0.0
 30
0.0
 11
-0.8
 21
0.0
 31
0.0
  0
ENDBLK
  5
5FF7
  8
0
  0
ENDSEC
  0
SECTION
  2
ENTITIES
  0
LINE
  5
5819
  8
AM_0
 10
257.30037871952942
 20
240.5046687670542
 30
0.0
 11
260.30037871952931
 21
240.5046687670542
 31
0.0
  0
LINE
  5
581A
  8
AM_0
 10
257.30037871952919
 20
316.95076776705417
 30
0.0
 11
260.30037871952931
 21
316.95076776705417
 31
0.0
  0
LINE
  5
581B
  8
AM_0
 10
155.5068087195292
 20
222.44450076705431
 30
0.0
 11
252.42654871952931
 21
222.44450076705431
 31
0.0
  0
LINE
  5
581C
  8
AM_0
 10
153.9783087195292
 20
242.00466876705411
 30
0.0
 11
161.30037871952919
 21
242.00466876705431
 31
0.0
  0
LINE
  5
581D
  8
AM_0
 10
161.30037871952919
 20
244.7277507670542
 30
0.0
 11
154.6657887195291
 21
244.7277507670542
 31
0.0
  0
LINE
  5
581E
  8
AM_0
 10
161.30037871952919
 20
242.7277527670542
 30
0.0
 11
154.6657887195291
 21
242.7277527670542
 31
0.0
  0
LINE
  5
581F
  8
AM_0
 10
161.30037871952919
 20
314.72776776705427
 30
0.0
 11
154.6657887195291
 21
314.72776776705427
 31
0.0
  0
LINE
  5
5820
  8
AM_0
 10
161.30037871952919
 20
312.72775476705431
 30
0.0
 11
154.6657887195291
 21
312.72775476705431
 31
0.0
  0
LINE
  5
5821
  8
AM_0
 10
153.97767871952919
 20
315.45076776705417
 30
0.0
 11
161.30037871952919
 21
315.45076776705417
 31
0.0
  0
LINE
  5
5822
  8
AM_0
 10
155.5068087195292
 20
335.01100776705431
 30
0.0
 11
252.42654871952931
 21
335.01100776705431
 31
0.0
  0
ARC
  5
5823
  8
AM_0
 10
153.97767871952919
 20
313.77285876705417
 30
0.0
 40
1.6779127499999991
 50
90.00000299999769
 51
270.0
  0
ARC
  5
5824
  8
AM_0
 10
154.8497487195292
 20
313.72775376705431
 30
0.0
 40
1.0000000199999981
 50
90.00000299999769
 51
270.0
  0
LINE
  5
5825
  8
AM_0
 10
140.30037871952919
 20
314.12063676705418
 30
0.0
 11
140.30037871952919
 21
313.06070076705441
 31
0.0
  0
ARC
  5
5826
  8
AM_0
 10
139.30038871952911
 20
312.90249576705418
 30
0.0
 40
1.0000000199999981
 50
113.12703000000219
 51
180.00000999999941
  0
LINE
  5
5827
  8
AM_0
 10
140.11221871952921
 20
314.33666976705427
 30
0.0
 11
138.90762871952921
 21
313.82220576705419
 31
0.0
  0
LINE
  5
5828
  8
AM_0
 10
138.3003687195291
 20
326.74411776705438
 30
0.0
 11
138.3003687195291
 21
289.72775276705443
 31
0.0
  0
LINE
  5
5829
  8
AM_0
 10
144.3003687195291
 20
331.72774776705432
 30
0.0
 11
144.3003687195291
 21
290.72775276705443
 31
0.0
  0
LINE
  5
582A
  8
AM_0
 10
144.3003687195291
 20
266.72775276705443
 30
0.0
 11
144.3003687195291
 21
225.72776676705431
 31
0.0
  0
LINE
  5
582B
  8
AM_0
 10
152.30037871952919
 20
331.72774776705432
 30
0.0
 11
152.30037871952919
 21
229.28751876705431
 31
0.0
  0
LINE
  5
582C
  8
AM_0
 10
143.30037871952919
 20
328.72774776705432
 30
0.0
 11
143.30037871952919
 21
290.72775276705443
 31
0.0
  0
LINE
  5
582D
  8
AM_0
 10
143.30037871952919
 20
266.72775276705443
 30
0.0
 11
143.30037871952919
 21
227.60452176705439
 31
0.0
  0
LINE
  5
582E
  8
AM_0
 10
157.66584871952929
 20
242.0764767670544
 30
0.0
 11
152.3004387195291
 21
230.63200176705439
 31
0.0
  0
ARC
  5
582F
  8
AM_0
 10
139.30038871952911
 20
230.7113487670542
 30
0.0
 40
1.0000000199999981
 50
179.99999000000059
 51
239.9736100000018
  0
LINE
  5
5830
  8
AM_0
 10
140.0869887195291
 20
230.2329987670544
 30
0.0
 11
138.84774871952911
 21
230.86202976705431
 31
0.0
  0
ARC
  5
5831
  8
AM_0
 10
189.3003687195291
 20
221.59811076705429
 30
0.0
 40
2.00000007
 50
270.0
 51
0.0
  0
ARC
  5
5832
  8
AM_0
 10
189.3003687195291
 20
218.8398117670541
 30
0.0
 40
2.00000007
 50
270.0
 51
0.0
  0
LINE
  5
5833
  8
AM_0
 10
191.30037871952919
 20
218.8398117670541
 30
0.0
 11
191.30037871952919
 21
222.44450076705431
 31
0.0
  0
ARC
  5
5834
  8
AM_0
 10
189.3003687195291
 20
219.7503327670542
 30
0.0
 40
2.00000007
 50
270.0
 51
0.0
  0
LINE
  5
5835
  8
AM_0
 10
152.30037871952919
 20
230.6319717670543
 30
0.0
 11
153.54159871952911
 21
224.0726157670542
 31
0.0
  0
LINE
  5
5836
  8
AM_0
 10
152.30037871952919
 20
229.28744376705441
 30
0.0
 11
153.5804787195292
 21
221.2822707670544
 31
0.0
  0
LINE
  5
5837
  8
AM_0
 10
152.300318719529
 20
227.9429157670543
 30
0.0
 11
153.5913987195292
 21
219.4497957670543
 31
0.0
  0
ARC
  5
5838
  8
AM_0
 10
155.5068087195292
 20
224.44448676705429
 30
0.0
 40
2.00000007
 50
190.71568999999951
 51
270.0
  0
ARC
  5
5839
  8
AM_0
 10
155.5553787195293
 20
221.59811076705429
 30
0.0
 40
2.00000007
 50
189.08497000000031
 51
270.0
  0
LINE
  5
583A
  8
AM_0
 10
143.30037871952919
 20
228.72776676705431
 30
0.0
 11
144.3003687195291
 21
228.72776676705431
 31
0.0
  0
ARC
  5
583B
  8
AM_0
 10
142.8003687195291
 20
228.4783767670543
 30
0.0
 40
0.5000000100000001
 50
0.0
 51
90.00000299999769
  0
ARC
  5
583C
  8
AM_0
 10
142.8003687195291
 20
230.6246637670541
 30
0.0
 40
0.5000000100000001
 50
270.0
 51
0.0
  0
LINE
  5
583D
  8
AM_0
 10
144.3003687195291
 20
225.72776676705431
 30
0.0
 11
152.30037871952919
 21
225.72776676705431
 31
0.0
  0
ARC
  5
583E
  8
AM_0
 10
155.5900587195292
 20
218.8398117670541
 30
0.0
 40
2.00000007
 50
187.94404000000071
 51
270.0
  0
LINE
  5
583F
  8
AM_0
 10
152.300318719529
 20
227.9428707670543
 30
0.0
 11
153.60921871952931
 21
218.56342776705421
 31
0.0
  0
ARC
  5
5840
  8
AM_0
 10
155.56875871952931
 20
219.7503327670542
 30
0.0
 40
2.00000007
 50
188.64339000000061
 51
270.0
  0
ARC
  5
5841
  8
AM_0
 10
140.56857871952911
 20
229.9783767670543
 30
0.0
 40
1.0000000199999981
 50
239.97359999999699
 51
270.0
  0
ARC
  5
5842
  8
AM_0
 10
140.53962871952919
 20
231.12466176705411
 30
0.0
 40
1.0000000199999981
 50
243.08873999999739
 51
270.0
  0
LINE
  5
5843
  8
AM_0
 10
140.30037871952919
 20
229.23159576705439
 30
0.0
 11
140.30037871952919
 21
229.75736976705431
 31
0.0
  0
LINE
  5
5844
  8
AM_0
 10
140.06820871952931
 20
229.1125617670543
 30
0.0
 11
138.80001871952911
 21
229.8455487670542
 31
0.0
  0
LINE
  5
5845
  8
AM_0
 10
140.56857871952911
 20
228.97836276705411
 30
0.0
 11
142.8003687195291
 21
228.97836276705411
 31
0.0
  0
LINE
  5
5846
  8
AM_0
 10
140.53962871952919
 20
230.12467776705421
 30
0.0
 11
142.8003687195291
 21
230.12467776705421
 31
0.0
  0
LINE
  5
5847
  8
AM_0
 10
155.5553787195293
 20
219.59812776705439
 30
0.0
 11
189.3003687195291
 21
219.59812776705439
 31
0.0
  0
LINE
  5
5848
  8
AM_0
 10
155.56875871952931
 20
217.7503347670544
 30
0.0
 11
189.3003687195291
 21
217.7503347670544
 31
0.0
  0
LINE
  5
5849
  8
AM_0
 10
155.5900587195292
 20
216.83982576705429
 30
0.0
 11
189.3003687195291
 21
216.83982576705429
 31
0.0
  0
ARC
  5
584A
  8
AM_0
 10
142.30038871952911
 20
311.47085676705427
 30
0.0
 40
1.0000000199999981
 50
0.0
 51
90.00000299999769
  0
LINE
  5
584B
  8
AM_0
 10
160.30037871952911
 20
302.72775276705431
 30
0.0
 11
154.6657887195291
 21
302.72775276705431
 31
0.0
  0
LINE
  5
584C
  8
AM_0
 10
160.30037871952911
 20
304.72775376705431
 30
0.0
 11
154.6657887195291
 21
304.72775376705431
 31
0.0
  0
ARC
  5
584D
  8
AM_0
 10
153.7618587195293
 20
303.7524117670543
 30
0.0
 40
1.461486869999999
 50
90.00000299999769
 51
270.0
  0
ARC
  5
584E
  8
AM_0
 10
154.8497487195292
 20
303.72775476705431
 30
0.0
 40
1.0000000199999981
 50
90.00000299999769
 51
270.0
  0
LINE
  5
584F
  8
AM_0
 10
153.7618587195293
 20
302.29092576705432
 30
0.0
 11
160.30037871952919
 21
302.29092576705432
 31
0.0
  0
LINE
  5
5850
  8
AM_0
 10
153.7618587195293
 20
305.21389776705428
 30
0.0
 11
160.30037871952919
 21
305.21389776705428
 31
0.0
  0
LINE
  5
5851
  8
AM_0
 10
160.30037871952919
 20
294.72775176705431
 30
0.0
 11
154.6657887195291
 21
294.72775176705431
 31
0.0
  0
LINE
  5
5852
  8
AM_0
 10
160.30037871952919
 20
292.72775376705431
 30
0.0
 11
154.6657887195291
 21
292.72775376705431
 31
0.0
  0
ARC
  5
5853
  8
AM_0
 10
153.6312987195291
 20
293.74032576705417
 30
0.0
 40
1.3309326599999991
 50
90.00000299999769
 51
270.0
  0
ARC
  5
5854
  8
AM_0
 10
154.8497487195292
 20
293.72775276705431
 30
0.0
 40
1.0000000199999981
 50
90.00000299999769
 51
270.0
  0
LINE
  5
5855
  8
AM_0
 10
153.6312987195291
 20
295.07125776705431
 30
0.0
 11
160.30037871952919
 21
295.07125776705431
 31
0.0
  0
LINE
  5
5856
  8
AM_0
 10
153.6312987195291
 20
292.40939376705438
 30
0.0
 11
160.30037871952919
 21
292.40939376705438
 31
0.0
  0
POLYLINE
  5
5857
  8
AM_0
 66
     1
 10
0.0
 20
0.0
 30
0.0
  0
VERTEX
  5
5858
  8
AM_0
  6
CONTINUOUS
 10
155.18085871952911
 20
295.07030076705428
 30
0.0
  0
VERTEX
  5
5859
  8
AM_0
  6
CONTINUOUS
 10
155.82690871952931
 20
302.29122276705431
 30
0.0
 42
-1.0
  0
SEQEND
  5
585A
  8
AM_0
  0
ARC
  5
585B
  8
AM_0
 10
142.30038871952911
 20
301.72775376705431
 30
0.0
 40
1.0000000199999981
 50
0.0
 51
90.00000299999769
  0
ARC
  5
585C
  8
AM_0
 10
142.30038871952911
 20
305.72775276705431
 30
0.0
 40
1.0000000199999981
 50
270.0
 51
0.0
  0
ARC
  5
585D
  8
AM_0
 10
142.30038871952911
 20
291.72775176705431
 30
0.0
 40
1.0000000199999981
 50
0.0
 51
90.00000299999769
  0
ARC
  5
585E
  8
AM_0
 10
142.30038871952911
 20
295.72775376705431
 30
0.0
 40
1.0000000199999981
 50
270.0
 51
0.0
  0
POLYLINE
  5
585F
  8
AM_0
 66
     1
 10
0.0
 20
0.0
 30
0.0
  0
VERTEX
  5
5860
  8
AM_0
  6
CONTINUOUS
 10
156.16260871952929
 20
305.21468976705432
 30
0.0
  0
VERTEX
  5
5861
  8
AM_0
  6
CONTINUOUS
 10
157.12308871952931
 20
312.09632376705417
 30
0.0
 42
-1.0
  0
SEQEND
  5
5862
  8
AM_0
  0
LINE
  5
5863
  8
AM_0
 10
153.97767871952919
 20
312.09494076705442
 30
0.0
 11
161.30037871952919
 21
312.09494076705442
 31
0.0
  0
POLYLINE
  5
5864
  8
AM_0
 66
     1
 10
0.0
 20
0.0
 30
0.0
  0
VERTEX
  5
5865
  8
AM_0
  6
CONTINUOUS
 10
155.18085871952911
 20
262.38516576705427
 30
0.0
  0
VERTEX
  5
5866
  8
AM_0
  6
CONTINUOUS
 10
155.82690871952931
 20
255.1642287670544
 30
0.0
 42
-1.0
  0
SEQEND
  5
5867
  8
AM_0
  0
LINE
  5
5868
  8
AM_0
 10
160.30037871952919
 20
254.72775276705431
 30
0.0
 11
154.6657887195291
 21
254.72775276705431
 31
0.0
  0
LINE
  5
5869
  8
AM_0
 10
160.30037871952919
 20
264.72776676705428
 30
0.0
 11
154.6657887195291
 21
264.72776676705428
 31
0.0
  0
LINE
  5
586A
  8
AM_0
 10
160.30037871952919
 20
262.72775076705432
 30
0.0
 11
154.6657887195291
 21
262.72775076705432
 31
0.0
  0
ARC
  5
586B
  8
AM_0
 10
153.6312987195291
 20
263.71519476705441
 30
0.0
 40
1.3309326599999991
 50
90.00000299999769
 51
270.0
  0
LINE
  5
586C
  8
AM_0
 10
153.76191871952909
 20
255.16453476705431
 30
0.0
 11
160.30037871952919
 21
255.16453476705431
 31
0.0
  0
ARC
  5
586D
  8
AM_0
 10
154.8497487195292
 20
263.72775276705431
 30
0.0
 40
1.0000000199999981
 50
90.00000299999769
 51
270.0
  0
LINE
  5
586E
  8
AM_0
 10
153.6312987195291
 20
265.0461117670543
 30
0.0
 11
160.30037871952919
 21
265.0461117670543
 31
0.0
  0
LINE
  5
586F
  8
AM_0
 10
153.6312987195291
 20
262.38424476705438
 30
0.0
 11
160.30037871952919
 21
262.38424476705438
 31
0.0
  0
ARC
  5
5870
  8
AM_0
 10
142.30038871952911
 20
255.72776676705431
 30
0.0
 40
1.0000000199999981
 50
270.0
 51
0.0
  0
ARC
  5
5871
  8
AM_0
 10
142.30038871952911
 20
265.72775076705432
 30
0.0
 40
1.0000000199999981
 50
270.0
 51
0.0
  0
ARC
  5
5872
  8
AM_0
 10
142.30038871952911
 20
261.72776676705428
 30
0.0
 40
1.0000000199999981
 50
0.0
 51
90.00000299999769
  0
POLYLINE
  5
5873
  8
AM_0
 66
     1
 10
0.0
 20
0.0
 30
0.0
  0
VERTEX
  5
5874
  8
AM_0
 10
154.94005738273381
 20
266.72775276705443
 30
0.0
  0
VERTEX
  5
5875
  8
AM_0
 10
155.0077287195293
 20
265.04836476705441
 30
0.0
 42
-1.0
  0
SEQEND
  5
5876
  8
AM_0
  0
POLYLINE
  5
5877
  8
AM_0
 66
     1
 10
0.0
 20
0.0
 30
0.0
  0
VERTEX
  5
5878
  8
AM_0
 10
154.94005815804209
 20
290.72775276705443
 30
0.0
  0
VERTEX
  5
5879
  8
AM_0
 10
155.0077287195293
 20
292.40711676705428
 30
0.0
 42
-1.0
  0
SEQEND
  5
587A
  8
AM_0
  0
ARC
  5
587B
  8
AM_0
 10
140.4507087195293
 20
311.47085676705427
 30
0.0
 40
1.0000000199999981
 50
90.00000299999769
 51
107.0976299999969
  0
ARC
  5
587C
  8
AM_0
 10
139.30038871952911
 20
311.11703676705417
 30
0.0
 40
1.0000000199999981
 50
107.0976299999969
 51
180.00000999999941
  0
LINE
  5
587D
  8
AM_0
 10
140.15670871952921
 20
312.4266657670542
 30
0.0
 11
139.00638871952921
 21
312.07281576705429
 31
0.0
  0
LINE
  5
587E
  8
AM_0
 10
140.30037871952919
 20
304.35391176705423
 30
0.0
 11
140.30037871952919
 21
302.99111976705427
 31
0.0
  0
ARC
  5
587F
  8
AM_0
 10
139.30038871952911
 20
303.72775476705431
 30
0.0
 40
1.0000000199999981
 50
179.99999000000059
 51
270.0
  0
ARC
  5
5880
  8
AM_0
 10
139.30038871952911
 20
303.72775476705431
 30
0.0
 40
1.0000000199999981
 50
90.00000299999769
 51
180.00000999999941
  0
LINE
  5
5881
  8
AM_0
 10
140.30037871952919
 20
294.33486876705427
 30
0.0
 11
140.30037871952919
 21
293.12344476705431
 31
0.0
  0
LINE
  5
5882
  8
AM_0
 10
136.8003687195291
 20
298.72775376705431
 30
0.0
 11
138.3003687195291
 21
298.85897976705428
 31
0.0
  0
LINE
  5
5883
  8
AM_0
 10
136.8003687195291
 20
296.00973576705428
 30
0.0
 11
138.3003687195291
 21
296.00973576705428
 31
0.0
  0
ARC
  5
5884
  8
AM_0
 10
139.30038871952911
 20
293.72775276705431
 30
0.0
 40
1.0000000199999981
 50
90.00000299999769
 51
180.00000999999941
  0
ARC
  5
5885
  8
AM_0
 10
139.30038871952911
 20
293.72775276705431
 30
0.0
 40
1.0000000199999981
 50
179.99999000000059
 51
270.0
  0
LINE
  5
5886
  8
AM_0
 10
140.30037871952919
 20
263.12065176705431
 30
0.0
 11
140.30037871952919
 21
264.3320007670543
 31
0.0
  0
LINE
  5
5887
  8
AM_0
 10
136.80042871952921
 20
258.72776676705428
 30
0.0
 11
138.3003687195291
 21
258.59652576705429
 31
0.0
  0
LINE
  5
5888
  8
AM_0
 10
136.8003687195291
 20
261.44570976705432
 30
0.0
 11
138.3003687195291
 21
261.44570976705432
 31
0.0
  0
ARC
  5
5889
  8
AM_0
 10
139.30038871952911
 20
263.72775276705431
 30
0.0
 40
1.0000000199999981
 50
179.99999000000059
 51
270.0
  0
ARC
  5
588A
  8
AM_0
 10
139.30038871952911
 20
263.72775276705431
 30
0.0
 40
1.0000000199999981
 50
90.00000299999769
 51
180.00000999999941
  0
LINE
  5
588B
  8
AM_0
 10
136.8003687195291
 20
263.57772876705428
 30
0.0
 11
140.0940687195291
 21
263.57772876705428
 31
0.0
  0
LINE
  5
588C
  8
AM_0
 10
136.8003687195291
 20
258.72776676705428
 30
0.0
 11
136.8003687195291
 21
267.72775276705443
 31
0.0
  0
LINE
  5
588D
  8
AM_0
 10
136.8003687195291
 20
298.72775376705431
 30
0.0
 11
136.8003687195291
 21
289.72775276705443
 31
0.0
  0
LINE
  5
588E
  8
AM_0
 10
142.30038871952911
 20
302.72775276705431
 30
0.0
 11
139.30038871952911
 21
302.72775276705431
 31
0.0
  0
LINE
  5
588F
  8
AM_0
 10
140.4507087195293
 20
312.47085576705439
 30
0.0
 11
142.30038871952911
 21
312.47085576705439
 31
0.0
  0
LINE
  5
5890
  8
AM_0
 10
142.30038871952911
 20
304.72775376705431
 30
0.0
 11
139.30038871952911
 21
304.72775376705431
 31
0.0
  0
LINE
  5
5891
  8
AM_0
 10
142.30038871952911
 20
294.72775176705431
 30
0.0
 11
139.30038871952911
 21
294.72775176705431
 31
0.0
  0
LINE
  5
5892
  8
AM_0
 10
142.30038871952911
 20
292.72775376705431
 30
0.0
 11
139.30038871952911
 21
292.72775376705431
 31
0.0
  0
LINE
  5
5893
  8
AM_0
 10
142.30038871952911
 20
254.72775276705431
 30
0.0
 11
139.30038871952911
 21
254.72775276705431
 31
0.0
  0
LINE
  5
5894
  8
AM_0
 10
142.30038871952911
 20
262.72775076705432
 30
0.0
 11
139.30038871952911
 21
262.72775076705432
 31
0.0
  0
LINE
  5
5895
  8
AM_0
 10
142.30038871952911
 20
264.72776676705428
 30
0.0
 11
139.30038871952911
 21
264.72776676705428
 31
0.0
  0
LINE
  5
5896
  8
AM_0
 10
136.8003687195291
 20
293.87777676705417
 30
0.0
 11
141.47787871952909
 21
293.87777676705417
 31
0.0
  0
LINE
  5
5897
  8
AM_0
 10
160.30037871952919
 20
252.72776676705431
 30
0.0
 11
154.6657887195291
 21
252.72776676705431
 31
0.0
  0
POLYLINE
  5
5898
  8
AM_0
 66
     1
 10
0.0
 20
0.0
 30
0.0
  0
VERTEX
  5
5899
  8
AM_0
  6
CONTINUOUS
 10
156.16260871952929
 20
252.24076776705431
 30
0.0
  0
VERTEX
  5
589A
  8
AM_0
  6
CONTINUOUS
 10
157.12308871952931
 20
245.3591757670543
 30
0.0
 42
-1.0
  0
SEQEND
  5
589B
  8
AM_0
  0
ARC
  5
589C
  8
AM_0
 10
153.9783087195292
 20
243.68258676705429
 30
0.0
 40
1.6779175200000001
 50
90.00000299999769
 51
270.0
  0
ARC
  5
589D
  8
AM_0
 10
154.8497487195292
 20
243.72776676705431
 30
0.0
 40
1.0000000199999981
 50
90.00000299999769
 51
270.0
  0
LINE
  5
589E
  8
AM_0
 10
153.76191871952909
 20
252.24154476705431
 30
0.0
 11
160.30037871952919
 21
252.24154476705431
 31
0.0
  0
ARC
  5
589F
  8
AM_0
 10
142.30038871952911
 20
251.72775276705431
 30
0.0
 40
1.0000000199999981
 50
0.0
 51
90.00000299999769
  0
ARC
  5
58A0
  8
AM_0
 10
142.30038871952911
 20
237.7428267670544
 30
0.0
 40
1.0000000199999981
 50
334.63675999999958
 51
0.0
  0
ARC
  5
58A1
  8
AM_0
 10
142.30038871952911
 20
245.98458876705419
 30
0.0
 40
1.0000000199999981
 50
270.0
 51
0.0
  0
ARC
  5
58A2
  8
AM_0
 10
142.6003587195292
 20
242.3385447670544
 30
0.0
 40
0.7000000200000001
 50
0.0
 51
90.00000299999769
  0
ARC
  5
58A3
  8
AM_0
 10
142.30038871952911
 20
233.22611976705431
 30
0.0
 40
1.0000000199999981
 50
270.0
 51
0.0
  0
LINE
  5
58A4
  8
AM_0
 10
144.9984987195291
 20
235.53628476705421
 30
0.0
 11
151.22829871952931
 21
235.53628476705421
 31
0.0
  0
ARC
  5
58A5
  8
AM_0
 10
142.30038871952911
 20
237.7428267670544
 30
0.0
 40
1.0000000199999981
 50
270.0
 51
0.0
  0
LINE
  5
58A6
  8
AM_0
 10
153.9783087195292
 20
245.36051976705431
 30
0.0
 11
161.30037871952919
 21
245.3605197670544
 31
0.0
  0
ARC
  5
58A7
  8
AM_0
 10
140.5716687195291
 20
237.7428267670544
 30
0.0
 40
1.0000000199999981
 50
239.64050000000299
 51
270.0
  0
ARC
  5
58A8
  8
AM_0
 10
140.50503871952921
 20
244.0384977670542
 30
0.0
 40
1.0000000199999981
 50
246.87296999999771
 51
270.0
  0
ARC
  5
58A9
  8
AM_0
 10
140.4507087195293
 20
245.98458876705419
 30
0.0
 40
1.0000000199999981
 50
252.90236999999641
 51
270.0
  0
LINE
  5
58AA
  8
AM_0
 10
140.30037871952919
 20
243.3348687670543
 30
0.0
 11
140.30037871952919
 21
244.39481976705429
 31
0.0
  0
ARC
  5
58AB
  8
AM_0
 10
139.30038871952911
 20
238.4875167670543
 30
0.0
 40
1.0000000199999981
 50
179.99999000000059
 51
239.64048999999909
  0
ARC
  5
58AC
  8
AM_0
 10
139.30038871952911
 20
238.4875167670543
 30
0.0
 40
1.0000000199999981
 50
179.99999000000059
 51
239.64048999999909
  0
LINE
  5
58AD
  8
AM_0
 10
138.79494871952929
 20
237.62461776705439
 30
0.0
 11
138.77133871952921
 21
237.63845676705429
 31
0.0
  0
ARC
  5
58AE
  8
AM_0
 10
139.30038871952911
 20
246.3384837670543
 30
0.0
 40
1.0000000199999981
 50
179.99999000000059
 51
252.90236999999641
  0
ARC
  5
58AF
  8
AM_0
 10
139.30038871952911
 20
244.55302176705439
 30
0.0
 40
1.0000000199999981
 50
179.99999000000059
 51
246.87297999999811
  0
LINE
  5
58B0
  8
AM_0
 10
140.06625871952929
 20
236.87991276705429
 30
0.0
 11
138.79494871952929
 21
237.62458776705421
 31
0.0
  0
LINE
  5
58B1
  8
AM_0
 10
140.11221871952921
 20
243.1188657670543
 30
0.0
 11
138.907568719529
 21
243.6333597670544
 31
0.0
  0
LINE
  5
58B2
  8
AM_0
 10
140.15670871952921
 20
245.02880676705411
 30
0.0
 11
139.00638871952921
 21
245.38265976705429
 31
0.0
  0
ARC
  5
58B3
  8
AM_0
 10
139.30038871952911
 20
253.72775076705429
 30
0.0
 40
1.0000000199999981
 50
179.99999000000059
 51
270.0
  0
ARC
  5
58B4
  8
AM_0
 10
140.59902871952929
 20
236.60281176705431
 30
0.0
 40
1.0000000199999981
 50
236.7452700000002
 51
270.0
  0
LINE
  5
58B5
  8
AM_0
 10
140.30037871952919
 20
235.8973077670544
 30
0.0
 11
140.30037871952919
 21
236.3694147670542
 31
0.0
  0
ARC
  5
58B6
  8
AM_0
 10
140.57742871952919
 20
232.08610476705439
 30
0.0
 40
1.0000000199999981
 50
239.0333999999996
 51
270.0
  0
ARC
  5
58B7
  8
AM_0
 10
140.54904871952931
 20
233.22611976705431
 30
0.0
 40
1.0000000199999981
 50
242.07340000000289
 51
270.0
  0
LINE
  5
58B8
  8
AM_0
 10
140.30037871952919
 20
231.33120576705431
 30
0.0
 11
140.30037871952919
 21
231.8772267670544
 31
0.0
  0
ARC
  5
58B9
  8
AM_0
 10
139.30038871952911
 20
231.75368976705431
 30
0.0
 40
1.0000000199999981
 50
179.99999000000059
 51
243.08874999999691
  0
ARC
  5
58BA
  8
AM_0
 10
139.30038871952911
 20
233.88796776705439
 30
0.0
 40
1.0000000199999981
 50
179.99999000000059
 51
242.07341000000011
  0
ARC
  5
58BB
  8
AM_0
 10
139.30038871952911
 20
232.85240076705429
 30
0.0
 40
1.0000000199999981
 50
179.99999000000059
 51
239.0333999999996
  0
LINE
  5
58BC
  8
AM_0
 10
140.062838719529
 20
231.22865076705421
 30
0.0
 11
138.78585871952919
 21
231.99491676705429
 31
0.0
  0
LINE
  5
58BD
  8
AM_0
 10
140.08071871952919
 20
232.34255976705441
 30
0.0
 11
138.83205871952919
 21
233.00442276705439
 31
0.0
  0
ARC
  5
58BE
  8
AM_0
 10
139.30038871952911
 20
237.4543887670543
 30
0.0
 40
1.0000000199999981
 50
179.99999000000059
 51
236.74528000000231
  0
LINE
  5
58BF
  8
AM_0
 10
140.05062871952919
 20
235.7665707670543
 30
0.0
 11
138.75198871952921
 21
236.61813276705411
 31
0.0
  0
LINE
  5
58C0
  8
AM_0
 10
142.30038871952911
 20
252.72776676705431
 30
0.0
 11
139.30038871952911
 21
252.72776676705431
 31
0.0
  0
LINE
  5
58C1
  8
AM_0
 10
140.59902871952929
 20
235.60282776705441
 30
0.0
 11
143.30037871952919
 21
235.60282776705441
 31
0.0
  0
LINE
  5
58C2
  8
AM_0
 10
140.5716687195291
 20
236.7428427670543
 30
0.0
 11
142.30038871952911
 21
236.7428427670543
 31
0.0
  0
LINE
  5
58C3
  8
AM_0
 10
140.50503871952921
 20
243.0384807670543
 30
0.0
 11
142.6003587195292
 21
243.0384807670543
 31
0.0
  0
LINE
  5
58C4
  8
AM_0
 10
140.4507087195293
 20
244.9846017670543
 30
0.0
 11
142.30038871952911
 21
244.9846017670543
 31
0.0
  0
LINE
  5
58C5
  8
AM_0
 10
140.57742871952919
 20
231.08608776705429
 30
0.0
 11
143.30037871952919
 21
231.08608776705429
 31
0.0
  0
LINE
  5
58C6
  8
AM_0
 10
140.54904871952931
 20
232.2261027670543
 30
0.0
 11
142.30038871952911
 21
232.2261027670543
 31
0.0
  0
ARC
  5
58C7
  8
AM_0
 10
153.76191871952909
 20
253.70303376705431
 30
0.0
 40
1.4615021100000001
 50
90.00000299999769
 51
270.0
  0
LINE
  5
58C8
  8
AM_0
 10
140.30037871952919
 20
253.1015307670543
 30
0.0
 11
140.30037871952919
 21
254.4643857670543
 31
0.0
  0
ARC
  5
58C9
  8
AM_0
 10
154.8497487195292
 20
253.72775076705429
 30
0.0
 40
1.0000000199999981
 50
90.00000299999769
 51
270.0
  0
ARC
  5
58CA
  8
AM_0
 10
139.30038871952911
 20
253.72775076705429
 30
0.0
 40
1.0000000199999981
 50
90.00000299999769
 51
180.00000999999941
  0
LINE
  5
58CB
  8
AM_0
 10
138.3003687195291
 20
230.7113487670542
 30
0.0
 11
138.3003687195291
 21
267.72775276705443
 31
0.0
  0
ARC
  5
58CC
  8
AM_0
 10
189.3003687195291
 20
335.85739776705418
 30
0.0
 40
2.00000007
 50
0.0
 51
90.00000299999769
  0
ARC
  5
58CD
  8
AM_0
 10
189.3003687195291
 20
337.70509776705438
 30
0.0
 40
2.00000007
 50
0.0
 51
90.00000299999769
  0
ARC
  5
58CE
  8
AM_0
 10
189.3003687195291
 20
338.61562776705432
 30
0.0
 40
2.00000007
 50
0.0
 51
90.00000299999769
  0
LINE
  5
58CF
  8
AM_0
 10
191.30037871952919
 20
338.61562776705432
 30
0.0
 11
191.30037871952919
 21
335.01100776705431
 31
0.0
  0
ARC
  5
58D0
  8
AM_0
 10
155.5068087195292
 20
333.01102776705432
 30
0.0
 40
2.00000007
 50
90.00000299999769
 51
169.2843100000004
  0
ARC
  5
58D1
  8
AM_0
 10
155.5553787195293
 20
335.85739776705418
 30
0.0
 40
2.00000007
 50
90.00000299999769
 51
170.9150299999996
  0
ARC
  5
58D2
  8
AM_0
 10
155.56875871952931
 20
337.70509776705438
 30
0.0
 40
2.00000007
 50
90.00000299999769
 51
171.35660999999939
  0
ARC
  5
58D3
  8
AM_0
 10
155.5900587195292
 20
338.61562776705432
 30
0.0
 40
2.00000007
 50
90.00000299999769
 51
172.05595999999929
  0
LINE
  5
58D4
  8
AM_0
 10
152.30037871952919
 20
328.16800776705429
 30
0.0
 11
153.58041871952921
 21
336.17314776705439
 31
0.0
  0
LINE
  5
58D5
  8
AM_0
 10
152.30037871952919
 20
329.51260776705431
 30
0.0
 11
153.5913987195292
 21
338.00566776705432
 31
0.0
  0
LINE
  5
58D6
  8
AM_0
 10
152.30037871952919
 20
329.51260776705431
 30
0.0
 11
153.60921871952931
 21
338.89201776705431
 31
0.0
  0
LINE
  5
58D7
  8
AM_0
 10
152.30037871952919
 20
326.82346776705441
 30
0.0
 11
153.54165871952929
 21
333.3828777670542
 31
0.0
  0
LINE
  5
58D8
  8
AM_0
 10
143.30037871952919
 20
328.72774776705432
 30
0.0
 11
144.3003687195291
 21
328.72774776705432
 31
0.0
  0
ARC
  5
58D9
  8
AM_0
 10
142.8003687195291
 20
326.83084776705442
 30
0.0
 40
0.5000000100000001
 50
0.0
 51
90.00000299999769
  0
ARC
  5
58DA
  8
AM_0
 10
142.8003687195291
 20
328.97713776705427
 30
0.0
 40
0.5000000100000001
 50
270.0
 51
0.0
  0
LINE
  5
58DB
  8
AM_0
 10
144.3003687195291
 20
331.72774776705432
 30
0.0
 11
152.30037871952919
 21
331.72774776705432
 31
0.0
  0
ARC
  5
58DC
  8
AM_0
 10
140.56857871952911
 20
327.47713776705427
 30
0.0
 40
1.0000000199999981
 50
90.00000299999769
 51
120.02640000000299
  0
ARC
  5
58DD
  8
AM_0
 10
140.53962871952919
 20
326.33083776705428
 30
0.0
 40
1.0000000199999981
 50
90.00000299999769
 51
116.9112600000025
  0
ARC
  5
58DE
  8
AM_0
 10
140.57742871952919
 20
325.36936776705431
 30
0.0
 40
1.0000000199999981
 50
90.00000299999769
 51
120.9666000000004
  0
ARC
  5
58DF
  8
AM_0
 10
140.54904871952931
 20
324.22939776705419
 30
0.0
 40
1.0000000199999981
 50
90.00000299999769
 51
117.92659999999709
  0
LINE
  5
58E0
  8
AM_0
 10
140.30037871952919
 20
326.12428776705423
 30
0.0
 11
140.30037871952919
 21
325.57822776705427
 31
0.0
  0
LINE
  5
58E1
  8
AM_0
 10
140.30037871952919
 20
328.22389776705432
 30
0.0
 11
140.30037871952919
 21
327.69814776705419
 31
0.0
  0
ARC
  5
58E2
  8
AM_0
 10
139.30038871952911
 20
326.74411776705438
 30
0.0
 40
1.0000000199999981
 50
120.02640000000299
 51
180.00000999999941
  0
ARC
  5
58E3
  8
AM_0
 10
139.30038871952911
 20
325.70182776705423
 30
0.0
 40
1.0000000199999981
 50
116.9112600000025
 51
180.00000999999941
  0
LINE
  5
58E4
  8
AM_0
 10
140.06820871952931
 20
328.34284776705431
 30
0.0
 11
138.80001871952911
 21
327.60988776705432
 31
0.0
  0
LINE
  5
58E5
  8
AM_0
 10
140.062838719529
 20
326.22685776705441
 30
0.0
 11
138.7857987195292
 21
325.46056776705427
 31
0.0
  0
LINE
  5
58E6
  8
AM_0
 10
140.08704871952929
 20
327.22258776705428
 30
0.0
 11
138.84774871952911
 21
326.59357776705423
 31
0.0
  0
LINE
  5
58E7
  8
AM_0
 10
140.56857871952911
 20
328.47715776705428
 30
0.0
 11
142.8003687195291
 21
328.47715776705428
 31
0.0
  0
LINE
  5
58E8
  8
AM_0
 10
140.57742871952919
 20
326.36935776705423
 30
0.0
 11
143.30037871952919
 21
326.36935776705423
 31
0.0
  0
LINE
  5
58E9
  8
AM_0
 10
140.54904871952931
 20
325.22938776705428
 30
0.0
 11
142.30038871952911
 21
325.22938776705428
 31
0.0
  0
LINE
  5
58EA
  8
AM_0
 10
140.53962871952919
 20
327.3308277670543
 30
0.0
 11
142.8003687195291
 21
327.3308277670543
 31
0.0
  0
ARC
  5
58EB
  8
AM_0
 10
142.30038871952911
 20
319.71268776705432
 30
0.0
 40
1.0000000199999981
 50
0.0
 51
90.00000299999769
  0
ARC
  5
58EC
  8
AM_0
 10
142.6003587195292
 20
315.11698776705441
 30
0.0
 40
0.7000000200000001
 50
270.0
 51
0.0
  0
LINE
  5
58ED
  8
AM_0
 10
144.9984987195291
 20
321.91915776705417
 30
0.0
 11
151.22829871952931
 21
321.91915776705417
 31
0.0
  0
ARC
  5
58EE
  8
AM_0
 10
140.59902871952929
 20
320.85262776705417
 30
0.0
 40
1.0000000199999981
 50
90.00000299999769
 51
123.2547299999998
  0
ARC
  5
58EF
  8
AM_0
 10
140.5716687195291
 20
319.71268776705432
 30
0.0
 40
1.0000000199999981
 50
90.00000299999769
 51
120.359499999997
  0
LINE
  5
58F0
  8
AM_0
 10
140.30037871952919
 20
321.5581977670542
 30
0.0
 11
140.30037871952919
 21
321.08602776705419
 31
0.0
  0
ARC
  5
58F1
  8
AM_0
 10
140.50503871952921
 20
313.41696276705432
 30
0.0
 40
1.0000000199999981
 50
90.00000299999769
 51
113.12703000000219
  0
ARC
  5
58F2
  8
AM_0
 10
139.30038871952911
 20
323.5674777670543
 30
0.0
 40
1.0000000199999981
 50
117.92659999999709
 51
180.00000999999941
  0
ARC
  5
58F3
  8
AM_0
 10
139.30038871952911
 20
318.96799776705438
 30
0.0
 40
1.0000000199999981
 50
120.359499999997
 51
180.00000999999941
  0
ARC
  5
58F4
  8
AM_0
 10
139.30038871952911
 20
320.00107776705431
 30
0.0
 40
1.0000000199999981
 50
123.2547299999998
 51
180.00000999999941
  0
LINE
  5
58F5
  8
AM_0
 10
140.05062871952919
 20
321.68890776705439
 30
0.0
 11
138.75198871952921
 21
320.83732776705421
 31
0.0
  0
LINE
  5
58F6
  8
AM_0
 10
140.06625871952929
 20
320.57554776705427
 30
0.0
 11
138.79494871952929
 21
319.83085776705423
 31
0.0
  0
LINE
  5
58F7
  8
AM_0
 10
140.59902871952929
 20
321.85261776705431
 30
0.0
 11
143.30037871952919
 21
321.85261776705431
 31
0.0
  0
LINE
  5
58F8
  8
AM_0
 10
140.5716687195291
 20
320.71267776705417
 30
0.0
 11
142.30038871952911
 21
320.71267776705417
 31
0.0
  0
LINE
  5
58F9
  8
AM_0
 10
140.50503871952921
 20
314.41696176705432
 30
0.0
 11
142.6003587195292
 21
314.41696176705432
 31
0.0
  0
ARC
  5
58FA
  8
AM_0
 10
142.30038871952911
 20
324.22939776705419
 30
0.0
 40
1.0000000199999981
 50
0.0
 51
90.00000299999769
  0
LINE
  5
58FB
  8
AM_0
 10
157.6657887195291
 20
315.37894776705423
 30
0.0
 11
152.30037871952919
 21
326.82343776705432
 31
0.0
  0
ARC
  5
58FC
  8
AM_0
 10
139.30038871952911
 20
324.60304776705419
 30
0.0
 40
1.0000000199999981
 50
120.9666000000004
 51
180.00000999999941
  0
LINE
  5
58FD
  8
AM_0
 10
140.08071871952919
 20
325.11289776705428
 30
0.0
 11
138.83205871952919
 21
324.45100776705431
 31
0.0
  0
LINE
  5
58FE
  8
AM_0
 10
155.5553787195293
 20
337.85740776705438
 30
0.0
 11
189.3003687195291
 21
337.85740776705438
 31
0.0
  0
LINE
  5
58FF
  8
AM_0
 10
155.56875871952931
 20
339.7051077670543
 30
0.0
 11
189.3003687195291
 21
339.7051077670543
 31
0.0
  0
LINE
  5
5900
  8
AM_0
 10
155.5900587195292
 20
340.6156377670543
 30
0.0
 11
189.3003687195291
 21
340.6156377670543
 31
0.0
  0
ARC
  5
5901
  8
AM_0
 10
257.12247871952928
 20
313.77285876705417
 30
0.0
 40
1.6779127499999991
 50
276.08620038401648
 51
83.913799615983422
  0
LINE
  5
5902
  8
ﾁｭｳｼﾝｾﾝ
 10
209.30037871952919
 20
329.72775276705431
 30
0.0
 11
209.30037871952919
 21
227.7277527670542
 31
0.0
  0
LINE
  5
5903
  8
AM_0
 10
260.30037871952931
 20
334.72774776705432
 30
0.0
 11
260.30037871952931
 21
222.72776676705431
 31
0.0
  0
LINE
  5
5904
  8
AM_0
 10
258.80037871952931
 20
240.5047137670542
 30
0.0
 11
254.35836871952921
 21
223.92684876705431
 31
0.0
  0
LINE
  5
5905
  8
AM_0
 10
260.30037871952931
 20
222.72776676705431
 30
0.0
 11
268.30038871952911
 21
222.72776676705431
 31
0.0
  0
LINE
  5
5906
  8
AM_0
 10
254.8409187195291
 20
225.72776676705431
 30
0.0
 11
260.30037871952931
 21
225.72776676705431
 31
0.0
  0
ARC
  5
5907
  8
AM_0
 10
252.42654871952931
 20
224.44448676705429
 30
0.0
 40
2.00000007
 50
270.0
 51
345.00000000000091
  0
LINE
  5
5908
  8
AM_0
 10
260.30037871952931
 20
310.66519176705418
 30
0.0
 11
268.30038871952911
 21
310.66519176705418
 31
0.0
  0
LINE
  5
5909
  8
AM_0
 10
260.30037871952931
 20
246.7903137670543
 30
0.0
 11
268.30038871952911
 21
246.7903137670543
 31
0.0
  0
LINE
  5
590A
  8
AM_0
 10
260.30037871952931
 20
232.7277507670542
 30
0.0
 11
268.30038871952911
 21
232.7277507670542
 31
0.0
  0
ARC
  5
590B
  8
AM_0
 10
257.12247871952928
 20
243.68258676705429
 30
0.0
 40
1.6779127499999991
 50
276.08620038402319
 51
83.913799615976814
  0
LINE
  5
590C
  8
AM_0
 10
260.30037871952931
 20
334.72774776705432
 30
0.0
 11
268.30038871952911
 21
334.72774776705432
 31
0.0
  0
LINE
  5
590D
  8
AM_0
 10
260.30037871952931
 20
324.72775776705441
 30
0.0
 11
268.30038871952911
 21
324.72775776705441
 31
0.0
  0
LINE
  5
590E
  8
AM_0
 10
254.8409187195291
 20
331.72774776705432
 30
0.0
 11
260.30037871952931
 21
331.72774776705432
 31
0.0
  0
ARC
  5
590F
  8
AM_0
 10
252.42654871952931
 20
333.01102776705432
 30
0.0
 40
2.00000007
 50
14.99999999999917
 51
90.00000299999769
  0
ARC
  5
5910
  8
AM_0
 10
259.95138871952929
 20
318.45076776705417
 30
0.0
 40
1.5000000299999989
 50
195.00000999999969
 51
270.0
  0
LINE
  5
5911
  8
AM_0
 10
258.50253871952918
 20
318.06256776705442
 30
0.0
 11
254.35836871952921
 21
333.52864776705428
 31
0.0
  0
LINE
  5
5912
  8
AM_0
 10
253.30037871952939
 20
232.7277527670542
 30
0.0
 11
165.30037871952919
 21
232.7277527670542
 31
0.0
  0
ARC
  5
5913
  8
AM_0
 10
183.37144653139461
 20
237.7277527670542
 30
0.0
 40
5.0
 50
225.0
 51
270.0
1001
GENIUS_GENOBJ-N-FIL_13
1002
{
1000
OWNER
1000
GEN
1002
}
1001
GENIUS_GENODEF_13
1002
{
1000
HIER
1070
     0
1002
}
1002
{
1000
MANEDIT
1070
     0
1002
}
1002
{
1000
NOSEL
1070
     0
1002
}
1002
{
1000
BEHIND
1070
     0
1002
}
1002
{
1000
OTHER
1070
     0
1002
}
1002
{
1000
REACTOR
1002
}
  0
LINE
  5
5914
  8
AM_0
 10
234.57245665817149
 20
237.7277527670542
 30
0.0
 11
184.02830078088701
 21
237.7277527670542
 31
0.0
  0
ARC
  5
5915
  8
AM_0
 10
234.57245665817149
 20
242.7277527670542
 30
0.0
 40
5.0
 50
270.0
 51
315.0
1001
GENIUS_GENOBJ-N-FIL_13
1002
{
1000
OWNER
1000
GEN
1002
}
1001
GENIUS_GENODEF_13
1002
{
1000
HIER
1070
     0
1002
}
1002
{
1000
MANEDIT
1070
     0
1002
}
1002
{
1000
NOSEL
1070
     0
1002
}
1002
{
1000
BEHIND
1070
     0
1002
}
1002
{
1000
OTHER
1070
     0
1002
}
1002
{
1000
REACTOR
1002
}
  0
ARC
  5
5916
  8
AM_0
 10
253.30037871952939
 20
236.7277527670542
 30
0.0
 40
4.0
 50
270.0
 51
0.0
1001
GENIUS_GENOBJ-N-FIL_13
1002
{
1000
OWNER
1000
GEN
1002
}
1001
GENIUS_GENODEF_13
1002
{
1000
HIER
1070
     0
1002
}
1002
{
1000
MANEDIT
1070
     0
1002
}
1002
{
1000
NOSEL
1070
     0
1002
}
1002
{
1000
BEHIND
1070
     0
1002
}
1002
{
1000
OTHER
1070
     0
1002
}
1002
{
1000
REACTOR
1002
}
  0
LINE
  5
5917
  8
AM_0
 10
253.30037871952911
 20
324.72775276705443
 30
0.0
 11
165.30037871952919
 21
324.72775276705443
 31
0.0
  0
ARC
  5
5918
  8
AM_0
 10
235.22931090766369
 20
319.72775276705443
 30
0.0
 40
5.0
 50
45.0
 51
90.0
1001
GENIUS_GENOBJ-N-FIL_13
1002
{
1000
OWNER
1000
GEN
1002
}
1001
GENIUS_GENODEF_13
1002
{
1000
HIER
1070
     0
1002
}
1002
{
1000
MANEDIT
1070
     0
1002
}
1002
{
1000
NOSEL
1070
     0
1002
}
1002
{
1000
BEHIND
1070
     0
1002
}
1002
{
1000
OTHER
1070
     0
1002
}
1002
{
1000
REACTOR
1002
}
  0
ARC
  5
5919
  8
AM_0
 10
183.37144653139489
 20
319.72775276705443
 30
0.0
 40
5.0
 50
90.0
 51
135.0
1001
GENIUS_GENODEF_13
1002
{
1000
HIER
1070
     0
1002
}
1002
{
1000
MANEDIT
1070
     0
1002
}
1002
{
1000
NOSEL
1070
     0
1002
}
1002
{
1000
BEHIND
1070
     0
1002
}
1002
{
1000
OTHER
1070
     0
1002
}
1002
{
1000
REACTOR
1002
}
1001
GENIUS_GENOBJ-N-FIL_13
1002
{
1000
OWNER
1000
GEN
1002
}
  0
LINE
  5
591A
  8
AM_0
 10
234.57245665817149
 20
319.72775276705443
 30
0.0
 11
184.02830078088709
 21
319.72775276705443
 31
0.0
  0
ARC
  5
591B
  8
AM_0
 10
184.02830078088709
 20
314.72775276705443
 30
0.0
 40
5.0
 50
90.0
 51
135.0
1001
GENIUS_GENODEF_13
1002
{
1000
HIER
1070
     0
1002
}
1002
{
1000
MANEDIT
1070
     0
1002
}
1002
{
1000
NOSEL
1070
     0
1002
}
1002
{
1000
BEHIND
1070
     0
1002
}
1002
{
1000
OTHER
1070
     0
1002
}
1002
{
1000
REACTOR
1002
}
1001
GENIUS_GENOBJ-N-FIL_13
1002
{
1000
OWNER
1000
GEN
1002
}
  0
ARC
  5
591C
  8
AM_0
 10
165.30037871952919
 20
320.72775276705443
 30
0.0
 40
4.0
 50
90.0
 51
180.0
1001
GENIUS_GENODEF_13
1002
{
1000
HIER
1070
     0
1002
}
1002
{
1000
MANEDIT
1070
     0
1002
}
1002
{
1000
NOSEL
1070
     0
1002
}
1002
{
1000
BEHIND
1070
     0
1002
}
1002
{
1000
OTHER
1070
     0
1002
}
1002
{
1000
REACTOR
1002
}
1001
GENIUS_GENOBJ-N-FIL_13
1002
{
1000
OWNER
1000
GEN
1002
}
  0
LINE
  5
591D
  8
AM_0
 10
161.30037871952919
 20
320.72775276705443
 30
0.0
 11
161.30037871952919
 21
236.7277527670542
 31
0.0
  0
ARC
  5
591E
  8
AM_0
 10
166.30037871952919
 20
254.7988205789195
 30
0.0
 40
5.0
 50
180.0
 51
225.0
1001
GENIUS_GENOBJ-N-FIL_13
1002
{
1000
OWNER
1000
GEN
1002
}
1001
GENIUS_GENODEF_13
1002
{
1000
HIER
1070
     0
1002
}
1002
{
1000
MANEDIT
1070
     0
1002
}
1002
{
1000
NOSEL
1070
     0
1002
}
1002
{
1000
BEHIND
1070
     0
1002
}
1002
{
1000
OTHER
1070
     0
1002
}
1002
{
1000
REACTOR
1002
}
  0
ARC
  5
591F
  8
AM_0
 10
166.30037871952919
 20
302.65668495518912
 30
0.0
 40
5.0
 50
135.0
 51
180.0
1001
GENIUS_GENOBJ-N-FIL_13
1002
{
1000
OWNER
1000
GEN
1002
}
1001
GENIUS_GENODEF_13
1002
{
1000
HIER
1070
     0
1002
}
1002
{
1000
MANEDIT
1070
     0
1002
}
1002
{
1000
NOSEL
1070
     0
1002
}
1002
{
1000
BEHIND
1070
     0
1002
}
1002
{
1000
OTHER
1070
     0
1002
}
1002
{
1000
REACTOR
1002
}
  0
LINE
  5
5920
  8
AM_0
 10
166.30037871952919
 20
301.99983070569652
 30
0.0
 11
166.30037871952911
 21
255.4556748284119
 31
0.0
  0
ARC
  5
5921
  8
AM_0
 10
171.30037871952911
 20
255.4556748284119
 30
0.0
 40
5.0
 50
180.0
 51
225.0
1001
GENIUS_GENOBJ-N-FIL_13
1002
{
1000
OWNER
1000
GEN
1002
}
1001
GENIUS_GENODEF_13
1002
{
1000
HIER
1070
     0
1002
}
1002
{
1000
MANEDIT
1070
     0
1002
}
1002
{
1000
NOSEL
1070
     0
1002
}
1002
{
1000
BEHIND
1070
     0
1002
}
1002
{
1000
OTHER
1070
     0
1002
}
1002
{
1000
REACTOR
1002
}
  0
ARC
  5
5922
  8
AM_0
 10
165.30037871952919
 20
236.7277527670542
 30
0.0
 40
4.0
 50
180.0
 51
270.0
1001
GENIUS_GENODEF_13
1002
{
1000
HIER
1070
     0
1002
}
1002
{
1000
MANEDIT
1070
     0
1002
}
1002
{
1000
NOSEL
1070
     0
1002
}
1002
{
1000
BEHIND
1070
     0
1002
}
1002
{
1000
OTHER
1070
     0
1002
}
1002
{
1000
REACTOR
1002
}
1001
GENIUS_GENOBJ-N-FIL_13
1002
{
1000
OWNER
1000
GEN
1002
}
  0
LINE
  5
5923
  8
AM_0
 10
257.30037871952919
 20
320.72775276705443
 30
0.0
 11
257.30037871952942
 21
236.7277527670542
 31
0.0
  0
ARC
  5
5924
  8
AM_0
 10
252.30037871952931
 20
302.65668495518889
 30
0.0
 40
5.0
 50
0.0
 51
45.0
1001
GENIUS_GENOBJ-N-FIL_13
1002
{
1000
OWNER
1000
GEN
1002
}
1001
GENIUS_GENODEF_13
1002
{
1000
HIER
1070
     0
1002
}
1002
{
1000
MANEDIT
1070
     0
1002
}
1002
{
1000
NOSEL
1070
     0
1002
}
1002
{
1000
BEHIND
1070
     0
1002
}
1002
{
1000
OTHER
1070
     0
1002
}
1002
{
1000
REACTOR
1002
}
  0
ARC
  5
5925
  8
AM_0
 10
252.30037871952931
 20
254.7988205789197
 30
0.0
 40
5.0
 50
315.0
 51
0.0
1001
GENIUS_GENOBJ-N-FIL_13
1002
{
1000
OWNER
1000
GEN
1002
}
1001
GENIUS_GENODEF_13
1002
{
1000
HIER
1070
     0
1002
}
1002
{
1000
MANEDIT
1070
     0
1002
}
1002
{
1000
NOSEL
1070
     0
1002
}
1002
{
1000
BEHIND
1070
     0
1002
}
1002
{
1000
OTHER
1070
     0
1002
}
1002
{
1000
REACTOR
1002
}
  0
LINE
  5
5926
  8
AM_0
 10
238.76484481359651
 20
323.26328667298708
 30
0.0
 11
255.83591262546199
 21
306.1922188611216
 31
0.0
  0
LINE
  5
5927
  8
AM_0
 10
238.107990564104
 20
318.26328667298708
 30
0.0
 11
250.8359126254617
 21
305.53536461162952
 31
0.0
  0
ARC
  5
5928
  8
AM_0
 10
234.57245665817149
 20
314.72775276705443
 30
0.0
 40
5.0
 50
45.0
 51
90.0
1001
GENIUS_GENOBJ-N-FIL_13
1002
{
1000
OWNER
1000
GEN
1002
}
1001
GENIUS_GENODEF_13
1002
{
1000
HIER
1070
     0
1002
}
1002
{
1000
MANEDIT
1070
     0
1002
}
1002
{
1000
NOSEL
1070
     0
1002
}
1002
{
1000
BEHIND
1070
     0
1002
}
1002
{
1000
OTHER
1070
     0
1002
}
1002
{
1000
REACTOR
1002
}
  0
LINE
  5
5929
  8
AM_0
 10
252.30037871952911
 20
301.9998307056967
 30
0.0
 11
252.30037871952931
 21
255.4556748284119
 31
0.0
  0
ARC
  5
592A
  8
AM_0
 10
247.30037871952911
 20
301.9998307056967
 30
0.0
 40
5.0
 50
0.0
 51
45.0
1001
GENIUS_GENODEF_13
1002
{
1000
HIER
1070
     0
1002
}
1002
{
1000
MANEDIT
1070
     0
1002
}
1002
{
1000
NOSEL
1070
     0
1002
}
1002
{
1000
BEHIND
1070
     0
1002
}
1002
{
1000
OTHER
1070
     0
1002
}
1002
{
1000
REACTOR
1002
}
1001
GENIUS_GENOBJ-N-FIL_13
1002
{
1000
OWNER
1000
GEN
1002
}
  0
ARC
  5
592B
  8
AM_0
 10
253.30037871952911
 20
320.72775276705443
 30
0.0
 40
4.0
 50
0.0
 51
90.0
1001
GENIUS_GENODEF_13
1002
{
1000
HIER
1070
     0
1002
}
1002
{
1000
MANEDIT
1070
     0
1002
}
1002
{
1000
NOSEL
1070
     0
1002
}
1002
{
1000
BEHIND
1070
     0
1002
}
1002
{
1000
OTHER
1070
     0
1002
}
1002
{
1000
REACTOR
1002
}
1001
GENIUS_GENOBJ-N-FIL_13
1002
{
1000
OWNER
1000
GEN
1002
}
  0
LINE
  5
592C
  8
ﾁｭｳｼﾝｾﾝ1
 10
252.3003787195307
 20
313.72775276705408
 30
0.0
 11
252.30037871953141
 21
325.72775276705408
 31
0.0
  0
LINE
  5
592D
  8
ﾁｭｳｼﾝｾﾝ1
 10
258.30037871953112
 20
319.7277527670538
 30
0.0
 11
246.3003787195311
 21
319.72775276705443
 31
0.0
  0
LINE
  5
592E
  8
AM_0
 10
157.80037871952919
 20
292.22775276705443
 30
0.0
 11
160.30037871952911
 21
292.22775276705448
 31
0.0
  0
LINE
  5
592F
  8
AM_0
 10
160.30037871952919
 20
265.22775276705443
 30
0.0
 11
157.80037871952919
 21
265.22775276705443
 31
0.0
  0
LINE
  5
5930
  8
AM_0
 10
146.9017076231832
 20
268.22775276705443
 30
0.0
 11
146.9017076231832
 21
289.22775276705443
 31
0.0
  0
LINE
  5
5931
  8
AM_0
 10
131.9017076231832
 20
286.75937782106939
 30
0.0
 11
131.9017076231832
 21
270.69612771303849
 31
0.0
  0
LINE
  5
5932
  8
AM_0
 10
144.9017076231832
 20
266.72775276705443
 30
0.0
 11
144.9017076231832
 21
290.72775276705443
 31
0.0
  0
LINE
  5
5933
  8
AM_0
 10
135.4017076231832
 20
278.72775276705443
 30
0.0
 11
135.9017076231832
 21
278.22775276705443
 31
0.0
  0
LINE
  5
5934
  8
AM_0
 10
142.4017076231832
 20
290.42775276705441
 30
0.0
 11
142.4017076231832
 21
267.02775276705438
 31
0.0
  0
LINE
  5
5935
  8
AM_0
 10
152.30037871952919
 20
290.22775276705443
 30
0.0
 11
152.30037871952919
 21
267.22775276705443
 31
0.0
  0
LINE
  5
5936
  8
AM_0
 10
146.4017076231832
 20
278.02775276705239
 30
0.0
 11
146.4017076231832
 21
279.42775276705538
 31
0.0
  0
LINE
  5
5937
  8
AM_0
 10
148.50134334975431
 20
269.6277527670544
 30
0.0
 11
147.75134334975519
 21
287.82775276705439
 31
0.0
  0
LINE
  5
5938
  8
AM_0
 10
147.55037871952919
 20
269.6277527670544
 30
0.0
 11
146.9017076231832
 21
285.36883803837043
 31
0.0
  0
LINE
  5
5939
  8
AM_0
 10
148.2990713101012
 20
268.91209405469039
 30
0.0
 11
147.55181126669319
 21
288.54012452822138
 31
0.0
  0
LINE
  5
593A
  8
AM_0
 10
147.74991080259119
 20
268.9153810058865
 30
0.0
 11
147.00134334975519
 21
288.57775276705428
 31
0.0
  0
LINE
  5
593B
  8
AM_0
 10
144.9017076231832
 20
290.72775276705443
 30
0.0
 11
142.70170762318321
 21
290.72775276705443
 31
0.0
  0
ARC
  5
593C
  8
AM_0
 10
156.80037871952931
 20
291.22775276705443
 30
0.0
 40
0.5
 50
269.99999999998693
 51
0.0
  0
ARC
  5
593D
  8
AM_0
 10
157.80037871952931
 20
291.72775276705443
 30
0.0
 40
0.5
 50
90.0
 51
180.0
  0
LINE
  5
593E
  8
AM_0
 10
157.30037871952919
 20
291.22775276705443
 30
0.0
 11
157.30037871952919
 21
291.72775276705443
 31
0.0
  0
LINE
  5
593F
  8
AM_0
 10
148.30037871952919
 20
287.82775276705439
 30
0.0
 11
151.80037871952919
 21
287.82775276705428
 31
0.0
  0
LINE
  5
5940
  8
AM_0
 10
157.30037871952919
 20
289.58382408846148
 30
0.0
 11
157.30037871952919
 21
279.87168144564629
 31
0.0
  0
LINE
  5
5941
  8
AM_0
 10
152.80037871952919
 20
290.72775276705443
 30
0.0
 11
156.80037871952911
 21
290.72775276705443
 31
0.0
  0
LINE
  5
5942
  8
AM_0
 10
156.80037871952919
 20
290.08382408846148
 30
0.0
 11
152.30037871952919
 21
290.08382408846148
 31
0.0
  0
ARC
  5
5943
  8
AM_0
 10
156.80037871952931
 20
289.58382408846148
 30
0.0
 40
0.5
 50
0.0
 51
90.0
  0
ARC
  5
5944
  8
AM_0
 10
151.80037871952919
 20
288.32775276705428
 30
0.0
 40
0.5
 50
270.0
 51
0.0
  0
ARC
  5
5945
  8
AM_0
 10
152.80037871952919
 20
290.22775276705443
 30
0.0
 40
0.5
 50
90.0
 51
180.0
  0
LINE
  5
5946
  8
AM_0
 10
156.80037871952919
 20
279.37168144564629
 30
0.0
 11
152.30037871952919
 21
279.37168144564629
 31
0.0
  0
ARC
  5
5947
  8
AM_0
 10
156.80037871952919
 20
279.87168144564629
 30
0.0
 40
0.5
 50
270.0
 51
0.0
  0
LINE
  5
5948
  8
AM_0
 10
146.4017076231832
 20
284.87292351934639
 30
0.0
 11
146.4017076231832
 21
283.70068033291329
 31
0.0
  0
LINE
  5
5949
  8
AM_0
 10
147.82807577818011
 20
287.82775276705439
 30
0.0
 11
148.30037871952919
 21
287.82775276705439
 31
0.0
  0
LINE
  5
594A
  8
AM_0
 10
147.7314832836409
 20
287.901870533791
 30
0.0
 11
147.75134334975519
 21
287.82775276705439
 31
0.0
  0
ARC
  5
594B
  8
AM_0
 10
147.82807577818031
 20
287.92775276705441
 30
0.0
 40
0.1000000000000346
 50
195.00019500644541
 51
270.0
  0
ARC
  5
594C
  8
AM_0
 10
146.1017076231833
 20
288.01458574756231
 30
0.0
 40
0.3000000000000043
 50
270.0
 51
0.0
  0
LINE
  5
594D
  8
AM_0
 10
144.9017076231832
 20
290.1277527670544
 30
0.0
 11
146.1216633263403
 21
290.04642238684352
 31
0.0
  0
LINE
  5
594E
  8
AM_0
 10
144.9017076231832
 20
288.97150073121441
 30
0.0
 11
146.1017076231833
 21
288.97150073121441
 31
0.0
  0
LINE
  5
594F
  8
AM_0
 10
146.4017076231832
 20
289.72775276705443
 30
0.0
 11
144.9017076231832
 21
289.72775276705443
 31
0.0
  0
ARC
  5
5950
  8
AM_0
 10
146.4017076231832
 20
289.22775276705443
 30
0.0
 40
0.5
 50
0.0
 51
90.0
  0
LINE
  5
5951
  8
AM_0
 10
146.4017076231832
 20
289.74708683948643
 30
0.0
 11
146.4017076231832
 21
289.72775276705443
 31
0.0
  0
LINE
  5
5952
  8
AM_0
 10
146.4017076231832
 20
290.02775276705438
 30
0.0
 11
146.4017076231832
 21
289.74708683948643
 31
0.0
  0
LINE
  5
5953
  8
AM_0
 10
146.1216633263403
 20
290.04642238684352
 30
0.0
 11
146.4017076231832
 21
290.02775276705438
 31
0.0
  0
ARC
  5
5954
  8
AM_0
 10
146.1017076231833
 20
289.74708683948643
 30
0.0
 40
0.3000000000000007
 50
0.0
 51
86.185925165718416
  0
LINE
  5
5955
  8
AM_0
 10
147.4736462911041
 20
288.57775276705428
 30
0.0
 11
147.55037871953019
 21
288.57775276705428
 31
0.0
  0
LINE
  5
5956
  8
AM_0
 10
147.55037871953019
 20
288.57775276705428
 30
0.0
 11
147.57023878564331
 21
288.5036350003179
 31
0.0
  0
LINE
  5
5957
  8
AM_0
 10
146.9814832836411
 20
288.5036350003179
 30
0.0
 11
147.00134334975519
 21
288.57775276705428
 31
0.0
  0
LINE
  5
5958
  8
AM_0
 10
147.00134334975519
 20
288.57775276705428
 30
0.0
 11
147.07807577818011
 21
288.57775276705428
 31
0.0
  0
LINE
  5
5959
  8
AM_0
 10
147.57023878564331
 20
288.5036350003179
 30
0.0
 11
147.7314832836409
 21
287.901870533791
 31
0.0
  0
LINE
  5
595A
  8
AM_0
 10
147.07807577818011
 20
288.57775276705428
 30
0.0
 11
147.4736462911041
 21
288.57775276705428
 31
0.0
  0
LINE
  5
595B
  8
AM_0
 10
146.90170762318419
 20
288.20591223549337
 30
0.0
 11
146.9814832836411
 21
288.5036350003179
 31
0.0
  0
ARC
  5
595C
  8
AM_0
 10
147.47364629110419
 20
288.47775276705443
 30
0.0
 40
0.0999999999999866
 50
15.000195006570261
 51
90.0
  0
ARC
  5
595D
  8
AM_0
 10
147.07807577818031
 20
288.47775276705443
 30
0.0
 40
0.1000000000000014
 50
90.0
 51
164.99980499342971
  0
LINE
  5
595E
  8
AM_0
 10
146.4017076231832
 20
288.67150073121439
 30
0.0
 11
146.4017076231832
 21
288.01458574756231
 31
0.0
  0
ARC
  5
595F
  8
AM_0
 10
146.1017076231833
 20
288.67150073121439
 30
0.0
 40
0.3000000000000007
 50
0.0
 51
90.0
  0
LINE
  5
5960
  8
AM_0
 10
144.9017076231832
 20
285.1729235193464
 30
0.0
 11
146.1017076231833
 21
285.1729235193464
 31
0.0
  0
LINE
  5
5961
  8
AM_0
 10
146.1017076231833
 20
287.7145857475623
 30
0.0
 11
144.9017076231832
 21
287.7145857475623
 31
0.0
  0
LINE
  5
5962
  8
AM_0
 10
147.75134334975519
 20
287.82775276705439
 30
0.0
 11
147.82807577818011
 21
287.82775276705439
 31
0.0
  0
ARC
  5
5963
  8
AM_0
 10
146.1017076231833
 20
284.87292351934639
 30
0.0
 40
0.3000000000000007
 50
0.0
 51
90.0
  0
LINE
  5
5964
  8
AM_0
 10
146.1017076231833
 20
283.40068033291351
 30
0.0
 11
144.9017076231832
 21
283.40068033291351
 31
0.0
  0
ARC
  5
5965
  8
AM_0
 10
146.1017076231833
 20
283.70068033291329
 30
0.0
 40
0.3000000000000043
 50
270.0
 51
0.0
  0
LINE
  5
5966
  8
AM_0
 10
146.1017076231833
 20
279.72775276705551
 30
0.0
 11
144.9017076231832
 21
279.72775276705551
 31
0.0
  0
ARC
  5
5967
  8
AM_0
 10
146.1017076231833
 20
279.42775276705538
 30
0.0
 40
0.3000000000000007
 50
0.0
 51
90.0
  0
LINE
  5
5968
  8
AM_0
 10
135.9017076231832
 20
288.86103259570132
 30
0.0
 11
142.4017076231832
 21
288.86103259570132
 31
0.0
  0
LINE
  5
5969
  8
AM_0
 10
135.9017076231832
 20
289.36103259570132
 30
0.0
 11
142.4017076231832
 21
289.36103259570132
 31
0.0
  0
LINE
  5
596A
  8
AM_0
 10
142.4017076231832
 20
279.22775276705443
 30
0.0
 11
135.9017076231832
 21
279.22775276705443
 31
0.0
  0
LINE
  5
596B
  8
AM_0
 10
135.4017076231832
 20
279.72775276705443
 30
0.0
 11
142.4017076231832
 21
279.72775276705443
 31
0.0
  0
LINE
  5
596C
  8
AM_0
 10
142.1017076231833
 20
289.72775276705443
 30
0.0
 11
135.2637575583652
 21
289.72775276705443
 31
0.0
  0
LINE
  5
596D
  8
AM_0
 10
142.4017076231832
 20
280.0744408355954
 30
0.0
 11
135.9017076231832
 21
280.0744408355954
 31
0.0
  0
LINE
  5
596E
  8
AM_0
 10
142.4017076231832
 20
288.38106469851351
 30
0.0
 11
135.9017076231832
 21
288.38106469851351
 31
0.0
  0
ARC
  5
596F
  8
AM_0
 10
142.70170762318321
 20
290.42775276705441
 30
0.0
 40
0.2999999999999971
 50
90.0
 51
180.0
  0
ARC
  5
5970
  8
AM_0
 10
142.1017076231833
 20
290.02775276705438
 30
0.0
 40
0.2999999999999971
 50
270.0
 51
0.0
  0
ARC
  5
5971
  8
AM_0
 10
144.0267076231832
 20
284.22775276705443
 30
0.0
 40
9.124999999999984
 50
152.92493329272219
 51
207.07506670727781
  0
LINE
  5
5972
  8
AM_0
 10
134.62357315870071
 20
289.4959740466519
 30
0.0
 11
132.26152322351859
 21
287.52759910066681
 31
0.0
  0
LINE
  5
5973
  8
AM_0
 10
135.4017076231832
 20
289.14932018354642
 30
0.0
 11
135.9017076231832
 21
289.72775276705443
 31
0.0
  0
ARC
  5
5974
  8
AM_0
 10
135.2637575583652
 20
288.72775276705443
 30
0.0
 40
1.0
 50
90.0
 51
129.805571092256
  0
LINE
  5
5975
  8
AM_0
 10
135.9017076231832
 20
289.36103259570132
 30
0.0
 11
135.4017076231832
 21
289.14932018354642
 31
0.0
  0
LINE
  5
5976
  8
AM_0
 10
135.4017076231832
 20
288.68704491057542
 30
0.0
 11
135.9017076231832
 21
289.36103259570132
 31
0.0
  0
LINE
  5
5977
  8
AM_0
 10
135.9017076231832
 20
288.86103259570132
 30
0.0
 11
135.4017076231832
 21
288.68704491057542
 31
0.0
  0
LINE
  5
5978
  8
AM_0
 10
135.4017076231832
 20
288.14932018354642
 30
0.0
 11
135.9017076231832
 21
288.86103259570132
 31
0.0
  0
LINE
  5
5979
  8
AM_0
 10
135.9017076231832
 20
288.38106469851351
 30
0.0
 11
135.4017076231832
 21
288.14932018354642
 31
0.0
  0
ARC
  5
597A
  8
AM_0
 10
132.9017076231832
 20
286.75937782106939
 30
0.0
 40
1.0000000000000291
 50
129.80557109226311
 51
180.0
  0
LINE
  5
597B
  8
AM_0
 10
135.9017076231832
 20
279.22775276705443
 30
0.0
 11
135.4017076231832
 21
278.72775276705443
 31
0.0
  0
LINE
  5
597C
  8
AM_0
 10
135.4017076231832
 20
279.72775276705443
 30
0.0
 11
135.9017076231832
 21
279.22775276705443
 31
0.0
  0
LINE
  5
597D
  8
AM_0
 10
135.9017076231832
 20
280.0744408355954
 30
0.0
 11
135.4017076231832
 21
279.72775276705443
 31
0.0
  0
LINE
  5
597E
  8
AM_0
 10
142.70170762318321
 20
266.72775276705443
 30
0.0
 11
144.9017076231832
 21
266.72775276705443
 31
0.0
  0
ARC
  5
597F
  8
AM_0
 10
156.80037871952919
 20
266.22775276705443
 30
0.0
 40
0.5
 50
0.0
 51
90.000000000006537
  0
LINE
  5
5980
  8
AM_0
 10
151.80037871952919
 20
269.6277527670544
 30
0.0
 11
148.57807577818011
 21
269.6277527670544
 31
0.0
  0
LINE
  5
5981
  8
AM_0
 10
157.30037871952919
 20
277.58382408846148
 30
0.0
 11
157.30037871952919
 21
267.8716814456464
 31
0.0
  0
LINE
  5
5982
  8
AM_0
 10
152.30037871952919
 20
278.08382408846148
 30
0.0
 11
156.80037871952919
 21
278.08382408846148
 31
0.0
  0
ARC
  5
5983
  8
AM_0
 10
156.80037871952919
 20
277.58382408846148
 30
0.0
 40
0.5
 50
0.0
 51
90.0
  0
LINE
  5
5984
  8
AM_0
 10
152.30037871952919
 20
267.37168144564629
 30
0.0
 11
156.80037871952919
 21
267.37168144564629
 31
0.0
  0
LINE
  5
5985
  8
AM_0
 10
156.80037871952911
 20
266.72775276705443
 30
0.0
 11
152.80037871952919
 21
266.72775276705443
 31
0.0
  0
ARC
  5
5986
  8
AM_0
 10
156.80037871952919
 20
267.8716814456464
 30
0.0
 40
0.5
 50
270.0
 51
0.0
  0
ARC
  5
5987
  8
AM_0
 10
151.80037871952919
 20
269.1277527670544
 30
0.0
 40
0.5
 50
0.0
 51
90.0
  0
ARC
  5
5988
  8
AM_0
 10
152.80037871952919
 20
267.22775276705443
 30
0.0
 40
0.5
 50
180.0
 51
270.0
  0
ARC
  5
5989
  8
AM_0
 10
146.1017076231833
 20
272.58258201476229
 30
0.0
 40
0.3000000000000114
 50
270.0
 51
0.0
  0
LINE
  5
598A
  8
AM_0
 10
144.9017076231832
 20
277.72775276705238
 30
0.0
 11
146.1017076231833
 21
277.72775276705238
 31
0.0
  0
ARC
  5
598B
  8
AM_0
 10
146.1017076231833
 20
278.02775276705239
 30
0.0
 40
0.2999999999999971
 50
270.0
 51
0.0
  0
LINE
  5
598C
  8
AM_0
 10
144.9017076231832
 20
274.0548252011954
 30
0.0
 11
146.1017076231833
 21
274.0548252011954
 31
0.0
  0
ARC
  5
598D
  8
AM_0
 10
146.1017076231833
 20
273.75482520119527
 30
0.0
 40
0.3000000000000007
 50
0.0
 51
90.0
  0
LINE
  5
598E
  8
AM_0
 10
146.4017076231832
 20
273.75482520119539
 30
0.0
 11
146.4017076231832
 21
272.58258201476252
 31
0.0
  0
LINE
  5
598F
  8
AM_0
 10
147.82807577818011
 20
268.8777527670544
 30
0.0
 11
148.22364629110399
 21
268.8777527670544
 31
0.0
  0
LINE
  5
5990
  8
AM_0
 10
147.82807577818011
 20
268.8777527670544
 30
0.0
 11
148.22364629110399
 21
268.8777527670544
 31
0.0
  0
LINE
  5
5991
  8
AM_0
 10
148.32023878564331
 20
268.9518705337909
 30
0.0
 11
148.48148328364121
 21
269.55363500031802
 31
0.0
  0
LINE
  5
5992
  8
AM_0
 10
148.32023878564331
 20
268.9518705337909
 30
0.0
 11
148.48148328364121
 21
269.55363500031802
 31
0.0
  0
ARC
  5
5993
  8
AM_0
 10
148.57807577818011
 20
269.52775276705438
 30
0.0
 40
0.0999999999999943
 50
90.0
 51
164.9998049934851
  0
ARC
  5
5994
  8
AM_0
 10
148.22364629110399
 20
268.97775276705443
 30
0.0
 40
0.0999999999999943
 50
270.0
 51
344.99980499349448
  0
LINE
  5
5995
  8
AM_0
 10
146.90086103464211
 20
269.25275276705412
 30
0.0
 11
146.9814832836411
 21
269.55363500031802
 31
0.0
  0
LINE
  5
5996
  8
AM_0
 10
147.5530893717353
 20
269.58848823395641
 30
0.0
 11
147.73148328364121
 21
268.9518705337909
 31
0.0
  0
LINE
  5
5997
  8
AM_0
 10
147.57023878564331
 20
269.55363500031802
 30
0.0
 11
147.73148328364121
 21
268.9518705337909
 31
0.0
  0
LINE
  5
5998
  8
AM_0
 10
146.4017076231832
 20
269.44091978654541
 30
0.0
 11
146.4017076231832
 21
268.7840048028944
 31
0.0
  0
LINE
  5
5999
  8
AM_0
 10
146.9017076231832
 20
269.25591223549242
 30
0.0
 11
146.9814832836411
 21
269.55363500031802
 31
0.0
  0
LINE
  5
599A
  8
AM_0
 10
144.9017076231832
 20
269.74091978654548
 30
0.0
 11
146.1017076231833
 21
269.74091978654548
 31
0.0
  0
LINE
  5
599B
  8
AM_0
 10
146.1017076231833
 20
272.2825820147624
 30
0.0
 11
144.9017076231832
 21
272.28258201476137
 31
0.0
  0
LINE
  5
599C
  8
AM_0
 10
147.50627855661909
 20
269.6277527670544
 30
0.0
 11
147.5530893717353
 21
269.58848823395641
 31
0.0
  0
LINE
  5
599D
  8
AM_0
 10
147.07807577818011
 20
269.6277527670544
 30
0.0
 11
147.50627855661909
 21
269.6277527670544
 31
0.0
  0
LINE
  5
599E
  8
AM_0
 10
147.07807577818011
 20
269.6277527670544
 30
0.0
 11
147.4736462911041
 21
269.6277527670544
 31
0.0
  0
ARC
  5
599F
  8
AM_0
 10
147.07807577818011
 20
269.52775276705438
 30
0.0
 40
0.0999999999999943
 50
90.0
 51
164.9998049934851
  0
ARC
  5
59A0
  8
AM_0
 10
147.4736462911041
 20
269.52775276705438
 30
0.0
 40
0.0999999999999608
 50
15.000195006514859
 51
90.0
  0
ARC
  5
59A1
  8
AM_0
 10
146.1017076231833
 20
269.44091978654541
 30
0.0
 40
0.3000000000000007
 50
0.0
 51
90.0
  0
LINE
  5
59A2
  8
AM_0
 10
144.9017076231832
 20
267.72775276705443
 30
0.0
 11
146.4017076231832
 21
267.72775276705443
 31
0.0
  0
LINE
  5
59A3
  8
AM_0
 10
146.1017076231833
 20
268.4840048028945
 30
0.0
 11
144.9017076231832
 21
268.4840048028945
 31
0.0
  0
LINE
  5
59A4
  8
AM_0
 10
146.1216633263403
 20
267.40908314726443
 30
0.0
 11
144.9017076231832
 21
267.32775276705451
 31
0.0
  0
ARC
  5
59A5
  8
AM_0
 10
146.4017076231832
 20
268.22775276705443
 30
0.0
 40
0.5
 50
270.0
 51
0.0
  0
ARC
  5
59A6
  8
AM_0
 10
147.82807577818011
 20
268.97775276705443
 30
0.0
 40
0.0999999999999606
 50
195.00019500650541
 51
270.0
  0
ARC
  5
59A7
  8
AM_0
 10
146.1017076231833
 20
268.7840048028944
 30
0.0
 40
0.2999999999999971
 50
270.0
 51
0.0
  0
LINE
  5
59A8
  8
AM_0
 10
146.4017076231832
 20
267.72775276705443
 30
0.0
 11
146.4017076231832
 21
267.7084186946214
 31
0.0
  0
ARC
  5
59A9
  8
AM_0
 10
146.1017076231833
 20
267.7084186946214
 30
0.0
 40
0.3000000000000043
 50
273.8140748342816
 51
0.0
  0
ARC
  5
59AA
  8
AM_0
 10
157.80037871952919
 20
265.72775276705443
 30
0.0
 40
0.5
 50
180.0
 51
270.0
  0
LINE
  5
59AB
  8
AM_0
 10
157.30037871952919
 20
265.72775276705443
 30
0.0
 11
157.30037871952919
 21
266.22775276705443
 31
0.0
  0
LINE
  5
59AC
  8
AM_0
 10
135.9017076231832
 20
269.0744408355954
 30
0.0
 11
142.4017076231832
 21
269.0744408355954
 31
0.0
  0
LINE
  5
59AD
  8
AM_0
 10
135.9017076231832
 20
277.3810646985134
 30
0.0
 11
142.4017076231832
 21
277.3810646985134
 31
0.0
  0
LINE
  5
59AE
  8
AM_0
 10
135.2637575583652
 20
267.72775276705443
 30
0.0
 11
142.1017076231833
 21
267.72775276705443
 31
0.0
  0
LINE
  5
59AF
  8
AM_0
 10
142.4017076231832
 20
277.72775276705443
 30
0.0
 11
135.4017076231832
 21
277.72775276705443
 31
0.0
  0
LINE
  5
59B0
  8
AM_0
 10
135.9017076231832
 20
278.22775276705443
 30
0.0
 11
142.4017076231832
 21
278.22775276705443
 31
0.0
  0
LINE
  5
59B1
  8
AM_0
 10
142.4017076231832
 20
268.0944729384064
 30
0.0
 11
135.9017076231832
 21
268.0944729384064
 31
0.0
  0
LINE
  5
59B2
  8
AM_0
 10
142.4017076231832
 20
268.5944729384064
 30
0.0
 11
135.9017076231832
 21
268.5944729384064
 31
0.0
  0
ARC
  5
59B3
  8
AM_0
 10
142.1017076231833
 20
267.42775276705441
 30
0.0
 40
0.3000000000000043
 50
0.0
 51
90.0
  0
ARC
  5
59B4
  8
AM_0
 10
142.70170762318321
 20
267.02775276705438
 30
0.0
 40
0.2999999999999971
 50
180.0
 51
270.0
  0
ARC
  5
59B5
  8
AM_0
 10
144.0267076231832
 20
273.22775276705443
 30
0.0
 40
9.124999999999984
 50
152.92493329272219
 51
207.07506670727781
  0
LINE
  5
59B6
  8
AM_0
 10
135.4017076231832
 20
277.72775276705443
 30
0.0
 11
135.9017076231832
 21
277.3810646985134
 31
0.0
  0
LINE
  5
59B7
  8
AM_0
 10
135.9017076231832
 20
278.22775276705443
 30
0.0
 11
135.4017076231832
 21
277.72775276705443
 31
0.0
  0
LINE
  5
59B8
  8
AM_0
 10
132.26152322351859
 20
269.92790643344102
 30
0.0
 11
134.62357315870071
 21
267.9595314874569
 31
0.0
  0
LINE
  5
59B9
  8
AM_0
 10
135.9017076231832
 20
267.72775276705443
 30
0.0
 11
135.4017076231832
 21
268.30618535056141
 31
0.0
  0
ARC
  5
59BA
  8
AM_0
 10
135.2637575583652
 20
268.72775276705443
 30
0.0
 40
1.0000000000000411
 50
230.19442890774391
 51
270.0
  0
LINE
  5
59BB
  8
AM_0
 10
135.4017076231832
 20
269.30618535056152
 30
0.0
 11
135.9017076231832
 21
269.0744408355954
 31
0.0
  0
LINE
  5
59BC
  8
AM_0
 10
135.9017076231832
 20
268.5944729384064
 30
0.0
 11
135.4017076231832
 21
269.30618535056152
 31
0.0
  0
LINE
  5
59BD
  8
AM_0
 10
135.4017076231832
 20
268.76846062353337
 30
0.0
 11
135.9017076231832
 21
268.5944729384064
 31
0.0
  0
LINE
  5
59BE
  8
AM_0
 10
135.9017076231832
 20
268.0944729384064
 30
0.0
 11
135.4017076231832
 21
268.76846062353337
 31
0.0
  0
LINE
  5
59BF
  8
AM_0
 10
135.4017076231832
 20
268.30618535056141
 30
0.0
 11
135.9017076231832
 21
268.0944729384064
 31
0.0
  0
ARC
  5
59C0
  8
AM_0
 10
132.9017076231832
 20
270.69612771303832
 30
0.0
 40
1.0
 50
180.0
 51
230.19442890773689
  0
CIRCLE
  5
59C1
  8
AM_0
 10
166.30037871952749
 20
319.72775276705408
 30
0.0
 40
4.0
  0
LINE
  5
59C2
  8
AM_0
 10
165.98887871952741
 20
317.44894436132972
 30
0.0
 11
166.61187871952751
 21
317.44894436132972
 31
0.0
  0
LINE
  5
59C3
  8
AM_0
 10
165.98887871952741
 20
322.00656117277828
 30
0.0
 11
166.61187871952751
 21
322.00656117277828
 31
0.0
  0
LINE
  5
59C4
  8
AM_0
 10
165.98887871952741
 20
317.44894436132972
 30
0.0
 11
165.98887871952741
 21
319.416252767054
 31
0.0
  0
LINE
  5
59C5
  8
AM_0
 10
165.98887871952741
 20
320.03925276705399
 30
0.0
 11
165.98887871952741
 21
322.00656117277828
 31
0.0
  0
LINE
  5
59C6
  8
AM_0
 10
165.98887871952741
 20
320.03925276705399
 30
0.0
 11
164.0215703138031
 21
320.03925276705399
 31
0.0
  0
LINE
  5
59C7
  8
AM_0
 10
165.98887871952741
 20
319.416252767054
 30
0.0
 11
164.0215703138031
 21
319.416252767054
 31
0.0
  0
LINE
  5
59C8
  8
AM_0
 10
164.0215703138031
 20
320.03925276705399
 30
0.0
 11
164.0215703138031
 21
319.416252767054
 31
0.0
  0
LINE
  5
59C9
  8
AM_0
 10
166.61187871952751
 20
317.44894436132972
 30
0.0
 11
166.61187871952751
 21
319.416252767054
 31
0.0
  0
LINE
  5
59CA
  8
AM_0
 10
166.61187871952751
 20
320.03925276705399
 30
0.0
 11
166.61187871952751
 21
322.00656117277828
 31
0.0
  0
LINE
  5
59CB
  8
AM_0
 10
168.57918712525191
 20
319.416252767054
 30
0.0
 11
166.61187871952751
 21
319.416252767054
 31
0.0
  0
LINE
  5
59CC
  8
AM_0
 10
168.57918712525191
 20
320.03925276705399
 30
0.0
 11
166.61187871952751
 21
320.03925276705399
 31
0.0
  0
LINE
  5
59CD
  8
AM_0
 10
168.57918712525191
 20
320.03925276705399
 30
0.0
 11
168.57918712525191
 21
319.416252767054
 31
0.0
  0
CIRCLE
  5
59CE
  8
AM_0
 10
252.3003787195311
 20
319.72775276705408
 30
0.0
 40
4.0
  0
LINE
  5
59CF
  8
AM_0
 10
251.9888787195311
 20
317.44894436132961
 30
0.0
 11
252.61187871953109
 21
317.44894436132961
 31
0.0
  0
LINE
  5
59D0
  8
AM_0
 10
251.9888787195311
 20
322.00656117277822
 30
0.0
 11
252.61187871953109
 21
322.00656117277822
 31
0.0
  0
LINE
  5
59D1
  8
AM_0
 10
251.9888787195311
 20
317.44894436132961
 30
0.0
 11
251.9888787195311
 21
319.416252767054
 31
0.0
  0
LINE
  5
59D2
  8
AM_0
 10
251.9888787195311
 20
320.03925276705399
 30
0.0
 11
251.9888787195311
 21
322.00656117277822
 31
0.0
  0
LINE
  5
59D3
  8
AM_0
 10
251.9888787195311
 20
320.03925276705399
 30
0.0
 11
250.02157031380671
 21
320.03925276705399
 31
0.0
  0
LINE
  5
59D4
  8
AM_0
 10
251.9888787195311
 20
319.416252767054
 30
0.0
 11
250.02157031380671
 21
319.416252767054
 31
0.0
  0
LINE
  5
59D5
  8
AM_0
 10
250.02157031380671
 20
320.03925276705399
 30
0.0
 11
250.02157031380671
 21
319.416252767054
 31
0.0
  0
LINE
  5
59D6
  8
AM_0
 10
252.61187871953109
 20
317.44894436132961
 30
0.0
 11
252.61187871953109
 21
319.416252767054
 31
0.0
  0
LINE
  5
59D7
  8
AM_0
 10
252.61187871953109
 20
320.03925276705399
 30
0.0
 11
252.61187871953109
 21
322.00656117277822
 31
0.0
  0
LINE
  5
59D8
  8
AM_0
 10
254.5791871252554
 20
319.416252767054
 30
0.0
 11
252.61187871953109
 21
319.416252767054
 31
0.0
  0
LINE
  5
59D9
  8
AM_0
 10
254.5791871252554
 20
320.03925276705399
 30
0.0
 11
252.61187871953109
 21
320.03925276705399
 31
0.0
  0
LINE
  5
59DA
  8
AM_0
 10
254.5791871252554
 20
320.03925276705399
 30
0.0
 11
254.5791871252554
 21
319.416252767054
 31
0.0
  0
LINE
  5
59DB
  8
AM_0
 10
179.83591262546221
 20
323.26328667298719
 30
0.0
 11
162.7648448135964
 21
306.19221886112189
 31
0.0
  0
LINE
  5
59DC
  8
AM_0
 10
180.49276687495441
 20
318.26328667298708
 30
0.0
 11
167.76484481359651
 21
305.5353646116294
 31
0.0
  0
ARC
  5
59DD
  8
AM_0
 10
171.30037871952919
 20
301.99983070569652
 30
0.0
 40
5.0
 50
135.0
 51
180.0
1001
GENIUS_GENOBJ-N-FIL_13
1002
{
1000
OWNER
1000
GEN
1002
}
1001
GENIUS_GENODEF_13
1002
{
1000
HIER
1070
     0
1002
}
1002
{
1000
MANEDIT
1070
     0
1002
}
1002
{
1000
NOSEL
1070
     0
1002
}
1002
{
1000
BEHIND
1070
     0
1002
}
1002
{
1000
OTHER
1070
     0
1002
}
1002
{
1000
REACTOR
1002
}
  0
LINE
  5
59DE
  8
AM_0
 10
238.76484481359651
 20
234.19221886112149
 30
0.0
 11
255.83591262546199
 21
251.26328667298691
 31
0.0
  0
ARC
  5
59DF
  8
AM_0
 10
235.2293109076638
 20
237.7277527670542
 30
0.0
 40
5.0
 50
270.0
 51
315.0
1001
GENIUS_GENODEF_13
1002
{
1000
HIER
1070
     0
1002
}
1002
{
1000
MANEDIT
1070
     0
1002
}
1002
{
1000
NOSEL
1070
     0
1002
}
1002
{
1000
BEHIND
1070
     0
1002
}
1002
{
1000
OTHER
1070
     0
1002
}
1002
{
1000
REACTOR
1002
}
1001
GENIUS_GENOBJ-N-FIL_13
1002
{
1000
OWNER
1000
GEN
1002
}
  0
LINE
  5
59E0
  8
AM_0
 10
238.10799056410431
 20
239.1922188611216
 30
0.0
 11
250.83591262546199
 21
251.92014092247919
 31
0.0
  0
ARC
  5
59E1
  8
AM_0
 10
247.30037871952939
 20
255.4556748284119
 30
0.0
 40
5.0
 50
315.0
 51
0.0
1001
GENIUS_GENOBJ-N-FIL_13
1002
{
1000
OWNER
1000
GEN
1002
}
1001
GENIUS_GENODEF_13
1002
{
1000
HIER
1070
     0
1002
}
1002
{
1000
MANEDIT
1070
     0
1002
}
1002
{
1000
NOSEL
1070
     0
1002
}
1002
{
1000
BEHIND
1070
     0
1002
}
1002
{
1000
OTHER
1070
     0
1002
}
1002
{
1000
REACTOR
1002
}
  0
LINE
  5
59E2
  8
AM_0
 10
179.83591262546199
 20
234.19221886112149
 30
0.0
 11
162.7648448135964
 21
251.26328667298671
 31
0.0
  0
LINE
  5
59E3
  8
AM_0
 10
180.49276687495421
 20
239.1922188611216
 30
0.0
 11
167.76484481359651
 21
251.92014092247919
 31
0.0
  0
ARC
  5
59E4
  8
AM_0
 10
184.02830078088701
 20
242.7277527670542
 30
0.0
 40
5.0
 50
225.0
 51
270.0
1001
GENIUS_GENOBJ-N-FIL_13
1002
{
1000
OWNER
1000
GEN
1002
}
1001
GENIUS_GENODEF_13
1002
{
1000
HIER
1070
     0
1002
}
1002
{
1000
MANEDIT
1070
     0
1002
}
1002
{
1000
NOSEL
1070
     0
1002
}
1002
{
1000
BEHIND
1070
     0
1002
}
1002
{
1000
OTHER
1070
     0
1002
}
1002
{
1000
REACTOR
1002
}
  0
CIRCLE
  5
59E5
  8
AM_0
 10
166.3003787195274
 20
237.72775276705471
 30
0.0
 40
4.0
  0
LINE
  5
59E6
  8
AM_0
 10
165.98887871952741
 20
240.0065611727789
 30
0.0
 11
166.6118787195274
 21
240.0065611727789
 31
0.0
  0
LINE
  5
59E7
  8
AM_0
 10
165.98887871952741
 20
235.44894436133029
 30
0.0
 11
166.6118787195274
 21
235.44894436133029
 31
0.0
  0
LINE
  5
59E8
  8
AM_0
 10
165.98887871952741
 20
240.0065611727789
 30
0.0
 11
165.98887871952741
 21
238.03925276705471
 31
0.0
  0
LINE
  5
59E9
  8
AM_0
 10
165.98887871952741
 20
237.4162527670546
 30
0.0
 11
165.98887871952741
 21
235.44894436133029
 31
0.0
  0
LINE
  5
59EA
  8
AM_0
 10
165.98887871952741
 20
237.4162527670546
 30
0.0
 11
164.02157031380301
 21
237.4162527670546
 31
0.0
  0
LINE
  5
59EB
  8
AM_0
 10
165.98887871952741
 20
238.03925276705471
 30
0.0
 11
164.02157031380301
 21
238.03925276705471
 31
0.0
  0
LINE
  5
59EC
  8
AM_0
 10
164.02157031380301
 20
237.4162527670546
 30
0.0
 11
164.02157031380301
 21
238.03925276705471
 31
0.0
  0
LINE
  5
59ED
  8
AM_0
 10
166.6118787195274
 20
240.0065611727789
 30
0.0
 11
166.6118787195274
 21
238.03925276705471
 31
0.0
  0
LINE
  5
59EE
  8
AM_0
 10
166.6118787195274
 20
237.4162527670546
 30
0.0
 11
166.6118787195274
 21
235.44894436133029
 31
0.0
  0
LINE
  5
59EF
  8
AM_0
 10
168.57918712525179
 20
238.03925276705471
 30
0.0
 11
166.6118787195274
 21
238.03925276705471
 31
0.0
  0
LINE
  5
59F0
  8
AM_0
 10
168.57918712525179
 20
237.4162527670546
 30
0.0
 11
166.6118787195274
 21
237.4162527670546
 31
0.0
  0
LINE
  5
59F1
  8
AM_0
 10
168.57918712525179
 20
237.4162527670546
 30
0.0
 11
168.57918712525179
 21
238.03925276705471
 31
0.0
  0
CIRCLE
  5
59F2
  8
AM_0
 10
252.3003787195309
 20
237.7277527670544
 30
0.0
 40
4.0
  0
LINE
  5
59F3
  8
AM_0
 10
251.9888787195309
 20
240.0065611727789
 30
0.0
 11
252.61187871953101
 21
240.0065611727789
 31
0.0
  0
LINE
  5
59F4
  8
AM_0
 10
251.9888787195309
 20
235.44894436133021
 30
0.0
 11
252.61187871953101
 21
235.44894436133021
 31
0.0
  0
LINE
  5
59F5
  8
AM_0
 10
251.9888787195309
 20
240.0065611727789
 30
0.0
 11
251.9888787195309
 21
238.03925276705451
 31
0.0
  0
LINE
  5
59F6
  8
AM_0
 10
251.9888787195309
 20
237.4162527670544
 30
0.0
 11
251.9888787195309
 21
235.44894436133021
 31
0.0
  0
LINE
  5
59F7
  8
AM_0
 10
251.9888787195309
 20
237.4162527670544
 30
0.0
 11
250.02157031380659
 21
237.4162527670544
 31
0.0
  0
LINE
  5
59F8
  8
AM_0
 10
251.9888787195309
 20
238.03925276705451
 30
0.0
 11
250.02157031380659
 21
238.03925276705451
 31
0.0
  0
LINE
  5
59F9
  8
AM_0
 10
250.02157031380659
 20
237.4162527670544
 30
0.0
 11
250.02157031380659
 21
238.03925276705451
 31
0.0
  0
LINE
  5
59FA
  8
AM_0
 10
252.61187871953101
 20
240.0065611727789
 30
0.0
 11
252.61187871953101
 21
238.03925276705451
 31
0.0
  0
LINE
  5
59FB
  8
AM_0
 10
252.61187871953101
 20
237.4162527670544
 30
0.0
 11
252.61187871953101
 21
235.44894436133021
 31
0.0
  0
LINE
  5
59FC
  8
AM_0
 10
254.57918712525529
 20
238.03925276705451
 30
0.0
 11
252.61187871953101
 21
238.03925276705451
 31
0.0
  0
LINE
  5
59FD
  8
AM_0
 10
254.57918712525529
 20
237.4162527670544
 30
0.0
 11
252.61187871953101
 21
237.4162527670544
 31
0.0
  0
LINE
  5
59FE
  8
AM_0
 10
254.57918712525529
 20
237.4162527670544
 30
0.0
 11
254.57918712525529
 21
238.03925276705451
 31
0.0
  0
LINE
  5
59FF
  8
AM_0
 10
161.30037871952919
 20
247.7277527670544
 30
0.0
 11
160.30037871952919
 21
247.7277527670544
 31
0.0
  0
LINE
  5
5A00
  8
AM_0
 10
161.30037871952919
 20
309.72775276705443
 30
0.0
 11
160.30037871952919
 21
309.72775276705431
 31
0.0
  0
LINE
  5
5A01
  8
AM_0
 10
160.30037871952919
 20
247.7277527670544
 30
0.0
 11
160.30037871952919
 21
309.72775276705431
 31
0.0
  0
LINE
  5
5A02
  8
AM_0
 10
557.62119121249043
 20
311.03431554471149
 30
0.0
 11
557.62119121249043
 21
312.22777226705421
 31
0.0
  0
LINE
  5
5A03
  8
AM_0
 10
556.62119121249043
 20
312.22777226705421
 30
0.0
 11
557.62119121249043
 21
312.22777226705421
 31
0.0
  0
LINE
  5
5A04
  8
AM_0
 10
518.62119121249009
 20
232.72777226705421
 30
0.0
 11
549.51810870455995
 21
233.8067164008003
 31
0.0
  0
LINE
  5
5A05
  8
AM_0
 10
556.62119121249032
 20
301.50367099452478
 30
0.0
 11
556.62119121249043
 21
321.46940547675382
 31
0.0
  0
LINE
  5
5A06
  8
AM_0
 10
554.69099020589522
 20
323.46818713079199
 30
0.0
 11
518.62119121249043
 21
324.72777226705432
 31
0.0
  0
ARC
  5
5A07
  8
AM_0
 10
554.62119121249054
 20
321.46940547675382
 30
0.0
 40
2.0
 50
0.0
 51
88.000000000002842
1001
GENIUS_GENOBJ-N-FIL_13
1002
{
1000
OWNER
1000
GEN
1002
}
1001
GENIUS_GENODEF_13
1002
{
1000
HIER
1070
     0
1002
}
1002
{
1000
MANEDIT
1070
     0
1002
}
1002
{
1000
NOSEL
1070
     0
1002
}
1002
{
1000
BEHIND
1070
     0
1002
}
1002
{
1000
OTHER
1070
     0
1002
}
1002
{
1000
REACTOR
1002
}
  0
LINE
  5
5A08
  8
AM_0
 10
518.62119121249043
 20
324.72777226705432
 30
0.0
 11
518.62119121249009
 21
232.72777226705401
 31
0.0
  0
LINE
  5
5A09
  8
ﾁｭｳｼﾝｾﾝ1
 10
507.62119121249032
 20
237.72777226705489
 30
0.0
 11
523.44871422502695
 21
237.7277722670548
 31
0.0
  0
LINE
  5
5A0A
  8
AM_0
 10
514.62119121249043
 20
324.72777226705432
 30
0.0
 11
514.62119121249043
 21
303.91326736752183
 31
0.0
  0
LINE
  5
5A0B
  8
AM_0
 10
514.62119121249032
 20
253.5422771665865
 30
0.0
 11
514.62119121249032
 21
232.727772267055
 31
0.0
  0
LINE
  5
5A0C
  8
AM_0
 10
510.62119121249032
 20
318.59199059789358
 30
0.0
 11
510.62119121249032
 21
238.8635539362148
 31
0.0
  0
LINE
  5
5A0D
  8
AM_0
 10
512.56225370036225
 20
241.63512723936131
 30
0.0
 11
513.62119121249032
 21
241.7277722670548
 31
0.0
  0
LINE
  5
5A0E
  8
AM_0
 10
512.56225370036225
 20
233.82041729474841
 30
0.0
 11
513.62119121249032
 21
233.72777226705489
 31
0.0
  0
ARC
  5
5A0F
  8
AM_0
 10
517.02119121249041
 20
237.7277722670548
 30
0.0
 40
6.5
 50
151.82726586813479
 51
208.1727341318651
  0
ARC
  5
5A10
  8
AM_0
 10
512.70170288875875
 20
235.4143288116951
 30
0.0
 40
1.6000000000000001
 50
208.1727341318651
 51
265.00000000000028
  0
LINE
  5
5A11
  8
AM_0
 10
510.94171755106203
 20
240.0277722670547
 30
0.0
 11
513.23127722985748
 21
237.7277722670548
 31
0.0
  0
LINE
  5
5A12
  8
AM_0
 10
512.92119121249004
 20
238.0392722670548
 30
0.0
 11
512.92119121249004
 21
237.41627226705469
 31
0.0
  0
LINE
  5
5A13
  8
AM_0
 10
510.94171755106203
 20
235.42777226705479
 30
0.0
 11
513.23127722985748
 21
237.7277722670548
 31
0.0
  0
LINE
  5
5A14
  8
AM_0
 10
510.52865952215558
 20
238.0392722670548
 30
0.0
 11
512.92119121249004
 21
238.0392722670548
 31
0.0
  0
LINE
  5
5A15
  8
AM_0
 10
510.52865952215558
 20
237.41627226705469
 30
0.0
 11
512.92119121249004
 21
237.41627226705469
 31
0.0
  0
ARC
  5
5A16
  8
AM_0
 10
512.70170288875875
 20
240.04121572241451
 30
0.0
 40
1.6000000000000001
 50
94.99999999999973
 51
151.82726586813479
  0
LINE
  5
5A17
  8
AM_0
 10
514.62119121249043
 20
324.72777226705432
 30
0.0
 11
518.62119121249043
 21
324.72777226705432
 31
0.0
  0
LINE
  5
5A18
  8
AM_0
 10
513.6211912124902
 20
323.72777226705398
 30
0.0
 11
514.62119121249054
 21
324.72777226705432
 31
0.0
  0
LINE
  5
5A19
  8
AM_0
 10
518.62119121249009
 20
232.72777226705401
 30
0.0
 11
514.62119121249032
 21
232.727772267055
 31
0.0
  0
LINE
  5
5A1A
  8
AM_0N
 10
514.62119121249032
 20
241.52777226705479
 30
0.0
 11
513.62119121249032
 21
241.52777226705479
 31
0.0
  0
LINE
  5
5A1B
  8
AM_0N
 10
513.62119121249032
 20
237.92777226705479
 30
0.0
 11
514.62119121249032
 21
238.29174250132101
 31
0.0
  0
LINE
  5
5A1C
  8
AM_0N
 10
513.62119121249032
 20
237.52777226705479
 30
0.0
 11
514.62119121249032
 21
237.891742501321
 31
0.0
  0
LINE
  5
5A1D
  8
AM_0N
 10
513.62119121249032
 20
233.72777226705489
 30
0.0
 11
513.62119121249032
 21
241.7277722670548
 31
0.0
  0
LINE
  5
5A1E
  8
AM_0N
 10
513.62119121249032
 20
233.92777226705479
 30
0.0
 11
514.62119121249032
 21
233.92777226705479
 31
0.0
  0
LINE
  5
5A1F
  8
AM_0
 10
510.62119121249032
 20
253.5422771665865
 30
0.0
 11
514.62119121249032
 21
253.5422771665865
 31
0.0
  0
LINE
  5
5A20
  8
AM_0
 10
514.62119121249032
 20
251.8854229170941
 30
0.0
 11
510.62119121249032
 21
253.5422771665865
 31
0.0
  0
LINE
  5
5A21
  8
AM_0
 10
510.62119121249032
 20
303.91326736752183
 30
0.0
 11
514.62119121249043
 21
303.91326736752183
 31
0.0
  0
LINE
  5
5A22
  8
AM_0
 10
514.62119121249043
 20
305.57012161701442
 30
0.0
 11
510.62119121249032
 21
303.91326736752183
 31
0.0
  0
LINE
  5
5A23
  8
ﾁｭｳｼﾝｾﾝ1
 10
507.62119121249049
 20
319.72777226705352
 30
0.0
 11
523.44871422502695
 21
319.72777226705358
 31
0.0
  0
LINE
  5
5A24
  8
AM_0
 10
512.56225370036225
 20
315.82041729474707
 30
0.0
 11
513.62119121249032
 21
315.72777226705358
 31
0.0
  0
LINE
  5
5A25
  8
AM_0
 10
512.56225370036225
 20
323.63512723935997
 30
0.0
 11
513.62119121249032
 21
323.72777226705358
 31
0.0
  0
ARC
  5
5A26
  8
AM_0
 10
517.02119121249041
 20
319.72777226705358
 30
0.0
 40
6.5
 50
151.82726586813479
 51
208.1727341318651
  0
ARC
  5
5A27
  8
AM_0
 10
512.70170288875875
 20
322.0412157224132
 30
0.0
 40
1.6000000000000001
 50
94.99999999999973
 51
151.82726586813479
  0
LINE
  5
5A28
  8
AM_0
 10
510.94171755106203
 20
317.42777226705368
 30
0.0
 11
513.23127722985748
 21
319.72777226705358
 31
0.0
  0
LINE
  5
5A29
  8
AM_0
 10
512.92119121249004
 20
319.41627226705361
 30
0.0
 11
512.92119121249004
 21
320.03927226705372
 31
0.0
  0
LINE
  5
5A2A
  8
AM_0
 10
510.94171755106203
 20
322.02777226705371
 30
0.0
 11
513.23127722985748
 21
319.72777226705358
 31
0.0
  0
LINE
  5
5A2B
  8
AM_0
 10
510.52865952215558
 20
319.41627226705361
 30
0.0
 11
512.92119121249004
 21
319.41627226705361
 31
0.0
  0
LINE
  5
5A2C
  8
AM_0
 10
510.52865952215558
 20
320.03927226705372
 30
0.0
 11
512.92119121249004
 21
320.03927226705372
 31
0.0
  0
ARC
  5
5A2D
  8
AM_0
 10
512.70170288875875
 20
317.41432881169402
 30
0.0
 40
1.6000000000000001
 50
208.1727341318651
 51
265.00000000000028
  0
LINE
  5
5A2E
  8
AM_0N
 10
514.62119121249032
 20
315.92777226705363
 30
0.0
 11
513.62119121249032
 21
315.92777226705363
 31
0.0
  0
LINE
  5
5A2F
  8
AM_0N
 10
513.62119121249032
 20
319.52777226705371
 30
0.0
 11
514.62119121249032
 21
319.16380203278737
 31
0.0
  0
LINE
  5
5A30
  8
AM_0N
 10
513.62119121249032
 20
319.92777226705363
 30
0.0
 11
514.62119121249032
 21
319.56380203278729
 31
0.0
  0
LINE
  5
5A31
  8
AM_0N
 10
513.62119121249032
 20
323.72777226705358
 30
0.0
 11
513.62119121249032
 21
315.72777226705358
 31
0.0
  0
LINE
  5
5A32
  8
AM_0N
 10
513.62119121249032
 20
323.52777226705371
 30
0.0
 11
514.62119121249032
 21
323.52777226705371
 31
0.0
  0
LINE
  5
5A33
  8
ﾁｭｳｼﾝｾﾝ1
 10
166.3003787195272
 20
313.72775276705408
 30
0.0
 11
166.30037871952771
 21
325.72775276705408
 31
0.0
  0
LINE
  5
5A34
  8
ﾁｭｳｼﾝｾﾝ1
 10
172.30037871952749
 20
319.7277527670538
 30
0.0
 11
160.30037871952749
 21
319.72775276705443
 31
0.0
  0
LINE
  5
5A35
  8
ﾁｭｳｼﾝｾﾝ1
 10
166.30037871952709
 20
231.72775276705471
 30
0.0
 11
166.30037871952771
 21
243.72775276705471
 31
0.0
  0
LINE
  5
5A36
  8
ﾁｭｳｼﾝｾﾝ1
 10
172.3003787195274
 20
237.7277527670544
 30
0.0
 11
160.3003787195274
 21
237.72775276705499
 31
0.0
  0
LINE
  5
5A37
  8
ﾁｭｳｼﾝｾﾝ1
 10
252.30037871953061
 20
231.7277527670544
 30
0.0
 11
252.30037871953121
 21
243.7277527670544
 31
0.0
  0
LINE
  5
5A38
  8
ﾁｭｳｼﾝｾﾝ1
 10
258.3003787195309
 20
237.7277527670542
 30
0.0
 11
246.3003787195309
 21
237.7277527670548
 31
0.0
  0
LINE
  5
5A39
  8
ﾁｭｳｼﾝｾﾝ
 10
577.16548846919386
 20
298.72777326705432
 30
0.0
 11
674.07689395578711
 21
298.72777326705432
 31
0.0
  0
LINE
  5
5A3A
  8
AM_0
 10
379.30032871952881
 20
310.72775826705413
 30
0.0
 11
413.30037871952879
 21
310.72775826705413
 31
0.0
  0
LINE
  5
5A3B
  8
AM_0
 10
413.30037871952879
 20
313.72775826705413
 30
0.0
 11
413.30037871952879
 21
286.7277732670542
 31
0.0
  0
LINE
  5
5A3C
  8
AM_0
 10
379.30032871952881
 20
286.7277732670542
 30
0.0
 11
413.30037871952879
 21
286.7277732670542
 31
0.0
  0
LINE
  5
5A3D
  8
ﾁｭｳｼﾝｾﾝ
 10
420.27638575591573
 20
298.72777326705432
 30
0.0
 11
289.39965268999782
 21
298.72777326705432
 31
0.0
  0
LINE
  5
5A3E
  8
ﾁｭｳｼﾝｾﾝ
 10
625.62119121249043
 20
353.79334561115638
 30
0.0
 11
625.62119121249043
 21
199.49350026705409
 31
0.0
  0
LINE
  5
5A3F
  8
AM_0
 10
381.30033871952912
 20
313.72775826705413
 30
0.0
 11
381.30033871952912
 21
310.72775826705413
 31
0.0
  0
LINE
  5
5A40
  8
AM_0
 10
568.06336221249035
 20
317.74766826705428
 30
0.0
 11
572.64376221249051
 21
321.2623782670542
 31
0.0
  0
LINE
  5
5A41
  8
AM_0
 10
572.64376221249051
 20
321.26234826705411
 30
0.0
 11
571.8901622124904
 21
326.98646826705419
 31
0.0
  0
LINE
  5
5A42
  8
AM_0
 10
571.8901622124904
 20
326.98643826705421
 30
0.0
 11
566.55616221249034
 21
329.19587826705418
 31
0.0
  0
LINE
  5
5A43
  8
AM_0
 10
566.5561922124906
 20
329.19587826705418
 30
0.0
 11
561.97573221249036
 21
325.68119826705419
 31
0.0
  0
LINE
  5
5A44
  8
AM_0
 10
561.97573221249036
 20
325.68119826705419
 30
0.0
 11
562.72930221249067
 21
319.95707826705421
 31
0.0
  0
LINE
  5
5A45
  8
AM_0
 10
562.72930221249067
 20
319.95707826705421
 30
0.0
 11
568.06333221249065
 21
317.74763826705419
 31
0.0
  0
LINE
  5
5A46
  8
AM_0
 10
678.59866821249045
 20
321.26225826705428
 30
0.0
 11
683.17909821249043
 21
317.74757826705411
 31
0.0
  0
LINE
  5
5A47
  8
AM_0
 10
679.35224121249041
 20
326.98637826705431
 30
0.0
 11
678.59863821249041
 21
321.26225826705428
 31
0.0
  0
LINE
  5
5A48
  8
AM_0
 10
684.68628621249024
 20
329.19581826705411
 30
0.0
 11
679.35225621249037
 21
326.98640826705417
 31
0.0
  0
LINE
  5
5A49
  8
AM_0
 10
689.26671621249045
 20
325.68110826705419
 30
0.0
 11
684.68628621249024
 21
329.19578826705418
 31
0.0
  0
LINE
  5
5A4A
  8
AM_0
 10
683.17909821249043
 20
317.74760826705409
 30
0.0
 11
688.51312821249041
 21
319.95701826705431
 31
0.0
  0
LINE
  5
5A4B
  8
AM_0
 10
649.16802021249043
 20
214.3373292670542
 30
0.0
 11
648.41443521249039
 21
208.61322126705431
 31
0.0
  0
LINE
  5
5A4C
  8
AM_0
 10
648.41445021249035
 20
208.6132062670543
 30
0.0
 11
652.99487721249034
 21
205.0985292670542
 31
0.0
  0
LINE
  5
5A4D
  8
AM_0
 10
654.50208021249045
 20
216.5467542670541
 30
0.0
 11
649.16805021249036
 21
214.3373292670542
 31
0.0
  0
LINE
  5
5A4E
  8
AM_0
 10
659.08249521249024
 20
213.0320442670542
 30
0.0
 11
654.50206521249049
 21
216.54673926705411
 31
0.0
  0
LINE
  5
5A4F
  8
AM_0
 10
652.99487721249034
 20
205.09854426705411
 30
0.0
 11
658.32890721249044
 21
207.3079692670542
 31
0.0
  0
LINE
  5
5A50
  8
AM_0
 10
658.3288772124904
 20
207.3079542670543
 30
0.0
 11
659.08248021249051
 21
213.0320622670541
 31
0.0
  0
LINE
  5
5A51
  8
AM_0
 10
602.82794721249081
 20
208.61323626705411
 30
0.0
 11
602.07434421249047
 21
214.33734426705411
 31
0.0
  0
LINE
  5
5A52
  8
AM_0
 10
598.24750221249042
 20
205.09854426705411
 30
0.0
 11
602.82794721249081
 21
208.61322126705431
 31
0.0
  0
LINE
  5
5A53
  8
AM_0
 10
602.07437421249051
 20
214.33731426705421
 30
0.0
 11
596.74035921249026
 21
216.54673926705411
 31
0.0
  0
LINE
  5
5A54
  8
AM_0
 10
596.74032921249045
 20
216.5467542670541
 30
0.0
 11
592.15991421249043
 21
213.0320622670541
 31
0.0
  0
LINE
  5
5A55
  8
AM_0
 10
592.91351721249043
 20
207.30793926705411
 30
0.0
 11
598.24753221249046
 21
205.09851126705411
 31
0.0
  0
LINE
  5
5A56
  8
AM_0
 10
592.1598842124904
 20
213.03207726705409
 30
0.0
 11
592.91348721249051
 21
207.3079692670542
 31
0.0
  0
LINE
  5
5A57
  8
AM_0
 10
629.62117521249047
 20
313.72775826705413
 30
0.0
 11
629.62117521249047
 21
306.72776826705427
 31
0.0
  0
LINE
  5
5A58
  8
AM_0
 10
621.62118921249044
 20
313.72775826705413
 30
0.0
 11
621.62118921249044
 21
306.72776826705427
 31
0.0
  0
LINE
  5
5A59
  8
AM_0
 10
621.62118921249044
 20
313.72775826705413
 30
0.0
 11
629.62117521249047
 21
313.72775826705413
 31
0.0
  0
LINE
  5
5A5A
  8
AM_0
 10
621.62118921249044
 20
306.72776826705427
 30
0.0
 11
629.62117521249047
 21
306.72776826705427
 31
0.0
  0
LINE
  5
5A5B
  8
AM_0
 10
381.30033871952912
 20
313.72775826705413
 30
0.0
 11
413.30037871952879
 21
313.72775826705413
 31
0.0
  0
LINE
  5
5A5C
  8
AM_0
 10
318.30033871952912
 20
329.24528826705432
 30
0.0
 11
321.30033871952912
 21
329.24528826705432
 31
0.0
  0
LINE
  5
5A5D
  8
AM_0
 10
318.30033871952912
 20
317.6982582670542
 30
0.0
 11
321.30033871952912
 21
317.6982582670542
 31
0.0
  0
LINE
  5
5A5E
  8
AM_0
 10
318.30033871952912
 20
320.58500826705432
 30
0.0
 11
321.30033871952912
 21
320.58500826705432
 31
0.0
  0
LINE
  5
5A5F
  8
AM_0
 10
318.30033871952912
 20
326.35850826705428
 30
0.0
 11
321.30033871952912
 21
326.35850826705428
 31
0.0
  0
LINE
  5
5A60
  8
AM_0
 10
322.30032871952892
 20
318.6982182670543
 30
0.0
 11
322.30032871952892
 21
328.2452682670542
 31
0.0
  0
LINE
  5
5A61
  8
AM_0
 10
318.30033871952912
 20
330.24527826705418
 30
0.0
 11
318.30033871952912
 21
316.69826826705417
 31
0.0
  0
LINE
  5
5A62
  8
AM_0
 10
689.26665321249038
 20
325.68116826705432
 30
0.0
 11
688.51306821249057
 21
319.95707826705421
 31
0.0
  0
LINE
  5
5A63
  8
AM_0
 10
317.30040871952878
 20
330.24527826705418
 30
0.0
 11
318.30033871952912
 21
330.24527826705418
 31
0.0
  0
LINE
  5
5A64
  8
AM_0
 10
317.30040871952878
 20
316.69826826705417
 30
0.0
 11
318.30033871952912
 21
316.69826826705417
 31
0.0
  0
LINE
  5
5A65
  8
AM_0
 10
294.30033871952912
 20
328.39493826705421
 30
0.0
 11
294.30033871952912
 21
308.7558282670542
 31
0.0
  0
LINE
  5
5A66
  8
ﾁｭｳｼﾝｾﾝ
 10
126.90393858048169
 20
278.72777226705421
 30
0.0
 11
303.72628845075178
 21
278.72777226705421
 31
0.0
  0
LINE
  5
5A67
  8
AM_0
 10
268.30032871952892
 20
334.72778826705428
 30
0.0
 11
294.43125871952918
 21
335.41202826705421
 31
0.0
  0
LINE
  5
5A68
  8
AM_0
 10
268.30038871952911
 20
222.7277862670542
 30
0.0
 11
291.37887871952893
 21
222.12344526705411
 31
0.0
  0
LINE
  5
5A69
  8
AM_0
 10
268.30038871952911
 20
222.72777126705421
 30
0.0
 11
268.30038871952911
 21
334.72778826705428
 31
0.0
  0
LINE
  5
5A6A
  8
AM_0
 10
301.30038871952911
 20
349.72778826705422
 30
0.0
 11
306.30033871952912
 21
349.72778826705422
 31
0.0
  0
LINE
  5
5A6B
  8
AM_0
 10
299.30040871952878
 20
347.72777826705419
 30
0.0
 11
299.30040871952878
 21
332.39492826705418
 31
0.0
  0
LINE
  5
5A6C
  8
AM_0
 10
703.62119121249043
 20
215.7277842670542
 30
0.0
 11
692.85277521249043
 21
318.35795826705419
 31
0.0
  0
LINE
  5
5A6D
  8
AM_0
 10
671.62120521249039
 20
206.7277842670542
 30
0.0
 11
667.62119121249043
 21
206.7277842670542
 31
0.0
  0
LINE
  5
5A6E
  8
AM_0
 10
672.62119221249066
 20
204.7278012670541
 30
0.0
 11
578.62123221249044
 21
204.7278012670541
 31
0.0
  0
LINE
  5
5A6F
  8
AM_0
 10
583.62118821249044
 20
206.7277842670542
 30
0.0
 11
579.62118921249044
 21
206.7277842670542
 31
0.0
  0
LINE
  5
5A70
  8
AM_0
 10
664.62119121249043
 20
215.7277842670542
 30
0.0
 11
664.62119121249043
 21
209.7277842670542
 31
0.0
  0
LINE
  5
5A71
  8
AM_0
 10
673.62119121249043
 20
203.7277842670542
 30
0.0
 11
673.62119121249043
 21
213.7278012670543
 31
0.0
  0
LINE
  5
5A72
  8
ﾁｭｳｼﾝｾﾝ1
 10
560.62120221249052
 20
220.27324026705421
 30
0.0
 11
560.62120221249052
 21
199.1823282670542
 31
0.0
  0
LINE
  5
5A73
  8
ﾁｭｳｼﾝｾﾝ1
 10
690.6212072124905
 20
220.27324026705421
 30
0.0
 11
690.6212072124905
 21
199.1823282670542
 31
0.0
  0
LINE
  5
5A74
  8
AM_0
 10
591.62118921249044
 20
220.7277852670542
 30
0.0
 11
659.62120521249028
 21
220.7277852670542
 31
0.0
  0
LINE
  5
5A75
  8
ﾁｭｳｼﾝｾﾝ1
 10
359.30037871952902
 20
220.27324026705421
 30
0.0
 11
359.30037871952891
 21
200.2948676208897
 31
0.0
  0
LINE
  5
5A76
  8
AM_0
 10
277.30038871952911
 20
203.7277842670542
 30
0.0
 11
302.30040871952889
 21
203.7277842670542
 31
0.0
  0
LINE
  5
5A77
  8
AM_0
 10
279.30033871952912
 20
215.7277842670542
 30
0.0
 11
298.24974871952912
 21
215.7277842670542
 31
0.0
  0
LINE
  5
5A78
  8
AM_0
 10
346.30035871952919
 20
203.7277842670542
 30
0.0
 11
371.30037871952891
 21
203.7277842670542
 31
0.0
  0
LINE
  5
5A79
  8
ﾁｭｳｼﾝｾﾝ1
 10
289.30038871952911
 20
220.27324026705409
 30
0.0
 11
289.30038871952911
 21
200.2948676208897
 31
0.0
  0
LINE
  5
5A7A
  8
AM_0
 10
306.30033871952912
 20
349.72778826705422
 30
0.0
 11
306.30033871952912
 21
234.5849322670542
 31
0.0
  0
LINE
  5
5A7B
  8
AM_0
 10
306.30039871952908
 20
349.72778826705422
 30
0.0
 11
350.43126871952887
 21
348.57215826705408
 31
0.0
  0
LINE
  5
5A7C
  8
AM_0
 10
359.86458871952902
 20
332.46581826705432
 30
0.0
 11
365.56185871952903
 21
331.96736826705421
 31
0.0
  0
LINE
  5
5A7D
  8
AM_0
 10
368.30037871952891
 20
328.97876826705431
 30
0.0
 11
368.30037871952891
 21
219.4723392670542
 31
0.0
  0
LINE
  5
5A7E
  8
AM_0
 10
277.30038871952911
 20
213.72777126705421
 30
0.0
 11
277.30038871952911
 21
203.7277842670542
 31
0.0
  0
LINE
  5
5A7F
  8
AM_0
 10
303.30033871952912
 20
204.7277712670541
 30
0.0
 11
345.30033871952912
 21
204.7277712670541
 31
0.0
  0
LINE
  5
5A80
  8
AM_0
 10
371.30037871952891
 20
213.72777126705421
 30
0.0
 11
371.30037871952891
 21
203.7277842670542
 31
0.0
  0
LINE
  5
5A81
  8
AM_0
 10
309.30033871952912
 20
218.7277842670542
 30
0.0
 11
309.30033871952912
 21
248.7277872670542
 31
0.0
  0
LINE
  5
5A82
  8
ｶｸﾚｾﾝ2
 10
295.30038871952911
 20
215.7277842670542
 30
0.0
 11
295.30038871952911
 21
203.7277842670542
 31
0.0
  0
LINE
  5
5A83
  8
ｶｸﾚｾﾝ2
 10
283.30038871952911
 20
215.7277842670542
 30
0.0
 11
283.30038871952911
 21
203.7277842670542
 31
0.0
  0
LINE
  5
5A84
  8
ｶｸﾚｾﾝ2
 10
566.62123221249044
 20
215.7277842670542
 30
0.0
 11
566.62123221249044
 21
203.7277842670542
 31
0.0
  0
LINE
  5
5A85
  8
ｶｸﾚｾﾝ2
 10
554.62123221249044
 20
215.7277842670542
 30
0.0
 11
554.62123221249044
 21
203.7277842670542
 31
0.0
  0
LINE
  5
5A86
  8
AM_0
 10
547.62118221249045
 20
203.7277842670542
 30
0.0
 11
547.62118221249045
 21
215.7277842670542
 31
0.0
  0
LINE
  5
5A87
  8
AM_0
 10
547.62118221249045
 20
203.7277842670542
 30
0.0
 11
577.62118221249045
 21
203.7277842670542
 31
0.0
  0
LINE
  5
5A88
  8
AM_0
 10
575.62123221249044
 20
215.7277842670542
 30
0.0
 11
549.62119221249031
 21
215.7277842670542
 31
0.0
  0
LINE
  5
5A89
  8
AM_0
 10
309.30033871952912
 20
285.94405026705408
 30
0.0
 11
309.30033871952912
 21
249.2522472670542
 31
0.0
  0
LINE
  5
5A8A
  8
AM_0
 10
347.30037871952891
 20
215.7277842670542
 30
0.0
 11
369.30033871952912
 21
215.7277842670542
 31
0.0
  0
LINE
  5
5A8B
  8
AM_0
 10
298.24974871952912
 20
215.7277842670542
 30
0.0
 11
306.30033871952912
 21
215.7277842670542
 31
0.0
  0
LINE
  5
5A8C
  8
ｶｸﾚｾﾝ2
 10
365.30037871952891
 20
215.7277842670542
 30
0.0
 11
365.30037871952891
 21
203.7277842670542
 31
0.0
  0
LINE
  5
5A8D
  8
ｶｸﾚｾﾝ2
 10
684.62119221249066
 20
215.7277842670542
 30
0.0
 11
684.62119221249066
 21
203.7277842670542
 31
0.0
  0
LINE
  5
5A8E
  8
AM_0
 10
320.30040871952878
 20
330.2552382670541
 30
0.0
 11
355.30035871952919
 21
330.2552382670541
 31
0.0
  0
LINE
  5
5A8F
  8
ｶｸﾚｾﾝ2
 10
353.30037871952891
 20
215.7277842670542
 30
0.0
 11
353.30037871952891
 21
203.7277842670542
 31
0.0
  0
LINE
  5
5A90
  8
AM_0
 10
302.30040871952889
 20
203.7277842670542
 30
0.0
 11
302.30040871952889
 21
203.7277842670542
 31
0.0
  0
LINE
  5
5A91
  8
AM_0
 10
342.30033871952912
 20
308.51858826705421
 30
0.0
 11
342.30033871952912
 21
220.7277852670542
 31
0.0
  0
LINE
  5
5A92
  8
AM_0
 10
547.62118221249045
 20
215.7277842670542
 30
0.0
 11
558.38962221249039
 21
318.35795826705419
 31
0.0
  0
LINE
  5
5A93
  8
AM_0
 10
355.30035871952919
 20
343.5738882670542
 30
0.0
 11
355.30035871952919
 21
234.76858926705421
 31
0.0
  0
LINE
  5
5A94
  8
ｶｸﾚｾﾝ2
 10
696.62120721249039
 20
215.7277842670542
 30
0.0
 11
696.62120721249039
 21
203.7277842670542
 31
0.0
  0
LINE
  5
5A95
  8
AM_0
 10
703.62119121249043
 20
203.7277842670542
 30
0.0
 11
673.62119121249043
 21
203.7277842670542
 31
0.0
  0
LINE
  5
5A96
  8
AM_0
 10
675.62119221249066
 20
215.7277842670542
 30
0.0
 11
701.6212082124905
 21
215.7277842670542
 31
0.0
  0
LINE
  5
5A97
  8
AM_0
 10
342.30033871952912
 20
230.76860226705409
 30
0.0
 11
351.30033871952912
 21
230.76860226705409
 31
0.0
  0
LINE
  5
5A98
  8
AM_0
 10
586.62118821249044
 20
215.7277842670542
 30
0.0
 11
586.62118821249044
 21
209.7277842670542
 31
0.0
  0
LINE
  5
5A99
  8
AM_0
 10
577.62118221249045
 20
203.7277842670542
 30
0.0
 11
577.62118221249045
 21
213.7278012670543
 31
0.0
  0
LINE
  5
5A9A
  8
AM_0
 10
678.62119221249066
 20
313.98032826705418
 30
0.0
 11
678.62119221249066
 21
252.7277712670541
 31
0.0
  0
LINE
  5
5A9B
  8
AM_0
 10
703.62119121249043
 20
203.7277842670542
 30
0.0
 11
703.62119121249043
 21
215.7277842670542
 31
0.0
  0
LINE
  5
5A9C
  8
AM_0
 10
350.30037871952891
 20
316.51856826705421
 30
0.0
 11
355.30035871952919
 21
316.51856826705421
 31
0.0
  0
LINE
  5
5A9D
  8
AM_0
 10
572.62123221249044
 20
313.98032826705418
 30
0.0
 11
572.62123221249044
 21
252.7277712670541
 31
0.0
  0
LINE
  5
5A9E
  8
AM_0
 10
577.62118221249045
 20
283.72777326705432
 30
0.0
 11
577.62118221249045
 21
220.7277852670542
 31
0.0
  0
LINE
  5
5A9F
  8
AM_0
 10
673.62119121249043
 20
283.72777326705432
 30
0.0
 11
673.62119121249043
 21
220.7277852670542
 31
0.0
  0
LINE
  5
5AA0
  8
AM_0
 10
346.30035871952919
 20
203.7277842670542
 30
0.0
 11
346.30035871952919
 21
203.7277842670542
 31
0.0
  0
LINE
  5
5AA1
  8
AM_0
 10
303.14091871952883
 20
219.6902652670542
 30
0.0
 11
309.19149871952908
 21
248.21472426705421
 31
0.0
  0
LINE
  5
5AA2
  8
AM_0
 10
317.30040871952878
 20
335.25455826705428
 30
0.0
 11
317.30040871952878
 21
312.3525282670542
 31
0.0
  0
LINE
  5
5AA3
  8
AM_0
 10
320.30040871952878
 20
349.2826182670542
 30
0.0
 11
320.30040871952878
 21
330.2552382670541
 31
0.0
  0
LINE
  5
5AA4
  8
AM_0
 10
320.30034871952893
 20
349.2826182670542
 30
0.0
 11
333.88230871952908
 21
330.2552382670541
 31
0.0
  0
LINE
  5
5AA5
  8
AM_0
 10
320.30040871952878
 20
312.07649826705421
 30
0.0
 11
320.30040871952878
 21
285.94405026705408
 31
0.0
  0
LINE
  5
5AA6
  8
AM_0
 10
333.12999871952911
 20
312.07649826705421
 30
0.0
 11
320.30034871952893
 21
285.94405026705408
 31
0.0
  0
LINE
  5
5AA7
  8
AM_0
 10
309.30033871952912
 20
285.94405026705408
 30
0.0
 11
320.30040871952878
 21
285.94405026705408
 31
0.0
  0
LINE
  5
5AA8
  8
AM_0
 10
320.30040871952878
 20
312.07649826705421
 30
0.0
 11
343.13508871952888
 21
312.07649826705421
 31
0.0
  0
LINE
  5
5AA9
  8
AM_0
 10
296.30040871952878
 20
330.39491826705421
 30
0.0
 11
297.30033871952912
 21
330.39491826705421
 31
0.0
  0
LINE
  5
5AAA
  8
AM_0
 10
294.30033871952912
 20
229.51204326705431
 30
0.0
 11
299.30040871952878
 21
229.51204326705431
 31
0.0
  0
LINE
  5
5AAB
  8
AM_0
 10
294.30033871952912
 20
306.75581826705428
 30
0.0
 11
299.30040871952878
 21
306.75581826705428
 31
0.0
  0
LINE
  5
5AAC
  8
AM_0
 10
296.30040871952878
 20
322.22213826705428
 30
0.0
 11
297.30033871952912
 21
322.22213826705428
 31
0.0
  0
LINE
  5
5AAD
  8
AM_0
 10
299.30040871952878
 20
320.2221282670543
 30
0.0
 11
299.30040871952878
 21
215.8576992670541
 31
0.0
  0
LINE
  5
5AAE
  8
AM_0
 10
294.30033871952912
 20
227.51202726705421
 30
0.0
 11
294.30033871952912
 21
215.7277842670542
 31
0.0
  0
LINE
  5
5AAF
  8
AM_0
 10
268.30038871952911
 20
324.72776826705427
 30
0.0
 11
294.30033871952912
 21
324.72776826705427
 31
0.0
  0
LINE
  5
5AB0
  8
AM_0
 10
268.30038871952911
 20
310.66478826705418
 30
0.0
 11
294.30033871952912
 21
310.66478826705418
 31
0.0
  0
LINE
  5
5AB1
  8
AM_0
 10
268.30038871952911
 20
246.7907592670542
 30
0.0
 11
299.30040871952878
 21
246.7907592670542
 31
0.0
  0
LINE
  5
5AB2
  8
AM_0
 10
268.30038871952911
 20
232.7277852670542
 30
0.0
 11
299.30040871952878
 21
232.7277852670542
 31
0.0
  0
LINE
  5
5AB3
  8
ﾁｭｳｼﾝｾﾝ
 10
699.79558131041961
 20
278.72777226705421
 30
0.0
 11
507.60645106913751
 21
278.72777226705421
 31
0.0
  0
CIRCLE
  5
5AB4
  8
AM_0
 10
567.3097322124903
 20
323.47175826705438
 30
0.0
 40
4.9999998000000003
  0
CIRCLE
  5
5AB5
  8
AM_0
 10
683.93266821249051
 20
323.47169826705419
 30
0.0
 40
4.9999998000000003
  0
CIRCLE
  5
5AB6
  8
AM_0
 10
653.74843221249046
 20
210.8226492670542
 30
0.0
 40
4.9999998000000003
  0
CIRCLE
  5
5AB7
  8
AM_0
 10
597.49389921249042
 20
210.8226492670542
 30
0.0
 40
4.9999998000000003
  0
ARC
  5
5AB8
  8
AM_0
 10
625.62119121249043
 20
298.72777326705432
 30
0.0
 40
12.0000003
 50
109.4712200000001
 51
70.528788999999307
  0
ARC
  5
5AB9
  8
AM_0
 10
321.30033871952912
 20
321.58496826705419
 30
0.0
 40
1.0000000199999981
 50
270.0
 51
0.0
  0
ARC
  5
5ABA
  8
AM_0
 10
321.30033871952912
 20
325.35851826705419
 30
0.0
 40
1.0000000199999981
 50
0.0
 51
90.00000299999769
  0
ARC
  5
5ABB
  8
AM_0
 10
321.30033871952912
 20
327.35849826705419
 30
0.0
 40
1.0000000199999981
 50
270.0
 51
0.0
  0
ARC
  5
5ABC
  8
AM_0
 10
321.30033871952912
 20
319.58501826705418
 30
0.0
 40
1.0000000199999981
 50
0.0
 51
90.00000299999769
  0
ARC
  5
5ABD
  8
AM_0
 10
321.30033871952912
 20
318.6982182670543
 30
0.0
 40
1.0000000199999981
 50
270.0
 51
0.0
  0
ARC
  5
5ABE
  8
AM_0
 10
321.30033871952912
 20
328.2452682670542
 30
0.0
 40
1.0000000199999981
 50
0.0
 51
90.00000299999769
  0
CIRCLE
  5
5ABF
  8
AM_0
 62
     2
 10
625.62119121249043
 20
298.72777326705432
 30
0.0
 40
4.0000001999999979
  0
CIRCLE
  5
5AC0
  8
AM_0
 10
625.62119121249043
 20
298.72777326705432
 30
0.0
 40
3.0
  0
ARC
  5
5AC1
  8
AM_0
 10
294.30033871952912
 20
340.4103282670543
 30
0.0
 40
5.0000001000000003
 50
271.50000000000267
 51
0.0
  0
ARC
  5
5AC2
  8
AM_0
 10
301.30038871952911
 20
347.72777826705419
 30
0.0
 40
2.00000007
 50
90.00000299999769
 51
180.00001000000091
  0
ARC
  5
5AC3
  8
AM_0
 10
291.30033871952912
 20
219.1244682670542
 30
0.0
 40
3.0
 50
0.0
 51
88.499997000000747
  0
ARC
  5
5AC4
  8
AM_0
 10
686.20932621249051
 20
309.5997582670542
 30
0.0
 40
3.0
 50
27.00057300000061
 51
84.294261000002294
  0
ARC
  5
5AC5
  8
AM_0
 10
365.30037871952891
 20
328.97876826705431
 30
0.0
 40
3.0
 50
0.0
 51
84.999996999998729
  0
ARC
  5
5AC6
  8
AM_0
 10
360.30033871952912
 20
337.44677826705413
 30
0.0
 40
5.0000001000000003
 50
179.999989999999
 51
265.00000000000028
  0
ARC
  5
5AC7
  8
AM_0
 10
565.03306221249045
 20
309.5997582670542
 30
0.0
 40
3.0
 50
95.705737999999002
 51
152.99941999999629
  0
ARC
  5
5AC8
  8
AM_0
 10
572.62123221249044
 20
220.7277852670542
 30
0.0
 40
5.0000001000000003
 50
270.0
 51
0.0
  0
ARC
  5
5AC9
  8
AM_0
 10
577.62118221249045
 20
313.98032826705418
 30
0.0
 40
5.0000001000000003
 50
138.71940999999791
 51
180.00001000000091
  0
ARC
  5
5ACA
  8
AM_0
 10
580.11975321249042
 20
329.26112826705418
 30
0.0
 40
3.0
 50
132.0006499999993
 51
189.2943400000016
  0
ARC
  5
5ACB
  8
AM_0
 10
673.62119121249043
 20
313.98032826705418
 30
0.0
 40
5.0000001000000003
 50
0.0
 51
41.280591000002673
  0
ARC
  5
5ACC
  8
AM_0
 10
672.62119221249066
 20
203.7277842670542
 30
0.0
 40
1.0000000199999981
 50
0.0
 51
90.00000299999769
  0
ARC
  5
5ACD
  8
AM_0
 10
578.62123221249044
 20
203.7277842670542
 30
0.0
 40
1.0000000199999981
 50
90.00000299999769
 51
180.00001000000091
  0
ARC
  5
5ACE
  8
AM_0
 10
583.62118821249044
 20
209.7277842670542
 30
0.0
 40
3.0
 50
270.0
 51
0.0
  0
ARC
  5
5ACF
  8
AM_0
 10
579.62118921249044
 20
204.7278012670541
 30
0.0
 40
2.00000007
 50
90.00000299999769
 51
180.00001000000091
  0
ARC
  5
5AD0
  8
AM_0
 10
670.68843621249027
 20
334.56419826705428
 30
0.0
 40
5.0000001000000003
 50
334.93703000000249
 51
64.582444000001288
  0
ARC
  5
5AD1
  8
AM_0
 10
318.30033871952912
 20
335.25455826705428
 30
0.0
 40
1.0000000199999981
 50
90.00000299999769
 51
180.00001000000091
  0
ARC
  5
5AD2
  8
AM_0
 10
345.30033871952912
 20
203.7277842670542
 30
0.0
 40
1.0000000199999981
 50
0.0
 51
90.00000299999769
  0
ARC
  5
5AD3
  8
AM_0
 10
304.30038871952911
 20
249.2522472670542
 30
0.0
 40
5.0000001000000003
 50
348.0238700000001
 51
0.0
  0
ARC
  5
5AD4
  8
AM_0
 10
625.62119121249043
 20
278.72777226705421
 30
0.0
 40
71.000000999999983
 50
5.9898141999996781
 51
27.00057300000061
  0
ARC
  5
5AD5
  8
AM_0
 10
549.62119221249031
 20
213.7278012670543
 30
0.0
 40
2.00000007
 50
90.00000299999769
 51
180.00001000000091
  0
ARC
  5
5AD6
  8
AM_0
 10
306.30033871952912
 20
218.7277842670542
 30
0.0
 40
3.0
 50
270.0
 51
0.0
  0
ARC
  5
5AD7
  8
AM_0
 10
625.62119121249043
 20
283.72777326705432
 30
0.0
 40
48.0
 50
0.0
 51
77.663515021265255
  0
ARC
  5
5AD8
  8
AM_0
 10
625.62119121249043
 20
283.72777326705432
 30
0.0
 40
48.0
 50
102.3364849787347
 51
180.00001000000091
  0
ARC
  5
5AD9
  8
AM_0
 10
351.30033871952912
 20
234.76858926705421
 30
0.0
 40
4.0000001999999979
 50
270.0
 51
0.0
  0
ARC
  5
5ADA
  8
AM_0
 10
563.34292221249029
 20
326.51552826705398
 30
0.0
 40
13.9999986
 50
266.80063999999902
 51
25.06296899999742
  0
ARC
  5
5ADB
  8
AM_0
 10
678.62119221249066
 20
220.7277852670542
 30
0.0
 40
5.0000001000000003
 50
179.999989999999
 51
270.0
  0
ARC
  5
5ADC
  8
AM_0
 10
667.62119121249043
 20
209.7277842670542
 30
0.0
 40
3.0
 50
179.999989999999
 51
270.0
  0
ARC
  5
5ADD
  8
AM_0
 10
350.30037871952891
 20
343.5738882670542
 30
0.0
 40
5.0000001000000003
 50
0.0
 51
88.499997000000747
  0
ARC
  5
5ADE
  8
AM_0
 10
373.30035871952919
 20
219.4723392670542
 30
0.0
 40
5.0000001000000003
 50
179.999989999999
 51
235.15011000000041
  0
ARC
  5
5ADF
  8
AM_0
 10
369.30033871952912
 20
213.72777126705421
 30
0.0
 40
2.00000007
 50
0.0
 51
90.00000299999769
  0
ARC
  5
5AE0
  8
AM_0
 10
279.30033871952912
 20
213.72777126705421
 30
0.0
 40
2.00000007
 50
90.00000299999769
 51
180.00001000000091
  0
ARC
  5
5AE1
  8
AM_0
 10
303.30033871952912
 20
203.7277842670542
 30
0.0
 40
1.0000000199999981
 50
90.00000299999769
 51
180.00001000000091
  0
ARC
  5
5AE2
  8
AM_0
 10
575.62123221249044
 20
213.7278012670543
 30
0.0
 40
2.00000007
 50
0.0
 51
90.00000299999769
  0
ARC
  5
5AE3
  8
AM_0
 10
687.89946621249021
 20
326.51552826705398
 30
0.0
 40
13.9999986
 50
154.9370400000038
 51
273.19937000000078
  0
ARC
  5
5AE4
  8
AM_0
 10
347.30037871952891
 20
220.7277852670542
 30
0.0
 40
5.0000001000000003
 50
180.00001000000091
 51
270.0
  0
ARC
  5
5AE5
  8
AM_0
 10
701.6212082124905
 20
213.7278012670543
 30
0.0
 40
2.00000007
 50
0.0
 51
90.00000299999769
  0
ARC
  5
5AE6
  8
AM_0
 10
591.62118921249044
 20
215.7277842670542
 30
0.0
 40
5.0000001000000003
 50
90.00000299999769
 51
180.00001000000091
  0
ARC
  5
5AE7
  8
AM_0
 10
625.62119121249043
 20
278.72777226705421
 30
0.0
 40
71.000000999999983
 50
47.99935899999911
 51
132.0006499999993
  0
ARC
  5
5AE8
  8
AM_0
 10
675.62119221249066
 20
213.7278012670543
 30
0.0
 40
2.00000007
 50
90.00000299999769
 51
180.00001000000091
  0
ARC
  5
5AE9
  8
AM_0
 10
659.62120521249028
 20
215.7277842670542
 30
0.0
 40
5.0000001000000003
 50
0.0
 51
90.00000299999769
  0
ARC
  5
5AEA
  8
AM_0
 10
625.62119121249043
 20
278.72777226705421
 30
0.0
 40
71.000000999999983
 50
152.99941999999629
 51
174.01019000000019
  0
ARC
  5
5AEB
  8
AM_0
 10
350.30037871952891
 20
308.51858826705421
 30
0.0
 40
8.0000000999999976
 50
90.00000299999769
 51
180.00001000000091
  0
ARC
  5
5AEC
  8
AM_0
 10
298.24974871952912
 20
220.7277852670542
 30
0.0
 40
5.0000001000000003
 50
270.0
 51
348.0238700000001
  0
ARC
  5
5AED
  8
AM_0
 10
606.62118921249044
 20
252.7277712670541
 30
0.0
 40
34.000002000000002
 50
179.999989999999
 51
211.4669699999952
  0
ARC
  5
5AEE
  8
AM_0
 10
688.95986121249018
 20
307.54511826705431
 30
0.0
 40
5.0000001000000003
 50
5.9898155000032931
 51
93.199358999997784
  0
ARC
  5
5AEF
  8
AM_0
 10
671.62120521249039
 20
204.7278012670541
 30
0.0
 40
2.00000007
 50
0.0
 51
90.00000299999769
  0
ARC
  5
5AF0
  8
AM_0
 10
644.62120521249051
 20
252.7277712670541
 30
0.0
 40
34.000002000000002
 50
328.53301999999962
 51
0.0
  0
ARC
  5
5AF1
  8
AM_0
 10
370.30035871952919
 20
328.1145282670542
 30
0.0
 40
2.00000007
 50
179.999989999999
 51
240.00000999999969
  0
ARC
  5
5AF2
  8
AM_0
 10
370.30035871952919
 20
269.3410212670542
 30
0.0
 40
2.00000007
 50
120.0000000000005
 51
180.00001000000091
  0
ARC
  5
5AF3
  8
AM_0
 10
578.28043221249038
 20
316.27091826705441
 30
0.0
 40
20.000000700000001
 50
121.736169999997
 51
174.01019000000019
  0
ARC
  5
5AF4
  8
AM_0
 10
672.96196521249044
 20
316.27091826705441
 30
0.0
 40
20.000000700000001
 50
5.9898155000032931
 51
58.263836000000381
  0
ARC
  5
5AF5
  8
AM_0
 10
580.55395821249044
 20
334.56419826705428
 30
0.0
 40
5.0000001000000003
 50
115.4175599999972
 51
205.06296999999751
  0
ARC
  5
5AF6
  8
AM_0
 10
625.62119121249043
 20
239.7277872670542
 30
0.0
 40
110.000004
 50
58.263836000000381
 51
121.736169999997
  0
ARC
  5
5AF7
  8
AM_0
 10
671.12265621249026
 20
329.26112826705418
 30
0.0
 40
3.0
 50
350.70566999999772
 51
47.99935899999911
  0
ARC
  5
5AF8
  8
AM_0
 10
562.28254221249017
 20
307.54511826705431
 30
0.0
 40
5.0000001000000003
 50
86.800639000002292
 51
174.01019000000019
  0
ARC
  5
5AF9
  8
AM_0
 10
318.30033871952912
 20
312.3525282670542
 30
0.0
 40
1.0000000199999981
 50
179.999989999999
 51
270.0
  0
ARC
  5
5AFA
  8
AM_0
 10
318.30033871952912
 20
309.35252826705431
 30
0.0
 40
2.00000007
 50
0.0
 51
90.00000299999769
  0
ARC
  5
5AFB
  8
AM_0
 10
318.30033871952912
 20
338.25455826705428
 30
0.0
 40
2.00000007
 50
270.0
 51
0.0
  0
ARC
  5
5AFC
  8
AM_0
 10
296.30040871952878
 20
328.39493826705421
 30
0.0
 40
2.00000007
 50
90.00000299999769
 51
180.00001000000091
  0
ARC
  5
5AFD
  8
AM_0
 10
297.30033871952912
 20
332.39492826705418
 30
0.0
 40
2.00000007
 50
270.0
 51
0.0
  0
ARC
  5
5AFE
  8
AM_0
 10
296.30040871952878
 20
324.22211826705421
 30
0.0
 40
2.00000007
 50
179.999989999999
 51
270.0
  0
ARC
  5
5AFF
  8
AM_0
 10
297.30033871952912
 20
320.2221282670543
 30
0.0
 40
2.00000007
 50
0.0
 51
90.00000299999769
  0
ARC
  5
5B00
  8
AM_0
 10
292.30038871952911
 20
308.7558282670542
 30
0.0
 40
2.00000007
 50
270.0
 51
0.0
  0
ARC
  5
5B01
  8
AM_0
 10
292.30038871952911
 20
227.51202726705421
 30
0.0
 40
2.00000007
 50
0.0
 51
90.00000299999769
  0
LINE
  5
5B02
  8
AM_0
 10
374.30032871952881
 20
332.2277702670541
 30
0.0
 11
379.30032871952881
 21
327.22777026705432
 31
0.0
  0
LINE
  5
5B03
  8
AM_0
 10
369.80032871952892
 20
332.2277702670541
 30
0.0
 11
374.30032871952892
 21
332.2277702670541
 31
0.0
  0
LINE
  5
5B04
  8
AM_0
 10
369.30032871952892
 20
331.72777026705421
 30
0.0
 11
369.30032871952841
 21
265.72777026705472
 31
0.0
  0
LINE
  5
5B05
  8
AM_0
 10
379.30032871952881
 20
327.22777026705432
 30
0.0
 11
379.30032871952892
 21
270.22777026705432
 31
0.0
  0
LINE
  5
5B06
  8
AM_0
 10
369.80032871952892
 20
265.2277702670541
 30
0.0
 11
374.30032871952881
 21
265.2277702670541
 31
0.0
  0
LINE
  5
5B07
  8
AM_0
 10
374.30032871952881
 20
265.2277702670541
 30
0.0
 11
379.30032871952881
 21
270.22777026705432
 31
0.0
  0
LINE
  5
5B08
  8
AM_0
 10
369.80032871952892
 20
332.2277702670541
 30
0.0
 11
369.30032871952892
 21
331.72777026705421
 31
0.0
1001
GENIUS_GENFIL_13
1070
     0
1040
0.5
1040
0.5
1040
20.0
1040
0.0
1002
{
1002
}
1001
GENIUS_GENOBJ-N-CHA_13
1002
{
1000
OWNER
1000
GEN
1002
}
1001
GENIUS_GENODEF_13
1002
{
1000
HIER
1070
     0
1002
}
1002
{
1000
MANEDIT
1070
     0
1002
}
1002
{
1000
NOSEL
1070
     0
1002
}
1002
{
1000
BEHIND
1070
     0
1002
}
1002
{
1000
OTHER
1070
     0
1002
}
1002
{
1000
REACTOR
1002
}
  0
LINE
  5
5B09
  8
AM_0
 10
369.30032871952892
 20
265.7277702670541
 30
0.0
 11
369.80032871952892
 21
265.2277702670541
 31
0.0
1001
GENIUS_GENFIL_13
1070
     0
1040
0.5
1040
0.5
1040
20.0
1040
0.0
1002
{
1002
}
1001
GENIUS_GENOBJ-N-CHA_13
1002
{
1000
OWNER
1000
GEN
1002
}
1001
GENIUS_GENODEF_13
1002
{
1000
HIER
1070
     0
1002
}
1002
{
1000
MANEDIT
1070
     0
1002
}
1002
{
1000
NOSEL
1070
     0
1002
}
1002
{
1000
BEHIND
1070
     0
1002
}
1002
{
1000
OTHER
1070
     0
1002
}
1002
{
1000
REACTOR
1002
}
  0
LINE
  5
5B0A
  8
AM_0
 10
374.30032871952892
 20
332.2277702670541
 30
0.0
 11
374.30032871952881
 21
265.2277702670541
 31
0.0
  0
CIRCLE
  5
5B0B
  8
AM_0
 10
625.62119121249043
 20
298.72777326705432
 30
0.0
 40
33.499999999999893
  0
CIRCLE
  5
5B0C
  8
AM_0
 10
625.62119121249043
 20
298.72777326705432
 30
0.0
 40
28.49999999999994
  0
LINE
  5
5B0D
  8
ﾁｭｳｼﾝｾﾝ
 10
132.9508887195289
 20
550.76417910961186
 30
0.0
 11
415.49147871952903
 21
550.76417910961186
 31
0.0
  0
LINE
  5
5B0E
  8
AM_0
 10
317.30037871952891
 20
500.69694910961192
 30
0.0
 11
317.30037871952891
 21
480.05222910961197
 31
0.0
  0
LINE
  5
5B0F
  8
AM_0
 10
318.30037871952908
 20
499.2262391096121
 30
0.0
 11
318.30037871952908
 21
485.67918910961191
 31
0.0
  0
LINE
  5
5B10
  8
AM_0
 10
317.30037871952891
 20
485.67918910961191
 30
0.0
 11
318.30037871952908
 21
485.67918910961191
 31
0.0
  0
LINE
  5
5B11
  8
AM_0
 10
317.30037871952891
 20
499.2262391096121
 30
0.0
 11
318.30037871952908
 21
499.2262391096121
 31
0.0
  0
LINE
  5
5B12
  8
AM_0
 10
322.30034871952893
 20
487.67918910961191
 30
0.0
 11
322.30034871952893
 21
497.226209109612
 31
0.0
  0
LINE
  5
5B13
  8
AM_0
 10
318.30037871952908
 20
495.33945910961188
 30
0.0
 11
321.30037871952891
 21
495.33945910961188
 31
0.0
  0
LINE
  5
5B14
  8
AM_0
 10
318.30037871952908
 20
489.56595910961181
 30
0.0
 11
321.30037871952891
 21
489.56595910961181
 31
0.0
  0
LINE
  5
5B15
  8
AM_0
 10
318.30037871952908
 20
486.67918910961191
 30
0.0
 11
321.30037871952891
 21
486.67918910961191
 31
0.0
  0
LINE
  5
5B16
  8
AM_0
 10
318.30037871952908
 20
498.22623910961198
 30
0.0
 11
321.30037871952891
 21
498.22623910961198
 31
0.0
  0
LINE
  5
5B17
  8
AM_0
 10
413.30037871952879
 20
562.76417910961186
 30
0.0
 11
413.30037871952879
 21
538.76417910961209
 31
0.0
  0
LINE
  5
5B18
  8
AM_0
 10
379.30032871952881
 20
562.76417910961186
 30
0.0
 11
413.30037871952879
 21
562.76417910961186
 31
0.0
  0
LINE
  5
5B19
  8
AM_0
 10
379.30032871952881
 20
538.76417910961186
 30
0.0
 11
413.30037871952879
 21
538.76417910961209
 31
0.0
  0
LINE
  5
5B1A
  8
AM_0
 10
381.30037871952891
 20
554.76414910961205
 30
0.0
 11
381.30037871952891
 21
546.76417910961186
 31
0.0
  0
LINE
  5
5B1B
  8
AM_0
 10
277.30037871952891
 20
625.97791910961212
 30
0.0
 11
277.30037871952891
 21
606.99985910961209
 31
0.0
  0
LINE
  5
5B1C
  8
AM_0
 10
371.30037871952891
 20
625.19233910961213
 30
0.0
 11
371.30037871952891
 21
602.33600910961218
 31
0.0
  0
LINE
  5
5B1D
  8
AM_0
 10
309.30040871952912
 20
628.76417910961186
 30
0.0
 11
369.35273871952899
 21
627.19163910961186
 31
0.0
  0
LINE
  5
5B1E
  8
AM_0
 10
279.24803871952889
 20
627.9772491096121
 30
0.0
 11
309.30037871952919
 21
628.7642091096119
 31
0.0
  0
LINE
  5
5B1F
  8
AM_0
 10
306.30037871952891
 20
621.76417910961186
 30
0.0
 11
306.30037871952891
 21
479.76417910961192
 31
0.0
  0
LINE
  5
5B20
  8
AM_0
 10
368.30037871952891
 20
600.30912910961194
 30
0.0
 11
368.30037871952891
 21
501.21921910961203
 31
0.0
  0
LINE
  5
5B21
  8
AM_0
 10
368.30040871952889
 20
600.30912910961194
 30
0.0
 11
369.35273871952899
 21
600.33668910961205
 31
0.0
  0
LINE
  5
5B22
  8
AM_0
 10
371.30037871952891
 20
476.33600910961189
 30
0.0
 11
371.30037871952891
 21
499.19233910961208
 31
0.0
  0
LINE
  5
5B23
  8
AM_0
 10
277.30037871952891
 20
475.55045910961201
 30
0.0
 11
277.30037871952891
 21
494.528489109612
 31
0.0
  0
LINE
  5
5B24
  8
AM_0
 10
309.30040871952912
 20
472.76417910961197
 30
0.0
 11
369.35273871952899
 21
474.336689109612
 31
0.0
  0
LINE
  5
5B25
  8
AM_0
 10
279.24803871952889
 20
473.55112910961219
 30
0.0
 11
309.30037871952919
 21
472.76417910961197
 31
0.0
  0
LINE
  5
5B26
  8
AM_0
 10
309.30037871952919
 20
624.90821910961176
 30
0.0
 11
302.30037871952891
 21
628.5808891096118
 31
0.0
  0
LINE
  5
5B27
  8
AM_0
 10
306.70338871952907
 20
621.75364910961207
 30
0.0
 11
302.30040871952889
 21
624.06373910961213
 31
0.0
  0
LINE
  5
5B28
  8
AM_0
 10
302.30037871952891
 20
628.58085910961199
 30
0.0
 11
302.30037871952891
 21
624.06376910961217
 31
0.0
  0
LINE
  5
5B29
  8
AM_0
 10
369.35270871952889
 20
501.19163910961203
 30
0.0
 11
368.30037871952891
 21
501.21918910961199
 31
0.0
  0
LINE
  5
5B2A
  8
AM_0
 10
381.30037871952891
 20
546.76417910961186
 30
0.0
 11
413.30037871952879
 21
546.76417910961186
 31
0.0
  0
LINE
  5
5B2B
  8
AM_0
 10
381.30037871952891
 20
554.76414910961205
 30
0.0
 11
413.30037871952879
 21
554.76414910961205
 31
0.0
  0
LINE
  5
5B2C
  8
AM_0
 10
355.30040871952889
 20
500.51316910961202
 30
0.0
 11
355.30040871952889
 21
601.01517910961195
 31
0.0
  0
LINE
  5
5B2D
  8
AM_0
 10
363.73616871952891
 20
599.16349910961208
 30
0.0
 11
359.03865871952911
 21
599.57447910961207
 31
0.0
  0
LINE
  5
5B2E
  8
AM_0
 10
363.73616871952891
 20
502.36487910961188
 30
0.0
 11
359.03865871952911
 21
501.953899109612
 31
0.0
  0
LINE
  5
5B2F
  8
AM_0
 10
352.56187871952892
 20
497.52457910961198
 30
0.0
 11
346.86458871952891
 21
497.02613910961202
 31
0.0
  0
LINE
  5
5B30
  8
AM_0
 10
342.30037871952891
 20
478.76096910961201
 30
0.0
 11
342.30037871952891
 21
492.04514910961211
 31
0.0
  0
LINE
  5
5B31
  8
AM_0
 10
309.30037871952919
 20
621.68561910961205
 30
0.0
 11
309.30037871952919
 21
624.90818910961184
 31
0.0
  0
LINE
  5
5B32
  8
AM_0
 10
302.30037871952891
 20
472.9474991096119
 30
0.0
 11
302.30037871952891
 21
477.46458910961201
 31
0.0
  0
LINE
  5
5B33
  8
AM_0
 10
306.70338871952907
 20
479.77473910961203
 30
0.0
 11
302.30037871952891
 21
477.46461910961187
 31
0.0
  0
LINE
  5
5B34
  8
AM_0
 10
309.30037871952919
 20
476.6201591096119
 30
0.0
 11
302.30037871952891
 21
472.9474991096119
 31
0.0
  0
LINE
  5
5B35
  8
AM_0
 10
309.30037871952919
 20
479.84272910961181
 30
0.0
 11
309.30037871952919
 21
476.6201591096119
 31
0.0
  0
LINE
  5
5B36
  8
AM_0
 10
319.036248719529
 20
480.09766910961213
 30
0.0
 11
306.30040871952889
 21
479.76417910961192
 31
0.0
  0
LINE
  5
5B37
  8
AM_0
 10
319.0362187195289
 20
621.43067910961179
 30
0.0
 11
306.30040871952889
 21
621.76417910961186
 31
0.0
  0
LINE
  5
5B38
  8
AM_0
 10
317.30037871952891
 20
500.69694910961192
 30
0.0
 11
320.30037871952891
 21
500.69694910961192
 31
0.0
  0
LINE
  5
5B39
  8
AM_0
 10
320.300408719529
 20
500.69694910961192
 30
0.0
 11
320.300408719529
 21
600.83140910961185
 31
0.0
  0
LINE
  5
5B3A
  8
AM_0
 10
320.300408719529
 20
500.696919109612
 30
0.0
 11
333.8823787195289
 21
503.255299109612
 31
0.0
  0
LINE
  5
5B3B
  8
AM_0
 10
321.39680871952908
 20
480.76090910961199
 30
0.0
 11
332.03358871952912
 21
486.87412910961189
 31
0.0
  0
LINE
  5
5B3C
  8
AM_0
 10
342.30037871952891
 20
609.48316910961205
 30
0.0
 11
342.30037871952891
 21
622.76737910961185
 31
0.0
  0
LINE
  5
5B3D
  8
AM_0
 10
352.3789587195289
 20
503.73963910961203
 30
0.0
 11
333.8823787195289
 21
503.255299109612
 31
0.0
  0
LINE
  5
5B3E
  8
AM_0
 10
339.37892871952891
 20
487.66788910961219
 30
0.0
 11
334.39418871952893
 21
487.53733910961199
 31
0.0
  0
LINE
  5
5B3F
  8
AM_0
 10
352.56187871952892
 20
604.00373910961196
 30
0.0
 11
346.86461871952889
 21
604.50220910961207
 31
0.0
  0
LINE
  5
5B40
  8
AM_0
 10
321.39680871952908
 20
620.76740910961189
 30
0.0
 11
332.03355871952908
 21
614.65421910961209
 31
0.0
  0
LINE
  5
5B41
  8
AM_0
 10
320.300408719529
 20
600.83140910961185
 30
0.0
 11
333.8823787195289
 21
598.27302910961203
 31
0.0
  0
LINE
  5
5B42
  8
AM_0
 10
352.3789587195289
 20
597.78867910961185
 30
0.0
 11
333.88234871952892
 21
598.27305910961206
 31
0.0
  0
LINE
  5
5B43
  8
AM_0
 10
339.37889871952888
 20
613.86045910961195
 30
0.0
 11
334.39415871952889
 21
613.990979109612
 31
0.0
  0
LINE
  5
5B44
  8
AM_0
 10
318.30037871952908
 20
603.30213910961174
 30
0.0
 11
321.30037871952891
 21
603.30213910961174
 31
0.0
  0
LINE
  5
5B45
  8
AM_0
 10
318.30037871952908
 20
614.84913910961177
 30
0.0
 11
321.30037871952891
 21
614.84913910961177
 31
0.0
  0
LINE
  5
5B46
  8
AM_0
 10
318.30037871952908
 20
611.9623891096121
 30
0.0
 11
321.30037871952891
 21
611.9623891096121
 31
0.0
  0
LINE
  5
5B47
  8
AM_0
 10
318.30037871952908
 20
606.18888910961209
 30
0.0
 11
321.30037871952891
 21
606.18888910961209
 31
0.0
  0
LINE
  5
5B48
  8
AM_0
 10
322.30034871952893
 20
613.84916910961215
 30
0.0
 11
322.30034871952893
 21
604.30213910961174
 31
0.0
  0
LINE
  5
5B49
  8
AM_0
 10
317.30037871952891
 20
602.30210910961205
 30
0.0
 11
318.30037871952908
 21
602.30210910961205
 31
0.0
  0
LINE
  5
5B4A
  8
AM_0
 10
317.30037871952891
 20
615.84916910961192
 30
0.0
 11
318.30037871952908
 21
615.84916910961192
 31
0.0
  0
LINE
  5
5B4B
  8
AM_0
 10
318.30037871952908
 20
602.30210910961205
 30
0.0
 11
318.30037871952908
 21
615.84916910961192
 31
0.0
  0
LINE
  5
5B4C
  8
AM_0
 10
317.30037871952891
 20
600.83140910961185
 30
0.0
 11
317.30037871952891
 21
621.47611910961211
 31
0.0
  0
LINE
  5
5B4D
  8
AM_0
 10
317.30037871952891
 20
600.83140910961185
 30
0.0
 11
320.30037871952891
 21
600.83140910961185
 31
0.0
  0
LINE
  5
5B4E
  8
AM_0
 10
306.30040871952889
 20
479.76417910961192
 30
0.0
 11
301.24803871952901
 21
479.8964691096121
 31
0.0
  0
LINE
  5
5B4F
  8
AM_0
 10
306.30037871952891
 20
621.76417910961186
 30
0.0
 11
301.24806871952887
 21
621.63184910961195
 31
0.0
  0
LINE
  5
5B50
  8
AM_0
 10
299.300408719529
 20
481.89579910961191
 30
0.0
 11
299.300408719529
 21
619.632549109612
 31
0.0
  0
LINE
  5
5B51
  8
AM_0
 10
268.300408719529
 20
494.76417910961197
 30
0.0
 11
268.300408719529
 21
606.76417910961209
 31
0.0
  0
LINE
  5
5B52
  8
AM_0
 10
294.30037871952891
 20
494.08335910961199
 30
0.0
 11
268.30043871952893
 21
494.76417910961197
 31
0.0
  0
LINE
  5
5B53
  8
AM_0
 10
268.300408719529
 20
504.7638691096119
 30
0.0
 11
299.300408719529
 21
504.7638691096119
 31
0.0
  0
LINE
  5
5B54
  8
AM_0
 10
296.30037871952891
 20
485.55289910961199
 30
0.0
 11
297.300408719529
 21
485.55289910961199
 31
0.0
  0
LINE
  5
5B55
  8
AM_0
 10
294.30037871952891
 20
487.55289910961187
 30
0.0
 11
294.30037871952891
 21
502.76386910961219
 31
0.0
  0
LINE
  5
5B56
  8
AM_0
 10
294.30037871952891
 20
613.97547910961202
 30
0.0
 11
294.30037871952891
 21
598.76447910961213
 31
0.0
  0
LINE
  5
5B57
  8
AM_0
 10
294.30040871952889
 20
607.44501910961185
 30
0.0
 11
268.30043871952893
 21
606.76417910961209
 31
0.0
  0
LINE
  5
5B58
  8
AM_0
 10
268.300408719529
 20
596.76447910961213
 30
0.0
 11
299.300408719529
 21
596.76447910961213
 31
0.0
  0
LINE
  5
5B59
  8
AM_0
 10
296.30037871952891
 20
615.97547910961202
 30
0.0
 11
297.300408719529
 21
615.97547910961202
 31
0.0
  0
LINE
  5
5B5A
  8
AM_0
 10
268.300408719529
 20
518.82423910961188
 30
0.0
 11
299.300408719529
 21
518.82423910961188
 31
0.0
  0
LINE
  5
5B5B
  8
AM_0
 10
268.300408719529
 20
582.70411910961195
 30
0.0
 11
299.300408719529
 21
582.70411910961195
 31
0.0
  0
ARC
  5
5B5C
  8
AM_0
 10
321.30037871952891
 20
497.226209109612
 30
0.0
 40
1.0
 50
0.0
 51
90.00000299999769
  0
ARC
  5
5B5D
  8
AM_0
 10
321.30037871952891
 20
494.33945910961211
 30
0.0
 40
1.0
 50
0.0
 51
90.00000299999769
  0
ARC
  5
5B5E
  8
AM_0
 10
321.30037871952891
 20
488.56595910961198
 30
0.0
 40
1.0
 50
0.0
 51
90.00000299999769
  0
ARC
  5
5B5F
  8
AM_0
 10
321.30037871952891
 20
487.67918910961191
 30
0.0
 40
1.0
 50
269.999989999999
 51
0.0000006832495047
  0
ARC
  5
5B60
  8
AM_0
 10
321.30037871952891
 20
490.56592910961189
 30
0.0
 40
1.0
 50
269.999989999999
 51
0.0000006832495047
  0
ARC
  5
5B61
  8
AM_0
 10
321.30037871952891
 20
496.33945910961199
 30
0.0
 40
1.0
 50
269.999989999999
 51
0.0000006832495047
  0
ARC
  5
5B62
  8
AM_0
 10
369.30037871952891
 20
625.19233910961213
 30
0.0
 40
2.0
 50
0.0
 51
88.499997000000747
  0
ARC
  5
5B63
  8
AM_0
 10
279.30037871952891
 20
625.97791910961212
 30
0.0
 40
2.0
 50
91.500001000001546
 51
180.00001000000091
  0
ARC
  5
5B64
  8
AM_0
 10
369.30037871952891
 20
602.33600910961218
 30
0.0
 40
2.0
 50
271.49999999999608
 51
0.0
  0
ARC
  5
5B65
  8
AM_0
 10
289.30037871952908
 20
615.76417910961197
 30
0.0
 40
6.0
 50
359.45747999999497
 51
326.44272000000041
  0
CIRCLE
  5
5B66
  8
AM_0
 10
359.30037871952891
 20
615.76417910961197
 30
0.0
 40
6.0
  0
ARC
  5
5B67
  8
AM_0
 10
369.30037871952891
 20
476.33600910961189
 30
0.0
 40
2.0
 50
271.49999999999608
 51
0.0
  0
ARC
  5
5B68
  8
AM_0
 10
279.30037871952891
 20
475.55045910961201
 30
0.0
 40
2.0
 50
180.00001000000091
 51
268.50000000000381
  0
ARC
  5
5B69
  8
AM_0
 10
369.30037871952891
 20
499.19233910961208
 30
0.0
 40
2.0
 50
0.0
 51
88.499997000000747
  0
ARC
  5
5B6A
  8
AM_0
 10
289.30037871952908
 20
485.76417910961197
 30
0.0
 40
6.0
 50
33.557299999995493
 51
0.5425182800043014
  0
CIRCLE
  5
5B6B
  8
AM_0
 10
359.30037871952891
 20
485.76417910961197
 30
0.0
 40
6.0
  0
ARC
  5
5B6C
  8
AM_0
 10
381.30037871952891
 20
550.76414910961205
 30
0.0
 40
3.9999962
 50
90.00000299999769
 51
120.0008584236227
  0
ARC
  5
5B6D
  8
AM_0
 10
381.30037871952891
 20
550.76414910961205
 30
0.0
 40
3.9999962
 50
239.99914157637721
 51
270.0
  0
ARC
  5
5B6E
  8
AM_0
 10
363.30037871952891
 20
594.18250910961206
 30
0.0
 40
5.0
 50
0.0
 51
85.000003999997801
  0
ARC
  5
5B6F
  8
AM_0
 10
363.30037871952891
 20
507.34580910961199
 30
0.0
 40
5.0
 50
274.99999999999972
 51
0.0
  0
ARC
  5
5B70
  8
AM_0
 10
347.30037871952891
 20
492.04514910961211
 30
0.0
 40
5.0
 50
95.00000199999856
 51
180.00001000000091
  0
ARC
  5
5B71
  8
AM_0
 10
347.30037871952891
 20
609.48316910961205
 30
0.0
 40
5.0
 50
180.00001000000091
 51
265.00001000000071
  0
ARC
  5
5B72
  8
AM_0
 10
347.30037871952891
 20
478.76096910961201
 30
0.0
 40
5.0
 50
180.00001000000091
 51
271.49999999999608
  0
ARC
  5
5B73
  8
AM_0
 10
347.30037871952891
 20
622.76737910961185
 30
0.0
 40
5.0
 50
88.499997000000747
 51
180.00001000000091
  0
ARC
  5
5B74
  8
AM_0
 10
339.30037871952908
 20
490.66685910961201
 30
0.0
 40
3.0
 50
271.49999999999608
 51
0.0
  0
ARC
  5
5B75
  8
AM_0
 10
318.90535871952892
 20
485.09595910961201
 30
0.0
 40
5.0
 50
271.49999999999608
 51
299.88701999999472
  0
ARC
  5
5B76
  8
AM_0
 10
334.52504871952891
 20
482.53907910961192
 30
0.0
 40
5.0
 50
91.500001000001546
 51
119.88701999999461
  0
ARC
  5
5B77
  8
AM_0
 10
352.30040871952889
 20
506.73862910961219
 30
0.0
 40
3.0
 50
271.49999999999608
 51
0.0
  0
ARC
  5
5B78
  8
AM_0
 10
352.30040871952889
 20
500.51316910961202
 30
0.0
 40
3.0
 50
274.99999999999972
 51
0.0
  0
ARC
  5
5B79
  8
AM_0
 10
359.4744187195289
 20
496.97288910961191
 30
0.0
 40
5.0
 50
95.00000199999856
 51
153.73433000000259
  0
ARC
  5
5B7A
  8
AM_0
 10
359.4744187195289
 20
604.55543910961205
 30
0.0
 40
5.0
 50
206.26566999999741
 51
265.00001000000071
  0
ARC
  5
5B7B
  8
AM_0
 10
352.30040871952889
 20
594.78971910961195
 30
0.0
 40
3.0
 50
0.0
 51
88.499997000000747
  0
ARC
  5
5B7C
  8
AM_0
 10
318.90535871952892
 20
616.43238910961202
 30
0.0
 40
5.0
 50
60.112980000005322
 51
88.499997000000747
  0
ARC
  5
5B7D
  8
AM_0
 10
352.30040871952889
 20
601.01517910961195
 30
0.0
 40
3.0
 50
0.0
 51
85.000003999997801
  0
ARC
  5
5B7E
  8
AM_0
 10
334.52504871952891
 20
618.98926910961211
 30
0.0
 40
5.0
 50
240.11298000000519
 51
268.50000000000381
  0
ARC
  5
5B7F
  8
AM_0
 10
339.30037871952908
 20
610.86149910961205
 30
0.0
 40
3.0
 50
0.0
 51
88.499997000000747
  0
ARC
  5
5B80
  8
AM_0
 10
321.30037871952891
 20
605.18888910961209
 30
0.0
 40
1.0
 50
0.0
 51
90.00000299999769
  0
ARC
  5
5B81
  8
AM_0
 10
321.30037871952891
 20
610.96241910961191
 30
0.0
 40
1.0
 50
0.0
 51
90.00000299999769
  0
ARC
  5
5B82
  8
AM_0
 10
321.30037871952891
 20
613.84916910961215
 30
0.0
 40
1.0
 50
0.0
 51
90.00000299999769
  0
ARC
  5
5B83
  8
AM_0
 10
321.30037871952891
 20
612.96238910961199
 30
0.0
 40
1.0
 50
269.999989999999
 51
0.0000006832495047
  0
ARC
  5
5B84
  8
AM_0
 10
321.30037871952891
 20
607.18888910961186
 30
0.0
 40
1.0
 50
269.999989999999
 51
0.0000006832495047
  0
ARC
  5
5B85
  8
AM_0
 10
321.30037871952891
 20
604.30213910961174
 30
0.0
 40
1.0
 50
269.999989999999
 51
0.0000006832495047
  0
ARC
  5
5B86
  8
AM_0
 10
421.7891187195288
 20
550.76417910961186
 30
0.0
 40
101.4887199999999
 50
151.89333000000309
 51
208.1066699999968
  0
ARC
  5
5B87
  8
AM_0
 10
301.30040871952912
 20
481.89579910961191
 30
0.0
 40
2.0
 50
180.00001000000091
 51
268.50000000000381
  0
ARC
  5
5B88
  8
AM_0
 10
301.30040871952912
 20
619.632549109612
 30
0.0
 40
2.0
 50
91.500001000001546
 51
180.00001000000091
  0
ARC
  5
5B89
  8
AM_0
 10
296.30037871952891
 20
487.55289910961187
 30
0.0
 40
2.0
 50
180.00001000000091
 51
270.0
  0
ARC
  5
5B8A
  8
AM_0
 10
292.30037871952891
 20
502.76386910961219
 30
0.0
 40
2.0
 50
0.0
 51
90.00000299999769
  0
ARC
  5
5B8B
  8
AM_0
 10
297.300408719529
 20
483.55289910961187
 30
0.0
 40
2.0
 50
0.0
 51
90.00000299999769
  0
ARC
  5
5B8C
  8
AM_0
 10
297.300408719529
 20
617.97547910961202
 30
0.0
 40
2.0
 50
270.0
 51
0.0
  0
ARC
  5
5B8D
  8
AM_0
 10
296.30037871952891
 20
613.97547910961202
 30
0.0
 40
2.0
 50
90.00000299999769
 51
180.00001000000091
  0
ARC
  5
5B8E
  8
AM_0
 10
292.30037871952891
 20
598.76447910961213
 30
0.0
 40
2.0
 50
270.0
 51
0.0
  0
LINE
  5
5B8F
  8
AM_0
 10
239.32659856856941
 20
484.76417910961197
 30
0.0
 11
239.5811478425922
 21
494.48414910961191
 31
0.0
  0
LINE
  5
5B90
  8
AM_0
 10
179.27416657332881
 20
484.76417910961197
 30
0.0
 11
179.01968453219001
 21
494.48414910961191
 31
0.0
  0
LINE
  5
5B91
  8
AM_0
 10
175.8004087195288
 20
482.76417910961197
 30
0.0
 11
242.80040871952889
 21
482.76417910961197
 31
0.0
  0
LINE
  5
5B92
  8
AM_0
 10
175.8004087195288
 20
481.76417910961197
 30
0.0
 11
175.8004087195288
 21
482.76417910961197
 31
0.0
  0
LINE
  5
5B93
  8
AM_0
 10
242.80040871952889
 20
481.76417910961197
 30
0.0
 11
242.80040871952889
 21
482.76417910961197
 31
0.0
  0
LINE
  5
5B94
  8
AM_0
 10
161.3004087195288
 20
443.76417910961192
 30
0.0
 11
162.55999385579111
 21
479.83397810301688
 31
0.0
  0
LINE
  5
5B95
  8
AM_0
 10
164.5587755098295
 20
481.76417910961197
 30
0.0
 11
254.0420419292285
 21
481.76417910961197
 31
0.0
  0
ARC
  5
5B96
  8
AM_0
 10
164.5587755098295
 20
479.76417910961197
 30
0.0
 40
2.0
 50
90.0
 51
178.00000000000259
1001
GENIUS_GENODEF_13
1002
{
1000
HIER
1070
     0
1002
}
1002
{
1000
MANEDIT
1070
     0
1002
}
1002
{
1000
NOSEL
1070
     0
1002
}
1002
{
1000
BEHIND
1070
     0
1002
}
1002
{
1000
OTHER
1070
     0
1002
}
1002
{
1000
REACTOR
1002
}
1001
GENIUS_GENOBJ-N-FIL_13
1002
{
1000
OWNER
1000
GEN
1002
}
  0
LINE
  5
5B97
  8
AM_0
 10
256.04082358326667
 20
479.83397810301688
 30
0.0
 11
257.300408719529
 21
443.76417910961197
 31
0.0
  0
ARC
  5
5B98
  8
AM_0
 10
254.0420419292285
 20
479.76417910961197
 30
0.0
 40
2.0
 50
1.9999999999972149
 51
90.0
1001
GENIUS_GENOBJ-N-FIL_13
1002
{
1000
OWNER
1000
GEN
1002
}
1001
GENIUS_GENODEF_13
1002
{
1000
HIER
1070
     0
1002
}
1002
{
1000
MANEDIT
1070
     0
1002
}
1002
{
1000
NOSEL
1070
     0
1002
}
1002
{
1000
BEHIND
1070
     0
1002
}
1002
{
1000
OTHER
1070
     0
1002
}
1002
{
1000
REACTOR
1002
}
  0
LINE
  5
5B99
  8
AM_0
 10
257.300408719529
 20
443.76417910961197
 30
0.0
 11
161.3004087195286
 21
443.76417910961192
 31
0.0
  0
LINE
  5
5B9A
  8
AM_0
 10
161.4051710280041
 20
446.76417910961192
 30
0.0
 11
160.3004087195288
 21
446.76417910961192
 31
0.0
  0
LINE
  5
5B9B
  8
AM_0
 10
162.52263565173999
 20
478.76417910961192
 30
0.0
 11
160.3004087195288
 21
478.76417910961192
 31
0.0
  0
LINE
  5
5B9C
  8
ﾁｭｳｼﾝｾﾝ1
 10
166.30040871952951
 20
433.49947160961199
 30
0.0
 11
166.3004087195296
 21
446.49947160961199
 31
0.0
  0
LINE
  5
5B9D
  8
ﾁｭｳｼﾝｾﾝ
 10
209.30040871952889
 20
489.05620978284111
 30
0.0
 11
209.30040871952889
 21
431.31365646880272
 31
0.0
  0
LINE
  5
5B9E
  8
AM_0
 10
157.8004087195288
 20
449.26417910961197
 30
0.0
 11
160.3004087195288
 21
449.26417910961169
 31
0.0
  0
LINE
  5
5B9F
  8
AM_0
 10
160.3004087195288
 20
476.26417910961158
 30
0.0
 11
157.8004087195288
 21
476.26417910961192
 31
0.0
  0
LINE
  5
5BA0
  8
AM_0
 10
146.9017376231829
 20
473.26417910961197
 30
0.0
 11
146.9017376231829
 21
452.26417910961192
 31
0.0
  0
LINE
  5
5BA1
  8
AM_0
 10
131.9017376231829
 20
454.73255405559661
 30
0.0
 11
131.9017376231829
 21
470.79580416362779
 31
0.0
  0
LINE
  5
5BA2
  8
AM_0
 10
144.9017376231829
 20
474.76417910961192
 30
0.0
 11
144.9017376231829
 21
450.76417910961169
 31
0.0
  0
LINE
  5
5BA3
  8
AM_0
 10
135.4017376231829
 20
462.7641791096118
 30
0.0
 11
135.9017376231829
 21
463.26417910961169
 31
0.0
  0
LINE
  5
5BA4
  8
AM_0
 10
142.4017376231829
 20
451.06417910961181
 30
0.0
 11
142.4017376231829
 21
474.46417910961168
 31
0.0
  0
LINE
  5
5BA5
  8
AM_0
 10
152.3004087195288
 20
451.26417910961192
 30
0.0
 11
152.3004087195288
 21
474.26417910961197
 31
0.0
  0
LINE
  5
5BA6
  8
AM_0
 10
146.4017376231829
 20
463.46417910961372
 30
0.0
 11
146.4017376231829
 21
462.06417910961051
 31
0.0
  0
LINE
  5
5BA7
  8
AM_0
 10
148.50137334975369
 20
471.86417910961183
 30
0.0
 11
147.7513733497548
 21
453.66417910961161
 31
0.0
  0
LINE
  5
5BA8
  8
AM_0
 10
147.5504087195288
 20
471.86417910961183
 30
0.0
 11
146.9017376231829
 21
456.1230938382958
 31
0.0
  0
LINE
  5
5BA9
  8
AM_0
 10
148.29910131010081
 20
472.57983782197567
 30
0.0
 11
147.55184126669289
 21
452.9518073484449
 31
0.0
  0
LINE
  5
5BAA
  8
AM_0
 10
147.7499408025908
 20
472.57655087077973
 30
0.0
 11
147.00137334975491
 21
452.91417910961161
 31
0.0
  0
LINE
  5
5BAB
  8
AM_0
 10
144.9017376231829
 20
450.76417910961169
 30
0.0
 11
142.70173762318291
 21
450.76417910961169
 31
0.0
  0
ARC
  5
5BAC
  8
AM_0
 10
156.8004087195288
 20
450.2641791096118
 30
0.0
 40
0.5
 50
0.0
 51
90.000000000013017
  0
ARC
  5
5BAD
  8
AM_0
 10
157.8004087195288
 20
449.76417910961192
 30
0.0
 40
0.5
 50
180.0
 51
270.0
  0
LINE
  5
5BAE
  8
AM_0
 10
157.3004087195288
 20
450.2641791096118
 30
0.0
 11
157.3004087195288
 21
449.76417910961192
 31
0.0
  0
LINE
  5
5BAF
  8
AM_0
 10
148.3004087195288
 20
453.66417910961161
 30
0.0
 11
151.8004087195288
 21
453.66417910961161
 31
0.0
  0
LINE
  5
5BB0
  8
AM_0
 10
157.3004087195288
 20
451.90810778820497
 30
0.0
 11
157.3004087195288
 21
461.6202504310196
 31
0.0
  0
LINE
  5
5BB1
  8
AM_0
 10
152.8004087195288
 20
450.76417910961169
 30
0.0
 11
156.8004087195288
 21
450.76417910961169
 31
0.0
  0
LINE
  5
5BB2
  8
AM_0
 10
156.8004087195288
 20
451.40810778820497
 30
0.0
 11
152.3004087195288
 21
451.40810778820497
 31
0.0
  0
ARC
  5
5BB3
  8
AM_0
 10
156.8004087195288
 20
451.90810778820497
 30
0.0
 40
0.5
 50
270.0
 51
0.0
  0
ARC
  5
5BB4
  8
AM_0
 10
151.8004087195288
 20
453.16417910961189
 30
0.0
 40
0.5
 50
0.0
 51
90.0
  0
ARC
  5
5BB5
  8
AM_0
 10
152.8004087195288
 20
451.26417910961192
 30
0.0
 40
0.5
 50
180.0
 51
270.0
  0
LINE
  5
5BB6
  8
AM_0
 10
156.8004087195288
 20
462.1202504310196
 30
0.0
 11
152.3004087195288
 21
462.1202504310196
 31
0.0
  0
ARC
  5
5BB7
  8
AM_0
 10
156.8004087195288
 20
461.62025043102011
 30
0.0
 40
0.5
 50
0.0
 51
90.0
  0
LINE
  5
5BB8
  8
AM_0
 10
146.4017376231829
 20
456.61900835731967
 30
0.0
 11
146.4017376231829
 21
457.79125154375248
 31
0.0
  0
LINE
  5
5BB9
  8
AM_0
 10
147.8281057781798
 20
453.66417910961161
 30
0.0
 11
148.3004087195288
 21
453.66417910961161
 31
0.0
  0
LINE
  5
5BBA
  8
AM_0
 10
147.7315132836406
 20
453.59006134287512
 30
0.0
 11
147.7513733497548
 21
453.66417910961161
 31
0.0
  0
ARC
  5
5BBB
  8
AM_0
 10
147.8281057781798
 20
453.56417910961181
 30
0.0
 40
0.1000000000000346
 50
90.0
 51
164.99980499355451
  0
ARC
  5
5BBC
  8
AM_0
 10
146.1017376231828
 20
453.47734612910369
 30
0.0
 40
0.3000000000000043
 50
0.0
 51
90.0
  0
LINE
  5
5BBD
  8
AM_0
 10
144.9017376231829
 20
451.36417910961183
 30
0.0
 11
146.12169332633991
 21
451.44550948982283
 31
0.0
  0
LINE
  5
5BBE
  8
AM_0
 10
144.9017376231829
 20
452.52043114545182
 30
0.0
 11
146.10173762318269
 21
452.52043114545182
 31
0.0
  0
LINE
  5
5BBF
  8
AM_0
 10
146.4017376231829
 20
451.76417910961192
 30
0.0
 11
144.9017376231829
 21
451.76417910961192
 31
0.0
  0
ARC
  5
5BC0
  8
AM_0
 10
146.4017376231829
 20
452.26417910961192
 30
0.0
 40
0.5
 50
270.0
 51
0.0
  0
LINE
  5
5BC1
  8
AM_0
 10
146.4017376231829
 20
451.74484503718003
 30
0.0
 11
146.4017376231829
 21
451.76417910961192
 31
0.0
  0
LINE
  5
5BC2
  8
AM_0
 10
146.4017376231829
 20
451.46417910961191
 30
0.0
 11
146.4017376231829
 21
451.74484503718003
 31
0.0
  0
LINE
  5
5BC3
  8
AM_0
 10
146.12169332633991
 20
451.44550948982283
 30
0.0
 11
146.4017376231829
 21
451.46417910961191
 31
0.0
  0
ARC
  5
5BC4
  8
AM_0
 10
146.1017376231828
 20
451.74484503718003
 30
0.0
 40
0.3000000000000007
 50
273.8140748342816
 51
0.0
  0
LINE
  5
5BC5
  8
AM_0
 10
147.4736762911038
 20
452.91417910961161
 30
0.0
 11
147.55040871952971
 21
452.91417910961161
 31
0.0
  0
LINE
  5
5BC6
  8
AM_0
 10
147.55040871952971
 20
452.91417910961161
 30
0.0
 11
147.57026878564281
 21
452.98829687634822
 31
0.0
  0
LINE
  5
5BC7
  8
AM_0
 10
146.9815132836406
 20
452.98829687634822
 30
0.0
 11
147.00137334975491
 21
452.91417910961161
 31
0.0
  0
LINE
  5
5BC8
  8
AM_0
 10
147.00137334975491
 20
452.91417910961161
 30
0.0
 11
147.0781057781798
 21
452.91417910961161
 31
0.0
  0
LINE
  5
5BC9
  8
AM_0
 10
147.57026878564281
 20
452.98829687634822
 30
0.0
 11
147.7315132836406
 21
453.59006134287512
 31
0.0
  0
LINE
  5
5BCA
  8
AM_0
 10
147.0781057781798
 20
452.91417910961161
 30
0.0
 11
147.4736762911038
 21
452.91417910961161
 31
0.0
  0
LINE
  5
5BCB
  8
AM_0
 10
146.90173762318381
 20
453.2860196411728
 30
0.0
 11
146.9815132836406
 21
452.98829687634822
 31
0.0
  0
ARC
  5
5BCC
  8
AM_0
 10
147.4736762911038
 20
453.01417910961192
 30
0.0
 40
0.0999999999999866
 50
270.0
 51
344.99980499343462
  0
ARC
  5
5BCD
  8
AM_0
 10
147.0781057781798
 20
453.01417910961192
 30
0.0
 40
0.1000000000000014
 50
195.00019500656541
 51
270.0
  0
LINE
  5
5BCE
  8
AM_0
 10
146.4017376231829
 20
452.82043114545161
 30
0.0
 11
146.4017376231829
 21
453.47734612910369
 31
0.0
  0
ARC
  5
5BCF
  8
AM_0
 10
146.1017376231828
 20
452.82043114545189
 30
0.0
 40
0.3000000000000007
 50
270.0
 51
0.0
  0
LINE
  5
5BD0
  8
AM_0
 10
144.9017376231829
 20
456.3190083573196
 30
0.0
 11
146.10173762318269
 21
456.3190083573196
 31
0.0
  0
LINE
  5
5BD1
  8
AM_0
 10
146.10173762318269
 20
453.77734612910359
 30
0.0
 11
144.9017376231829
 21
453.77734612910359
 31
0.0
  0
LINE
  5
5BD2
  8
AM_0
 10
147.7513733497548
 20
453.66417910961161
 30
0.0
 11
147.8281057781798
 21
453.66417910961161
 31
0.0
  0
ARC
  5
5BD3
  8
AM_0
 10
146.1017376231828
 20
456.61900835731979
 30
0.0
 40
0.3000000000000007
 50
270.0
 51
0.0
  0
LINE
  5
5BD4
  8
AM_0
 10
146.10173762318269
 20
458.09125154375278
 30
0.0
 11
144.9017376231829
 21
458.09125154375278
 31
0.0
  0
ARC
  5
5BD5
  8
AM_0
 10
146.1017376231828
 20
457.79125154375282
 30
0.0
 40
0.3000000000000043
 50
0.0
 51
90.0
  0
LINE
  5
5BD6
  8
AM_0
 10
146.10173762318269
 20
461.76417910961072
 30
0.0
 11
144.9017376231829
 21
461.76417910961072
 31
0.0
  0
ARC
  5
5BD7
  8
AM_0
 10
146.1017376231828
 20
462.0641791096109
 30
0.0
 40
0.3000000000000007
 50
270.0
 51
0.0
  0
LINE
  5
5BD8
  8
AM_0
 10
135.9017376231829
 20
452.6308992809648
 30
0.0
 11
142.4017376231829
 21
452.6308992809648
 31
0.0
  0
LINE
  5
5BD9
  8
AM_0
 10
135.9017376231829
 20
452.1308992809648
 30
0.0
 11
142.4017376231829
 21
452.1308992809648
 31
0.0
  0
LINE
  5
5BDA
  8
AM_0
 10
142.4017376231829
 20
462.26417910961192
 30
0.0
 11
135.9017376231829
 21
462.26417910961192
 31
0.0
  0
LINE
  5
5BDB
  8
AM_0
 10
135.4017376231829
 20
461.76417910961197
 30
0.0
 11
142.4017376231829
 21
461.76417910961197
 31
0.0
  0
LINE
  5
5BDC
  8
AM_0
 10
142.10173762318269
 20
451.76417910961192
 30
0.0
 11
135.26378755836481
 21
451.76417910961192
 31
0.0
  0
LINE
  5
5BDD
  8
AM_0
 10
142.4017376231829
 20
461.41749104107072
 30
0.0
 11
135.9017376231829
 21
461.41749104107072
 31
0.0
  0
LINE
  5
5BDE
  8
AM_0
 10
142.4017376231829
 20
453.11086717815277
 30
0.0
 11
135.9017376231829
 21
453.11086717815277
 31
0.0
  0
ARC
  5
5BDF
  8
AM_0
 10
142.70173762318291
 20
451.06417910961181
 30
0.0
 40
0.2999999999999971
 50
180.0
 51
270.0
  0
ARC
  5
5BE0
  8
AM_0
 10
142.1017376231828
 20
451.46417910961191
 30
0.0
 40
0.2999999999999971
 50
0.0
 51
90.0
  0
ARC
  5
5BE1
  8
AM_0
 10
144.0267376231829
 20
457.26417910961197
 30
0.0
 40
9.124999999999984
 50
152.92493329271929
 51
207.07506670728071
  0
LINE
  5
5BE2
  8
AM_0
 10
134.6236031587004
 20
451.99595783001428
 30
0.0
 11
132.2615532235184
 21
453.96433277599942
 31
0.0
  0
LINE
  5
5BE3
  8
AM_0
 10
135.4017376231829
 20
452.34261169311969
 30
0.0
 11
135.9017376231829
 21
451.76417910961192
 31
0.0
  0
ARC
  5
5BE4
  8
AM_0
 10
135.26378755836481
 20
452.76417910961197
 30
0.0
 40
1.0
 50
230.19442890774391
 51
270.0
  0
LINE
  5
5BE5
  8
AM_0
 10
135.9017376231829
 20
452.1308992809648
 30
0.0
 11
135.4017376231829
 21
452.34261169311969
 31
0.0
  0
LINE
  5
5BE6
  8
AM_0
 10
135.4017376231829
 20
452.80488696609081
 30
0.0
 11
135.9017376231829
 21
452.1308992809648
 31
0.0
  0
LINE
  5
5BE7
  8
AM_0
 10
135.9017376231829
 20
452.6308992809648
 30
0.0
 11
135.4017376231829
 21
452.80488696609081
 31
0.0
  0
LINE
  5
5BE8
  8
AM_0
 10
135.4017376231829
 20
453.34261169311981
 30
0.0
 11
135.9017376231829
 21
452.6308992809648
 31
0.0
  0
LINE
  5
5BE9
  8
AM_0
 10
135.9017376231829
 20
453.11086717815277
 30
0.0
 11
135.4017376231829
 21
453.34261169311981
 31
0.0
  0
ARC
  5
5BEA
  8
AM_0
 10
132.9017376231829
 20
454.73255405559678
 30
0.0
 40
1.0000000000000291
 50
180.0
 51
230.19442890773581
  0
LINE
  5
5BEB
  8
AM_0
 10
135.9017376231829
 20
462.26417910961192
 30
0.0
 11
135.4017376231829
 21
462.7641791096118
 31
0.0
  0
LINE
  5
5BEC
  8
AM_0
 10
135.4017376231829
 20
461.76417910961197
 30
0.0
 11
135.9017376231829
 21
462.26417910961192
 31
0.0
  0
LINE
  5
5BED
  8
AM_0
 10
135.9017376231829
 20
461.41749104107072
 30
0.0
 11
135.4017376231829
 21
461.76417910961197
 31
0.0
  0
LINE
  5
5BEE
  8
AM_0
 10
142.70173762318291
 20
474.76417910961192
 30
0.0
 11
144.9017376231829
 21
474.76417910961192
 31
0.0
  0
ARC
  5
5BEF
  8
AM_0
 10
156.8004087195288
 20
475.2641791096118
 30
0.0
 40
0.5
 50
269.99999999998693
 51
0.0
  0
LINE
  5
5BF0
  8
AM_0
 10
151.8004087195288
 20
471.86417910961183
 30
0.0
 11
148.5781057781798
 21
471.86417910961183
 31
0.0
  0
LINE
  5
5BF1
  8
AM_0
 10
157.3004087195288
 20
463.90810778820497
 30
0.0
 11
157.3004087195288
 21
473.62025043102
 31
0.0
  0
LINE
  5
5BF2
  8
AM_0
 10
152.3004087195288
 20
463.40810778820497
 30
0.0
 11
156.8004087195288
 21
463.40810778820497
 31
0.0
  0
ARC
  5
5BF3
  8
AM_0
 10
156.8004087195288
 20
463.90810778820497
 30
0.0
 40
0.5
 50
270.0
 51
0.0
  0
LINE
  5
5BF4
  8
AM_0
 10
152.3004087195288
 20
474.12025043102011
 30
0.0
 11
156.8004087195288
 21
474.12025043102011
 31
0.0
  0
LINE
  5
5BF5
  8
AM_0
 10
156.8004087195288
 20
474.76417910961192
 30
0.0
 11
152.8004087195288
 21
474.76417910961192
 31
0.0
  0
ARC
  5
5BF6
  8
AM_0
 10
156.8004087195288
 20
473.62025043102
 30
0.0
 40
0.5
 50
0.0
 51
90.0
  0
ARC
  5
5BF7
  8
AM_0
 10
151.8004087195288
 20
472.36417910961183
 30
0.0
 40
0.5
 50
270.0
 51
0.0
  0
ARC
  5
5BF8
  8
AM_0
 10
152.8004087195288
 20
474.26417910961197
 30
0.0
 40
0.5
 50
90.0
 51
180.0
  0
ARC
  5
5BF9
  8
AM_0
 10
146.1017376231828
 20
468.90934986190388
 30
0.0
 40
0.3000000000000114
 50
0.0
 51
90.0
  0
LINE
  5
5BFA
  8
AM_0
 10
144.9017376231829
 20
463.76417910961368
 30
0.0
 11
146.10173762318269
 21
463.76417910961368
 31
0.0
  0
ARC
  5
5BFB
  8
AM_0
 10
146.1017376231828
 20
463.46417910961378
 30
0.0
 40
0.2999999999999971
 50
0.0
 51
90.0
  0
LINE
  5
5BFC
  8
AM_0
 10
144.9017376231829
 20
467.43710667547072
 30
0.0
 11
146.10173762318269
 21
467.43710667547072
 31
0.0
  0
ARC
  5
5BFD
  8
AM_0
 10
146.1017376231828
 20
467.7371066754709
 30
0.0
 40
0.3000000000000007
 50
270.0
 51
0.0
  0
LINE
  5
5BFE
  8
AM_0
 10
146.4017376231829
 20
467.7371066754709
 30
0.0
 11
146.4017376231829
 21
468.90934986190388
 31
0.0
  0
LINE
  5
5BFF
  8
AM_0
 10
147.8281057781798
 20
472.61417910961183
 30
0.0
 11
148.2236762911038
 21
472.61417910961183
 31
0.0
  0
LINE
  5
5C00
  8
AM_0
 10
147.8281057781798
 20
472.61417910961183
 30
0.0
 11
148.2236762911038
 21
472.61417910961183
 31
0.0
  0
LINE
  5
5C01
  8
AM_0
 10
148.32026878564281
 20
472.54006134287522
 30
0.0
 11
148.4815132836406
 21
471.9382968763482
 31
0.0
  0
LINE
  5
5C02
  8
AM_0
 10
148.32026878564281
 20
472.54006134287522
 30
0.0
 11
148.4815132836406
 21
471.9382968763482
 31
0.0
  0
ARC
  5
5C03
  8
AM_0
 10
148.5781057781798
 20
471.96417910961191
 30
0.0
 40
0.0999999999999943
 50
195.00019500651959
 51
270.0
  0
ARC
  5
5C04
  8
AM_0
 10
148.2236762911038
 20
472.51417910961192
 30
0.0
 40
0.0999999999999943
 50
15.000195006505431
 51
90.0
  0
LINE
  5
5C05
  8
AM_0
 10
146.90089103464169
 20
472.23917910961211
 30
0.0
 11
146.9815132836406
 21
471.9382968763482
 31
0.0
  0
LINE
  5
5C06
  8
AM_0
 10
147.55311937173471
 20
471.9034436427097
 30
0.0
 11
147.7315132836406
 21
472.54006134287522
 31
0.0
  0
LINE
  5
5C07
  8
AM_0
 10
147.57026878564281
 20
471.9382968763482
 30
0.0
 11
147.7315132836406
 21
472.54006134287522
 31
0.0
  0
LINE
  5
5C08
  8
AM_0
 10
146.4017376231829
 20
472.05101209012088
 30
0.0
 11
146.4017376231829
 21
472.70792707377183
 31
0.0
  0
LINE
  5
5C09
  8
AM_0
 10
146.9017376231829
 20
472.23601964117358
 30
0.0
 11
146.9815132836406
 21
471.9382968763482
 31
0.0
  0
LINE
  5
5C0A
  8
AM_0
 10
144.9017376231829
 20
471.75101209012081
 30
0.0
 11
146.10173762318269
 21
471.75101209012081
 31
0.0
  0
LINE
  5
5C0B
  8
AM_0
 10
146.10173762318269
 20
469.20934986190372
 30
0.0
 11
144.9017376231829
 21
469.20934986190468
 31
0.0
  0
LINE
  5
5C0C
  8
AM_0
 10
147.5063085566189
 20
471.86417910961183
 30
0.0
 11
147.55311937173471
 21
471.9034436427097
 31
0.0
  0
LINE
  5
5C0D
  8
AM_0
 10
147.0781057781798
 20
471.86417910961183
 30
0.0
 11
147.5063085566189
 21
471.86417910961183
 31
0.0
  0
LINE
  5
5C0E
  8
AM_0
 10
147.0781057781798
 20
471.86417910961183
 30
0.0
 11
147.4736762911038
 21
471.86417910961183
 31
0.0
  0
ARC
  5
5C0F
  8
AM_0
 10
147.0781057781798
 20
471.96417910961191
 30
0.0
 40
0.0999999999999943
 50
195.00019500651959
 51
270.0
  0
ARC
  5
5C10
  8
AM_0
 10
147.4736762911038
 20
471.96417910961191
 30
0.0
 40
0.0999999999999608
 50
270.0
 51
344.99980499348032
  0
ARC
  5
5C11
  8
AM_0
 10
146.1017376231828
 20
472.05101209012088
 30
0.0
 40
0.3000000000000007
 50
270.0
 51
0.0
  0
LINE
  5
5C12
  8
AM_0
 10
144.9017376231829
 20
473.76417910961197
 30
0.0
 11
146.4017376231829
 21
473.76417910961197
 31
0.0
  0
LINE
  5
5C13
  8
AM_0
 10
146.10173762318269
 20
473.00792707377161
 30
0.0
 11
144.9017376231829
 21
473.00792707377161
 31
0.0
  0
LINE
  5
5C14
  8
AM_0
 10
146.12169332633991
 20
474.0828487294018
 30
0.0
 11
144.9017376231829
 21
474.16417910961172
 31
0.0
  0
ARC
  5
5C15
  8
AM_0
 10
146.4017376231829
 20
473.26417910961197
 30
0.0
 40
0.5
 50
0.0
 51
90.0
  0
ARC
  5
5C16
  8
AM_0
 10
147.8281057781798
 20
472.51417910961192
 30
0.0
 40
0.0999999999999606
 50
90.0
 51
164.99980499349451
  0
ARC
  5
5C17
  8
AM_0
 10
146.1017376231828
 20
472.70792707377183
 30
0.0
 40
0.2999999999999971
 50
0.0
 51
90.0
  0
LINE
  5
5C18
  8
AM_0
 10
146.4017376231829
 20
473.76417910961197
 30
0.0
 11
146.4017376231829
 21
473.78351318204483
 31
0.0
  0
ARC
  5
5C19
  8
AM_0
 10
146.1017376231828
 20
473.78351318204483
 30
0.0
 40
0.3000000000000043
 50
0.0
 51
86.185925165718416
  0
ARC
  5
5C1A
  8
AM_0
 10
157.8004087195288
 20
475.76417910961169
 30
0.0
 40
0.5
 50
90.0
 51
180.0
  0
LINE
  5
5C1B
  8
AM_0
 10
157.3004087195288
 20
475.76417910961169
 30
0.0
 11
157.3004087195288
 21
475.2641791096118
 31
0.0
  0
LINE
  5
5C1C
  8
AM_0
 10
135.9017376231829
 20
472.41749104107078
 30
0.0
 11
142.4017376231829
 21
472.41749104107078
 31
0.0
  0
LINE
  5
5C1D
  8
AM_0
 10
135.9017376231829
 20
464.11086717815277
 30
0.0
 11
142.4017376231829
 21
464.11086717815277
 31
0.0
  0
LINE
  5
5C1E
  8
AM_0
 10
135.26378755836481
 20
473.76417910961197
 30
0.0
 11
142.10173762318269
 21
473.76417910961197
 31
0.0
  0
LINE
  5
5C1F
  8
AM_0
 10
142.4017376231829
 20
463.76417910961192
 30
0.0
 11
135.4017376231829
 21
463.76417910961192
 31
0.0
  0
LINE
  5
5C20
  8
AM_0
 10
135.9017376231829
 20
463.26417910961169
 30
0.0
 11
142.4017376231829
 21
463.26417910961169
 31
0.0
  0
LINE
  5
5C21
  8
AM_0
 10
142.4017376231829
 20
473.3974589382596
 30
0.0
 11
135.9017376231829
 21
473.3974589382596
 31
0.0
  0
LINE
  5
5C22
  8
AM_0
 10
142.4017376231829
 20
472.8974589382596
 30
0.0
 11
135.9017376231829
 21
472.8974589382596
 31
0.0
  0
ARC
  5
5C23
  8
AM_0
 10
142.1017376231828
 20
474.06417910961181
 30
0.0
 40
0.3000000000000043
 50
270.0
 51
0.0
  0
ARC
  5
5C24
  8
AM_0
 10
142.70173762318291
 20
474.46417910961191
 30
0.0
 40
0.2999999999999971
 50
90.0
 51
180.0
  0
ARC
  5
5C25
  8
AM_0
 10
144.0267376231829
 20
468.26417910961192
 30
0.0
 40
9.124999999999984
 50
152.92493329271929
 51
207.07506670728071
  0
LINE
  5
5C26
  8
AM_0
 10
135.4017376231829
 20
463.76417910961192
 30
0.0
 11
135.9017376231829
 21
464.11086717815277
 31
0.0
  0
LINE
  5
5C27
  8
AM_0
 10
135.9017376231829
 20
463.26417910961169
 30
0.0
 11
135.4017376231829
 21
463.76417910961192
 31
0.0
  0
LINE
  5
5C28
  8
AM_0
 10
132.2615532235184
 20
471.56402544322498
 30
0.0
 11
134.6236031587004
 21
473.53240038920922
 31
0.0
  0
LINE
  5
5C29
  8
AM_0
 10
135.9017376231829
 20
473.76417910961197
 30
0.0
 11
135.4017376231829
 21
473.18574652610488
 31
0.0
  0
ARC
  5
5C2A
  8
AM_0
 10
135.26378755836481
 20
472.76417910961192
 30
0.0
 40
1.0000000000000411
 50
90.0
 51
129.805571092256
  0
LINE
  5
5C2B
  8
AM_0
 10
135.4017376231829
 20
472.18574652610488
 30
0.0
 11
135.9017376231829
 21
472.41749104107078
 31
0.0
  0
LINE
  5
5C2C
  8
AM_0
 10
135.9017376231829
 20
472.8974589382596
 30
0.0
 11
135.4017376231829
 21
472.18574652610488
 31
0.0
  0
LINE
  5
5C2D
  8
AM_0
 10
135.4017376231829
 20
472.7234712531328
 30
0.0
 11
135.9017376231829
 21
472.8974589382596
 31
0.0
  0
LINE
  5
5C2E
  8
AM_0
 10
135.9017376231829
 20
473.3974589382596
 30
0.0
 11
135.4017376231829
 21
472.7234712531328
 31
0.0
  0
LINE
  5
5C2F
  8
AM_0
 10
135.4017376231829
 20
473.18574652610488
 30
0.0
 11
135.9017376231829
 21
473.3974589382596
 31
0.0
  0
ARC
  5
5C30
  8
AM_0
 10
132.9017376231829
 20
470.79580416362779
 30
0.0
 40
1.0
 50
129.8055710922641
 51
180.0
  0
LINE
  5
5C31
  8
AM_0
 10
257.30040871952889
 20
439.76417910961197
 30
0.0
 11
236.48590381999651
 21
439.76417910961197
 31
0.0
  0
LINE
  5
5C32
  8
AM_0
 10
182.1149136190613
 20
439.76417910961197
 30
0.0
 11
161.30040871952951
 21
439.76417910961197
 31
0.0
  0
LINE
  5
5C33
  8
AM_0
 10
251.1646270503679
 20
435.76417910961197
 30
0.0
 11
167.43619038868971
 21
435.76417910961197
 31
0.0
  0
LINE
  5
5C34
  8
AM_0
 10
170.20776369183591
 20
437.70524159748419
 30
0.0
 11
170.30040871952951
 21
438.76417910961197
 31
0.0
  0
LINE
  5
5C35
  8
AM_0
 10
162.39305374722289
 20
437.70524159748419
 30
0.0
 11
162.30040871952951
 21
438.76417910961197
 31
0.0
  0
ARC
  5
5C36
  8
AM_0
 10
166.30040871952951
 20
442.16417910961201
 30
0.0
 40
6.5
 50
241.82726586813479
 51
298.17273413186518
  0
ARC
  5
5C37
  8
AM_0
 10
163.98696526416981
 20
437.84469078588057
 30
0.0
 40
1.6000000000000001
 50
185.0
 51
241.82726586813479
  0
LINE
  5
5C38
  8
AM_0
 10
168.6004087195295
 20
436.0847054481838
 30
0.0
 11
166.30040871952951
 21
438.37426512697908
 31
0.0
  0
LINE
  5
5C39
  8
AM_0
 10
166.61190871952951
 20
438.06417910961193
 30
0.0
 11
165.98890871952941
 21
438.06417910961193
 31
0.0
  0
LINE
  5
5C3A
  8
AM_0
 10
164.0004087195295
 20
436.0847054481838
 30
0.0
 11
166.30040871952951
 21
438.37426512697908
 31
0.0
  0
LINE
  5
5C3B
  8
AM_0
 10
166.61190871952951
 20
435.67164741927741
 30
0.0
 11
166.61190871952951
 21
438.06417910961193
 31
0.0
  0
LINE
  5
5C3C
  8
AM_0
 10
165.98890871952941
 20
435.67164741927741
 30
0.0
 11
165.98890871952941
 21
438.06417910961193
 31
0.0
  0
ARC
  5
5C3D
  8
AM_0
 10
168.61385217488919
 20
437.84469078588057
 30
0.0
 40
1.6000000000000001
 50
298.17273413186518
 51
354.99999999999977
  0
LINE
  5
5C3E
  8
AM_0
 10
257.300408719529
 20
439.76417910961197
 30
0.0
 11
257.300408719529
 21
443.76417910961197
 31
0.0
  0
LINE
  5
5C3F
  8
AM_0
 10
161.3004087195286
 20
443.76417910961192
 30
0.0
 11
161.30040871952971
 21
439.76417910961197
 31
0.0
  0
LINE
  5
5C40
  8
AM_0N
 10
170.10040871952941
 20
439.76417910961197
 30
0.0
 11
170.10040871952941
 21
438.76417910961197
 31
0.0
  0
LINE
  5
5C41
  8
AM_0N
 10
166.5004087195295
 20
438.76417910961197
 30
0.0
 11
166.86437895379569
 21
439.76417910961197
 31
0.0
  0
LINE
  5
5C42
  8
AM_0N
 10
166.10040871952941
 20
438.76417910961197
 30
0.0
 11
166.46437895379549
 21
439.76417910961197
 31
0.0
  0
LINE
  5
5C43
  8
AM_0N
 10
162.30040871952951
 20
438.76417910961197
 30
0.0
 11
170.30040871952951
 21
438.76417910961197
 31
0.0
  0
LINE
  5
5C44
  8
AM_0N
 10
162.5004087195295
 20
438.76417910961197
 30
0.0
 11
162.5004087195295
 21
439.76417910961197
 31
0.0
  0
LINE
  5
5C45
  8
AM_0
 10
182.1149136190611
 20
435.76417910961197
 30
0.0
 11
182.1149136190611
 21
439.76417910961197
 31
0.0
  0
LINE
  5
5C46
  8
AM_0
 10
180.4580593695685
 20
439.76417910961197
 30
0.0
 11
182.1149136190611
 21
435.76417910961197
 31
0.0
  0
LINE
  5
5C47
  8
AM_0
 10
236.48590381999651
 20
435.76417910961197
 30
0.0
 11
236.48590381999651
 21
439.76417910961197
 31
0.0
  0
LINE
  5
5C48
  8
AM_0
 10
238.14275806948899
 20
439.76417910961197
 30
0.0
 11
236.48590381999651
 21
435.76417910961197
 31
0.0
  0
LINE
  5
5C49
  8
AM_0
 10
175.8004087195288
 20
484.76417910961197
 30
0.0
 11
242.80040871952889
 21
484.76417910961197
 31
0.0
  0
LINE
  5
5C4A
  8
AM_0
 10
175.8004087195288
 20
484.76417910961197
 30
0.0
 11
175.8004087195288
 21
482.76417910961197
 31
0.0
  0
LINE
  5
5C4B
  8
AM_0
 10
242.80040871952889
 20
484.76417910961197
 30
0.0
 11
242.80040871952889
 21
482.76417910961197
 31
0.0
  0
LINE
  5
5C4C
  8
ﾁｭｳｼﾝｾﾝ1
 10
252.30040871952821
 20
433.49947160961199
 30
0.0
 11
252.30040871952821
 21
446.49947160961199
 31
0.0
  0
LINE
  5
5C4D
  8
AM_0
 10
248.39305374722181
 20
437.70524159748419
 30
0.0
 11
248.30040871952829
 21
438.76417910961197
 31
0.0
  0
LINE
  5
5C4E
  8
AM_0
 10
256.20776369183483
 20
437.70524159748419
 30
0.0
 11
256.30040871952821
 21
438.76417910961197
 31
0.0
  0
ARC
  5
5C4F
  8
AM_0
 10
252.30040871952849
 20
442.16417910961189
 30
0.0
 40
6.5
 50
241.82726586813479
 51
298.17273413186518
  0
ARC
  5
5C50
  8
AM_0
 10
254.61385217488819
 20
437.84469078588029
 30
0.0
 40
1.6000000000000001
 50
298.17273413186518
 51
354.99999999999977
  0
LINE
  5
5C51
  8
AM_0
 10
250.00040871952831
 20
436.0847054481838
 30
0.0
 11
252.30040871952829
 21
438.37426512697908
 31
0.0
  0
LINE
  5
5C52
  8
AM_0
 10
251.9889087195283
 20
438.06417910961193
 30
0.0
 11
252.61190871952829
 21
438.06417910961193
 31
0.0
  0
LINE
  5
5C53
  8
AM_0
 10
254.6004087195283
 20
436.0847054481838
 30
0.0
 11
252.30040871952829
 21
438.37426512697908
 31
0.0
  0
LINE
  5
5C54
  8
AM_0
 10
251.9889087195283
 20
435.67164741927741
 30
0.0
 11
251.9889087195283
 21
438.06417910961193
 31
0.0
  0
LINE
  5
5C55
  8
AM_0
 10
252.61190871952829
 20
435.67164741927741
 30
0.0
 11
252.61190871952829
 21
438.06417910961193
 31
0.0
  0
ARC
  5
5C56
  8
AM_0
 10
249.98696526416879
 20
437.84469078588029
 30
0.0
 40
1.6000000000000001
 50
185.0
 51
241.82726586813479
  0
LINE
  5
5C57
  8
AM_0N
 10
248.5004087195282
 20
439.76417910961197
 30
0.0
 11
248.5004087195282
 21
438.76417910961197
 31
0.0
  0
LINE
  5
5C58
  8
AM_0N
 10
252.1004087195283
 20
438.76417910961197
 30
0.0
 11
251.73643848526211
 21
439.76417910961197
 31
0.0
  0
LINE
  5
5C59
  8
AM_0N
 10
252.50040871952831
 20
438.76417910961197
 30
0.0
 11
252.13643848526209
 21
439.76417910961197
 31
0.0
  0
LINE
  5
5C5A
  8
AM_0N
 10
256.30040871952832
 20
438.76417910961197
 30
0.0
 11
248.30040871952829
 21
438.76417910961197
 31
0.0
  0
LINE
  5
5C5B
  8
AM_0N
 10
256.10040871952828
 20
438.76417910961197
 30
0.0
 11
256.10040871952828
 21
439.76417910961197
 31
0.0
  0
LINE
  5
5C5C
  8
AM_0
 10
160.3004087195288
 20
446.76417910961192
 30
0.0
 11
160.3004087195288
 21
478.76417910961192
 31
0.0
  0
LINE
  5
5C5D
  8
AM_0
 10
258.50615871952903
 20
595.69306910961211
 30
0.0
 11
254.3604387195291
 21
611.17417910961194
 31
0.0
  0
LINE
  5
5C5E
  8
AM_0
 10
258.5061287195291
 20
594.78306910961214
 30
0.0
 11
254.360408719529
 21
610.26417910961209
 31
0.0
  0
LINE
  5
5C5F
  8
AM_0
 10
258.5061287195291
 20
592.93308910961196
 30
0.0
 11
254.360408719529
 21
608.41422910961205
 31
0.0
  0
LINE
  5
5C60
  8
AM_0
 10
260.300408719529
 20
606.76417910961209
 30
0.0
 11
260.300408719529
 21
494.7641791096118
 31
0.0
  0
LINE
  5
5C61
  8
AM_0
 10
138.30040871952909
 20
598.78419910961202
 30
0.0
 11
138.30040871952909
 21
555.76417910961209
 31
0.0
  0
LINE
  5
5C62
  8
AM_0
 10
140.57042871952899
 20
600.51417910961209
 30
0.0
 11
142.800408719529
 21
600.51417910961209
 31
0.0
  0
LINE
  5
5C63
  8
AM_0
 10
140.5004187195288
 20
586.45411910961207
 30
0.0
 11
142.60039871952901
 21
586.45411910961207
 31
0.0
  0
LINE
  5
5C64
  8
AM_0
 10
140.07042871952899
 20
600.38413910961208
 30
0.0
 11
138.80046871952899
 21
599.64414910961193
 31
0.0
  0
LINE
  5
5C65
  8
AM_0
 10
140.06035871952901
 20
598.26423910961205
 30
0.0
 11
138.78038871952899
 21
597.49421910961212
 31
0.0
  0
LINE
  5
5C66
  8
AM_0
 10
140.05034871952921
 20
593.72419910961196
 30
0.0
 11
138.750358719529
 21
592.87421910961189
 31
0.0
  0
LINE
  5
5C67
  8
AM_0
 10
140.110408719529
 20
586.37418910961185
 30
0.0
 11
138.9104587195292
 21
585.86417910961211
 31
0.0
  0
LINE
  5
5C68
  8
AM_0
 10
140.58043871952901
 20
598.40418910961205
 30
0.0
 11
143.3004087195292
 21
598.40418910961205
 31
0.0
  0
LINE
  5
5C69
  8
AM_0
 10
140.600458719529
 20
593.89417910961185
 30
0.0
 11
143.3004087195292
 21
593.89417910961185
 31
0.0
  0
LINE
  5
5C6A
  8
AM_0
 10
140.45043871952899
 20
584.50416910961201
 30
0.0
 11
142.3004087195292
 21
584.50416910961201
 31
0.0
  0
LINE
  5
5C6B
  8
AM_0
 10
140.57042871952899
 20
592.75416910961212
 30
0.0
 11
142.3004087195292
 21
592.75416910961212
 31
0.0
  0
LINE
  5
5C6C
  8
AM_0
 10
140.550408719529
 20
597.26417910961209
 30
0.0
 11
142.3004087195292
 21
597.26417910961209
 31
0.0
  0
LINE
  5
5C6D
  8
AM_0
 10
140.54039871952921
 20
599.36414910961184
 30
0.0
 11
142.800408719529
 21
599.36414910961184
 31
0.0
  0
LINE
  5
5C6E
  8
AM_0
 10
140.0703687195292
 20
592.61420910961215
 30
0.0
 11
138.79039871952921
 21
591.86420910961192
 31
0.0
  0
LINE
  5
5C6F
  8
AM_0
 10
140.16039871952921
 20
584.46421910961192
 30
0.0
 11
139.0104287195291
 21
584.11420910961215
 31
0.0
  0
LINE
  5
5C70
  8
AM_0
 10
140.0903887195291
 20
599.26417910961197
 30
0.0
 11
138.85039871952921
 21
598.63416910961189
 31
0.0
  0
LINE
  5
5C71
  8
AM_0
 10
140.08043871952901
 20
597.15421910961186
 30
0.0
 11
138.83043871952901
 21
596.48420910961192
 31
0.0
  0
LINE
  5
5C72
  8
AM_0
 10
142.3004087195292
 20
576.76417910961209
 30
0.0
 11
139.3004087195292
 21
576.76417910961209
 31
0.0
  0
LINE
  5
5C73
  8
AM_0
 10
142.3004087195292
 20
574.76417910961186
 30
0.0
 11
139.3004087195292
 21
574.76417910961186
 31
0.0
  0
LINE
  5
5C74
  8
AM_0
 10
142.3004087195292
 20
566.76417910961186
 30
0.0
 11
139.3004087195292
 21
566.76417910961186
 31
0.0
  0
LINE
  5
5C75
  8
AM_0
 10
142.3004087195292
 20
564.76417910961209
 30
0.0
 11
139.3004087195292
 21
564.76417910961209
 31
0.0
  0
LINE
  5
5C76
  8
AM_0
 10
142.3004087195292
 20
556.76417910961209
 30
0.0
 11
139.3004087195292
 21
556.76417910961209
 31
0.0
  0
LINE
  5
5C77
  8
AM_0
 10
142.3004087195292
 20
554.76417910961186
 30
0.0
 11
139.3004087195292
 21
554.76417910961186
 31
0.0
  0
LINE
  5
5C78
  8
AM_0
 10
140.3004087195292
 20
566.37415910961192
 30
0.0
 11
140.3004087195292
 21
565.16419910961201
 31
0.0
  0
LINE
  5
5C79
  8
AM_0
 10
140.3004087195292
 20
556.37415910961181
 30
0.0
 11
140.3004087195292
 21
555.21412910961192
 31
0.0
  0
LINE
  5
5C7A
  8
AM_0
 10
140.3004087195292
 20
576.39417910961197
 30
0.0
 11
140.3004087195292
 21
575.02418910961217
 31
0.0
  0
LINE
  5
5C7B
  8
AM_0
 10
140.3004087195292
 20
586.15418910961216
 30
0.0
 11
140.3004087195292
 21
585.09412910961191
 31
0.0
  0
LINE
  5
5C7C
  8
AM_0
 10
140.3004087195292
 20
593.59412910961191
 30
0.0
 11
140.3004087195292
 21
593.12415910961192
 31
0.0
  0
LINE
  5
5C7D
  8
AM_0
 10
140.3004087195292
 20
598.16419910961213
 30
0.0
 11
140.3004087195292
 21
597.61414910961207
 31
0.0
  0
LINE
  5
5C7E
  8
AM_0
 10
140.3004087195292
 20
600.26417910961186
 30
0.0
 11
140.3004087195292
 21
599.73414910961185
 31
0.0
  0
LINE
  5
5C7F
  8
AM_0
 10
136.80040871952909
 20
570.76417910961186
 30
0.0
 11
136.80040871952909
 21
550.76417910961186
 31
0.0
  0
LINE
  5
5C80
  8
AM_0
 10
136.80040871952909
 20
570.76414910961205
 30
0.0
 11
138.30040871952909
 21
570.89414910961193
 31
0.0
  0
LINE
  5
5C81
  8
AM_0
 10
136.80040871952909
 20
565.91419910961179
 30
0.0
 11
138.30040871952909
 21
565.91419910961179
 31
0.0
  0
LINE
  5
5C82
  8
AM_0
 10
136.80040871952909
 20
568.04420910961198
 30
0.0
 11
138.30040871952909
 21
568.04420910961198
 31
0.0
  0
LINE
  5
5C83
  8
AM_0
 10
253.64043871952899
 20
586.76417910961197
 30
0.0
 11
154.6603987195291
 21
586.76417910961197
 31
0.0
  0
LINE
  5
5C84
  8
AM_0
 10
253.64043871952899
 20
584.76417910961209
 30
0.0
 11
154.6603987195291
 21
584.76417910961209
 31
0.0
  0
LINE
  5
5C85
  8
AM_0
 10
221.3004087195292
 20
576.76417910961209
 30
0.0
 11
154.6603987195291
 21
576.76417910961209
 31
0.0
  0
LINE
  5
5C86
  8
AM_0
 10
253.6332387195292
 20
574.76417910961186
 30
0.0
 11
154.6603987195291
 21
574.76417910961186
 31
0.0
  0
LINE
  5
5C87
  8
AM_0
 10
188.73912871952891
 20
566.76417910961186
 30
0.0
 11
154.6603987195291
 21
566.76417910961186
 31
0.0
  0
LINE
  5
5C88
  8
AM_0
 10
188.73912871952891
 20
564.76417910961209
 30
0.0
 11
154.6603987195291
 21
564.76417910961209
 31
0.0
  0
LINE
  5
5C89
  8
AM_0
 10
188.73912871952891
 20
556.76417910961209
 30
0.0
 11
154.6603987195291
 21
556.76417910961209
 31
0.0
  0
LINE
  5
5C8A
  8
AM_0
 10
188.73912871952891
 20
554.76417910961186
 30
0.0
 11
154.6603987195291
 21
554.76417910961186
 31
0.0
  0
LINE
  5
5C8B
  8
AM_0
 10
153.98039871952909
 20
587.48414910961185
 30
0.0
 11
257.12041871952903
 21
587.48414910961185
 31
0.0
  0
LINE
  5
5C8C
  8
AM_0
 10
153.98039871952909
 20
584.13416910961212
 30
0.0
 11
221.32042871952919
 21
584.13416910961212
 31
0.0
  0
LINE
  5
5C8D
  8
AM_0
 10
153.76042871952899
 20
577.25416910961201
 30
0.0
 11
221.3004087195292
 21
577.25416910961201
 31
0.0
  0
LINE
  5
5C8E
  8
AM_0
 10
153.76042871952899
 20
574.32422910961202
 30
0.0
 11
257.33464871952913
 21
574.32422910961202
 31
0.0
  0
LINE
  5
5C8F
  8
AM_0
 10
153.63042871952899
 20
567.10413910961211
 30
0.0
 11
189.95909871952901
 21
567.10413910961211
 31
0.0
  0
LINE
  5
5C90
  8
AM_0
 10
153.63042871952899
 20
564.44422910961202
 30
0.0
 11
189.95909871952901
 21
564.44422910961202
 31
0.0
  0
LINE
  5
5C91
  8
AM_0
 10
153.57042871952899
 20
557.03419910961202
 30
0.0
 11
190.01909871952901
 21
557.03419910961202
 31
0.0
  0
LINE
  5
5C92
  8
AM_0
 10
153.57042871952899
 20
554.50416910961201
 30
0.0
 11
190.01909871952901
 21
554.50416910961201
 31
0.0
  0
LINE
  5
5C93
  8
AM_0
 10
153.57042871952899
 20
547.03419910961202
 30
0.0
 11
190.01909871952901
 21
547.03419910961202
 31
0.0
  0
LINE
  5
5C94
  8
AM_0
 10
188.73912871952891
 20
546.76417910961186
 30
0.0
 11
154.6603987195291
 21
546.76417910961186
 31
0.0
  0
LINE
  5
5C95
  8
AM_0
 10
188.73912871952891
 20
544.76417910961209
 30
0.0
 11
154.6603987195291
 21
544.76417910961209
 31
0.0
  0
LINE
  5
5C96
  8
AM_0
 10
153.57042871952899
 20
544.49415910961216
 30
0.0
 11
190.01909871952901
 21
544.49415910961216
 31
0.0
  0
LINE
  5
5C97
  8
AM_0
 10
153.63042871952899
 20
537.08411910961195
 30
0.0
 11
189.95909871952901
 21
537.08411910961195
 31
0.0
  0
LINE
  5
5C98
  8
AM_0
 10
188.73912871952891
 20
536.76417910961197
 30
0.0
 11
154.6603987195291
 21
536.76417910961197
 31
0.0
  0
LINE
  5
5C99
  8
AM_0
 10
188.73912871952891
 20
534.76417910961209
 30
0.0
 11
154.6603987195291
 21
534.76417910961209
 31
0.0
  0
LINE
  5
5C9A
  8
AM_0
 10
153.63042871952899
 20
534.42420910961209
 30
0.0
 11
189.971678719529
 21
534.42420910961209
 31
0.0
  0
LINE
  5
5C9B
  8
AM_0
 10
253.6332387195292
 20
526.76417910961209
 30
0.0
 11
154.6603987195291
 21
526.76417910961209
 31
0.0
  0
LINE
  5
5C9C
  8
AM_0
 10
153.76042871952899
 20
527.20411910961195
 30
0.0
 11
257.33464871952913
 21
527.20411910961195
 31
0.0
  0
LINE
  5
5C9D
  8
AM_0
 10
221.3004087195292
 20
524.76417910961186
 30
0.0
 11
154.6603987195291
 21
524.76417910961186
 31
0.0
  0
LINE
  5
5C9E
  8
AM_0
 10
153.76042871952899
 20
524.27418910961205
 30
0.0
 11
221.3004087195292
 21
524.27418910961205
 31
0.0
  0
LINE
  5
5C9F
  8
AM_0
 10
253.64043871952899
 20
516.76417910961186
 30
0.0
 11
209.300408719529
 21
516.76417910961186
 31
0.0
  0
LINE
  5
5CA0
  8
AM_0
 10
253.64043871952899
 20
514.76417910961186
 30
0.0
 11
209.300408719529
 21
514.76417910961186
 31
0.0
  0
LINE
  5
5CA1
  8
AM_0
 10
153.98039871952909
 20
514.04420910961198
 30
0.0
 11
209.300408719529
 21
514.04420910961198
 31
0.0
  0
LINE
  5
5CA2
  8
AM_0
 10
257.12041871952903
 20
517.39417910961185
 30
0.0
 11
239.28044871952901
 21
517.39417910961185
 31
0.0
  0
LINE
  5
5CA3
  8
AM_0
 10
140.5004187195288
 20
515.07422910961202
 30
0.0
 11
142.60039871952901
 21
515.07422910961202
 31
0.0
  0
LINE
  5
5CA4
  8
AM_0
 10
140.1104687195288
 20
515.15421910961209
 30
0.0
 11
138.9104587195292
 21
515.67423910961202
 31
0.0
  0
LINE
  5
5CA5
  8
AM_0
 10
140.45043871952899
 20
517.02418910961183
 30
0.0
 11
142.3004087195292
 21
517.02418910961183
 31
0.0
  0
LINE
  5
5CA6
  8
AM_0
 10
140.16039871952921
 20
517.06415910961175
 30
0.0
 11
139.0104287195291
 21
517.42417910961206
 31
0.0
  0
LINE
  5
5CA7
  8
AM_0
 10
142.3004087195292
 20
524.76417910961186
 30
0.0
 11
139.3004087195292
 21
524.76417910961186
 31
0.0
  0
LINE
  5
5CA8
  8
AM_0
 10
142.3004087195292
 20
526.76417910961209
 30
0.0
 11
139.3004087195292
 21
526.76417910961209
 31
0.0
  0
LINE
  5
5CA9
  8
AM_0
 10
142.3004087195292
 20
534.76417910961209
 30
0.0
 11
139.3004087195292
 21
534.76417910961209
 31
0.0
  0
LINE
  5
5CAA
  8
AM_0
 10
142.3004087195292
 20
536.76417910961197
 30
0.0
 11
139.3004087195292
 21
536.76417910961197
 31
0.0
  0
LINE
  5
5CAB
  8
AM_0
 10
142.3004087195292
 20
544.76417910961209
 30
0.0
 11
139.3004087195292
 21
544.76417910961209
 31
0.0
  0
LINE
  5
5CAC
  8
AM_0
 10
142.3004087195292
 20
546.76417910961186
 30
0.0
 11
139.3004087195292
 21
546.76417910961186
 31
0.0
  0
LINE
  5
5CAD
  8
AM_0
 10
140.3004087195292
 20
535.15418910961205
 30
0.0
 11
140.3004087195292
 21
536.37415910961192
 31
0.0
  0
LINE
  5
5CAE
  8
AM_0
 10
140.3004087195292
 20
545.15418910961205
 30
0.0
 11
140.3004087195292
 21
546.31421910961205
 31
0.0
  0
LINE
  5
5CAF
  8
AM_0
 10
140.3004087195292
 20
525.13416910961189
 30
0.0
 11
140.3004087195292
 21
526.50416910961189
 31
0.0
  0
LINE
  5
5CB0
  8
AM_0
 10
140.3004087195292
 20
515.37415910961192
 30
0.0
 11
140.3004087195292
 21
516.43421910961194
 31
0.0
  0
LINE
  5
5CB1
  8
AM_0
 10
136.80040871952909
 20
530.76417910961209
 30
0.0
 11
136.80040871952909
 21
550.76417910961186
 31
0.0
  0
LINE
  5
5CB2
  8
AM_0
 10
136.80040871952909
 20
530.76414910961205
 30
0.0
 11
138.30040871952909
 21
530.63413910961185
 31
0.0
  0
LINE
  5
5CB3
  8
AM_0
 10
136.80040871952909
 20
535.61414910961207
 30
0.0
 11
138.30040871952909
 21
535.61414910961207
 31
0.0
  0
LINE
  5
5CB4
  8
AM_0
 10
136.80040871952909
 20
533.48414910961196
 30
0.0
 11
138.30040871952909
 21
533.48414910961196
 31
0.0
  0
LINE
  5
5CB5
  8
AM_0
 10
153.98039871952909
 20
517.39417910961185
 30
0.0
 11
221.32042871952919
 21
517.39417910961185
 31
0.0
  0
LINE
  5
5CB6
  8
AM_0
 10
209.300408719529
 20
516.76417910961186
 30
0.0
 11
154.6603987195291
 21
516.76417910961186
 31
0.0
  0
LINE
  5
5CB7
  8
AM_0
 10
209.300408719529
 20
514.76417910961186
 30
0.0
 11
154.6603987195291
 21
514.76417910961186
 31
0.0
  0
LINE
  5
5CB8
  8
AM_0
 10
209.300408719529
 20
514.04420910961198
 30
0.0
 11
257.12041871952903
 21
514.04420910961198
 31
0.0
  0
LINE
  5
5CB9
  8
AM_0
 10
144.3004087195292
 20
603.76417910961186
 30
0.0
 11
144.3004087195292
 21
497.76417910961197
 31
0.0
  0
LINE
  5
5CBA
  8
AM_0
 10
152.300408719529
 20
603.76417910961186
 30
0.0
 11
152.300408719529
 21
497.76417910961197
 31
0.0
  0
LINE
  5
5CBB
  8
AM_0
 10
138.79039871952921
 20
509.66416910961192
 30
0.0
 11
138.77037871952899
 21
509.6741491096119
 31
0.0
  0
LINE
  5
5CBC
  8
AM_0
 10
143.3004087195292
 20
600.76417910961186
 30
0.0
 11
143.3004087195292
 21
500.76417910961169
 31
0.0
  0
LINE
  5
5CBD
  8
AM_0
 10
143.3004087195292
 20
600.76417910961186
 30
0.0
 11
144.3004087195292
 21
600.76417910961186
 31
0.0
  0
LINE
  5
5CBE
  8
AM_0
 10
144.3004087195292
 20
603.76417910961186
 30
0.0
 11
152.300408719529
 21
603.76417910961186
 31
0.0
  0
LINE
  5
5CBF
  8
AM_0
 10
145.0004187195288
 20
593.95411910961195
 30
0.0
 11
151.23039871952921
 21
593.95411910961195
 31
0.0
  0
LINE
  5
5CC0
  8
AM_0
 10
260.300408719529
 20
596.76417910961186
 30
0.0
 11
268.300408719529
 21
596.76417910961186
 31
0.0
  0
LINE
  5
5CC1
  8
AM_0
 10
260.300408719529
 20
582.70411910961195
 30
0.0
 11
268.300408719529
 21
582.70411910961195
 31
0.0
  0
LINE
  5
5CC2
  8
AM_0
 10
260.300408719529
 20
606.76417910961209
 30
0.0
 11
268.300408719529
 21
606.76417910961209
 31
0.0
  0
LINE
  5
5CC3
  8
AM_0
 10
155.5104287195289
 20
607.04420910961198
 30
0.0
 11
252.430418719529
 21
607.04420910961198
 31
0.0
  0
LINE
  5
5CC4
  8
AM_0
 10
152.300408719529
 20
598.86423910961207
 30
0.0
 11
153.54039871952909
 21
605.42423910961202
 31
0.0
  0
LINE
  5
5CC5
  8
AM_0
 10
157.660458719529
 20
587.41419910961201
 30
0.0
 11
152.30046871952899
 21
598.864179109612
 31
0.0
  0
LINE
  5
5CC6
  8
AM_0
 10
157.6603987195291
 20
514.11414910961184
 30
0.0
 11
152.30046871952899
 21
502.6742391096119
 31
0.0
  0
LINE
  5
5CC7
  8
AM_0
 10
155.550408719529
 20
609.89417910961197
 30
0.0
 11
252.430418719529
 21
609.89417910961197
 31
0.0
  0
LINE
  5
5CC8
  8
AM_0
 10
155.57042871952899
 20
611.74415910961216
 30
0.0
 11
252.430418719529
 21
611.74415910961216
 31
0.0
  0
LINE
  5
5CC9
  8
AM_0
 10
155.59044871952901
 20
612.65418910961205
 30
0.0
 11
252.43047871952911
 21
612.65418910961205
 31
0.0
  0
LINE
  5
5CCA
  8
AM_0
 10
152.30046871952899
 20
600.20420910961207
 30
0.0
 11
153.58043871952901
 21
608.21415910961196
 31
0.0
  0
LINE
  5
5CCB
  8
AM_0
 10
152.30046871952899
 20
601.5541491096119
 30
0.0
 11
153.59044871952909
 21
610.04423910961202
 31
0.0
  0
LINE
  5
5CCC
  8
AM_0
 10
152.300408719529
 20
601.55417910961205
 30
0.0
 11
153.610408719529
 21
610.93421910961194
 31
0.0
  0
LINE
  5
5CCD
  8
AM_0
 10
258.50047871952921
 20
590.10413910961211
 30
0.0
 11
254.360468719529
 21
605.56415910961198
 31
0.0
  0
LINE
  5
5CCE
  8
AM_0
 10
254.84044871952909
 20
603.76417910961186
 30
0.0
 11
260.300408719529
 21
603.76417910961186
 31
0.0
  0
LINE
  5
5CCF
  8
AM_0
 10
138.30040871952909
 20
502.74415910961199
 30
0.0
 11
138.30040871952909
 21
545.76417910961186
 31
0.0
  0
LINE
  5
5CD0
  8
AM_0
 10
140.57042871952899
 20
501.0141791096118
 30
0.0
 11
142.800408719529
 21
501.0141791096118
 31
0.0
  0
LINE
  5
5CD1
  8
AM_0
 10
140.07042871952899
 20
501.15418910961188
 30
0.0
 11
138.80046871952899
 21
501.88416910961189
 31
0.0
  0
LINE
  5
5CD2
  8
AM_0
 10
140.0604787195289
 20
503.2641791096118
 30
0.0
 11
138.7804487195292
 21
504.0341991096119
 31
0.0
  0
LINE
  5
5CD3
  8
AM_0
 10
140.05034871952921
 20
507.80414910961201
 30
0.0
 11
138.750358719529
 21
508.65415910961201
 31
0.0
  0
LINE
  5
5CD4
  8
AM_0
 10
140.58043871952901
 20
503.12415910961198
 30
0.0
 11
143.3004087195292
 21
503.12415910961198
 31
0.0
  0
LINE
  5
5CD5
  8
AM_0
 10
140.600458719529
 20
507.64417910961203
 30
0.0
 11
143.3004087195292
 21
507.64417910961203
 31
0.0
  0
LINE
  5
5CD6
  8
AM_0
 10
140.57042871952899
 20
508.7841991096119
 30
0.0
 11
142.3004087195292
 21
508.7841991096119
 31
0.0
  0
LINE
  5
5CD7
  8
AM_0
 10
140.550408719529
 20
504.2641791096118
 30
0.0
 11
142.3004087195292
 21
504.2641791096118
 31
0.0
  0
LINE
  5
5CD8
  8
AM_0
 10
140.54039871952921
 20
502.1641991096119
 30
0.0
 11
142.800408719529
 21
502.1641991096119
 31
0.0
  0
LINE
  5
5CD9
  8
AM_0
 10
140.07042871952899
 20
508.91422910961199
 30
0.0
 11
138.79045871952911
 21
509.66419910961179
 31
0.0
  0
LINE
  5
5CDA
  8
AM_0
 10
140.0903887195291
 20
502.2741591096119
 30
0.0
 11
138.85039871952921
 21
502.9041591096119
 31
0.0
  0
LINE
  5
5CDB
  8
AM_0
 10
140.08043871952901
 20
504.384169109612
 30
0.0
 11
138.83043871952901
 21
505.04416910961203
 31
0.0
  0
LINE
  5
5CDC
  8
AM_0
 10
140.3004087195292
 20
507.93421910961189
 30
0.0
 11
140.3004087195292
 21
508.4041891096121
 31
0.0
  0
LINE
  5
5CDD
  8
AM_0
 10
140.3004087195292
 20
503.3641491096119
 30
0.0
 11
140.3004087195292
 21
503.9141991096119
 31
0.0
  0
LINE
  5
5CDE
  8
AM_0
 10
140.3004087195292
 20
501.26417910961169
 30
0.0
 11
140.3004087195292
 21
501.7942091096121
 31
0.0
  0
LINE
  5
5CDF
  8
AM_0
 10
143.3004087195292
 20
500.76417910961169
 30
0.0
 11
144.3004087195292
 21
500.76417910961169
 31
0.0
  0
LINE
  5
5CE0
  8
AM_0
 10
144.3004087195292
 20
497.76417910961197
 30
0.0
 11
152.300408719529
 21
497.76417910961197
 31
0.0
  0
LINE
  5
5CE1
  8
AM_0
 10
145.0004187195288
 20
507.57422910961191
 30
0.0
 11
151.23039871952921
 21
507.57422910961191
 31
0.0
  0
LINE
  5
5CE2
  8
AM_0
 10
260.300408719529
 20
504.76417910961169
 30
0.0
 11
268.300408719529
 21
504.76417910961169
 31
0.0
  0
LINE
  5
5CE3
  8
AM_0
 10
260.300408719529
 20
494.7641791096118
 30
0.0
 11
268.300408719529
 21
494.7641791096118
 31
0.0
  0
LINE
  5
5CE4
  8
AM_0
 10
155.5104287195289
 20
494.48414910961191
 30
0.0
 11
252.430418719529
 21
494.48414910961191
 31
0.0
  0
LINE
  5
5CE5
  8
AM_0
 10
152.300408719529
 20
502.6741491096119
 30
0.0
 11
153.540458719529
 21
496.1141491096119
 31
0.0
  0
LINE
  5
5CE6
  8
AM_0
 10
155.206658719529
 20
491.63416910961189
 30
0.0
 11
177.69853871952901
 21
491.63416910961189
 31
0.0
  0
LINE
  5
5CE7
  8
AM_0
 10
152.300408719529
 20
501.32413910961191
 30
0.0
 11
153.58043871952901
 21
493.32422910961191
 31
0.0
  0
LINE
  5
5CE8
  8
AM_0
 10
152.300408719529
 20
499.98423910961202
 30
0.0
 11
153.30968871952899
 21
493.33405910961193
 31
0.0
  0
LINE
  5
5CE9
  8
AM_0
 10
152.30046871952899
 20
499.98420910961198
 30
0.0
 11
153.225888719529
 21
493.35761910961179
 31
0.0
  0
LINE
  5
5CEA
  8
AM_0
 10
258.5061287195291
 20
511.44532910961192
 30
0.0
 11
254.360408719529
 21
495.96418910961188
 31
0.0
  0
LINE
  5
5CEB
  8
AM_0
 10
254.84245871952891
 20
497.76417910961197
 30
0.0
 11
260.300408719529
 21
497.76417910961197
 31
0.0
  0
LINE
  5
5CEC
  8
AM_0
 10
260.300408719529
 20
518.82422910961202
 30
0.0
 11
268.300408719529
 21
518.82422910961202
 31
0.0
  0
LINE
  5
5CED
  8
AM_0
 10
259.300408719529
 20
497.76417910961197
 30
0.0
 11
253.574668719529
 21
488.947279109612
 31
0.0
  0
LINE
  5
5CEE
  8
AM_0
 10
240.81401871952909
 20
488.26417910961169
 30
0.0
 11
252.3166487195291
 21
488.26417910961169
 31
0.0
  0
LINE
  5
5CEF
  8
AM_0
 10
238.28044871952901
 20
578.26417910961197
 30
0.0
 11
238.28044871952901
 21
583.12415910961192
 31
0.0
  0
LINE
  5
5CF0
  8
AM_0
 10
222.3204287195291
 20
578.26417910961197
 30
0.0
 11
222.3204287195291
 21
583.12415910961192
 31
0.0
  0
LINE
  5
5CF1
  8
AM_0
 10
237.8004087195292
 20
578.26417910961197
 30
0.0
 11
237.8004087195292
 21
583.26417910961186
 31
0.0
  0
LINE
  5
5CF2
  8
AM_0
 10
222.800408719529
 20
578.26417910961197
 30
0.0
 11
222.800408719529
 21
583.26417910961186
 31
0.0
  0
LINE
  5
5CF3
  8
AM_0
 10
194.300408719529
 20
563.76417910961209
 30
0.0
 11
257.300408719529
 21
563.76417910961209
 31
0.0
  0
LINE
  5
5CF4
  8
AM_0
 10
194.300408719529
 20
530.26417910961186
 30
0.0
 11
257.300408719529
 21
530.26417910961186
 31
0.0
  0
LINE
  5
5CF5
  8
AM_0
 10
194.300408719529
 20
571.26417910961186
 30
0.0
 11
257.300408719529
 21
571.26417910961186
 31
0.0
  0
LINE
  5
5CF6
  8
AM_0
 10
257.300408719529
 20
571.26417910961186
 30
0.0
 11
257.300408719529
 21
530.26417910961186
 31
0.0
  0
LINE
  5
5CF7
  8
AM_0
 10
194.300408719529
 20
571.26417910961186
 30
0.0
 11
194.300408719529
 21
530.26417910961186
 31
0.0
  0
LINE
  5
5CF8
  8
AM_0
 10
239.300408719529
 20
577.25416910961201
 30
0.0
 11
257.34612871952902
 21
577.25416910961201
 31
0.0
  0
LINE
  5
5CF9
  8
AM_0
 10
239.300408719529
 20
524.28419910961202
 30
0.0
 11
257.33464871952913
 21
524.28419910961202
 31
0.0
  0
LINE
  5
5CFA
  8
AM_0
 10
238.28044871952901
 20
523.26417910961197
 30
0.0
 11
238.28044871952901
 21
518.40418910961205
 31
0.0
  0
LINE
  5
5CFB
  8
AM_0
 10
222.3204287195291
 20
523.26417910961197
 30
0.0
 11
222.3204287195291
 21
518.40418910961205
 31
0.0
  0
LINE
  5
5CFC
  8
AM_0
 10
237.8004087195292
 20
523.26417910961197
 30
0.0
 11
237.8004087195292
 21
518.26417910961209
 31
0.0
  0
LINE
  5
5CFD
  8
AM_0
 10
222.800408719529
 20
523.26417910961197
 30
0.0
 11
222.800408719529
 21
518.26417910961209
 31
0.0
  0
LINE
  5
5CFE
  8
AM_0
 10
253.6332387195292
 20
524.76417910961186
 30
0.0
 11
239.300408719529
 21
524.76417910961186
 31
0.0
  0
LINE
  5
5CFF
  8
AM_0
 10
253.64757871952921
 20
576.76417910961209
 30
0.0
 11
239.300408719529
 21
576.76417910961209
 31
0.0
  0
LINE
  5
5D00
  8
AM_0
 10
239.28044871952901
 20
584.12415910961192
 30
0.0
 11
257.12041871952903
 21
584.12415910961192
 31
0.0
  0
ARC
  5
5D01
  8
AM_0
 10
259.95360871952897
 20
596.09693910961209
 30
0.0
 40
1.502775999999999
 50
194.75642999999889
 51
269.87757999999872
  0
ARC
  5
5D02
  8
AM_0
 10
259.95360871952897
 20
595.18690910961209
 30
0.0
 40
1.502775999999999
 50
194.75642999999889
 51
269.87757999999872
  0
ARC
  5
5D03
  8
AM_0
 10
259.95360871952897
 20
593.33692910961213
 30
0.0
 40
1.502775999999999
 50
194.75642999999889
 51
269.87757999999872
  0
ARC
  5
5D04
  8
AM_0
 10
252.4255887195292
 20
610.6494291096119
 30
0.0
 40
2.0047290000000002
 50
15.173495999996319
 51
89.861678000000197
  0
ARC
  5
5D05
  8
AM_0
 10
252.4255887195292
 20
609.7393991096119
 30
0.0
 40
2.0047290000000002
 50
15.173495999996319
 51
89.861678000000197
  0
ARC
  5
5D06
  8
AM_0
 10
252.4255887195292
 20
607.88941910961216
 30
0.0
 40
2.0047290000000002
 50
15.173495999996319
 51
89.861678000000197
  0
ARC
  5
5D07
  8
AM_0
 10
259.95360871952897
 20
511.04139910961197
 30
0.0
 40
1.502775999999999
 50
90.122413000001615
 51
165.24357000000111
  0
ARC
  5
5D08
  8
AM_0
 10
139.2936387195289
 20
598.78211910961193
 30
0.0
 40
0.99319202
 50
119.773379999998
 51
179.87958999999799
  0
ARC
  5
5D09
  8
AM_0
 10
139.2960187195292
 20
597.7439091096121
 30
0.0
 40
0.995579
 50
116.5870899999978
 51
179.98263999999989
  0
ARC
  5
5D0A
  8
AM_0
 10
140.56243871952901
 20
599.51832910961195
 30
0.0
 40
0.9959030199999999
 50
89.541266999999124
 51
119.6071699999965
  0
ARC
  5
5D0B
  8
AM_0
 10
140.52519871952899
 20
598.37012910961175
 30
0.0
 40
0.99411702
 50
89.122643999998544
 51
115.9349800000024
  0
ARC
  5
5D0C
  8
AM_0
 10
140.56926871952879
 20
597.40992910961211
 30
0.0
 40
0.99427301
 50
89.356065999996787
 51
120.7809099999981
  0
ARC
  5
5D0D
  8
AM_0
 10
140.53551871952899
 20
596.26880910961188
 30
0.0
 40
0.99545902
 50
89.141290999999967
 51
117.20382000000021
  0
ARC
  5
5D0E
  8
AM_0
 10
140.60704871952899
 20
592.89795910961209
 30
0.0
 40
0.99617702
 50
90.381317999995943
 51
123.97049000000079
  0
ARC
  5
5D0F
  8
AM_0
 10
140.57982871952899
 20
591.75770910961205
 30
0.0
 40
0.99648702
 50
90.540720999995386
 51
120.7437700000016
  0
ARC
  5
5D10
  8
AM_0
 10
139.294488719529
 20
591.00733910961185
 30
0.0
 40
0.99404597
 50
120.4681999999988
 51
180.18564000000021
  0
ARC
  5
5D11
  8
AM_0
 10
139.2952187195288
 20
592.04175910961192
 30
0.0
 40
0.9948369899999999
 50
123.2049600000047
 51
180.4378599999981
  0
ARC
  5
5D12
  8
AM_0
 10
139.2936387195289
 20
595.60560910961192
 30
0.0
 40
0.9932109699999999
 50
117.7993199999969
 51
180.08187000000001
  0
ARC
  5
5D13
  8
AM_0
 10
139.2948587195288
 20
596.64319910961194
 30
0.0
 40
0.9944329899999999
 50
121.15212999999621
 51
179.94050999999911
  0
ARC
  5
5D14
  8
AM_0
 10
140.50139871952939
 20
585.45875910961206
 30
0.0
 40
0.9954450099999999
 50
90.056904999996419
 51
113.127449999997
  0
ARC
  5
5D15
  8
AM_0
 10
140.43956871952901
 20
583.51148910961194
 30
0.0
 40
0.9927430199999999
 50
89.374554999995496
 51
106.3320700000012
  0
ARC
  5
5D16
  8
AM_0
 10
139.29668871952919
 20
583.15992910961199
 30
0.0
 40
0.9962710099999999
 50
106.6979199999999
 51
180.33004999999989
  0
ARC
  5
5D17
  8
AM_0
 10
139.29680871952911
 20
584.94568910961209
 30
0.0
 40
0.9963999999999998
 50
112.8173600000008
 51
180.0904199999996
  0
ARC
  5
5D18
  8
AM_0
 10
139.29552871952899
 20
575.76905910961193
 30
0.0
 40
0.99507803
 50
89.715886999998034
 51
180.28410999999991
  0
ARC
  5
5D19
  8
AM_0
 10
139.300658719529
 20
575.76441910961216
 30
0.0
 40
1.000203
 50
180.01164999999551
 51
269.9883500000044
  0
ARC
  5
5D1A
  8
AM_0
 10
139.29552871952899
 20
565.76905910961193
 30
0.0
 40
0.99508202
 50
89.716099000001435
 51
180.2839099999978
  0
ARC
  5
5D1B
  8
AM_0
 10
139.300658719529
 20
565.76441910961205
 30
0.0
 40
1.0001999999999991
 50
180.01143000000161
 51
269.98856999999839
  0
ARC
  5
5D1C
  8
AM_0
 10
139.29552871952899
 20
555.76905910961193
 30
0.0
 40
0.9950849999999999
 50
89.716311000000914
 51
180.28368999999961
  0
ARC
  5
5D1D
  8
AM_0
 10
139.300658719529
 20
555.76441910961205
 30
0.0
 40
1.0001959999999981
 50
180.0112199999958
 51
269.98877999999758
  0
ARC
  5
5D1E
  8
AM_0
 10
142.3005887195288
 20
553.76429910961178
 30
0.0
 40
0.9998249999999999
 50
359.98994999999883
 51
90.010050000001243
  0
ARC
  5
5D1F
  8
AM_0
 10
142.29546871952911
 20
557.76905910961193
 30
0.0
 40
1.0049469
 50
270.28134999999719
 51
359.71866000000068
  0
ARC
  5
5D20
  8
AM_0
 10
142.3005887195288
 20
563.76429910961201
 30
0.0
 40
0.9998210099999999
 50
359.98975000000149
 51
90.010254999998992
  0
ARC
  5
5D21
  8
AM_0
 10
142.29546871952911
 20
567.76905910961193
 30
0.0
 40
1.004939
 50
270.28091000000421
 51
359.71909999999991
  0
ARC
  5
5D22
  8
AM_0
 10
142.3005887195288
 20
573.7642991096119
 30
0.0
 40
0.9998289899999999
 50
359.99019000000038
 51
90.009811000000937
  0
ARC
  5
5D23
  8
AM_0
 10
142.29546871952911
 20
577.76905910961193
 30
0.0
 40
1.004942999999999
 50
270.28111000000013
 51
359.71888999999987
  0
ARC
  5
5D24
  8
AM_0
 10
142.3021187195292
 20
583.50586910961192
 30
0.0
 40
0.9982839799999999
 50
359.90142000000009
 51
90.098576000001358
  0
ARC
  5
5D25
  8
AM_0
 10
142.29808871952901
 20
591.75184910961195
 30
0.0
 40
1.002353
 50
0.1343268199984526
 51
89.865672999999376
  0
ARC
  5
5D26
  8
AM_0
 10
142.5958787195288
 20
587.15870910961212
 30
0.0
 40
0.704566
 50
270.3700999999968
 51
359.62990999999778
  0
ARC
  5
5D27
  8
AM_0
 10
142.3013887195288
 20
596.26514910961214
 30
0.0
 40
0.9990100299999999
 50
359.94319000000121
 51
90.056808999996804
  0
ARC
  5
5D28
  8
AM_0
 10
142.80211871952901
 20
598.86585910961185
 30
0.0
 40
0.4983060100000002
 50
359.80488999999778
 51
90.195107000000036
  0
ARC
  5
5D29
  8
AM_0
 10
142.7958287195292
 20
601.01880910961199
 30
0.0
 40
0.50463498
 50
270.52383000000037
 51
359.47616999999963
  0
ARC
  5
5D2A
  8
AM_0
 10
154.84502871952901
 20
515.76417910961197
 30
0.0
 40
1.000013899999999
 50
89.69165999999926
 51
270.30834000000078
  0
ARC
  5
5D2B
  8
AM_0
 10
257.12041871952903
 20
585.80921910961194
 30
0.0
 40
1.6750020000000001
 50
269.999989999999
 51
90.00000299999769
  0
ARC
  5
5D2C
  8
AM_0
 10
253.64043871952899
 20
585.76417910961209
 30
0.0
 40
1.0
 50
269.999989999999
 51
90.00000299999769
  0
ARC
  5
5D2D
  8
AM_0
 10
253.64043871952899
 20
515.76417910961197
 30
0.0
 40
1.0
 50
269.999989999999
 51
90.00000299999769
  0
ARC
  5
5D2E
  8
AM_0
 10
257.12041871952903
 20
515.7191291096118
 30
0.0
 40
1.6750020000000001
 50
269.999989999999
 51
90.00000299999769
  0
ARC
  5
5D2F
  8
AM_0
 10
142.29704871952899
 20
518.02747910961205
 30
0.0
 40
1.003352
 50
270.19110999999691
 51
359.80890000000107
  0
ARC
  5
5D30
  8
AM_0
 10
142.29546871952911
 20
527.76905910961182
 30
0.0
 40
1.0049469
 50
270.28136999999919
 51
359.7186300000007
  0
ARC
  5
5D31
  8
AM_0
 10
142.3005887195288
 20
523.7642991096119
 30
0.0
 40
0.9998239899999999
 50
359.98991999999532
 51
90.01007700000045
  0
ARC
  5
5D32
  8
AM_0
 10
142.60094871952921
 20
514.37476910961198
 30
0.0
 40
0.6994530000000001
 50
359.95517000000092
 51
90.044828999997534
  0
ARC
  5
5D33
  8
AM_0
 10
140.50340871952901
 20
516.07935910961214
 30
0.0
 40
1.005233
 50
246.9863899999973
 51
269.82924999999938
  0
ARC
  5
5D34
  8
AM_0
 10
140.4409787195288
 20
518.02686910961188
 30
0.0
 40
1.002699
 50
253.75272000000149
 51
270.54064000000108
  0
ARC
  5
5D35
  8
AM_0
 10
139.29680871952911
 20
518.37855910961196
 30
0.0
 40
0.99638802
 50
180.24990999999889
 51
253.29664000000031
  0
ARC
  5
5D36
  8
AM_0
 10
139.29692871952921
 20
516.59266910961185
 30
0.0
 40
0.9965090199999998
 50
179.9137499999965
 51
247.17845000000281
  0
ARC
  5
5D37
  8
AM_0
 10
139.300658719529
 20
525.76441910961194
 30
0.0
 40
1.0001959999999981
 50
180.01124999999951
 51
269.98875000000061
  0
ARC
  5
5D38
  8
AM_0
 10
139.29552871952899
 20
525.76905910961182
 30
0.0
 40
0.9950849999999999
 50
89.716282999996153
 51
180.28371999999919
  0
ARC
  5
5D39
  8
AM_0
 10
139.300658719529
 20
535.76441910961205
 30
0.0
 40
1.0001999999999991
 50
180.01145999999861
 51
269.98854000000142
  0
ARC
  5
5D3A
  8
AM_0
 10
139.29552871952899
 20
535.76905910961193
 30
0.0
 40
0.9950810099999999
 50
89.716072000003336
 51
180.2839200000044
  0
ARC
  5
5D3B
  8
AM_0
 10
139.300658719529
 20
545.76441910961205
 30
0.0
 40
1.0002040000000001
 50
180.01165999999679
 51
269.98832000000078
  0
ARC
  5
5D3C
  8
AM_0
 10
139.29552871952899
 20
545.76905910961193
 30
0.0
 40
0.9950770099999999
 50
89.715859999999481
 51
180.28414000000049
  0
ARC
  5
5D3D
  8
AM_0
 10
142.29546871952911
 20
547.76905910961193
 30
0.0
 40
1.004942999999999
 50
270.28113999999943
 51
359.71886999999822
  0
ARC
  5
5D3E
  8
AM_0
 10
142.3005887195288
 20
543.76429910961201
 30
0.0
 40
0.9998279799999998
 50
359.99015999999688
 51
90.009838000000187
  0
ARC
  5
5D3F
  8
AM_0
 10
142.29546871952911
 20
537.76905910961193
 30
0.0
 40
1.004939
 50
270.280940000003
 51
359.71907000000078
  0
ARC
  5
5D40
  8
AM_0
 10
142.3005887195288
 20
533.76429910961201
 30
0.0
 40
0.9998210099999999
 50
359.98971999999799
 51
90.010282000004793
  0
ARC
  5
5D41
  8
AM_0
 10
153.97301871952919
 20
585.80921910961194
 30
0.0
 40
1.6750160000000001
 50
89.746144999997981
 51
270.25387000000092
  0
ARC
  5
5D42
  8
AM_0
 10
154.84502871952901
 20
585.76417910961209
 30
0.0
 40
1.000013899999999
 50
89.69165999999926
 51
270.30834000000078
  0
ARC
  5
5D43
  8
AM_0
 10
154.84502871952901
 20
575.76417910961186
 30
0.0
 40
1.000013899999999
 50
89.69165999999926
 51
270.30834000000078
  0
ARC
  5
5D44
  8
AM_0
 10
154.84502871952901
 20
565.76417910961197
 30
0.0
 40
1.000013899999999
 50
89.69165999999926
 51
270.30834000000078
  0
ARC
  5
5D45
  8
AM_0
 10
154.84502871952901
 20
555.76417910961209
 30
0.0
 40
1.000013899999999
 50
89.69165999999926
 51
270.30834000000078
  0
ARC
  5
5D46
  8
AM_0
 10
154.84502871952901
 20
545.76417910961186
 30
0.0
 40
1.000013899999999
 50
89.69165999999926
 51
270.30834000000078
  0
ARC
  5
5D47
  8
AM_0
 10
154.84502871952901
 20
535.76417910961209
 30
0.0
 40
1.000013899999999
 50
89.69165999999926
 51
270.30834000000078
  0
ARC
  5
5D48
  8
AM_0
 10
154.84502871952901
 20
525.76417910961186
 30
0.0
 40
1.000013899999999
 50
89.69165999999926
 51
270.30834000000078
  0
ARC
  5
5D49
  8
AM_0
 10
153.76042871952899
 20
575.78919910961201
 30
0.0
 40
1.465004
 50
90.00000299999769
 51
270.0
  0
ARC
  5
5D4A
  8
AM_0
 10
153.63042871952899
 20
565.77418910961205
 30
0.0
 40
1.3300049999999981
 50
90.00000299999769
 51
270.0
  0
ARC
  5
5D4B
  8
AM_0
 10
153.56456871952901
 20
555.76917910961185
 30
0.0
 40
1.2650129999999991
 50
89.735579000001735
 51
270.2644100000025
  0
ARC
  5
5D4C
  8
AM_0
 10
153.56456871952901
 20
545.76417910961186
 30
0.0
 40
1.2700129999999981
 50
89.736617000001587
 51
270.26336999999921
  0
ARC
  5
5D4D
  8
AM_0
 10
153.63042871952899
 20
535.75416910961201
 30
0.0
 40
1.3300049999999981
 50
90.00000299999769
 51
270.0
  0
ARC
  5
5D4E
  8
AM_0
 10
153.76042871952899
 20
525.73914910961207
 30
0.0
 40
1.465004
 50
90.00000299999769
 51
270.0
  0
ARC
  5
5D4F
  8
AM_0
 10
153.973568719529
 20
515.7191291096118
 30
0.0
 40
1.675014
 50
89.766499000003279
 51
270.2335099999994
  0
ARC
  5
5D50
  8
AM_0
 10
142.29717871952909
 20
509.7909091096119
 30
0.0
 40
1.0032760000000001
 50
334.19810000000479
 51
359.61810999999818
  0
ARC
  5
5D51
  8
AM_0
 10
139.298888719529
 20
510.5234491096121
 30
0.0
 40
0.9984580299999999
 50
179.95957999999851
 51
239.38657000000219
  0
ARC
  5
5D52
  8
AM_0
 10
155.49913871952899
 20
605.05005910961199
 30
0.0
 40
1.994108999999999
 50
89.675547999996226
 51
169.18776999999841
  0
ARC
  5
5D53
  8
AM_0
 10
155.550658719529
 20
607.89893910961212
 30
0.0
 40
1.995282999999997
 50
90.006203999996856
 51
170.90835000000069
  0
ARC
  5
5D54
  8
AM_0
 10
155.564998719529
 20
609.74744910961192
 30
0.0
 40
1.9967330000000001
 50
89.843966999998912
 51
171.45388000000349
  0
ARC
  5
5D55
  8
AM_0
 10
155.58690871952899
 20
610.65857910961199
 30
0.0
 40
1.995633
 50
89.899708000002292
 51
172.06112999999991
  0
ARC
  5
5D56
  8
AM_0
 10
252.43053871952901
 20
605.04590910961213
 30
0.0
 40
1.9982919999999991
 50
15.032547999996
 51
90.002632000001341
  0
ARC
  5
5D57
  8
AM_0
 10
259.95360871952897
 20
590.48694910961194
 30
0.0
 40
1.502775999999999
 50
194.75642999999889
 51
269.87757999999872
  0
ARC
  5
5D58
  8
AM_0
 10
252.4255887195292
 20
496.488909109612
 30
0.0
 40
2.0047290000000002
 50
270.13832000000423
 51
344.82650000000189
  0
ARC
  5
5D59
  8
AM_0
 10
139.29802871952921
 20
502.74878910961212
 30
0.0
 40
0.9976310099999999
 50
180.2678099999986
 51
240.07924000000381
  0
ARC
  5
5D5A
  8
AM_0
 10
139.29613871952901
 20
503.7945691096121
 30
0.0
 40
0.9956849800000001
 50
180.02113
 51
243.4091400000006
  0
ARC
  5
5D5B
  8
AM_0
 10
140.5811087195288
 20
502.01526910961212
 30
0.0
 40
1.001123999999999
 50
239.32782000000049
 51
269.38768000000198
  0
ARC
  5
5D5C
  8
AM_0
 10
140.54625871952879
 20
503.16346910961198
 30
0.0
 40
0.9993420200000001
 50
242.86200000000159
 51
269.6654599999984
  0
ARC
  5
5D5D
  8
AM_0
 10
140.57182871952921
 20
504.12781910961201
 30
0.0
 40
1.0037439999999991
 50
239.37113000000099
 51
270.49190000000061
  0
ARC
  5
5D5E
  8
AM_0
 10
140.555598719529
 20
505.26478910961191
 30
0.0
 40
1.0006820000000001
 50
241.6506200000012
 51
269.70392999999558
  0
ARC
  5
5D5F
  8
AM_0
 10
140.59319871952911
 20
508.6446691096121
 30
0.0
 40
1.000521999999999
 50
237.14618000000311
 51
270.41343999999708
  0
ARC
  5
5D60
  8
AM_0
 10
140.56377871952901
 20
509.78516910961218
 30
0.0
 40
1.0010449999999991
 50
240.47187000000309
 51
270.37970999999948
  0
ARC
  5
5D61
  8
AM_0
 10
139.298888719529
 20
510.5234491096121
 30
0.0
 40
0.9984580299999999
 50
179.95957999999851
 51
239.38657000000219
  0
ARC
  5
5D62
  8
AM_0
 10
139.2994987195288
 20
509.488909109612
 30
0.0
 40
0.9990889999999998
 50
179.6950899999965
 51
236.662090000002
  0
ARC
  5
5D63
  8
AM_0
 10
139.2981487195288
 20
505.92542910961191
 30
0.0
 40
0.9977070099999998
 50
180.074020000004
 51
242.04481000000081
  0
ARC
  5
5D64
  8
AM_0
 10
139.29918871952901
 20
504.88770910961199
 30
0.0
 40
0.9987969999999998
 50
179.62728000000101
 51
238.7079499999964
  0
ARC
  5
5D65
  8
AM_0
 10
142.2979687195288
 20
509.786639109612
 30
0.0
 40
1.002470999999999
 50
270.14107000000013
 51
359.85892999999987
  0
ARC
  5
5D66
  8
AM_0
 10
142.29631871952901
 20
505.2683291096119
 30
0.0
 40
1.004119999999999
 50
270.23460999999998
 51
359.76539000000002
  0
ARC
  5
5D67
  8
AM_0
 10
142.79704871952899
 20
502.66761910961191
 30
0.0
 40
0.5033929900000002
 50
270.38491000000062
 51
359.61509999999811
  0
ARC
  5
5D68
  8
AM_0
 10
142.8008987195291
 20
500.5146591096119
 30
0.0
 40
0.49952301
 50
359.9452300000014
 51
90.054773999999625
  0
ARC
  5
5D69
  8
AM_0
 10
155.50530871952901
 20
496.4834091096119
 30
0.0
 40
1.9992490000000001
 50
190.643100000001
 51
270.14743000000129
  0
ARC
  5
5D6A
  8
AM_0
 10
155.5566387195291
 20
493.63453910961198
 30
0.0
 40
2.000420099999999
 50
188.92682000000181
 51
269.82270999999599
  0
ARC
  5
5D6B
  8
AM_0
 10
240.81401871952909
 20
486.76417910961197
 30
0.0
 40
1.5
 50
90.00000299999769
 51
178.4999999999973
  0
ARC
  5
5D6C
  8
AM_0
 10
252.3166487195291
 20
489.76417910961192
 30
0.0
 40
1.5
 50
269.999989999999
 51
326.99999999999892
  0
ARC
  5
5D6D
  8
AM_0
 10
155.28703871952899
 20
493.634169109612
 30
0.0
 40
2.0
 50
188.629619999998
 51
269.999989999999
  0
ARC
  5
5D6E
  8
AM_0
 10
155.206658719529
 20
493.634169109612
 30
0.0
 40
2.0
 50
187.9504400000034
 51
269.999989999999
  0
ARC
  5
5D6F
  8
AM_0
 10
177.69853871952901
 20
490.134169109612
 30
0.0
 40
1.5
 50
1.5000027000022329
 51
90.00000299999769
  0
ARC
  5
5D70
  8
AM_0
 10
188.73912871952891
 20
565.76417910961197
 30
0.0
 40
1.0000056999999991
 50
269.999989999999
 51
90.00000299999769
  0
ARC
  5
5D71
  8
AM_0
 10
188.73912871952891
 20
555.76417910961209
 30
0.0
 40
1.0000056999999991
 50
269.999989999999
 51
90.00000299999769
  0
ARC
  5
5D72
  8
AM_0
 10
188.73912871952891
 20
545.76417910961186
 30
0.0
 40
1.0000056999999991
 50
269.999989999999
 51
90.00000299999769
  0
ARC
  5
5D73
  8
AM_0
 10
188.73912871952891
 20
535.76417910961209
 30
0.0
 40
1.0000056999999991
 50
269.999989999999
 51
90.00000299999769
  0
ARC
  5
5D74
  8
AM_0
 10
239.300408719529
 20
518.26417910961209
 30
0.0
 40
1.5
 50
179.999989999999
 51
270.0
  0
ARC
  5
5D75
  8
AM_0
 10
221.3004087195292
 20
518.26417910961209
 30
0.0
 40
1.5
 50
269.999989999999
 51
0.0000006832495047
  0
ARC
  5
5D76
  8
AM_0
 10
221.32042871952919
 20
518.40418910961205
 30
0.0
 40
1.0
 50
269.999989999999
 51
0.0000006832495047
  0
ARC
  5
5D77
  8
AM_0
 10
239.28044871952901
 20
518.40418910961205
 30
0.0
 40
1.0
 50
179.999989999999
 51
270.0
  0
CIRCLE
  5
5D78
  8
AM_0
 10
227.800408719529
 20
579.26417910961186
 30
0.0
 40
1.1000000000000001
  0
CIRCLE
  5
5D79
  8
AM_0
 10
227.800408719529
 20
579.26417910961186
 30
0.0
 40
1.149999999999999
  0
CIRCLE
  5
5D7A
  8
AM_0
 10
232.800408719529
 20
579.26417910961186
 30
0.0
 40
1.0
  0
ARC
  5
5D7B
  8
AM_0
 10
221.3004087195292
 20
578.26417910961197
 30
0.0
 40
1.02
 50
269.999989999999
 51
0.0000006832429909
  0
ARC
  5
5D7C
  8
AM_0
 10
239.300408719529
 20
578.26417910961197
 30
0.0
 40
1.02
 50
179.999989999999
 51
270.0
  0
ARC
  5
5D7D
  8
AM_0
 10
221.3004087195292
 20
578.26417910961197
 30
0.0
 40
1.5
 50
269.999989999999
 51
0.0000006832495047
  0
ARC
  5
5D7E
  8
AM_0
 10
239.300408719529
 20
578.26417910961197
 30
0.0
 40
1.5
 50
179.999989999999
 51
270.0
  0
CIRCLE
  5
5D7F
  8
AM_0
 10
232.800408719529
 20
522.26417910961209
 30
0.0
 40
1.0
  0
CIRCLE
  5
5D80
  8
AM_0
 10
227.800408719529
 20
522.26417910961209
 30
0.0
 40
1.149999999999999
  0
CIRCLE
  5
5D81
  8
AM_0
 10
227.800408719529
 20
522.26417910961209
 30
0.0
 40
1.1000000000000001
  0
ARC
  5
5D82
  8
AM_0
 10
221.3004087195292
 20
523.26417910961197
 30
0.0
 40
1.02
 50
0.0
 51
90.00000299999769
  0
ARC
  5
5D83
  8
AM_0
 10
239.300408719529
 20
523.26417910961197
 30
0.0
 40
1.02
 50
90.00000299999769
 51
180.00001000000091
  0
ARC
  5
5D84
  8
AM_0
 10
221.3004087195292
 20
523.26417910961197
 30
0.0
 40
1.5
 50
0.0
 51
90.00000299999769
  0
ARC
  5
5D85
  8
AM_0
 10
239.300408719529
 20
523.26417910961197
 30
0.0
 40
1.5
 50
90.00000299999769
 51
180.00001000000091
  0
ARC
  5
5D86
  8
AM_0
 10
189.9653887195291
 20
535.75416910961201
 30
0.0
 40
1.3300148000000001
 50
269.7294199999987
 51
90.270567000000995
  0
ARC
  5
5D87
  8
AM_0
 10
190.02733871952901
 20
545.76417910961186
 30
0.0
 40
1.2700266
 50
269.62932000000001
 51
90.370670000004722
  0
ARC
  5
5D88
  8
AM_0
 10
190.02733871952901
 20
555.77418910961205
 30
0.0
 40
1.2700266
 50
269.62932000000001
 51
90.370670000004722
  0
ARC
  5
5D89
  8
AM_0
 10
189.9653887195291
 20
565.77918910961205
 30
0.0
 40
1.3350147999999991
 50
269.7304299999999
 51
90.269556000001344
  0
ARC
  5
5D8A
  8
AM_0
 10
253.64037871952911
 20
575.76417910961186
 30
0.0
 40
1.0000255999999981
 50
269.5894700000033
 51
90.410530999997775
  0
ARC
  5
5D8B
  8
AM_0
 10
257.34038871952902
 20
575.79420910961187
 30
0.0
 40
1.460011199999999
 50
269.77524999999667
 51
90.224749999996845
  0
ARC
  5
5D8C
  8
AM_0
 10
253.64037871952911
 20
525.76417910961186
 30
0.0
 40
1.0000255999999981
 50
269.5894700000033
 51
90.410530999997775
  0
ARC
  5
5D8D
  8
AM_0
 10
257.34038871952902
 20
525.73414910961185
 30
0.0
 40
1.460011199999999
 50
269.77524999999667
 51
90.224749999996845
  0
ARC
  5
5D8E
  8
AM_0
 10
239.28044871952901
 20
583.12415910961192
 30
0.0
 40
1.0
 50
90.00000299999769
 51
180.00001000000091
  0
ARC
  5
5D8F
  8
AM_0
 10
239.300408719529
 20
583.26417910961186
 30
0.0
 40
1.5
 50
90.00000299999769
 51
180.00001000000091
  0
ARC
  5
5D90
  8
AM_0
 10
221.3004087195292
 20
583.26417910961186
 30
0.0
 40
1.5
 50
0.0
 51
90.00000299999769
  0
ARC
  5
5D91
  8
AM_0
 10
221.32042871952919
 20
583.12415910961192
 30
0.0
 40
1.0
 50
0.0
 51
90.00000299999769
  0
POLYLINE
  5
5D92
  8
AM_0
 66
     1
 10
0.0
 20
0.0
 30
0.0
  0
VERTEX
  5
5D93
  8
AM_0
 10
154.6603987195291
 20
550.76417910961186
 30
0.0
 42
0.00039106593
  0
VERTEX
  5
5D94
  8
AM_0
 10
154.658038719529
 20
550.45303910961195
 30
0.0
 42
0.00040574899
  0
VERTEX
  5
5D95
  8
AM_0
 10
154.65616871952901
 20
550.14192910961185
 30
0.0
 42
0.0003534546
  0
VERTEX
  5
5D96
  8
AM_0
 10
154.65477871952911
 20
549.83082910961207
 30
0.0
 42
0.00034407327
  0
VERTEX
  5
5D97
  8
AM_0
 10
154.65379871952899
 20
549.51968910961205
 30
0.0
 42
0.00045699408
  0
VERTEX
  5
5D98
  8
AM_0
 10
154.6533387195291
 20
549.20857910961217
 30
0.0
 42
0.00035571853
  0
VERTEX
  5
5D99
  8
AM_0
 10
154.65337871952909
 20
548.89747910961205
 30
0.0
 42
0.00038547362
  0
VERTEX
  5
5D9A
  8
AM_0
 10
154.65386871952899
 20
548.58633910961191
 30
0.0
 42
0.00035501498
  0
VERTEX
  5
5D9B
  8
AM_0
 10
154.65482871952901
 20
548.27523910961202
 30
0.0
 42
0.00040118614
  0
VERTEX
  5
5D9C
  8
AM_0
 10
154.656248719529
 20
547.96399910961202
 30
0.0
 42
0.00038319871
  0
VERTEX
  5
5D9D
  8
AM_0
 10
154.6581587195291
 20
547.65286910961186
 30
0.0
 42
0.00040742136
  0
VERTEX
  5
5D9E
  8
AM_0
 10
154.66055871952909
 20
547.34163910961206
 30
0.0
 42
0.0003578071
  0
VERTEX
  5
5D9F
  8
AM_0
 10
154.66344871952899
 20
547.03052910961185
 30
0.0
  0
SEQEND
  5
5DA0
  8
AM_0
  0
POLYLINE
  5
5DA1
  8
AM_0
 66
     1
 10
0.0
 20
0.0
 30
0.0
  0
VERTEX
  5
5DA2
  8
AM_0
 10
154.70445871952899
 20
544.49378910961195
 30
0.0
 42
0.00076695232
  0
VERTEX
  5
5DA3
  8
AM_0
 10
154.71925871952891
 20
543.87602910961186
 30
0.0
 42
0.00073263044
  0
VERTEX
  5
5DA4
  8
AM_0
 10
154.73589871952919
 20
543.25842910961205
 30
0.0
 42
0.0007652599
  0
VERTEX
  5
5DA5
  8
AM_0
 10
154.754388719529
 20
542.64075910961185
 30
0.0
 42
0.00075144485
  0
VERTEX
  5
5DA6
  8
AM_0
 10
154.77475871952919
 20
542.02315910961181
 30
0.0
 42
0.00078594403
  0
VERTEX
  5
5DA7
  8
AM_0
 10
154.797008719529
 20
541.40572910961203
 30
0.0
 42
0.00073349202
  0
VERTEX
  5
5DA8
  8
AM_0
 10
154.82115871952891
 20
540.788349109612
 30
0.0
 42
0.0007358075
  0
VERTEX
  5
5DA9
  8
AM_0
 10
154.8470987195291
 20
540.17094910961202
 30
0.0
 42
0.00078592699
  0
VERTEX
  5
5DAA
  8
AM_0
 10
154.87492871952901
 20
539.55355910961202
 30
0.0
 42
0.00074823144
  0
VERTEX
  5
5DAB
  8
AM_0
 10
154.90465871952901
 20
538.93616910961225
 30
0.0
 42
0.00074896603
  0
VERTEX
  5
5DAC
  8
AM_0
 10
154.93621871952899
 20
538.31903910961205
 30
0.0
 42
0.00076039765
  0
VERTEX
  5
5DAD
  8
AM_0
 10
154.9696387195292
 20
537.70200910961205
 30
0.0
 42
0.00075616128
  0
VERTEX
  5
5DAE
  8
AM_0
 10
155.00493871952901
 20
537.08497910961205
 30
0.0
  0
SEQEND
  5
5DAF
  8
AM_0
  0
POLYLINE
  5
5DB0
  8
AM_0
 66
     1
 10
0.0
 20
0.0
 30
0.0
  0
VERTEX
  5
5DB1
  8
AM_0
 10
155.17864871952901
 20
534.42359910961193
 30
0.0
 42
0.00073721992
  0
VERTEX
  5
5DB2
  8
AM_0
 10
155.22279871952901
 20
533.82118910961185
 30
0.0
 42
0.00074398496
  0
VERTEX
  5
5DB3
  8
AM_0
 10
155.26872871952901
 20
533.21891910961187
 30
0.0
 42
0.00073322625
  0
VERTEX
  5
5DB4
  8
AM_0
 10
155.31645871952901
 20
532.61658910961205
 30
0.0
 42
0.00073594289
  0
VERTEX
  5
5DB5
  8
AM_0
 10
155.365938719529
 20
532.01459910961205
 30
0.0
 42
0.00074742568
  0
VERTEX
  5
5DB6
  8
AM_0
 10
155.41720871952899
 20
531.41273910961195
 30
0.0
 42
0.00073216749
  0
VERTEX
  5
5DB7
  8
AM_0
 10
155.47026871952909
 20
530.81092910961195
 30
0.0
 42
0.00074184065
  0
VERTEX
  5
5DB8
  8
AM_0
 10
155.52508871952901
 20
530.20939910961215
 30
0.0
 42
0.00072077528
  0
VERTEX
  5
5DB9
  8
AM_0
 10
155.5816687195292
 20
529.60816910961205
 30
0.0
 42
0.00074978179
  0
VERTEX
  5
5DBA
  8
AM_0
 10
155.64000871952891
 20
529.00696910961176
 30
0.0
 42
0.00074288888
  0
VERTEX
  5
5DBB
  8
AM_0
 10
155.70015871952901
 20
528.40594910961192
 30
0.0
 42
0.00072503679
  0
VERTEX
  5
5DBC
  8
AM_0
 10
155.762068719529
 20
527.80520910961195
 30
0.0
 42
0.00074640584
  0
VERTEX
  5
5DBD
  8
AM_0
 10
155.825738719529
 20
527.20460910961185
 30
0.0
  0
SEQEND
  5
5DBE
  8
AM_0
  0
POLYLINE
  5
5DBF
  8
AM_0
 66
     1
 10
0.0
 20
0.0
 30
0.0
  0
VERTEX
  5
5DC0
  8
AM_0
 10
156.16130871952899
 20
524.28113910961224
 30
0.0
 42
0.0006890001
  0
VERTEX
  5
5DC1
  8
AM_0
 10
156.23218871952881
 20
523.70638910961202
 30
0.0
 42
0.00070644651
  0
VERTEX
  5
5DC2
  8
AM_0
 10
156.304688719529
 20
523.13170910961185
 30
0.0
 42
0.0006924559
  0
VERTEX
  5
5DC3
  8
AM_0
 10
156.37877871952909
 20
522.55738910961202
 30
0.0
 42
0.00069587797
  0
VERTEX
  5
5DC4
  8
AM_0
 10
156.45445871952899
 20
521.98324910961185
 30
0.0
 42
0.00071687041
  0
VERTEX
  5
5DC5
  8
AM_0
 10
156.53176871952891
 20
521.40924910961201
 30
0.0
 42
0.00069759113
  0
VERTEX
  5
5DC6
  8
AM_0
 10
156.6107087195289
 20
520.83545910961209
 30
0.0
 42
0.00071003142
  0
VERTEX
  5
5DC7
  8
AM_0
 10
156.69124871952911
 20
520.26198910961182
 30
0.0
 42
0.00069954544
  0
VERTEX
  5
5DC8
  8
AM_0
 10
156.77338871952901
 20
519.68888910961186
 30
0.0
 42
0.0007188852
  0
VERTEX
  5
5DC9
  8
AM_0
 10
156.857168719529
 20
519.11585910961207
 30
0.0
 42
0.00071266165
  0
VERTEX
  5
5DCA
  8
AM_0
 10
156.94259871952909
 20
518.54309910961183
 30
0.0
 42
0.00071614577
  0
VERTEX
  5
5DCB
  8
AM_0
 10
157.029628719529
 20
517.9707491096118
 30
0.0
 42
0.00072290806
  0
VERTEX
  5
5DCC
  8
AM_0
 10
157.11833871952899
 20
517.3984491096121
 30
0.0
  0
SEQEND
  5
5DCD
  8
AM_0
  0
POLYLINE
  5
5DCE
  8
AM_0
 66
     1
 10
0.0
 20
0.0
 30
0.0
  0
VERTEX
  5
5DCF
  8
AM_0
 10
154.6603987195291
 20
550.76417910961186
 30
0.0
 42
-0.00039106653
  0
VERTEX
  5
5DD0
  8
AM_0
 10
154.658038719529
 20
551.07530910961202
 30
0.0
 42
-0.00040574511
  0
VERTEX
  5
5DD1
  8
AM_0
 10
154.65616871952901
 20
551.38641910961201
 30
0.0
 42
-0.00035346331
  0
VERTEX
  5
5DD2
  8
AM_0
 10
154.65477871952911
 20
551.69752910961199
 30
0.0
 42
-0.00034406545
  0
VERTEX
  5
5DD3
  8
AM_0
 10
154.65379871952899
 20
552.0086691096119
 30
0.0
 42
-0.00045699059
  0
VERTEX
  5
5DD4
  8
AM_0
 10
154.6533387195291
 20
552.31976910961203
 30
0.0
 42
-0.00035573431
  0
VERTEX
  5
5DD5
  8
AM_0
 10
154.65337871952909
 20
552.63086910961192
 30
0.0
 42
-0.00038545888
  0
VERTEX
  5
5DD6
  8
AM_0
 10
154.65386871952899
 20
552.94200910961194
 30
0.0
 42
-0.00035501203
  0
VERTEX
  5
5DD7
  8
AM_0
 10
154.65482871952901
 20
553.25311910961193
 30
0.0
 42
-0.00040120778
  0
VERTEX
  5
5DD8
  8
AM_0
 10
154.656248719529
 20
553.56434910961195
 30
0.0
 42
-0.00038317821
  0
VERTEX
  5
5DD9
  8
AM_0
 10
154.6581587195291
 20
553.875479109612
 30
0.0
 42
-0.00040741862
  0
VERTEX
  5
5DDA
  8
AM_0
 10
154.66055871952909
 20
554.18670910961202
 30
0.0
 42
-0.00035783324
  0
VERTEX
  5
5DDB
  8
AM_0
 10
154.66344871952899
 20
554.4978191096119
 30
0.0
  0
SEQEND
  5
5DDC
  8
AM_0
  0
POLYLINE
  5
5DDD
  8
AM_0
 66
     1
 10
0.0
 20
0.0
 30
0.0
  0
VERTEX
  5
5DDE
  8
AM_0
 10
154.70445871952899
 20
557.03455910961202
 30
0.0
 42
-0.00076691987
  0
VERTEX
  5
5DDF
  8
AM_0
 10
154.71925871952891
 20
557.65231910961199
 30
0.0
 42
-0.00073262795
  0
VERTEX
  5
5DE0
  8
AM_0
 10
154.73589871952919
 20
558.26991910961192
 30
0.0
 42
-0.0007652954
  0
VERTEX
  5
5DE1
  8
AM_0
 10
154.754388719529
 20
558.88758910961201
 30
0.0
 42
-0.00077334627
  0
VERTEX
  5
5DE2
  8
AM_0
 10
154.7747987195292
 20
559.50518910961205
 30
0.0
 42
-0.00073282897
  0
VERTEX
  5
5DE3
  8
AM_0
 10
154.79705871952899
 20
560.12260910961209
 30
0.0
 42
-0.0007571179
  0
VERTEX
  5
5DE4
  8
AM_0
 10
154.82115871952891
 20
560.74012910961187
 30
0.0
 42
-0.00073783152
  0
VERTEX
  5
5DE5
  8
AM_0
 10
154.8470987195291
 20
561.35751910961199
 30
0.0
 42
-0.0007835518
  0
VERTEX
  5
5DE6
  8
AM_0
 10
154.87492871952901
 20
561.97478910961195
 30
0.0
 42
-0.00074826133
  0
VERTEX
  5
5DE7
  8
AM_0
 10
154.90465871952901
 20
562.59217910961206
 30
0.0
 42
-0.00074893555
  0
VERTEX
  5
5DE8
  8
AM_0
 10
154.93621871952899
 20
563.20930910961192
 30
0.0
 42
-0.00076039841
  0
VERTEX
  5
5DE9
  8
AM_0
 10
154.9696387195292
 20
563.82633910961192
 30
0.0
 42
-0.00075618789
  0
VERTEX
  5
5DEA
  8
AM_0
 10
155.00493871952901
 20
564.44336910961192
 30
0.0
  0
SEQEND
  5
5DEB
  8
AM_0
  0
POLYLINE
  5
5DEC
  8
AM_0
 66
     1
 10
0.0
 20
0.0
 30
0.0
  0
VERTEX
  5
5DED
  8
AM_0
 10
155.17864871952901
 20
567.10474910961193
 30
0.0
 42
-0.0007337051
  0
VERTEX
  5
5DEE
  8
AM_0
 10
155.22278871952909
 20
567.70715910961201
 30
0.0
 42
-0.00075211323
  0
VERTEX
  5
5DEF
  8
AM_0
 10
155.26872871952901
 20
568.30955910961211
 30
0.0
 42
-0.0007297491
  0
VERTEX
  5
5DF0
  8
AM_0
 10
155.31645871952901
 20
568.91175910961192
 30
0.0
 42
-0.00073593041
  0
VERTEX
  5
5DF1
  8
AM_0
 10
155.365938719529
 20
569.51374910961192
 30
0.0
 42
-0.00074742739
  0
VERTEX
  5
5DF2
  8
AM_0
 10
155.41720871952899
 20
570.11560910961202
 30
0.0
 42
-0.00073217363
  0
VERTEX
  5
5DF3
  8
AM_0
 10
155.47026871952909
 20
570.71741910961214
 30
0.0
 42
-0.00073754168
  0
VERTEX
  5
5DF4
  8
AM_0
 10
155.52508871952901
 20
571.31895910961202
 30
0.0
 42
-0.00073075073
  0
VERTEX
  5
5DF5
  8
AM_0
 10
155.5816687195292
 20
571.92030910961216
 30
0.0
 42
-0.00074550816
  0
VERTEX
  5
5DF6
  8
AM_0
 10
155.64000871952891
 20
572.5213791096121
 30
0.0
 42
-0.00074288416
  0
VERTEX
  5
5DF7
  8
AM_0
 10
155.70015871952901
 20
573.12239910961205
 30
0.0
 42
-0.00072504001
  0
VERTEX
  5
5DF8
  8
AM_0
 10
155.762068719529
 20
573.72313910961202
 30
0.0
 42
-0.00074640667
  0
VERTEX
  5
5DF9
  8
AM_0
 10
155.825738719529
 20
574.32374910961187
 30
0.0
  0
SEQEND
  5
5DFA
  8
AM_0
  0
POLYLINE
  5
5DFB
  8
AM_0
 66
     1
 10
0.0
 20
0.0
 30
0.0
  0
VERTEX
  5
5DFC
  8
AM_0
 10
156.16130871952899
 20
577.24720910961196
 30
0.0
 42
-0.00068898283
  0
VERTEX
  5
5DFD
  8
AM_0
 10
156.23218871952881
 20
577.82195910961195
 30
0.0
 42
-0.00070644357
  0
VERTEX
  5
5DFE
  8
AM_0
 10
156.304688719529
 20
578.3966491096121
 30
0.0
 42
-0.00069248074
  0
VERTEX
  5
5DFF
  8
AM_0
 10
156.37877871952909
 20
578.97095910961195
 30
0.0
 42
-0.0006958566
  0
VERTEX
  5
5E00
  8
AM_0
 10
156.45445871952899
 20
579.54509910961212
 30
0.0
 42
-0.00071687219
  0
VERTEX
  5
5E01
  8
AM_0
 10
156.53176871952891
 20
580.11909910961185
 30
0.0
 42
-0.00069760022
  0
VERTEX
  5
5E02
  8
AM_0
 10
156.6107087195289
 20
580.69288910961211
 30
0.0
 42
-0.00071002302
  0
VERTEX
  5
5E03
  8
AM_0
 10
156.69124871952911
 20
581.26635910961193
 30
0.0
 42
-0.00069954889
  0
VERTEX
  5
5E04
  8
AM_0
 10
156.77338871952901
 20
581.83945910961211
 30
0.0
 42
-0.00071887947
  0
VERTEX
  5
5E05
  8
AM_0
 10
156.857168719529
 20
582.41248910961212
 30
0.0
 42
-0.00071266929
  0
VERTEX
  5
5E06
  8
AM_0
 10
156.94259871952909
 20
582.98525910961189
 30
0.0
 42
-0.00071614429
  0
VERTEX
  5
5E07
  8
AM_0
 10
157.029628719529
 20
583.55759910961194
 30
0.0
 42
-0.00072288978
  0
VERTEX
  5
5E08
  8
AM_0
 10
157.11833871952899
 20
584.12989910961187
 30
0.0
  0
SEQEND
  5
5E09
  8
AM_0
  0
LINE
  5
5E0A
  8
ﾁｭｳｼﾝｾﾝ1
 10
349.30037871952891
 20
615.76417910961197
 30
0.0
 11
369.30037871952891
 21
615.76417910961197
 31
0.0
  0
LINE
  5
5E0B
  8
ﾁｭｳｼﾝｾﾝ1
 10
359.30037871952891
 20
625.76417910961186
 30
0.0
 11
359.30037871952891
 21
605.76417910961209
 31
0.0
  0
LINE
  5
5E0D
  8
ﾁｭｳｼﾝｾﾝ1
 10
349.30037871952891
 20
485.76417910961197
 30
0.0
 11
369.30037871952891
 21
485.76417910961197
 31
0.0
  0
LINE
  5
5E0E
  8
ﾁｭｳｼﾝｾﾝ1
 10
359.30037871952891
 20
495.76417910961192
 30
0.0
 11
359.30037871952891
 21
475.76417910961192
 31
0.0
  0
LINE
  5
5E0F
  8
ﾁｭｳｼﾝｾﾝ1
 10
279.30037871952908
 20
485.76417910961197
 30
0.0
 11
299.30037871952908
 21
485.76417910961197
 31
0.0
  0
LINE
  5
5E10
  8
ﾁｭｳｼﾝｾﾝ1
 10
289.30037871952908
 20
495.76417910961192
 30
0.0
 11
289.30037871952908
 21
475.76417910961192
 31
0.0
  0
LINE
  5
5E11
  8
ﾁｭｳｼﾝｾﾝ1
 10
279.30037871952908
 20
615.76417910961197
 30
0.0
 11
299.30037871952908
 21
615.76417910961197
 31
0.0
  0
LINE
  5
5E12
  8
ﾁｭｳｼﾝｾﾝ1
 10
289.30037871952908
 20
625.76417910961186
 30
0.0
 11
289.30037871952908
 21
605.76417910961209
 31
0.0
  0
ARC
  5
5E13
  8
AM_0
 10
370.30035871952919
 20
580.15093410961185
 30
0.0
 40
2.00000007
 50
179.999989999999
 51
240.00000999999969
  0
ARC
  5
5E14
  8
AM_0
 10
370.30035871952919
 20
521.37742710961186
 30
0.0
 40
2.00000007
 50
120.0000000000005
 51
180.00001000000091
  0
LINE
  5
5E15
  8
AM_0
 10
374.30032871952881
 20
584.26417610961175
 30
0.0
 11
379.30032871952881
 21
579.26417610961198
 31
0.0
  0
LINE
  5
5E16
  8
AM_0
 10
369.80032871952892
 20
584.26417610961175
 30
0.0
 11
374.30032871952892
 21
584.26417610961175
 31
0.0
  0
LINE
  5
5E17
  8
AM_0
 10
369.30032871952892
 20
583.76417610961187
 30
0.0
 11
369.30032871952841
 21
517.76417610961255
 31
0.0
  0
LINE
  5
5E18
  8
AM_0
 10
379.30032871952881
 20
579.26417610961198
 30
0.0
 11
379.30032871952892
 21
522.26417610961221
 31
0.0
  0
LINE
  5
5E19
  8
AM_0
 10
369.80032871952892
 20
517.26417610961187
 30
0.0
 11
374.30032871952881
 21
517.26417610961187
 31
0.0
  0
LINE
  5
5E1A
  8
AM_0
 10
374.30032871952881
 20
517.26417610961187
 30
0.0
 11
379.30032871952881
 21
522.26417610961221
 31
0.0
  0
LINE
  5
5E1B
  8
AM_0
 10
369.80032871952892
 20
584.26417610961175
 30
0.0
 11
369.30032871952892
 21
583.76417610961187
 31
0.0
1001
GENIUS_GENFIL_13
1070
     0
1040
0.5
1040
0.5
1040
20.0
1040
0.0
1002
{
1002
}
1001
GENIUS_GENOBJ-N-CHA_13
1002
{
1000
OWNER
1000
GEN
1002
}
1001
GENIUS_GENODEF_13
1002
{
1000
HIER
1070
     0
1002
}
1002
{
1000
MANEDIT
1070
     0
1002
}
1002
{
1000
NOSEL
1070
     0
1002
}
1002
{
1000
BEHIND
1070
     0
1002
}
1002
{
1000
OTHER
1070
     0
1002
}
1002
{
1000
REACTOR
1002
}
  0
LINE
  5
5E1C
  8
AM_0
 10
369.30032871952892
 20
517.76417610961187
 30
0.0
 11
369.80032871952892
 21
517.26417610961187
 31
0.0
1001
GENIUS_GENFIL_13
1070
     0
1040
0.5
1040
0.5
1040
20.0
1040
0.0
1002
{
1002
}
1001
GENIUS_GENOBJ-N-CHA_13
1002
{
1000
OWNER
1000
GEN
1002
}
1001
GENIUS_GENODEF_13
1002
{
1000
HIER
1070
     0
1002
}
1002
{
1000
MANEDIT
1070
     0
1002
}
1002
{
1000
NOSEL
1070
     0
1002
}
1002
{
1000
BEHIND
1070
     0
1002
}
1002
{
1000
OTHER
1070
     0
1002
}
1002
{
1000
REACTOR
1002
}
  0
LINE
  5
5E1D
  8
AM_0
 10
374.30032871952892
 20
584.26417610961175
 30
0.0
 11
374.30032871952881
 21
517.26417610961187
 31
0.0
  0
TEXT
  5
601D
  8
AM_0
 10
501.94173074519631
 20
558.96915460438424
 30
0.0
 40
10.0
  1
VX02-040MW~VX02-060MW
  0
ENDSEC
  0
EOF
